  0
SECTION
  2
HEADER
  9
$ACADVER
  1
AC1021
  9
$ACADMAINTVER
 70
    25
  9
$DWGCODEPAGE
  3
ANSI_1252
  9
$INSBASE
 10
0.0
 20
0.0
 30
0.0
  9
$EXTMIN
 10
-1.66248
 20
-1.78323
 30
0.0
  9
$EXTMAX
 10
1.66248
 20
1.78323
 30
0.0
  9
$LIMMIN
 10
0.0
 20
0.0
  9
$LIMMAX
 10
12.0
 20
9.0
  9
$ORTHOMODE
 70
     0
  9
$REGENMODE
 70
     1
  9
$FILLMODE
 70
     1
  9
$QTEXTMODE
 70
     0
  9
$MIRRTEXT
 70
     1
  9
$LTSCALE
 40
1.0
  9
$ATTMODE
 70
     1
  9
$TEXTSIZE
 40
0.2
  9
$TRACEWID
 40
0.05
  9
$TEXTSTYLE
  7
Standard
  9
$CLAYER
  8
0
  9
$CELTYPE
  6
ByLayer
  9
$CECOLOR
 62
   256
  9
$CELTSCALE
 40
1.0
  9
$DISPSILH
 70
     0
  9
$DIMSCALE
 40
1.0
  9
$DIMASZ
 40
0.18
  9
$DIMEXO
 40
0.0625
  9
$DIMDLI
 40
0.38
  9
$DIMRND
 40
0.0
  9
$DIMDLE
 40
0.0
  9
$DIMEXE
 40
0.18
  9
$DIMTP
 40
0.0
  9
$DIMTM
 40
0.0
  9
$DIMTXT
 40
0.18
  9
$DIMCEN
 40
0.09
  9
$DIMTSZ
 40
0.0
  9
$DIMTOL
 70
     0
  9
$DIMLIM
 70
     0
  9
$DIMTIH
 70
     1
  9
$DIMTOH
 70
     1
  9
$DIMSE1
 70
     0
  9
$DIMSE2
 70
     0
  9
$DIMTAD
 70
     0
  9
$DIMZIN
 70
     0
  9
$DIMBLK
  1

  9
$DIMASO
 70
     1
  9
$DIMSHO
 70
     1
  9
$DIMPOST
  1

  9
$DIMAPOST
  1

  9
$DIMALT
 70
     0
  9
$DIMALTD
 70
     2
  9
$DIMALTF
 40
25.4
  9
$DIMLFAC
 40
1.0
  9
$DIMTOFL
 70
     0
  9
$DIMTVP
 40
0.0
  9
$DIMTIX
 70
     0
  9
$DIMSOXD
 70
     0
  9
$DIMSAH
 70
     0
  9
$DIMBLK1
  1

  9
$DIMBLK2
  1

  9
$DIMSTYLE
  2
Standard
  9
$DIMCLRD
 70
     0
  9
$DIMCLRE
 70
     0
  9
$DIMCLRT
 70
     0
  9
$DIMTFAC
 40
1.0
  9
$DIMGAP
 40
0.09
  9
$DIMJUST
 70
     0
  9
$DIMSD1
 70
     0
  9
$DIMSD2
 70
     0
  9
$DIMTOLJ
 70
     1
  9
$DIMTZIN
 70
     0
  9
$DIMALTZ
 70
     0
  9
$DIMALTTZ
 70
     0
  9
$DIMUPT
 70
     0
  9
$DIMDEC
 70
     4
  9
$DIMTDEC
 70
     4
  9
$DIMALTU
 70
     2
  9
$DIMALTTD
 70
     2
  9
$DIMTXSTY
  7
Standard
  9
$DIMAUNIT
 70
     0
  9
$DIMADEC
 70
     0
  9
$DIMALTRND
 40
0.0
  9
$DIMAZIN
 70
     0
  9
$DIMDSEP
 70
    46
  9
$DIMATFIT
 70
     3
  9
$DIMFRAC
 70
     0
  9
$DIMLDRBLK
  1

  9
$DIMLUNIT
 70
     2
  9
$DIMLWD
 70
    -2
  9
$DIMLWE
 70
    -2
  9
$DIMTMOVE
 70
     0
  9
$DIMFXL
 40
1.0
  9
$DIMFXLON
 70
     0
  9
$DIMJOGANG
 40
0.7853981633974483
  9
$DIMTFILL
 70
     0
  9
$DIMTFILLCLR
 70
     0
  9
$DIMARCSYM
 70
     0
  9
$DIMLTYPE
  6

  9
$DIMLTEX1
  6

  9
$DIMLTEX2
  6

  9
$LUNITS
 70
     2
  9
$LUPREC
 70
     4
  9
$SKETCHINC
 40
0.1
  9
$FILLETRAD
 40
0.5
  9
$AUNITS
 70
     0
  9
$AUPREC
 70
     0
  9
$MENU
  1
.
  9
$ELEVATION
 40
0.0
  9
$PELEVATION
 40
0.0
  9
$THICKNESS
 40
0.0
  9
$LIMCHECK
 70
     0
  9
$CHAMFERA
 40
0.5
  9
$CHAMFERB
 40
0.5
  9
$CHAMFERC
 40
1.0
  9
$CHAMFERD
 40
0.0
  9
$SKPOLY
 70
     0
  9
$TDCREATE
 40
2455614.959679768
  9
$TDUCREATE
 40
2455614.501346435
  9
$TDUPDATE
 40
2455614.95967978
  9
$TDUUPDATE
 40
2455614.501346447
  9
$TDINDWG
 40
0.0000000116
  9
$TDUSRTIMER
 40
0.0000000116
  9
$USRTIMER
 70
     1
  9
$ANGBASE
 50
0.0
  9
$ANGDIR
 70
     0
  9
$PDMODE
 70
     0
  9
$PDSIZE
 40
0.0
  9
$PLINEWID
 40
0.0
  9
$SPLFRAME
 70
     0
  9
$SPLINETYPE
 70
     6
  9
$SPLINESEGS
 70
     8
  9
$HANDSEED
  5
CF
  9
$SURFTAB1
 70
     6
  9
$SURFTAB2
 70
     6
  9
$SURFTYPE
 70
     6
  9
$SURFU
 70
     6
  9
$SURFV
 70
     6
  9
$UCSBASE
  2

  9
$UCSNAME
  2

  9
$UCSORG
 10
0.0
 20
0.0
 30
0.0
  9
$UCSXDIR
 10
1.0
 20
0.0
 30
0.0
  9
$UCSYDIR
 10
0.0
 20
1.0
 30
0.0
  9
$UCSORTHOREF
  2

  9
$UCSORTHOVIEW
 70
     0
  9
$UCSORGTOP
 10
0.0
 20
0.0
 30
0.0
  9
$UCSORGBOTTOM
 10
0.0
 20
0.0
 30
0.0
  9
$UCSORGLEFT
 10
0.0
 20
0.0
 30
0.0
  9
$UCSORGRIGHT
 10
0.0
 20
0.0
 30
0.0
  9
$UCSORGFRONT
 10
0.0
 20
0.0
 30
0.0
  9
$UCSORGBACK
 10
0.0
 20
0.0
 30
0.0
  9
$PUCSBASE
  2

  9
$PUCSNAME
  2

  9
$PUCSORG
 10
0.0
 20
0.0
 30
0.0
  9
$PUCSXDIR
 10
1.0
 20
0.0
 30
0.0
  9
$PUCSYDIR
 10
0.0
 20
1.0
 30
0.0
  9
$PUCSORTHOREF
  2

  9
$PUCSORTHOVIEW
 70
     0
  9
$PUCSORGTOP
 10
0.0
 20
0.0
 30
0.0
  9
$PUCSORGBOTTOM
 10
0.0
 20
0.0
 30
0.0
  9
$PUCSORGLEFT
 10
0.0
 20
0.0
 30
0.0
  9
$PUCSORGRIGHT
 10
0.0
 20
0.0
 30
0.0
  9
$PUCSORGFRONT
 10
0.0
 20
0.0
 30
0.0
  9
$PUCSORGBACK
 10
0.0
 20
0.0
 30
0.0
  9
$USERI1
 70
     0
  9
$USERI2
 70
     0
  9
$USERI3
 70
     0
  9
$USERI4
 70
     0
  9
$USERI5
 70
     0
  9
$USERR1
 40
0.0
  9
$USERR2
 40
0.0
  9
$USERR3
 40
0.0
  9
$USERR4
 40
0.0
  9
$USERR5
 40
0.0
  9
$WORLDVIEW
 70
     1
  9
$SHADEDGE
 70
     3
  9
$SHADEDIF
 70
    70
  9
$TILEMODE
 70
     1
  9
$MAXACTVP
 70
    64
  9
$PINSBASE
 10
0.0
 20
0.0
 30
0.0
  9
$PLIMCHECK
 70
     0
  9
$PEXTMIN
 10
1.000000000000000E+20
 20
1.000000000000000E+20
 30
1.000000000000000E+20
  9
$PEXTMAX
 10
-1.000000000000000E+20
 20
-1.000000000000000E+20
 30
-1.000000000000000E+20
  9
$PLIMMIN
 10
0.0
 20
0.0
  9
$PLIMMAX
 10
12.0
 20
9.0
  9
$UNITMODE
 70
     0
  9
$VISRETAIN
 70
     1
  9
$PLINEGEN
 70
     0
  9
$PSLTSCALE
 70
     1
  9
$TREEDEPTH
 70
  3020
  9
$CMLSTYLE
  2
Standard
  9
$CMLJUST
 70
     0
  9
$CMLSCALE
 40
1.0
  9
$PROXYGRAPHICS
 70
     1
  9
$MEASUREMENT
 70
     0
  9
$CELWEIGHT
370
    -1
  9
$ENDCAPS
280
     0
  9
$JOINSTYLE
280
     0
  9
$LWDISPLAY
290
     0
  9
$INSUNITS
 70
     5
  9
$HYPERLINKBASE
  1

  9
$STYLESHEET
  1

  9
$XEDIT
290
     1
  9
$CEPSNTYPE
380
     0
  9
$PSTYLEMODE
290
     1
  9
$FINGERPRINTGUID
  2
{7F7F7BA3-3E2A-40C0-BFEF-F1A04F286FF0}
  9
$VERSIONGUID
  2
{FAEB1C32-E019-11D5-929B-00C0DF256EC4}
  9
$EXTNAMES
290
     1
  9
$PSVPSCALE
 40
0.0
  9
$OLESTARTUP
290
     0
  9
$SORTENTS
280
   127
  9
$INDEXCTL
280
     0
  9
$HIDETEXT
280
     1
  9
$XCLIPFRAME
290
     0
  9
$HALOGAP
280
     0
  9
$OBSCOLOR
 70
   257
  9
$OBSLTYPE
280
     0
  9
$INTERSECTIONDISPLAY
280
     0
  9
$INTERSECTIONCOLOR
 70
   257
  9
$DIMASSOC
280
     2
  9
$PROJECTNAME
  1

  9
$CAMERADISPLAY
290
     0
  9
$LENSLENGTH
 40
50.0
  9
$CAMERAHEIGHT
 40
0.0
  9
$STEPSPERSEC
 40
2.0
  9
$STEPSIZE
 40
6.0
  9
$3DDWFPREC
 40
2.0
  9
$PSOLWIDTH
 40
0.25
  9
$PSOLHEIGHT
 40
4.0
  9
$LOFTANG1
 40
1.570796326794897
  9
$LOFTANG2
 40
1.570796326794897
  9
$LOFTMAG1
 40
0.0
  9
$LOFTMAG2
 40
0.0
  9
$LOFTPARAM
 70
     7
  9
$LOFTNORMALS
280
     1
  9
$LATITUDE
 40
37.795
  9
$LONGITUDE
 40
-122.394
  9
$NORTHDIRECTION
 40
0.0
  9
$TIMEZONE
 70
 -8000
  9
$LIGHTGLYPHDISPLAY
280
     1
  9
$TILEMODELIGHTSYNCH
280
     1
  9
$SOLIDHIST
280
     1
  9
$SHOWHIST
280
     1
  9
$DWFFRAME
280
     2
  9
$DGNFRAME
280
     2
  9
$REALWORLDSCALE
290
     1
  9
$INTERFERECOLOR
 62
   256
  9
$CSHADOW
280
     0
  9
$SHADOWPLANELOCATION
 40
0.0
  0
ENDSEC
  0
SECTION
  2
CLASSES
  0
CLASS
  1
ACDBDICTIONARYWDFLT
  2
AcDbDictionaryWithDefault
  3
ObjectDBX Classes
 90
        0
 91
        4
280
     0
281
     0
  0
CLASS
  1
VISUALSTYLE
  2
AcDbVisualStyle
  3
ObjectDBX Classes
 90
     4095
 91
        4
280
     0
281
     0
  0
CLASS
  1
MATERIAL
  2
AcDbMaterial
  3
ObjectDBX Classes
 90
     1153
 91
        4
280
     0
281
     0
  0
ENDSEC
  0
SECTION
  2
TABLES
  0
TABLE
  2
VPORT
  5
8
330
0
100
AcDbSymbolTable
 70
     1
  0
VPORT
  5
29
330
8
100
AcDbSymbolTableRecord
100
AcDbViewportTableRecord
  2
*Active
 70
     0
 10
0.0
 20
0.0
 11
1.0
 21
1.0
 12
10.42990654205607
 22
4.5
 13
0.0
 23
0.0
 14
0.5
 24
0.5
 15
0.5
 25
0.5
 16
0.0
 26
0.0
 36
1.0
 17
0.0
 27
0.0
 37
0.0
 40
9.0
 41
1.972972972850329
 42
50.0
 43
0.0
 44
0.0
 50
0.0
 51
0.0
 71
     0
 72
   100
 73
     1
 74
     3
 75
     0
 76
     0
 77
     0
 78
     0
281
     0
 65
     1
110
0.0
120
0.0
130
0.0
111
1.0
121
0.0
131
0.0
112
0.0
122
1.0
132
0.0
 79
     0
146
0.0
 60
     3
 61
     5
292
     1
282
     1
141
0.0
142
0.0
 63
   250
  0
ENDTAB
  0
TABLE
  2
LTYPE
  5
5
330
0
100
AcDbSymbolTable
 70
     1
  0
LTYPE
  5
14
330
5
100
AcDbSymbolTableRecord
100
AcDbLinetypeTableRecord
  2
ByBlock
 70
     0
  3

 72
    65
 73
     0
 40
0.0
  0
LTYPE
  5
15
330
5
100
AcDbSymbolTableRecord
100
AcDbLinetypeTableRecord
  2
ByLayer
 70
     0
  3

 72
    65
 73
     0
 40
0.0
  0
LTYPE
  5
16
330
5
100
AcDbSymbolTableRecord
100
AcDbLinetypeTableRecord
  2
Continuous
 70
     0
  3
Solid line
 72
    65
 73
     0
 40
0.0
  0
ENDTAB
  0
TABLE
  2
LAYER
  5
2
330
0
100
AcDbSymbolTable
 70
     2
  0
LAYER
  5
10
330
2
100
AcDbSymbolTableRecord
100
AcDbLayerTableRecord
  2
0
 70
     0
 62
     7
  6
Continuous
370
    -3
390
F
347
3E
  0
LAYER
  5
40
330
2
100
AcDbSymbolTableRecord
100
AcDbLayerTableRecord
  2
Layer 1
 70
     0
 62
     7
  6
Continuous
370
    -3
390
F
347
3E
  0
ENDTAB
  0
TABLE
  2
STYLE
  5
3
330
0
100
AcDbSymbolTable
 70
     1
  0
STYLE
  5
11
330
3
100
AcDbSymbolTableRecord
100
AcDbTextStyleTableRecord
  2
Standard
 70
     0
 40
0.0
 41
1.0
 50
0.0
 71
     0
 42
0.2
  3
txt
  4

  0
ENDTAB
  0
TABLE
  2
VIEW
  5
6
330
0
100
AcDbSymbolTable
 70
     0
  0
ENDTAB
  0
TABLE
  2
UCS
  5
7
330
0
100
AcDbSymbolTable
 70
     0
  0
ENDTAB
  0
TABLE
  2
APPID
  5
9
330
0
100
AcDbSymbolTable
 70
     2
  0
APPID
  5
12
330
9
100
AcDbSymbolTableRecord
100
AcDbRegAppTableRecord
  2
ACAD
 70
     0
  0
APPID
  5
3F
330
9
100
AcDbSymbolTableRecord
100
AcDbRegAppTableRecord
  2
ODA
 70
     0
  0
ENDTAB
  0
TABLE
  2
DIMSTYLE
  5
A
330
0
100
AcDbSymbolTable
 70
     1
100
AcDbDimStyleTable
  0
DIMSTYLE
105
27
330
A
100
AcDbSymbolTableRecord
100
AcDbDimStyleTableRecord
  2
Standard
 70
     0
178
     0
340
11
  0
ENDTAB
  0
TABLE
  2
BLOCK_RECORD
  5
1
330
0
100
AcDbSymbolTable
 70
     1
  0
BLOCK_RECORD
  5
1F
330
1
100
AcDbSymbolTableRecord
100
AcDbBlockTableRecord
  2
*Model_Space
340
22
 70
     0
280
     1
281
     0
  0
BLOCK_RECORD
  5
1B
330
1
100
AcDbSymbolTableRecord
100
AcDbBlockTableRecord
  2
*Paper_Space
340
1E
 70
     0
280
     1
281
     0
  0
BLOCK_RECORD
  5
23
330
1
100
AcDbSymbolTableRecord
100
AcDbBlockTableRecord
  2
*Paper_Space0
340
26
 70
     0
280
     1
281
     0
  0
ENDTAB
  0
ENDSEC
  0
SECTION
  2
BLOCKS
  0
BLOCK
  5
20
330
1F
100
AcDbEntity
  8
0
100
AcDbBlockBegin
  2
*Model_Space
 70
     0
 10
0.0
 20
0.0
 30
0.0
  3
*Model_Space
  1

  0
ENDBLK
  5
21
330
1F
100
AcDbEntity
  8
0
100
AcDbBlockEnd
  0
BLOCK
  5
1C
330
1B
100
AcDbEntity
 67
     1
  8
0
100
AcDbBlockBegin
  2
*Paper_Space
 70
     0
 10
0.0
 20
0.0
 30
0.0
  3
*Paper_Space
  1

  0
ENDBLK
  5
1D
330
1B
100
AcDbEntity
 67
     1
  8
0
100
AcDbBlockEnd
  0
BLOCK
  5
24
330
23
100
AcDbEntity
  8
0
100
AcDbBlockBegin
  2
*Paper_Space0
 70
     0
 10
0.0
 20
0.0
 30
0.0
  3
*Paper_Space0
  1

  0
ENDBLK
  5
25
330
23
100
AcDbEntity
  8
0
100
AcDbBlockEnd
  0
ENDSEC
  0
SECTION
  2
ENTITIES
  0
SPLINE
  5
41
330
1F
100
AcDbEntity
  8
Layer 1
370
     9
100
AcDbSpline
210
0.0
220
0.0
230
1.0
 70
     8
 71
     3
 72
   152
 73
   148
 74
     0
 42
0.0000000001
 43
0.0000000001
 40
0.0
 40
0.0
 40
0.0
 40
0.0
 40
0.0263157894736842
 40
0.0263157894736842
 40
0.0263157894736842
 40
0.0263157894736842
 40
0.0526315789473684
 40
0.0526315789473684
 40
0.0526315789473684
 40
0.0526315789473684
 40
0.0789473684210526
 40
0.0789473684210526
 40
0.0789473684210526
 40
0.0789473684210526
 40
0.1052631578947368
 40
0.1052631578947368
 40
0.1052631578947368
 40
0.1052631578947368
 40
0.131578947368421
 40
0.131578947368421
 40
0.131578947368421
 40
0.131578947368421
 40
0.1578947368421053
 40
0.1578947368421053
 40
0.1578947368421053
 40
0.1578947368421053
 40
0.1842105263157895
 40
0.1842105263157895
 40
0.1842105263157895
 40
0.1842105263157895
 40
0.2105263157894737
 40
0.2105263157894737
 40
0.2105263157894737
 40
0.2105263157894737
 40
0.2368421052631579
 40
0.2368421052631579
 40
0.2368421052631579
 40
0.2368421052631579
 40
0.2631578947368421
 40
0.2631578947368421
 40
0.2631578947368421
 40
0.2631578947368421
 40
0.2894736842105263
 40
0.2894736842105263
 40
0.2894736842105263
 40
0.2894736842105263
 40
0.3157894736842105
 40
0.3157894736842105
 40
0.3157894736842105
 40
0.3157894736842105
 40
0.3421052631578947
 40
0.3421052631578947
 40
0.3421052631578947
 40
0.3421052631578947
 40
0.3684210526315789
 40
0.3684210526315789
 40
0.3684210526315789
 40
0.3684210526315789
 40
0.3947368421052632
 40
0.3947368421052632
 40
0.3947368421052632
 40
0.3947368421052632
 40
0.4210526315789473
 40
0.4210526315789473
 40
0.4210526315789473
 40
0.4210526315789473
 40
0.4473684210526316
 40
0.4473684210526316
 40
0.4473684210526316
 40
0.4473684210526316
 40
0.4736842105263158
 40
0.4736842105263158
 40
0.4736842105263158
 40
0.4736842105263158
 40
0.5
 40
0.5
 40
0.5
 40
0.5
 40
0.5263157894736842
 40
0.5263157894736842
 40
0.5263157894736842
 40
0.5263157894736842
 40
0.5526315789473685
 40
0.5526315789473685
 40
0.5526315789473685
 40
0.5526315789473685
 40
0.5789473684210527
 40
0.5789473684210527
 40
0.5789473684210527
 40
0.5789473684210527
 40
0.6052631578947368
 40
0.6052631578947368
 40
0.6052631578947368
 40
0.6052631578947368
 40
0.631578947368421
 40
0.631578947368421
 40
0.631578947368421
 40
0.631578947368421
 40
0.6578947368421053
 40
0.6578947368421053
 40
0.6578947368421053
 40
0.6578947368421053
 40
0.6842105263157895
 40
0.6842105263157895
 40
0.6842105263157895
 40
0.6842105263157895
 40
0.7105263157894737
 40
0.7105263157894737
 40
0.7105263157894737
 40
0.7105263157894737
 40
0.7368421052631579
 40
0.7368421052631579
 40
0.7368421052631579
 40
0.7368421052631579
 40
0.7631578947368421
 40
0.7631578947368421
 40
0.7631578947368421
 40
0.7631578947368421
 40
0.7894736842105263
 40
0.7894736842105263
 40
0.7894736842105263
 40
0.7894736842105263
 40
0.8157894736842105
 40
0.8157894736842105
 40
0.8157894736842105
 40
0.8157894736842105
 40
0.8421052631578947
 40
0.8421052631578947
 40
0.8421052631578947
 40
0.8421052631578947
 40
0.868421052631579
 40
0.868421052631579
 40
0.868421052631579
 40
0.868421052631579
 40
0.8947368421052632
 40
0.8947368421052632
 40
0.8947368421052632
 40
0.8947368421052632
 40
0.9210526315789473
 40
0.9210526315789473
 40
0.9210526315789473
 40
0.9210526315789473
 40
0.9473684210526315
 40
0.9473684210526315
 40
0.9473684210526315
 40
0.9473684210526315
 40
1.0
 40
1.0
 40
1.0
 40
1.0
 10
-0.76253
 20
0.1855
 30
0.0
 10
-0.76517
 20
0.21679
 30
0.0
 10
-0.76767
 20
0.24332
 30
0.0
 10
-0.78423
 20
0.26452
 30
0.0
 10
-0.78423
 20
0.26452
 30
0.0
 10
-0.80659
 20
0.29315
 30
0.0
 10
-0.91917
 20
0.3646
 30
0.0
 10
-0.94638
 20
0.366
 30
0.0
 10
-0.94638
 20
0.366
 30
0.0
 10
-0.9743
 20
0.36743
 30
0.0
 10
-0.99142
 20
0.35803
 30
0.0
 10
-1.01163
 20
0.33047
 30
0.0
 10
-1.01163
 20
0.33047
 30
0.0
 10
-1.03184
 20
0.30291
 30
0.0
 10
-1.05014
 20
0.27437
 30
0.0
 10
-1.06512
 20
0.25133
 30
0.0
 10
-1.06512
 20
0.25133
 30
0.0
 10
-1.0801
 20
0.22829
 30
0.0
 10
-1.09176
 20
0.21075
 30
0.0
 10
-1.09965
 20
0.20478
 30
0.0
 10
-1.09965
 20
0.20478
 30
0.0
 10
-1.10755
 20
0.19882
 30
0.0
 10
-1.11168
 20
0.2044
 30
0.0
 10
-1.11695
 20
0.21136
 30
0.0
 10
-1.11695
 20
0.21136
 30
0.0
 10
-1.12222
 20
0.21831
 30
0.0
 10
-1.12864
 20
0.22663
 30
0.0
 10
-1.13432
 20
0.23317
 30
0.0
 10
-1.13432
 20
0.23317
 30
0.0
 10
-1.14001
 20
0.23971
 30
0.0
 10
-1.14498
 20
0.24447
 30
0.0
 10
-1.13384
 20
0.26067
 30
0.0
 10
-1.13384
 20
0.26067
 30
0.0
 10
-1.1227
 20
0.27686
 30
0.0
 10
-1.09546
 20
0.3045
 30
0.0
 10
-1.07628
 20
0.32757
 30
0.0
 10
-1.07628
 20
0.32757
 30
0.0
 10
-1.0571
 20
0.35064
 30
0.0
 10
-1.04599
 20
0.36915
 30
0.0
 10
-1.06124
 20
0.37676
 30
0.0
 10
-1.06124
 20
0.37676
 30
0.0
 10
-1.07649
 20
0.38437
 30
0.0
 10
-1.11812
 20
0.38107
 30
0.0
 10
-1.16288
 20
0.36625
 30
0.0
 10
-1.16288
 20
0.36625
 30
0.0
 10
-1.20764
 20
0.35142
 30
0.0
 10
-1.25554
 20
0.32506
 30
0.0
 10
-1.29476
 20
0.29191
 30
0.0
 10
-1.29476
 20
0.29191
 30
0.0
 10
-1.33398
 20
0.25876
 30
0.0
 10
-1.36451
 20
0.21881
 30
0.0
 10
-1.38181
 20
0.2024
 30
0.0
 10
-1.38181
 20
0.2024
 30
0.0
 10
-1.39911
 20
0.186
 30
0.0
 10
-1.40319
 20
0.19313
 30
0.0
 10
-1.40908
 20
0.20077
 30
0.0
 10
-1.40908
 20
0.20077
 30
0.0
 10
-1.41497
 20
0.20841
 30
0.0
 10
-1.42267
 20
0.21655
 30
0.0
 10
-1.42788
 20
0.22205
 30
0.0
 10
-1.42788
 20
0.22205
 30
0.0
 10
-1.43309
 20
0.22756
 30
0.0
 10
-1.4358
 20
0.23043
 30
0.0
 10
-1.42878
 20
0.23892
 30
0.0
 10
-1.42878
 20
0.23892
 30
0.0
 10
-1.42176
 20
0.24741
 30
0.0
 10
-1.40501
 20
0.26153
 30
0.0
 10
-1.38172
 20
0.28286
 30
0.0
 10
-1.38172
 20
0.28286
 30
0.0
 10
-1.35842
 20
0.3042
 30
0.0
 10
-1.32858
 20
0.33275
 30
0.0
 10
-1.36088
 20
0.36285
 30
0.0
 10
-1.36088
 20
0.36285
 30
0.0
 10
-1.39319
 20
0.39295
 30
0.0
 10
-1.48764
 20
0.4246
 30
0.0
 10
-1.5358
 20
0.44265
 30
0.0
 10
-1.5358
 20
0.44265
 30
0.0
 10
-1.58396
 20
0.4607
 30
0.0
 10
-1.58583
 20
0.46515
 30
0.0
 10
-1.58912
 20
0.473
 30
0.0
 10
-1.58912
 20
0.473
 30
0.0
 10
-1.59241
 20
0.48084
 30
0.0
 10
-1.59713
 20
0.49208
 30
0.0
 10
-1.60182
 20
0.50417
 30
0.0
 10
-1.60182
 20
0.50417
 30
0.0
 10
-1.60652
 20
0.51627
 30
0.0
 10
-1.61119
 20
0.52921
 30
0.0
 10
-1.59523
 20
0.52696
 30
0.0
 10
-1.59523
 20
0.52696
 30
0.0
 10
-1.57927
 20
0.52471
 30
0.0
 10
-1.54266
 20
0.50725
 30
0.0
 10
-1.51062
 20
0.49303
 30
0.0
 10
-1.51062
 20
0.49303
 30
0.0
 10
-1.47857
 20
0.47881
 30
0.0
 10
-1.45109
 20
0.46783
 30
0.0
 10
-1.41928
 20
0.45355
 30
0.0
 10
-1.41928
 20
0.45355
 30
0.0
 10
-1.38748
 20
0.43928
 30
0.0
 10
-1.35135
 20
0.4217
 30
0.0
 10
-1.32387
 20
0.41017
 30
0.0
 10
-1.32387
 20
0.41017
 30
0.0
 10
-1.29638
 20
0.39864
 30
0.0
 10
-1.27753
 20
0.39315
 30
0.0
 10
-1.23984
 20
0.40303
 30
0.0
 10
-1.23984
 20
0.40303
 30
0.0
 10
-1.20214
 20
0.41292
 30
0.0
 10
-1.1456
 20
0.43818
 30
0.0
 10
-1.13098
 20
0.45826
 30
0.0
 10
-1.13098
 20
0.45826
 30
0.0
 10
-1.11635
 20
0.47834
 30
0.0
 10
-1.14364
 20
0.49325
 30
0.0
 10
-1.18487
 20
0.50533
 30
0.0
 10
-1.18487
 20
0.50533
 30
0.0
 10
-1.2261
 20
0.51741
 30
0.0
 10
-1.28126
 20
0.52666
 30
0.0
 10
-1.30881
 20
0.53513
 30
0.0
 10
-1.30881
 20
0.53513
 30
0.0
 10
-1.33636
 20
0.54361
 30
0.0
 10
-1.33628
 20
0.55131
 30
0.0
 10
-1.33648
 20
0.56139
 30
0.0
 10
-1.33648
 20
0.56139
 30
0.0
 10
-1.33668
 20
0.57148
 30
0.0
 10
-1.33715
 20
0.58396
 30
0.0
 10
-1.33697
 20
0.59549
 30
0.0
 10
-1.33697
 20
0.59549
 30
0.0
 10
-1.33679
 20
0.60701
 30
0.0
 10
-1.33595
 20
0.61758
 30
0.0
 10
-1.31573
 20
0.61518
 30
0.0
 10
-1.31573
 20
0.61518
 30
0.0
 10
-1.29551
 20
0.61278
 30
0.0
 10
-1.25589
 20
0.59741
 30
0.0
 10
-1.21606
 20
0.58313
 30
0.0
 10
-1.21606
 20
0.58313
 30
0.0
 10
-1.17623
 20
0.56886
 30
0.0
 10
-1.13618
 20
0.55568
 30
0.0
 10
-1.10398
 20
0.54086
 30
0.0
 10
-1.10398
 20
0.54086
 30
0.0
 10
-1.04812
 20
0.51514
 30
0.0
 10
-0.95952
 20
0.46831
 30
0.0
 10
-0.90403
 20
0.4386
 30
0.0
 10
-0.90403
 20
0.4386
 30
0.0
 10
-0.86585
 20
0.41815
 30
0.0
 10
-0.81698
 20
0.37616
 30
0.0
 10
-0.79162
 20
0.37342
 30
0.0
 10
-0.79162
 20
0.37342
 30
0.0
 10
-0.76625
 20
0.37068
 30
0.0
 10
-0.76439
 20
0.4072
 30
0.0
 10
-0.76253
 20
0.44371
 30
0.0
  0
SPLINE
  5
42
330
1F
100
AcDbEntity
  8
Layer 1
370
     9
100
AcDbSpline
210
0.0
220
0.0
230
1.0
 70
     8
 71
     3
 72
   196
 73
   192
 74
     0
 42
0.0000000001
 43
0.0000000001
 40
0.0
 40
0.0
 40
0.0
 40
0.0
 40
0.0204081632653061
 40
0.0204081632653061
 40
0.0204081632653061
 40
0.0204081632653061
 40
0.0408163265306122
 40
0.0408163265306122
 40
0.0408163265306122
 40
0.0408163265306122
 40
0.0612244897959184
 40
0.0612244897959184
 40
0.0612244897959184
 40
0.0612244897959184
 40
0.0816326530612245
 40
0.0816326530612245
 40
0.0816326530612245
 40
0.0816326530612245
 40
0.1020408163265306
 40
0.1020408163265306
 40
0.1020408163265306
 40
0.1020408163265306
 40
0.1224489795918367
 40
0.1224489795918367
 40
0.1224489795918367
 40
0.1224489795918367
 40
0.1428571428571428
 40
0.1428571428571428
 40
0.1428571428571428
 40
0.1428571428571428
 40
0.163265306122449
 40
0.163265306122449
 40
0.163265306122449
 40
0.163265306122449
 40
0.1836734693877551
 40
0.1836734693877551
 40
0.1836734693877551
 40
0.1836734693877551
 40
0.2040816326530612
 40
0.2040816326530612
 40
0.2040816326530612
 40
0.2040816326530612
 40
0.2244897959183673
 40
0.2244897959183673
 40
0.2244897959183673
 40
0.2244897959183673
 40
0.2448979591836735
 40
0.2448979591836735
 40
0.2448979591836735
 40
0.2448979591836735
 40
0.2653061224489796
 40
0.2653061224489796
 40
0.2653061224489796
 40
0.2653061224489796
 40
0.2857142857142857
 40
0.2857142857142857
 40
0.2857142857142857
 40
0.2857142857142857
 40
0.3061224489795918
 40
0.3061224489795918
 40
0.3061224489795918
 40
0.3061224489795918
 40
0.3265306122448979
 40
0.3265306122448979
 40
0.3265306122448979
 40
0.3265306122448979
 40
0.3469387755102041
 40
0.3469387755102041
 40
0.3469387755102041
 40
0.3469387755102041
 40
0.3673469387755102
 40
0.3673469387755102
 40
0.3673469387755102
 40
0.3673469387755102
 40
0.3877551020408163
 40
0.3877551020408163
 40
0.3877551020408163
 40
0.3877551020408163
 40
0.4081632653061225
 40
0.4081632653061225
 40
0.4081632653061225
 40
0.4081632653061225
 40
0.4285714285714285
 40
0.4285714285714285
 40
0.4285714285714285
 40
0.4285714285714285
 40
0.4489795918367347
 40
0.4489795918367347
 40
0.4489795918367347
 40
0.4489795918367347
 40
0.4693877551020408
 40
0.4693877551020408
 40
0.4693877551020408
 40
0.4693877551020408
 40
0.4897959183673469
 40
0.4897959183673469
 40
0.4897959183673469
 40
0.4897959183673469
 40
0.5102040816326531
 40
0.5102040816326531
 40
0.5102040816326531
 40
0.5102040816326531
 40
0.5306122448979592
 40
0.5306122448979592
 40
0.5306122448979592
 40
0.5306122448979592
 40
0.5510204081632653
 40
0.5510204081632653
 40
0.5510204081632653
 40
0.5510204081632653
 40
0.5714285714285714
 40
0.5714285714285714
 40
0.5714285714285714
 40
0.5714285714285714
 40
0.5918367346938775
 40
0.5918367346938775
 40
0.5918367346938775
 40
0.5918367346938775
 40
0.6122448979591837
 40
0.6122448979591837
 40
0.6122448979591837
 40
0.6122448979591837
 40
0.6326530612244898
 40
0.6326530612244898
 40
0.6326530612244898
 40
0.6326530612244898
 40
0.6530612244897959
 40
0.6530612244897959
 40
0.6530612244897959
 40
0.6530612244897959
 40
0.673469387755102
 40
0.673469387755102
 40
0.673469387755102
 40
0.673469387755102
 40
0.6938775510204082
 40
0.6938775510204082
 40
0.6938775510204082
 40
0.6938775510204082
 40
0.7142857142857143
 40
0.7142857142857143
 40
0.7142857142857143
 40
0.7142857142857143
 40
0.7346938775510204
 40
0.7346938775510204
 40
0.7346938775510204
 40
0.7346938775510204
 40
0.7551020408163265
 40
0.7551020408163265
 40
0.7551020408163265
 40
0.7551020408163265
 40
0.7755102040816326
 40
0.7755102040816326
 40
0.7755102040816326
 40
0.7755102040816326
 40
0.7959183673469388
 40
0.7959183673469388
 40
0.7959183673469388
 40
0.7959183673469388
 40
0.8163265306122449
 40
0.8163265306122449
 40
0.8163265306122449
 40
0.8163265306122449
 40
0.8367346938775511
 40
0.8367346938775511
 40
0.8367346938775511
 40
0.8367346938775511
 40
0.8571428571428571
 40
0.8571428571428571
 40
0.8571428571428571
 40
0.8571428571428571
 40
0.8775510204081632
 40
0.8775510204081632
 40
0.8775510204081632
 40
0.8775510204081632
 40
0.8979591836734694
 40
0.8979591836734694
 40
0.8979591836734694
 40
0.8979591836734694
 40
0.9183673469387755
 40
0.9183673469387755
 40
0.9183673469387755
 40
0.9183673469387755
 40
0.9387755102040817
 40
0.9387755102040817
 40
0.9387755102040817
 40
0.9387755102040817
 40
0.9591836734693877
 40
0.9591836734693877
 40
0.9591836734693877
 40
0.9591836734693877
 40
1.0
 40
1.0
 40
1.0
 40
1.0
 10
-0.55343
 20
0.49149
 30
0.0
 10
-0.54962
 20
0.51702
 30
0.0
 10
-0.54581
 20
0.54255
 30
0.0
 10
-0.53518
 20
0.56204
 30
0.0
 10
-0.53518
 20
0.56204
 30
0.0
 10
-0.52456
 20
0.58153
 30
0.0
 10
-0.50712
 20
0.59496
 30
0.0
 10
-0.46854
 20
0.62213
 30
0.0
 10
-0.46854
 20
0.62213
 30
0.0
 10
-0.42996
 20
0.64931
 30
0.0
 10
-0.37025
 20
0.69021
 30
0.0
 10
-0.30977
 20
0.71395
 30
0.0
 10
-0.30977
 20
0.71395
 30
0.0
 10
-0.24928
 20
0.7377
 30
0.0
 10
-0.18803
 20
0.74429
 30
0.0
 10
-0.1272
 20
0.72427
 30
0.0
 10
-0.1272
 20
0.72427
 30
0.0
 10
-0.06637
 20
0.70426
 30
0.0
 10
-0.00597
 20
0.65762
 30
0.0
 10
0.04302
 20
0.63404
 30
0.0
 10
0.04302
 20
0.63404
 30
0.0
 10
0.09201
 20
0.61047
 30
0.0
 10
0.12959
 20
0.60994
 30
0.0
 10
0.1612
 20
0.61488
 30
0.0
 10
0.1612
 20
0.61488
 30
0.0
 10
0.19281
 20
0.61982
 30
0.0
 10
0.21844
 20
0.63023
 30
0.0
 10
0.2456
 20
0.64012
 30
0.0
 10
0.2456
 20
0.64012
 30
0.0
 10
0.27276
 20
0.65001
 30
0.0
 10
0.30145
 20
0.65937
 30
0.0
 10
0.31688
 20
0.667
 30
0.0
 10
0.31688
 20
0.667
 30
0.0
 10
0.33233
 20
0.67464
 30
0.0
 10
0.33452
 20
0.68054
 30
0.0
 10
0.33636
 20
0.69213
 30
0.0
 10
0.33636
 20
0.69213
 30
0.0
 10
0.33821
 20
0.70372
 30
0.0
 10
0.33971
 20
0.721
 30
0.0
 10
0.34063
 20
0.73234
 30
0.0
 10
0.34063
 20
0.73234
 30
0.0
 10
0.34156
 20
0.74368
 30
0.0
 10
0.34192
 20
0.74908
 30
0.0
 10
0.3101
 20
0.73922
 30
0.0
 10
0.3101
 20
0.73922
 30
0.0
 10
0.27829
 20
0.72935
 30
0.0
 10
0.2143
 20
0.70421
 30
0.0
 10
0.16581
 20
0.69435
 30
0.0
 10
0.16581
 20
0.69435
 30
0.0
 10
0.11732
 20
0.6845
 30
0.0
 10
0.08432
 20
0.68993
 30
0.0
 10
0.05165
 20
0.70618
 30
0.0
 10
0.05165
 20
0.70618
 30
0.0
 10
0.01897
 20
0.72242
 30
0.0
 10
-0.01338
 20
0.74948
 30
0.0
 10
-0.04817
 20
0.76999
 30
0.0
 10
-0.04817
 20
0.76999
 30
0.0
 10
-0.08296
 20
0.7905
 30
0.0
 10
-0.12018
 20
0.80446
 30
0.0
 10
-0.11846
 20
0.82764
 30
0.0
 10
-0.11846
 20
0.82764
 30
0.0
 10
-0.11673
 20
0.85082
 30
0.0
 10
-0.07606
 20
0.88322
 30
0.0
 10
-0.03415
 20
0.90355
 30
0.0
 10
-0.03415
 20
0.90355
 30
0.0
 10
0.00775
 20
0.92388
 30
0.0
 10
0.0509
 20
0.93213
 30
0.0
 10
0.10097
 20
0.93582
 30
0.0
 10
0.10097
 20
0.93582
 30
0.0
 10
0.15104
 20
0.93951
 30
0.0
 10
0.20802
 20
0.93863
 30
0.0
 10
0.24957
 20
0.93606
 30
0.0
 10
0.24957
 20
0.93606
 30
0.0
 10
0.29112
 20
0.93349
 30
0.0
 10
0.31724
 20
0.92923
 30
0.0
 10
0.33008
 20
0.92893
 30
0.0
 10
0.33008
 20
0.92893
 30
0.0
 10
0.34293
 20
0.92863
 30
0.0
 10
0.34249
 20
0.93229
 30
0.0
 10
0.34165
 20
0.93934
 30
0.0
 10
0.34165
 20
0.93934
 30
0.0
 10
0.34081
 20
0.9464
 30
0.0
 10
0.33957
 20
0.95685
 30
0.0
 10
0.33837
 20
0.96571
 30
0.0
 10
0.33837
 20
0.96571
 30
0.0
 10
0.33717
 20
0.97456
 30
0.0
 10
0.33601
 20
0.98182
 30
0.0
 10
0.33519
 20
0.98695
 30
0.0
 10
0.33519
 20
0.98695
 30
0.0
 10
0.33437
 20
0.99209
 30
0.0
 10
0.33389
 20
0.99511
 30
0.0
 10
0.31506
 20
0.99797
 30
0.0
 10
0.31506
 20
0.99797
 30
0.0
 10
0.29623
 20
1.00083
 30
0.0
 10
0.25906
 20
1.00352
 30
0.0
 10
0.23266
 20
1.00466
 30
0.0
 10
0.23266
 20
1.00466
 30
0.0
 10
0.20626
 20
1.0058
 30
0.0
 10
0.19064
 20
1.00537
 30
0.0
 10
0.17847
 20
1.00577
 30
0.0
 10
0.17847
 20
1.00577
 30
0.0
 10
0.16629
 20
1.00617
 30
0.0
 10
0.15758
 20
1.00737
 30
0.0
 10
0.16229
 20
1.04724
 30
0.0
 10
0.16229
 20
1.04724
 30
0.0
 10
0.167
 20
1.0871
 30
0.0
 10
0.18515
 20
1.16563
 30
0.0
 10
0.19223
 20
1.20523
 30
0.0
 10
0.19223
 20
1.20523
 30
0.0
 10
0.19931
 20
1.24483
 30
0.0
 10
0.19532
 20
1.24551
 30
0.0
 10
0.18778
 20
1.24563
 30
0.0
 10
0.18778
 20
1.24563
 30
0.0
 10
0.18025
 20
1.24574
 30
0.0
 10
0.15118
 20
1.24423
 30
0.0
 10
0.14342
 20
1.24368
 30
0.0
 10
0.14342
 20
1.24368
 30
0.0
 10
0.13567
 20
1.24314
 30
0.0
 10
0.13124
 20
1.24249
 30
0.0
 10
0.12323
 20
1.20346
 30
0.0
 10
0.12323
 20
1.20346
 30
0.0
 10
0.11523
 20
1.16443
 30
0.0
 10
0.10364
 20
1.087
 30
0.0
 10
0.09498
 20
1.04809
 30
0.0
 10
0.09498
 20
1.04809
 30
0.0
 10
0.08632
 20
1.00917
 30
0.0
 10
0.08058
 20
1.00877
 30
0.0
 10
0.05665
 20
1.00442
 30
0.0
 10
0.05665
 20
1.00442
 30
0.0
 10
0.03272
 20
1.00007
 30
0.0
 10
0.00859
 20
0.99282
 30
0.0
 10
-0.02683
 20
0.98295
 30
0.0
 10
-0.02683
 20
0.98295
 30
0.0
 10
-0.06225
 20
0.97309
 30
0.0
 10
-0.09098
 20
0.96165
 30
0.0
 10
-0.11732
 20
0.94193
 30
0.0
 10
-0.11732
 20
0.94193
 30
0.0
 10
-0.14366
 20
0.92221
 30
0.0
 10
-0.16761
 20
0.8942
 30
0.0
 10
-0.20119
 20
0.87141
 30
0.0
 10
-0.20119
 20
0.87141
 30
0.0
 10
-0.23476
 20
0.84863
 30
0.0
 10
-0.27796
 20
0.83106
 30
0.0
 10
-0.28346
 20
0.85576
 30
0.0
 10
-0.28346
 20
0.85576
 30
0.0
 10
-0.28895
 20
0.88048
 30
0.0
 10
-0.25676
 20
0.94746
 30
0.0
 10
-0.22397
 20
0.99217
 30
0.0
 10
-0.22397
 20
0.99217
 30
0.0
 10
-0.19118
 20
1.03688
 30
0.0
 10
-0.1578
 20
1.0593
 30
0.0
 10
-0.14551
 20
1.07375
 30
0.0
 10
-0.14551
 20
1.07375
 30
0.0
 10
-0.13322
 20
1.08821
 30
0.0
 10
-0.14202
 20
1.09469
 30
0.0
 10
-0.14826
 20
1.09929
 30
0.0
 10
-0.14826
 20
1.09929
 30
0.0
 10
-0.1545
 20
1.1039
 30
0.0
 10
-0.15818
 20
1.10661
 30
0.0
 10
-0.16427
 20
1.11111
 30
0.0
 10
-0.16427
 20
1.11111
 30
0.0
 10
-0.17035
 20
1.11562
 30
0.0
 10
-0.17883
 20
1.1219
 30
0.0
 10
-0.18563
 20
1.12266
 30
0.0
 10
-0.18563
 20
1.12266
 30
0.0
 10
-0.19242
 20
1.12342
 30
0.0
 10
-0.19753
 20
1.11867
 30
0.0
 10
-0.20609
 20
1.11069
 30
0.0
 10
-0.20609
 20
1.11069
 30
0.0
 10
-0.21466
 20
1.10272
 30
0.0
 10
-0.22668
 20
1.09153
 30
0.0
 10
-0.24839
 20
1.06288
 30
0.0
 10
-0.24839
 20
1.06288
 30
0.0
 10
-0.27011
 20
1.03422
 30
0.0
 10
-0.30152
 20
0.98809
 30
0.0
 10
-0.32351
 20
0.94362
 30
0.0
 10
-0.32351
 20
0.94362
 30
0.0
 10
-0.3455
 20
0.89915
 30
0.0
 10
-0.35806
 20
0.85631
 30
0.0
 10
-0.37652
 20
0.82337
 30
0.0
 10
-0.37652
 20
0.82337
 30
0.0
 10
-0.39497
 20
0.79043
 30
0.0
 10
-0.41932
 20
0.76736
 30
0.0
 10
-0.44847
 20
0.7417
 30
0.0
 10
-0.44847
 20
0.7417
 30
0.0
 10
-0.47761
 20
0.71604
 30
0.0
 10
-0.51157
 20
0.68778
 30
0.0
 10
-0.52987
 20
0.69478
 30
0.0
 10
-0.52987
 20
0.69478
 30
0.0
 10
-0.54816
 20
0.70179
 30
0.0
 10
-0.5508
 20
0.74407
 30
0.0
 10
-0.55343
 20
0.78635
 30
0.0
  0
SPLINE
  5
43
330
1F
100
AcDbEntity
  8
Layer 1
370
     9
100
AcDbSpline
210
0.0
220
0.0
230
1.0
 70
     8
 71
     3
 72
    12
 73
     8
 74
     0
 42
0.0000000001
 43
0.0000000001
 40
0.0
 40
0.0
 40
0.0
 40
0.0
 40
0.3333333333333333
 40
0.3333333333333333
 40
0.3333333333333333
 40
0.3333333333333333
 40
1.0
 40
1.0
 40
1.0
 40
1.0
 10
-0.67323
 20
-0.02873
 30
0.0
 10
-0.67323
 20
-0.02873
 30
0.0
 10
-0.64273
 20
-0.02873
 30
0.0
 10
-0.64273
 20
-0.02873
 30
0.0
 10
-0.64273
 20
-0.02873
 30
0.0
 10
-0.64273
 20
-0.02873
 30
0.0
 10
-0.64273
 20
-1.77873
 30
0.0
 10
-0.64273
 20
-1.77873
 30
0.0
  0
SPLINE
  5
44
330
1F
100
AcDbEntity
  8
Layer 1
370
     9
100
AcDbSpline
210
0.0
220
0.0
230
1.0
 70
    24
 71
     3
 72
     8
 73
     4
 74
     0
 42
0.0000000001
 43
0.0000000001
 40
0.0
 40
0.0
 40
0.0
 40
0.0
 40
1.0
 40
1.0
 40
1.0
 40
1.0
 10
-0.67323
 20
-1.77873
 30
0.0
 10
-0.67323
 20
-1.77873
 30
0.0
 10
-0.67323
 20
-0.02873
 30
0.0
 10
-0.67323
 20
-0.02873
 30
0.0
  0
SPLINE
  5
45
330
1F
100
AcDbEntity
  8
Layer 1
370
     9
100
AcDbSpline
210
0.0
220
0.0
230
1.0
 70
     8
 71
     3
 72
    20
 73
    16
 74
     0
 42
0.0000000001
 43
0.0000000001
 40
0.0
 40
0.0
 40
0.0
 40
0.0
 40
0.2
 40
0.2
 40
0.2
 40
0.2
 40
0.4
 40
0.4
 40
0.4
 40
0.4
 40
0.6
 40
0.6
 40
0.6
 40
0.6
 40
1.0
 40
1.0
 40
1.0
 40
1.0
 10
-0.76253
 20
-0.1547
 30
0.0
 10
-0.78758
 20
-0.62554
 30
0.0
 10
-0.81264
 20
-1.09638
 30
0.0
 10
-0.8578
 20
-1.35049
 30
0.0
 10
-0.8578
 20
-1.35049
 30
0.0
 10
-0.90296
 20
-1.60459
 30
0.0
 10
-0.96822
 20
-1.64197
 30
0.0
 10
-1.06458
 20
-1.66278
 30
0.0
 10
-1.06458
 20
-1.66278
 30
0.0
 10
-1.16093
 20
-1.68359
 30
0.0
 10
-1.28837
 20
-1.68784
 30
0.0
 10
-1.35452
 20
-1.7044
 30
0.0
 10
-1.35452
 20
-1.7044
 30
0.0
 10
-1.42066
 20
-1.72096
 30
0.0
 10
-1.42551
 20
-1.74985
 30
0.0
 10
-1.43036
 20
-1.77873
 30
0.0
  0
SPLINE
  5
46
330
1F
100
AcDbEntity
  8
Layer 1
370
     9
100
AcDbSpline
210
0.0
220
0.0
230
1.0
 70
     8
 71
     3
 72
    20
 73
    16
 74
     0
 42
0.0000000001
 43
0.0000000001
 40
0.0
 40
0.0
 40
0.0
 40
0.0
 40
0.2
 40
0.2
 40
0.2
 40
0.2
 40
0.4
 40
0.4
 40
0.4
 40
0.4
 40
0.6
 40
0.6
 40
0.6
 40
0.6
 40
1.0
 40
1.0
 40
1.0
 40
1.0
 10
-0.55343
 20
-0.1547
 30
0.0
 10
-0.52837
 20
-0.62554
 30
0.0
 10
-0.50332
 20
-1.09638
 30
0.0
 10
-0.45816
 20
-1.35049
 30
0.0
 10
-0.45816
 20
-1.35049
 30
0.0
 10
-0.413
 20
-1.60459
 30
0.0
 10
-0.34773
 20
-1.64197
 30
0.0
 10
-0.25138
 20
-1.66278
 30
0.0
 10
-0.25138
 20
-1.66278
 30
0.0
 10
-0.15503
 20
-1.68359
 30
0.0
 10
-0.02759
 20
-1.68784
 30
0.0
 10
0.03855
 20
-1.7044
 30
0.0
 10
0.03855
 20
-1.7044
 30
0.0
 10
0.10469
 20
-1.72096
 30
0.0
 10
0.10955
 20
-1.74985
 30
0.0
 10
0.11439
 20
-1.77873
 30
0.0
  0
SPLINE
  5
47
330
1F
100
AcDbEntity
  8
Layer 1
370
     9
100
AcDbSpline
210
0.0
220
0.0
230
1.0
 70
     8
 71
     3
 72
    84
 73
    80
 74
     0
 42
0.0000000001
 43
0.0000000001
 40
0.0
 40
0.0
 40
0.0
 40
0.0
 40
0.0476190476190476
 40
0.0476190476190476
 40
0.0476190476190476
 40
0.0476190476190476
 40
0.0952380952380952
 40
0.0952380952380952
 40
0.0952380952380952
 40
0.0952380952380952
 40
0.1428571428571428
 40
0.1428571428571428
 40
0.1428571428571428
 40
0.1428571428571428
 40
0.1904761904761905
 40
0.1904761904761905
 40
0.1904761904761905
 40
0.1904761904761905
 40
0.2380952380952381
 40
0.2380952380952381
 40
0.2380952380952381
 40
0.2380952380952381
 40
0.2857142857142857
 40
0.2857142857142857
 40
0.2857142857142857
 40
0.2857142857142857
 40
0.3333333333333333
 40
0.3333333333333333
 40
0.3333333333333333
 40
0.3333333333333333
 40
0.3809523809523809
 40
0.3809523809523809
 40
0.3809523809523809
 40
0.3809523809523809
 40
0.4285714285714285
 40
0.4285714285714285
 40
0.4285714285714285
 40
0.4285714285714285
 40
0.4761904761904762
 40
0.4761904761904762
 40
0.4761904761904762
 40
0.4761904761904762
 40
0.5238095238095238
 40
0.5238095238095238
 40
0.5238095238095238
 40
0.5238095238095238
 40
0.5714285714285714
 40
0.5714285714285714
 40
0.5714285714285714
 40
0.5714285714285714
 40
0.6190476190476191
 40
0.6190476190476191
 40
0.6190476190476191
 40
0.6190476190476191
 40
0.6666666666666666
 40
0.6666666666666666
 40
0.6666666666666666
 40
0.6666666666666666
 40
0.7142857142857143
 40
0.7142857142857143
 40
0.7142857142857143
 40
0.7142857142857143
 40
0.7619047619047619
 40
0.7619047619047619
 40
0.7619047619047619
 40
0.7619047619047619
 40
0.8095238095238095
 40
0.8095238095238095
 40
0.8095238095238095
 40
0.8095238095238095
 40
0.8571428571428571
 40
0.8571428571428571
 40
0.8571428571428571
 40
0.8571428571428571
 40
0.9047619047619048
 40
0.9047619047619048
 40
0.9047619047619048
 40
0.9047619047619048
 40
1.0
 40
1.0
 40
1.0
 40
1.0
 10
-0.55343
 20
0.16696
 30
0.0
 10
-0.55226
 20
0.14967
 30
0.0
 10
-0.55109
 20
0.13237
 30
0.0
 10
-0.53794
 20
0.12262
 30
0.0
 10
-0.53794
 20
0.12262
 30
0.0
 10
-0.52479
 20
0.11288
 30
0.0
 10
-0.49966
 20
0.11068
 30
0.0
 10
-0.45627
 20
0.11314
 30
0.0
 10
-0.45627
 20
0.11314
 30
0.0
 10
-0.41288
 20
0.11561
 30
0.0
 10
-0.35123
 20
0.12274
 30
0.0
 10
-0.27545
 20
0.14416
 30
0.0
 10
-0.27545
 20
0.14416
 30
0.0
 10
-0.19967
 20
0.16557
 30
0.0
 10
-0.10975
 20
0.20127
 30
0.0
 10
-0.06397
 20
0.21596
 30
0.0
 10
-0.06397
 20
0.21596
 30
0.0
 10
-0.01819
 20
0.23065
 30
0.0
 10
-0.01655
 20
0.22433
 30
0.0
 10
-0.01266
 20
0.21257
 30
0.0
 10
-0.01266
 20
0.21257
 30
0.0
 10
-0.00878
 20
0.20081
 30
0.0
 10
-0.00266
 20
0.18361
 30
0.0
 10
0.0023
 20
0.16975
 30
0.0
 10
0.0023
 20
0.16975
 30
0.0
 10
0.00727
 20
0.15589
 30
0.0
 10
0.01108
 20
0.14538
 30
0.0
 10
-0.00829
 20
0.13603
 30
0.0
 10
-0.00829
 20
0.13603
 30
0.0
 10
-0.02766
 20
0.12669
 30
0.0
 10
-0.07023
 20
0.11851
 30
0.0
 10
-0.10776
 20
0.10972
 30
0.0
 10
-0.10776
 20
0.10972
 30
0.0
 10
-0.1453
 20
0.10093
 30
0.0
 10
-0.17781
 20
0.09151
 30
0.0
 10
-0.19727
 20
0.08585
 30
0.0
 10
-0.19727
 20
0.08585
 30
0.0
 10
-0.21672
 20
0.0802
 30
0.0
 10
-0.21552
 20
0.08127
 30
0.0
 10
-0.21421
 20
0.06742
 30
0.0
 10
-0.21421
 20
0.06742
 30
0.0
 10
-0.21291
 20
0.05358
 30
0.0
 10
-0.20247
 20
0.01816
 30
0.0
 10
-0.20108
 20
0.00822
 30
0.0
 10
-0.20108
 20
0.00822
 30
0.0
 10
-0.19969
 20
-0.00172
 30
0.0
 10
-0.21085
 20
-0.00225
 30
0.0
 10
-0.2187
 20
-0.0045
 30
0.0
 10
-0.2187
 20
-0.0045
 30
0.0
 10
-0.22655
 20
-0.00675
 30
0.0
 10
-0.24189
 20
-0.0121
 30
0.0
 10
-0.24766
 20
-0.01392
 30
0.0
 10
-0.24766
 20
-0.01392
 30
0.0
 10
-0.25344
 20
-0.01574
 30
0.0
 10
-0.25727
 20
-0.01702
 30
0.0
 10
-0.26177
 20
-0.00366
 30
0.0
 10
-0.26177
 20
-0.00366
 30
0.0
 10
-0.26627
 20
0.00969
 30
0.0
 10
-0.27145
 20
0.03767
 30
0.0
 10
-0.27553
 20
0.05166
 30
0.0
 10
-0.27553
 20
0.05166
 30
0.0
 10
-0.27962
 20
0.06565
 30
0.0
 10
-0.28261
 20
0.06565
 30
0.0
 10
-0.2938
 20
0.06346
 30
0.0
 10
-0.2938
 20
0.06346
 30
0.0
 10
-0.30499
 20
0.06126
 30
0.0
 10
-0.32438
 20
0.05686
 30
0.0
 10
-0.35724
 20
0.05055
 30
0.0
 10
-0.35724
 20
0.05055
 30
0.0
 10
-0.3901
 20
0.04424
 30
0.0
 10
-0.43644
 20
0.036
 30
0.0
 10
-0.46818
 20
0.02932
 30
0.0
 10
-0.46818
 20
0.02932
 30
0.0
 10
-0.49992
 20
0.02264
 30
0.0
 10
-0.51706
 20
0.01752
 30
0.0
 10
-0.52884
 20
-0.00279
 30
0.0
 10
-0.52884
 20
-0.00279
 30
0.0
 10
-0.54061
 20
-0.0231
 30
0.0
 10
-0.55496
 20
-0.06765
 30
0.0
 10
-0.55343
 20
-0.1547
 30
0.0
  0
SPLINE
  5
48
330
1F
100
AcDbEntity
  8
Layer 1
370
     9
100
AcDbSpline
210
0.0
220
0.0
230
1.0
 70
    24
 71
     3
 72
    12
 73
     8
 74
     0
 42
0.0000000001
 43
0.0000000001
 40
0.0
 40
0.0
 40
0.0
 40
0.0
 40
0.3333333333333333
 40
0.3333333333333333
 40
0.3333333333333333
 40
0.3333333333333333
 40
1.0
 40
1.0
 40
1.0
 40
1.0
 10
-0.55343
 20
1.26982
 30
0.0
 10
-0.55343
 20
1.26543
 30
0.0
 10
-0.55343
 20
1.26104
 30
0.0
 10
-0.55343
 20
1.25884
 30
0.0
 10
-0.55343
 20
1.25884
 30
0.0
 10
-0.55343
 20
1.25665
 30
0.0
 10
-0.55343
 20
1.25665
 30
0.0
 10
-0.55343
 20
1.25665
 30
0.0
  0
SPLINE
  5
49
330
1F
100
AcDbEntity
  8
Layer 1
370
     9
100
AcDbSpline
210
0.0
220
0.0
230
1.0
 70
    24
 71
     3
 72
     8
 73
     4
 74
     0
 42
0.0000000001
 43
0.0000000001
 40
0.0
 40
0.0
 40
0.0
 40
0.0
 40
1.0
 40
1.0
 40
1.0
 40
1.0
 10
-0.55343
 20
0.8646
 30
0.0
 10
-0.55343
 20
0.83852
 30
0.0
 10
-0.55343
 20
0.81243
 30
0.0
 10
-0.55343
 20
0.78635
 30
0.0
  0
SPLINE
  5
4A
330
1F
100
AcDbEntity
  8
Layer 1
370
     9
100
AcDbSpline
210
0.0
220
0.0
230
1.0
 70
    24
 71
     3
 72
     8
 73
     4
 74
     0
 42
0.0000000001
 43
0.0000000001
 40
0.0
 40
0.0
 40
0.0
 40
0.0
 40
1.0
 40
1.0
 40
1.0
 40
1.0
 10
-0.55343
 20
0.49149
 30
0.0
 10
-0.55343
 20
0.47557
 30
0.0
 10
-0.55343
 20
0.45964
 30
0.0
 10
-0.55343
 20
0.44371
 30
0.0
  0
SPLINE
  5
4B
330
1F
100
AcDbEntity
  8
Layer 1
370
     9
100
AcDbSpline
210
0.0
220
0.0
230
1.0
 70
    24
 71
     3
 72
     8
 73
     4
 74
     0
 42
0.0000000001
 43
0.0000000001
 40
0.0
 40
0.0
 40
0.0
 40
0.0
 40
1.0
 40
1.0
 40
1.0
 40
1.0
 10
-0.55343
 20
0.16696
 30
0.0
 10
-0.55343
 20
0.17314
 30
0.0
 10
-0.55343
 20
0.17932
 30
0.0
 10
-0.55343
 20
0.1855
 30
0.0
  0
SPLINE
  5
4C
330
1F
100
AcDbEntity
  8
Layer 1
370
     9
100
AcDbSpline
210
0.0
220
0.0
230
1.0
 70
     8
 71
     3
 72
    72
 73
    68
 74
     0
 42
0.0000000001
 43
0.0000000001
 40
0.0
 40
0.0
 40
0.0
 40
0.0
 40
0.0555555555555556
 40
0.0555555555555556
 40
0.0555555555555556
 40
0.0555555555555556
 40
0.1111111111111111
 40
0.1111111111111111
 40
0.1111111111111111
 40
0.1111111111111111
 40
0.1666666666666667
 40
0.1666666666666667
 40
0.1666666666666667
 40
0.1666666666666667
 40
0.2222222222222222
 40
0.2222222222222222
 40
0.2222222222222222
 40
0.2222222222222222
 40
0.2777777777777778
 40
0.2777777777777778
 40
0.2777777777777778
 40
0.2777777777777778
 40
0.3333333333333333
 40
0.3333333333333333
 40
0.3333333333333333
 40
0.3333333333333333
 40
0.3888888888888889
 40
0.3888888888888889
 40
0.3888888888888889
 40
0.3888888888888889
 40
0.4444444444444444
 40
0.4444444444444444
 40
0.4444444444444444
 40
0.4444444444444444
 40
0.5
 40
0.5
 40
0.5
 40
0.5
 40
0.5555555555555556
 40
0.5555555555555556
 40
0.5555555555555556
 40
0.5555555555555556
 40
0.6111111111111112
 40
0.6111111111111112
 40
0.6111111111111112
 40
0.6111111111111112
 40
0.6666666666666666
 40
0.6666666666666666
 40
0.6666666666666666
 40
0.6666666666666666
 40
0.7222222222222222
 40
0.7222222222222222
 40
0.7222222222222222
 40
0.7222222222222222
 40
0.7777777777777778
 40
0.7777777777777778
 40
0.7777777777777778
 40
0.7777777777777778
 40
0.8333333333333334
 40
0.8333333333333334
 40
0.8333333333333334
 40
0.8333333333333334
 40
0.8888888888888888
 40
0.8888888888888888
 40
0.8888888888888888
 40
0.8888888888888888
 40
1.0
 40
1.0
 40
1.0
 40
1.0
 10
-0.55343
 20
1.26982
 30
0.0
 10
-0.55053
 20
1.31238
 30
0.0
 10
-0.54764
 20
1.35493
 30
0.0
 10
-0.52629
 20
1.3899
 30
0.0
 10
-0.52629
 20
1.3899
 30
0.0
 10
-0.50495
 20
1.42486
 30
0.0
 10
-0.46516
 20
1.45224
 30
0.0
 10
-0.43318
 20
1.47521
 30
0.0
 10
-0.43318
 20
1.47521
 30
0.0
 10
-0.4012
 20
1.49818
 30
0.0
 10
-0.37704
 20
1.51673
 30
0.0
 10
-0.34454
 20
1.51215
 30
0.0
 10
-0.34454
 20
1.51215
 30
0.0
 10
-0.31204
 20
1.50757
 30
0.0
 10
-0.2712
 20
1.47983
 30
0.0
 10
-0.24882
 20
1.4705
 30
0.0
 10
-0.24882
 20
1.4705
 30
0.0
 10
-0.22644
 20
1.46116
 30
0.0
 10
-0.22251
 20
1.47022
 30
0.0
 10
-0.2176
 20
1.48037
 30
0.0
 10
-0.2176
 20
1.48037
 30
0.0
 10
-0.21268
 20
1.49053
 30
0.0
 10
-0.20677
 20
1.50176
 30
0.0
 10
-0.20186
 20
1.5111
 30
0.0
 10
-0.20186
 20
1.5111
 30
0.0
 10
-0.19695
 20
1.52043
 30
0.0
 10
-0.19305
 20
1.52786
 30
0.0
 10
-0.21166
 20
1.53987
 30
0.0
 10
-0.21166
 20
1.53987
 30
0.0
 10
-0.23028
 20
1.55188
 30
0.0
 10
-0.27143
 20
1.56846
 30
0.0
 10
-0.30068
 20
1.57944
 30
0.0
 10
-0.30068
 20
1.57944
 30
0.0
 10
-0.32993
 20
1.59042
 30
0.0
 10
-0.3473
 20
1.5958
 30
0.0
 10
-0.34601
 20
1.61628
 30
0.0
 10
-0.34601
 20
1.61628
 30
0.0
 10
-0.34472
 20
1.63676
 30
0.0
 10
-0.32479
 20
1.67233
 30
0.0
 10
-0.31753
 20
1.6907
 30
0.0
 10
-0.31753
 20
1.6907
 30
0.0
 10
-0.31026
 20
1.70908
 30
0.0
 10
-0.31567
 20
1.71025
 30
0.0
 10
-0.32482
 20
1.71224
 30
0.0
 10
-0.32482
 20
1.71224
 30
0.0
 10
-0.33397
 20
1.71423
 30
0.0
 10
-0.34686
 20
1.71704
 30
0.0
 10
-0.35689
 20
1.71933
 30
0.0
 10
-0.35689
 20
1.71933
 30
0.0
 10
-0.36692
 20
1.72161
 30
0.0
 10
-0.37409
 20
1.72339
 30
0.0
 10
-0.3808
 20
1.71542
 30
0.0
 10
-0.3808
 20
1.71542
 30
0.0
 10
-0.3875
 20
1.70745
 30
0.0
 10
-0.39375
 20
1.68973
 30
0.0
 10
-0.40464
 20
1.6612
 30
0.0
 10
-0.40464
 20
1.6612
 30
0.0
 10
-0.41552
 20
1.63267
 30
0.0
 10
-0.43106
 20
1.59331
 30
0.0
 10
-0.45663
 20
1.55916
 30
0.0
 10
-0.45663
 20
1.55916
 30
0.0
 10
-0.4822
 20
1.525
 30
0.0
 10
-0.51782
 20
1.49604
 30
0.0
 10
-0.55305
 20
1.47916
 30
0.0
 10
-0.55305
 20
1.47916
 30
0.0
 10
-0.58828
 20
1.46228
 30
0.0
 10
-0.62313
 20
1.45747
 30
0.0
 10
-0.65798
 20
1.45267
 30
0.0
  0
SPLINE
  5
4D
330
1F
100
AcDbEntity
  8
Layer 1
370
     9
100
AcDbSpline
210
0.0
220
0.0
230
1.0
 70
     8
 71
     3
 72
   128
 73
   124
 74
     0
 42
0.0000000001
 43
0.0000000001
 40
0.0
 40
0.0
 40
0.0
 40
0.0
 40
0.03125
 40
0.03125
 40
0.03125
 40
0.03125
 40
0.0625
 40
0.0625
 40
0.0625
 40
0.0625
 40
0.09375
 40
0.09375
 40
0.09375
 40
0.09375
 40
0.125
 40
0.125
 40
0.125
 40
0.125
 40
0.15625
 40
0.15625
 40
0.15625
 40
0.15625
 40
0.1875
 40
0.1875
 40
0.1875
 40
0.1875
 40
0.21875
 40
0.21875
 40
0.21875
 40
0.21875
 40
0.25
 40
0.25
 40
0.25
 40
0.25
 40
0.28125
 40
0.28125
 40
0.28125
 40
0.28125
 40
0.3125
 40
0.3125
 40
0.3125
 40
0.3125
 40
0.34375
 40
0.34375
 40
0.34375
 40
0.34375
 40
0.375
 40
0.375
 40
0.375
 40
0.375
 40
0.40625
 40
0.40625
 40
0.40625
 40
0.40625
 40
0.4375
 40
0.4375
 40
0.4375
 40
0.4375
 40
0.46875
 40
0.46875
 40
0.46875
 40
0.46875
 40
0.5
 40
0.5
 40
0.5
 40
0.5
 40
0.53125
 40
0.53125
 40
0.53125
 40
0.53125
 40
0.5625
 40
0.5625
 40
0.5625
 40
0.5625
 40
0.59375
 40
0.59375
 40
0.59375
 40
0.59375
 40
0.625
 40
0.625
 40
0.625
 40
0.625
 40
0.65625
 40
0.65625
 40
0.65625
 40
0.65625
 40
0.6875
 40
0.6875
 40
0.6875
 40
0.6875
 40
0.71875
 40
0.71875
 40
0.71875
 40
0.71875
 40
0.75
 40
0.75
 40
0.75
 40
0.75
 40
0.78125
 40
0.78125
 40
0.78125
 40
0.78125
 40
0.8125
 40
0.8125
 40
0.8125
 40
0.8125
 40
0.84375
 40
0.84375
 40
0.84375
 40
0.84375
 40
0.875
 40
0.875
 40
0.875
 40
0.875
 40
0.90625
 40
0.90625
 40
0.90625
 40
0.90625
 40
0.9375
 40
0.9375
 40
0.9375
 40
0.9375
 40
1.0
 40
1.0
 40
1.0
 40
1.0
 10
-0.55343
 20
0.8646
 30
0.0
 10
-0.55141
 20
0.9206
 30
0.0
 10
-0.5494
 20
0.97661
 30
0.0
 10
-0.50715
 20
1.03592
 30
0.0
 10
-0.50715
 20
1.03592
 30
0.0
 10
-0.46491
 20
1.09523
 30
0.0
 10
-0.38243
 20
1.15785
 30
0.0
 10
-0.31927
 20
1.19505
 30
0.0
 10
-0.31927
 20
1.19505
 30
0.0
 10
-0.25611
 20
1.23226
 30
0.0
 10
-0.21226
 20
1.24405
 30
0.0
 10
-0.17142
 20
1.25503
 30
0.0
 10
-0.17142
 20
1.25503
 30
0.0
 10
-0.13059
 20
1.26602
 30
0.0
 10
-0.09276
 20
1.27619
 30
0.0
 10
-0.04558
 20
1.28017
 30
0.0
 10
-0.04558
 20
1.28017
 30
0.0
 10
0.00159
 20
1.28416
 30
0.0
 10
0.05813
 20
1.28196
 30
0.0
 10
0.10398
 20
1.28487
 30
0.0
 10
0.10398
 20
1.28487
 30
0.0
 10
0.14983
 20
1.28778
 30
0.0
 10
0.18498
 20
1.2958
 30
0.0
 10
0.19973
 20
1.30439
 30
0.0
 10
0.19973
 20
1.30439
 30
0.0
 10
0.21448
 20
1.31298
 30
0.0
 10
0.20883
 20
1.32213
 30
0.0
 10
0.20127
 20
1.33365
 30
0.0
 10
0.20127
 20
1.33365
 30
0.0
 10
0.19371
 20
1.34516
 30
0.0
 10
0.18425
 20
1.35904
 30
0.0
 10
0.17797
 20
1.36807
 30
0.0
 10
0.17797
 20
1.36807
 30
0.0
 10
0.1717
 20
1.37711
 30
0.0
 10
0.16861
 20
1.3813
 30
0.0
 10
0.1578
 20
1.37786
 30
0.0
 10
0.1578
 20
1.37786
 30
0.0
 10
0.147
 20
1.37441
 30
0.0
 10
0.12848
 20
1.36333
 30
0.0
 10
0.09723
 20
1.35889
 30
0.0
 10
0.09723
 20
1.35889
 30
0.0
 10
0.06599
 20
1.35445
 30
0.0
 10
0.02201
 20
1.35664
 30
0.0
 10
-0.02118
 20
1.35526
 30
0.0
 10
-0.02118
 20
1.35526
 30
0.0
 10
-0.06438
 20
1.35388
 30
0.0
 10
-0.10681
 20
1.34891
 30
0.0
 10
-0.11611
 20
1.37118
 30
0.0
 10
-0.11611
 20
1.37118
 30
0.0
 10
-0.12542
 20
1.39345
 30
0.0
 10
-0.10159
 20
1.44296
 30
0.0
 10
-0.08366
 20
1.48312
 30
0.0
 10
-0.08366
 20
1.48312
 30
0.0
 10
-0.06572
 20
1.52329
 30
0.0
 10
-0.05369
 20
1.55413
 30
0.0
 10
-0.05014
 20
1.57108
 30
0.0
 10
-0.05014
 20
1.57108
 30
0.0
 10
-0.0466
 20
1.58803
 30
0.0
 10
-0.05155
 20
1.59111
 30
0.0
 10
-0.05928
 20
1.59598
 30
0.0
 10
-0.05928
 20
1.59598
 30
0.0
 10
-0.06701
 20
1.60086
 30
0.0
 10
-0.07754
 20
1.60753
 30
0.0
 10
-0.08432
 20
1.61119
 30
0.0
 10
-0.08432
 20
1.61119
 30
0.0
 10
-0.09111
 20
1.61485
 30
0.0
 10
-0.09418
 20
1.61551
 30
0.0
 10
-0.10279
 20
1.6004
 30
0.0
 10
-0.10279
 20
1.6004
 30
0.0
 10
-0.11141
 20
1.5853
 30
0.0
 10
-0.12558
 20
1.55443
 30
0.0
 10
-0.13895
 20
1.52033
 30
0.0
 10
-0.13895
 20
1.52033
 30
0.0
 10
-0.15232
 20
1.48623
 30
0.0
 10
-0.16488
 20
1.44889
 30
0.0
 10
-0.18137
 20
1.41594
 30
0.0
 10
-0.18137
 20
1.41594
 30
0.0
 10
-0.19786
 20
1.383
 30
0.0
 10
-0.21828
 20
1.35444
 30
0.0
 10
-0.24051
 20
1.33564
 30
0.0
 10
-0.24051
 20
1.33564
 30
0.0
 10
-0.26273
 20
1.31685
 30
0.0
 10
-0.28675
 20
1.3078
 30
0.0
 10
-0.29904
 20
1.30785
 30
0.0
 10
-0.29904
 20
1.30785
 30
0.0
 10
-0.31132
 20
1.3079
 30
0.0
 10
-0.31187
 20
1.31704
 30
0.0
 10
-0.31668
 20
1.34679
 30
0.0
 10
-0.31668
 20
1.34679
 30
0.0
 10
-0.32148
 20
1.37654
 30
0.0
 10
-0.33054
 20
1.4269
 30
0.0
 10
-0.33854
 20
1.45045
 30
0.0
 10
-0.33854
 20
1.45045
 30
0.0
 10
-0.34654
 20
1.47399
 30
0.0
 10
-0.35348
 20
1.47072
 30
0.0
 10
-0.35805
 20
1.46859
 30
0.0
 10
-0.35805
 20
1.46859
 30
0.0
 10
-0.36262
 20
1.46646
 30
0.0
 10
-0.36482
 20
1.46546
 30
0.0
 10
-0.36819
 20
1.46366
 30
0.0
 10
-0.36819
 20
1.46366
 30
0.0
 10
-0.37155
 20
1.46186
 30
0.0
 10
-0.3761
 20
1.45926
 30
0.0
 10
-0.38262
 20
1.45553
 30
0.0
 10
-0.38262
 20
1.45553
 30
0.0
 10
-0.38914
 20
1.45181
 30
0.0
 10
-0.39764
 20
1.44696
 30
0.0
 10
-0.39232
 20
1.41708
 30
0.0
 10
-0.39232
 20
1.41708
 30
0.0
 10
-0.38699
 20
1.38721
 30
0.0
 10
-0.36784
 20
1.33232
 30
0.0
 10
-0.36461
 20
1.30142
 30
0.0
 10
-0.36461
 20
1.30142
 30
0.0
 10
-0.36137
 20
1.27052
 30
0.0
 10
-0.37406
 20
1.26362
 30
0.0
 10
-0.40818
 20
1.23401
 30
0.0
 10
-0.40818
 20
1.23401
 30
0.0
 10
-0.4423
 20
1.2044
 30
0.0
 10
-0.49787
 20
1.15207
 30
0.0
 10
-0.52565
 20
1.15206
 30
0.0
 10
-0.52565
 20
1.15206
 30
0.0
 10
-0.55343
 20
1.15205
 30
0.0
 10
-0.55343
 20
1.20435
 30
0.0
 10
-0.55343
 20
1.25665
 30
0.0
  0
SPLINE
  5
4E
330
1F
100
AcDbEntity
  8
Layer 1
370
     9
100
AcDbSpline
210
0.0
220
0.0
230
1.0
 70
     8
 71
     3
 72
   152
 73
   148
 74
     0
 42
0.0000000001
 43
0.0000000001
 40
0.0
 40
0.0
 40
0.0
 40
0.0
 40
0.0263157894736842
 40
0.0263157894736842
 40
0.0263157894736842
 40
0.0263157894736842
 40
0.0526315789473684
 40
0.0526315789473684
 40
0.0526315789473684
 40
0.0526315789473684
 40
0.0789473684210526
 40
0.0789473684210526
 40
0.0789473684210526
 40
0.0789473684210526
 40
0.1052631578947368
 40
0.1052631578947368
 40
0.1052631578947368
 40
0.1052631578947368
 40
0.131578947368421
 40
0.131578947368421
 40
0.131578947368421
 40
0.131578947368421
 40
0.1578947368421053
 40
0.1578947368421053
 40
0.1578947368421053
 40
0.1578947368421053
 40
0.1842105263157895
 40
0.1842105263157895
 40
0.1842105263157895
 40
0.1842105263157895
 40
0.2105263157894737
 40
0.2105263157894737
 40
0.2105263157894737
 40
0.2105263157894737
 40
0.2368421052631579
 40
0.2368421052631579
 40
0.2368421052631579
 40
0.2368421052631579
 40
0.2631578947368421
 40
0.2631578947368421
 40
0.2631578947368421
 40
0.2631578947368421
 40
0.2894736842105263
 40
0.2894736842105263
 40
0.2894736842105263
 40
0.2894736842105263
 40
0.3157894736842105
 40
0.3157894736842105
 40
0.3157894736842105
 40
0.3157894736842105
 40
0.3421052631578947
 40
0.3421052631578947
 40
0.3421052631578947
 40
0.3421052631578947
 40
0.3684210526315789
 40
0.3684210526315789
 40
0.3684210526315789
 40
0.3684210526315789
 40
0.3947368421052632
 40
0.3947368421052632
 40
0.3947368421052632
 40
0.3947368421052632
 40
0.4210526315789473
 40
0.4210526315789473
 40
0.4210526315789473
 40
0.4210526315789473
 40
0.4473684210526316
 40
0.4473684210526316
 40
0.4473684210526316
 40
0.4473684210526316
 40
0.4736842105263158
 40
0.4736842105263158
 40
0.4736842105263158
 40
0.4736842105263158
 40
0.5
 40
0.5
 40
0.5
 40
0.5
 40
0.5263157894736842
 40
0.5263157894736842
 40
0.5263157894736842
 40
0.5263157894736842
 40
0.5526315789473685
 40
0.5526315789473685
 40
0.5526315789473685
 40
0.5526315789473685
 40
0.5789473684210527
 40
0.5789473684210527
 40
0.5789473684210527
 40
0.5789473684210527
 40
0.6052631578947368
 40
0.6052631578947368
 40
0.6052631578947368
 40
0.6052631578947368
 40
0.631578947368421
 40
0.631578947368421
 40
0.631578947368421
 40
0.631578947368421
 40
0.6578947368421053
 40
0.6578947368421053
 40
0.6578947368421053
 40
0.6578947368421053
 40
0.6842105263157895
 40
0.6842105263157895
 40
0.6842105263157895
 40
0.6842105263157895
 40
0.7105263157894737
 40
0.7105263157894737
 40
0.7105263157894737
 40
0.7105263157894737
 40
0.7368421052631579
 40
0.7368421052631579
 40
0.7368421052631579
 40
0.7368421052631579
 40
0.7631578947368421
 40
0.7631578947368421
 40
0.7631578947368421
 40
0.7631578947368421
 40
0.7894736842105263
 40
0.7894736842105263
 40
0.7894736842105263
 40
0.7894736842105263
 40
0.8157894736842105
 40
0.8157894736842105
 40
0.8157894736842105
 40
0.8157894736842105
 40
0.8421052631578947
 40
0.8421052631578947
 40
0.8421052631578947
 40
0.8421052631578947
 40
0.868421052631579
 40
0.868421052631579
 40
0.868421052631579
 40
0.868421052631579
 40
0.8947368421052632
 40
0.8947368421052632
 40
0.8947368421052632
 40
0.8947368421052632
 40
0.9210526315789473
 40
0.9210526315789473
 40
0.9210526315789473
 40
0.9210526315789473
 40
0.9473684210526315
 40
0.9473684210526315
 40
0.9473684210526315
 40
0.9473684210526315
 40
1.0
 40
1.0
 40
1.0
 40
1.0
 10
-0.55343
 20
0.1855
 30
0.0
 10
-0.55078
 20
0.21679
 30
0.0
 10
-0.54829
 20
0.24332
 30
0.0
 10
-0.53173
 20
0.26452
 30
0.0
 10
-0.53173
 20
0.26452
 30
0.0
 10
-0.50937
 20
0.29315
 30
0.0
 10
-0.39679
 20
0.3646
 30
0.0
 10
-0.36958
 20
0.366
 30
0.0
 10
-0.36958
 20
0.366
 30
0.0
 10
-0.34165
 20
0.36743
 30
0.0
 10
-0.32454
 20
0.35803
 30
0.0
 10
-0.30433
 20
0.33047
 30
0.0
 10
-0.30433
 20
0.33047
 30
0.0
 10
-0.28412
 20
0.30291
 30
0.0
 10
-0.26582
 20
0.27437
 30
0.0
 10
-0.25084
 20
0.25133
 30
0.0
 10
-0.25084
 20
0.25133
 30
0.0
 10
-0.23586
 20
0.22829
 30
0.0
 10
-0.2242
 20
0.21075
 30
0.0
 10
-0.21631
 20
0.20478
 30
0.0
 10
-0.21631
 20
0.20478
 30
0.0
 10
-0.20841
 20
0.19882
 30
0.0
 10
-0.20428
 20
0.2044
 30
0.0
 10
-0.19901
 20
0.21136
 30
0.0
 10
-0.19901
 20
0.21136
 30
0.0
 10
-0.19373
 20
0.21831
 30
0.0
 10
-0.18732
 20
0.22663
 30
0.0
 10
-0.18164
 20
0.23317
 30
0.0
 10
-0.18164
 20
0.23317
 30
0.0
 10
-0.17595
 20
0.23971
 30
0.0
 10
-0.17098
 20
0.24447
 30
0.0
 10
-0.18212
 20
0.26067
 30
0.0
 10
-0.18212
 20
0.26067
 30
0.0
 10
-0.19326
 20
0.27686
 30
0.0
 10
-0.2205
 20
0.3045
 30
0.0
 10
-0.23968
 20
0.32757
 30
0.0
 10
-0.23968
 20
0.32757
 30
0.0
 10
-0.25886
 20
0.35064
 30
0.0
 10
-0.26997
 20
0.36915
 30
0.0
 10
-0.25472
 20
0.37676
 30
0.0
 10
-0.25472
 20
0.37676
 30
0.0
 10
-0.23946
 20
0.38437
 30
0.0
 10
-0.19784
 20
0.38107
 30
0.0
 10
-0.15308
 20
0.36625
 30
0.0
 10
-0.15308
 20
0.36625
 30
0.0
 10
-0.10832
 20
0.35142
 30
0.0
 10
-0.06041
 20
0.32506
 30
0.0
 10
-0.0212
 20
0.29191
 30
0.0
 10
-0.0212
 20
0.29191
 30
0.0
 10
0.01801
 20
0.25876
 30
0.0
 10
0.04854
 20
0.21881
 30
0.0
 10
0.06584
 20
0.2024
 30
0.0
 10
0.06584
 20
0.2024
 30
0.0
 10
0.08315
 20
0.186
 30
0.0
 10
0.08722
 20
0.19313
 30
0.0
 10
0.09311
 20
0.20077
 30
0.0
 10
0.09311
 20
0.20077
 30
0.0
 10
0.099
 20
0.20841
 30
0.0
 10
0.1067
 20
0.21655
 30
0.0
 10
0.11191
 20
0.22205
 30
0.0
 10
0.11191
 20
0.22205
 30
0.0
 10
0.11712
 20
0.22756
 30
0.0
 10
0.11983
 20
0.23043
 30
0.0
 10
0.11282
 20
0.23892
 30
0.0
 10
0.11282
 20
0.23892
 30
0.0
 10
0.1058
 20
0.24741
 30
0.0
 10
0.08904
 20
0.26153
 30
0.0
 10
0.06575
 20
0.28286
 30
0.0
 10
0.06575
 20
0.28286
 30
0.0
 10
0.04245
 20
0.3042
 30
0.0
 10
0.01261
 20
0.33275
 30
0.0
 10
0.04491
 20
0.36285
 30
0.0
 10
0.04491
 20
0.36285
 30
0.0
 10
0.07722
 20
0.39295
 30
0.0
 10
0.17167
 20
0.4246
 30
0.0
 10
0.21983
 20
0.44265
 30
0.0
 10
0.21983
 20
0.44265
 30
0.0
 10
0.26799
 20
0.4607
 30
0.0
 10
0.26986
 20
0.46515
 30
0.0
 10
0.27315
 20
0.473
 30
0.0
 10
0.27315
 20
0.473
 30
0.0
 10
0.27644
 20
0.48084
 30
0.0
 10
0.28116
 20
0.49208
 30
0.0
 10
0.28585
 20
0.50417
 30
0.0
 10
0.28585
 20
0.50417
 30
0.0
 10
0.29055
 20
0.51627
 30
0.0
 10
0.29523
 20
0.52921
 30
0.0
 10
0.27926
 20
0.52696
 30
0.0
 10
0.27926
 20
0.52696
 30
0.0
 10
0.2633
 20
0.52471
 30
0.0
 10
0.22669
 20
0.50725
 30
0.0
 10
0.19465
 20
0.49303
 30
0.0
 10
0.19465
 20
0.49303
 30
0.0
 10
0.1626
 20
0.47881
 30
0.0
 10
0.13512
 20
0.46783
 30
0.0
 10
0.10331
 20
0.45355
 30
0.0
 10
0.10331
 20
0.45355
 30
0.0
 10
0.07151
 20
0.43928
 30
0.0
 10
0.03538
 20
0.4217
 30
0.0
 10
0.0079
 20
0.41017
 30
0.0
 10
0.0079
 20
0.41017
 30
0.0
 10
-0.01958
 20
0.39864
 30
0.0
 10
-0.03843
 20
0.39315
 30
0.0
 10
-0.07612
 20
0.40303
 30
0.0
 10
-0.07612
 20
0.40303
 30
0.0
 10
-0.11381
 20
0.41292
 30
0.0
 10
-0.17036
 20
0.43818
 30
0.0
 10
-0.18498
 20
0.45826
 30
0.0
 10
-0.18498
 20
0.45826
 30
0.0
 10
-0.19961
 20
0.47834
 30
0.0
 10
-0.17232
 20
0.49325
 30
0.0
 10
-0.13109
 20
0.50533
 30
0.0
 10
-0.13109
 20
0.50533
 30
0.0
 10
-0.08986
 20
0.51741
 30
0.0
 10
-0.0347
 20
0.52666
 30
0.0
 10
-0.00715
 20
0.53513
 30
0.0
 10
-0.00715
 20
0.53513
 30
0.0
 10
0.02039
 20
0.54361
 30
0.0
 10
0.02032
 20
0.55131
 30
0.0
 10
0.02051
 20
0.56139
 30
0.0
 10
0.02051
 20
0.56139
 30
0.0
 10
0.02071
 20
0.57148
 30
0.0
 10
0.02118
 20
0.58396
 30
0.0
 10
0.021
 20
0.59549
 30
0.0
 10
0.021
 20
0.59549
 30
0.0
 10
0.02082
 20
0.60701
 30
0.0
 10
0.01999
 20
0.61758
 30
0.0
 10
-0.00023
 20
0.61518
 30
0.0
 10
-0.00023
 20
0.61518
 30
0.0
 10
-0.02045
 20
0.61278
 30
0.0
 10
-0.06007
 20
0.59741
 30
0.0
 10
-0.0999
 20
0.58313
 30
0.0
 10
-0.0999
 20
0.58313
 30
0.0
 10
-0.13973
 20
0.56886
 30
0.0
 10
-0.17978
 20
0.55568
 30
0.0
 10
-0.21198
 20
0.54086
 30
0.0
 10
-0.21198
 20
0.54086
 30
0.0
 10
-0.26783
 20
0.51514
 30
0.0
 10
-0.35644
 20
0.46831
 30
0.0
 10
-0.41193
 20
0.4386
 30
0.0
 10
-0.41193
 20
0.4386
 30
0.0
 10
-0.45011
 20
0.41815
 30
0.0
 10
-0.49898
 20
0.37616
 30
0.0
 10
-0.52434
 20
0.37342
 30
0.0
 10
-0.52434
 20
0.37342
 30
0.0
 10
-0.54971
 20
0.37068
 30
0.0
 10
-0.55157
 20
0.4072
 30
0.0
 10
-0.55343
 20
0.44371
 30
0.0
  0
SPLINE
  5
4F
330
1F
100
AcDbEntity
  8
Layer 1
370
     9
100
AcDbSpline
210
0.0
220
0.0
230
1.0
 70
    24
 71
     3
 72
     8
 73
     4
 74
     0
 42
0.0000000001
 43
0.0000000001
 40
0.0
 40
0.0
 40
0.0
 40
0.0
 40
1.0
 40
1.0
 40
1.0
 40
1.0
 10
-1.43036
 20
-1.77873
 30
0.0
 10
-1.43036
 20
-1.77873
 30
0.0
 10
-0.67323
 20
-1.77873
 30
0.0
 10
-0.67323
 20
-1.77873
 30
0.0
  0
SPLINE
  5
50
330
1F
100
AcDbEntity
  8
Layer 1
370
     9
100
AcDbSpline
210
0.0
220
0.0
230
1.0
 70
    24
 71
     3
 72
     8
 73
     4
 74
     0
 42
0.0000000001
 43
0.0000000001
 40
0.0
 40
0.0
 40
0.0
 40
0.0
 40
1.0
 40
1.0
 40
1.0
 40
1.0
 10
-0.64273
 20
-1.77873
 30
0.0
 10
-0.64273
 20
-1.77873
 30
0.0
 10
0.11439
 20
-1.77873
 30
0.0
 10
0.11439
 20
-1.77873
 30
0.0
  0
SPLINE
  5
51
330
1F
100
AcDbEntity
  8
Layer 1
370
     9
100
AcDbSpline
210
0.0
220
0.0
230
1.0
 70
     8
 71
     3
 72
    84
 73
    80
 74
     0
 42
0.0000000001
 43
0.0000000001
 40
0.0
 40
0.0
 40
0.0
 40
0.0
 40
0.0476190476190476
 40
0.0476190476190476
 40
0.0476190476190476
 40
0.0476190476190476
 40
0.0952380952380952
 40
0.0952380952380952
 40
0.0952380952380952
 40
0.0952380952380952
 40
0.1428571428571428
 40
0.1428571428571428
 40
0.1428571428571428
 40
0.1428571428571428
 40
0.1904761904761905
 40
0.1904761904761905
 40
0.1904761904761905
 40
0.1904761904761905
 40
0.2380952380952381
 40
0.2380952380952381
 40
0.2380952380952381
 40
0.2380952380952381
 40
0.2857142857142857
 40
0.2857142857142857
 40
0.2857142857142857
 40
0.2857142857142857
 40
0.3333333333333333
 40
0.3333333333333333
 40
0.3333333333333333
 40
0.3333333333333333
 40
0.3809523809523809
 40
0.3809523809523809
 40
0.3809523809523809
 40
0.3809523809523809
 40
0.4285714285714285
 40
0.4285714285714285
 40
0.4285714285714285
 40
0.4285714285714285
 40
0.4761904761904762
 40
0.4761904761904762
 40
0.4761904761904762
 40
0.4761904761904762
 40
0.5238095238095238
 40
0.5238095238095238
 40
0.5238095238095238
 40
0.5238095238095238
 40
0.5714285714285714
 40
0.5714285714285714
 40
0.5714285714285714
 40
0.5714285714285714
 40
0.6190476190476191
 40
0.6190476190476191
 40
0.6190476190476191
 40
0.6190476190476191
 40
0.6666666666666666
 40
0.6666666666666666
 40
0.6666666666666666
 40
0.6666666666666666
 40
0.7142857142857143
 40
0.7142857142857143
 40
0.7142857142857143
 40
0.7142857142857143
 40
0.7619047619047619
 40
0.7619047619047619
 40
0.7619047619047619
 40
0.7619047619047619
 40
0.8095238095238095
 40
0.8095238095238095
 40
0.8095238095238095
 40
0.8095238095238095
 40
0.8571428571428571
 40
0.8571428571428571
 40
0.8571428571428571
 40
0.8571428571428571
 40
0.9047619047619048
 40
0.9047619047619048
 40
0.9047619047619048
 40
0.9047619047619048
 40
1.0
 40
1.0
 40
1.0
 40
1.0
 10
-0.76253
 20
0.16696
 30
0.0
 10
-0.7637
 20
0.14967
 30
0.0
 10
-0.76487
 20
0.13237
 30
0.0
 10
-0.77802
 20
0.12262
 30
0.0
 10
-0.77802
 20
0.12262
 30
0.0
 10
-0.79117
 20
0.11288
 30
0.0
 10
-0.8163
 20
0.11068
 30
0.0
 10
-0.85969
 20
0.11314
 30
0.0
 10
-0.85969
 20
0.11314
 30
0.0
 10
-0.90308
 20
0.11561
 30
0.0
 10
-0.96473
 20
0.12274
 30
0.0
 10
-1.04051
 20
0.14416
 30
0.0
 10
-1.04051
 20
0.14416
 30
0.0
 10
-1.11629
 20
0.16557
 30
0.0
 10
-1.20621
 20
0.20127
 30
0.0
 10
-1.25199
 20
0.21596
 30
0.0
 10
-1.25199
 20
0.21596
 30
0.0
 10
-1.29777
 20
0.23065
 30
0.0
 10
-1.29941
 20
0.22433
 30
0.0
 10
-1.30329
 20
0.21257
 30
0.0
 10
-1.30329
 20
0.21257
 30
0.0
 10
-1.30718
 20
0.20081
 30
0.0
 10
-1.3133
 20
0.18361
 30
0.0
 10
-1.31827
 20
0.16975
 30
0.0
 10
-1.31827
 20
0.16975
 30
0.0
 10
-1.32324
 20
0.15589
 30
0.0
 10
-1.32705
 20
0.14538
 30
0.0
 10
-1.30767
 20
0.13603
 30
0.0
 10
-1.30767
 20
0.13603
 30
0.0
 10
-1.2883
 20
0.12669
 30
0.0
 10
-1.24573
 20
0.11851
 30
0.0
 10
-1.20819
 20
0.10972
 30
0.0
 10
-1.20819
 20
0.10972
 30
0.0
 10
-1.17066
 20
0.10093
 30
0.0
 10
-1.13815
 20
0.09151
 30
0.0
 10
-1.11869
 20
0.08585
 30
0.0
 10
-1.11869
 20
0.08585
 30
0.0
 10
-1.09924
 20
0.0802
 30
0.0
 10
-1.10044
 20
0.08127
 30
0.0
 10
-1.10174
 20
0.06742
 30
0.0
 10
-1.10174
 20
0.06742
 30
0.0
 10
-1.10305
 20
0.05358
 30
0.0
 10
-1.11349
 20
0.01816
 30
0.0
 10
-1.11488
 20
0.00822
 30
0.0
 10
-1.11488
 20
0.00822
 30
0.0
 10
-1.11627
 20
-0.00172
 30
0.0
 10
-1.10511
 20
-0.00225
 30
0.0
 10
-1.09726
 20
-0.0045
 30
0.0
 10
-1.09726
 20
-0.0045
 30
0.0
 10
-1.08941
 20
-0.00675
 30
0.0
 10
-1.07407
 20
-0.0121
 30
0.0
 10
-1.0683
 20
-0.01392
 30
0.0
 10
-1.0683
 20
-0.01392
 30
0.0
 10
-1.06252
 20
-0.01574
 30
0.0
 10
-1.05869
 20
-0.01702
 30
0.0
 10
-1.05419
 20
-0.00366
 30
0.0
 10
-1.05419
 20
-0.00366
 30
0.0
 10
-1.04969
 20
0.00969
 30
0.0
 10
-1.04451
 20
0.03767
 30
0.0
 10
-1.04042
 20
0.05166
 30
0.0
 10
-1.04042
 20
0.05166
 30
0.0
 10
-1.03634
 20
0.06565
 30
0.0
 10
-1.03335
 20
0.06565
 30
0.0
 10
-1.02216
 20
0.06346
 30
0.0
 10
-1.02216
 20
0.06346
 30
0.0
 10
-1.01097
 20
0.06126
 30
0.0
 10
-0.99158
 20
0.05686
 30
0.0
 10
-0.95872
 20
0.05055
 30
0.0
 10
-0.95872
 20
0.05055
 30
0.0
 10
-0.92585
 20
0.04424
 30
0.0
 10
-0.87952
 20
0.036
 30
0.0
 10
-0.84778
 20
0.02932
 30
0.0
 10
-0.84778
 20
0.02932
 30
0.0
 10
-0.81604
 20
0.02264
 30
0.0
 10
-0.7989
 20
0.01752
 30
0.0
 10
-0.78712
 20
-0.00279
 30
0.0
 10
-0.78712
 20
-0.00279
 30
0.0
 10
-0.77535
 20
-0.0231
 30
0.0
 10
-0.761
 20
-0.06765
 30
0.0
 10
-0.76253
 20
-0.1547
 30
0.0
  0
SPLINE
  5
52
330
1F
100
AcDbEntity
  8
Layer 1
370
     9
100
AcDbSpline
210
0.0
220
0.0
230
1.0
 70
    24
 71
     3
 72
    12
 73
     8
 74
     0
 42
0.0000000001
 43
0.0000000001
 40
0.0
 40
0.0
 40
0.0
 40
0.0
 40
0.3333333333333333
 40
0.3333333333333333
 40
0.3333333333333333
 40
0.3333333333333333
 40
1.0
 40
1.0
 40
1.0
 40
1.0
 10
-0.76253
 20
1.26982
 30
0.0
 10
-0.76253
 20
1.26543
 30
0.0
 10
-0.76253
 20
1.26104
 30
0.0
 10
-0.76253
 20
1.25884
 30
0.0
 10
-0.76253
 20
1.25884
 30
0.0
 10
-0.76253
 20
1.25665
 30
0.0
 10
-0.76253
 20
1.25665
 30
0.0
 10
-0.76253
 20
1.25665
 30
0.0
  0
SPLINE
  5
53
330
1F
100
AcDbEntity
  8
Layer 1
370
     9
100
AcDbSpline
210
0.0
220
0.0
230
1.0
 70
    24
 71
     3
 72
     8
 73
     4
 74
     0
 42
0.0000000001
 43
0.0000000001
 40
0.0
 40
0.0
 40
0.0
 40
0.0
 40
1.0
 40
1.0
 40
1.0
 40
1.0
 10
-0.76253
 20
0.8646
 30
0.0
 10
-0.76253
 20
0.83852
 30
0.0
 10
-0.76253
 20
0.81243
 30
0.0
 10
-0.76253
 20
0.78635
 30
0.0
  0
SPLINE
  5
54
330
1F
100
AcDbEntity
  8
Layer 1
370
     9
100
AcDbSpline
210
0.0
220
0.0
230
1.0
 70
    24
 71
     3
 72
     8
 73
     4
 74
     0
 42
0.0000000001
 43
0.0000000001
 40
0.0
 40
0.0
 40
0.0
 40
0.0
 40
1.0
 40
1.0
 40
1.0
 40
1.0
 10
-0.76253
 20
0.49149
 30
0.0
 10
-0.76253
 20
0.47557
 30
0.0
 10
-0.76253
 20
0.45964
 30
0.0
 10
-0.76253
 20
0.44371
 30
0.0
  0
SPLINE
  5
55
330
1F
100
AcDbEntity
  8
Layer 1
370
     9
100
AcDbSpline
210
0.0
220
0.0
230
1.0
 70
    24
 71
     3
 72
     8
 73
     4
 74
     0
 42
0.0000000001
 43
0.0000000001
 40
0.0
 40
0.0
 40
0.0
 40
0.0
 40
1.0
 40
1.0
 40
1.0
 40
1.0
 10
-0.76253
 20
0.16696
 30
0.0
 10
-0.76253
 20
0.17314
 30
0.0
 10
-0.76253
 20
0.17932
 30
0.0
 10
-0.76253
 20
0.1855
 30
0.0
  0
SPLINE
  5
56
330
1F
100
AcDbEntity
  8
Layer 1
370
     9
100
AcDbSpline
210
0.0
220
0.0
230
1.0
 70
     8
 71
     3
 72
    72
 73
    68
 74
     0
 42
0.0000000001
 43
0.0000000001
 40
0.0
 40
0.0
 40
0.0
 40
0.0
 40
0.0555555555555556
 40
0.0555555555555556
 40
0.0555555555555556
 40
0.0555555555555556
 40
0.1111111111111111
 40
0.1111111111111111
 40
0.1111111111111111
 40
0.1111111111111111
 40
0.1666666666666667
 40
0.1666666666666667
 40
0.1666666666666667
 40
0.1666666666666667
 40
0.2222222222222222
 40
0.2222222222222222
 40
0.2222222222222222
 40
0.2222222222222222
 40
0.2777777777777778
 40
0.2777777777777778
 40
0.2777777777777778
 40
0.2777777777777778
 40
0.3333333333333333
 40
0.3333333333333333
 40
0.3333333333333333
 40
0.3333333333333333
 40
0.3888888888888889
 40
0.3888888888888889
 40
0.3888888888888889
 40
0.3888888888888889
 40
0.4444444444444444
 40
0.4444444444444444
 40
0.4444444444444444
 40
0.4444444444444444
 40
0.5
 40
0.5
 40
0.5
 40
0.5
 40
0.5555555555555556
 40
0.5555555555555556
 40
0.5555555555555556
 40
0.5555555555555556
 40
0.6111111111111112
 40
0.6111111111111112
 40
0.6111111111111112
 40
0.6111111111111112
 40
0.6666666666666666
 40
0.6666666666666666
 40
0.6666666666666666
 40
0.6666666666666666
 40
0.7222222222222222
 40
0.7222222222222222
 40
0.7222222222222222
 40
0.7222222222222222
 40
0.7777777777777778
 40
0.7777777777777778
 40
0.7777777777777778
 40
0.7777777777777778
 40
0.8333333333333334
 40
0.8333333333333334
 40
0.8333333333333334
 40
0.8333333333333334
 40
0.8888888888888888
 40
0.8888888888888888
 40
0.8888888888888888
 40
0.8888888888888888
 40
1.0
 40
1.0
 40
1.0
 40
1.0
 10
-0.76253
 20
1.26982
 30
0.0
 10
-0.76542
 20
1.31238
 30
0.0
 10
-0.76832
 20
1.35493
 30
0.0
 10
-0.78966
 20
1.3899
 30
0.0
 10
-0.78966
 20
1.3899
 30
0.0
 10
-0.81101
 20
1.42486
 30
0.0
 10
-0.8508
 20
1.45224
 30
0.0
 10
-0.88278
 20
1.47521
 30
0.0
 10
-0.88278
 20
1.47521
 30
0.0
 10
-0.91476
 20
1.49818
 30
0.0
 10
-0.93892
 20
1.51673
 30
0.0
 10
-0.97142
 20
1.51215
 30
0.0
 10
-0.97142
 20
1.51215
 30
0.0
 10
-1.00392
 20
1.50757
 30
0.0
 10
-1.04476
 20
1.47983
 30
0.0
 10
-1.06714
 20
1.4705
 30
0.0
 10
-1.06714
 20
1.4705
 30
0.0
 10
-1.08952
 20
1.46116
 30
0.0
 10
-1.09344
 20
1.47022
 30
0.0
 10
-1.09836
 20
1.48037
 30
0.0
 10
-1.09836
 20
1.48037
 30
0.0
 10
-1.10328
 20
1.49053
 30
0.0
 10
-1.10919
 20
1.50176
 30
0.0
 10
-1.1141
 20
1.5111
 30
0.0
 10
-1.1141
 20
1.5111
 30
0.0
 10
-1.11901
 20
1.52043
 30
0.0
 10
-1.12291
 20
1.52786
 30
0.0
 10
-1.10429
 20
1.53987
 30
0.0
 10
-1.10429
 20
1.53987
 30
0.0
 10
-1.08567
 20
1.55188
 30
0.0
 10
-1.04453
 20
1.56846
 30
0.0
 10
-1.01528
 20
1.57944
 30
0.0
 10
-1.01528
 20
1.57944
 30
0.0
 10
-0.98602
 20
1.59042
 30
0.0
 10
-0.96866
 20
1.5958
 30
0.0
 10
-0.96995
 20
1.61628
 30
0.0
 10
-0.96995
 20
1.61628
 30
0.0
 10
-0.97123
 20
1.63676
 30
0.0
 10
-0.99117
 20
1.67233
 30
0.0
 10
-0.99843
 20
1.6907
 30
0.0
 10
-0.99843
 20
1.6907
 30
0.0
 10
-1.00569
 20
1.70908
 30
0.0
 10
-1.00029
 20
1.71025
 30
0.0
 10
-0.99114
 20
1.71224
 30
0.0
 10
-0.99114
 20
1.71224
 30
0.0
 10
-0.98199
 20
1.71423
 30
0.0
 10
-0.9691
 20
1.71704
 30
0.0
 10
-0.95907
 20
1.71933
 30
0.0
 10
-0.95907
 20
1.71933
 30
0.0
 10
-0.94903
 20
1.72161
 30
0.0
 10
-0.94187
 20
1.72339
 30
0.0
 10
-0.93516
 20
1.71542
 30
0.0
 10
-0.93516
 20
1.71542
 30
0.0
 10
-0.92846
 20
1.70745
 30
0.0
 10
-0.92221
 20
1.68973
 30
0.0
 10
-0.91132
 20
1.6612
 30
0.0
 10
-0.91132
 20
1.6612
 30
0.0
 10
-0.90043
 20
1.63267
 30
0.0
 10
-0.8849
 20
1.59331
 30
0.0
 10
-0.85933
 20
1.55916
 30
0.0
 10
-0.85933
 20
1.55916
 30
0.0
 10
-0.83376
 20
1.525
 30
0.0
 10
-0.79814
 20
1.49604
 30
0.0
 10
-0.76291
 20
1.47916
 30
0.0
 10
-0.76291
 20
1.47916
 30
0.0
 10
-0.72768
 20
1.46228
 30
0.0
 10
-0.69283
 20
1.45747
 30
0.0
 10
-0.65798
 20
1.45267
 30
0.0
  0
SPLINE
  5
57
330
1F
100
AcDbEntity
  8
Layer 1
370
     9
100
AcDbSpline
210
0.0
220
0.0
230
1.0
 70
     8
 71
     3
 72
   128
 73
   124
 74
     0
 42
0.0000000001
 43
0.0000000001
 40
0.0
 40
0.0
 40
0.0
 40
0.0
 40
0.03125
 40
0.03125
 40
0.03125
 40
0.03125
 40
0.0625
 40
0.0625
 40
0.0625
 40
0.0625
 40
0.09375
 40
0.09375
 40
0.09375
 40
0.09375
 40
0.125
 40
0.125
 40
0.125
 40
0.125
 40
0.15625
 40
0.15625
 40
0.15625
 40
0.15625
 40
0.1875
 40
0.1875
 40
0.1875
 40
0.1875
 40
0.21875
 40
0.21875
 40
0.21875
 40
0.21875
 40
0.25
 40
0.25
 40
0.25
 40
0.25
 40
0.28125
 40
0.28125
 40
0.28125
 40
0.28125
 40
0.3125
 40
0.3125
 40
0.3125
 40
0.3125
 40
0.34375
 40
0.34375
 40
0.34375
 40
0.34375
 40
0.375
 40
0.375
 40
0.375
 40
0.375
 40
0.40625
 40
0.40625
 40
0.40625
 40
0.40625
 40
0.4375
 40
0.4375
 40
0.4375
 40
0.4375
 40
0.46875
 40
0.46875
 40
0.46875
 40
0.46875
 40
0.5
 40
0.5
 40
0.5
 40
0.5
 40
0.53125
 40
0.53125
 40
0.53125
 40
0.53125
 40
0.5625
 40
0.5625
 40
0.5625
 40
0.5625
 40
0.59375
 40
0.59375
 40
0.59375
 40
0.59375
 40
0.625
 40
0.625
 40
0.625
 40
0.625
 40
0.65625
 40
0.65625
 40
0.65625
 40
0.65625
 40
0.6875
 40
0.6875
 40
0.6875
 40
0.6875
 40
0.71875
 40
0.71875
 40
0.71875
 40
0.71875
 40
0.75
 40
0.75
 40
0.75
 40
0.75
 40
0.78125
 40
0.78125
 40
0.78125
 40
0.78125
 40
0.8125
 40
0.8125
 40
0.8125
 40
0.8125
 40
0.84375
 40
0.84375
 40
0.84375
 40
0.84375
 40
0.875
 40
0.875
 40
0.875
 40
0.875
 40
0.90625
 40
0.90625
 40
0.90625
 40
0.90625
 40
0.9375
 40
0.9375
 40
0.9375
 40
0.9375
 40
1.0
 40
1.0
 40
1.0
 40
1.0
 10
-0.76253
 20
0.8646
 30
0.0
 10
-0.76454
 20
0.9206
 30
0.0
 10
-0.76656
 20
0.97661
 30
0.0
 10
-0.80881
 20
1.03592
 30
0.0
 10
-0.80881
 20
1.03592
 30
0.0
 10
-0.85105
 20
1.09523
 30
0.0
 10
-0.93353
 20
1.15785
 30
0.0
 10
-0.99669
 20
1.19505
 30
0.0
 10
-0.99669
 20
1.19505
 30
0.0
 10
-1.05985
 20
1.23226
 30
0.0
 10
-1.1037
 20
1.24405
 30
0.0
 10
-1.14454
 20
1.25503
 30
0.0
 10
-1.14454
 20
1.25503
 30
0.0
 10
-1.18537
 20
1.26602
 30
0.0
 10
-1.22319
 20
1.27619
 30
0.0
 10
-1.27038
 20
1.28017
 30
0.0
 10
-1.27038
 20
1.28017
 30
0.0
 10
-1.31756
 20
1.28416
 30
0.0
 10
-1.3741
 20
1.28196
 30
0.0
 10
-1.41995
 20
1.28487
 30
0.0
 10
-1.41995
 20
1.28487
 30
0.0
 10
-1.46579
 20
1.28778
 30
0.0
 10
-1.50095
 20
1.2958
 30
0.0
 10
-1.51569
 20
1.30439
 30
0.0
 10
-1.51569
 20
1.30439
 30
0.0
 10
-1.53045
 20
1.31298
 30
0.0
 10
-1.52479
 20
1.32213
 30
0.0
 10
-1.51724
 20
1.33365
 30
0.0
 10
-1.51724
 20
1.33365
 30
0.0
 10
-1.50968
 20
1.34516
 30
0.0
 10
-1.50022
 20
1.35904
 30
0.0
 10
-1.49394
 20
1.36807
 30
0.0
 10
-1.49394
 20
1.36807
 30
0.0
 10
-1.48767
 20
1.37711
 30
0.0
 10
-1.48457
 20
1.3813
 30
0.0
 10
-1.47377
 20
1.37786
 30
0.0
 10
-1.47377
 20
1.37786
 30
0.0
 10
-1.46297
 20
1.37441
 30
0.0
 10
-1.44445
 20
1.36333
 30
0.0
 10
-1.4132
 20
1.35889
 30
0.0
 10
-1.4132
 20
1.35889
 30
0.0
 10
-1.38196
 20
1.35445
 30
0.0
 10
-1.33798
 20
1.35664
 30
0.0
 10
-1.29478
 20
1.35526
 30
0.0
 10
-1.29478
 20
1.35526
 30
0.0
 10
-1.25157
 20
1.35388
 30
0.0
 10
-1.20914
 20
1.34891
 30
0.0
 10
-1.19984
 20
1.37118
 30
0.0
 10
-1.19984
 20
1.37118
 30
0.0
 10
-1.19054
 20
1.39345
 30
0.0
 10
-1.21437
 20
1.44296
 30
0.0
 10
-1.2323
 20
1.48312
 30
0.0
 10
-1.2323
 20
1.48312
 30
0.0
 10
-1.25023
 20
1.52329
 30
0.0
 10
-1.26227
 20
1.55413
 30
0.0
 10
-1.26582
 20
1.57108
 30
0.0
 10
-1.26582
 20
1.57108
 30
0.0
 10
-1.26936
 20
1.58803
 30
0.0
 10
-1.26441
 20
1.59111
 30
0.0
 10
-1.25668
 20
1.59598
 30
0.0
 10
-1.25668
 20
1.59598
 30
0.0
 10
-1.24894
 20
1.60086
 30
0.0
 10
-1.23842
 20
1.60753
 30
0.0
 10
-1.23163
 20
1.61119
 30
0.0
 10
-1.23163
 20
1.61119
 30
0.0
 10
-1.22484
 20
1.61485
 30
0.0
 10
-1.22178
 20
1.61551
 30
0.0
 10
-1.21317
 20
1.6004
 30
0.0
 10
-1.21317
 20
1.6004
 30
0.0
 10
-1.20455
 20
1.5853
 30
0.0
 10
-1.19038
 20
1.55443
 30
0.0
 10
-1.17701
 20
1.52033
 30
0.0
 10
-1.17701
 20
1.52033
 30
0.0
 10
-1.16364
 20
1.48623
 30
0.0
 10
-1.15108
 20
1.44889
 30
0.0
 10
-1.13458
 20
1.41594
 30
0.0
 10
-1.13458
 20
1.41594
 30
0.0
 10
-1.11809
 20
1.383
 30
0.0
 10
-1.09767
 20
1.35444
 30
0.0
 10
-1.07545
 20
1.33564
 30
0.0
 10
-1.07545
 20
1.33564
 30
0.0
 10
-1.05323
 20
1.31685
 30
0.0
 10
-1.02921
 20
1.3078
 30
0.0
 10
-1.01692
 20
1.30785
 30
0.0
 10
-1.01692
 20
1.30785
 30
0.0
 10
-1.00464
 20
1.3079
 30
0.0
 10
-1.00409
 20
1.31704
 30
0.0
 10
-0.99928
 20
1.34679
 30
0.0
 10
-0.99928
 20
1.34679
 30
0.0
 10
-0.99448
 20
1.37654
 30
0.0
 10
-0.98542
 20
1.4269
 30
0.0
 10
-0.97742
 20
1.45045
 30
0.0
 10
-0.97742
 20
1.45045
 30
0.0
 10
-0.96942
 20
1.47399
 30
0.0
 10
-0.96248
 20
1.47072
 30
0.0
 10
-0.95791
 20
1.46859
 30
0.0
 10
-0.95791
 20
1.46859
 30
0.0
 10
-0.95334
 20
1.46646
 30
0.0
 10
-0.95114
 20
1.46546
 30
0.0
 10
-0.94777
 20
1.46366
 30
0.0
 10
-0.94777
 20
1.46366
 30
0.0
 10
-0.9444
 20
1.46186
 30
0.0
 10
-0.93986
 20
1.45926
 30
0.0
 10
-0.93334
 20
1.45553
 30
0.0
 10
-0.93334
 20
1.45553
 30
0.0
 10
-0.92682
 20
1.45181
 30
0.0
 10
-0.91831
 20
1.44696
 30
0.0
 10
-0.92364
 20
1.41708
 30
0.0
 10
-0.92364
 20
1.41708
 30
0.0
 10
-0.92896
 20
1.38721
 30
0.0
 10
-0.94812
 20
1.33232
 30
0.0
 10
-0.95135
 20
1.30142
 30
0.0
 10
-0.95135
 20
1.30142
 30
0.0
 10
-0.95458
 20
1.27052
 30
0.0
 10
-0.9419
 20
1.26362
 30
0.0
 10
-0.90778
 20
1.23401
 30
0.0
 10
-0.90778
 20
1.23401
 30
0.0
 10
-0.87366
 20
1.2044
 30
0.0
 10
-0.81809
 20
1.15207
 30
0.0
 10
-0.79031
 20
1.15206
 30
0.0
 10
-0.79031
 20
1.15206
 30
0.0
 10
-0.76253
 20
1.15205
 30
0.0
 10
-0.76253
 20
1.20435
 30
0.0
 10
-0.76253
 20
1.25665
 30
0.0
  0
SPLINE
  5
58
330
1F
100
AcDbEntity
  8
Layer 1
370
     9
100
AcDbSpline
210
0.0
220
0.0
230
1.0
 70
     8
 71
     3
 72
   196
 73
   192
 74
     0
 42
0.0000000001
 43
0.0000000001
 40
0.0
 40
0.0
 40
0.0
 40
0.0
 40
0.0204081632653061
 40
0.0204081632653061
 40
0.0204081632653061
 40
0.0204081632653061
 40
0.0408163265306122
 40
0.0408163265306122
 40
0.0408163265306122
 40
0.0408163265306122
 40
0.0612244897959184
 40
0.0612244897959184
 40
0.0612244897959184
 40
0.0612244897959184
 40
0.0816326530612245
 40
0.0816326530612245
 40
0.0816326530612245
 40
0.0816326530612245
 40
0.1020408163265306
 40
0.1020408163265306
 40
0.1020408163265306
 40
0.1020408163265306
 40
0.1224489795918367
 40
0.1224489795918367
 40
0.1224489795918367
 40
0.1224489795918367
 40
0.1428571428571428
 40
0.1428571428571428
 40
0.1428571428571428
 40
0.1428571428571428
 40
0.163265306122449
 40
0.163265306122449
 40
0.163265306122449
 40
0.163265306122449
 40
0.1836734693877551
 40
0.1836734693877551
 40
0.1836734693877551
 40
0.1836734693877551
 40
0.2040816326530612
 40
0.2040816326530612
 40
0.2040816326530612
 40
0.2040816326530612
 40
0.2244897959183673
 40
0.2244897959183673
 40
0.2244897959183673
 40
0.2244897959183673
 40
0.2448979591836735
 40
0.2448979591836735
 40
0.2448979591836735
 40
0.2448979591836735
 40
0.2653061224489796
 40
0.2653061224489796
 40
0.2653061224489796
 40
0.2653061224489796
 40
0.2857142857142857
 40
0.2857142857142857
 40
0.2857142857142857
 40
0.2857142857142857
 40
0.3061224489795918
 40
0.3061224489795918
 40
0.3061224489795918
 40
0.3061224489795918
 40
0.3265306122448979
 40
0.3265306122448979
 40
0.3265306122448979
 40
0.3265306122448979
 40
0.3469387755102041
 40
0.3469387755102041
 40
0.3469387755102041
 40
0.3469387755102041
 40
0.3673469387755102
 40
0.3673469387755102
 40
0.3673469387755102
 40
0.3673469387755102
 40
0.3877551020408163
 40
0.3877551020408163
 40
0.3877551020408163
 40
0.3877551020408163
 40
0.4081632653061225
 40
0.4081632653061225
 40
0.4081632653061225
 40
0.4081632653061225
 40
0.4285714285714285
 40
0.4285714285714285
 40
0.4285714285714285
 40
0.4285714285714285
 40
0.4489795918367347
 40
0.4489795918367347
 40
0.4489795918367347
 40
0.4489795918367347
 40
0.4693877551020408
 40
0.4693877551020408
 40
0.4693877551020408
 40
0.4693877551020408
 40
0.4897959183673469
 40
0.4897959183673469
 40
0.4897959183673469
 40
0.4897959183673469
 40
0.5102040816326531
 40
0.5102040816326531
 40
0.5102040816326531
 40
0.5102040816326531
 40
0.5306122448979592
 40
0.5306122448979592
 40
0.5306122448979592
 40
0.5306122448979592
 40
0.5510204081632653
 40
0.5510204081632653
 40
0.5510204081632653
 40
0.5510204081632653
 40
0.5714285714285714
 40
0.5714285714285714
 40
0.5714285714285714
 40
0.5714285714285714
 40
0.5918367346938775
 40
0.5918367346938775
 40
0.5918367346938775
 40
0.5918367346938775
 40
0.6122448979591837
 40
0.6122448979591837
 40
0.6122448979591837
 40
0.6122448979591837
 40
0.6326530612244898
 40
0.6326530612244898
 40
0.6326530612244898
 40
0.6326530612244898
 40
0.6530612244897959
 40
0.6530612244897959
 40
0.6530612244897959
 40
0.6530612244897959
 40
0.673469387755102
 40
0.673469387755102
 40
0.673469387755102
 40
0.673469387755102
 40
0.6938775510204082
 40
0.6938775510204082
 40
0.6938775510204082
 40
0.6938775510204082
 40
0.7142857142857143
 40
0.7142857142857143
 40
0.7142857142857143
 40
0.7142857142857143
 40
0.7346938775510204
 40
0.7346938775510204
 40
0.7346938775510204
 40
0.7346938775510204
 40
0.7551020408163265
 40
0.7551020408163265
 40
0.7551020408163265
 40
0.7551020408163265
 40
0.7755102040816326
 40
0.7755102040816326
 40
0.7755102040816326
 40
0.7755102040816326
 40
0.7959183673469388
 40
0.7959183673469388
 40
0.7959183673469388
 40
0.7959183673469388
 40
0.8163265306122449
 40
0.8163265306122449
 40
0.8163265306122449
 40
0.8163265306122449
 40
0.8367346938775511
 40
0.8367346938775511
 40
0.8367346938775511
 40
0.8367346938775511
 40
0.8571428571428571
 40
0.8571428571428571
 40
0.8571428571428571
 40
0.8571428571428571
 40
0.8775510204081632
 40
0.8775510204081632
 40
0.8775510204081632
 40
0.8775510204081632
 40
0.8979591836734694
 40
0.8979591836734694
 40
0.8979591836734694
 40
0.8979591836734694
 40
0.9183673469387755
 40
0.9183673469387755
 40
0.9183673469387755
 40
0.9183673469387755
 40
0.9387755102040817
 40
0.9387755102040817
 40
0.9387755102040817
 40
0.9387755102040817
 40
0.9591836734693877
 40
0.9591836734693877
 40
0.9591836734693877
 40
0.9591836734693877
 40
1.0
 40
1.0
 40
1.0
 40
1.0
 10
-0.76253
 20
0.49149
 30
0.0
 10
-0.76634
 20
0.51702
 30
0.0
 10
-0.77015
 20
0.54255
 30
0.0
 10
-0.78078
 20
0.56204
 30
0.0
 10
-0.78078
 20
0.56204
 30
0.0
 10
-0.7914
 20
0.58153
 30
0.0
 10
-0.80884
 20
0.59496
 30
0.0
 10
-0.84742
 20
0.62213
 30
0.0
 10
-0.84742
 20
0.62213
 30
0.0
 10
-0.88599
 20
0.64931
 30
0.0
 10
-0.94571
 20
0.69021
 30
0.0
 10
-1.00619
 20
0.71395
 30
0.0
 10
-1.00619
 20
0.71395
 30
0.0
 10
-1.06667
 20
0.7377
 30
0.0
 10
-1.12793
 20
0.74429
 30
0.0
 10
-1.18876
 20
0.72427
 30
0.0
 10
-1.18876
 20
0.72427
 30
0.0
 10
-1.24959
 20
0.70426
 30
0.0
 10
-1.30999
 20
0.65762
 30
0.0
 10
-1.35898
 20
0.63404
 30
0.0
 10
-1.35898
 20
0.63404
 30
0.0
 10
-1.40798
 20
0.61047
 30
0.0
 10
-1.44556
 20
0.60994
 30
0.0
 10
-1.47717
 20
0.61488
 30
0.0
 10
-1.47717
 20
0.61488
 30
0.0
 10
-1.50878
 20
0.61982
 30
0.0
 10
-1.53441
 20
0.63023
 30
0.0
 10
-1.56157
 20
0.64012
 30
0.0
 10
-1.56157
 20
0.64012
 30
0.0
 10
-1.58873
 20
0.65001
 30
0.0
 10
-1.61742
 20
0.65937
 30
0.0
 10
-1.63285
 20
0.667
 30
0.0
 10
-1.63285
 20
0.667
 30
0.0
 10
-1.64829
 20
0.67464
 30
0.0
 10
-1.65049
 20
0.68054
 30
0.0
 10
-1.65233
 20
0.69213
 30
0.0
 10
-1.65233
 20
0.69213
 30
0.0
 10
-1.65418
 20
0.70372
 30
0.0
 10
-1.65568
 20
0.721
 30
0.0
 10
-1.6566
 20
0.73234
 30
0.0
 10
-1.6566
 20
0.73234
 30
0.0
 10
-1.65753
 20
0.74368
 30
0.0
 10
-1.65789
 20
0.74908
 30
0.0
 10
-1.62607
 20
0.73922
 30
0.0
 10
-1.62607
 20
0.73922
 30
0.0
 10
-1.59426
 20
0.72935
 30
0.0
 10
-1.53027
 20
0.70421
 30
0.0
 10
-1.48178
 20
0.69435
 30
0.0
 10
-1.48178
 20
0.69435
 30
0.0
 10
-1.43329
 20
0.6845
 30
0.0
 10
-1.40029
 20
0.68993
 30
0.0
 10
-1.36761
 20
0.70618
 30
0.0
 10
-1.36761
 20
0.70618
 30
0.0
 10
-1.33494
 20
0.72242
 30
0.0
 10
-1.30258
 20
0.74948
 30
0.0
 10
-1.26779
 20
0.76999
 30
0.0
 10
-1.26779
 20
0.76999
 30
0.0
 10
-1.233
 20
0.7905
 30
0.0
 10
-1.19578
 20
0.80446
 30
0.0
 10
-1.1975
 20
0.82764
 30
0.0
 10
-1.1975
 20
0.82764
 30
0.0
 10
-1.19923
 20
0.85082
 30
0.0
 10
-1.2399
 20
0.88322
 30
0.0
 10
-1.28181
 20
0.90355
 30
0.0
 10
-1.28181
 20
0.90355
 30
0.0
 10
-1.32372
 20
0.92388
 30
0.0
 10
-1.36687
 20
0.93213
 30
0.0
 10
-1.41694
 20
0.93582
 30
0.0
 10
-1.41694
 20
0.93582
 30
0.0
 10
-1.46701
 20
0.93951
 30
0.0
 10
-1.52399
 20
0.93863
 30
0.0
 10
-1.56554
 20
0.93606
 30
0.0
 10
-1.56554
 20
0.93606
 30
0.0
 10
-1.60709
 20
0.93349
 30
0.0
 10
-1.63321
 20
0.92923
 30
0.0
 10
-1.64605
 20
0.92893
 30
0.0
 10
-1.64605
 20
0.92893
 30
0.0
 10
-1.65889
 20
0.92863
 30
0.0
 10
-1.65846
 20
0.93229
 30
0.0
 10
-1.65762
 20
0.93934
 30
0.0
 10
-1.65762
 20
0.93934
 30
0.0
 10
-1.65678
 20
0.9464
 30
0.0
 10
-1.65554
 20
0.95685
 30
0.0
 10
-1.65434
 20
0.96571
 30
0.0
 10
-1.65434
 20
0.96571
 30
0.0
 10
-1.65314
 20
0.97456
 30
0.0
 10
-1.65198
 20
0.98182
 30
0.0
 10
-1.65116
 20
0.98695
 30
0.0
 10
-1.65116
 20
0.98695
 30
0.0
 10
-1.65034
 20
0.99209
 30
0.0
 10
-1.64986
 20
0.99511
 30
0.0
 10
-1.63103
 20
0.99797
 30
0.0
 10
-1.63103
 20
0.99797
 30
0.0
 10
-1.6122
 20
1.00083
 30
0.0
 10
-1.57503
 20
1.00352
 30
0.0
 10
-1.54863
 20
1.00466
 30
0.0
 10
-1.54863
 20
1.00466
 30
0.0
 10
-1.52223
 20
1.0058
 30
0.0
 10
-1.5066
 20
1.00537
 30
0.0
 10
-1.49443
 20
1.00577
 30
0.0
 10
-1.49443
 20
1.00577
 30
0.0
 10
-1.48226
 20
1.00617
 30
0.0
 10
-1.47354
 20
1.00737
 30
0.0
 10
-1.47826
 20
1.04724
 30
0.0
 10
-1.47826
 20
1.04724
 30
0.0
 10
-1.48297
 20
1.0871
 30
0.0
 10
-1.50112
 20
1.16563
 30
0.0
 10
-1.50819
 20
1.20523
 30
0.0
 10
-1.50819
 20
1.20523
 30
0.0
 10
-1.51527
 20
1.24483
 30
0.0
 10
-1.51128
 20
1.24551
 30
0.0
 10
-1.50375
 20
1.24563
 30
0.0
 10
-1.50375
 20
1.24563
 30
0.0
 10
-1.49622
 20
1.24574
 30
0.0
 10
-1.46715
 20
1.24423
 30
0.0
 10
-1.45939
 20
1.24368
 30
0.0
 10
-1.45939
 20
1.24368
 30
0.0
 10
-1.45164
 20
1.24314
 30
0.0
 10
-1.44721
 20
1.24249
 30
0.0
 10
-1.4392
 20
1.20346
 30
0.0
 10
-1.4392
 20
1.20346
 30
0.0
 10
-1.4312
 20
1.16443
 30
0.0
 10
-1.41961
 20
1.087
 30
0.0
 10
-1.41095
 20
1.04809
 30
0.0
 10
-1.41095
 20
1.04809
 30
0.0
 10
-1.40229
 20
1.00917
 30
0.0
 10
-1.39655
 20
1.00877
 30
0.0
 10
-1.37262
 20
1.00442
 30
0.0
 10
-1.37262
 20
1.00442
 30
0.0
 10
-1.34869
 20
1.00007
 30
0.0
 10
-1.32456
 20
0.99282
 30
0.0
 10
-1.28913
 20
0.98295
 30
0.0
 10
-1.28913
 20
0.98295
 30
0.0
 10
-1.25371
 20
0.97309
 30
0.0
 10
-1.22498
 20
0.96165
 30
0.0
 10
-1.19864
 20
0.94193
 30
0.0
 10
-1.19864
 20
0.94193
 30
0.0
 10
-1.1723
 20
0.92221
 30
0.0
 10
-1.14835
 20
0.8942
 30
0.0
 10
-1.11477
 20
0.87141
 30
0.0
 10
-1.11477
 20
0.87141
 30
0.0
 10
-1.0812
 20
0.84863
 30
0.0
 10
-1.038
 20
0.83106
 30
0.0
 10
-1.0325
 20
0.85576
 30
0.0
 10
-1.0325
 20
0.85576
 30
0.0
 10
-1.027
 20
0.88048
 30
0.0
 10
-1.0592
 20
0.94746
 30
0.0
 10
-1.09199
 20
0.99217
 30
0.0
 10
-1.09199
 20
0.99217
 30
0.0
 10
-1.12478
 20
1.03688
 30
0.0
 10
-1.15816
 20
1.0593
 30
0.0
 10
-1.17045
 20
1.07375
 30
0.0
 10
-1.17045
 20
1.07375
 30
0.0
 10
-1.18274
 20
1.08821
 30
0.0
 10
-1.17394
 20
1.09469
 30
0.0
 10
-1.1677
 20
1.09929
 30
0.0
 10
-1.1677
 20
1.09929
 30
0.0
 10
-1.16146
 20
1.1039
 30
0.0
 10
-1.15777
 20
1.10661
 30
0.0
 10
-1.15169
 20
1.11111
 30
0.0
 10
-1.15169
 20
1.11111
 30
0.0
 10
-1.14561
 20
1.11562
 30
0.0
 10
-1.13712
 20
1.1219
 30
0.0
 10
-1.13033
 20
1.12266
 30
0.0
 10
-1.13033
 20
1.12266
 30
0.0
 10
-1.12353
 20
1.12342
 30
0.0
 10
-1.11843
 20
1.11867
 30
0.0
 10
-1.10986
 20
1.11069
 30
0.0
 10
-1.10986
 20
1.11069
 30
0.0
 10
-1.1013
 20
1.10272
 30
0.0
 10
-1.08928
 20
1.09153
 30
0.0
 10
-1.06757
 20
1.06288
 30
0.0
 10
-1.06757
 20
1.06288
 30
0.0
 10
-1.04585
 20
1.03422
 30
0.0
 10
-1.01444
 20
0.98809
 30
0.0
 10
-0.99245
 20
0.94362
 30
0.0
 10
-0.99245
 20
0.94362
 30
0.0
 10
-0.97046
 20
0.89915
 30
0.0
 10
-0.9579
 20
0.85631
 30
0.0
 10
-0.93944
 20
0.82337
 30
0.0
 10
-0.93944
 20
0.82337
 30
0.0
 10
-0.92099
 20
0.79043
 30
0.0
 10
-0.89664
 20
0.76736
 30
0.0
 10
-0.86749
 20
0.7417
 30
0.0
 10
-0.86749
 20
0.7417
 30
0.0
 10
-0.83834
 20
0.71604
 30
0.0
 10
-0.80438
 20
0.68778
 30
0.0
 10
-0.78609
 20
0.69478
 30
0.0
 10
-0.78609
 20
0.69478
 30
0.0
 10
-0.76779
 20
0.70179
 30
0.0
 10
-0.76516
 20
0.74407
 30
0.0
 10
-0.76253
 20
0.78635
 30
0.0
  0
SPLINE
  5
59
330
1F
100
AcDbEntity
  8
Layer 1
370
     9
100
AcDbSpline
210
0.0
220
0.0
230
1.0
 70
    11
 71
     3
 72
    20
 73
    16
 74
     0
 42
0.0000000001
 43
0.0000000001
 40
0.0
 40
0.0
 40
0.0
 40
0.0
 40
0.2
 40
0.2
 40
0.2
 40
0.2
 40
0.4
 40
0.4
 40
0.4
 40
0.4
 40
0.6
 40
0.6
 40
0.6
 40
0.6
 40
1.0
 40
1.0
 40
1.0
 40
1.0
 10
-1.59106
 20
0.969
 30
0.0
 10
-1.59242
 20
0.97678
 30
0.0
 10
-1.60234
 20
0.98155
 30
0.0
 10
-1.61322
 20
0.97965
 30
0.0
 10
-1.61322
 20
0.97965
 30
0.0
 10
-1.6241
 20
0.97776
 30
0.0
 10
-1.63182
 20
0.96991
 30
0.0
 10
-1.63047
 20
0.96213
 30
0.0
 10
-1.63047
 20
0.96213
 30
0.0
 10
-1.62911
 20
0.95435
 30
0.0
 10
-1.61919
 20
0.94958
 30
0.0
 10
-1.60831
 20
0.95147
 30
0.0
 10
-1.60831
 20
0.95147
 30
0.0
 10
-1.59743
 20
0.95337
 30
0.0
 10
-1.58971
 20
0.96122
 30
0.0
 10
-1.59106
 20
0.969
 30
0.0
  0
SPLINE
  5
5A
330
1F
100
AcDbEntity
  8
Layer 1
370
     9
100
AcDbSpline
210
0.0
220
0.0
230
1.0
 70
    11
 71
     3
 72
    20
 73
    16
 74
     0
 42
0.0000000001
 43
0.0000000001
 40
0.0
 40
0.0
 40
0.0
 40
0.0
 40
0.2
 40
0.2
 40
0.2
 40
0.2
 40
0.4
 40
0.4
 40
0.4
 40
0.4
 40
0.6
 40
0.6
 40
0.6
 40
0.6
 40
1.0
 40
1.0
 40
1.0
 40
1.0
 10
-1.1119
 20
1.06278
 30
0.0
 10
-1.10595
 20
1.06798
 30
0.0
 10
-1.10701
 20
1.07893
 30
0.0
 10
-1.11428
 20
1.08725
 30
0.0
 10
-1.11428
 20
1.08725
 30
0.0
 10
-1.12155
 20
1.09557
 30
0.0
 10
-1.13226
 20
1.0981
 30
0.0
 10
-1.13821
 20
1.09291
 30
0.0
 10
-1.13821
 20
1.09291
 30
0.0
 10
-1.14416
 20
1.08771
 30
0.0
 10
-1.14309
 20
1.07675
 30
0.0
 10
-1.13582
 20
1.06843
 30
0.0
 10
-1.13582
 20
1.06843
 30
0.0
 10
-1.12856
 20
1.06012
 30
0.0
 10
-1.11784
 20
1.05759
 30
0.0
 10
-1.1119
 20
1.06278
 30
0.0
  0
SPLINE
  5
5B
330
1F
100
AcDbEntity
  8
Layer 1
370
     9
100
AcDbSpline
210
0.0
220
0.0
230
1.0
 70
    11
 71
     3
 72
    20
 73
    16
 74
     0
 42
0.0000000001
 43
0.0000000001
 40
0.0
 40
0.0
 40
0.0
 40
0.0
 40
0.2
 40
0.2
 40
0.2
 40
0.2
 40
0.4
 40
0.4
 40
0.4
 40
0.4
 40
0.6
 40
0.6
 40
0.6
 40
0.6
 40
1.0
 40
1.0
 40
1.0
 40
1.0
 10
-0.20547
 20
1.06278
 30
0.0
 10
-0.21142
 20
1.06798
 30
0.0
 10
-0.21035
 20
1.07893
 30
0.0
 10
-0.20308
 20
1.08725
 30
0.0
 10
-0.20308
 20
1.08725
 30
0.0
 10
-0.19581
 20
1.09557
 30
0.0
 10
-0.1851
 20
1.0981
 30
0.0
 10
-0.17915
 20
1.09291
 30
0.0
 10
-0.17915
 20
1.09291
 30
0.0
 10
-0.17321
 20
1.08771
 30
0.0
 10
-0.17427
 20
1.07675
 30
0.0
 10
-0.18154
 20
1.06843
 30
0.0
 10
-0.18154
 20
1.06843
 30
0.0
 10
-0.18881
 20
1.06012
 30
0.0
 10
-0.19952
 20
1.05759
 30
0.0
 10
-0.20547
 20
1.06278
 30
0.0
  0
SPLINE
  5
5C
330
1F
100
AcDbEntity
  8
Layer 1
370
     9
100
AcDbSpline
210
0.0
220
0.0
230
1.0
 70
    11
 71
     3
 72
    20
 73
    16
 74
     0
 42
0.0000000001
 43
0.0000000001
 40
0.0
 40
0.0
 40
0.0
 40
0.0
 40
0.2
 40
0.2
 40
0.2
 40
0.2
 40
0.4
 40
0.4
 40
0.4
 40
0.4
 40
0.6
 40
0.6
 40
0.6
 40
0.6
 40
1.0
 40
1.0
 40
1.0
 40
1.0
 10
-0.35566
 20
1.69366
 30
0.0
 10
-0.34832
 20
1.69074
 30
0.0
 10
-0.34568
 20
1.68006
 30
0.0
 10
-0.34976
 20
1.66979
 30
0.0
 10
-0.34976
 20
1.66979
 30
0.0
 10
-0.35385
 20
1.65953
 30
0.0
 10
-0.36311
 20
1.65357
 30
0.0
 10
-0.37045
 20
1.65649
 30
0.0
 10
-0.37045
 20
1.65649
 30
0.0
 10
-0.37778
 20
1.65941
 30
0.0
 10
-0.38043
 20
1.6701
 30
0.0
 10
-0.37634
 20
1.68036
 30
0.0
 10
-0.37634
 20
1.68036
 30
0.0
 10
-0.37226
 20
1.69063
 30
0.0
 10
-0.363
 20
1.69658
 30
0.0
 10
-0.35566
 20
1.69366
 30
0.0
  0
SPLINE
  5
5D
330
1F
100
AcDbEntity
  8
Layer 1
370
     9
100
AcDbSpline
210
0.0
220
0.0
230
1.0
 70
    11
 71
     3
 72
    20
 73
    16
 74
     0
 42
0.0000000001
 43
0.0000000001
 40
0.0
 40
0.0
 40
0.0
 40
0.0
 40
0.2
 40
0.2
 40
0.2
 40
0.2
 40
0.4
 40
0.4
 40
0.4
 40
0.4
 40
0.6
 40
0.6
 40
0.6
 40
0.6
 40
1.0
 40
1.0
 40
1.0
 40
1.0
 10
-0.36877
 20
1.44129
 30
0.0
 10
-0.36104
 20
1.4429
 30
0.0
 10
-0.35295
 20
1.43543
 30
0.0
 10
-0.3507
 20
1.42462
 30
0.0
 10
-0.3507
 20
1.42462
 30
0.0
 10
-0.34844
 20
1.41381
 30
0.0
 10
-0.35289
 20
1.40373
 30
0.0
 10
-0.36062
 20
1.40212
 30
0.0
 10
-0.36062
 20
1.40212
 30
0.0
 10
-0.36835
 20
1.40051
 30
0.0
 10
-0.37645
 20
1.40797
 30
0.0
 10
-0.3787
 20
1.41879
 30
0.0
 10
-0.3787
 20
1.41879
 30
0.0
 10
-0.38095
 20
1.42961
 30
0.0
 10
-0.37651
 20
1.43967
 30
0.0
 10
-0.36877
 20
1.44129
 30
0.0
  0
SPLINE
  5
5E
330
1F
100
AcDbEntity
  8
Layer 1
370
     9
100
AcDbSpline
210
0.0
220
0.0
230
1.0
 70
    11
 71
     3
 72
    20
 73
    16
 74
     0
 42
0.0000000001
 43
0.0000000001
 40
0.0
 40
0.0
 40
0.0
 40
0.0
 40
0.2
 40
0.2
 40
0.2
 40
0.2
 40
0.4
 40
0.4
 40
0.4
 40
0.4
 40
0.6
 40
0.6
 40
0.6
 40
0.6
 40
1.0
 40
1.0
 40
1.0
 40
1.0
 10
-0.2694
 20
1.52761
 30
0.0
 10
-0.26535
 20
1.53439
 30
0.0
 10
-0.25438
 20
1.5353
 30
0.0
 10
-0.2449
 20
1.52963
 30
0.0
 10
-0.2449
 20
1.52963
 30
0.0
 10
-0.23541
 20
1.52397
 30
0.0
 10
-0.23101
 20
1.51388
 30
0.0
 10
-0.23506
 20
1.5071
 30
0.0
 10
-0.23506
 20
1.5071
 30
0.0
 10
-0.23911
 20
1.50032
 30
0.0
 10
-0.25009
 20
1.49941
 30
0.0
 10
-0.25957
 20
1.50508
 30
0.0
 10
-0.25957
 20
1.50508
 30
0.0
 10
-0.26905
 20
1.51075
 30
0.0
 10
-0.27345
 20
1.52083
 30
0.0
 10
-0.2694
 20
1.52761
 30
0.0
  0
SPLINE
  5
5F
330
1F
100
AcDbEntity
  8
Layer 1
370
     9
100
AcDbSpline
210
0.0
220
0.0
230
1.0
 70
    11
 71
     3
 72
    20
 73
    16
 74
     0
 42
0.0000000001
 43
0.0000000001
 40
0.0
 40
0.0
 40
0.0
 40
0.0
 40
0.2
 40
0.2
 40
0.2
 40
0.2
 40
0.4
 40
0.4
 40
0.4
 40
0.4
 40
0.6
 40
0.6
 40
0.6
 40
0.6
 40
1.0
 40
1.0
 40
1.0
 40
1.0
 10
-0.09229
 20
1.54708
 30
0.0
 10
-0.09986
 20
1.54936
 30
0.0
 10
-0.10342
 20
1.55977
 30
0.0
 10
-0.10024
 20
1.57035
 30
0.0
 10
-0.10024
 20
1.57035
 30
0.0
 10
-0.09707
 20
1.58093
 30
0.0
 10
-0.08836
 20
1.58767
 30
0.0
 10
-0.0808
 20
1.5854
 30
0.0
 10
-0.0808
 20
1.5854
 30
0.0
 10
-0.07323
 20
1.58313
 30
0.0
 10
-0.06967
 20
1.57271
 30
0.0
 10
-0.07285
 20
1.56213
 30
0.0
 10
-0.07285
 20
1.56213
 30
0.0
 10
-0.07602
 20
1.55155
 30
0.0
 10
-0.08473
 20
1.54481
 30
0.0
 10
-0.09229
 20
1.54708
 30
0.0
  0
SPLINE
  5
60
330
1F
100
AcDbEntity
  8
Layer 1
370
     9
100
AcDbSpline
210
0.0
220
0.0
230
1.0
 70
    11
 71
     3
 72
    20
 73
    16
 74
     0
 42
0.0000000001
 43
0.0000000001
 40
0.0
 40
0.0
 40
0.0
 40
0.0
 40
0.2
 40
0.2
 40
0.2
 40
0.2
 40
0.4
 40
0.4
 40
0.4
 40
0.4
 40
0.6
 40
0.6
 40
0.6
 40
0.6
 40
1.0
 40
1.0
 40
1.0
 40
1.0
 10
-0.22886
 20
0.27117
 30
0.0
 10
-0.22215
 20
0.27533
 30
0.0
 10
-0.21199
 20
0.27109
 30
0.0
 10
-0.20617
 20
0.2617
 30
0.0
 10
-0.20617
 20
0.2617
 30
0.0
 10
-0.20035
 20
0.25232
 30
0.0
 10
-0.20108
 20
0.24133
 30
0.0
 10
-0.20779
 20
0.23717
 30
0.0
 10
-0.20779
 20
0.23717
 30
0.0
 10
-0.21451
 20
0.23301
 30
0.0
 10
-0.22467
 20
0.23724
 30
0.0
 10
-0.23049
 20
0.24663
 30
0.0
 10
-0.23049
 20
0.24663
 30
0.0
 10
-0.2363
 20
0.25602
 30
0.0
 10
-0.23558
 20
0.26701
 30
0.0
 10
-0.22886
 20
0.27117
 30
0.0
  0
SPLINE
  5
61
330
1F
100
AcDbEntity
  8
Layer 1
370
     9
100
AcDbSpline
210
0.0
220
0.0
230
1.0
 70
    11
 71
     3
 72
    20
 73
    16
 74
     0
 42
0.0000000001
 43
0.0000000001
 40
0.0
 40
0.0
 40
0.0
 40
0.0
 40
0.2
 40
0.2
 40
0.2
 40
0.2
 40
0.4
 40
0.4
 40
0.4
 40
0.4
 40
0.6
 40
0.6
 40
0.6
 40
0.6
 40
1.0
 40
1.0
 40
1.0
 40
1.0
 10
0.13292
 20
1.33264
 30
0.0
 10
0.13292
 20
1.34054
 30
0.0
 10
0.14187
 20
1.34694
 30
0.0
 10
0.15292
 20
1.34694
 30
0.0
 10
0.15292
 20
1.34694
 30
0.0
 10
0.16397
 20
1.34695
 30
0.0
 10
0.17292
 20
1.34054
 30
0.0
 10
0.17292
 20
1.33264
 30
0.0
 10
0.17292
 20
1.33264
 30
0.0
 10
0.17292
 20
1.32474
 30
0.0
 10
0.16397
 20
1.31834
 30
0.0
 10
0.15292
 20
1.31834
 30
0.0
 10
0.15292
 20
1.31834
 30
0.0
 10
0.14187
 20
1.31834
 30
0.0
 10
0.13292
 20
1.32474
 30
0.0
 10
0.13292
 20
1.33264
 30
0.0
  0
SPLINE
  5
62
330
1F
100
AcDbEntity
  8
Layer 1
370
     9
100
AcDbSpline
210
0.0
220
0.0
230
1.0
 70
    11
 71
     3
 72
    20
 73
    16
 74
     0
 42
0.0000000001
 43
0.0000000001
 40
0.0
 40
0.0
 40
0.0
 40
0.0
 40
0.2
 40
0.2
 40
0.2
 40
0.2
 40
0.4
 40
0.4
 40
0.4
 40
0.4
 40
0.6
 40
0.6
 40
0.6
 40
0.6
 40
1.0
 40
1.0
 40
1.0
 40
1.0
 10
0.15279
 20
1.18416
 30
0.0
 10
0.14513
 20
1.18604
 30
0.0
 10
0.14104
 20
1.19626
 30
0.0
 10
0.14368
 20
1.20699
 30
0.0
 10
0.14368
 20
1.20699
 30
0.0
 10
0.14631
 20
1.21772
 30
0.0
 10
0.15467
 20
1.22489
 30
0.0
 10
0.16234
 20
1.223
 30
0.0
 10
0.16234
 20
1.223
 30
0.0
 10
0.17001
 20
1.22112
 30
0.0
 10
0.17409
 20
1.21089
 30
0.0
 10
0.17145
 20
1.20017
 30
0.0
 10
0.17145
 20
1.20017
 30
0.0
 10
0.16882
 20
1.18944
 30
0.0
 10
0.16046
 20
1.18227
 30
0.0
 10
0.15279
 20
1.18416
 30
0.0
  0
SPLINE
  5
63
330
1F
100
AcDbEntity
  8
Layer 1
370
     9
100
AcDbSpline
210
0.0
220
0.0
230
1.0
 70
    11
 71
     3
 72
    20
 73
    16
 74
     0
 42
0.0000000001
 43
0.0000000001
 40
0.0
 40
0.0
 40
0.0
 40
0.0
 40
0.2
 40
0.2
 40
0.2
 40
0.2
 40
0.4
 40
0.4
 40
0.4
 40
0.4
 40
0.6
 40
0.6
 40
0.6
 40
0.6
 40
1.0
 40
1.0
 40
1.0
 40
1.0
 10
0.2678
 20
0.68792
 30
0.0
 10
0.2654
 20
0.69544
 30
0.0
 10
0.27199
 20
0.70427
 30
0.0
 10
0.28251
 20
0.70762
 30
0.0
 10
0.28251
 20
0.70762
 30
0.0
 10
0.29304
 20
0.71098
 30
0.0
 10
0.30351
 20
0.7076
 30
0.0
 10
0.30591
 20
0.70007
 30
0.0
 10
0.30591
 20
0.70007
 30
0.0
 10
0.30831
 20
0.69255
 30
0.0
 10
0.30173
 20
0.68373
 30
0.0
 10
0.2912
 20
0.68037
 30
0.0
 10
0.2912
 20
0.68037
 30
0.0
 10
0.28068
 20
0.67702
 30
0.0
 10
0.2702
 20
0.68039
 30
0.0
 10
0.2678
 20
0.68792
 30
0.0
  0
SPLINE
  5
64
330
1F
100
AcDbEntity
  8
Layer 1
370
     9
100
AcDbSpline
210
0.0
220
0.0
230
1.0
 70
    11
 71
     3
 72
    20
 73
    16
 74
     0
 42
0.0000000001
 43
0.0000000001
 40
0.0
 40
0.0
 40
0.0
 40
0.0
 40
0.2
 40
0.2
 40
0.2
 40
0.2
 40
0.4
 40
0.4
 40
0.4
 40
0.4
 40
0.6
 40
0.6
 40
0.6
 40
0.6
 40
1.0
 40
1.0
 40
1.0
 40
1.0
 10
0.05531
 20
0.24979
 30
0.0
 10
0.06012
 20
0.25605
 30
0.0
 10
0.07112
 20
0.25567
 30
0.0
 10
0.07988
 20
0.24895
 30
0.0
 10
0.07988
 20
0.24895
 30
0.0
 10
0.08864
 20
0.24222
 30
0.0
 10
0.09184
 20
0.23169
 30
0.0
 10
0.08703
 20
0.22542
 30
0.0
 10
0.08703
 20
0.22542
 30
0.0
 10
0.08223
 20
0.21916
 30
0.0
 10
0.07122
 20
0.21953
 30
0.0
 10
0.06246
 20
0.22626
 30
0.0
 10
0.06246
 20
0.22626
 30
0.0
 10
0.0537
 20
0.23299
 30
0.0
 10
0.0505
 20
0.24352
 30
0.0
 10
0.05531
 20
0.24979
 30
0.0
  0
SPLINE
  5
65
330
1F
100
AcDbEntity
  8
Layer 1
370
     9
100
AcDbSpline
210
0.0
220
0.0
230
1.0
 70
    11
 71
     3
 72
    20
 73
    16
 74
     0
 42
0.0000000001
 43
0.0000000001
 40
0.0
 40
0.0
 40
0.0
 40
0.0
 40
0.2
 40
0.2
 40
0.2
 40
0.2
 40
0.4
 40
0.4
 40
0.4
 40
0.4
 40
0.6
 40
0.6
 40
0.6
 40
0.6
 40
1.0
 40
1.0
 40
1.0
 40
1.0
 10
-0.23349
 20
0.00837
 30
0.0
 10
-0.24119
 20
0.00663
 30
0.0
 10
-0.24942
 20
0.01394
 30
0.0
 10
-0.25185
 20
0.02472
 30
0.0
 10
-0.25185
 20
0.02472
 30
0.0
 10
-0.25429
 20
0.03549
 30
0.0
 10
-0.25003
 20
0.04564
 30
0.0
 10
-0.24232
 20
0.04738
 30
0.0
 10
-0.24232
 20
0.04738
 30
0.0
 10
-0.23462
 20
0.04913
 30
0.0
 10
-0.2264
 20
0.04181
 30
0.0
 10
-0.22396
 20
0.03103
 30
0.0
 10
-0.22396
 20
0.03103
 30
0.0
 10
-0.22152
 20
0.02026
 30
0.0
 10
-0.22579
 20
0.01012
 30
0.0
 10
-0.23349
 20
0.00837
 30
0.0
  0
SPLINE
  5
66
330
1F
100
AcDbEntity
  8
Layer 1
370
     9
100
AcDbSpline
210
0.0
220
0.0
230
1.0
 70
    11
 71
     3
 72
    20
 73
    16
 74
     0
 42
0.0000000001
 43
0.0000000001
 40
0.0
 40
0.0
 40
0.0
 40
0.0
 40
0.2
 40
0.2
 40
0.2
 40
0.2
 40
0.4
 40
0.4
 40
0.4
 40
0.4
 40
0.6
 40
0.6
 40
0.6
 40
0.6
 40
1.0
 40
1.0
 40
1.0
 40
1.0
 10
-0.07127
 20
0.16365
 30
0.0
 10
-0.07389
 20
0.1711
 30
0.0
 10
-0.06757
 20
0.18011
 30
0.0
 10
-0.05714
 20
0.18377
 30
0.0
 10
-0.05714
 20
0.18377
 30
0.0
 10
-0.04672
 20
0.18743
 30
0.0
 10
-0.03615
 20
0.18436
 30
0.0
 10
-0.03353
 20
0.17691
 30
0.0
 10
-0.03353
 20
0.17691
 30
0.0
 10
-0.03092
 20
0.16946
 30
0.0
 10
-0.03724
 20
0.16044
 30
0.0
 10
-0.04767
 20
0.15678
 30
0.0
 10
-0.04767
 20
0.15678
 30
0.0
 10
-0.05809
 20
0.15312
 30
0.0
 10
-0.06866
 20
0.1562
 30
0.0
 10
-0.07127
 20
0.16365
 30
0.0
  0
SPLINE
  5
67
330
1F
100
AcDbEntity
  8
Layer 1
370
     9
100
AcDbSpline
210
0.0
220
0.0
230
1.0
 70
    11
 71
     3
 72
    20
 73
    16
 74
     0
 42
0.0000000001
 43
0.0000000001
 40
0.0
 40
0.0
 40
0.0
 40
0.0
 40
0.2
 40
0.2
 40
0.2
 40
0.2
 40
0.4
 40
0.4
 40
0.4
 40
0.4
 40
0.6
 40
0.6
 40
0.6
 40
0.6
 40
1.0
 40
1.0
 40
1.0
 40
1.0
 10
0.21581
 20
0.47113
 30
0.0
 10
0.21199
 20
0.47805
 30
0.0
 10
0.21672
 20
0.48798
 30
0.0
 10
0.22639
 20
0.49333
 30
0.0
 10
0.22639
 20
0.49333
 30
0.0
 10
0.23606
 20
0.49867
 30
0.0
 10
0.24699
 20
0.4974
 30
0.0
 10
0.25081
 20
0.49049
 30
0.0
 10
0.25081
 20
0.49049
 30
0.0
 10
0.25464
 20
0.48358
 30
0.0
 10
0.2499
 20
0.47364
 30
0.0
 10
0.24023
 20
0.46829
 30
0.0
 10
0.24023
 20
0.46829
 30
0.0
 10
0.23056
 20
0.46295
 30
0.0
 10
0.21963
 20
0.46422
 30
0.0
 10
0.21581
 20
0.47113
 30
0.0
  0
SPLINE
  5
68
330
1F
100
AcDbEntity
  8
Layer 1
370
     9
100
AcDbSpline
210
0.0
220
0.0
230
1.0
 70
    11
 71
     3
 72
    20
 73
    16
 74
     0
 42
0.0000000001
 43
0.0000000001
 40
0.0
 40
0.0
 40
0.0
 40
0.0
 40
0.2
 40
0.2
 40
0.2
 40
0.2
 40
0.4
 40
0.4
 40
0.4
 40
0.4
 40
0.6
 40
0.6
 40
0.6
 40
0.6
 40
1.0
 40
1.0
 40
1.0
 40
1.0
 10
-0.04871
 20
0.56186
 30
0.0
 10
-0.05166
 20
0.56919
 30
0.0
 10
-0.04575
 20
0.57847
 30
0.0
 10
-0.0355
 20
0.5826
 30
0.0
 10
-0.0355
 20
0.5826
 30
0.0
 10
-0.02525
 20
0.58673
 30
0.0
 10
-0.01456
 20
0.58413
 30
0.0
 10
-0.01161
 20
0.5768
 30
0.0
 10
-0.01161
 20
0.5768
 30
0.0
 10
-0.00866
 20
0.56947
 30
0.0
 10
-0.01457
 20
0.56019
 30
0.0
 10
-0.02482
 20
0.55606
 30
0.0
 10
-0.02482
 20
0.55606
 30
0.0
 10
-0.03506
 20
0.55194
 30
0.0
 10
-0.04576
 20
0.55453
 30
0.0
 10
-0.04871
 20
0.56186
 30
0.0
  0
SPLINE
  5
69
330
1F
100
AcDbEntity
  8
Layer 1
370
     9
100
AcDbSpline
210
0.0
220
0.0
230
1.0
 70
    11
 71
     3
 72
    20
 73
    16
 74
     0
 42
0.0000000001
 43
0.0000000001
 40
0.0
 40
0.0
 40
0.0
 40
0.0
 40
0.2
 40
0.2
 40
0.2
 40
0.2
 40
0.4
 40
0.4
 40
0.4
 40
0.4
 40
0.6
 40
0.6
 40
0.6
 40
0.6
 40
1.0
 40
1.0
 40
1.0
 40
1.0
 10
0.2751
 20
0.969
 30
0.0
 10
0.27645
 20
0.97678
 30
0.0
 10
0.28637
 20
0.98155
 30
0.0
 10
0.29725
 20
0.97965
 30
0.0
 10
0.29725
 20
0.97965
 30
0.0
 10
0.30813
 20
0.97776
 30
0.0
 10
0.31586
 20
0.96991
 30
0.0
 10
0.3145
 20
0.96213
 30
0.0
 10
0.3145
 20
0.96213
 30
0.0
 10
0.31315
 20
0.95435
 30
0.0
 10
0.30323
 20
0.94958
 30
0.0
 10
0.29234
 20
0.95147
 30
0.0
 10
0.29234
 20
0.95147
 30
0.0
 10
0.28146
 20
0.95337
 30
0.0
 10
0.27374
 20
0.96122
 30
0.0
 10
0.2751
 20
0.969
 30
0.0
  0
SPLINE
  5
6A
330
1F
100
AcDbEntity
  8
Layer 1
370
     9
100
AcDbSpline
210
0.0
220
0.0
230
1.0
 70
    11
 71
     3
 72
    20
 73
    16
 74
     0
 42
0.0000000001
 43
0.0000000001
 40
0.0
 40
0.0
 40
0.0
 40
0.0
 40
0.2
 40
0.2
 40
0.2
 40
0.2
 40
0.4
 40
0.4
 40
0.4
 40
0.4
 40
0.6
 40
0.6
 40
0.6
 40
0.6
 40
1.0
 40
1.0
 40
1.0
 40
1.0
 10
-0.9617
 20
1.69366
 30
0.0
 10
-0.96904
 20
1.69074
 30
0.0
 10
-0.97168
 20
1.68006
 30
0.0
 10
-0.9676
 20
1.66979
 30
0.0
 10
-0.9676
 20
1.66979
 30
0.0
 10
-0.96352
 20
1.65953
 30
0.0
 10
-0.95426
 20
1.65357
 30
0.0
 10
-0.94692
 20
1.65649
 30
0.0
 10
-0.94692
 20
1.65649
 30
0.0
 10
-0.93958
 20
1.65941
 30
0.0
 10
-0.93694
 20
1.6701
 30
0.0
 10
-0.94102
 20
1.68036
 30
0.0
 10
-0.94102
 20
1.68036
 30
0.0
 10
-0.9451
 20
1.69063
 30
0.0
 10
-0.95436
 20
1.69658
 30
0.0
 10
-0.9617
 20
1.69366
 30
0.0
  0
SPLINE
  5
6B
330
1F
100
AcDbEntity
  8
Layer 1
370
     9
100
AcDbSpline
210
0.0
220
0.0
230
1.0
 70
    11
 71
     3
 72
    20
 73
    16
 74
     0
 42
0.0000000001
 43
0.0000000001
 40
0.0
 40
0.0
 40
0.0
 40
0.0
 40
0.2
 40
0.2
 40
0.2
 40
0.2
 40
0.4
 40
0.4
 40
0.4
 40
0.4
 40
0.6
 40
0.6
 40
0.6
 40
0.6
 40
1.0
 40
1.0
 40
1.0
 40
1.0
 10
-0.94859
 20
1.44129
 30
0.0
 10
-0.95632
 20
1.4429
 30
0.0
 10
-0.96442
 20
1.43543
 30
0.0
 10
-0.96667
 20
1.42462
 30
0.0
 10
-0.96667
 20
1.42462
 30
0.0
 10
-0.96892
 20
1.41381
 30
0.0
 10
-0.96448
 20
1.40373
 30
0.0
 10
-0.95675
 20
1.40212
 30
0.0
 10
-0.95675
 20
1.40212
 30
0.0
 10
-0.94901
 20
1.40051
 30
0.0
 10
-0.94092
 20
1.40797
 30
0.0
 10
-0.93867
 20
1.41879
 30
0.0
 10
-0.93867
 20
1.41879
 30
0.0
 10
-0.93641
 20
1.42961
 30
0.0
 10
-0.94086
 20
1.43967
 30
0.0
 10
-0.94859
 20
1.44129
 30
0.0
  0
SPLINE
  5
6C
330
1F
100
AcDbEntity
  8
Layer 1
370
     9
100
AcDbSpline
210
0.0
220
0.0
230
1.0
 70
    11
 71
     3
 72
    20
 73
    16
 74
     0
 42
0.0000000001
 43
0.0000000001
 40
0.0
 40
0.0
 40
0.0
 40
0.0
 40
0.2
 40
0.2
 40
0.2
 40
0.2
 40
0.4
 40
0.4
 40
0.4
 40
0.4
 40
0.6
 40
0.6
 40
0.6
 40
0.6
 40
1.0
 40
1.0
 40
1.0
 40
1.0
 10
-1.04796
 20
1.52761
 30
0.0
 10
-1.05201
 20
1.53439
 30
0.0
 10
-1.06298
 20
1.5353
 30
0.0
 10
-1.07247
 20
1.52963
 30
0.0
 10
-1.07247
 20
1.52963
 30
0.0
 10
-1.08195
 20
1.52397
 30
0.0
 10
-1.08635
 20
1.51388
 30
0.0
 10
-1.0823
 20
1.5071
 30
0.0
 10
-1.0823
 20
1.5071
 30
0.0
 10
-1.07825
 20
1.50032
 30
0.0
 10
-1.06728
 20
1.49941
 30
0.0
 10
-1.0578
 20
1.50508
 30
0.0
 10
-1.0578
 20
1.50508
 30
0.0
 10
-1.04831
 20
1.51075
 30
0.0
 10
-1.04391
 20
1.52083
 30
0.0
 10
-1.04796
 20
1.52761
 30
0.0
  0
SPLINE
  5
6D
330
1F
100
AcDbEntity
  8
Layer 1
370
     9
100
AcDbSpline
210
0.0
220
0.0
230
1.0
 70
    11
 71
     3
 72
    20
 73
    16
 74
     0
 42
0.0000000001
 43
0.0000000001
 40
0.0
 40
0.0
 40
0.0
 40
0.0
 40
0.2
 40
0.2
 40
0.2
 40
0.2
 40
0.4
 40
0.4
 40
0.4
 40
0.4
 40
0.6
 40
0.6
 40
0.6
 40
0.6
 40
1.0
 40
1.0
 40
1.0
 40
1.0
 10
-1.22507
 20
1.54708
 30
0.0
 10
-1.21751
 20
1.54936
 30
0.0
 10
-1.21395
 20
1.55977
 30
0.0
 10
-1.21712
 20
1.57035
 30
0.0
 10
-1.21712
 20
1.57035
 30
0.0
 10
-1.2203
 20
1.58093
 30
0.0
 10
-1.229
 20
1.58767
 30
0.0
 10
-1.23657
 20
1.5854
 30
0.0
 10
-1.23657
 20
1.5854
 30
0.0
 10
-1.24413
 20
1.58313
 30
0.0
 10
-1.24769
 20
1.57271
 30
0.0
 10
-1.24452
 20
1.56213
 30
0.0
 10
-1.24452
 20
1.56213
 30
0.0
 10
-1.24134
 20
1.55155
 30
0.0
 10
-1.23264
 20
1.54481
 30
0.0
 10
-1.22507
 20
1.54708
 30
0.0
  0
SPLINE
  5
6E
330
1F
100
AcDbEntity
  8
Layer 1
370
     9
100
AcDbSpline
210
0.0
220
0.0
230
1.0
 70
    11
 71
     3
 72
    20
 73
    16
 74
     0
 42
0.0000000001
 43
0.0000000001
 40
0.0
 40
0.0
 40
0.0
 40
0.0
 40
0.2
 40
0.2
 40
0.2
 40
0.2
 40
0.4
 40
0.4
 40
0.4
 40
0.4
 40
0.6
 40
0.6
 40
0.6
 40
0.6
 40
1.0
 40
1.0
 40
1.0
 40
1.0
 10
-1.0885
 20
0.27117
 30
0.0
 10
-1.09522
 20
0.27533
 30
0.0
 10
-1.10537
 20
0.27109
 30
0.0
 10
-1.11119
 20
0.2617
 30
0.0
 10
-1.11119
 20
0.2617
 30
0.0
 10
-1.11701
 20
0.25232
 30
0.0
 10
-1.11629
 20
0.24133
 30
0.0
 10
-1.10957
 20
0.23717
 30
0.0
 10
-1.10957
 20
0.23717
 30
0.0
 10
-1.10286
 20
0.23301
 30
0.0
 10
-1.0927
 20
0.23724
 30
0.0
 10
-1.08688
 20
0.24663
 30
0.0
 10
-1.08688
 20
0.24663
 30
0.0
 10
-1.08106
 20
0.25602
 30
0.0
 10
-1.08179
 20
0.26701
 30
0.0
 10
-1.0885
 20
0.27117
 30
0.0
  0
SPLINE
  5
6F
330
1F
100
AcDbEntity
  8
Layer 1
370
     9
100
AcDbSpline
210
0.0
220
0.0
230
1.0
 70
    11
 71
     3
 72
    20
 73
    16
 74
     0
 42
0.0000000001
 43
0.0000000001
 40
0.0
 40
0.0
 40
0.0
 40
0.0
 40
0.2
 40
0.2
 40
0.2
 40
0.2
 40
0.4
 40
0.4
 40
0.4
 40
0.4
 40
0.6
 40
0.6
 40
0.6
 40
0.6
 40
1.0
 40
1.0
 40
1.0
 40
1.0
 10
-1.45029
 20
1.33264
 30
0.0
 10
-1.45029
 20
1.34054
 30
0.0
 10
-1.45925
 20
1.34694
 30
0.0
 10
-1.47029
 20
1.34694
 30
0.0
 10
-1.47029
 20
1.34694
 30
0.0
 10
-1.48134
 20
1.34695
 30
0.0
 10
-1.49029
 20
1.34054
 30
0.0
 10
-1.49029
 20
1.33264
 30
0.0
 10
-1.49029
 20
1.33264
 30
0.0
 10
-1.49029
 20
1.32474
 30
0.0
 10
-1.48134
 20
1.31834
 30
0.0
 10
-1.47029
 20
1.31834
 30
0.0
 10
-1.47029
 20
1.31834
 30
0.0
 10
-1.45925
 20
1.31834
 30
0.0
 10
-1.45029
 20
1.32474
 30
0.0
 10
-1.45029
 20
1.33264
 30
0.0
  0
SPLINE
  5
70
330
1F
100
AcDbEntity
  8
Layer 1
370
     9
100
AcDbSpline
210
0.0
220
0.0
230
1.0
 70
    11
 71
     3
 72
    20
 73
    16
 74
     0
 42
0.0000000001
 43
0.0000000001
 40
0.0
 40
0.0
 40
0.0
 40
0.0
 40
0.2
 40
0.2
 40
0.2
 40
0.2
 40
0.4
 40
0.4
 40
0.4
 40
0.4
 40
0.6
 40
0.6
 40
0.6
 40
0.6
 40
1.0
 40
1.0
 40
1.0
 40
1.0
 10
-1.47017
 20
1.18416
 30
0.0
 10
-1.4625
 20
1.18604
 30
0.0
 10
-1.45842
 20
1.19626
 30
0.0
 10
-1.46105
 20
1.20699
 30
0.0
 10
-1.46105
 20
1.20699
 30
0.0
 10
-1.46369
 20
1.21772
 30
0.0
 10
-1.47204
 20
1.22489
 30
0.0
 10
-1.47971
 20
1.223
 30
0.0
 10
-1.47971
 20
1.223
 30
0.0
 10
-1.48738
 20
1.22112
 30
0.0
 10
-1.49146
 20
1.21089
 30
0.0
 10
-1.48883
 20
1.20017
 30
0.0
 10
-1.48883
 20
1.20017
 30
0.0
 10
-1.48619
 20
1.18944
 30
0.0
 10
-1.47784
 20
1.18227
 30
0.0
 10
-1.47017
 20
1.18416
 30
0.0
  0
SPLINE
  5
71
330
1F
100
AcDbEntity
  8
Layer 1
370
     9
100
AcDbSpline
210
0.0
220
0.0
230
1.0
 70
    11
 71
     3
 72
    20
 73
    16
 74
     0
 42
0.0000000001
 43
0.0000000001
 40
0.0
 40
0.0
 40
0.0
 40
0.0
 40
0.2
 40
0.2
 40
0.2
 40
0.2
 40
0.4
 40
0.4
 40
0.4
 40
0.4
 40
0.6
 40
0.6
 40
0.6
 40
0.6
 40
1.0
 40
1.0
 40
1.0
 40
1.0
 10
-1.58518
 20
0.68792
 30
0.0
 10
-1.58278
 20
0.69544
 30
0.0
 10
-1.58936
 20
0.70427
 30
0.0
 10
-1.59989
 20
0.70762
 30
0.0
 10
-1.59989
 20
0.70762
 30
0.0
 10
-1.61041
 20
0.71098
 30
0.0
 10
-1.62089
 20
0.7076
 30
0.0
 10
-1.62329
 20
0.70007
 30
0.0
 10
-1.62329
 20
0.70007
 30
0.0
 10
-1.62569
 20
0.69255
 30
0.0
 10
-1.6191
 20
0.68373
 30
0.0
 10
-1.60858
 20
0.68037
 30
0.0
 10
-1.60858
 20
0.68037
 30
0.0
 10
-1.59805
 20
0.67702
 30
0.0
 10
-1.58758
 20
0.68039
 30
0.0
 10
-1.58518
 20
0.68792
 30
0.0
  0
SPLINE
  5
72
330
1F
100
AcDbEntity
  8
Layer 1
370
     9
100
AcDbSpline
210
0.0
220
0.0
230
1.0
 70
    11
 71
     3
 72
    20
 73
    16
 74
     0
 42
0.0000000001
 43
0.0000000001
 40
0.0
 40
0.0
 40
0.0
 40
0.0
 40
0.2
 40
0.2
 40
0.2
 40
0.2
 40
0.4
 40
0.4
 40
0.4
 40
0.4
 40
0.6
 40
0.6
 40
0.6
 40
0.6
 40
1.0
 40
1.0
 40
1.0
 40
1.0
 10
-1.37268
 20
0.24979
 30
0.0
 10
-1.37749
 20
0.25605
 30
0.0
 10
-1.38849
 20
0.25567
 30
0.0
 10
-1.39726
 20
0.24895
 30
0.0
 10
-1.39726
 20
0.24895
 30
0.0
 10
-1.40602
 20
0.24222
 30
0.0
 10
-1.40922
 20
0.23169
 30
0.0
 10
-1.40441
 20
0.22542
 30
0.0
 10
-1.40441
 20
0.22542
 30
0.0
 10
-1.3996
 20
0.21916
 30
0.0
 10
-1.3886
 20
0.21953
 30
0.0
 10
-1.37984
 20
0.22626
 30
0.0
 10
-1.37984
 20
0.22626
 30
0.0
 10
-1.37107
 20
0.23299
 30
0.0
 10
-1.36787
 20
0.24352
 30
0.0
 10
-1.37268
 20
0.24979
 30
0.0
  0
SPLINE
  5
73
330
1F
100
AcDbEntity
  8
Layer 1
370
     9
100
AcDbSpline
210
0.0
220
0.0
230
1.0
 70
    11
 71
     3
 72
    20
 73
    16
 74
     0
 42
0.0000000001
 43
0.0000000001
 40
0.0
 40
0.0
 40
0.0
 40
0.0
 40
0.2
 40
0.2
 40
0.2
 40
0.2
 40
0.4
 40
0.4
 40
0.4
 40
0.4
 40
0.6
 40
0.6
 40
0.6
 40
0.6
 40
1.0
 40
1.0
 40
1.0
 40
1.0
 10
-1.08388
 20
0.00837
 30
0.0
 10
-1.07617
 20
0.00663
 30
0.0
 10
-1.06795
 20
0.01394
 30
0.0
 10
-1.06551
 20
0.02472
 30
0.0
 10
-1.06551
 20
0.02472
 30
0.0
 10
-1.06307
 20
0.03549
 30
0.0
 10
-1.06734
 20
0.04564
 30
0.0
 10
-1.07504
 20
0.04738
 30
0.0
 10
-1.07504
 20
0.04738
 30
0.0
 10
-1.08275
 20
0.04913
 30
0.0
 10
-1.09097
 20
0.04181
 30
0.0
 10
-1.09341
 20
0.03103
 30
0.0
 10
-1.09341
 20
0.03103
 30
0.0
 10
-1.09585
 20
0.02026
 30
0.0
 10
-1.09158
 20
0.01012
 30
0.0
 10
-1.08388
 20
0.00837
 30
0.0
  0
SPLINE
  5
74
330
1F
100
AcDbEntity
  8
Layer 1
370
     9
100
AcDbSpline
210
0.0
220
0.0
230
1.0
 70
    11
 71
     3
 72
    20
 73
    16
 74
     0
 42
0.0000000001
 43
0.0000000001
 40
0.0
 40
0.0
 40
0.0
 40
0.0
 40
0.2
 40
0.2
 40
0.2
 40
0.2
 40
0.4
 40
0.4
 40
0.4
 40
0.4
 40
0.6
 40
0.6
 40
0.6
 40
0.6
 40
1.0
 40
1.0
 40
1.0
 40
1.0
 10
-1.24609
 20
0.16365
 30
0.0
 10
-1.24348
 20
0.1711
 30
0.0
 10
-1.2498
 20
0.18011
 30
0.0
 10
-1.26022
 20
0.18377
 30
0.0
 10
-1.26022
 20
0.18377
 30
0.0
 10
-1.27064
 20
0.18743
 30
0.0
 10
-1.28121
 20
0.18436
 30
0.0
 10
-1.28383
 20
0.17691
 30
0.0
 10
-1.28383
 20
0.17691
 30
0.0
 10
-1.28645
 20
0.16946
 30
0.0
 10
-1.28012
 20
0.16044
 30
0.0
 10
-1.2697
 20
0.15678
 30
0.0
 10
-1.2697
 20
0.15678
 30
0.0
 10
-1.25928
 20
0.15312
 30
0.0
 10
-1.24871
 20
0.1562
 30
0.0
 10
-1.24609
 20
0.16365
 30
0.0
  0
SPLINE
  5
75
330
1F
100
AcDbEntity
  8
Layer 1
370
     9
100
AcDbSpline
210
0.0
220
0.0
230
1.0
 70
    11
 71
     3
 72
    20
 73
    16
 74
     0
 42
0.0000000001
 43
0.0000000001
 40
0.0
 40
0.0
 40
0.0
 40
0.0
 40
0.2
 40
0.2
 40
0.2
 40
0.2
 40
0.4
 40
0.4
 40
0.4
 40
0.4
 40
0.6
 40
0.6
 40
0.6
 40
0.6
 40
1.0
 40
1.0
 40
1.0
 40
1.0
 10
-1.53318
 20
0.47113
 30
0.0
 10
-1.52936
 20
0.47805
 30
0.0
 10
-1.5341
 20
0.48798
 30
0.0
 10
-1.54377
 20
0.49333
 30
0.0
 10
-1.54377
 20
0.49333
 30
0.0
 10
-1.55343
 20
0.49867
 30
0.0
 10
-1.56437
 20
0.4974
 30
0.0
 10
-1.56819
 20
0.49049
 30
0.0
 10
-1.56819
 20
0.49049
 30
0.0
 10
-1.57201
 20
0.48358
 30
0.0
 10
-1.56727
 20
0.47364
 30
0.0
 10
-1.55761
 20
0.46829
 30
0.0
 10
-1.55761
 20
0.46829
 30
0.0
 10
-1.54794
 20
0.46295
 30
0.0
 10
-1.53701
 20
0.46422
 30
0.0
 10
-1.53318
 20
0.47113
 30
0.0
  0
SPLINE
  5
76
330
1F
100
AcDbEntity
  8
Layer 1
370
     9
100
AcDbSpline
210
0.0
220
0.0
230
1.0
 70
    11
 71
     3
 72
    20
 73
    16
 74
     0
 42
0.0000000001
 43
0.0000000001
 40
0.0
 40
0.0
 40
0.0
 40
0.0
 40
0.2
 40
0.2
 40
0.2
 40
0.2
 40
0.4
 40
0.4
 40
0.4
 40
0.4
 40
0.6
 40
0.6
 40
0.6
 40
0.6
 40
1.0
 40
1.0
 40
1.0
 40
1.0
 10
-1.26725
 20
0.56186
 30
0.0
 10
-1.2643
 20
0.56919
 30
0.0
 10
-1.27021
 20
0.57847
 30
0.0
 10
-1.28046
 20
0.5826
 30
0.0
 10
-1.28046
 20
0.5826
 30
0.0
 10
-1.2907
 20
0.58673
 30
0.0
 10
-1.3014
 20
0.58413
 30
0.0
 10
-1.30435
 20
0.5768
 30
0.0
 10
-1.30435
 20
0.5768
 30
0.0
 10
-1.3073
 20
0.56947
 30
0.0
 10
-1.30139
 20
0.56019
 30
0.0
 10
-1.29114
 20
0.55606
 30
0.0
 10
-1.29114
 20
0.55606
 30
0.0
 10
-1.28089
 20
0.55194
 30
0.0
 10
-1.2702
 20
0.55453
 30
0.0
 10
-1.26725
 20
0.56186
 30
0.0
  0
SPLINE
  5
77
330
1F
100
AcDbEntity
  8
Layer 1
370
     9
100
AcDbSpline
210
0.0
220
0.0
230
1.0
 70
    11
 71
     3
 72
    20
 73
    16
 74
     0
 42
0.0000000001
 43
0.0000000001
 40
0.0
 40
0.0
 40
0.0
 40
0.0
 40
0.2
 40
0.2
 40
0.2
 40
0.2
 40
0.4
 40
0.4
 40
0.4
 40
0.4
 40
0.6
 40
0.6
 40
0.6
 40
0.6
 40
1.0
 40
1.0
 40
1.0
 40
1.0
 10
1.53318
 20
-0.47113
 30
0.0
 10
1.52937
 20
-0.47805
 30
0.0
 10
1.5341
 20
-0.48798
 30
0.0
 10
1.54376
 20
-0.49333
 30
0.0
 10
1.54376
 20
-0.49333
 30
0.0
 10
1.55344
 20
-0.49867
 30
0.0
 10
1.56437
 20
-0.4974
 30
0.0
 10
1.56819
 20
-0.49049
 30
0.0
 10
1.56819
 20
-0.49049
 30
0.0
 10
1.57201
 20
-0.48357
 30
0.0
 10
1.56727
 20
-0.47364
 30
0.0
 10
1.55761
 20
-0.46829
 30
0.0
 10
1.55761
 20
-0.46829
 30
0.0
 10
1.54794
 20
-0.46295
 30
0.0
 10
1.53701
 20
-0.46422
 30
0.0
 10
1.53318
 20
-0.47113
 30
0.0
  0
SPLINE
  5
78
330
1F
100
AcDbEntity
  8
Layer 1
370
     9
100
AcDbSpline
210
0.0
220
0.0
230
1.0
 70
    11
 71
     3
 72
    20
 73
    16
 74
     0
 42
0.0000000001
 43
0.0000000001
 40
0.0
 40
0.0
 40
0.0
 40
0.0
 40
0.2
 40
0.2
 40
0.2
 40
0.2
 40
0.4
 40
0.4
 40
0.4
 40
0.4
 40
0.6
 40
0.6
 40
0.6
 40
0.6
 40
1.0
 40
1.0
 40
1.0
 40
1.0
 10
1.24609
 20
-0.16365
 30
0.0
 10
1.24348
 20
-0.1711
 30
0.0
 10
1.2498
 20
-0.18011
 30
0.0
 10
1.26022
 20
-0.18377
 30
0.0
 10
1.26022
 20
-0.18377
 30
0.0
 10
1.27065
 20
-0.18743
 30
0.0
 10
1.28121
 20
-0.18436
 30
0.0
 10
1.28383
 20
-0.17691
 30
0.0
 10
1.28383
 20
-0.17691
 30
0.0
 10
1.28645
 20
-0.16945
 30
0.0
 10
1.28012
 20
-0.16045
 30
0.0
 10
1.2697
 20
-0.15678
 30
0.0
 10
1.2697
 20
-0.15678
 30
0.0
 10
1.25928
 20
-0.15312
 30
0.0
 10
1.24871
 20
-0.1562
 30
0.0
 10
1.24609
 20
-0.16365
 30
0.0
  0
SPLINE
  5
79
330
1F
100
AcDbEntity
  8
Layer 1
370
     9
100
AcDbSpline
210
0.0
220
0.0
230
1.0
 70
    11
 71
     3
 72
    20
 73
    16
 74
     0
 42
0.0000000001
 43
0.0000000001
 40
0.0
 40
0.0
 40
0.0
 40
0.0
 40
0.2
 40
0.2
 40
0.2
 40
0.2
 40
0.4
 40
0.4
 40
0.4
 40
0.4
 40
0.6
 40
0.6
 40
0.6
 40
0.6
 40
1.0
 40
1.0
 40
1.0
 40
1.0
 10
1.08388
 20
-0.00837
 30
0.0
 10
1.07618
 20
-0.00663
 30
0.0
 10
1.06795
 20
-0.01395
 30
0.0
 10
1.06551
 20
-0.02472
 30
0.0
 10
1.06551
 20
-0.02472
 30
0.0
 10
1.06307
 20
-0.03549
 30
0.0
 10
1.06734
 20
-0.04564
 30
0.0
 10
1.07504
 20
-0.04738
 30
0.0
 10
1.07504
 20
-0.04738
 30
0.0
 10
1.08275
 20
-0.04913
 30
0.0
 10
1.09097
 20
-0.04181
 30
0.0
 10
1.09341
 20
-0.03103
 30
0.0
 10
1.09341
 20
-0.03103
 30
0.0
 10
1.09585
 20
-0.02026
 30
0.0
 10
1.09158
 20
-0.01012
 30
0.0
 10
1.08388
 20
-0.00837
 30
0.0
  0
SPLINE
  5
7A
330
1F
100
AcDbEntity
  8
Layer 1
370
     9
100
AcDbSpline
210
0.0
220
0.0
230
1.0
 70
    11
 71
     3
 72
    20
 73
    16
 74
     0
 42
0.0000000001
 43
0.0000000001
 40
0.0
 40
0.0
 40
0.0
 40
0.0
 40
0.2
 40
0.2
 40
0.2
 40
0.2
 40
0.4
 40
0.4
 40
0.4
 40
0.4
 40
0.6
 40
0.6
 40
0.6
 40
0.6
 40
1.0
 40
1.0
 40
1.0
 40
1.0
 10
1.37268
 20
-0.24978
 30
0.0
 10
1.37749
 20
-0.25605
 30
0.0
 10
1.38849
 20
-0.25568
 30
0.0
 10
1.39726
 20
-0.24895
 30
0.0
 10
1.39726
 20
-0.24895
 30
0.0
 10
1.40602
 20
-0.24222
 30
0.0
 10
1.40922
 20
-0.23169
 30
0.0
 10
1.40441
 20
-0.22542
 30
0.0
 10
1.40441
 20
-0.22542
 30
0.0
 10
1.3996
 20
-0.21916
 30
0.0
 10
1.3886
 20
-0.21953
 30
0.0
 10
1.37984
 20
-0.22626
 30
0.0
 10
1.37984
 20
-0.22626
 30
0.0
 10
1.37108
 20
-0.23299
 30
0.0
 10
1.36787
 20
-0.24352
 30
0.0
 10
1.37268
 20
-0.24978
 30
0.0
  0
SPLINE
  5
7B
330
1F
100
AcDbEntity
  8
Layer 1
370
     9
100
AcDbSpline
210
0.0
220
0.0
230
1.0
 70
    11
 71
     3
 72
    20
 73
    16
 74
     0
 42
0.0000000001
 43
0.0000000001
 40
0.0
 40
0.0
 40
0.0
 40
0.0
 40
0.2
 40
0.2
 40
0.2
 40
0.2
 40
0.4
 40
0.4
 40
0.4
 40
0.4
 40
0.6
 40
0.6
 40
0.6
 40
0.6
 40
1.0
 40
1.0
 40
1.0
 40
1.0
 10
1.58518
 20
-0.68792
 30
0.0
 10
1.58278
 20
-0.69545
 30
0.0
 10
1.58936
 20
-0.70427
 30
0.0
 10
1.59989
 20
-0.70762
 30
0.0
 10
1.59989
 20
-0.70762
 30
0.0
 10
1.61041
 20
-0.71098
 30
0.0
 10
1.62089
 20
-0.7076
 30
0.0
 10
1.62329
 20
-0.70007
 30
0.0
 10
1.62329
 20
-0.70007
 30
0.0
 10
1.62569
 20
-0.69255
 30
0.0
 10
1.6191
 20
-0.68373
 30
0.0
 10
1.60858
 20
-0.68037
 30
0.0
 10
1.60858
 20
-0.68037
 30
0.0
 10
1.59805
 20
-0.67702
 30
0.0
 10
1.58758
 20
-0.6804
 30
0.0
 10
1.58518
 20
-0.68792
 30
0.0
  0
SPLINE
  5
7C
330
1F
100
AcDbEntity
  8
Layer 1
370
     9
100
AcDbSpline
210
0.0
220
0.0
230
1.0
 70
    11
 71
     3
 72
    20
 73
    16
 74
     0
 42
0.0000000001
 43
0.0000000001
 40
0.0
 40
0.0
 40
0.0
 40
0.0
 40
0.2
 40
0.2
 40
0.2
 40
0.2
 40
0.4
 40
0.4
 40
0.4
 40
0.4
 40
0.6
 40
0.6
 40
0.6
 40
0.6
 40
1.0
 40
1.0
 40
1.0
 40
1.0
 10
1.47017
 20
-1.18416
 30
0.0
 10
1.4625
 20
-1.18604
 30
0.0
 10
1.45842
 20
-1.19626
 30
0.0
 10
1.46105
 20
-1.20699
 30
0.0
 10
1.46105
 20
-1.20699
 30
0.0
 10
1.46369
 20
-1.21772
 30
0.0
 10
1.47204
 20
-1.22489
 30
0.0
 10
1.47971
 20
-1.223
 30
0.0
 10
1.47971
 20
-1.223
 30
0.0
 10
1.48738
 20
-1.22112
 30
0.0
 10
1.49146
 20
-1.2109
 30
0.0
 10
1.48883
 20
-1.20017
 30
0.0
 10
1.48883
 20
-1.20017
 30
0.0
 10
1.4862
 20
-1.18944
 30
0.0
 10
1.47784
 20
-1.18227
 30
0.0
 10
1.47017
 20
-1.18416
 30
0.0
  0
SPLINE
  5
7D
330
1F
100
AcDbEntity
  8
Layer 1
370
     9
100
AcDbSpline
210
0.0
220
0.0
230
1.0
 70
    11
 71
     3
 72
    20
 73
    16
 74
     0
 42
0.0000000001
 43
0.0000000001
 40
0.0
 40
0.0
 40
0.0
 40
0.0
 40
0.2
 40
0.2
 40
0.2
 40
0.2
 40
0.4
 40
0.4
 40
0.4
 40
0.4
 40
0.6
 40
0.6
 40
0.6
 40
0.6
 40
1.0
 40
1.0
 40
1.0
 40
1.0
 10
1.4503
 20
-1.33264
 30
0.0
 10
1.4503
 20
-1.34054
 30
0.0
 10
1.45925
 20
-1.34695
 30
0.0
 10
1.47029
 20
-1.34695
 30
0.0
 10
1.47029
 20
-1.34695
 30
0.0
 10
1.48134
 20
-1.34695
 30
0.0
 10
1.49029
 20
-1.34054
 30
0.0
 10
1.49029
 20
-1.33264
 30
0.0
 10
1.49029
 20
-1.33264
 30
0.0
 10
1.49029
 20
-1.32475
 30
0.0
 10
1.48134
 20
-1.31834
 30
0.0
 10
1.47029
 20
-1.31834
 30
0.0
 10
1.47029
 20
-1.31834
 30
0.0
 10
1.45925
 20
-1.31834
 30
0.0
 10
1.4503
 20
-1.32475
 30
0.0
 10
1.4503
 20
-1.33264
 30
0.0
  0
SPLINE
  5
7E
330
1F
100
AcDbEntity
  8
Layer 1
370
     9
100
AcDbSpline
210
0.0
220
0.0
230
1.0
 70
    11
 71
     3
 72
    20
 73
    16
 74
     0
 42
0.0000000001
 43
0.0000000001
 40
0.0
 40
0.0
 40
0.0
 40
0.0
 40
0.2
 40
0.2
 40
0.2
 40
0.2
 40
0.4
 40
0.4
 40
0.4
 40
0.4
 40
0.6
 40
0.6
 40
0.6
 40
0.6
 40
1.0
 40
1.0
 40
1.0
 40
1.0
 10
1.0885
 20
-0.27117
 30
0.0
 10
1.09522
 20
-0.27533
 30
0.0
 10
1.10537
 20
-0.27109
 30
0.0
 10
1.11119
 20
-0.2617
 30
0.0
 10
1.11119
 20
-0.2617
 30
0.0
 10
1.11702
 20
-0.25231
 30
0.0
 10
1.11629
 20
-0.24133
 30
0.0
 10
1.10957
 20
-0.23717
 30
0.0
 10
1.10957
 20
-0.23717
 30
0.0
 10
1.10286
 20
-0.23301
 30
0.0
 10
1.0927
 20
-0.23725
 30
0.0
 10
1.08688
 20
-0.24664
 30
0.0
 10
1.08688
 20
-0.24664
 30
0.0
 10
1.08106
 20
-0.25602
 30
0.0
 10
1.08179
 20
-0.26701
 30
0.0
 10
1.0885
 20
-0.27117
 30
0.0
  0
SPLINE
  5
7F
330
1F
100
AcDbEntity
  8
Layer 1
370
     9
100
AcDbSpline
210
0.0
220
0.0
230
1.0
 70
    11
 71
     3
 72
    20
 73
    16
 74
     0
 42
0.0000000001
 43
0.0000000001
 40
0.0
 40
0.0
 40
0.0
 40
0.0
 40
0.2
 40
0.2
 40
0.2
 40
0.2
 40
0.4
 40
0.4
 40
0.4
 40
0.4
 40
0.6
 40
0.6
 40
0.6
 40
0.6
 40
1.0
 40
1.0
 40
1.0
 40
1.0
 10
1.22508
 20
-1.54708
 30
0.0
 10
1.21751
 20
-1.54935
 30
0.0
 10
1.21395
 20
-1.55977
 30
0.0
 10
1.21712
 20
-1.57035
 30
0.0
 10
1.21712
 20
-1.57035
 30
0.0
 10
1.2203
 20
-1.58093
 30
0.0
 10
1.229
 20
-1.58767
 30
0.0
 10
1.23657
 20
-1.5854
 30
0.0
 10
1.23657
 20
-1.5854
 30
0.0
 10
1.24413
 20
-1.58313
 30
0.0
 10
1.24769
 20
-1.57271
 30
0.0
 10
1.24452
 20
-1.56213
 30
0.0
 10
1.24452
 20
-1.56213
 30
0.0
 10
1.24135
 20
-1.55155
 30
0.0
 10
1.23264
 20
-1.54482
 30
0.0
 10
1.22508
 20
-1.54708
 30
0.0
  0
SPLINE
  5
80
330
1F
100
AcDbEntity
  8
Layer 1
370
     9
100
AcDbSpline
210
0.0
220
0.0
230
1.0
 70
    11
 71
     3
 72
    20
 73
    16
 74
     0
 42
0.0000000001
 43
0.0000000001
 40
0.0
 40
0.0
 40
0.0
 40
0.0
 40
0.2
 40
0.2
 40
0.2
 40
0.2
 40
0.4
 40
0.4
 40
0.4
 40
0.4
 40
0.6
 40
0.6
 40
0.6
 40
0.6
 40
1.0
 40
1.0
 40
1.0
 40
1.0
 10
1.04797
 20
-1.52761
 30
0.0
 10
1.05202
 20
-1.53439
 30
0.0
 10
1.06298
 20
-1.5353
 30
0.0
 10
1.07247
 20
-1.52964
 30
0.0
 10
1.07247
 20
-1.52964
 30
0.0
 10
1.08195
 20
-1.52397
 30
0.0
 10
1.08635
 20
-1.51388
 30
0.0
 10
1.0823
 20
-1.5071
 30
0.0
 10
1.0823
 20
-1.5071
 30
0.0
 10
1.07825
 20
-1.50032
 30
0.0
 10
1.06728
 20
-1.49941
 30
0.0
 10
1.05779
 20
-1.50508
 30
0.0
 10
1.05779
 20
-1.50508
 30
0.0
 10
1.04831
 20
-1.51075
 30
0.0
 10
1.04391
 20
-1.52083
 30
0.0
 10
1.04797
 20
-1.52761
 30
0.0
  0
SPLINE
  5
81
330
1F
100
AcDbEntity
  8
Layer 1
370
     9
100
AcDbSpline
210
0.0
220
0.0
230
1.0
 70
    11
 71
     3
 72
    20
 73
    16
 74
     0
 42
0.0000000001
 43
0.0000000001
 40
0.0
 40
0.0
 40
0.0
 40
0.0
 40
0.2
 40
0.2
 40
0.2
 40
0.2
 40
0.4
 40
0.4
 40
0.4
 40
0.4
 40
0.6
 40
0.6
 40
0.6
 40
0.6
 40
1.0
 40
1.0
 40
1.0
 40
1.0
 10
0.94859
 20
-1.44128
 30
0.0
 10
0.95633
 20
-1.44289
 30
0.0
 10
0.96442
 20
-1.43544
 30
0.0
 10
0.96667
 20
-1.42462
 30
0.0
 10
0.96667
 20
-1.42462
 30
0.0
 10
0.96892
 20
-1.41381
 30
0.0
 10
0.96448
 20
-1.40374
 30
0.0
 10
0.95675
 20
-1.40212
 30
0.0
 10
0.95675
 20
-1.40212
 30
0.0
 10
0.94902
 20
-1.40051
 30
0.0
 10
0.94092
 20
-1.40797
 30
0.0
 10
0.93867
 20
-1.41879
 30
0.0
 10
0.93867
 20
-1.41879
 30
0.0
 10
0.93642
 20
-1.4296
 30
0.0
 10
0.94086
 20
-1.43967
 30
0.0
 10
0.94859
 20
-1.44128
 30
0.0
  0
SPLINE
  5
82
330
1F
100
AcDbEntity
  8
Layer 1
370
     9
100
AcDbSpline
210
0.0
220
0.0
230
1.0
 70
    11
 71
     3
 72
    20
 73
    16
 74
     0
 42
0.0000000001
 43
0.0000000001
 40
0.0
 40
0.0
 40
0.0
 40
0.0
 40
0.2
 40
0.2
 40
0.2
 40
0.2
 40
0.4
 40
0.4
 40
0.4
 40
0.4
 40
0.6
 40
0.6
 40
0.6
 40
0.6
 40
1.0
 40
1.0
 40
1.0
 40
1.0
 10
0.9617
 20
-1.69366
 30
0.0
 10
0.96904
 20
-1.69074
 30
0.0
 10
0.97168
 20
-1.68006
 30
0.0
 10
0.9676
 20
-1.66979
 30
0.0
 10
0.9676
 20
-1.66979
 30
0.0
 10
0.96352
 20
-1.65953
 30
0.0
 10
0.95426
 20
-1.65357
 30
0.0
 10
0.94692
 20
-1.65649
 30
0.0
 10
0.94692
 20
-1.65649
 30
0.0
 10
0.93958
 20
-1.65941
 30
0.0
 10
0.93694
 20
-1.6701
 30
0.0
 10
0.94102
 20
-1.68036
 30
0.0
 10
0.94102
 20
-1.68036
 30
0.0
 10
0.94511
 20
-1.69063
 30
0.0
 10
0.95436
 20
-1.69658
 30
0.0
 10
0.9617
 20
-1.69366
 30
0.0
  0
SPLINE
  5
83
330
1F
100
AcDbEntity
  8
Layer 1
370
     9
100
AcDbSpline
210
0.0
220
0.0
230
1.0
 70
    11
 71
     3
 72
    20
 73
    16
 74
     0
 42
0.0000000001
 43
0.0000000001
 40
0.0
 40
0.0
 40
0.0
 40
0.0
 40
0.2
 40
0.2
 40
0.2
 40
0.2
 40
0.4
 40
0.4
 40
0.4
 40
0.4
 40
0.6
 40
0.6
 40
0.6
 40
0.6
 40
1.0
 40
1.0
 40
1.0
 40
1.0
 10
1.1119
 20
-1.06278
 30
0.0
 10
1.10595
 20
-1.06798
 30
0.0
 10
1.10701
 20
-1.07893
 30
0.0
 10
1.11428
 20
-1.08725
 30
0.0
 10
1.11428
 20
-1.08725
 30
0.0
 10
1.12155
 20
-1.09557
 30
0.0
 10
1.13226
 20
-1.0981
 30
0.0
 10
1.13821
 20
-1.09291
 30
0.0
 10
1.13821
 20
-1.09291
 30
0.0
 10
1.14416
 20
-1.08771
 30
0.0
 10
1.14309
 20
-1.07675
 30
0.0
 10
1.13582
 20
-1.06843
 30
0.0
 10
1.13582
 20
-1.06843
 30
0.0
 10
1.12856
 20
-1.06012
 30
0.0
 10
1.11784
 20
-1.05759
 30
0.0
 10
1.1119
 20
-1.06278
 30
0.0
  0
SPLINE
  5
84
330
1F
100
AcDbEntity
  8
Layer 1
370
     9
100
AcDbSpline
210
0.0
220
0.0
230
1.0
 70
    11
 71
     3
 72
    20
 73
    16
 74
     0
 42
0.0000000001
 43
0.0000000001
 40
0.0
 40
0.0
 40
0.0
 40
0.0
 40
0.2
 40
0.2
 40
0.2
 40
0.2
 40
0.4
 40
0.4
 40
0.4
 40
0.4
 40
0.6
 40
0.6
 40
0.6
 40
0.6
 40
1.0
 40
1.0
 40
1.0
 40
1.0
 10
1.59107
 20
-0.969
 30
0.0
 10
1.59242
 20
-0.97678
 30
0.0
 10
1.60234
 20
-0.98155
 30
0.0
 10
1.61322
 20
-0.97966
 30
0.0
 10
1.61322
 20
-0.97966
 30
0.0
 10
1.6241
 20
-0.97776
 30
0.0
 10
1.63182
 20
-0.96991
 30
0.0
 10
1.63047
 20
-0.96213
 30
0.0
 10
1.63047
 20
-0.96213
 30
0.0
 10
1.62911
 20
-0.95435
 30
0.0
 10
1.61919
 20
-0.94958
 30
0.0
 10
1.60831
 20
-0.95148
 30
0.0
 10
1.60831
 20
-0.95148
 30
0.0
 10
1.59743
 20
-0.95337
 30
0.0
 10
1.58971
 20
-0.96122
 30
0.0
 10
1.59107
 20
-0.969
 30
0.0
  0
SPLINE
  5
85
330
1F
100
AcDbEntity
  8
Layer 1
370
     9
100
AcDbSpline
210
0.0
220
0.0
230
1.0
 70
    27
 71
     3
 72
     8
 73
     4
 74
     0
 42
0.0000000001
 43
0.0000000001
 40
0.0
 40
0.0
 40
0.0
 40
0.0
 40
1.0
 40
1.0
 40
1.0
 40
1.0
 10
0.85249
 20
1.73949
 30
0.0
 10
0.85249
 20
1.73949
 30
0.0
 10
0.85249
 20
1.73949
 30
0.0
 10
0.85249
 20
1.73949
 30
0.0
  0
SPLINE
  5
86
330
1F
100
AcDbEntity
  8
Layer 1
370
     9
100
AcDbSpline
210
0.0
220
0.0
230
1.0
 70
    11
 71
     3
 72
    20
 73
    16
 74
     0
 42
0.0000000001
 43
0.0000000001
 40
0.0
 40
0.0
 40
0.0
 40
0.0
 40
0.2
 40
0.2
 40
0.2
 40
0.2
 40
0.4
 40
0.4
 40
0.4
 40
0.4
 40
0.6
 40
0.6
 40
0.6
 40
0.6
 40
1.0
 40
1.0
 40
1.0
 40
1.0
 10
-0.21722
 20
-0.47113
 30
0.0
 10
-0.21339
 20
-0.47805
 30
0.0
 10
-0.21813
 20
-0.48798
 30
0.0
 10
-0.2278
 20
-0.49333
 30
0.0
 10
-0.2278
 20
-0.49333
 30
0.0
 10
-0.23746
 20
-0.49867
 30
0.0
 10
-0.2484
 20
-0.4974
 30
0.0
 10
-0.25222
 20
-0.49049
 30
0.0
 10
-0.25222
 20
-0.49049
 30
0.0
 10
-0.25604
 20
-0.48357
 30
0.0
 10
-0.25131
 20
-0.47364
 30
0.0
 10
-0.24164
 20
-0.46829
 30
0.0
 10
-0.24164
 20
-0.46829
 30
0.0
 10
-0.23197
 20
-0.46295
 30
0.0
 10
-0.22104
 20
-0.46422
 30
0.0
 10
-0.21722
 20
-0.47113
 30
0.0
  0
SPLINE
  5
87
330
1F
100
AcDbEntity
  8
Layer 1
370
     9
100
AcDbSpline
210
0.0
220
0.0
230
1.0
 70
    11
 71
     3
 72
    20
 73
    16
 74
     0
 42
0.0000000001
 43
0.0000000001
 40
0.0
 40
0.0
 40
0.0
 40
0.0
 40
0.2
 40
0.2
 40
0.2
 40
0.2
 40
0.4
 40
0.4
 40
0.4
 40
0.4
 40
0.6
 40
0.6
 40
0.6
 40
0.6
 40
1.0
 40
1.0
 40
1.0
 40
1.0
 10
0.06987
 20
-0.16365
 30
0.0
 10
0.07248
 20
-0.1711
 30
0.0
 10
0.06616
 20
-0.18011
 30
0.0
 10
0.05574
 20
-0.18377
 30
0.0
 10
0.05574
 20
-0.18377
 30
0.0
 10
0.04532
 20
-0.18743
 30
0.0
 10
0.03474
 20
-0.18436
 30
0.0
 10
0.03213
 20
-0.17691
 30
0.0
 10
0.03213
 20
-0.17691
 30
0.0
 10
0.02951
 20
-0.16945
 30
0.0
 10
0.03584
 20
-0.16045
 30
0.0
 10
0.04626
 20
-0.15678
 30
0.0
 10
0.04626
 20
-0.15678
 30
0.0
 10
0.05668
 20
-0.15312
 30
0.0
 10
0.06725
 20
-0.1562
 30
0.0
 10
0.06987
 20
-0.16365
 30
0.0
  0
SPLINE
  5
88
330
1F
100
AcDbEntity
  8
Layer 1
370
     9
100
AcDbSpline
210
0.0
220
0.0
230
1.0
 70
    11
 71
     3
 72
    20
 73
    16
 74
     0
 42
0.0000000001
 43
0.0000000001
 40
0.0
 40
0.0
 40
0.0
 40
0.0
 40
0.2
 40
0.2
 40
0.2
 40
0.2
 40
0.4
 40
0.4
 40
0.4
 40
0.4
 40
0.6
 40
0.6
 40
0.6
 40
0.6
 40
1.0
 40
1.0
 40
1.0
 40
1.0
 10
0.23208
 20
-0.00837
 30
0.0
 10
0.23979
 20
-0.00663
 30
0.0
 10
0.24801
 20
-0.01395
 30
0.0
 10
0.25045
 20
-0.02472
 30
0.0
 10
0.25045
 20
-0.02472
 30
0.0
 10
0.25289
 20
-0.03549
 30
0.0
 10
0.24862
 20
-0.04564
 30
0.0
 10
0.24091
 20
-0.04738
 30
0.0
 10
0.24091
 20
-0.04738
 30
0.0
 10
0.23321
 20
-0.04913
 30
0.0
 10
0.22499
 20
-0.04181
 30
0.0
 10
0.22255
 20
-0.03103
 30
0.0
 10
0.22255
 20
-0.03103
 30
0.0
 10
0.22011
 20
-0.02026
 30
0.0
 10
0.22438
 20
-0.01012
 30
0.0
 10
0.23208
 20
-0.00837
 30
0.0
  0
SPLINE
  5
89
330
1F
100
AcDbEntity
  8
Layer 1
370
     9
100
AcDbSpline
210
0.0
220
0.0
230
1.0
 70
    11
 71
     3
 72
    20
 73
    16
 74
     0
 42
0.0000000001
 43
0.0000000001
 40
0.0
 40
0.0
 40
0.0
 40
0.0
 40
0.2
 40
0.2
 40
0.2
 40
0.2
 40
0.4
 40
0.4
 40
0.4
 40
0.4
 40
0.6
 40
0.6
 40
0.6
 40
0.6
 40
1.0
 40
1.0
 40
1.0
 40
1.0
 10
-0.05672
 20
-0.24978
 30
0.0
 10
-0.06153
 20
-0.25605
 30
0.0
 10
-0.07253
 20
-0.25568
 30
0.0
 10
-0.08129
 20
-0.24895
 30
0.0
 10
-0.08129
 20
-0.24895
 30
0.0
 10
-0.09005
 20
-0.24222
 30
0.0
 10
-0.09325
 20
-0.23169
 30
0.0
 10
-0.08844
 20
-0.22542
 30
0.0
 10
-0.08844
 20
-0.22542
 30
0.0
 10
-0.08363
 20
-0.21916
 30
0.0
 10
-0.07263
 20
-0.21953
 30
0.0
 10
-0.06387
 20
-0.22626
 30
0.0
 10
-0.06387
 20
-0.22626
 30
0.0
 10
-0.0551
 20
-0.23299
 30
0.0
 10
-0.05191
 20
-0.24352
 30
0.0
 10
-0.05672
 20
-0.24978
 30
0.0
  0
SPLINE
  5
8A
330
1F
100
AcDbEntity
  8
Layer 1
370
     9
100
AcDbSpline
210
0.0
220
0.0
230
1.0
 70
    11
 71
     3
 72
    20
 73
    16
 74
     0
 42
0.0000000001
 43
0.0000000001
 40
0.0
 40
0.0
 40
0.0
 40
0.0
 40
0.2
 40
0.2
 40
0.2
 40
0.2
 40
0.4
 40
0.4
 40
0.4
 40
0.4
 40
0.6
 40
0.6
 40
0.6
 40
0.6
 40
1.0
 40
1.0
 40
1.0
 40
1.0
 10
-0.26921
 20
-0.68792
 30
0.0
 10
-0.26681
 20
-0.69545
 30
0.0
 10
-0.27339
 20
-0.70427
 30
0.0
 10
-0.28392
 20
-0.70762
 30
0.0
 10
-0.28392
 20
-0.70762
 30
0.0
 10
-0.29444
 20
-0.71098
 30
0.0
 10
-0.30492
 20
-0.7076
 30
0.0
 10
-0.30732
 20
-0.70007
 30
0.0
 10
-0.30732
 20
-0.70007
 30
0.0
 10
-0.30972
 20
-0.69255
 30
0.0
 10
-0.30313
 20
-0.68373
 30
0.0
 10
-0.29261
 20
-0.68037
 30
0.0
 10
-0.29261
 20
-0.68037
 30
0.0
 10
-0.28208
 20
-0.67702
 30
0.0
 10
-0.27161
 20
-0.6804
 30
0.0
 10
-0.26921
 20
-0.68792
 30
0.0
  0
SPLINE
  5
8B
330
1F
100
AcDbEntity
  8
Layer 1
370
     9
100
AcDbSpline
210
0.0
220
0.0
230
1.0
 70
    11
 71
     3
 72
    20
 73
    16
 74
     0
 42
0.0000000001
 43
0.0000000001
 40
0.0
 40
0.0
 40
0.0
 40
0.0
 40
0.2
 40
0.2
 40
0.2
 40
0.2
 40
0.4
 40
0.4
 40
0.4
 40
0.4
 40
0.6
 40
0.6
 40
0.6
 40
0.6
 40
1.0
 40
1.0
 40
1.0
 40
1.0
 10
-0.1542
 20
-1.18416
 30
0.0
 10
-0.14653
 20
-1.18604
 30
0.0
 10
-0.14245
 20
-1.19626
 30
0.0
 10
-0.14508
 20
-1.20699
 30
0.0
 10
-0.14508
 20
-1.20699
 30
0.0
 10
-0.14772
 20
-1.21772
 30
0.0
 10
-0.15607
 20
-1.22489
 30
0.0
 10
-0.16374
 20
-1.223
 30
0.0
 10
-0.16374
 20
-1.223
 30
0.0
 10
-0.17141
 20
-1.22112
 30
0.0
 10
-0.1755
 20
-1.2109
 30
0.0
 10
-0.17286
 20
-1.20017
 30
0.0
 10
-0.17286
 20
-1.20017
 30
0.0
 10
-0.17023
 20
-1.18944
 30
0.0
 10
-0.16187
 20
-1.18227
 30
0.0
 10
-0.1542
 20
-1.18416
 30
0.0
  0
SPLINE
  5
8C
330
1F
100
AcDbEntity
  8
Layer 1
370
     9
100
AcDbSpline
210
0.0
220
0.0
230
1.0
 70
    11
 71
     3
 72
    20
 73
    16
 74
     0
 42
0.0000000001
 43
0.0000000001
 40
0.0
 40
0.0
 40
0.0
 40
0.0
 40
0.2
 40
0.2
 40
0.2
 40
0.2
 40
0.4
 40
0.4
 40
0.4
 40
0.4
 40
0.6
 40
0.6
 40
0.6
 40
0.6
 40
1.0
 40
1.0
 40
1.0
 40
1.0
 10
-0.13433
 20
-1.33264
 30
0.0
 10
-0.13433
 20
-1.34054
 30
0.0
 10
-0.14328
 20
-1.34695
 30
0.0
 10
-0.15432
 20
-1.34695
 30
0.0
 10
-0.15432
 20
-1.34695
 30
0.0
 10
-0.16537
 20
-1.34695
 30
0.0
 10
-0.17433
 20
-1.34054
 30
0.0
 10
-0.17433
 20
-1.33264
 30
0.0
 10
-0.17433
 20
-1.33264
 30
0.0
 10
-0.17433
 20
-1.32475
 30
0.0
 10
-0.16537
 20
-1.31834
 30
0.0
 10
-0.15432
 20
-1.31834
 30
0.0
 10
-0.15432
 20
-1.31834
 30
0.0
 10
-0.14328
 20
-1.31834
 30
0.0
 10
-0.13433
 20
-1.32475
 30
0.0
 10
-0.13433
 20
-1.33264
 30
0.0
  0
SPLINE
  5
8D
330
1F
100
AcDbEntity
  8
Layer 1
370
     9
100
AcDbSpline
210
0.0
220
0.0
230
1.0
 70
    11
 71
     3
 72
    20
 73
    16
 74
     0
 42
0.0000000001
 43
0.0000000001
 40
0.0
 40
0.0
 40
0.0
 40
0.0
 40
0.2
 40
0.2
 40
0.2
 40
0.2
 40
0.4
 40
0.4
 40
0.4
 40
0.4
 40
0.6
 40
0.6
 40
0.6
 40
0.6
 40
1.0
 40
1.0
 40
1.0
 40
1.0
 10
0.22746
 20
-0.27117
 30
0.0
 10
0.22074
 20
-0.27533
 30
0.0
 10
0.21058
 20
-0.27109
 30
0.0
 10
0.20476
 20
-0.2617
 30
0.0
 10
0.20476
 20
-0.2617
 30
0.0
 10
0.19895
 20
-0.25231
 30
0.0
 10
0.19967
 20
-0.24133
 30
0.0
 10
0.20639
 20
-0.23717
 30
0.0
 10
0.20639
 20
-0.23717
 30
0.0
 10
0.2131
 20
-0.23301
 30
0.0
 10
0.22326
 20
-0.23725
 30
0.0
 10
0.22908
 20
-0.24664
 30
0.0
 10
0.22908
 20
-0.24664
 30
0.0
 10
0.2349
 20
-0.25602
 30
0.0
 10
0.23417
 20
-0.26701
 30
0.0
 10
0.22746
 20
-0.27117
 30
0.0
  0
SPLINE
  5
8E
330
1F
100
AcDbEntity
  8
Layer 1
370
     9
100
AcDbSpline
210
0.0
220
0.0
230
1.0
 70
    11
 71
     3
 72
    20
 73
    16
 74
     0
 42
0.0000000001
 43
0.0000000001
 40
0.0
 40
0.0
 40
0.0
 40
0.0
 40
0.2
 40
0.2
 40
0.2
 40
0.2
 40
0.4
 40
0.4
 40
0.4
 40
0.4
 40
0.6
 40
0.6
 40
0.6
 40
0.6
 40
1.0
 40
1.0
 40
1.0
 40
1.0
 10
0.09088
 20
-1.54708
 30
0.0
 10
0.09845
 20
-1.54935
 30
0.0
 10
0.10201
 20
-1.55977
 30
0.0
 10
0.09884
 20
-1.57035
 30
0.0
 10
0.09884
 20
-1.57035
 30
0.0
 10
0.09566
 20
-1.58093
 30
0.0
 10
0.08696
 20
-1.58767
 30
0.0
 10
0.07939
 20
-1.5854
 30
0.0
 10
0.07939
 20
-1.5854
 30
0.0
 10
0.07183
 20
-1.58313
 30
0.0
 10
0.06827
 20
-1.57271
 30
0.0
 10
0.07144
 20
-1.56213
 30
0.0
 10
0.07144
 20
-1.56213
 30
0.0
 10
0.07461
 20
-1.55155
 30
0.0
 10
0.08332
 20
-1.54482
 30
0.0
 10
0.09088
 20
-1.54708
 30
0.0
  0
SPLINE
  5
8F
330
1F
100
AcDbEntity
  8
Layer 1
370
     9
100
AcDbSpline
210
0.0
220
0.0
230
1.0
 70
    11
 71
     3
 72
    20
 73
    16
 74
     0
 42
0.0000000001
 43
0.0000000001
 40
0.0
 40
0.0
 40
0.0
 40
0.0
 40
0.2
 40
0.2
 40
0.2
 40
0.2
 40
0.4
 40
0.4
 40
0.4
 40
0.4
 40
0.6
 40
0.6
 40
0.6
 40
0.6
 40
1.0
 40
1.0
 40
1.0
 40
1.0
 10
0.268
 20
-1.52761
 30
0.0
 10
0.26394
 20
-1.53439
 30
0.0
 10
0.25298
 20
-1.5353
 30
0.0
 10
0.24349
 20
-1.52964
 30
0.0
 10
0.24349
 20
-1.52964
 30
0.0
 10
0.23401
 20
-1.52397
 30
0.0
 10
0.22961
 20
-1.51388
 30
0.0
 10
0.23366
 20
-1.5071
 30
0.0
 10
0.23366
 20
-1.5071
 30
0.0
 10
0.23771
 20
-1.50032
 30
0.0
 10
0.24868
 20
-1.49941
 30
0.0
 10
0.25816
 20
-1.50508
 30
0.0
 10
0.25816
 20
-1.50508
 30
0.0
 10
0.26765
 20
-1.51075
 30
0.0
 10
0.27205
 20
-1.52083
 30
0.0
 10
0.268
 20
-1.52761
 30
0.0
  0
SPLINE
  5
90
330
1F
100
AcDbEntity
  8
Layer 1
370
     9
100
AcDbSpline
210
0.0
220
0.0
230
1.0
 70
    11
 71
     3
 72
    20
 73
    16
 74
     0
 42
0.0000000001
 43
0.0000000001
 40
0.0
 40
0.0
 40
0.0
 40
0.0
 40
0.2
 40
0.2
 40
0.2
 40
0.2
 40
0.4
 40
0.4
 40
0.4
 40
0.4
 40
0.6
 40
0.6
 40
0.6
 40
0.6
 40
1.0
 40
1.0
 40
1.0
 40
1.0
 10
0.36737
 20
-1.44128
 30
0.0
 10
0.35964
 20
-1.44289
 30
0.0
 10
0.35154
 20
-1.43544
 30
0.0
 10
0.34929
 20
-1.42462
 30
0.0
 10
0.34929
 20
-1.42462
 30
0.0
 10
0.34704
 20
-1.41381
 30
0.0
 10
0.35148
 20
-1.40374
 30
0.0
 10
0.35921
 20
-1.40212
 30
0.0
 10
0.35921
 20
-1.40212
 30
0.0
 10
0.36695
 20
-1.40051
 30
0.0
 10
0.37504
 20
-1.40797
 30
0.0
 10
0.37729
 20
-1.41879
 30
0.0
 10
0.37729
 20
-1.41879
 30
0.0
 10
0.37955
 20
-1.4296
 30
0.0
 10
0.3751
 20
-1.43967
 30
0.0
 10
0.36737
 20
-1.44128
 30
0.0
  0
SPLINE
  5
91
330
1F
100
AcDbEntity
  8
Layer 1
370
     9
100
AcDbSpline
210
0.0
220
0.0
230
1.0
 70
    11
 71
     3
 72
    20
 73
    16
 74
     0
 42
0.0000000001
 43
0.0000000001
 40
0.0
 40
0.0
 40
0.0
 40
0.0
 40
0.2
 40
0.2
 40
0.2
 40
0.2
 40
0.4
 40
0.4
 40
0.4
 40
0.4
 40
0.6
 40
0.6
 40
0.6
 40
0.6
 40
1.0
 40
1.0
 40
1.0
 40
1.0
 10
0.35426
 20
-1.69366
 30
0.0
 10
0.34692
 20
-1.69074
 30
0.0
 10
0.34428
 20
-1.68006
 30
0.0
 10
0.34836
 20
-1.66979
 30
0.0
 10
0.34836
 20
-1.66979
 30
0.0
 10
0.35244
 20
-1.65953
 30
0.0
 10
0.3617
 20
-1.65357
 30
0.0
 10
0.36904
 20
-1.65649
 30
0.0
 10
0.36904
 20
-1.65649
 30
0.0
 10
0.37638
 20
-1.65941
 30
0.0
 10
0.37902
 20
-1.6701
 30
0.0
 10
0.37494
 20
-1.68036
 30
0.0
 10
0.37494
 20
-1.68036
 30
0.0
 10
0.37086
 20
-1.69063
 30
0.0
 10
0.3616
 20
-1.69658
 30
0.0
 10
0.35426
 20
-1.69366
 30
0.0
  0
SPLINE
  5
92
330
1F
100
AcDbEntity
  8
Layer 1
370
     9
100
AcDbSpline
210
0.0
220
0.0
230
1.0
 70
    11
 71
     3
 72
    20
 73
    16
 74
     0
 42
0.0000000001
 43
0.0000000001
 40
0.0
 40
0.0
 40
0.0
 40
0.0
 40
0.2
 40
0.2
 40
0.2
 40
0.2
 40
0.4
 40
0.4
 40
0.4
 40
0.4
 40
0.6
 40
0.6
 40
0.6
 40
0.6
 40
1.0
 40
1.0
 40
1.0
 40
1.0
 10
0.20407
 20
-1.06278
 30
0.0
 10
0.21001
 20
-1.06798
 30
0.0
 10
0.20894
 20
-1.07893
 30
0.0
 10
0.20168
 20
-1.08725
 30
0.0
 10
0.20168
 20
-1.08725
 30
0.0
 10
0.19441
 20
-1.09557
 30
0.0
 10
0.18369
 20
-1.0981
 30
0.0
 10
0.17775
 20
-1.09291
 30
0.0
 10
0.17775
 20
-1.09291
 30
0.0
 10
0.1718
 20
-1.08771
 30
0.0
 10
0.17287
 20
-1.07675
 30
0.0
 10
0.18014
 20
-1.06843
 30
0.0
 10
0.18014
 20
-1.06843
 30
0.0
 10
0.1874
 20
-1.06012
 30
0.0
 10
0.19812
 20
-1.05759
 30
0.0
 10
0.20407
 20
-1.06278
 30
0.0
  0
SPLINE
  5
93
330
1F
100
AcDbEntity
  8
Layer 1
370
     9
100
AcDbSpline
210
0.0
220
0.0
230
1.0
 70
    11
 71
     3
 72
    20
 73
    16
 74
     0
 42
0.0000000001
 43
0.0000000001
 40
0.0
 40
0.0
 40
0.0
 40
0.0
 40
0.2
 40
0.2
 40
0.2
 40
0.2
 40
0.4
 40
0.4
 40
0.4
 40
0.4
 40
0.6
 40
0.6
 40
0.6
 40
0.6
 40
1.0
 40
1.0
 40
1.0
 40
1.0
 10
-0.27509
 20
-0.969
 30
0.0
 10
-0.27645
 20
-0.97678
 30
0.0
 10
-0.28637
 20
-0.98155
 30
0.0
 10
-0.29725
 20
-0.97966
 30
0.0
 10
-0.29725
 20
-0.97966
 30
0.0
 10
-0.30814
 20
-0.97776
 30
0.0
 10
-0.31586
 20
-0.96991
 30
0.0
 10
-0.3145
 20
-0.96213
 30
0.0
 10
-0.3145
 20
-0.96213
 30
0.0
 10
-0.31314
 20
-0.95435
 30
0.0
 10
-0.30323
 20
-0.94958
 30
0.0
 10
-0.29234
 20
-0.95148
 30
0.0
 10
-0.29234
 20
-0.95148
 30
0.0
 10
-0.28146
 20
-0.95337
 30
0.0
 10
-0.27374
 20
-0.96122
 30
0.0
 10
-0.27509
 20
-0.969
 30
0.0
  0
SPLINE
  5
94
330
1F
100
AcDbEntity
  8
Layer 1
370
     9
100
AcDbSpline
210
0.0
220
0.0
230
1.0
 70
    11
 71
     3
 72
    20
 73
    16
 74
     0
 42
0.0000000001
 43
0.0000000001
 40
0.0
 40
0.0
 40
0.0
 40
0.0
 40
0.2
 40
0.2
 40
0.2
 40
0.2
 40
0.4
 40
0.4
 40
0.4
 40
0.4
 40
0.6
 40
0.6
 40
0.6
 40
0.6
 40
1.0
 40
1.0
 40
1.0
 40
1.0
 10
0.04871
 20
-0.56186
 30
0.0
 10
0.05166
 20
-0.56919
 30
0.0
 10
0.04575
 20
-0.57847
 30
0.0
 10
0.0355
 20
-0.5826
 30
0.0
 10
0.0355
 20
-0.5826
 30
0.0
 10
0.02526
 20
-0.58673
 30
0.0
 10
0.01456
 20
-0.58413
 30
0.0
 10
0.01161
 20
-0.5768
 30
0.0
 10
0.01161
 20
-0.5768
 30
0.0
 10
0.00866
 20
-0.56948
 30
0.0
 10
0.01457
 20
-0.56019
 30
0.0
 10
0.02482
 20
-0.55607
 30
0.0
 10
0.02482
 20
-0.55607
 30
0.0
 10
0.03507
 20
-0.55194
 30
0.0
 10
0.04576
 20
-0.55454
 30
0.0
 10
0.04871
 20
-0.56186
 30
0.0
  0
SPLINE
  5
95
330
1F
100
AcDbEntity
  8
Layer 1
370
     9
100
AcDbSpline
210
0.0
220
0.0
230
1.0
 70
    11
 71
     3
 72
    20
 73
    16
 74
     0
 42
0.0000000001
 43
0.0000000001
 40
0.0
 40
0.0
 40
0.0
 40
0.0
 40
0.2
 40
0.2
 40
0.2
 40
0.2
 40
0.4
 40
0.4
 40
0.4
 40
0.4
 40
0.6
 40
0.6
 40
0.6
 40
0.6
 40
1.0
 40
1.0
 40
1.0
 40
1.0
 10
1.26725
 20
-0.56186
 30
0.0
 10
1.2643
 20
-0.56919
 30
0.0
 10
1.27021
 20
-0.57847
 30
0.0
 10
1.28046
 20
-0.5826
 30
0.0
 10
1.28046
 20
-0.5826
 30
0.0
 10
1.29071
 20
-0.58673
 30
0.0
 10
1.3014
 20
-0.58413
 30
0.0
 10
1.30435
 20
-0.5768
 30
0.0
 10
1.30435
 20
-0.5768
 30
0.0
 10
1.3073
 20
-0.56948
 30
0.0
 10
1.30139
 20
-0.56019
 30
0.0
 10
1.29114
 20
-0.55607
 30
0.0
 10
1.29114
 20
-0.55607
 30
0.0
 10
1.2809
 20
-0.55194
 30
0.0
 10
1.2702
 20
-0.55454
 30
0.0
 10
1.26725
 20
-0.56186
 30
0.0
  0
SPLINE
  5
96
330
1F
100
AcDbEntity
  8
Layer 1
370
     9
100
AcDbSpline
210
0.0
220
0.0
230
1.0
 70
     8
 71
     3
 72
   128
 73
   124
 74
     0
 42
0.0000000001
 43
0.0000000001
 40
0.0
 40
0.0
 40
0.0
 40
0.0
 40
0.03125
 40
0.03125
 40
0.03125
 40
0.03125
 40
0.0625
 40
0.0625
 40
0.0625
 40
0.0625
 40
0.09375
 40
0.09375
 40
0.09375
 40
0.09375
 40
0.125
 40
0.125
 40
0.125
 40
0.125
 40
0.15625
 40
0.15625
 40
0.15625
 40
0.15625
 40
0.1875
 40
0.1875
 40
0.1875
 40
0.1875
 40
0.21875
 40
0.21875
 40
0.21875
 40
0.21875
 40
0.25
 40
0.25
 40
0.25
 40
0.25
 40
0.28125
 40
0.28125
 40
0.28125
 40
0.28125
 40
0.3125
 40
0.3125
 40
0.3125
 40
0.3125
 40
0.34375
 40
0.34375
 40
0.34375
 40
0.34375
 40
0.375
 40
0.375
 40
0.375
 40
0.375
 40
0.40625
 40
0.40625
 40
0.40625
 40
0.40625
 40
0.4375
 40
0.4375
 40
0.4375
 40
0.4375
 40
0.46875
 40
0.46875
 40
0.46875
 40
0.46875
 40
0.5
 40
0.5
 40
0.5
 40
0.5
 40
0.53125
 40
0.53125
 40
0.53125
 40
0.53125
 40
0.5625
 40
0.5625
 40
0.5625
 40
0.5625
 40
0.59375
 40
0.59375
 40
0.59375
 40
0.59375
 40
0.625
 40
0.625
 40
0.625
 40
0.625
 40
0.65625
 40
0.65625
 40
0.65625
 40
0.65625
 40
0.6875
 40
0.6875
 40
0.6875
 40
0.6875
 40
0.71875
 40
0.71875
 40
0.71875
 40
0.71875
 40
0.75
 40
0.75
 40
0.75
 40
0.75
 40
0.78125
 40
0.78125
 40
0.78125
 40
0.78125
 40
0.8125
 40
0.8125
 40
0.8125
 40
0.8125
 40
0.84375
 40
0.84375
 40
0.84375
 40
0.84375
 40
0.875
 40
0.875
 40
0.875
 40
0.875
 40
0.90625
 40
0.90625
 40
0.90625
 40
0.90625
 40
0.9375
 40
0.9375
 40
0.9375
 40
0.9375
 40
1.0
 40
1.0
 40
1.0
 40
1.0
 10
0.76253
 20
-0.8646
 30
0.0
 10
0.76455
 20
-0.9206
 30
0.0
 10
0.76656
 20
-0.97661
 30
0.0
 10
0.80881
 20
-1.03592
 30
0.0
 10
0.80881
 20
-1.03592
 30
0.0
 10
0.85105
 20
-1.09523
 30
0.0
 10
0.93353
 20
-1.15785
 30
0.0
 10
0.99669
 20
-1.19505
 30
0.0
 10
0.99669
 20
-1.19505
 30
0.0
 10
1.05985
 20
-1.23226
 30
0.0
 10
1.1037
 20
-1.24405
 30
0.0
 10
1.14453
 20
-1.25503
 30
0.0
 10
1.14453
 20
-1.25503
 30
0.0
 10
1.18537
 20
-1.26602
 30
0.0
 10
1.22319
 20
-1.27619
 30
0.0
 10
1.27038
 20
-1.28017
 30
0.0
 10
1.27038
 20
-1.28017
 30
0.0
 10
1.31756
 20
-1.28416
 30
0.0
 10
1.3741
 20
-1.28197
 30
0.0
 10
1.41995
 20
-1.28488
 30
0.0
 10
1.41995
 20
-1.28488
 30
0.0
 10
1.4658
 20
-1.28779
 30
0.0
 10
1.50095
 20
-1.2958
 30
0.0
 10
1.51569
 20
-1.30439
 30
0.0
 10
1.51569
 20
-1.30439
 30
0.0
 10
1.53045
 20
-1.31298
 30
0.0
 10
1.52479
 20
-1.32213
 30
0.0
 10
1.51724
 20
-1.33365
 30
0.0
 10
1.51724
 20
-1.33365
 30
0.0
 10
1.50968
 20
-1.34516
 30
0.0
 10
1.50022
 20
-1.35904
 30
0.0
 10
1.49394
 20
-1.36807
 30
0.0
 10
1.49394
 20
-1.36807
 30
0.0
 10
1.48767
 20
-1.37711
 30
0.0
 10
1.48457
 20
-1.3813
 30
0.0
 10
1.47377
 20
-1.37786
 30
0.0
 10
1.47377
 20
-1.37786
 30
0.0
 10
1.46297
 20
-1.37441
 30
0.0
 10
1.44445
 20
-1.36333
 30
0.0
 10
1.4132
 20
-1.35889
 30
0.0
 10
1.4132
 20
-1.35889
 30
0.0
 10
1.38196
 20
-1.35444
 30
0.0
 10
1.33798
 20
-1.35664
 30
0.0
 10
1.29478
 20
-1.35526
 30
0.0
 10
1.29478
 20
-1.35526
 30
0.0
 10
1.25158
 20
-1.35388
 30
0.0
 10
1.20914
 20
-1.34891
 30
0.0
 10
1.19984
 20
-1.37118
 30
0.0
 10
1.19984
 20
-1.37118
 30
0.0
 10
1.19054
 20
-1.39345
 30
0.0
 10
1.21437
 20
-1.44296
 30
0.0
 10
1.2323
 20
-1.48313
 30
0.0
 10
1.2323
 20
-1.48313
 30
0.0
 10
1.25024
 20
-1.52329
 30
0.0
 10
1.26227
 20
-1.55413
 30
0.0
 10
1.26582
 20
-1.57108
 30
0.0
 10
1.26582
 20
-1.57108
 30
0.0
 10
1.26936
 20
-1.58804
 30
0.0
 10
1.26441
 20
-1.59111
 30
0.0
 10
1.25668
 20
-1.59598
 30
0.0
 10
1.25668
 20
-1.59598
 30
0.0
 10
1.24895
 20
-1.60086
 30
0.0
 10
1.23842
 20
-1.60753
 30
0.0
 10
1.23163
 20
-1.61119
 30
0.0
 10
1.23163
 20
-1.61119
 30
0.0
 10
1.22484
 20
-1.61485
 30
0.0
 10
1.22178
 20
-1.61551
 30
0.0
 10
1.21317
 20
-1.6004
 30
0.0
 10
1.21317
 20
-1.6004
 30
0.0
 10
1.20455
 20
-1.5853
 30
0.0
 10
1.19038
 20
-1.55443
 30
0.0
 10
1.17701
 20
-1.52033
 30
0.0
 10
1.17701
 20
-1.52033
 30
0.0
 10
1.16364
 20
-1.48623
 30
0.0
 10
1.15107
 20
-1.44889
 30
0.0
 10
1.13458
 20
-1.41594
 30
0.0
 10
1.13458
 20
-1.41594
 30
0.0
 10
1.1181
 20
-1.383
 30
0.0
 10
1.09767
 20
-1.35444
 30
0.0
 10
1.07545
 20
-1.33565
 30
0.0
 10
1.07545
 20
-1.33565
 30
0.0
 10
1.05323
 20
-1.31685
 30
0.0
 10
1.02921
 20
-1.3078
 30
0.0
 10
1.01692
 20
-1.30785
 30
0.0
 10
1.01692
 20
-1.30785
 30
0.0
 10
1.00464
 20
-1.3079
 30
0.0
 10
1.00409
 20
-1.31704
 30
0.0
 10
0.99928
 20
-1.34679
 30
0.0
 10
0.99928
 20
-1.34679
 30
0.0
 10
0.99448
 20
-1.37654
 30
0.0
 10
0.98542
 20
-1.4269
 30
0.0
 10
0.97742
 20
-1.45045
 30
0.0
 10
0.97742
 20
-1.45045
 30
0.0
 10
0.96942
 20
-1.47399
 30
0.0
 10
0.96248
 20
-1.47073
 30
0.0
 10
0.95791
 20
-1.46859
 30
0.0
 10
0.95791
 20
-1.46859
 30
0.0
 10
0.95334
 20
-1.46646
 30
0.0
 10
0.95114
 20
-1.46546
 30
0.0
 10
0.94777
 20
-1.46366
 30
0.0
 10
0.94777
 20
-1.46366
 30
0.0
 10
0.94441
 20
-1.46186
 30
0.0
 10
0.93986
 20
-1.45926
 30
0.0
 10
0.93334
 20
-1.45553
 30
0.0
 10
0.93334
 20
-1.45553
 30
0.0
 10
0.92682
 20
-1.45181
 30
0.0
 10
0.91831
 20
-1.44696
 30
0.0
 10
0.92364
 20
-1.41709
 30
0.0
 10
0.92364
 20
-1.41709
 30
0.0
 10
0.92897
 20
-1.38721
 30
0.0
 10
0.94812
 20
-1.33232
 30
0.0
 10
0.95135
 20
-1.30142
 30
0.0
 10
0.95135
 20
-1.30142
 30
0.0
 10
0.95459
 20
-1.27052
 30
0.0
 10
0.9419
 20
-1.26362
 30
0.0
 10
0.90778
 20
-1.23401
 30
0.0
 10
0.90778
 20
-1.23401
 30
0.0
 10
0.87366
 20
-1.2044
 30
0.0
 10
0.81809
 20
-1.15207
 30
0.0
 10
0.79031
 20
-1.15206
 30
0.0
 10
0.79031
 20
-1.15206
 30
0.0
 10
0.76253
 20
-1.15205
 30
0.0
 10
0.76253
 20
-1.20435
 30
0.0
 10
0.76253
 20
-1.25665
 30
0.0
  0
SPLINE
  5
97
330
1F
100
AcDbEntity
  8
Layer 1
370
     9
100
AcDbSpline
210
0.0
220
0.0
230
1.0
 70
    24
 71
     3
 72
     8
 73
     4
 74
     0
 42
0.0000000001
 43
0.0000000001
 40
0.0
 40
0.0
 40
0.0
 40
0.0
 40
1.0
 40
1.0
 40
1.0
 40
1.0
 10
0.76253
 20
-0.16696
 30
0.0
 10
0.76253
 20
-0.17314
 30
0.0
 10
0.76253
 20
-0.17932
 30
0.0
 10
0.76253
 20
-0.1855
 30
0.0
  0
SPLINE
  5
98
330
1F
100
AcDbEntity
  8
Layer 1
370
     9
100
AcDbSpline
210
0.0
220
0.0
230
1.0
 70
    24
 71
     3
 72
     8
 73
     4
 74
     0
 42
0.0000000001
 43
0.0000000001
 40
0.0
 40
0.0
 40
0.0
 40
0.0
 40
1.0
 40
1.0
 40
1.0
 40
1.0
 10
0.76253
 20
-0.49149
 30
0.0
 10
0.76253
 20
-0.47557
 30
0.0
 10
0.76253
 20
-0.45964
 30
0.0
 10
0.76253
 20
-0.44371
 30
0.0
  0
SPLINE
  5
99
330
1F
100
AcDbEntity
  8
Layer 1
370
     9
100
AcDbSpline
210
0.0
220
0.0
230
1.0
 70
    24
 71
     3
 72
     8
 73
     4
 74
     0
 42
0.0000000001
 43
0.0000000001
 40
0.0
 40
0.0
 40
0.0
 40
0.0
 40
1.0
 40
1.0
 40
1.0
 40
1.0
 10
0.76253
 20
-0.8646
 30
0.0
 10
0.76253
 20
-0.83852
 30
0.0
 10
0.76253
 20
-0.81244
 30
0.0
 10
0.76253
 20
-0.78636
 30
0.0
  0
SPLINE
  5
9A
330
1F
100
AcDbEntity
  8
Layer 1
370
     9
100
AcDbSpline
210
0.0
220
0.0
230
1.0
 70
    24
 71
     3
 72
    12
 73
     8
 74
     0
 42
0.0000000001
 43
0.0000000001
 40
0.0
 40
0.0
 40
0.0
 40
0.0
 40
0.3333333333333333
 40
0.3333333333333333
 40
0.3333333333333333
 40
0.3333333333333333
 40
1.0
 40
1.0
 40
1.0
 40
1.0
 10
0.76253
 20
-1.26982
 30
0.0
 10
0.76253
 20
-1.26543
 30
0.0
 10
0.76253
 20
-1.26104
 30
0.0
 10
0.76253
 20
-1.25884
 30
0.0
 10
0.76253
 20
-1.25884
 30
0.0
 10
0.76253
 20
-1.25665
 30
0.0
 10
0.76253
 20
-1.25665
 30
0.0
 10
0.76253
 20
-1.25665
 30
0.0
  0
SPLINE
  5
9B
330
1F
100
AcDbEntity
  8
Layer 1
370
     9
100
AcDbSpline
210
0.0
220
0.0
230
1.0
 70
     8
 71
     3
 72
   152
 73
   148
 74
     0
 42
0.0000000001
 43
0.0000000001
 40
0.0
 40
0.0
 40
0.0
 40
0.0
 40
0.0263157894736842
 40
0.0263157894736842
 40
0.0263157894736842
 40
0.0263157894736842
 40
0.0526315789473684
 40
0.0526315789473684
 40
0.0526315789473684
 40
0.0526315789473684
 40
0.0789473684210526
 40
0.0789473684210526
 40
0.0789473684210526
 40
0.0789473684210526
 40
0.1052631578947368
 40
0.1052631578947368
 40
0.1052631578947368
 40
0.1052631578947368
 40
0.131578947368421
 40
0.131578947368421
 40
0.131578947368421
 40
0.131578947368421
 40
0.1578947368421053
 40
0.1578947368421053
 40
0.1578947368421053
 40
0.1578947368421053
 40
0.1842105263157895
 40
0.1842105263157895
 40
0.1842105263157895
 40
0.1842105263157895
 40
0.2105263157894737
 40
0.2105263157894737
 40
0.2105263157894737
 40
0.2105263157894737
 40
0.2368421052631579
 40
0.2368421052631579
 40
0.2368421052631579
 40
0.2368421052631579
 40
0.2631578947368421
 40
0.2631578947368421
 40
0.2631578947368421
 40
0.2631578947368421
 40
0.2894736842105263
 40
0.2894736842105263
 40
0.2894736842105263
 40
0.2894736842105263
 40
0.3157894736842105
 40
0.3157894736842105
 40
0.3157894736842105
 40
0.3157894736842105
 40
0.3421052631578947
 40
0.3421052631578947
 40
0.3421052631578947
 40
0.3421052631578947
 40
0.3684210526315789
 40
0.3684210526315789
 40
0.3684210526315789
 40
0.3684210526315789
 40
0.3947368421052632
 40
0.3947368421052632
 40
0.3947368421052632
 40
0.3947368421052632
 40
0.4210526315789473
 40
0.4210526315789473
 40
0.4210526315789473
 40
0.4210526315789473
 40
0.4473684210526316
 40
0.4473684210526316
 40
0.4473684210526316
 40
0.4473684210526316
 40
0.4736842105263158
 40
0.4736842105263158
 40
0.4736842105263158
 40
0.4736842105263158
 40
0.5
 40
0.5
 40
0.5
 40
0.5
 40
0.5263157894736842
 40
0.5263157894736842
 40
0.5263157894736842
 40
0.5263157894736842
 40
0.5526315789473685
 40
0.5526315789473685
 40
0.5526315789473685
 40
0.5526315789473685
 40
0.5789473684210527
 40
0.5789473684210527
 40
0.5789473684210527
 40
0.5789473684210527
 40
0.6052631578947368
 40
0.6052631578947368
 40
0.6052631578947368
 40
0.6052631578947368
 40
0.631578947368421
 40
0.631578947368421
 40
0.631578947368421
 40
0.631578947368421
 40
0.6578947368421053
 40
0.6578947368421053
 40
0.6578947368421053
 40
0.6578947368421053
 40
0.6842105263157895
 40
0.6842105263157895
 40
0.6842105263157895
 40
0.6842105263157895
 40
0.7105263157894737
 40
0.7105263157894737
 40
0.7105263157894737
 40
0.7105263157894737
 40
0.7368421052631579
 40
0.7368421052631579
 40
0.7368421052631579
 40
0.7368421052631579
 40
0.7631578947368421
 40
0.7631578947368421
 40
0.7631578947368421
 40
0.7631578947368421
 40
0.7894736842105263
 40
0.7894736842105263
 40
0.7894736842105263
 40
0.7894736842105263
 40
0.8157894736842105
 40
0.8157894736842105
 40
0.8157894736842105
 40
0.8157894736842105
 40
0.8421052631578947
 40
0.8421052631578947
 40
0.8421052631578947
 40
0.8421052631578947
 40
0.868421052631579
 40
0.868421052631579
 40
0.868421052631579
 40
0.868421052631579
 40
0.8947368421052632
 40
0.8947368421052632
 40
0.8947368421052632
 40
0.8947368421052632
 40
0.9210526315789473
 40
0.9210526315789473
 40
0.9210526315789473
 40
0.9210526315789473
 40
0.9473684210526315
 40
0.9473684210526315
 40
0.9473684210526315
 40
0.9473684210526315
 40
1.0
 40
1.0
 40
1.0
 40
1.0
 10
0.76253
 20
-0.1855
 30
0.0
 10
0.76518
 20
-0.21679
 30
0.0
 10
0.76767
 20
-0.24333
 30
0.0
 10
0.78423
 20
-0.26452
 30
0.0
 10
0.78423
 20
-0.26452
 30
0.0
 10
0.80659
 20
-0.29315
 30
0.0
 10
0.91917
 20
-0.3646
 30
0.0
 10
0.94638
 20
-0.366
 30
0.0
 10
0.94638
 20
-0.366
 30
0.0
 10
0.97431
 20
-0.36743
 30
0.0
 10
0.99142
 20
-0.35803
 30
0.0
 10
1.01163
 20
-0.33047
 30
0.0
 10
1.01163
 20
-0.33047
 30
0.0
 10
1.03184
 20
-0.30291
 30
0.0
 10
1.05014
 20
-0.27437
 30
0.0
 10
1.06512
 20
-0.25133
 30
0.0
 10
1.06512
 20
-0.25133
 30
0.0
 10
1.0801
 20
-0.22829
 30
0.0
 10
1.09176
 20
-0.21075
 30
0.0
 10
1.09965
 20
-0.20479
 30
0.0
 10
1.09965
 20
-0.20479
 30
0.0
 10
1.10755
 20
-0.19881
 30
0.0
 10
1.11168
 20
-0.2044
 30
0.0
 10
1.11695
 20
-0.21136
 30
0.0
 10
1.11695
 20
-0.21136
 30
0.0
 10
1.12223
 20
-0.21831
 30
0.0
 10
1.12864
 20
-0.22663
 30
0.0
 10
1.13432
 20
-0.23317
 30
0.0
 10
1.13432
 20
-0.23317
 30
0.0
 10
1.14001
 20
-0.2397
 30
0.0
 10
1.14498
 20
-0.24447
 30
0.0
 10
1.13384
 20
-0.26067
 30
0.0
 10
1.13384
 20
-0.26067
 30
0.0
 10
1.1227
 20
-0.27687
 30
0.0
 10
1.09546
 20
-0.3045
 30
0.0
 10
1.07628
 20
-0.32757
 30
0.0
 10
1.07628
 20
-0.32757
 30
0.0
 10
1.0571
 20
-0.35064
 30
0.0
 10
1.04599
 20
-0.36915
 30
0.0
 10
1.06124
 20
-0.37676
 30
0.0
 10
1.06124
 20
-0.37676
 30
0.0
 10
1.0765
 20
-0.38436
 30
0.0
 10
1.11812
 20
-0.38107
 30
0.0
 10
1.16288
 20
-0.36625
 30
0.0
 10
1.16288
 20
-0.36625
 30
0.0
 10
1.20764
 20
-0.35142
 30
0.0
 10
1.25554
 20
-0.32506
 30
0.0
 10
1.29476
 20
-0.29191
 30
0.0
 10
1.29476
 20
-0.29191
 30
0.0
 10
1.33398
 20
-0.25876
 30
0.0
 10
1.36451
 20
-0.21881
 30
0.0
 10
1.38181
 20
-0.2024
 30
0.0
 10
1.38181
 20
-0.2024
 30
0.0
 10
1.39911
 20
-0.18599
 30
0.0
 10
1.40319
 20
-0.19313
 30
0.0
 10
1.40908
 20
-0.20077
 30
0.0
 10
1.40908
 20
-0.20077
 30
0.0
 10
1.41497
 20
-0.20841
 30
0.0
 10
1.42267
 20
-0.21655
 30
0.0
 10
1.42788
 20
-0.22205
 30
0.0
 10
1.42788
 20
-0.22205
 30
0.0
 10
1.43309
 20
-0.22756
 30
0.0
 10
1.4358
 20
-0.23043
 30
0.0
 10
1.42878
 20
-0.23892
 30
0.0
 10
1.42878
 20
-0.23892
 30
0.0
 10
1.42177
 20
-0.24741
 30
0.0
 10
1.40501
 20
-0.26153
 30
0.0
 10
1.38172
 20
-0.28286
 30
0.0
 10
1.38172
 20
-0.28286
 30
0.0
 10
1.35842
 20
-0.3042
 30
0.0
 10
1.32858
 20
-0.33275
 30
0.0
 10
1.36088
 20
-0.36286
 30
0.0
 10
1.36088
 20
-0.36286
 30
0.0
 10
1.39319
 20
-0.39295
 30
0.0
 10
1.48764
 20
-0.4246
 30
0.0
 10
1.5358
 20
-0.44265
 30
0.0
 10
1.5358
 20
-0.44265
 30
0.0
 10
1.58396
 20
-0.4607
 30
0.0
 10
1.58583
 20
-0.46516
 30
0.0
 10
1.58912
 20
-0.473
 30
0.0
 10
1.58912
 20
-0.473
 30
0.0
 10
1.59241
 20
-0.48084
 30
0.0
 10
1.59713
 20
-0.49208
 30
0.0
 10
1.60182
 20
-0.50417
 30
0.0
 10
1.60182
 20
-0.50417
 30
0.0
 10
1.60652
 20
-0.51627
 30
0.0
 10
1.61119
 20
-0.52921
 30
0.0
 10
1.59523
 20
-0.52696
 30
0.0
 10
1.59523
 20
-0.52696
 30
0.0
 10
1.57927
 20
-0.5247
 30
0.0
 10
1.54266
 20
-0.50725
 30
0.0
 10
1.51062
 20
-0.49303
 30
0.0
 10
1.51062
 20
-0.49303
 30
0.0
 10
1.47857
 20
-0.47881
 30
0.0
 10
1.45108
 20
-0.46783
 30
0.0
 10
1.41928
 20
-0.45355
 30
0.0
 10
1.41928
 20
-0.45355
 30
0.0
 10
1.38748
 20
-0.43928
 30
0.0
 10
1.35135
 20
-0.4217
 30
0.0
 10
1.32387
 20
-0.41017
 30
0.0
 10
1.32387
 20
-0.41017
 30
0.0
 10
1.29638
 20
-0.39864
 30
0.0
 10
1.27753
 20
-0.39315
 30
0.0
 10
1.23984
 20
-0.40304
 30
0.0
 10
1.23984
 20
-0.40304
 30
0.0
 10
1.20214
 20
-0.41292
 30
0.0
 10
1.1456
 20
-0.43818
 30
0.0
 10
1.13098
 20
-0.45826
 30
0.0
 10
1.13098
 20
-0.45826
 30
0.0
 10
1.11635
 20
-0.47834
 30
0.0
 10
1.14364
 20
-0.49325
 30
0.0
 10
1.18487
 20
-0.50533
 30
0.0
 10
1.18487
 20
-0.50533
 30
0.0
 10
1.2261
 20
-0.51741
 30
0.0
 10
1.28126
 20
-0.52666
 30
0.0
 10
1.30881
 20
-0.53514
 30
0.0
 10
1.30881
 20
-0.53514
 30
0.0
 10
1.33636
 20
-0.54361
 30
0.0
 10
1.33628
 20
-0.55131
 30
0.0
 10
1.33648
 20
-0.5614
 30
0.0
 10
1.33648
 20
-0.5614
 30
0.0
 10
1.33668
 20
-0.57148
 30
0.0
 10
1.33715
 20
-0.58396
 30
0.0
 10
1.33697
 20
-0.59549
 30
0.0
 10
1.33697
 20
-0.59549
 30
0.0
 10
1.33679
 20
-0.60701
 30
0.0
 10
1.33595
 20
-0.61758
 30
0.0
 10
1.31573
 20
-0.61518
 30
0.0
 10
1.31573
 20
-0.61518
 30
0.0
 10
1.29551
 20
-0.61278
 30
0.0
 10
1.25589
 20
-0.59741
 30
0.0
 10
1.21606
 20
-0.58314
 30
0.0
 10
1.21606
 20
-0.58314
 30
0.0
 10
1.17623
 20
-0.56886
 30
0.0
 10
1.13618
 20
-0.55568
 30
0.0
 10
1.10398
 20
-0.54086
 30
0.0
 10
1.10398
 20
-0.54086
 30
0.0
 10
1.04813
 20
-0.51514
 30
0.0
 10
0.95952
 20
-0.46831
 30
0.0
 10
0.90403
 20
-0.4386
 30
0.0
 10
0.90403
 20
-0.4386
 30
0.0
 10
0.86585
 20
-0.41815
 30
0.0
 10
0.81698
 20
-0.37616
 30
0.0
 10
0.79162
 20
-0.37342
 30
0.0
 10
0.79162
 20
-0.37342
 30
0.0
 10
0.76625
 20
-0.37068
 30
0.0
 10
0.76439
 20
-0.4072
 30
0.0
 10
0.76253
 20
-0.44371
 30
0.0
  0
SPLINE
  5
9C
330
1F
100
AcDbEntity
  8
Layer 1
370
     9
100
AcDbSpline
210
0.0
220
0.0
230
1.0
 70
     8
 71
     3
 72
   128
 73
   124
 74
     0
 42
0.0000000001
 43
0.0000000001
 40
0.0
 40
0.0
 40
0.0
 40
0.0
 40
0.03125
 40
0.03125
 40
0.03125
 40
0.03125
 40
0.0625
 40
0.0625
 40
0.0625
 40
0.0625
 40
0.09375
 40
0.09375
 40
0.09375
 40
0.09375
 40
0.125
 40
0.125
 40
0.125
 40
0.125
 40
0.15625
 40
0.15625
 40
0.15625
 40
0.15625
 40
0.1875
 40
0.1875
 40
0.1875
 40
0.1875
 40
0.21875
 40
0.21875
 40
0.21875
 40
0.21875
 40
0.25
 40
0.25
 40
0.25
 40
0.25
 40
0.28125
 40
0.28125
 40
0.28125
 40
0.28125
 40
0.3125
 40
0.3125
 40
0.3125
 40
0.3125
 40
0.34375
 40
0.34375
 40
0.34375
 40
0.34375
 40
0.375
 40
0.375
 40
0.375
 40
0.375
 40
0.40625
 40
0.40625
 40
0.40625
 40
0.40625
 40
0.4375
 40
0.4375
 40
0.4375
 40
0.4375
 40
0.46875
 40
0.46875
 40
0.46875
 40
0.46875
 40
0.5
 40
0.5
 40
0.5
 40
0.5
 40
0.53125
 40
0.53125
 40
0.53125
 40
0.53125
 40
0.5625
 40
0.5625
 40
0.5625
 40
0.5625
 40
0.59375
 40
0.59375
 40
0.59375
 40
0.59375
 40
0.625
 40
0.625
 40
0.625
 40
0.625
 40
0.65625
 40
0.65625
 40
0.65625
 40
0.65625
 40
0.6875
 40
0.6875
 40
0.6875
 40
0.6875
 40
0.71875
 40
0.71875
 40
0.71875
 40
0.71875
 40
0.75
 40
0.75
 40
0.75
 40
0.75
 40
0.78125
 40
0.78125
 40
0.78125
 40
0.78125
 40
0.8125
 40
0.8125
 40
0.8125
 40
0.8125
 40
0.84375
 40
0.84375
 40
0.84375
 40
0.84375
 40
0.875
 40
0.875
 40
0.875
 40
0.875
 40
0.90625
 40
0.90625
 40
0.90625
 40
0.90625
 40
0.9375
 40
0.9375
 40
0.9375
 40
0.9375
 40
1.0
 40
1.0
 40
1.0
 40
1.0
 10
0.55343
 20
-0.8646
 30
0.0
 10
0.55142
 20
-0.9206
 30
0.0
 10
0.5494
 20
-0.97661
 30
0.0
 10
0.50715
 20
-1.03592
 30
0.0
 10
0.50715
 20
-1.03592
 30
0.0
 10
0.46491
 20
-1.09523
 30
0.0
 10
0.38243
 20
-1.15785
 30
0.0
 10
0.31927
 20
-1.19505
 30
0.0
 10
0.31927
 20
-1.19505
 30
0.0
 10
0.25611
 20
-1.23226
 30
0.0
 10
0.21226
 20
-1.24405
 30
0.0
 10
0.17142
 20
-1.25503
 30
0.0
 10
0.17142
 20
-1.25503
 30
0.0
 10
0.13059
 20
-1.26602
 30
0.0
 10
0.09276
 20
-1.27619
 30
0.0
 10
0.04558
 20
-1.28017
 30
0.0
 10
0.04558
 20
-1.28017
 30
0.0
 10
-0.00159
 20
-1.28416
 30
0.0
 10
-0.05813
 20
-1.28197
 30
0.0
 10
-0.10398
 20
-1.28488
 30
0.0
 10
-0.10398
 20
-1.28488
 30
0.0
 10
-0.14983
 20
-1.28779
 30
0.0
 10
-0.18498
 20
-1.2958
 30
0.0
 10
-0.19973
 20
-1.30439
 30
0.0
 10
-0.19973
 20
-1.30439
 30
0.0
 10
-0.21448
 20
-1.31298
 30
0.0
 10
-0.20883
 20
-1.32213
 30
0.0
 10
-0.20127
 20
-1.33365
 30
0.0
 10
-0.20127
 20
-1.33365
 30
0.0
 10
-0.19371
 20
-1.34516
 30
0.0
 10
-0.18425
 20
-1.35904
 30
0.0
 10
-0.17797
 20
-1.36807
 30
0.0
 10
-0.17797
 20
-1.36807
 30
0.0
 10
-0.1717
 20
-1.37711
 30
0.0
 10
-0.16861
 20
-1.3813
 30
0.0
 10
-0.1578
 20
-1.37786
 30
0.0
 10
-0.1578
 20
-1.37786
 30
0.0
 10
-0.147
 20
-1.37441
 30
0.0
 10
-0.12848
 20
-1.36333
 30
0.0
 10
-0.09723
 20
-1.35889
 30
0.0
 10
-0.09723
 20
-1.35889
 30
0.0
 10
-0.06599
 20
-1.35444
 30
0.0
 10
-0.02201
 20
-1.35664
 30
0.0
 10
0.02118
 20
-1.35526
 30
0.0
 10
0.02118
 20
-1.35526
 30
0.0
 10
0.06439
 20
-1.35388
 30
0.0
 10
0.10681
 20
-1.34891
 30
0.0
 10
0.11611
 20
-1.37118
 30
0.0
 10
0.11611
 20
-1.37118
 30
0.0
 10
0.12542
 20
-1.39345
 30
0.0
 10
0.10159
 20
-1.44296
 30
0.0
 10
0.08366
 20
-1.48313
 30
0.0
 10
0.08366
 20
-1.48313
 30
0.0
 10
0.06572
 20
-1.52329
 30
0.0
 10
0.05369
 20
-1.55413
 30
0.0
 10
0.05014
 20
-1.57108
 30
0.0
 10
0.05014
 20
-1.57108
 30
0.0
 10
0.0466
 20
-1.58804
 30
0.0
 10
0.05155
 20
-1.59111
 30
0.0
 10
0.05928
 20
-1.59598
 30
0.0
 10
0.05928
 20
-1.59598
 30
0.0
 10
0.06702
 20
-1.60086
 30
0.0
 10
0.07754
 20
-1.60753
 30
0.0
 10
0.08432
 20
-1.61119
 30
0.0
 10
0.08432
 20
-1.61119
 30
0.0
 10
0.09112
 20
-1.61485
 30
0.0
 10
0.09417
 20
-1.61551
 30
0.0
 10
0.10279
 20
-1.6004
 30
0.0
 10
0.10279
 20
-1.6004
 30
0.0
 10
0.11141
 20
-1.5853
 30
0.0
 10
0.12558
 20
-1.55443
 30
0.0
 10
0.13895
 20
-1.52033
 30
0.0
 10
0.13895
 20
-1.52033
 30
0.0
 10
0.15232
 20
-1.48623
 30
0.0
 10
0.16488
 20
-1.44889
 30
0.0
 10
0.18137
 20
-1.41594
 30
0.0
 10
0.18137
 20
-1.41594
 30
0.0
 10
0.19787
 20
-1.383
 30
0.0
 10
0.21828
 20
-1.35444
 30
0.0
 10
0.24051
 20
-1.33565
 30
0.0
 10
0.24051
 20
-1.33565
 30
0.0
 10
0.26273
 20
-1.31685
 30
0.0
 10
0.28675
 20
-1.3078
 30
0.0
 10
0.29904
 20
-1.30785
 30
0.0
 10
0.29904
 20
-1.30785
 30
0.0
 10
0.31132
 20
-1.3079
 30
0.0
 10
0.31187
 20
-1.31704
 30
0.0
 10
0.31667
 20
-1.34679
 30
0.0
 10
0.31667
 20
-1.34679
 30
0.0
 10
0.32148
 20
-1.37654
 30
0.0
 10
0.33054
 20
-1.4269
 30
0.0
 10
0.33854
 20
-1.45045
 30
0.0
 10
0.33854
 20
-1.45045
 30
0.0
 10
0.34654
 20
-1.47399
 30
0.0
 10
0.35348
 20
-1.47073
 30
0.0
 10
0.35805
 20
-1.46859
 30
0.0
 10
0.35805
 20
-1.46859
 30
0.0
 10
0.36262
 20
-1.46646
 30
0.0
 10
0.36482
 20
-1.46546
 30
0.0
 10
0.36818
 20
-1.46366
 30
0.0
 10
0.36818
 20
-1.46366
 30
0.0
 10
0.37155
 20
-1.46186
 30
0.0
 10
0.3761
 20
-1.45926
 30
0.0
 10
0.38262
 20
-1.45553
 30
0.0
 10
0.38262
 20
-1.45553
 30
0.0
 10
0.38914
 20
-1.45181
 30
0.0
 10
0.39764
 20
-1.44696
 30
0.0
 10
0.39232
 20
-1.41709
 30
0.0
 10
0.39232
 20
-1.41709
 30
0.0
 10
0.387
 20
-1.38721
 30
0.0
 10
0.36784
 20
-1.33232
 30
0.0
 10
0.36461
 20
-1.30142
 30
0.0
 10
0.36461
 20
-1.30142
 30
0.0
 10
0.36138
 20
-1.27052
 30
0.0
 10
0.37406
 20
-1.26362
 30
0.0
 10
0.40818
 20
-1.23401
 30
0.0
 10
0.40818
 20
-1.23401
 30
0.0
 10
0.44231
 20
-1.2044
 30
0.0
 10
0.49787
 20
-1.15207
 30
0.0
 10
0.52565
 20
-1.15206
 30
0.0
 10
0.52565
 20
-1.15206
 30
0.0
 10
0.55343
 20
-1.15205
 30
0.0
 10
0.55343
 20
-1.20435
 30
0.0
 10
0.55343
 20
-1.25665
 30
0.0
  0
SPLINE
  5
9D
330
1F
100
AcDbEntity
  8
Layer 1
370
     9
100
AcDbSpline
210
0.0
220
0.0
230
1.0
 70
    24
 71
     3
 72
     8
 73
     4
 74
     0
 42
0.0000000001
 43
0.0000000001
 40
0.0
 40
0.0
 40
0.0
 40
0.0
 40
1.0
 40
1.0
 40
1.0
 40
1.0
 10
0.55343
 20
-0.16696
 30
0.0
 10
0.55343
 20
-0.17314
 30
0.0
 10
0.55343
 20
-0.17932
 30
0.0
 10
0.55343
 20
-0.1855
 30
0.0
  0
SPLINE
  5
9E
330
1F
100
AcDbEntity
  8
Layer 1
370
     9
100
AcDbSpline
210
0.0
220
0.0
230
1.0
 70
    24
 71
     3
 72
     8
 73
     4
 74
     0
 42
0.0000000001
 43
0.0000000001
 40
0.0
 40
0.0
 40
0.0
 40
0.0
 40
1.0
 40
1.0
 40
1.0
 40
1.0
 10
0.55343
 20
-0.49149
 30
0.0
 10
0.55343
 20
-0.47557
 30
0.0
 10
0.55343
 20
-0.45964
 30
0.0
 10
0.55343
 20
-0.44371
 30
0.0
  0
SPLINE
  5
9F
330
1F
100
AcDbEntity
  8
Layer 1
370
     9
100
AcDbSpline
210
0.0
220
0.0
230
1.0
 70
    24
 71
     3
 72
     8
 73
     4
 74
     0
 42
0.0000000001
 43
0.0000000001
 40
0.0
 40
0.0
 40
0.0
 40
0.0
 40
1.0
 40
1.0
 40
1.0
 40
1.0
 10
0.55343
 20
-0.8646
 30
0.0
 10
0.55343
 20
-0.83852
 30
0.0
 10
0.55343
 20
-0.81244
 30
0.0
 10
0.55343
 20
-0.78636
 30
0.0
  0
SPLINE
  5
A0
330
1F
100
AcDbEntity
  8
Layer 1
370
     9
100
AcDbSpline
210
0.0
220
0.0
230
1.0
 70
    24
 71
     3
 72
    12
 73
     8
 74
     0
 42
0.0000000001
 43
0.0000000001
 40
0.0
 40
0.0
 40
0.0
 40
0.0
 40
0.3333333333333333
 40
0.3333333333333333
 40
0.3333333333333333
 40
0.3333333333333333
 40
1.0
 40
1.0
 40
1.0
 40
1.0
 10
0.55343
 20
-1.26982
 30
0.0
 10
0.55343
 20
-1.26543
 30
0.0
 10
0.55343
 20
-1.26104
 30
0.0
 10
0.55343
 20
-1.25884
 30
0.0
 10
0.55343
 20
-1.25884
 30
0.0
 10
0.55343
 20
-1.25665
 30
0.0
 10
0.55343
 20
-1.25665
 30
0.0
 10
0.55343
 20
-1.25665
 30
0.0
  0
SPLINE
  5
A1
330
1F
100
AcDbEntity
  8
Layer 1
370
     9
100
AcDbSpline
210
0.0
220
0.0
230
1.0
 70
     8
 71
     3
 72
   152
 73
   148
 74
     0
 42
0.0000000001
 43
0.0000000001
 40
0.0
 40
0.0
 40
0.0
 40
0.0
 40
0.0263157894736842
 40
0.0263157894736842
 40
0.0263157894736842
 40
0.0263157894736842
 40
0.0526315789473684
 40
0.0526315789473684
 40
0.0526315789473684
 40
0.0526315789473684
 40
0.0789473684210526
 40
0.0789473684210526
 40
0.0789473684210526
 40
0.0789473684210526
 40
0.1052631578947368
 40
0.1052631578947368
 40
0.1052631578947368
 40
0.1052631578947368
 40
0.131578947368421
 40
0.131578947368421
 40
0.131578947368421
 40
0.131578947368421
 40
0.1578947368421053
 40
0.1578947368421053
 40
0.1578947368421053
 40
0.1578947368421053
 40
0.1842105263157895
 40
0.1842105263157895
 40
0.1842105263157895
 40
0.1842105263157895
 40
0.2105263157894737
 40
0.2105263157894737
 40
0.2105263157894737
 40
0.2105263157894737
 40
0.2368421052631579
 40
0.2368421052631579
 40
0.2368421052631579
 40
0.2368421052631579
 40
0.2631578947368421
 40
0.2631578947368421
 40
0.2631578947368421
 40
0.2631578947368421
 40
0.2894736842105263
 40
0.2894736842105263
 40
0.2894736842105263
 40
0.2894736842105263
 40
0.3157894736842105
 40
0.3157894736842105
 40
0.3157894736842105
 40
0.3157894736842105
 40
0.3421052631578947
 40
0.3421052631578947
 40
0.3421052631578947
 40
0.3421052631578947
 40
0.3684210526315789
 40
0.3684210526315789
 40
0.3684210526315789
 40
0.3684210526315789
 40
0.3947368421052632
 40
0.3947368421052632
 40
0.3947368421052632
 40
0.3947368421052632
 40
0.4210526315789473
 40
0.4210526315789473
 40
0.4210526315789473
 40
0.4210526315789473
 40
0.4473684210526316
 40
0.4473684210526316
 40
0.4473684210526316
 40
0.4473684210526316
 40
0.4736842105263158
 40
0.4736842105263158
 40
0.4736842105263158
 40
0.4736842105263158
 40
0.5
 40
0.5
 40
0.5
 40
0.5
 40
0.5263157894736842
 40
0.5263157894736842
 40
0.5263157894736842
 40
0.5263157894736842
 40
0.5526315789473685
 40
0.5526315789473685
 40
0.5526315789473685
 40
0.5526315789473685
 40
0.5789473684210527
 40
0.5789473684210527
 40
0.5789473684210527
 40
0.5789473684210527
 40
0.6052631578947368
 40
0.6052631578947368
 40
0.6052631578947368
 40
0.6052631578947368
 40
0.631578947368421
 40
0.631578947368421
 40
0.631578947368421
 40
0.631578947368421
 40
0.6578947368421053
 40
0.6578947368421053
 40
0.6578947368421053
 40
0.6578947368421053
 40
0.6842105263157895
 40
0.6842105263157895
 40
0.6842105263157895
 40
0.6842105263157895
 40
0.7105263157894737
 40
0.7105263157894737
 40
0.7105263157894737
 40
0.7105263157894737
 40
0.7368421052631579
 40
0.7368421052631579
 40
0.7368421052631579
 40
0.7368421052631579
 40
0.7631578947368421
 40
0.7631578947368421
 40
0.7631578947368421
 40
0.7631578947368421
 40
0.7894736842105263
 40
0.7894736842105263
 40
0.7894736842105263
 40
0.7894736842105263
 40
0.8157894736842105
 40
0.8157894736842105
 40
0.8157894736842105
 40
0.8157894736842105
 40
0.8421052631578947
 40
0.8421052631578947
 40
0.8421052631578947
 40
0.8421052631578947
 40
0.868421052631579
 40
0.868421052631579
 40
0.868421052631579
 40
0.868421052631579
 40
0.8947368421052632
 40
0.8947368421052632
 40
0.8947368421052632
 40
0.8947368421052632
 40
0.9210526315789473
 40
0.9210526315789473
 40
0.9210526315789473
 40
0.9210526315789473
 40
0.9473684210526315
 40
0.9473684210526315
 40
0.9473684210526315
 40
0.9473684210526315
 40
1.0
 40
1.0
 40
1.0
 40
1.0
 10
0.55343
 20
-0.1855
 30
0.0
 10
0.55079
 20
-0.21679
 30
0.0
 10
0.54828
 20
-0.24333
 30
0.0
 10
0.53173
 20
-0.26452
 30
0.0
 10
0.53173
 20
-0.26452
 30
0.0
 10
0.50937
 20
-0.29315
 30
0.0
 10
0.39678
 20
-0.3646
 30
0.0
 10
0.36958
 20
-0.366
 30
0.0
 10
0.36958
 20
-0.366
 30
0.0
 10
0.34166
 20
-0.36743
 30
0.0
 10
0.32454
 20
-0.35803
 30
0.0
 10
0.30433
 20
-0.33047
 30
0.0
 10
0.30433
 20
-0.33047
 30
0.0
 10
0.28412
 20
-0.30291
 30
0.0
 10
0.26582
 20
-0.27437
 30
0.0
 10
0.25084
 20
-0.25133
 30
0.0
 10
0.25084
 20
-0.25133
 30
0.0
 10
0.23586
 20
-0.22829
 30
0.0
 10
0.2242
 20
-0.21075
 30
0.0
 10
0.21631
 20
-0.20479
 30
0.0
 10
0.21631
 20
-0.20479
 30
0.0
 10
0.20841
 20
-0.19881
 30
0.0
 10
0.20428
 20
-0.2044
 30
0.0
 10
0.19901
 20
-0.21136
 30
0.0
 10
0.19901
 20
-0.21136
 30
0.0
 10
0.19373
 20
-0.21831
 30
0.0
 10
0.18732
 20
-0.22663
 30
0.0
 10
0.18164
 20
-0.23317
 30
0.0
 10
0.18164
 20
-0.23317
 30
0.0
 10
0.17595
 20
-0.2397
 30
0.0
 10
0.17098
 20
-0.24447
 30
0.0
 10
0.18212
 20
-0.26067
 30
0.0
 10
0.18212
 20
-0.26067
 30
0.0
 10
0.19326
 20
-0.27687
 30
0.0
 10
0.2205
 20
-0.3045
 30
0.0
 10
0.23968
 20
-0.32757
 30
0.0
 10
0.23968
 20
-0.32757
 30
0.0
 10
0.25886
 20
-0.35064
 30
0.0
 10
0.26997
 20
-0.36915
 30
0.0
 10
0.25472
 20
-0.37676
 30
0.0
 10
0.25472
 20
-0.37676
 30
0.0
 10
0.23946
 20
-0.38436
 30
0.0
 10
0.19784
 20
-0.38107
 30
0.0
 10
0.15308
 20
-0.36625
 30
0.0
 10
0.15308
 20
-0.36625
 30
0.0
 10
0.10832
 20
-0.35142
 30
0.0
 10
0.06041
 20
-0.32506
 30
0.0
 10
0.0212
 20
-0.29191
 30
0.0
 10
0.0212
 20
-0.29191
 30
0.0
 10
-0.01801
 20
-0.25876
 30
0.0
 10
-0.04854
 20
-0.21881
 30
0.0
 10
-0.06584
 20
-0.2024
 30
0.0
 10
-0.06584
 20
-0.2024
 30
0.0
 10
-0.08314
 20
-0.18599
 30
0.0
 10
-0.08722
 20
-0.19313
 30
0.0
 10
-0.09311
 20
-0.20077
 30
0.0
 10
-0.09311
 20
-0.20077
 30
0.0
 10
-0.099
 20
-0.20841
 30
0.0
 10
-0.1067
 20
-0.21655
 30
0.0
 10
-0.11191
 20
-0.22205
 30
0.0
 10
-0.11191
 20
-0.22205
 30
0.0
 10
-0.11712
 20
-0.22756
 30
0.0
 10
-0.11983
 20
-0.23043
 30
0.0
 10
-0.11282
 20
-0.23892
 30
0.0
 10
-0.11282
 20
-0.23892
 30
0.0
 10
-0.10579
 20
-0.24741
 30
0.0
 10
-0.08904
 20
-0.26153
 30
0.0
 10
-0.06575
 20
-0.28286
 30
0.0
 10
-0.06575
 20
-0.28286
 30
0.0
 10
-0.04245
 20
-0.3042
 30
0.0
 10
-0.01261
 20
-0.33275
 30
0.0
 10
-0.04491
 20
-0.36286
 30
0.0
 10
-0.04491
 20
-0.36286
 30
0.0
 10
-0.07722
 20
-0.39295
 30
0.0
 10
-0.17167
 20
-0.4246
 30
0.0
 10
-0.21983
 20
-0.44265
 30
0.0
 10
-0.21983
 20
-0.44265
 30
0.0
 10
-0.26799
 20
-0.4607
 30
0.0
 10
-0.26986
 20
-0.46516
 30
0.0
 10
-0.27315
 20
-0.473
 30
0.0
 10
-0.27315
 20
-0.473
 30
0.0
 10
-0.27644
 20
-0.48084
 30
0.0
 10
-0.28116
 20
-0.49208
 30
0.0
 10
-0.28585
 20
-0.50417
 30
0.0
 10
-0.28585
 20
-0.50417
 30
0.0
 10
-0.29055
 20
-0.51627
 30
0.0
 10
-0.29523
 20
-0.52921
 30
0.0
 10
-0.27926
 20
-0.52696
 30
0.0
 10
-0.27926
 20
-0.52696
 30
0.0
 10
-0.2633
 20
-0.5247
 30
0.0
 10
-0.22669
 20
-0.50725
 30
0.0
 10
-0.19465
 20
-0.49303
 30
0.0
 10
-0.19465
 20
-0.49303
 30
0.0
 10
-0.1626
 20
-0.47881
 30
0.0
 10
-0.13512
 20
-0.46783
 30
0.0
 10
-0.10331
 20
-0.45355
 30
0.0
 10
-0.10331
 20
-0.45355
 30
0.0
 10
-0.07151
 20
-0.43928
 30
0.0
 10
-0.03538
 20
-0.4217
 30
0.0
 10
-0.0079
 20
-0.41017
 30
0.0
 10
-0.0079
 20
-0.41017
 30
0.0
 10
0.01958
 20
-0.39864
 30
0.0
 10
0.03843
 20
-0.39315
 30
0.0
 10
0.07612
 20
-0.40304
 30
0.0
 10
0.07612
 20
-0.40304
 30
0.0
 10
0.11382
 20
-0.41292
 30
0.0
 10
0.17036
 20
-0.43818
 30
0.0
 10
0.18498
 20
-0.45826
 30
0.0
 10
0.18498
 20
-0.45826
 30
0.0
 10
0.19961
 20
-0.47834
 30
0.0
 10
0.17232
 20
-0.49325
 30
0.0
 10
0.13109
 20
-0.50533
 30
0.0
 10
0.13109
 20
-0.50533
 30
0.0
 10
0.08986
 20
-0.51741
 30
0.0
 10
0.0347
 20
-0.52666
 30
0.0
 10
0.00715
 20
-0.53514
 30
0.0
 10
0.00715
 20
-0.53514
 30
0.0
 10
-0.02039
 20
-0.54361
 30
0.0
 10
-0.02032
 20
-0.55131
 30
0.0
 10
-0.02051
 20
-0.5614
 30
0.0
 10
-0.02051
 20
-0.5614
 30
0.0
 10
-0.02071
 20
-0.57148
 30
0.0
 10
-0.02118
 20
-0.58396
 30
0.0
 10
-0.021
 20
-0.59549
 30
0.0
 10
-0.021
 20
-0.59549
 30
0.0
 10
-0.02082
 20
-0.60701
 30
0.0
 10
-0.01999
 20
-0.61758
 30
0.0
 10
0.00023
 20
-0.61518
 30
0.0
 10
0.00023
 20
-0.61518
 30
0.0
 10
0.02045
 20
-0.61278
 30
0.0
 10
0.06006
 20
-0.59741
 30
0.0
 10
0.0999
 20
-0.58314
 30
0.0
 10
0.0999
 20
-0.58314
 30
0.0
 10
0.13973
 20
-0.56886
 30
0.0
 10
0.17978
 20
-0.55568
 30
0.0
 10
0.21198
 20
-0.54086
 30
0.0
 10
0.21198
 20
-0.54086
 30
0.0
 10
0.26784
 20
-0.51514
 30
0.0
 10
0.35644
 20
-0.46831
 30
0.0
 10
0.41193
 20
-0.4386
 30
0.0
 10
0.41193
 20
-0.4386
 30
0.0
 10
0.45011
 20
-0.41815
 30
0.0
 10
0.49898
 20
-0.37616
 30
0.0
 10
0.52434
 20
-0.37342
 30
0.0
 10
0.52434
 20
-0.37342
 30
0.0
 10
0.54971
 20
-0.37068
 30
0.0
 10
0.55157
 20
-0.4072
 30
0.0
 10
0.55343
 20
-0.44371
 30
0.0
  0
SPLINE
  5
A2
330
1F
100
AcDbEntity
  8
Layer 1
370
     9
100
AcDbSpline
210
0.0
220
0.0
230
1.0
 70
     8
 71
     3
 72
   196
 73
   192
 74
     0
 42
0.0000000001
 43
0.0000000001
 40
0.0
 40
0.0
 40
0.0
 40
0.0
 40
0.0204081632653061
 40
0.0204081632653061
 40
0.0204081632653061
 40
0.0204081632653061
 40
0.0408163265306122
 40
0.0408163265306122
 40
0.0408163265306122
 40
0.0408163265306122
 40
0.0612244897959184
 40
0.0612244897959184
 40
0.0612244897959184
 40
0.0612244897959184
 40
0.0816326530612245
 40
0.0816326530612245
 40
0.0816326530612245
 40
0.0816326530612245
 40
0.1020408163265306
 40
0.1020408163265306
 40
0.1020408163265306
 40
0.1020408163265306
 40
0.1224489795918367
 40
0.1224489795918367
 40
0.1224489795918367
 40
0.1224489795918367
 40
0.1428571428571428
 40
0.1428571428571428
 40
0.1428571428571428
 40
0.1428571428571428
 40
0.163265306122449
 40
0.163265306122449
 40
0.163265306122449
 40
0.163265306122449
 40
0.1836734693877551
 40
0.1836734693877551
 40
0.1836734693877551
 40
0.1836734693877551
 40
0.2040816326530612
 40
0.2040816326530612
 40
0.2040816326530612
 40
0.2040816326530612
 40
0.2244897959183673
 40
0.2244897959183673
 40
0.2244897959183673
 40
0.2244897959183673
 40
0.2448979591836735
 40
0.2448979591836735
 40
0.2448979591836735
 40
0.2448979591836735
 40
0.2653061224489796
 40
0.2653061224489796
 40
0.2653061224489796
 40
0.2653061224489796
 40
0.2857142857142857
 40
0.2857142857142857
 40
0.2857142857142857
 40
0.2857142857142857
 40
0.3061224489795918
 40
0.3061224489795918
 40
0.3061224489795918
 40
0.3061224489795918
 40
0.3265306122448979
 40
0.3265306122448979
 40
0.3265306122448979
 40
0.3265306122448979
 40
0.3469387755102041
 40
0.3469387755102041
 40
0.3469387755102041
 40
0.3469387755102041
 40
0.3673469387755102
 40
0.3673469387755102
 40
0.3673469387755102
 40
0.3673469387755102
 40
0.3877551020408163
 40
0.3877551020408163
 40
0.3877551020408163
 40
0.3877551020408163
 40
0.4081632653061225
 40
0.4081632653061225
 40
0.4081632653061225
 40
0.4081632653061225
 40
0.4285714285714285
 40
0.4285714285714285
 40
0.4285714285714285
 40
0.4285714285714285
 40
0.4489795918367347
 40
0.4489795918367347
 40
0.4489795918367347
 40
0.4489795918367347
 40
0.4693877551020408
 40
0.4693877551020408
 40
0.4693877551020408
 40
0.4693877551020408
 40
0.4897959183673469
 40
0.4897959183673469
 40
0.4897959183673469
 40
0.4897959183673469
 40
0.5102040816326531
 40
0.5102040816326531
 40
0.5102040816326531
 40
0.5102040816326531
 40
0.5306122448979592
 40
0.5306122448979592
 40
0.5306122448979592
 40
0.5306122448979592
 40
0.5510204081632653
 40
0.5510204081632653
 40
0.5510204081632653
 40
0.5510204081632653
 40
0.5714285714285714
 40
0.5714285714285714
 40
0.5714285714285714
 40
0.5714285714285714
 40
0.5918367346938775
 40
0.5918367346938775
 40
0.5918367346938775
 40
0.5918367346938775
 40
0.6122448979591837
 40
0.6122448979591837
 40
0.6122448979591837
 40
0.6122448979591837
 40
0.6326530612244898
 40
0.6326530612244898
 40
0.6326530612244898
 40
0.6326530612244898
 40
0.6530612244897959
 40
0.6530612244897959
 40
0.6530612244897959
 40
0.6530612244897959
 40
0.673469387755102
 40
0.673469387755102
 40
0.673469387755102
 40
0.673469387755102
 40
0.6938775510204082
 40
0.6938775510204082
 40
0.6938775510204082
 40
0.6938775510204082
 40
0.7142857142857143
 40
0.7142857142857143
 40
0.7142857142857143
 40
0.7142857142857143
 40
0.7346938775510204
 40
0.7346938775510204
 40
0.7346938775510204
 40
0.7346938775510204
 40
0.7551020408163265
 40
0.7551020408163265
 40
0.7551020408163265
 40
0.7551020408163265
 40
0.7755102040816326
 40
0.7755102040816326
 40
0.7755102040816326
 40
0.7755102040816326
 40
0.7959183673469388
 40
0.7959183673469388
 40
0.7959183673469388
 40
0.7959183673469388
 40
0.8163265306122449
 40
0.8163265306122449
 40
0.8163265306122449
 40
0.8163265306122449
 40
0.8367346938775511
 40
0.8367346938775511
 40
0.8367346938775511
 40
0.8367346938775511
 40
0.8571428571428571
 40
0.8571428571428571
 40
0.8571428571428571
 40
0.8571428571428571
 40
0.8775510204081632
 40
0.8775510204081632
 40
0.8775510204081632
 40
0.8775510204081632
 40
0.8979591836734694
 40
0.8979591836734694
 40
0.8979591836734694
 40
0.8979591836734694
 40
0.9183673469387755
 40
0.9183673469387755
 40
0.9183673469387755
 40
0.9183673469387755
 40
0.9387755102040817
 40
0.9387755102040817
 40
0.9387755102040817
 40
0.9387755102040817
 40
0.9591836734693877
 40
0.9591836734693877
 40
0.9591836734693877
 40
0.9591836734693877
 40
1.0
 40
1.0
 40
1.0
 40
1.0
 10
0.55343
 20
-0.49149
 30
0.0
 10
0.54962
 20
-0.51702
 30
0.0
 10
0.54581
 20
-0.54256
 30
0.0
 10
0.53518
 20
-0.56204
 30
0.0
 10
0.53518
 20
-0.56204
 30
0.0
 10
0.52456
 20
-0.58153
 30
0.0
 10
0.50712
 20
-0.59497
 30
0.0
 10
0.46854
 20
-0.62214
 30
0.0
 10
0.46854
 20
-0.62214
 30
0.0
 10
0.42997
 20
-0.6493
 30
0.0
 10
0.37025
 20
-0.69021
 30
0.0
 10
0.30977
 20
-0.71396
 30
0.0
 10
0.30977
 20
-0.71396
 30
0.0
 10
0.24929
 20
-0.7377
 30
0.0
 10
0.18803
 20
-0.74429
 30
0.0
 10
0.1272
 20
-0.72427
 30
0.0
 10
0.1272
 20
-0.72427
 30
0.0
 10
0.06637
 20
-0.70425
 30
0.0
 10
0.00597
 20
-0.65762
 30
0.0
 10
-0.04302
 20
-0.63405
 30
0.0
 10
-0.04302
 20
-0.63405
 30
0.0
 10
-0.09201
 20
-0.61047
 30
0.0
 10
-0.12959
 20
-0.60994
 30
0.0
 10
-0.1612
 20
-0.61488
 30
0.0
 10
-0.1612
 20
-0.61488
 30
0.0
 10
-0.19281
 20
-0.61982
 30
0.0
 10
-0.21844
 20
-0.63024
 30
0.0
 10
-0.2456
 20
-0.64012
 30
0.0
 10
-0.2456
 20
-0.64012
 30
0.0
 10
-0.27276
 20
-0.65001
 30
0.0
 10
-0.30145
 20
-0.65937
 30
0.0
 10
-0.31689
 20
-0.667
 30
0.0
 10
-0.31689
 20
-0.667
 30
0.0
 10
-0.33232
 20
-0.67464
 30
0.0
 10
-0.33452
 20
-0.68054
 30
0.0
 10
-0.33636
 20
-0.69213
 30
0.0
 10
-0.33636
 20
-0.69213
 30
0.0
 10
-0.33821
 20
-0.70372
 30
0.0
 10
-0.33971
 20
-0.721
 30
0.0
 10
-0.34063
 20
-0.73234
 30
0.0
 10
-0.34063
 20
-0.73234
 30
0.0
 10
-0.34156
 20
-0.74368
 30
0.0
 10
-0.34192
 20
-0.74908
 30
0.0
 10
-0.3101
 20
-0.73922
 30
0.0
 10
-0.3101
 20
-0.73922
 30
0.0
 10
-0.27829
 20
-0.72935
 30
0.0
 10
-0.2143
 20
-0.70421
 30
0.0
 10
-0.16581
 20
-0.69436
 30
0.0
 10
-0.16581
 20
-0.69436
 30
0.0
 10
-0.11732
 20
-0.6845
 30
0.0
 10
-0.08432
 20
-0.68993
 30
0.0
 10
-0.05165
 20
-0.70618
 30
0.0
 10
-0.05165
 20
-0.70618
 30
0.0
 10
-0.01897
 20
-0.72242
 30
0.0
 10
0.01338
 20
-0.74948
 30
0.0
 10
0.04817
 20
-0.76999
 30
0.0
 10
0.04817
 20
-0.76999
 30
0.0
 10
0.08296
 20
-0.7905
 30
0.0
 10
0.12018
 20
-0.80446
 30
0.0
 10
0.11846
 20
-0.82764
 30
0.0
 10
0.11846
 20
-0.82764
 30
0.0
 10
0.11673
 20
-0.85082
 30
0.0
 10
0.07606
 20
-0.88322
 30
0.0
 10
0.03415
 20
-0.90355
 30
0.0
 10
0.03415
 20
-0.90355
 30
0.0
 10
-0.00775
 20
-0.92388
 30
0.0
 10
-0.0509
 20
-0.93214
 30
0.0
 10
-0.10097
 20
-0.93583
 30
0.0
 10
-0.10097
 20
-0.93583
 30
0.0
 10
-0.15104
 20
-0.93951
 30
0.0
 10
-0.20802
 20
-0.93863
 30
0.0
 10
-0.24957
 20
-0.93606
 30
0.0
 10
-0.24957
 20
-0.93606
 30
0.0
 10
-0.29112
 20
-0.93349
 30
0.0
 10
-0.31724
 20
-0.92923
 30
0.0
 10
-0.33009
 20
-0.92893
 30
0.0
 10
-0.33009
 20
-0.92893
 30
0.0
 10
-0.34293
 20
-0.92863
 30
0.0
 10
-0.34249
 20
-0.93229
 30
0.0
 10
-0.34165
 20
-0.93935
 30
0.0
 10
-0.34165
 20
-0.93935
 30
0.0
 10
-0.34081
 20
-0.9464
 30
0.0
 10
-0.33957
 20
-0.95685
 30
0.0
 10
-0.33837
 20
-0.96571
 30
0.0
 10
-0.33837
 20
-0.96571
 30
0.0
 10
-0.33717
 20
-0.97456
 30
0.0
 10
-0.33601
 20
-0.98182
 30
0.0
 10
-0.33519
 20
-0.98695
 30
0.0
 10
-0.33519
 20
-0.98695
 30
0.0
 10
-0.33437
 20
-0.99209
 30
0.0
 10
-0.33389
 20
-0.99511
 30
0.0
 10
-0.31506
 20
-0.99797
 30
0.0
 10
-0.31506
 20
-0.99797
 30
0.0
 10
-0.29623
 20
-1.00083
 30
0.0
 10
-0.25906
 20
-1.00352
 30
0.0
 10
-0.23266
 20
-1.00466
 30
0.0
 10
-0.23266
 20
-1.00466
 30
0.0
 10
-0.20626
 20
-1.0058
 30
0.0
 10
-0.19064
 20
-1.00538
 30
0.0
 10
-0.17847
 20
-1.00577
 30
0.0
 10
-0.17847
 20
-1.00577
 30
0.0
 10
-0.16629
 20
-1.00617
 30
0.0
 10
-0.15758
 20
-1.00737
 30
0.0
 10
-0.16229
 20
-1.04724
 30
0.0
 10
-0.16229
 20
-1.04724
 30
0.0
 10
-0.167
 20
-1.0871
 30
0.0
 10
-0.18515
 20
-1.16563
 30
0.0
 10
-0.19223
 20
-1.20523
 30
0.0
 10
-0.19223
 20
-1.20523
 30
0.0
 10
-0.1993
 20
-1.24483
 30
0.0
 10
-0.19532
 20
-1.24552
 30
0.0
 10
-0.18778
 20
-1.24563
 30
0.0
 10
-0.18778
 20
-1.24563
 30
0.0
 10
-0.18025
 20
-1.24575
 30
0.0
 10
-0.15118
 20
-1.24423
 30
0.0
 10
-0.14343
 20
-1.24368
 30
0.0
 10
-0.14343
 20
-1.24368
 30
0.0
 10
-0.13567
 20
-1.24314
 30
0.0
 10
-0.13124
 20
-1.24249
 30
0.0
 10
-0.12323
 20
-1.20346
 30
0.0
 10
-0.12323
 20
-1.20346
 30
0.0
 10
-0.11523
 20
-1.16443
 30
0.0
 10
-0.10364
 20
-1.087
 30
0.0
 10
-0.09498
 20
-1.04809
 30
0.0
 10
-0.09498
 20
-1.04809
 30
0.0
 10
-0.08632
 20
-1.00918
 30
0.0
 10
-0.08058
 20
-1.00877
 30
0.0
 10
-0.05665
 20
-1.00442
 30
0.0
 10
-0.05665
 20
-1.00442
 30
0.0
 10
-0.03272
 20
-1.00007
 30
0.0
 10
-0.00859
 20
-0.99282
 30
0.0
 10
0.02683
 20
-0.98296
 30
0.0
 10
0.02683
 20
-0.98296
 30
0.0
 10
0.06225
 20
-0.97309
 30
0.0
 10
0.09098
 20
-0.96165
 30
0.0
 10
0.11732
 20
-0.94193
 30
0.0
 10
0.11732
 20
-0.94193
 30
0.0
 10
0.14366
 20
-0.9222
 30
0.0
 10
0.16761
 20
-0.8942
 30
0.0
 10
0.20119
 20
-0.87141
 30
0.0
 10
0.20119
 20
-0.87141
 30
0.0
 10
0.23476
 20
-0.84863
 30
0.0
 10
0.27795
 20
-0.83106
 30
0.0
 10
0.28346
 20
-0.85577
 30
0.0
 10
0.28346
 20
-0.85577
 30
0.0
 10
0.28896
 20
-0.88048
 30
0.0
 10
0.25675
 20
-0.94747
 30
0.0
 10
0.22397
 20
-0.99217
 30
0.0
 10
0.22397
 20
-0.99217
 30
0.0
 10
0.19118
 20
-1.03688
 30
0.0
 10
0.1578
 20
-1.0593
 30
0.0
 10
0.14551
 20
-1.07375
 30
0.0
 10
0.14551
 20
-1.07375
 30
0.0
 10
0.13322
 20
-1.0882
 30
0.0
 10
0.14202
 20
-1.09469
 30
0.0
 10
0.14826
 20
-1.09929
 30
0.0
 10
0.14826
 20
-1.09929
 30
0.0
 10
0.1545
 20
-1.1039
 30
0.0
 10
0.15818
 20
-1.10662
 30
0.0
 10
0.16427
 20
-1.11112
 30
0.0
 10
0.16427
 20
-1.11112
 30
0.0
 10
0.17035
 20
-1.11562
 30
0.0
 10
0.17883
 20
-1.1219
 30
0.0
 10
0.18563
 20
-1.12266
 30
0.0
 10
0.18563
 20
-1.12266
 30
0.0
 10
0.19242
 20
-1.12342
 30
0.0
 10
0.19753
 20
-1.11867
 30
0.0
 10
0.20609
 20
-1.1107
 30
0.0
 10
0.20609
 20
-1.1107
 30
0.0
 10
0.21466
 20
-1.10272
 30
0.0
 10
0.22668
 20
-1.09153
 30
0.0
 10
0.24839
 20
-1.06288
 30
0.0
 10
0.24839
 20
-1.06288
 30
0.0
 10
0.27011
 20
-1.03422
 30
0.0
 10
0.30152
 20
-0.9881
 30
0.0
 10
0.32351
 20
-0.94362
 30
0.0
 10
0.32351
 20
-0.94362
 30
0.0
 10
0.3455
 20
-0.89915
 30
0.0
 10
0.35806
 20
-0.85632
 30
0.0
 10
0.37651
 20
-0.82337
 30
0.0
 10
0.37651
 20
-0.82337
 30
0.0
 10
0.39497
 20
-0.79043
 30
0.0
 10
0.41932
 20
-0.76736
 30
0.0
 10
0.44847
 20
-0.7417
 30
0.0
 10
0.44847
 20
-0.7417
 30
0.0
 10
0.47762
 20
-0.71604
 30
0.0
 10
0.51157
 20
-0.68778
 30
0.0
 10
0.52987
 20
-0.69479
 30
0.0
 10
0.52987
 20
-0.69479
 30
0.0
 10
0.54817
 20
-0.7018
 30
0.0
 10
0.5508
 20
-0.74408
 30
0.0
 10
0.55343
 20
-0.78636
 30
0.0
  0
SPLINE
  5
A3
330
1F
100
AcDbEntity
  8
Layer 1
370
     9
100
AcDbSpline
210
0.0
220
0.0
230
1.0
 70
     8
 71
     3
 72
    84
 73
    80
 74
     0
 42
0.0000000001
 43
0.0000000001
 40
0.0
 40
0.0
 40
0.0
 40
0.0
 40
0.0476190476190476
 40
0.0476190476190476
 40
0.0476190476190476
 40
0.0476190476190476
 40
0.0952380952380952
 40
0.0952380952380952
 40
0.0952380952380952
 40
0.0952380952380952
 40
0.1428571428571428
 40
0.1428571428571428
 40
0.1428571428571428
 40
0.1428571428571428
 40
0.1904761904761905
 40
0.1904761904761905
 40
0.1904761904761905
 40
0.1904761904761905
 40
0.2380952380952381
 40
0.2380952380952381
 40
0.2380952380952381
 40
0.2380952380952381
 40
0.2857142857142857
 40
0.2857142857142857
 40
0.2857142857142857
 40
0.2857142857142857
 40
0.3333333333333333
 40
0.3333333333333333
 40
0.3333333333333333
 40
0.3333333333333333
 40
0.3809523809523809
 40
0.3809523809523809
 40
0.3809523809523809
 40
0.3809523809523809
 40
0.4285714285714285
 40
0.4285714285714285
 40
0.4285714285714285
 40
0.4285714285714285
 40
0.4761904761904762
 40
0.4761904761904762
 40
0.4761904761904762
 40
0.4761904761904762
 40
0.5238095238095238
 40
0.5238095238095238
 40
0.5238095238095238
 40
0.5238095238095238
 40
0.5714285714285714
 40
0.5714285714285714
 40
0.5714285714285714
 40
0.5714285714285714
 40
0.6190476190476191
 40
0.6190476190476191
 40
0.6190476190476191
 40
0.6190476190476191
 40
0.6666666666666666
 40
0.6666666666666666
 40
0.6666666666666666
 40
0.6666666666666666
 40
0.7142857142857143
 40
0.7142857142857143
 40
0.7142857142857143
 40
0.7142857142857143
 40
0.7619047619047619
 40
0.7619047619047619
 40
0.7619047619047619
 40
0.7619047619047619
 40
0.8095238095238095
 40
0.8095238095238095
 40
0.8095238095238095
 40
0.8095238095238095
 40
0.8571428571428571
 40
0.8571428571428571
 40
0.8571428571428571
 40
0.8571428571428571
 40
0.9047619047619048
 40
0.9047619047619048
 40
0.9047619047619048
 40
0.9047619047619048
 40
1.0
 40
1.0
 40
1.0
 40
1.0
 10
0.76253
 20
-0.16696
 30
0.0
 10
0.7637
 20
-0.14966
 30
0.0
 10
0.76487
 20
-0.13237
 30
0.0
 10
0.77802
 20
-0.12262
 30
0.0
 10
0.77802
 20
-0.12262
 30
0.0
 10
0.79118
 20
-0.11287
 30
0.0
 10
0.8163
 20
-0.11068
 30
0.0
 10
0.85969
 20
-0.11315
 30
0.0
 10
0.85969
 20
-0.11315
 30
0.0
 10
0.90308
 20
-0.11561
 30
0.0
 10
0.96473
 20
-0.12275
 30
0.0
 10
1.04051
 20
-0.14416
 30
0.0
 10
1.04051
 20
-0.14416
 30
0.0
 10
1.11629
 20
-0.16557
 30
0.0
 10
1.20621
 20
-0.20127
 30
0.0
 10
1.25199
 20
-0.21596
 30
0.0
 10
1.25199
 20
-0.21596
 30
0.0
 10
1.29777
 20
-0.23065
 30
0.0
 10
1.29941
 20
-0.22433
 30
0.0
 10
1.30329
 20
-0.21257
 30
0.0
 10
1.30329
 20
-0.21257
 30
0.0
 10
1.30718
 20
-0.20081
 30
0.0
 10
1.3133
 20
-0.18361
 30
0.0
 10
1.31827
 20
-0.16975
 30
0.0
 10
1.31827
 20
-0.16975
 30
0.0
 10
1.32324
 20
-0.15589
 30
0.0
 10
1.32705
 20
-0.14538
 30
0.0
 10
1.30767
 20
-0.13603
 30
0.0
 10
1.30767
 20
-0.13603
 30
0.0
 10
1.2883
 20
-0.12669
 30
0.0
 10
1.24573
 20
-0.11851
 30
0.0
 10
1.20819
 20
-0.10972
 30
0.0
 10
1.20819
 20
-0.10972
 30
0.0
 10
1.17066
 20
-0.10092
 30
0.0
 10
1.13815
 20
-0.09151
 30
0.0
 10
1.11869
 20
-0.08586
 30
0.0
 10
1.11869
 20
-0.08586
 30
0.0
 10
1.09924
 20
-0.08019
 30
0.0
 10
1.10044
 20
-0.08127
 30
0.0
 10
1.10174
 20
-0.06742
 30
0.0
 10
1.10174
 20
-0.06742
 30
0.0
 10
1.10305
 20
-0.05358
 30
0.0
 10
1.11349
 20
-0.01817
 30
0.0
 10
1.11488
 20
-0.00822
 30
0.0
 10
1.11488
 20
-0.00822
 30
0.0
 10
1.11627
 20
0.00172
 30
0.0
 10
1.10511
 20
0.00224
 30
0.0
 10
1.09726
 20
0.0045
 30
0.0
 10
1.09726
 20
0.0045
 30
0.0
 10
1.08941
 20
0.00675
 30
0.0
 10
1.07407
 20
0.0121
 30
0.0
 10
1.0683
 20
0.01392
 30
0.0
 10
1.0683
 20
0.01392
 30
0.0
 10
1.06252
 20
0.01574
 30
0.0
 10
1.05869
 20
0.01701
 30
0.0
 10
1.05419
 20
0.00366
 30
0.0
 10
1.05419
 20
0.00366
 30
0.0
 10
1.04969
 20
-0.00969
 30
0.0
 10
1.04451
 20
-0.03767
 30
0.0
 10
1.04042
 20
-0.05166
 30
0.0
 10
1.04042
 20
-0.05166
 30
0.0
 10
1.03634
 20
-0.06565
 30
0.0
 10
1.03335
 20
-0.06565
 30
0.0
 10
1.02216
 20
-0.06346
 30
0.0
 10
1.02216
 20
-0.06346
 30
0.0
 10
1.01097
 20
-0.06126
 30
0.0
 10
0.99158
 20
-0.05687
 30
0.0
 10
0.95871
 20
-0.05055
 30
0.0
 10
0.95871
 20
-0.05055
 30
0.0
 10
0.92586
 20
-0.04424
 30
0.0
 10
0.87952
 20
-0.036
 30
0.0
 10
0.84778
 20
-0.02932
 30
0.0
 10
0.84778
 20
-0.02932
 30
0.0
 10
0.81604
 20
-0.02264
 30
0.0
 10
0.7989
 20
-0.01752
 30
0.0
 10
0.78712
 20
0.00279
 30
0.0
 10
0.78712
 20
0.00279
 30
0.0
 10
0.77535
 20
0.0231
 30
0.0
 10
0.761
 20
0.06765
 30
0.0
 10
0.76253
 20
0.1547
 30
0.0
  0
SPLINE
  5
A4
330
1F
100
AcDbEntity
  8
Layer 1
370
     9
100
AcDbSpline
210
0.0
220
0.0
230
1.0
 70
     8
 71
     3
 72
    20
 73
    16
 74
     0
 42
0.0000000001
 43
0.0000000001
 40
0.0
 40
0.0
 40
0.0
 40
0.0
 40
0.2
 40
0.2
 40
0.2
 40
0.2
 40
0.4
 40
0.4
 40
0.4
 40
0.4
 40
0.6
 40
0.6
 40
0.6
 40
0.6
 40
1.0
 40
1.0
 40
1.0
 40
1.0
 10
0.76253
 20
0.1547
 30
0.0
 10
0.78759
 20
0.62554
 30
0.0
 10
0.81264
 20
1.09638
 30
0.0
 10
0.8578
 20
1.35048
 30
0.0
 10
0.8578
 20
1.35048
 30
0.0
 10
0.90296
 20
1.60459
 30
0.0
 10
0.96822
 20
1.64197
 30
0.0
 10
1.06458
 20
1.66278
 30
0.0
 10
1.06458
 20
1.66278
 30
0.0
 10
1.16093
 20
1.68359
 30
0.0
 10
1.28837
 20
1.68784
 30
0.0
 10
1.35452
 20
1.7044
 30
0.0
 10
1.35452
 20
1.7044
 30
0.0
 10
1.42066
 20
1.72097
 30
0.0
 10
1.42551
 20
1.74984
 30
0.0
 10
1.43036
 20
1.77872
 30
0.0
  0
SPLINE
  5
A5
330
1F
100
AcDbEntity
  8
Layer 1
370
     9
100
AcDbSpline
210
0.0
220
0.0
230
1.0
 70
     8
 71
     3
 72
    72
 73
    68
 74
     0
 42
0.0000000001
 43
0.0000000001
 40
0.0
 40
0.0
 40
0.0
 40
0.0
 40
0.0555555555555556
 40
0.0555555555555556
 40
0.0555555555555556
 40
0.0555555555555556
 40
0.1111111111111111
 40
0.1111111111111111
 40
0.1111111111111111
 40
0.1111111111111111
 40
0.1666666666666667
 40
0.1666666666666667
 40
0.1666666666666667
 40
0.1666666666666667
 40
0.2222222222222222
 40
0.2222222222222222
 40
0.2222222222222222
 40
0.2222222222222222
 40
0.2777777777777778
 40
0.2777777777777778
 40
0.2777777777777778
 40
0.2777777777777778
 40
0.3333333333333333
 40
0.3333333333333333
 40
0.3333333333333333
 40
0.3333333333333333
 40
0.3888888888888889
 40
0.3888888888888889
 40
0.3888888888888889
 40
0.3888888888888889
 40
0.4444444444444444
 40
0.4444444444444444
 40
0.4444444444444444
 40
0.4444444444444444
 40
0.5
 40
0.5
 40
0.5
 40
0.5
 40
0.5555555555555556
 40
0.5555555555555556
 40
0.5555555555555556
 40
0.5555555555555556
 40
0.6111111111111112
 40
0.6111111111111112
 40
0.6111111111111112
 40
0.6111111111111112
 40
0.6666666666666666
 40
0.6666666666666666
 40
0.6666666666666666
 40
0.6666666666666666
 40
0.7222222222222222
 40
0.7222222222222222
 40
0.7222222222222222
 40
0.7222222222222222
 40
0.7777777777777778
 40
0.7777777777777778
 40
0.7777777777777778
 40
0.7777777777777778
 40
0.8333333333333334
 40
0.8333333333333334
 40
0.8333333333333334
 40
0.8333333333333334
 40
0.8888888888888888
 40
0.8888888888888888
 40
0.8888888888888888
 40
0.8888888888888888
 40
1.0
 40
1.0
 40
1.0
 40
1.0
 10
0.55343
 20
-1.26982
 30
0.0
 10
0.55054
 20
-1.31238
 30
0.0
 10
0.54764
 20
-1.35493
 30
0.0
 10
0.52629
 20
-1.3899
 30
0.0
 10
0.52629
 20
-1.3899
 30
0.0
 10
0.50495
 20
-1.42486
 30
0.0
 10
0.46515
 20
-1.45224
 30
0.0
 10
0.43318
 20
-1.47521
 30
0.0
 10
0.43318
 20
-1.47521
 30
0.0
 10
0.4012
 20
-1.49817
 30
0.0
 10
0.37704
 20
-1.51673
 30
0.0
 10
0.34454
 20
-1.51215
 30
0.0
 10
0.34454
 20
-1.51215
 30
0.0
 10
0.31204
 20
-1.50757
 30
0.0
 10
0.2712
 20
-1.47983
 30
0.0
 10
0.24882
 20
-1.4705
 30
0.0
 10
0.24882
 20
-1.4705
 30
0.0
 10
0.22644
 20
-1.46116
 30
0.0
 10
0.22251
 20
-1.47023
 30
0.0
 10
0.2176
 20
-1.48038
 30
0.0
 10
0.2176
 20
-1.48038
 30
0.0
 10
0.21268
 20
-1.49053
 30
0.0
 10
0.20677
 20
-1.50177
 30
0.0
 10
0.20186
 20
-1.5111
 30
0.0
 10
0.20186
 20
-1.5111
 30
0.0
 10
0.19695
 20
-1.52043
 30
0.0
 10
0.19304
 20
-1.52786
 30
0.0
 10
0.21166
 20
-1.53987
 30
0.0
 10
0.21166
 20
-1.53987
 30
0.0
 10
0.23028
 20
-1.55187
 30
0.0
 10
0.27143
 20
-1.56846
 30
0.0
 10
0.30068
 20
-1.57944
 30
0.0
 10
0.30068
 20
-1.57944
 30
0.0
 10
0.32994
 20
-1.59042
 30
0.0
 10
0.34729
 20
-1.5958
 30
0.0
 10
0.34601
 20
-1.61628
 30
0.0
 10
0.34601
 20
-1.61628
 30
0.0
 10
0.34473
 20
-1.63676
 30
0.0
 10
0.32479
 20
-1.67233
 30
0.0
 10
0.31753
 20
-1.6907
 30
0.0
 10
0.31753
 20
-1.6907
 30
0.0
 10
0.31027
 20
-1.70908
 30
0.0
 10
0.31567
 20
-1.71025
 30
0.0
 10
0.32482
 20
-1.71224
 30
0.0
 10
0.32482
 20
-1.71224
 30
0.0
 10
0.33397
 20
-1.71423
 30
0.0
 10
0.34686
 20
-1.71704
 30
0.0
 10
0.35689
 20
-1.71933
 30
0.0
 10
0.35689
 20
-1.71933
 30
0.0
 10
0.36693
 20
-1.72162
 30
0.0
 10
0.37409
 20
-1.72339
 30
0.0
 10
0.3808
 20
-1.71542
 30
0.0
 10
0.3808
 20
-1.71542
 30
0.0
 10
0.3875
 20
-1.70745
 30
0.0
 10
0.39375
 20
-1.68973
 30
0.0
 10
0.40464
 20
-1.6612
 30
0.0
 10
0.40464
 20
-1.6612
 30
0.0
 10
0.41553
 20
-1.63267
 30
0.0
 10
0.43106
 20
-1.59332
 30
0.0
 10
0.45663
 20
-1.55916
 30
0.0
 10
0.45663
 20
-1.55916
 30
0.0
 10
0.48221
 20
-1.525
 30
0.0
 10
0.52291
 20
-1.4936
 30
0.0
 10
0.55305
 20
-1.47916
 30
0.0
 10
0.55305
 20
-1.47916
 30
0.0
 10
0.58319
 20
-1.46472
 30
0.0
 10
0.61794
 20
-1.46581
 30
0.0
 10
0.64273
 20
-1.46167
 30
0.0
  0
SPLINE
  5
A6
330
1F
100
AcDbEntity
  8
Layer 1
370
     9
100
AcDbSpline
210
0.0
220
0.0
230
1.0
 70
     8
 71
     3
 72
    84
 73
    80
 74
     0
 42
0.0000000001
 43
0.0000000001
 40
0.0
 40
0.0
 40
0.0
 40
0.0
 40
0.0476190476190476
 40
0.0476190476190476
 40
0.0476190476190476
 40
0.0476190476190476
 40
0.0952380952380952
 40
0.0952380952380952
 40
0.0952380952380952
 40
0.0952380952380952
 40
0.1428571428571428
 40
0.1428571428571428
 40
0.1428571428571428
 40
0.1428571428571428
 40
0.1904761904761905
 40
0.1904761904761905
 40
0.1904761904761905
 40
0.1904761904761905
 40
0.2380952380952381
 40
0.2380952380952381
 40
0.2380952380952381
 40
0.2380952380952381
 40
0.2857142857142857
 40
0.2857142857142857
 40
0.2857142857142857
 40
0.2857142857142857
 40
0.3333333333333333
 40
0.3333333333333333
 40
0.3333333333333333
 40
0.3333333333333333
 40
0.3809523809523809
 40
0.3809523809523809
 40
0.3809523809523809
 40
0.3809523809523809
 40
0.4285714285714285
 40
0.4285714285714285
 40
0.4285714285714285
 40
0.4285714285714285
 40
0.4761904761904762
 40
0.4761904761904762
 40
0.4761904761904762
 40
0.4761904761904762
 40
0.5238095238095238
 40
0.5238095238095238
 40
0.5238095238095238
 40
0.5238095238095238
 40
0.5714285714285714
 40
0.5714285714285714
 40
0.5714285714285714
 40
0.5714285714285714
 40
0.6190476190476191
 40
0.6190476190476191
 40
0.6190476190476191
 40
0.6190476190476191
 40
0.6666666666666666
 40
0.6666666666666666
 40
0.6666666666666666
 40
0.6666666666666666
 40
0.7142857142857143
 40
0.7142857142857143
 40
0.7142857142857143
 40
0.7142857142857143
 40
0.7619047619047619
 40
0.7619047619047619
 40
0.7619047619047619
 40
0.7619047619047619
 40
0.8095238095238095
 40
0.8095238095238095
 40
0.8095238095238095
 40
0.8095238095238095
 40
0.8571428571428571
 40
0.8571428571428571
 40
0.8571428571428571
 40
0.8571428571428571
 40
0.9047619047619048
 40
0.9047619047619048
 40
0.9047619047619048
 40
0.9047619047619048
 40
1.0
 40
1.0
 40
1.0
 40
1.0
 10
0.55343
 20
-0.16696
 30
0.0
 10
0.55226
 20
-0.14966
 30
0.0
 10
0.55109
 20
-0.13237
 30
0.0
 10
0.53794
 20
-0.12262
 30
0.0
 10
0.53794
 20
-0.12262
 30
0.0
 10
0.52479
 20
-0.11287
 30
0.0
 10
0.49966
 20
-0.11068
 30
0.0
 10
0.45627
 20
-0.11315
 30
0.0
 10
0.45627
 20
-0.11315
 30
0.0
 10
0.41288
 20
-0.11561
 30
0.0
 10
0.35123
 20
-0.12275
 30
0.0
 10
0.27545
 20
-0.14416
 30
0.0
 10
0.27545
 20
-0.14416
 30
0.0
 10
0.19967
 20
-0.16557
 30
0.0
 10
0.10975
 20
-0.20127
 30
0.0
 10
0.06397
 20
-0.21596
 30
0.0
 10
0.06397
 20
-0.21596
 30
0.0
 10
0.01819
 20
-0.23065
 30
0.0
 10
0.01655
 20
-0.22433
 30
0.0
 10
0.01266
 20
-0.21257
 30
0.0
 10
0.01266
 20
-0.21257
 30
0.0
 10
0.00878
 20
-0.20081
 30
0.0
 10
0.00266
 20
-0.18361
 30
0.0
 10
-0.0023
 20
-0.16975
 30
0.0
 10
-0.0023
 20
-0.16975
 30
0.0
 10
-0.00727
 20
-0.15589
 30
0.0
 10
-0.01108
 20
-0.14538
 30
0.0
 10
0.00829
 20
-0.13603
 30
0.0
 10
0.00829
 20
-0.13603
 30
0.0
 10
0.02766
 20
-0.12669
 30
0.0
 10
0.07023
 20
-0.11851
 30
0.0
 10
0.10776
 20
-0.10972
 30
0.0
 10
0.10776
 20
-0.10972
 30
0.0
 10
0.1453
 20
-0.10092
 30
0.0
 10
0.17781
 20
-0.09151
 30
0.0
 10
0.19727
 20
-0.08586
 30
0.0
 10
0.19727
 20
-0.08586
 30
0.0
 10
0.21672
 20
-0.08019
 30
0.0
 10
0.21551
 20
-0.08127
 30
0.0
 10
0.21421
 20
-0.06742
 30
0.0
 10
0.21421
 20
-0.06742
 30
0.0
 10
0.21291
 20
-0.05358
 30
0.0
 10
0.20247
 20
-0.01817
 30
0.0
 10
0.20108
 20
-0.00822
 30
0.0
 10
0.20108
 20
-0.00822
 30
0.0
 10
0.19969
 20
0.00172
 30
0.0
 10
0.21085
 20
0.00224
 30
0.0
 10
0.2187
 20
0.0045
 30
0.0
 10
0.2187
 20
0.0045
 30
0.0
 10
0.22655
 20
0.00675
 30
0.0
 10
0.24188
 20
0.0121
 30
0.0
 10
0.24766
 20
0.01392
 30
0.0
 10
0.24766
 20
0.01392
 30
0.0
 10
0.25344
 20
0.01574
 30
0.0
 10
0.25727
 20
0.01701
 30
0.0
 10
0.26177
 20
0.00366
 30
0.0
 10
0.26177
 20
0.00366
 30
0.0
 10
0.26627
 20
-0.00969
 30
0.0
 10
0.27145
 20
-0.03767
 30
0.0
 10
0.27553
 20
-0.05166
 30
0.0
 10
0.27553
 20
-0.05166
 30
0.0
 10
0.27962
 20
-0.06565
 30
0.0
 10
0.28261
 20
-0.06565
 30
0.0
 10
0.2938
 20
-0.06346
 30
0.0
 10
0.2938
 20
-0.06346
 30
0.0
 10
0.30499
 20
-0.06126
 30
0.0
 10
0.32438
 20
-0.05687
 30
0.0
 10
0.35724
 20
-0.05055
 30
0.0
 10
0.35724
 20
-0.05055
 30
0.0
 10
0.39011
 20
-0.04424
 30
0.0
 10
0.43644
 20
-0.036
 30
0.0
 10
0.46818
 20
-0.02932
 30
0.0
 10
0.46818
 20
-0.02932
 30
0.0
 10
0.49992
 20
-0.02264
 30
0.0
 10
0.51706
 20
-0.01752
 30
0.0
 10
0.52884
 20
0.00279
 30
0.0
 10
0.52884
 20
0.00279
 30
0.0
 10
0.54061
 20
0.0231
 30
0.0
 10
0.55496
 20
0.06765
 30
0.0
 10
0.55343
 20
0.1547
 30
0.0
  0
SPLINE
  5
A7
330
1F
100
AcDbEntity
  8
Layer 1
370
     9
100
AcDbSpline
210
0.0
220
0.0
230
1.0
 70
     8
 71
     3
 72
    20
 73
    16
 74
     0
 42
0.0000000001
 43
0.0000000001
 40
0.0
 40
0.0
 40
0.0
 40
0.0
 40
0.2
 40
0.2
 40
0.2
 40
0.2
 40
0.4
 40
0.4
 40
0.4
 40
0.4
 40
0.6
 40
0.6
 40
0.6
 40
0.6
 40
1.0
 40
1.0
 40
1.0
 40
1.0
 10
0.55343
 20
0.1547
 30
0.0
 10
0.52838
 20
0.62554
 30
0.0
 10
0.50332
 20
1.09638
 30
0.0
 10
0.45816
 20
1.35048
 30
0.0
 10
0.45816
 20
1.35048
 30
0.0
 10
0.413
 20
1.60459
 30
0.0
 10
0.34773
 20
1.64197
 30
0.0
 10
0.25138
 20
1.66278
 30
0.0
 10
0.25138
 20
1.66278
 30
0.0
 10
0.15503
 20
1.68359
 30
0.0
 10
0.02759
 20
1.68784
 30
0.0
 10
-0.03855
 20
1.7044
 30
0.0
 10
-0.03855
 20
1.7044
 30
0.0
 10
-0.10469
 20
1.72097
 30
0.0
 10
-0.10955
 20
1.74984
 30
0.0
 10
-0.1144
 20
1.77872
 30
0.0
  0
SPLINE
  5
A8
330
1F
100
AcDbEntity
  8
Layer 1
370
     9
100
AcDbSpline
210
0.0
220
0.0
230
1.0
 70
     8
 71
     3
 72
    72
 73
    68
 74
     0
 42
0.0000000001
 43
0.0000000001
 40
0.0
 40
0.0
 40
0.0
 40
0.0
 40
0.0555555555555556
 40
0.0555555555555556
 40
0.0555555555555556
 40
0.0555555555555556
 40
0.1111111111111111
 40
0.1111111111111111
 40
0.1111111111111111
 40
0.1111111111111111
 40
0.1666666666666667
 40
0.1666666666666667
 40
0.1666666666666667
 40
0.1666666666666667
 40
0.2222222222222222
 40
0.2222222222222222
 40
0.2222222222222222
 40
0.2222222222222222
 40
0.2777777777777778
 40
0.2777777777777778
 40
0.2777777777777778
 40
0.2777777777777778
 40
0.3333333333333333
 40
0.3333333333333333
 40
0.3333333333333333
 40
0.3333333333333333
 40
0.3888888888888889
 40
0.3888888888888889
 40
0.3888888888888889
 40
0.3888888888888889
 40
0.4444444444444444
 40
0.4444444444444444
 40
0.4444444444444444
 40
0.4444444444444444
 40
0.5
 40
0.5
 40
0.5
 40
0.5
 40
0.5555555555555556
 40
0.5555555555555556
 40
0.5555555555555556
 40
0.5555555555555556
 40
0.6111111111111112
 40
0.6111111111111112
 40
0.6111111111111112
 40
0.6111111111111112
 40
0.6666666666666666
 40
0.6666666666666666
 40
0.6666666666666666
 40
0.6666666666666666
 40
0.7222222222222222
 40
0.7222222222222222
 40
0.7222222222222222
 40
0.7222222222222222
 40
0.7777777777777778
 40
0.7777777777777778
 40
0.7777777777777778
 40
0.7777777777777778
 40
0.8333333333333334
 40
0.8333333333333334
 40
0.8333333333333334
 40
0.8333333333333334
 40
0.8888888888888888
 40
0.8888888888888888
 40
0.8888888888888888
 40
0.8888888888888888
 40
1.0
 40
1.0
 40
1.0
 40
1.0
 10
0.76253
 20
-1.26982
 30
0.0
 10
0.76543
 20
-1.31238
 30
0.0
 10
0.76832
 20
-1.35493
 30
0.0
 10
0.78966
 20
-1.3899
 30
0.0
 10
0.78966
 20
-1.3899
 30
0.0
 10
0.81101
 20
-1.42486
 30
0.0
 10
0.8508
 20
-1.45224
 30
0.0
 10
0.88278
 20
-1.47521
 30
0.0
 10
0.88278
 20
-1.47521
 30
0.0
 10
0.91476
 20
-1.49817
 30
0.0
 10
0.93892
 20
-1.51673
 30
0.0
 10
0.97142
 20
-1.51215
 30
0.0
 10
0.97142
 20
-1.51215
 30
0.0
 10
1.00392
 20
-1.50757
 30
0.0
 10
1.04476
 20
-1.47983
 30
0.0
 10
1.06714
 20
-1.4705
 30
0.0
 10
1.06714
 20
-1.4705
 30
0.0
 10
1.08952
 20
-1.46116
 30
0.0
 10
1.09344
 20
-1.47023
 30
0.0
 10
1.09836
 20
-1.48038
 30
0.0
 10
1.09836
 20
-1.48038
 30
0.0
 10
1.10328
 20
-1.49053
 30
0.0
 10
1.10919
 20
-1.50177
 30
0.0
 10
1.1141
 20
-1.5111
 30
0.0
 10
1.1141
 20
-1.5111
 30
0.0
 10
1.11901
 20
-1.52043
 30
0.0
 10
1.12291
 20
-1.52786
 30
0.0
 10
1.10429
 20
-1.53987
 30
0.0
 10
1.10429
 20
-1.53987
 30
0.0
 10
1.08568
 20
-1.55187
 30
0.0
 10
1.04453
 20
-1.56846
 30
0.0
 10
1.01528
 20
-1.57944
 30
0.0
 10
1.01528
 20
-1.57944
 30
0.0
 10
0.98603
 20
-1.59042
 30
0.0
 10
0.96866
 20
-1.5958
 30
0.0
 10
0.96995
 20
-1.61628
 30
0.0
 10
0.96995
 20
-1.61628
 30
0.0
 10
0.97124
 20
-1.63676
 30
0.0
 10
0.99117
 20
-1.67233
 30
0.0
 10
0.99843
 20
-1.6907
 30
0.0
 10
0.99843
 20
-1.6907
 30
0.0
 10
1.0057
 20
-1.70908
 30
0.0
 10
1.00029
 20
-1.71025
 30
0.0
 10
0.99114
 20
-1.71224
 30
0.0
 10
0.99114
 20
-1.71224
 30
0.0
 10
0.982
 20
-1.71423
 30
0.0
 10
0.9691
 20
-1.71704
 30
0.0
 10
0.95907
 20
-1.71933
 30
0.0
 10
0.95907
 20
-1.71933
 30
0.0
 10
0.94904
 20
-1.72162
 30
0.0
 10
0.94187
 20
-1.72339
 30
0.0
 10
0.93516
 20
-1.71542
 30
0.0
 10
0.93516
 20
-1.71542
 30
0.0
 10
0.92846
 20
-1.70745
 30
0.0
 10
0.92221
 20
-1.68973
 30
0.0
 10
0.91132
 20
-1.6612
 30
0.0
 10
0.91132
 20
-1.6612
 30
0.0
 10
0.90044
 20
-1.63267
 30
0.0
 10
0.8849
 20
-1.59332
 30
0.0
 10
0.85933
 20
-1.55916
 30
0.0
 10
0.85933
 20
-1.55916
 30
0.0
 10
0.83376
 20
-1.525
 30
0.0
 10
0.79305
 20
-1.4936
 30
0.0
 10
0.76291
 20
-1.47916
 30
0.0
 10
0.76291
 20
-1.47916
 30
0.0
 10
0.73278
 20
-1.46472
 30
0.0
 10
0.69802
 20
-1.46581
 30
0.0
 10
0.67323
 20
-1.46167
 30
0.0
  0
SPLINE
  5
A9
330
1F
100
AcDbEntity
  8
Layer 1
370
     9
100
AcDbSpline
210
0.0
220
0.0
230
1.0
 70
     8
 71
     3
 72
     8
 73
     4
 74
     0
 42
0.0000000001
 43
0.0000000001
 40
0.0
 40
0.0
 40
0.0
 40
0.0
 40
1.0
 40
1.0
 40
1.0
 40
1.0
 10
1.43036
 20
1.77873
 30
0.0
 10
0.91544
 20
1.77873
 30
0.0
 10
0.40052
 20
1.77872
 30
0.0
 10
-0.1144
 20
1.77872
 30
0.0
  0
SPLINE
  5
AA
330
1F
100
AcDbEntity
  8
Layer 1
370
     9
100
AcDbSpline
210
0.0
220
0.0
230
1.0
 70
    24
 71
     3
 72
     8
 73
     4
 74
     0
 42
0.0000000001
 43
0.0000000001
 40
0.0
 40
0.0
 40
0.0
 40
0.0
 40
1.0
 40
1.0
 40
1.0
 40
1.0
 10
0.64273
 20
-1.46167
 30
0.0
 10
0.64273
 20
-1.46167
 30
0.0
 10
0.64273
 20
0.02872
 30
0.0
 10
0.64273
 20
0.02872
 30
0.0
  0
SPLINE
  5
AB
330
1F
100
AcDbEntity
  8
Layer 1
370
     9
100
AcDbSpline
210
0.0
220
0.0
230
1.0
 70
     8
 71
     3
 72
    12
 73
     8
 74
     0
 42
0.0000000001
 43
0.0000000001
 40
0.0
 40
0.0
 40
0.0
 40
0.0
 40
0.3333333333333333
 40
0.3333333333333333
 40
0.3333333333333333
 40
0.3333333333333333
 40
1.0
 40
1.0
 40
1.0
 40
1.0
 10
0.64273
 20
0.02872
 30
0.0
 10
0.64273
 20
0.02872
 30
0.0
 10
0.67323
 20
0.02872
 30
0.0
 10
0.67323
 20
0.02872
 30
0.0
 10
0.67323
 20
0.02872
 30
0.0
 10
0.67323
 20
0.02872
 30
0.0
 10
0.67323
 20
-1.46167
 30
0.0
 10
0.67323
 20
-1.46167
 30
0.0
  0
SPLINE
  5
AC
330
1F
100
AcDbEntity
  8
Layer 1
370
     9
100
AcDbSpline
210
0.0
220
0.0
230
1.0
 70
     8
 71
     3
 72
   196
 73
   192
 74
     0
 42
0.0000000001
 43
0.0000000001
 40
0.0
 40
0.0
 40
0.0
 40
0.0
 40
0.0204081632653061
 40
0.0204081632653061
 40
0.0204081632653061
 40
0.0204081632653061
 40
0.0408163265306122
 40
0.0408163265306122
 40
0.0408163265306122
 40
0.0408163265306122
 40
0.0612244897959184
 40
0.0612244897959184
 40
0.0612244897959184
 40
0.0612244897959184
 40
0.0816326530612245
 40
0.0816326530612245
 40
0.0816326530612245
 40
0.0816326530612245
 40
0.1020408163265306
 40
0.1020408163265306
 40
0.1020408163265306
 40
0.1020408163265306
 40
0.1224489795918367
 40
0.1224489795918367
 40
0.1224489795918367
 40
0.1224489795918367
 40
0.1428571428571428
 40
0.1428571428571428
 40
0.1428571428571428
 40
0.1428571428571428
 40
0.163265306122449
 40
0.163265306122449
 40
0.163265306122449
 40
0.163265306122449
 40
0.1836734693877551
 40
0.1836734693877551
 40
0.1836734693877551
 40
0.1836734693877551
 40
0.2040816326530612
 40
0.2040816326530612
 40
0.2040816326530612
 40
0.2040816326530612
 40
0.2244897959183673
 40
0.2244897959183673
 40
0.2244897959183673
 40
0.2244897959183673
 40
0.2448979591836735
 40
0.2448979591836735
 40
0.2448979591836735
 40
0.2448979591836735
 40
0.2653061224489796
 40
0.2653061224489796
 40
0.2653061224489796
 40
0.2653061224489796
 40
0.2857142857142857
 40
0.2857142857142857
 40
0.2857142857142857
 40
0.2857142857142857
 40
0.3061224489795918
 40
0.3061224489795918
 40
0.3061224489795918
 40
0.3061224489795918
 40
0.3265306122448979
 40
0.3265306122448979
 40
0.3265306122448979
 40
0.3265306122448979
 40
0.3469387755102041
 40
0.3469387755102041
 40
0.3469387755102041
 40
0.3469387755102041
 40
0.3673469387755102
 40
0.3673469387755102
 40
0.3673469387755102
 40
0.3673469387755102
 40
0.3877551020408163
 40
0.3877551020408163
 40
0.3877551020408163
 40
0.3877551020408163
 40
0.4081632653061225
 40
0.4081632653061225
 40
0.4081632653061225
 40
0.4081632653061225
 40
0.4285714285714285
 40
0.4285714285714285
 40
0.4285714285714285
 40
0.4285714285714285
 40
0.4489795918367347
 40
0.4489795918367347
 40
0.4489795918367347
 40
0.4489795918367347
 40
0.4693877551020408
 40
0.4693877551020408
 40
0.4693877551020408
 40
0.4693877551020408
 40
0.4897959183673469
 40
0.4897959183673469
 40
0.4897959183673469
 40
0.4897959183673469
 40
0.5102040816326531
 40
0.5102040816326531
 40
0.5102040816326531
 40
0.5102040816326531
 40
0.5306122448979592
 40
0.5306122448979592
 40
0.5306122448979592
 40
0.5306122448979592
 40
0.5510204081632653
 40
0.5510204081632653
 40
0.5510204081632653
 40
0.5510204081632653
 40
0.5714285714285714
 40
0.5714285714285714
 40
0.5714285714285714
 40
0.5714285714285714
 40
0.5918367346938775
 40
0.5918367346938775
 40
0.5918367346938775
 40
0.5918367346938775
 40
0.6122448979591837
 40
0.6122448979591837
 40
0.6122448979591837
 40
0.6122448979591837
 40
0.6326530612244898
 40
0.6326530612244898
 40
0.6326530612244898
 40
0.6326530612244898
 40
0.6530612244897959
 40
0.6530612244897959
 40
0.6530612244897959
 40
0.6530612244897959
 40
0.673469387755102
 40
0.673469387755102
 40
0.673469387755102
 40
0.673469387755102
 40
0.6938775510204082
 40
0.6938775510204082
 40
0.6938775510204082
 40
0.6938775510204082
 40
0.7142857142857143
 40
0.7142857142857143
 40
0.7142857142857143
 40
0.7142857142857143
 40
0.7346938775510204
 40
0.7346938775510204
 40
0.7346938775510204
 40
0.7346938775510204
 40
0.7551020408163265
 40
0.7551020408163265
 40
0.7551020408163265
 40
0.7551020408163265
 40
0.7755102040816326
 40
0.7755102040816326
 40
0.7755102040816326
 40
0.7755102040816326
 40
0.7959183673469388
 40
0.7959183673469388
 40
0.7959183673469388
 40
0.7959183673469388
 40
0.8163265306122449
 40
0.8163265306122449
 40
0.8163265306122449
 40
0.8163265306122449
 40
0.8367346938775511
 40
0.8367346938775511
 40
0.8367346938775511
 40
0.8367346938775511
 40
0.8571428571428571
 40
0.8571428571428571
 40
0.8571428571428571
 40
0.8571428571428571
 40
0.8775510204081632
 40
0.8775510204081632
 40
0.8775510204081632
 40
0.8775510204081632
 40
0.8979591836734694
 40
0.8979591836734694
 40
0.8979591836734694
 40
0.8979591836734694
 40
0.9183673469387755
 40
0.9183673469387755
 40
0.9183673469387755
 40
0.9183673469387755
 40
0.9387755102040817
 40
0.9387755102040817
 40
0.9387755102040817
 40
0.9387755102040817
 40
0.9591836734693877
 40
0.9591836734693877
 40
0.9591836734693877
 40
0.9591836734693877
 40
1.0
 40
1.0
 40
1.0
 40
1.0
 10
0.76253
 20
-0.49149
 30
0.0
 10
0.76634
 20
-0.51702
 30
0.0
 10
0.77015
 20
-0.54256
 30
0.0
 10
0.78078
 20
-0.56204
 30
0.0
 10
0.78078
 20
-0.56204
 30
0.0
 10
0.7914
 20
-0.58153
 30
0.0
 10
0.80884
 20
-0.59497
 30
0.0
 10
0.84742
 20
-0.62214
 30
0.0
 10
0.84742
 20
-0.62214
 30
0.0
 10
0.886
 20
-0.6493
 30
0.0
 10
0.94571
 20
-0.69021
 30
0.0
 10
1.00619
 20
-0.71396
 30
0.0
 10
1.00619
 20
-0.71396
 30
0.0
 10
1.06668
 20
-0.7377
 30
0.0
 10
1.12793
 20
-0.74429
 30
0.0
 10
1.18876
 20
-0.72427
 30
0.0
 10
1.18876
 20
-0.72427
 30
0.0
 10
1.24959
 20
-0.70425
 30
0.0
 10
1.30999
 20
-0.65762
 30
0.0
 10
1.35898
 20
-0.63405
 30
0.0
 10
1.35898
 20
-0.63405
 30
0.0
 10
1.40798
 20
-0.61047
 30
0.0
 10
1.44556
 20
-0.60994
 30
0.0
 10
1.47717
 20
-0.61488
 30
0.0
 10
1.47717
 20
-0.61488
 30
0.0
 10
1.50878
 20
-0.61982
 30
0.0
 10
1.53441
 20
-0.63024
 30
0.0
 10
1.56157
 20
-0.64012
 30
0.0
 10
1.56157
 20
-0.64012
 30
0.0
 10
1.58873
 20
-0.65001
 30
0.0
 10
1.61742
 20
-0.65937
 30
0.0
 10
1.63285
 20
-0.667
 30
0.0
 10
1.63285
 20
-0.667
 30
0.0
 10
1.64829
 20
-0.67464
 30
0.0
 10
1.65048
 20
-0.68054
 30
0.0
 10
1.65233
 20
-0.69213
 30
0.0
 10
1.65233
 20
-0.69213
 30
0.0
 10
1.65418
 20
-0.70372
 30
0.0
 10
1.65568
 20
-0.721
 30
0.0
 10
1.6566
 20
-0.73234
 30
0.0
 10
1.6566
 20
-0.73234
 30
0.0
 10
1.65753
 20
-0.74368
 30
0.0
 10
1.65789
 20
-0.74908
 30
0.0
 10
1.62607
 20
-0.73922
 30
0.0
 10
1.62607
 20
-0.73922
 30
0.0
 10
1.59426
 20
-0.72935
 30
0.0
 10
1.53027
 20
-0.70421
 30
0.0
 10
1.48178
 20
-0.69436
 30
0.0
 10
1.48178
 20
-0.69436
 30
0.0
 10
1.43329
 20
-0.6845
 30
0.0
 10
1.40029
 20
-0.68993
 30
0.0
 10
1.36761
 20
-0.70618
 30
0.0
 10
1.36761
 20
-0.70618
 30
0.0
 10
1.33494
 20
-0.72242
 30
0.0
 10
1.30258
 20
-0.74948
 30
0.0
 10
1.26779
 20
-0.76999
 30
0.0
 10
1.26779
 20
-0.76999
 30
0.0
 10
1.233
 20
-0.7905
 30
0.0
 10
1.19578
 20
-0.80446
 30
0.0
 10
1.1975
 20
-0.82764
 30
0.0
 10
1.1975
 20
-0.82764
 30
0.0
 10
1.19923
 20
-0.85082
 30
0.0
 10
1.2399
 20
-0.88322
 30
0.0
 10
1.28181
 20
-0.90355
 30
0.0
 10
1.28181
 20
-0.90355
 30
0.0
 10
1.32372
 20
-0.92388
 30
0.0
 10
1.36687
 20
-0.93214
 30
0.0
 10
1.41694
 20
-0.93583
 30
0.0
 10
1.41694
 20
-0.93583
 30
0.0
 10
1.46701
 20
-0.93951
 30
0.0
 10
1.52399
 20
-0.93863
 30
0.0
 10
1.56554
 20
-0.93606
 30
0.0
 10
1.56554
 20
-0.93606
 30
0.0
 10
1.60709
 20
-0.93349
 30
0.0
 10
1.63321
 20
-0.92923
 30
0.0
 10
1.64605
 20
-0.92893
 30
0.0
 10
1.64605
 20
-0.92893
 30
0.0
 10
1.6589
 20
-0.92863
 30
0.0
 10
1.65846
 20
-0.93229
 30
0.0
 10
1.65762
 20
-0.93935
 30
0.0
 10
1.65762
 20
-0.93935
 30
0.0
 10
1.65678
 20
-0.9464
 30
0.0
 10
1.65554
 20
-0.95685
 30
0.0
 10
1.65434
 20
-0.96571
 30
0.0
 10
1.65434
 20
-0.96571
 30
0.0
 10
1.65314
 20
-0.97456
 30
0.0
 10
1.65198
 20
-0.98182
 30
0.0
 10
1.65116
 20
-0.98695
 30
0.0
 10
1.65116
 20
-0.98695
 30
0.0
 10
1.65034
 20
-0.99209
 30
0.0
 10
1.64985
 20
-0.99511
 30
0.0
 10
1.63103
 20
-0.99797
 30
0.0
 10
1.63103
 20
-0.99797
 30
0.0
 10
1.6122
 20
-1.00083
 30
0.0
 10
1.57503
 20
-1.00352
 30
0.0
 10
1.54863
 20
-1.00466
 30
0.0
 10
1.54863
 20
-1.00466
 30
0.0
 10
1.52223
 20
-1.0058
 30
0.0
 10
1.5066
 20
-1.00538
 30
0.0
 10
1.49443
 20
-1.00577
 30
0.0
 10
1.49443
 20
-1.00577
 30
0.0
 10
1.48226
 20
-1.00617
 30
0.0
 10
1.47354
 20
-1.00737
 30
0.0
 10
1.47826
 20
-1.04724
 30
0.0
 10
1.47826
 20
-1.04724
 30
0.0
 10
1.48297
 20
-1.0871
 30
0.0
 10
1.50112
 20
-1.16563
 30
0.0
 10
1.50819
 20
-1.20523
 30
0.0
 10
1.50819
 20
-1.20523
 30
0.0
 10
1.51528
 20
-1.24483
 30
0.0
 10
1.51128
 20
-1.24552
 30
0.0
 10
1.50375
 20
-1.24563
 30
0.0
 10
1.50375
 20
-1.24563
 30
0.0
 10
1.49622
 20
-1.24575
 30
0.0
 10
1.46715
 20
-1.24423
 30
0.0
 10
1.45939
 20
-1.24368
 30
0.0
 10
1.45939
 20
-1.24368
 30
0.0
 10
1.45164
 20
-1.24314
 30
0.0
 10
1.44721
 20
-1.24249
 30
0.0
 10
1.4392
 20
-1.20346
 30
0.0
 10
1.4392
 20
-1.20346
 30
0.0
 10
1.4312
 20
-1.16443
 30
0.0
 10
1.41961
 20
-1.087
 30
0.0
 10
1.41095
 20
-1.04809
 30
0.0
 10
1.41095
 20
-1.04809
 30
0.0
 10
1.40229
 20
-1.00918
 30
0.0
 10
1.39655
 20
-1.00877
 30
0.0
 10
1.37262
 20
-1.00442
 30
0.0
 10
1.37262
 20
-1.00442
 30
0.0
 10
1.34869
 20
-1.00007
 30
0.0
 10
1.32456
 20
-0.99282
 30
0.0
 10
1.28913
 20
-0.98296
 30
0.0
 10
1.28913
 20
-0.98296
 30
0.0
 10
1.25371
 20
-0.97309
 30
0.0
 10
1.22498
 20
-0.96165
 30
0.0
 10
1.19864
 20
-0.94193
 30
0.0
 10
1.19864
 20
-0.94193
 30
0.0
 10
1.1723
 20
-0.9222
 30
0.0
 10
1.14835
 20
-0.8942
 30
0.0
 10
1.11477
 20
-0.87141
 30
0.0
 10
1.11477
 20
-0.87141
 30
0.0
 10
1.0812
 20
-0.84863
 30
0.0
 10
1.038
 20
-0.83106
 30
0.0
 10
1.0325
 20
-0.85577
 30
0.0
 10
1.0325
 20
-0.85577
 30
0.0
 10
1.02701
 20
-0.88048
 30
0.0
 10
1.0592
 20
-0.94747
 30
0.0
 10
1.09199
 20
-0.99217
 30
0.0
 10
1.09199
 20
-0.99217
 30
0.0
 10
1.12478
 20
-1.03688
 30
0.0
 10
1.15816
 20
-1.0593
 30
0.0
 10
1.17045
 20
-1.07375
 30
0.0
 10
1.17045
 20
-1.07375
 30
0.0
 10
1.18274
 20
-1.0882
 30
0.0
 10
1.17394
 20
-1.09469
 30
0.0
 10
1.1677
 20
-1.09929
 30
0.0
 10
1.1677
 20
-1.09929
 30
0.0
 10
1.16146
 20
-1.1039
 30
0.0
 10
1.15777
 20
-1.10662
 30
0.0
 10
1.15169
 20
-1.11112
 30
0.0
 10
1.15169
 20
-1.11112
 30
0.0
 10
1.14561
 20
-1.11562
 30
0.0
 10
1.13712
 20
-1.1219
 30
0.0
 10
1.13033
 20
-1.12266
 30
0.0
 10
1.13033
 20
-1.12266
 30
0.0
 10
1.12354
 20
-1.12342
 30
0.0
 10
1.11843
 20
-1.11867
 30
0.0
 10
1.10986
 20
-1.1107
 30
0.0
 10
1.10986
 20
-1.1107
 30
0.0
 10
1.1013
 20
-1.10272
 30
0.0
 10
1.08928
 20
-1.09153
 30
0.0
 10
1.06757
 20
-1.06288
 30
0.0
 10
1.06757
 20
-1.06288
 30
0.0
 10
1.04585
 20
-1.03422
 30
0.0
 10
1.01444
 20
-0.9881
 30
0.0
 10
0.99245
 20
-0.94362
 30
0.0
 10
0.99245
 20
-0.94362
 30
0.0
 10
0.97046
 20
-0.89915
 30
0.0
 10
0.9579
 20
-0.85632
 30
0.0
 10
0.93944
 20
-0.82337
 30
0.0
 10
0.93944
 20
-0.82337
 30
0.0
 10
0.92099
 20
-0.79043
 30
0.0
 10
0.89664
 20
-0.76736
 30
0.0
 10
0.86749
 20
-0.7417
 30
0.0
 10
0.86749
 20
-0.7417
 30
0.0
 10
0.83834
 20
-0.71604
 30
0.0
 10
0.80438
 20
-0.68778
 30
0.0
 10
0.78609
 20
-0.69479
 30
0.0
 10
0.78609
 20
-0.69479
 30
0.0
 10
0.7678
 20
-0.7018
 30
0.0
 10
0.76516
 20
-0.74408
 30
0.0
 10
0.76253
 20
-0.78636
 30
0.0
  0
ENDSEC
  0
SECTION
  2
OBJECTS
  0
DICTIONARY
  5
C
330
0
100
AcDbDictionary
281
     1
  3
ACAD_GROUP
350
D
  3
ACAD_LAYOUT
350
1A
  3
ACAD_MATERIAL
350
3B
  3
ACAD_MLEADERSTYLE
350
CE
  3
ACAD_MLINESTYLE
350
17
  3
ACAD_PLOTSETTINGS
350
19
  3
ACAD_PLOTSTYLENAME
350
E
  3
ACAD_TABLESTYLE
350
CD
  3
ACAD_VISUALSTYLE
350
2A
  0
DICTIONARY
  5
D
102
{ACAD_REACTORS
330
C
102
}
330
C
100
AcDbDictionary
281
     1
  0
DICTIONARY
  5
1A
102
{ACAD_REACTORS
330
C
102
}
330
C
100
AcDbDictionary
281
     1
  3
Layout1
350
1E
  3
Layout2
350
26
  3
Model
350
22
  0
DICTIONARY
  5
3B
102
{ACAD_REACTORS
330
C
102
}
330
C
100
AcDbDictionary
281
     1
  3
ByBlock
350
3D
  3
ByLayer
350
3C
  3
Global
350
3E
  0
DICTIONARY
  5
CE
102
{ACAD_REACTORS
330
C
102
}
330
C
100
AcDbDictionary
281
     1
  0
DICTIONARY
  5
17
102
{ACAD_REACTORS
330
C
102
}
330
C
100
AcDbDictionary
281
     1
  3
Standard
350
18
  0
DICTIONARY
  5
19
102
{ACAD_REACTORS
330
C
102
}
330
C
100
AcDbDictionary
281
     1
  0
ACDBDICTIONARYWDFLT
  5
E
102
{ACAD_REACTORS
330
C
102
}
330
C
100
AcDbDictionary
281
     1
  3
Normal
350
F
100
AcDbDictionaryWithDefault
340
F
  0
DICTIONARY
  5
CD
102
{ACAD_REACTORS
330
C
102
}
330
C
100
AcDbDictionary
281
     1
  0
DICTIONARY
  5
2A
102
{ACAD_REACTORS
330
C
102
}
330
C
100
AcDbDictionary
281
     1
  3
2dWireframe
350
2F
  3
3D Hidden
350
31
  3
3dWireframe
350
30
  3
Basic
350
32
  3
Brighten
350
36
  3
ColorChange
350
3A
  3
Conceptual
350
34
  3
Dim
350
35
  3
Facepattern
350
39
  3
Flat
350
2B
  3
FlatWithEdges
350
2C
  3
Gouraud
350
2D
  3
GouraudWithEdges
350
2E
  3
Linepattern
350
38
  3
Realistic
350
33
  3
Thicken
350
37
  0
LAYOUT
  5
1E
102
{ACAD_REACTORS
330
1A
102
}
330
1A
100
AcDbPlotSettings
  1

  2
none_device
  4

  6

 40
0.0
 41
0.0
 42
0.0
 43
0.0
 44
0.0
 45
0.0
 46
0.0
 47
0.0
 48
0.0
 49
0.0
140
0.0
141
0.0
142
1.0
143
1.0
 70
   688
 72
     0
 73
     0
 74
     5
  7

 75
    16
 76
     0
 77
     2
 78
   300
147
1.0
148
0.0
149
0.0
100
AcDbLayout
  1
Layout1
 70
     1
 71
     1
 10
0.0
 20
0.0
 11
12.0
 21
9.0
 12
0.0
 22
0.0
 32
0.0
 14
1.000000000000000E+20
 24
1.000000000000000E+20
 34
1.000000000000000E+20
 15
-1.000000000000000E+20
 25
-1.000000000000000E+20
 35
-1.000000000000000E+20
146
0.0
 13
0.0
 23
0.0
 33
0.0
 16
1.0
 26
0.0
 36
0.0
 17
0.0
 27
1.0
 37
0.0
 76
     0
330
1B
  0
LAYOUT
  5
26
102
{ACAD_REACTORS
330
1A
102
}
330
1A
100
AcDbPlotSettings
  1

  2
none_device
  4

  6

 40
0.0
 41
0.0
 42
0.0
 43
0.0
 44
0.0
 45
0.0
 46
0.0
 47
0.0
 48
0.0
 49
0.0
140
0.0
141
0.0
142
1.0
143
1.0
 70
   688
 72
     0
 73
     0
 74
     5
  7

 75
    16
 76
     0
 77
     2
 78
   300
147
1.0
148
0.0
149
0.0
100
AcDbLayout
  1
Layout2
 70
     1
 71
     2
 10
0.0
 20
0.0
 11
0.0
 21
0.0
 12
0.0
 22
0.0
 32
0.0
 14
0.0
 24
0.0
 34
0.0
 15
0.0
 25
0.0
 35
0.0
146
0.0
 13
0.0
 23
0.0
 33
0.0
 16
1.0
 26
0.0
 36
0.0
 17
0.0
 27
1.0
 37
0.0
 76
     0
330
23
  0
LAYOUT
  5
22
102
{ACAD_REACTORS
330
1A
102
}
330
1A
100
AcDbPlotSettings
  1

  2
none_device
  4

  6

 40
0.0
 41
0.0
 42
0.0
 43
0.0
 44
0.0
 45
0.0
 46
0.0
 47
0.0
 48
0.0
 49
0.0
140
0.0
141
0.0
142
1.0
143
1.0
 70
  1712
 72
     0
 73
     0
 74
     0
  7

 75
     0
 76
     0
 77
     2
 78
   300
147
1.0
148
0.0
149
0.0
100
AcDbLayout
  1
Model
 70
     1
 71
     0
 10
0.0
 20
0.0
 11
12.0
 21
9.0
 12
0.0
 22
0.0
 32
0.0
 14
-1.66248
 24
-1.78323
 34
0.0
 15
1.66248
 25
1.78323
 35
0.0
146
0.0
 13
0.0
 23
0.0
 33
0.0
 16
1.0
 26
0.0
 36
0.0
 17
0.0
 27
1.0
 37
0.0
 76
     0
330
1F
331
29
  0
MATERIAL
  5
3D
102
{ACAD_REACTORS
330
3B
102
}
330
3B
100
AcDbMaterial
  1
ByBlock
 72
     1
 94
      127
  0
MATERIAL
  5
3C
102
{ACAD_REACTORS
330
3B
102
}
330
3B
100
AcDbMaterial
  1
ByLayer
 72
     1
 94
      127
  0
MATERIAL
  5
3E
102
{ACAD_REACTORS
330
3B
102
}
330
3B
100
AcDbMaterial
  1
Global
 72
     1
 94
      127
  0
MLINESTYLE
  5
18
102
{ACAD_REACTORS
330
17
102
}
330
17
100
AcDbMlineStyle
  2
Standard
 70
     0
  3

 62
   256
 51
90.0
 52
90.0
 71
     2
 49
0.5
 62
   256
  6
BYLAYER
 49
-0.5
 62
   256
  6
BYLAYER
  0
ACDBPLACEHOLDER
  5
F
102
{ACAD_REACTORS
330
E
102
}
330
E
  0
VISUALSTYLE
  5
2F
102
{ACAD_REACTORS
330
2A
102
}
102
{ACAD_XDICTIONARY
360
B5
102
}
330
2A
100
AcDbVisualStyle
  2
2dWireframe
 70
     4
 71
     0
 72
     2
 73
     0
 90
        0
 40
-0.6
 41
-30.0
 62
     5
 63
     7
421
 16777215
 74
     1
 91
        4
 64
     7
 65
   257
 75
     1
175
     1
 42
1.0
 92
        0
 66
   257
 43
1.0
 76
     1
 77
     6
 78
     2
 67
     7
 79
     5
170
     0
171
     0
290
     0
174
     0
 93
        1
 44
0.0
173
     0
291
     0
 45
0.0
  0
VISUALSTYLE
  5
31
102
{ACAD_REACTORS
330
2A
102
}
102
{ACAD_XDICTIONARY
360
B9
102
}
330
2A
100
AcDbVisualStyle
  2
3D Hidden
 70
     6
 71
     1
 72
     2
 73
     2
 90
        0
 40
-0.6
 41
-30.0
 62
     5
 63
     7
421
 16777215
 74
     2
 91
        2
 64
     7
 65
   257
 75
     2
175
     1
 42
40.0
 92
        0
 66
   257
 43
1.0
 76
     1
 77
     6
 78
     2
 67
     7
 79
     3
170
     0
171
     0
290
     0
174
     0
 93
        1
 44
0.0
173
     0
291
     0
 45
0.0
  0
VISUALSTYLE
  5
30
102
{ACAD_REACTORS
330
2A
102
}
102
{ACAD_XDICTIONARY
360
B7
102
}
330
2A
100
AcDbVisualStyle
  2
3dWireframe
 70
     5
 71
     0
 72
     2
 73
     0
 90
        0
 40
-0.6
 41
-30.0
 62
     5
 63
     7
421
 16777215
 74
     1
 91
        4
 64
     7
 65
   257
 75
     1
175
     1
 42
1.0
 92
        0
 66
   257
 43
1.0
 76
     1
 77
     6
 78
     2
 67
     7
 79
     5
170
     0
171
     0
290
     0
174
     0
 93
        1
 44
0.0
173
     0
291
     0
 45
0.0
  0
VISUALSTYLE
  5
32
102
{ACAD_REACTORS
330
2A
102
}
102
{ACAD_XDICTIONARY
360
BB
102
}
330
2A
100
AcDbVisualStyle
  2
Basic
 70
     7
 71
     1
 72
     0
 73
     1
 90
        0
 40
-0.6
 41
-30.0
 62
     5
 63
     7
421
 16777215
 74
     0
 91
        4
 64
     7
 65
   257
 75
     1
175
     1
 42
1.0
 92
        8
 66
     7
 43
1.0
 76
     1
 77
     6
 78
     2
 67
     7
 79
     5
170
     0
171
     0
290
     0
174
     0
 93
        1
 44
0.0
173
     0
291
     1
 45
0.0
  0
VISUALSTYLE
  5
36
102
{ACAD_REACTORS
330
2A
102
}
102
{ACAD_XDICTIONARY
360
C3
102
}
330
2A
100
AcDbVisualStyle
  2
Brighten
 70
    12
 71
     2
 72
     2
 73
     0
 90
        0
 40
-0.6
 41
-30.0
 62
     5
 63
     7
421
 16777215
 74
     1
 91
        4
 64
     7
 65
   257
 75
     1
175
     1
 42
1.0
 92
        8
 66
     7
 43
1.0
 76
     1
 77
     6
 78
     2
 67
     7
 79
     5
170
     0
171
     0
290
     0
174
     0
 93
        1
 44
50.0
173
     0
291
     1
 45
0.0
  0
VISUALSTYLE
  5
3A
102
{ACAD_REACTORS
330
2A
102
}
102
{ACAD_XDICTIONARY
360
CB
102
}
330
2A
100
AcDbVisualStyle
  2
ColorChange
 70
    16
 71
     2
 72
     2
 73
     3
 90
        0
 40
-0.6
 41
-30.0
 62
     5
 63
     8
421
  8421504
 74
     1
 91
        4
 64
     7
 65
   257
 75
     1
175
     1
 42
1.0
 92
        8
 66
     8
424
  8421504
 43
1.0
 76
     1
 77
     6
 78
     2
 67
     7
 79
     5
170
     0
171
     0
290
     0
174
     0
 93
        1
 44
0.0
173
     0
291
     1
 45
0.0
  0
VISUALSTYLE
  5
34
102
{ACAD_REACTORS
330
2A
102
}
102
{ACAD_XDICTIONARY
360
BF
102
}
330
2A
100
AcDbVisualStyle
  2
Conceptual
 70
     9
 71
     3
 72
     2
 73
     0
 90
        0
 40
-0.6
 41
-30.0
 62
     5
 63
     7
421
 16777215
 74
     2
 91
        2
 64
     7
 65
   257
 75
     1
175
     1
 42
40.0
 92
        8
 66
     7
 43
1.0
 76
     1
 77
     6
 78
     2
 67
     7
 79
     3
170
     0
171
     0
290
     0
174
     0
 93
        1
 44
0.0
173
     0
291
     0
 45
0.0
  0
VISUALSTYLE
  5
35
102
{ACAD_REACTORS
330
2A
102
}
102
{ACAD_XDICTIONARY
360
C1
102
}
330
2A
100
AcDbVisualStyle
  2
Dim
 70
    11
 71
     2
 72
     2
 73
     0
 90
        0
 40
-0.6
 41
-30.0
 62
     5
 63
     7
421
 16777215
 74
     1
 91
        4
 64
     7
 65
   257
 75
     1
175
     1
 42
1.0
 92
        8
 66
     7
 43
1.0
 76
     1
 77
     6
 78
     2
 67
     7
 79
     5
170
     0
171
     0
290
     0
174
     0
 93
        1
 44
-50.0
173
     0
291
     1
 45
0.0
  0
VISUALSTYLE
  5
39
102
{ACAD_REACTORS
330
2A
102
}
102
{ACAD_XDICTIONARY
360
C9
102
}
330
2A
100
AcDbVisualStyle
  2
Facepattern
 70
    15
 71
     2
 72
     2
 73
     0
 90
        0
 40
-0.6
 41
-30.0
 62
     5
 63
     7
421
 16777215
 74
     1
 91
        4
 64
     7
 65
   257
 75
     1
175
     1
 42
1.0
 92
        8
 66
     7
 43
1.0
 76
     1
 77
     6
 78
     2
 67
     7
 79
     5
170
     0
171
     0
290
     0
174
     0
 93
        1
 44
0.0
173
     0
291
     1
 45
0.0
  0
VISUALSTYLE
  5
2B
102
{ACAD_REACTORS
330
2A
102
}
102
{ACAD_XDICTIONARY
360
AD
102
}
330
2A
100
AcDbVisualStyle
  2
Flat
 70
     0
 71
     2
 72
     1
 73
     1
 90
        2
 40
-0.6
 41
30.0
 62
     5
 63
     7
421
 16777215
 74
     0
 91
        4
 64
     7
 65
   257
 75
     1
175
     1
 42
1.0
 92
        8
 66
     7
 43
1.0
 76
     1
 77
     6
 78
     2
 67
     7
 79
     5
170
     0
171
     0
290
     0
174
     0
 93
       13
 44
0.0
173
     0
291
     1
 45
0.0
  0
VISUALSTYLE
  5
2C
102
{ACAD_REACTORS
330
2A
102
}
102
{ACAD_XDICTIONARY
360
AF
102
}
330
2A
100
AcDbVisualStyle
  2
FlatWithEdges
 70
     1
 71
     2
 72
     1
 73
     1
 90
        2
 40
-0.6
 41
30.0
 62
     5
 63
     7
421
 16777215
 74
     1
 91
        4
 64
     7
 65
   257
 75
     1
175
     1
 42
1.0
 92
        0
 66
   257
 43
1.0
 76
     1
 77
     6
 78
     2
 67
     7
 79
     5
170
     0
171
     0
290
     0
174
     0
 93
       13
 44
0.0
173
     0
291
     1
 45
0.0
  0
VISUALSTYLE
  5
2D
102
{ACAD_REACTORS
330
2A
102
}
102
{ACAD_XDICTIONARY
360
B1
102
}
330
2A
100
AcDbVisualStyle
  2
Gouraud
 70
     2
 71
     2
 72
     2
 73
     1
 90
        2
 40
-0.6
 41
30.0
 62
     5
 63
     7
421
 16777215
 74
     0
 91
        4
 64
     7
 65
   257
 75
     1
175
     1
 42
1.0
 92
        0
 66
     7
 43
1.0
 76
     1
 77
     6
 78
     2
 67
     7
 79
     5
170
     0
171
     0
290
     0
174
     0
 93
       13
 44
0.0
173
     0
291
     1
 45
0.0
  0
VISUALSTYLE
  5
2E
102
{ACAD_REACTORS
330
2A
102
}
102
{ACAD_XDICTIONARY
360
B3
102
}
330
2A
100
AcDbVisualStyle
  2
GouraudWithEdges
 70
     3
 71
     2
 72
     2
 73
     1
 90
        2
 40
-0.6
 41
30.0
 62
     5
 63
     7
421
 16777215
 74
     1
 91
        4
 64
     7
 65
   257
 75
     1
175
     1
 42
1.0
 92
        0
 66
   257
 43
1.0
 76
     1
 77
     6
 78
     2
 67
     7
 79
     5
170
     0
171
     0
290
     0
174
     0
 93
       13
 44
0.0
173
     0
291
     1
 45
0.0
  0
VISUALSTYLE
  5
38
102
{ACAD_REACTORS
330
2A
102
}
102
{ACAD_XDICTIONARY
360
C7
102
}
330
2A
100
AcDbVisualStyle
  2
Linepattern
 70
    14
 71
     2
 72
     2
 73
     0
 90
        0
 40
-0.6
 41
-30.0
 62
     5
 63
     7
421
 16777215
 74
     1
 91
        4
 64
     7
 65
   257
 75
     7
175
     7
 42
1.0
 92
        8
 66
     7
 43
1.0
 76
     1
 77
     6
 78
     2
 67
     7
 79
     5
170
     0
171
     0
290
     0
174
     0
 93
        1
 44
0.0
173
     0
291
     1
 45
0.0
  0
VISUALSTYLE
  5
33
102
{ACAD_REACTORS
330
2A
102
}
102
{ACAD_XDICTIONARY
360
BD
102
}
330
2A
100
AcDbVisualStyle
  2
Realistic
 70
     8
 71
     2
 72
     2
 73
     0
 90
        0
 40
-0.6
 41
-30.0
 62
     5
 63
     7
421
 16777215
 74
     1
 91
        0
 64
     7
 65
   257
 75
     1
175
     1
 42
1.0
 92
        8
 66
     8
424
  7895160
 43
1.0
 76
     1
 77
     6
 78
     2
 67
     7
 79
     5
170
     0
171
     0
290
     0
174
     0
 93
       13
 44
0.0
173
     0
291
     0
 45
0.0
  0
VISUALSTYLE
  5
37
102
{ACAD_REACTORS
330
2A
102
}
102
{ACAD_XDICTIONARY
360
C5
102
}
330
2A
100
AcDbVisualStyle
  2
Thicken
 70
    13
 71
     2
 72
     2
 73
     0
 90
        0
 40
-0.6
 41
-30.0
 62
     5
 63
     7
421
 16777215
 74
     1
 91
        4
 64
     7
 65
   257
 75
     1
175
     1
 42
1.0
 92
       12
 66
     7
 43
1.0
 76
     1
 77
     6
 78
     2
 67
     7
 79
     5
170
     0
171
     0
290
     0
174
     0
 93
        1
 44
0.0
173
     0
291
     1
 45
0.0
  0
DICTIONARY
  5
B5
330
2F
100
AcDbDictionary
280
     1
281
     1
  3
ACAD_XREC_ROUNDTRIP
360
B6
  0
DICTIONARY
  5
B9
330
31
100
AcDbDictionary
280
     1
281
     1
  3
ACAD_XREC_ROUNDTRIP
360
BA
  0
DICTIONARY
  5
B7
330
30
100
AcDbDictionary
280
     1
281
     1
  3
ACAD_XREC_ROUNDTRIP
360
B8
  0
DICTIONARY
  5
BB
330
32
100
AcDbDictionary
280
     1
281
     1
  3
ACAD_XREC_ROUNDTRIP
360
BC
  0
DICTIONARY
  5
C3
330
36
100
AcDbDictionary
280
     1
281
     1
  3
ACAD_XREC_ROUNDTRIP
360
C4
  0
DICTIONARY
  5
CB
330
3A
100
AcDbDictionary
280
     1
281
     1
  3
ACAD_XREC_ROUNDTRIP
360
CC
  0
DICTIONARY
  5
BF
330
34
100
AcDbDictionary
280
     1
281
     1
  3
ACAD_XREC_ROUNDTRIP
360
C0
  0
DICTIONARY
  5
C1
330
35
100
AcDbDictionary
280
     1
281
     1
  3
ACAD_XREC_ROUNDTRIP
360
C2
  0
DICTIONARY
  5
C9
330
39
100
AcDbDictionary
280
     1
281
     1
  3
ACAD_XREC_ROUNDTRIP
360
CA
  0
DICTIONARY
  5
AD
330
2B
100
AcDbDictionary
280
     1
281
     1
  3
ACAD_XREC_ROUNDTRIP
360
AE
  0
DICTIONARY
  5
AF
330
2C
100
AcDbDictionary
280
     1
281
     1
  3
ACAD_XREC_ROUNDTRIP
360
B0
  0
DICTIONARY
  5
B1
330
2D
100
AcDbDictionary
280
     1
281
     1
  3
ACAD_XREC_ROUNDTRIP
360
B2
  0
DICTIONARY
  5
B3
330
2E
100
AcDbDictionary
280
     1
281
     1
  3
ACAD_XREC_ROUNDTRIP
360
B4
  0
DICTIONARY
  5
C7
330
38
100
AcDbDictionary
280
     1
281
     1
  3
ACAD_XREC_ROUNDTRIP
360
C8
  0
DICTIONARY
  5
BD
330
33
100
AcDbDictionary
280
     1
281
     1
  3
ACAD_XREC_ROUNDTRIP
360
BE
  0
DICTIONARY
  5
C5
330
37
100
AcDbDictionary
280
     1
281
     1
  3
ACAD_XREC_ROUNDTRIP
360
C6
  0
XRECORD
  5
B6
102
{ACAD_REACTORS
330
B5
102
}
330
B5
100
AcDbXrecord
280
     1
102
RTVSPropertyOp0
 70
     1
102
RTVSPropertyOp1
 70
     1
102
RTVSPropertyOp2
 70
     1
102
RTVSPropertyOp3
 70
     1
102
RTVSPropertyOp4
 70
     1
102
RTVSPropertyOp5
 70
     1
102
RTVSPropertyOp6
 70
     1
102
RTVSPropertyOp7
 70
     1
102
RTVSPropertyOp8
 70
     1
102
RTVSPropertyOp9
 70
     1
102
RTVSPropertyOp10
 70
     1
102
RTVSPropertyOp11
 70
     1
102
RTVSPropertyOp12
 70
     1
102
RTVSPropertyOp13
 70
     1
102
RTVSPropertyOp14
 70
     1
102
RTVSPropertyOp15
 70
     1
102
RTVSPropertyOp16
 70
     1
102
RTVSPropertyOp17
 70
     1
102
RTVSPropertyOp18
 70
     1
102
RTVSPropertyOp19
 70
     1
102
RTVSPropertyOp20
 70
     1
102
RTVSPropertyOp21
 70
     1
102
RTVSPropertyOp22
 70
     1
102
RTVSPropertyOp23
 70
     1
102
RTVSPropertyOp24
 70
     1
102
RTVSPropertyOp25
 70
     1
102
RTVSPropertyOp26
 70
     1
102
RTVSPropertyOp27
 70
     1
  0
XRECORD
  5
BA
102
{ACAD_REACTORS
330
B9
102
}
330
B9
100
AcDbXrecord
280
     1
102
RTVSPropertyOp0
 70
     1
102
RTVSPropertyOp1
 70
     1
102
RTVSPropertyOp2
 70
     1
102
RTVSPropertyOp3
 70
     1
102
RTVSPropertyOp4
 70
     1
102
RTVSPropertyOp5
 70
     1
102
RTVSPropertyOp6
 70
     1
102
RTVSPropertyOp7
 70
     1
102
RTVSPropertyOp8
 70
     1
102
RTVSPropertyOp9
 70
     1
102
RTVSPropertyOp10
 70
     1
102
RTVSPropertyOp11
 70
     1
102
RTVSPropertyOp12
 70
     1
102
RTVSPropertyOp13
 70
     1
102
RTVSPropertyOp14
 70
     1
102
RTVSPropertyOp15
 70
     1
102
RTVSPropertyOp16
 70
     1
102
RTVSPropertyOp17
 70
     1
102
RTVSPropertyOp18
 70
     1
102
RTVSPropertyOp19
 70
     1
102
RTVSPropertyOp20
 70
     1
102
RTVSPropertyOp21
 70
     1
102
RTVSPropertyOp22
 70
     1
102
RTVSPropertyOp23
 70
     1
102
RTVSPropertyOp24
 70
     1
102
RTVSPropertyOp25
 70
     1
102
RTVSPropertyOp26
 70
     1
102
RTVSPropertyOp27
 70
     1
  0
XRECORD
  5
B8
102
{ACAD_REACTORS
330
B7
102
}
330
B7
100
AcDbXrecord
280
     1
102
RTVSPropertyOp0
 70
     1
102
RTVSPropertyOp1
 70
     1
102
RTVSPropertyOp2
 70
     1
102
RTVSPropertyOp3
 70
     1
102
RTVSPropertyOp4
 70
     1
102
RTVSPropertyOp5
 70
     1
102
RTVSPropertyOp6
 70
     1
102
RTVSPropertyOp7
 70
     1
102
RTVSPropertyOp8
 70
     1
102
RTVSPropertyOp9
 70
     1
102
RTVSPropertyOp10
 70
     1
102
RTVSPropertyOp11
 70
     1
102
RTVSPropertyOp12
 70
     1
102
RTVSPropertyOp13
 70
     1
102
RTVSPropertyOp14
 70
     1
102
RTVSPropertyOp15
 70
     1
102
RTVSPropertyOp16
 70
     1
102
RTVSPropertyOp17
 70
     1
102
RTVSPropertyOp18
 70
     1
102
RTVSPropertyOp19
 70
     1
102
RTVSPropertyOp20
 70
     1
102
RTVSPropertyOp21
 70
     1
102
RTVSPropertyOp22
 70
     1
102
RTVSPropertyOp23
 70
     1
102
RTVSPropertyOp24
 70
     1
102
RTVSPropertyOp25
 70
     1
102
RTVSPropertyOp26
 70
     1
102
RTVSPropertyOp27
 70
     1
  0
XRECORD
  5
BC
102
{ACAD_REACTORS
330
BB
102
}
330
BB
100
AcDbXrecord
280
     1
102
RTVSPropertyOp0
 70
     1
102
RTVSPropertyOp1
 70
     1
102
RTVSPropertyOp2
 70
     1
102
RTVSPropertyOp3
 70
     1
102
RTVSPropertyOp4
 70
     1
102
RTVSPropertyOp5
 70
     1
102
RTVSPropertyOp6
 70
     1
102
RTVSPropertyOp7
 70
     1
102
RTVSPropertyOp8
 70
     1
102
RTVSPropertyOp9
 70
     1
102
RTVSPropertyOp10
 70
     1
102
RTVSPropertyOp11
 70
     1
102
RTVSPropertyOp12
 70
     1
102
RTVSPropertyOp13
 70
     1
102
RTVSPropertyOp14
 70
     1
102
RTVSPropertyOp15
 70
     1
102
RTVSPropertyOp16
 70
     1
102
RTVSPropertyOp17
 70
     1
102
RTVSPropertyOp18
 70
     1
102
RTVSPropertyOp19
 70
     1
102
RTVSPropertyOp20
 70
     1
102
RTVSPropertyOp21
 70
     1
102
RTVSPropertyOp22
 70
     1
102
RTVSPropertyOp23
 70
     1
102
RTVSPropertyOp24
 70
     1
102
RTVSPropertyOp25
 70
     1
102
RTVSPropertyOp26
 70
     1
102
RTVSPropertyOp27
 70
     1
  0
XRECORD
  5
C4
102
{ACAD_REACTORS
330
C3
102
}
330
C3
100
AcDbXrecord
280
     1
102
RTVSPropertyOp0
 70
     1
102
RTVSPropertyOp1
 70
     1
102
RTVSPropertyOp2
 70
     1
102
RTVSPropertyOp3
 70
     1
102
RTVSPropertyOp4
 70
     1
102
RTVSPropertyOp5
 70
     1
102
RTVSPropertyOp6
 70
     1
102
RTVSPropertyOp7
 70
     1
102
RTVSPropertyOp8
 70
     1
102
RTVSPropertyOp9
 70
     1
102
RTVSPropertyOp10
 70
     1
102
RTVSPropertyOp11
 70
     1
102
RTVSPropertyOp12
 70
     1
102
RTVSPropertyOp13
 70
     1
102
RTVSPropertyOp14
 70
     1
102
RTVSPropertyOp15
 70
     1
102
RTVSPropertyOp16
 70
     1
102
RTVSPropertyOp17
 70
     1
102
RTVSPropertyOp18
 70
     1
102
RTVSPropertyOp19
 70
     1
102
RTVSPropertyOp20
 70
     1
102
RTVSPropertyOp21
 70
     1
102
RTVSPropertyOp22
 70
     1
102
RTVSPropertyOp23
 70
     1
102
RTVSPropertyOp24
 70
     1
102
RTVSPropertyOp25
 70
     1
102
RTVSPropertyOp26
 70
     1
102
RTVSPropertyOp27
 70
     1
  0
XRECORD
  5
CC
102
{ACAD_REACTORS
330
CB
102
}
330
CB
100
AcDbXrecord
280
     1
102
RTVSPropertyOp0
 70
     1
102
RTVSPropertyOp1
 70
     1
102
RTVSPropertyOp2
 70
     1
102
RTVSPropertyOp3
 70
     1
102
RTVSPropertyOp4
 70
     1
102
RTVSPropertyOp5
 70
     1
102
RTVSPropertyOp6
 70
     1
102
RTVSPropertyOp7
 70
     1
102
RTVSPropertyOp8
 70
     1
102
RTVSPropertyOp9
 70
     1
102
RTVSPropertyOp10
 70
     1
102
RTVSPropertyOp11
 70
     1
102
RTVSPropertyOp12
 70
     1
102
RTVSPropertyOp13
 70
     1
102
RTVSPropertyOp14
 70
     1
102
RTVSPropertyOp15
 70
     1
102
RTVSPropertyOp16
 70
     1
102
RTVSPropertyOp17
 70
     1
102
RTVSPropertyOp18
 70
     1
102
RTVSPropertyOp19
 70
     1
102
RTVSPropertyOp20
 70
     1
102
RTVSPropertyOp21
 70
     1
102
RTVSPropertyOp22
 70
     1
102
RTVSPropertyOp23
 70
     1
102
RTVSPropertyOp24
 70
     1
102
RTVSPropertyOp25
 70
     1
102
RTVSPropertyOp26
 70
     1
102
RTVSPropertyOp27
 70
     1
  0
XRECORD
  5
C0
102
{ACAD_REACTORS
330
BF
102
}
330
BF
100
AcDbXrecord
280
     1
102
RTVSPropertyOp0
 70
     1
102
RTVSPropertyOp1
 70
     1
102
RTVSPropertyOp2
 70
     1
102
RTVSPropertyOp3
 70
     1
102
RTVSPropertyOp4
 70
     1
102
RTVSPropertyOp5
 70
     1
102
RTVSPropertyOp6
 70
     1
102
RTVSPropertyOp7
 70
     1
102
RTVSPropertyOp8
 70
     1
102
RTVSPropertyOp9
 70
     1
102
RTVSPropertyOp10
 70
     1
102
RTVSPropertyOp11
 70
     1
102
RTVSPropertyOp12
 70
     1
102
RTVSPropertyOp13
 70
     1
102
RTVSPropertyOp14
 70
     1
102
RTVSPropertyOp15
 70
     1
102
RTVSPropertyOp16
 70
     1
102
RTVSPropertyOp17
 70
     1
102
RTVSPropertyOp18
 70
     1
102
RTVSPropertyOp19
 70
     1
102
RTVSPropertyOp20
 70
     1
102
RTVSPropertyOp21
 70
     1
102
RTVSPropertyOp22
 70
     1
102
RTVSPropertyOp23
 70
     1
102
RTVSPropertyOp24
 70
     1
102
RTVSPropertyOp25
 70
     1
102
RTVSPropertyOp26
 70
     1
102
RTVSPropertyOp27
 70
     1
  0
XRECORD
  5
C2
102
{ACAD_REACTORS
330
C1
102
}
330
C1
100
AcDbXrecord
280
     1
102
RTVSPropertyOp0
 70
     1
102
RTVSPropertyOp1
 70
     1
102
RTVSPropertyOp2
 70
     1
102
RTVSPropertyOp3
 70
     1
102
RTVSPropertyOp4
 70
     1
102
RTVSPropertyOp5
 70
     1
102
RTVSPropertyOp6
 70
     1
102
RTVSPropertyOp7
 70
     1
102
RTVSPropertyOp8
 70
     1
102
RTVSPropertyOp9
 70
     1
102
RTVSPropertyOp10
 70
     1
102
RTVSPropertyOp11
 70
     1
102
RTVSPropertyOp12
 70
     1
102
RTVSPropertyOp13
 70
     1
102
RTVSPropertyOp14
 70
     1
102
RTVSPropertyOp15
 70
     1
102
RTVSPropertyOp16
 70
     1
102
RTVSPropertyOp17
 70
     1
102
RTVSPropertyOp18
 70
     1
102
RTVSPropertyOp19
 70
     1
102
RTVSPropertyOp20
 70
     1
102
RTVSPropertyOp21
 70
     1
102
RTVSPropertyOp22
 70
     1
102
RTVSPropertyOp23
 70
     1
102
RTVSPropertyOp24
 70
     1
102
RTVSPropertyOp25
 70
     1
102
RTVSPropertyOp26
 70
     1
102
RTVSPropertyOp27
 70
     1
  0
XRECORD
  5
CA
102
{ACAD_REACTORS
330
C9
102
}
330
C9
100
AcDbXrecord
280
     1
102
RTVSPropertyOp0
 70
     1
102
RTVSPropertyOp1
 70
     1
102
RTVSPropertyOp2
 70
     1
102
RTVSPropertyOp3
 70
     1
102
RTVSPropertyOp4
 70
     1
102
RTVSPropertyOp5
 70
     1
102
RTVSPropertyOp6
 70
     1
102
RTVSPropertyOp7
 70
     1
102
RTVSPropertyOp8
 70
     1
102
RTVSPropertyOp9
 70
     1
102
RTVSPropertyOp10
 70
     1
102
RTVSPropertyOp11
 70
     1
102
RTVSPropertyOp12
 70
     1
102
RTVSPropertyOp13
 70
     1
102
RTVSPropertyOp14
 70
     1
102
RTVSPropertyOp15
 70
     1
102
RTVSPropertyOp16
 70
     1
102
RTVSPropertyOp17
 70
     1
102
RTVSPropertyOp18
 70
     1
102
RTVSPropertyOp19
 70
     1
102
RTVSPropertyOp20
 70
     1
102
RTVSPropertyOp21
 70
     1
102
RTVSPropertyOp22
 70
     1
102
RTVSPropertyOp23
 70
     1
102
RTVSPropertyOp24
 70
     1
102
RTVSPropertyOp25
 70
     1
102
RTVSPropertyOp26
 70
     1
102
RTVSPropertyOp27
 70
     1
  0
XRECORD
  5
AE
102
{ACAD_REACTORS
330
AD
102
}
330
AD
100
AcDbXrecord
280
     1
102
RTVSPropertyOp0
 70
     1
102
RTVSPropertyOp1
 70
     1
102
RTVSPropertyOp2
 70
     1
102
RTVSPropertyOp3
 70
     1
102
RTVSPropertyOp4
 70
     1
102
RTVSPropertyOp5
 70
     1
102
RTVSPropertyOp6
 70
     1
102
RTVSPropertyOp7
 70
     1
102
RTVSPropertyOp8
 70
     1
102
RTVSPropertyOp9
 70
     1
102
RTVSPropertyOp10
 70
     1
102
RTVSPropertyOp11
 70
     1
102
RTVSPropertyOp12
 70
     1
102
RTVSPropertyOp13
 70
     1
102
RTVSPropertyOp14
 70
     1
102
RTVSPropertyOp15
 70
     1
102
RTVSPropertyOp16
 70
     1
102
RTVSPropertyOp17
 70
     1
102
RTVSPropertyOp18
 70
     1
102
RTVSPropertyOp19
 70
     1
102
RTVSPropertyOp20
 70
     1
102
RTVSPropertyOp21
 70
     1
102
RTVSPropertyOp22
 70
     1
102
RTVSPropertyOp23
 70
     1
102
RTVSPropertyOp24
 70
     1
102
RTVSPropertyOp25
 70
     1
102
RTVSPropertyOp26
 70
     1
102
RTVSPropertyOp27
 70
     1
  0
XRECORD
  5
B0
102
{ACAD_REACTORS
330
AF
102
}
330
AF
100
AcDbXrecord
280
     1
102
RTVSPropertyOp0
 70
     1
102
RTVSPropertyOp1
 70
     1
102
RTVSPropertyOp2
 70
     1
102
RTVSPropertyOp3
 70
     1
102
RTVSPropertyOp4
 70
     1
102
RTVSPropertyOp5
 70
     1
102
RTVSPropertyOp6
 70
     1
102
RTVSPropertyOp7
 70
     1
102
RTVSPropertyOp8
 70
     1
102
RTVSPropertyOp9
 70
     1
102
RTVSPropertyOp10
 70
     1
102
RTVSPropertyOp11
 70
     1
102
RTVSPropertyOp12
 70
     1
102
RTVSPropertyOp13
 70
     1
102
RTVSPropertyOp14
 70
     1
102
RTVSPropertyOp15
 70
     1
102
RTVSPropertyOp16
 70
     1
102
RTVSPropertyOp17
 70
     1
102
RTVSPropertyOp18
 70
     1
102
RTVSPropertyOp19
 70
     1
102
RTVSPropertyOp20
 70
     1
102
RTVSPropertyOp21
 70
     1
102
RTVSPropertyOp22
 70
     1
102
RTVSPropertyOp23
 70
     1
102
RTVSPropertyOp24
 70
     1
102
RTVSPropertyOp25
 70
     1
102
RTVSPropertyOp26
 70
     1
102
RTVSPropertyOp27
 70
     1
  0
XRECORD
  5
B2
102
{ACAD_REACTORS
330
B1
102
}
330
B1
100
AcDbXrecord
280
     1
102
RTVSPropertyOp0
 70
     1
102
RTVSPropertyOp1
 70
     1
102
RTVSPropertyOp2
 70
     1
102
RTVSPropertyOp3
 70
     1
102
RTVSPropertyOp4
 70
     1
102
RTVSPropertyOp5
 70
     1
102
RTVSPropertyOp6
 70
     1
102
RTVSPropertyOp7
 70
     1
102
RTVSPropertyOp8
 70
     1
102
RTVSPropertyOp9
 70
     1
102
RTVSPropertyOp10
 70
     1
102
RTVSPropertyOp11
 70
     1
102
RTVSPropertyOp12
 70
     1
102
RTVSPropertyOp13
 70
     1
102
RTVSPropertyOp14
 70
     1
102
RTVSPropertyOp15
 70
     1
102
RTVSPropertyOp16
 70
     1
102
RTVSPropertyOp17
 70
     1
102
RTVSPropertyOp18
 70
     1
102
RTVSPropertyOp19
 70
     1
102
RTVSPropertyOp20
 70
     1
102
RTVSPropertyOp21
 70
     1
102
RTVSPropertyOp22
 70
     1
102
RTVSPropertyOp23
 70
     1
102
RTVSPropertyOp24
 70
     1
102
RTVSPropertyOp25
 70
     1
102
RTVSPropertyOp26
 70
     1
102
RTVSPropertyOp27
 70
     1
  0
XRECORD
  5
B4
102
{ACAD_REACTORS
330
B3
102
}
330
B3
100
AcDbXrecord
280
     1
102
RTVSPropertyOp0
 70
     1
102
RTVSPropertyOp1
 70
     1
102
RTVSPropertyOp2
 70
     1
102
RTVSPropertyOp3
 70
     1
102
RTVSPropertyOp4
 70
     1
102
RTVSPropertyOp5
 70
     1
102
RTVSPropertyOp6
 70
     1
102
RTVSPropertyOp7
 70
     1
102
RTVSPropertyOp8
 70
     1
102
RTVSPropertyOp9
 70
     1
102
RTVSPropertyOp10
 70
     1
102
RTVSPropertyOp11
 70
     1
102
RTVSPropertyOp12
 70
     1
102
RTVSPropertyOp13
 70
     1
102
RTVSPropertyOp14
 70
     1
102
RTVSPropertyOp15
 70
     1
102
RTVSPropertyOp16
 70
     1
102
RTVSPropertyOp17
 70
     1
102
RTVSPropertyOp18
 70
     1
102
RTVSPropertyOp19
 70
     1
102
RTVSPropertyOp20
 70
     1
102
RTVSPropertyOp21
 70
     1
102
RTVSPropertyOp22
 70
     1
102
RTVSPropertyOp23
 70
     1
102
RTVSPropertyOp24
 70
     1
102
RTVSPropertyOp25
 70
     1
102
RTVSPropertyOp26
 70
     1
102
RTVSPropertyOp27
 70
     1
  0
XRECORD
  5
C8
102
{ACAD_REACTORS
330
C7
102
}
330
C7
100
AcDbXrecord
280
     1
102
RTVSPropertyOp0
 70
     1
102
RTVSPropertyOp1
 70
     1
102
RTVSPropertyOp2
 70
     1
102
RTVSPropertyOp3
 70
     1
102
RTVSPropertyOp4
 70
     1
102
RTVSPropertyOp5
 70
     1
102
RTVSPropertyOp6
 70
     1
102
RTVSPropertyOp7
 70
     1
102
RTVSPropertyOp8
 70
     1
102
RTVSPropertyOp9
 70
     1
102
RTVSPropertyOp10
 70
     1
102
RTVSPropertyOp11
 70
     1
102
RTVSPropertyOp12
 70
     1
102
RTVSPropertyOp13
 70
     1
102
RTVSPropertyOp14
 70
     1
102
RTVSPropertyOp15
 70
     1
102
RTVSPropertyOp16
 70
     1
102
RTVSPropertyOp17
 70
     1
102
RTVSPropertyOp18
 70
     1
102
RTVSPropertyOp19
 70
     1
102
RTVSPropertyOp20
 70
     1
102
RTVSPropertyOp21
 70
     1
102
RTVSPropertyOp22
 70
     1
102
RTVSPropertyOp23
 70
     1
102
RTVSPropertyOp24
 70
     1
102
RTVSPropertyOp25
 70
     1
102
RTVSPropertyOp26
 70
     1
102
RTVSPropertyOp27
 70
     1
  0
XRECORD
  5
BE
102
{ACAD_REACTORS
330
BD
102
}
330
BD
100
AcDbXrecord
280
     1
102
RTVSPropertyOp0
 70
     1
102
RTVSPropertyOp1
 70
     1
102
RTVSPropertyOp2
 70
     1
102
RTVSPropertyOp3
 70
     1
102
RTVSPropertyOp4
 70
     1
102
RTVSPropertyOp5
 70
     1
102
RTVSPropertyOp6
 70
     1
102
RTVSPropertyOp7
 70
     1
102
RTVSPropertyOp8
 70
     1
102
RTVSPropertyOp9
 70
     1
102
RTVSPropertyOp10
 70
     1
102
RTVSPropertyOp11
 70
     1
102
RTVSPropertyOp12
 70
     1
102
RTVSPropertyOp13
 70
     1
102
RTVSPropertyOp14
 70
     1
102
RTVSPropertyOp15
 70
     1
102
RTVSPropertyOp16
 70
     1
102
RTVSPropertyOp17
 70
     1
102
RTVSPropertyOp18
 70
     1
102
RTVSPropertyOp19
 70
     1
102
RTVSPropertyOp20
 70
     1
102
RTVSPropertyOp21
 70
     1
102
RTVSPropertyOp22
 70
     1
102
RTVSPropertyOp23
 70
     1
102
RTVSPropertyOp24
 70
     1
102
RTVSPropertyOp25
 70
     1
102
RTVSPropertyOp26
 70
     1
102
RTVSPropertyOp27
 70
     1
  0
XRECORD
  5
C6
102
{ACAD_REACTORS
330
C5
102
}
330
C5
100
AcDbXrecord
280
     1
102
RTVSPropertyOp0
 70
     1
102
RTVSPropertyOp1
 70
     1
102
RTVSPropertyOp2
 70
     1
102
RTVSPropertyOp3
 70
     1
102
RTVSPropertyOp4
 70
     1
102
RTVSPropertyOp5
 70
     1
102
RTVSPropertyOp6
 70
     1
102
RTVSPropertyOp7
 70
     1
102
RTVSPropertyOp8
 70
     1
102
RTVSPropertyOp9
 70
     1
102
RTVSPropertyOp10
 70
     1
102
RTVSPropertyOp11
 70
     1
102
RTVSPropertyOp12
 70
     1
102
RTVSPropertyOp13
 70
     1
102
RTVSPropertyOp14
 70
     1
102
RTVSPropertyOp15
 70
     1
102
RTVSPropertyOp16
 70
     1
102
RTVSPropertyOp17
 70
     1
102
RTVSPropertyOp18
 70
     1
102
RTVSPropertyOp19
 70
     1
102
RTVSPropertyOp20
 70
     1
102
RTVSPropertyOp21
 70
     1
102
RTVSPropertyOp22
 70
     1
102
RTVSPropertyOp23
 70
     1
102
RTVSPropertyOp24
 70
     1
102
RTVSPropertyOp25
 70
     1
102
RTVSPropertyOp26
 70
     1
102
RTVSPropertyOp27
 70
     1
  0
ENDSEC
  0
EOF
