0
SECTION
2
HEADER
9
$ACADVER
1
AC1003
9
$INSBASE
10
0.0
20
0.0
30
0.0
9
$EXTMIN
10
0.000
20
0.000
30
0.0
9
$EXTMAX
10
745.000
20
746.000
30
0.0
9
$LIMMIN
10
0.000
20
0.000
9
$LIMMAX
10
745.000
20
746.000
9
$LTSCALE
40
1.0
9
$LUNITS
70
2
9
$LUPREC
70
3
9
$LIMCHECK
70
0
9
$UCSNAME
2

9
$UCSORG
10
0.0
20
0.0
30
0.0
9
$UCSXDIR
10
1.0
20
0.0
30
0.0
9
$UCSYDIR
10
0.0
20
1.0
30
0.0
9
$WORLDVIEW
70
1
9
$UNITMODE
70
0
0
ENDSEC
0
SECTION
2
TABLES
0
TABLE
2
VPORT
70
1
0
VPORT
2
*ACTIVE
70
0
10
0.0
20
0.0
11
1.0
21
1.0
12
372.500
22
373.000
13
0.0
23
0.0
14
1.0
24
1.0
15
0.0
25
0.0
16
0.0
26
0.0
36
1.0
17
0.0
27
0.0
37
0.0
40
500.0
41
1.001
42
50.0
43
0.0
44
0.0
50
0.0
51
0.0
71
0
72
100
73
1
74
1
75
0
76
0
77
0
78
0
0
ENDTAB
0
TABLE
2
LTYPE
70
1
0
LTYPE
2
CONTINUOUS
70
64
3
Solid line
72
65
73
0
40
0.000
0
ENDTAB
0
TABLE
2
LAYER
70
1
0
LAYER
2
0
70
64
62
7
6
CONTINUOUS
0
ENDTAB
0
ENDSEC
0
SECTION
2
BLOCKS
0
ENDSEC
0
SECTION
2
ENTITIES
0
POLYLINE
8
0
6
CONTINUOUS
66
1
62
7
10
0.0
20
0.0
30
0.000000
0
VERTEX
8
0
10
589.000000
20
657.000000
0
VERTEX
8
0
10
590.769231
20
659.153846
0
VERTEX
8
0
10
593.000000
20
665.000000
0
VERTEX
8
0
10
593.000000
20
672.000000
0
VERTEX
8
0
10
591.600000
20
674.800000
0
VERTEX
8
0
10
585.000000
20
684.000000
0
VERTEX
8
0
10
584.153846
20
684.230769
0
VERTEX
8
0
10
577.000000
20
688.000000
0
VERTEX
8
0
10
571.000000
20
688.000000
0
VERTEX
8
0
10
566.100000
20
685.800000
0
VERTEX
8
0
10
564.900000
20
685.200000
0
VERTEX
8
0
10
559.000000
20
680.000000
0
VERTEX
8
0
10
556.000000
20
672.000000
0
VERTEX
8
0
10
556.647059
20
667.911765
0
VERTEX
8
0
10
557.700000
20
663.900000
0
VERTEX
8
0
10
558.000000
20
662.000000
0
VERTEX
8
0
10
560.846154
20
659.769231
0
VERTEX
8
0
10
568.000000
20
656.000000
0
VERTEX
8
0
10
570.000000
20
656.000000
0
VERTEX
8
0
10
572.000000
20
658.000000
0
VERTEX
8
0
10
572.000000
20
661.000000
0
VERTEX
8
0
10
571.000000
20
662.000000
0
VERTEX
8
0
10
571.000000
20
666.000000
0
VERTEX
8
0
10
572.200000
20
667.900000
0
VERTEX
8
0
10
573.000000
20
670.000000
0
VERTEX
8
0
10
575.900000
20
671.300000
0
VERTEX
8
0
10
580.000000
20
672.000000
0
VERTEX
8
0
10
584.000000
20
670.000000
0
VERTEX
8
0
10
586.000000
20
668.000000
0
VERTEX
8
0
10
589.000000
20
657.000000
0
SEQEND
0
POLYLINE
8
0
6
CONTINUOUS
66
1
62
7
10
0.0
20
0.0
30
0.000000
0
VERTEX
8
0
10
588.000000
20
655.000000
0
VERTEX
8
0
10
589.000000
20
657.000000
0
SEQEND
0
POLYLINE
8
0
6
CONTINUOUS
66
1
62
7
10
0.0
20
0.0
30
0.000000
0
VERTEX
8
0
10
344.000000
20
650.000000
0
VERTEX
8
0
10
343.000000
20
651.000000
0
SEQEND
0
POLYLINE
8
0
6
CONTINUOUS
66
1
62
7
10
0.0
20
0.0
30
0.000000
0
VERTEX
8
0
10
334.000000
20
649.000000
0
VERTEX
8
0
10
333.000000
20
649.000000
0
VERTEX
8
0
10
331.000000
20
651.000000
0
SEQEND
0
POLYLINE
8
0
6
CONTINUOUS
66
1
62
7
10
0.0
20
0.0
30
0.000000
0
VERTEX
8
0
10
337.000000
20
649.000000
0
VERTEX
8
0
10
336.000000
20
650.000000
0
VERTEX
8
0
10
334.000000
20
649.000000
0
SEQEND
0
POLYLINE
8
0
6
CONTINUOUS
66
1
62
7
10
0.0
20
0.0
30
0.000000
0
VERTEX
8
0
10
339.000000
20
649.000000
0
VERTEX
8
0
10
337.000000
20
649.000000
0
SEQEND
0
POLYLINE
8
0
6
CONTINUOUS
66
1
62
7
10
0.0
20
0.0
30
0.000000
0
VERTEX
8
0
10
339.000000
20
649.000000
0
VERTEX
8
0
10
343.000000
20
651.000000
0
SEQEND
0
POLYLINE
8
0
6
CONTINUOUS
66
1
62
7
10
0.0
20
0.0
30
0.000000
0
VERTEX
8
0
10
336.000000
20
648.000000
0
VERTEX
8
0
10
334.000000
20
649.000000
0
SEQEND
0
POLYLINE
8
0
6
CONTINUOUS
66
1
62
7
10
0.0
20
0.0
30
0.000000
0
VERTEX
8
0
10
336.000000
20
648.000000
0
VERTEX
8
0
10
337.000000
20
649.000000
0
SEQEND
0
POLYLINE
8
0
6
CONTINUOUS
66
1
62
7
10
0.0
20
0.0
30
0.000000
0
VERTEX
8
0
10
340.000000
20
648.000000
0
VERTEX
8
0
10
339.000000
20
649.000000
0
SEQEND
0
POLYLINE
8
0
6
CONTINUOUS
66
1
62
7
10
0.0
20
0.0
30
0.000000
0
VERTEX
8
0
10
340.000000
20
648.000000
0
VERTEX
8
0
10
342.000000
20
648.000000
0
VERTEX
8
0
10
344.000000
20
650.000000
0
SEQEND
0
POLYLINE
8
0
6
CONTINUOUS
66
1
62
7
10
0.0
20
0.0
30
0.000000
0
VERTEX
8
0
10
162.000000
20
647.000000
0
VERTEX
8
0
10
166.000000
20
649.000000
0
VERTEX
8
0
10
170.200000
20
655.900000
0
VERTEX
8
0
10
171.000000
20
657.000000
0
VERTEX
8
0
10
171.000000
20
665.000000
0
VERTEX
8
0
10
170.300000
20
666.100000
0
VERTEX
8
0
10
168.000000
20
671.000000
0
VERTEX
8
0
10
165.000000
20
674.000000
0
VERTEX
8
0
10
159.900000
20
676.800000
0
VERTEX
8
0
10
159.100000
20
677.200000
0
VERTEX
8
0
10
158.000000
20
678.000000
0
VERTEX
8
0
10
150.000000
20
678.000000
0
VERTEX
8
0
10
144.000000
20
676.000000
0
VERTEX
8
0
10
137.000000
20
669.000000
0
VERTEX
8
0
10
135.200000
20
664.900000
0
VERTEX
8
0
10
134.800000
20
664.100000
0
VERTEX
8
0
10
134.000000
20
663.000000
0
VERTEX
8
0
10
134.000000
20
654.000000
0
VERTEX
8
0
10
137.000000
20
648.000000
0
VERTEX
8
0
10
138.615385
20
652.076923
0
VERTEX
8
0
10
139.384615
20
655.923077
0
VERTEX
8
0
10
142.000000
20
661.000000
0
VERTEX
8
0
10
144.000000
20
662.000000
0
VERTEX
8
0
10
150.000000
20
662.000000
0
VERTEX
8
0
10
153.000000
20
661.000000
0
VERTEX
8
0
10
154.200000
20
659.100000
0
VERTEX
8
0
10
155.000000
20
648.000000
0
VERTEX
8
0
10
156.000000
20
647.000000
0
VERTEX
8
0
10
162.000000
20
647.000000
0
SEQEND
0
POLYLINE
8
0
6
CONTINUOUS
66
1
62
7
10
0.0
20
0.0
30
0.000000
0
VERTEX
8
0
10
336.000000
20
648.000000
0
VERTEX
8
0
10
337.000000
20
647.000000
0
VERTEX
8
0
10
339.000000
20
647.000000
0
VERTEX
8
0
10
340.000000
20
648.000000
0
SEQEND
0
POLYLINE
8
0
6
CONTINUOUS
66
1
62
7
10
0.0
20
0.0
30
0.000000
0
VERTEX
8
0
10
371.000000
20
643.000000
0
VERTEX
8
0
10
368.000000
20
649.000000
0
VERTEX
8
0
10
364.000000
20
653.000000
0
VERTEX
8
0
10
358.000000
20
645.000000
0
VERTEX
8
0
10
362.044554
20
643.445545
0
VERTEX
8
0
10
371.000000
20
643.000000
0
SEQEND
0
POLYLINE
8
0
6
CONTINUOUS
66
1
62
7
10
0.0
20
0.0
30
0.000000
0
VERTEX
8
0
10
496.000000
20
631.000000
0
VERTEX
8
0
10
498.000000
20
632.000000
0
SEQEND
0
POLYLINE
8
0
6
CONTINUOUS
66
1
62
7
10
0.0
20
0.0
30
0.000000
0
VERTEX
8
0
10
516.000000
20
631.000000
0
VERTEX
8
0
10
514.000000
20
631.000000
0
SEQEND
0
POLYLINE
8
0
6
CONTINUOUS
66
1
62
7
10
0.0
20
0.0
30
0.000000
0
VERTEX
8
0
10
516.000000
20
631.000000
0
VERTEX
8
0
10
516.000000
20
632.000000
0
VERTEX
8
0
10
518.000000
20
634.000000
0
VERTEX
8
0
10
519.000000
20
634.000000
0
VERTEX
8
0
10
521.000000
20
636.000000
0
VERTEX
8
0
10
522.000000
20
640.000000
0
VERTEX
8
0
10
521.300000
20
641.100000
0
VERTEX
8
0
10
521.000000
20
643.000000
0
VERTEX
8
0
10
516.000000
20
648.000000
0
VERTEX
8
0
10
510.000000
20
648.000000
0
VERTEX
8
0
10
505.000000
20
645.000000
0
VERTEX
8
0
10
503.000000
20
643.000000
0
VERTEX
8
0
10
498.000000
20
632.000000
0
SEQEND
0
POLYLINE
8
0
6
CONTINUOUS
66
1
62
7
10
0.0
20
0.0
30
0.000000
0
VERTEX
8
0
10
496.000000
20
631.000000
0
VERTEX
8
0
10
497.000000
20
630.000000
0
VERTEX
8
0
10
499.000000
20
631.000000
0
VERTEX
8
0
10
498.000000
20
632.000000
0
SEQEND
0
POLYLINE
8
0
6
CONTINUOUS
66
1
62
7
10
0.0
20
0.0
30
0.000000
0
VERTEX
8
0
10
215.000000
20
626.000000
0
VERTEX
8
0
10
210.000000
20
629.000000
0
VERTEX
8
0
10
209.000000
20
635.000000
0
VERTEX
8
0
10
210.000000
20
638.000000
0
VERTEX
8
0
10
211.900000
20
639.200000
0
VERTEX
8
0
10
213.000000
20
640.000000
0
VERTEX
8
0
10
219.000000
20
640.000000
0
VERTEX
8
0
10
232.100000
20
631.800000
0
VERTEX
8
0
10
266.820000
20
660.240000
0
VERTEX
8
0
10
283.900000
20
670.200000
0
VERTEX
8
0
10
291.900000
20
674.200000
0
VERTEX
8
0
10
308.100000
20
681.700000
0
VERTEX
8
0
10
309.900000
20
682.300000
0
VERTEX
8
0
10
323.000000
20
686.000000
0
VERTEX
8
0
10
337.000000
20
686.000000
0
VERTEX
8
0
10
348.900000
20
681.800000
0
VERTEX
8
0
10
353.820000
20
678.760000
0
VERTEX
8
0
10
363.000000
20
671.000000
0
VERTEX
8
0
10
377.195122
20
682.756098
0
VERTEX
8
0
10
382.088235
20
685.647059
0
VERTEX
8
0
10
384.911765
20
686.352941
0
VERTEX
8
0
10
390.000000
20
688.000000
0
VERTEX
8
0
10
399.000000
20
688.000000
0
VERTEX
8
0
10
406.946154
20
686.569231
0
VERTEX
8
0
10
414.911765
20
684.647059
0
VERTEX
8
0
10
441.900000
20
671.800000
0
VERTEX
8
0
10
495.100000
20
631.200000
0
VERTEX
8
0
10
496.000000
20
631.000000
0
SEQEND
0
POLYLINE
8
0
6
CONTINUOUS
66
1
62
7
10
0.0
20
0.0
30
0.000000
0
VERTEX
8
0
10
217.000000
20
626.000000
0
VERTEX
8
0
10
215.000000
20
626.000000
0
SEQEND
0
POLYLINE
8
0
6
CONTINUOUS
66
1
62
7
10
0.0
20
0.0
30
0.000000
0
VERTEX
8
0
10
520.000000
20
619.000000
0
VERTEX
8
0
10
518.000000
20
620.000000
0
SEQEND
0
POLYLINE
8
0
6
CONTINUOUS
66
1
62
7
10
0.0
20
0.0
30
0.000000
0
VERTEX
8
0
10
492.000000
20
618.000000
0
VERTEX
8
0
10
493.000000
20
619.000000
0
VERTEX
8
0
10
459.195122
20
649.243902
0
VERTEX
8
0
10
454.804878
20
652.756098
0
VERTEX
8
0
10
433.846154
20
665.769231
0
VERTEX
8
0
10
423.900000
20
670.800000
0
VERTEX
8
0
10
412.911765
20
673.647059
0
VERTEX
8
0
10
410.088235
20
674.352941
0
VERTEX
8
0
10
404.000000
20
676.000000
0
VERTEX
8
0
10
398.000000
20
676.000000
0
VERTEX
8
0
10
385.100000
20
671.800000
0
VERTEX
8
0
10
381.000000
20
670.000000
0
VERTEX
8
0
10
379.800000
20
668.100000
0
VERTEX
8
0
10
378.000000
20
663.000000
0
VERTEX
8
0
10
378.647059
20
657.911765
0
VERTEX
8
0
10
379.000000
20
655.000000
0
VERTEX
8
0
10
383.000000
20
651.000000
0
VERTEX
8
0
10
385.100000
20
650.200000
0
VERTEX
8
0
10
387.000000
20
649.000000
0
VERTEX
8
0
10
394.000000
20
650.000000
0
VERTEX
8
0
10
395.000000
20
651.000000
0
VERTEX
8
0
10
394.000000
20
652.000000
0
VERTEX
8
0
10
384.900000
20
652.800000
0
VERTEX
8
0
10
384.000000
20
653.000000
0
VERTEX
8
0
10
381.000000
20
657.000000
0
VERTEX
8
0
10
381.000000
20
663.000000
0
VERTEX
8
0
10
386.000000
20
669.000000
0
VERTEX
8
0
10
390.000000
20
670.000000
0
VERTEX
8
0
10
396.088235
20
669.352941
0
VERTEX
8
0
10
400.100000
20
668.300000
0
VERTEX
8
0
10
402.000000
20
668.000000
0
VERTEX
8
0
10
404.000000
20
666.000000
0
VERTEX
8
0
10
408.000000
20
658.000000
0
VERTEX
8
0
10
408.000000
20
653.000000
0
VERTEX
8
0
10
406.647059
20
649.088235
0
VERTEX
8
0
10
404.000000
20
642.000000
0
VERTEX
8
0
10
452.911765
20
631.647059
0
VERTEX
8
0
10
492.000000
20
618.000000
0
SEQEND
0
POLYLINE
8
0
6
CONTINUOUS
66
1
62
7
10
0.0
20
0.0
30
0.000000
0
VERTEX
8
0
10
344.000000
20
650.000000
0
VERTEX
8
0
10
345.000000
20
650.000000
0
VERTEX
8
0
10
347.230769
20
652.846154
0
VERTEX
8
0
10
348.600000
20
655.200000
0
VERTEX
8
0
10
350.000000
20
660.000000
0
VERTEX
8
0
10
349.200000
20
661.100000
0
VERTEX
8
0
10
348.000000
20
664.000000
0
VERTEX
8
0
10
342.000000
20
670.000000
0
VERTEX
8
0
10
339.900000
20
670.800000
0
VERTEX
8
0
10
339.100000
20
671.200000
0
VERTEX
8
0
10
335.000000
20
673.000000
0
VERTEX
8
0
10
323.000000
20
673.000000
0
VERTEX
8
0
10
318.076923
20
671.615385
0
VERTEX
8
0
10
310.900000
20
669.300000
0
VERTEX
8
0
10
297.153846
20
662.769231
0
VERTEX
8
0
10
286.820000
20
656.240000
0
VERTEX
8
0
10
257.204918
20
632.754098
0
VERTEX
8
0
10
251.216814
20
627.752212
0
VERTEX
8
0
10
238.000000
20
616.000000
0
VERTEX
8
0
10
238.250000
20
614.250000
0
VERTEX
8
0
10
272.900000
20
626.300000
0
VERTEX
8
0
10
277.100000
20
627.700000
0
VERTEX
8
0
10
320.000000
20
639.000000
0
VERTEX
8
0
10
322.000000
20
641.000000
0
VERTEX
8
0
10
321.384615
20
643.076923
0
VERTEX
8
0
10
318.000000
20
654.000000
0
VERTEX
8
0
10
320.800000
20
660.100000
0
VERTEX
8
0
10
322.000000
20
663.000000
0
VERTEX
8
0
10
325.000000
20
666.000000
0
VERTEX
8
0
10
329.088235
20
667.647059
0
VERTEX
8
0
10
336.000000
20
669.000000
0
VERTEX
8
0
10
337.100000
20
668.300000
0
VERTEX
8
0
10
341.000000
20
667.000000
0
VERTEX
8
0
10
345.000000
20
663.000000
0
VERTEX
8
0
10
346.000000
20
657.000000
0
VERTEX
8
0
10
343.000000
20
651.000000
0
SEQEND
0
POLYLINE
8
0
6
CONTINUOUS
66
1
62
7
10
0.0
20
0.0
30
0.000000
0
VERTEX
8
0
10
520.000000
20
619.000000
0
VERTEX
8
0
10
523.180000
20
616.240000
0
VERTEX
8
0
10
532.153846
20
610.230769
0
VERTEX
8
0
10
550.900000
20
599.800000
0
VERTEX
8
0
10
560.000000
20
598.000000
0
VERTEX
8
0
10
568.067568
20
598.594595
0
VERTEX
8
0
10
574.100000
20
599.700000
0
VERTEX
8
0
10
585.000000
20
605.000000
0
VERTEX
8
0
10
591.000000
20
611.000000
0
VERTEX
8
0
10
592.000000
20
615.000000
0
VERTEX
8
0
10
592.000000
20
619.000000
0
VERTEX
8
0
10
588.760000
20
626.820000
0
VERTEX
8
0
10
584.000000
20
633.000000
0
VERTEX
8
0
10
574.000000
20
638.000000
0
VERTEX
8
0
10
570.000000
20
638.000000
0
VERTEX
8
0
10
564.153846
20
635.769231
0
VERTEX
8
0
10
558.000000
20
631.000000
0
VERTEX
8
0
10
556.000000
20
620.000000
0
VERTEX
8
0
10
557.300000
20
617.100000
0
VERTEX
8
0
10
557.800000
20
615.900000
0
VERTEX
8
0
10
562.000000
20
609.000000
0
VERTEX
8
0
10
566.000000
20
609.000000
0
VERTEX
8
0
10
567.000000
20
610.000000
0
VERTEX
8
0
10
565.000000
20
611.000000
0
VERTEX
8
0
10
562.000000
20
614.000000
0
VERTEX
8
0
10
563.000000
20
620.000000
0
VERTEX
8
0
10
565.846154
20
622.230769
0
VERTEX
8
0
10
568.000000
20
624.000000
0
VERTEX
8
0
10
572.088235
20
623.352941
0
VERTEX
8
0
10
575.000000
20
623.000000
0
VERTEX
8
0
10
578.000000
20
620.000000
0
VERTEX
8
0
10
579.000000
20
617.000000
0
VERTEX
8
0
10
579.000000
20
613.000000
0
VERTEX
8
0
10
575.000000
20
605.000000
0
VERTEX
8
0
10
565.000000
20
601.000000
0
VERTEX
8
0
10
560.900000
20
601.700000
0
VERTEX
8
0
10
551.000000
20
606.000000
0
VERTEX
8
0
10
546.240000
20
612.180000
0
VERTEX
8
0
10
544.352941
20
616.088235
0
VERTEX
8
0
10
543.000000
20
622.000000
0
VERTEX
8
0
10
541.000000
20
624.000000
0
VERTEX
8
0
10
530.932432
20
621.405405
0
VERTEX
8
0
10
520.000000
20
619.000000
0
SEQEND
0
POLYLINE
8
0
6
CONTINUOUS
66
1
62
7
10
0.0
20
0.0
30
0.000000
0
VERTEX
8
0
10
165.000000
20
589.000000
0
VERTEX
8
0
10
184.900000
20
594.200000
0
VERTEX
8
0
10
199.804878
20
603.243902
0
VERTEX
8
0
10
209.000000
20
611.000000
0
VERTEX
8
0
10
207.000000
20
613.000000
0
VERTEX
8
0
10
200.932432
20
613.594595
0
VERTEX
8
0
10
190.000000
20
616.000000
0
VERTEX
8
0
10
188.000000
20
616.000000
0
VERTEX
8
0
10
186.352941
20
611.911765
0
VERTEX
8
0
10
182.000000
20
601.000000
0
VERTEX
8
0
10
175.820000
20
596.240000
0
VERTEX
8
0
10
170.911765
20
594.352941
0
VERTEX
8
0
10
168.088235
20
593.647059
0
VERTEX
8
0
10
163.000000
20
593.000000
0
VERTEX
8
0
10
161.911765
20
593.647059
0
VERTEX
8
0
10
154.000000
20
597.000000
0
VERTEX
8
0
10
151.000000
20
604.000000
0
VERTEX
8
0
10
151.700000
20
608.100000
0
VERTEX
8
0
10
152.300000
20
609.900000
0
VERTEX
8
0
10
154.000000
20
613.000000
0
VERTEX
8
0
10
156.100000
20
613.700000
0
VERTEX
8
0
10
161.000000
20
615.000000
0
VERTEX
8
0
10
167.000000
20
611.000000
0
VERTEX
8
0
10
167.000000
20
604.000000
0
VERTEX
8
0
10
168.000000
20
603.000000
0
VERTEX
8
0
10
172.000000
20
607.000000
0
VERTEX
8
0
10
174.000000
20
612.000000
0
VERTEX
8
0
10
171.800000
20
619.900000
0
VERTEX
8
0
10
166.000000
20
628.000000
0
VERTEX
8
0
10
160.000000
20
630.000000
0
VERTEX
8
0
10
157.000000
20
630.000000
0
VERTEX
8
0
10
151.100000
20
627.700000
0
VERTEX
8
0
10
149.900000
20
627.200000
0
VERTEX
8
0
10
145.000000
20
624.000000
0
VERTEX
8
0
10
139.000000
20
618.000000
0
VERTEX
8
0
10
137.000000
20
613.000000
0
VERTEX
8
0
10
137.000000
20
608.000000
0
VERTEX
8
0
10
138.300000
20
605.100000
0
VERTEX
8
0
10
138.800000
20
603.900000
0
VERTEX
8
0
10
143.000000
20
599.000000
0
VERTEX
8
0
10
154.900000
20
590.800000
0
VERTEX
8
0
10
165.000000
20
589.000000
0
SEQEND
0
POLYLINE
8
0
6
CONTINUOUS
66
1
62
7
10
0.0
20
0.0
30
0.000000
0
VERTEX
8
0
10
553.000000
20
584.000000
0
VERTEX
8
0
10
551.000000
20
585.000000
0
SEQEND
0
POLYLINE
8
0
6
CONTINUOUS
66
1
62
7
10
0.0
20
0.0
30
0.000000
0
VERTEX
8
0
10
553.000000
20
584.000000
0
VERTEX
8
0
10
567.180000
20
573.240000
0
VERTEX
8
0
10
579.000000
20
563.000000
0
VERTEX
8
0
10
581.000000
20
565.000000
0
VERTEX
8
0
10
581.000000
20
585.000000
0
VERTEX
8
0
10
580.000000
20
586.000000
0
VERTEX
8
0
10
567.969027
20
585.464602
0
VERTEX
8
0
10
553.000000
20
584.000000
0
SEQEND
0
POLYLINE
8
0
6
CONTINUOUS
66
1
62
7
10
0.0
20
0.0
30
0.000000
0
VERTEX
8
0
10
150.000000
20
551.000000
0
VERTEX
8
0
10
177.000000
20
575.000000
0
VERTEX
8
0
10
176.000000
20
576.000000
0
VERTEX
8
0
10
149.250000
20
576.750000
0
VERTEX
8
0
10
150.000000
20
568.000000
0
VERTEX
8
0
10
150.000000
20
559.000000
0
VERTEX
8
0
10
149.000000
20
558.000000
0
VERTEX
8
0
10
149.000000
20
552.000000
0
VERTEX
8
0
10
150.000000
20
551.000000
0
SEQEND
0
POLYLINE
8
0
6
CONTINUOUS
66
1
62
7
10
0.0
20
0.0
30
0.000000
0
VERTEX
8
0
10
123.000000
20
521.000000
0
VERTEX
8
0
10
124.000000
20
522.000000
0
SEQEND
0
POLYLINE
8
0
6
CONTINUOUS
66
1
62
7
10
0.0
20
0.0
30
0.000000
0
VERTEX
8
0
10
629.000000
20
505.000000
0
VERTEX
8
0
10
630.846154
20
506.230769
0
VERTEX
8
0
10
635.060000
20
508.580000
0
VERTEX
8
0
10
641.750000
20
509.250000
0
VERTEX
8
0
10
641.800000
20
510.900000
0
VERTEX
8
0
10
641.200000
20
512.100000
0
VERTEX
8
0
10
635.000000
20
521.000000
0
VERTEX
8
0
10
612.900000
20
530.700000
0
VERTEX
8
0
10
610.000000
20
532.000000
0
VERTEX
8
0
10
608.000000
20
531.000000
0
VERTEX
8
0
10
614.752212
20
523.783186
0
VERTEX
8
0
10
624.200000
20
512.100000
0
VERTEX
8
0
10
629.000000
20
505.000000
0
SEQEND
0
POLYLINE
8
0
6
CONTINUOUS
66
1
62
7
10
0.0
20
0.0
30
0.000000
0
VERTEX
8
0
10
123.000000
20
521.000000
0
VERTEX
8
0
10
122.000000
20
521.000000
0
VERTEX
8
0
10
114.900000
20
519.200000
0
VERTEX
8
0
10
99.000000
20
511.000000
0
VERTEX
8
0
10
95.000000
20
507.000000
0
VERTEX
8
0
10
92.200000
20
501.900000
0
VERTEX
8
0
10
91.000000
20
498.000000
0
VERTEX
8
0
10
92.000000
20
497.000000
0
VERTEX
8
0
10
96.932432
20
496.594595
0
VERTEX
8
0
10
99.692308
20
495.538462
0
VERTEX
8
0
10
104.000000
20
492.000000
0
VERTEX
8
0
10
120.200000
20
515.900000
0
VERTEX
8
0
10
123.000000
20
521.000000
0
SEQEND
0
POLYLINE
8
0
6
CONTINUOUS
66
1
62
7
10
0.0
20
0.0
30
0.000000
0
VERTEX
8
0
10
370.000000
20
70.000000
0
VERTEX
8
0
10
387.973846
20
71.470769
0
VERTEX
8
0
10
416.932432
20
75.405405
0
VERTEX
8
0
10
422.932432
20
76.405405
0
VERTEX
8
0
10
441.100000
20
80.700000
0
VERTEX
8
0
10
462.911765
20
87.352941
0
VERTEX
8
0
10
483.900000
20
97.200000
0
VERTEX
8
0
10
497.100000
20
103.800000
0
VERTEX
8
0
10
507.180000
20
109.760000
0
VERTEX
8
0
10
528.153846
20
124.769231
0
VERTEX
8
0
10
559.000000
20
151.000000
0
VERTEX
8
0
10
565.000000
20
157.000000
0
VERTEX
8
0
10
584.760000
20
183.180000
0
VERTEX
8
0
10
593.800000
20
198.100000
0
VERTEX
8
0
10
601.769231
20
212.153846
0
VERTEX
8
0
10
608.700000
20
227.100000
0
VERTEX
8
0
10
615.300000
20
244.900000
0
VERTEX
8
0
10
620.647059
20
262.088235
0
VERTEX
8
0
10
627.420000
20
293.940000
0
VERTEX
8
0
10
631.000000
20
320.000000
0
VERTEX
8
0
10
629.531034
20
348.972414
0
VERTEX
8
0
10
625.405405
20
379.067568
0
VERTEX
8
0
10
623.594595
20
389.932432
0
VERTEX
8
0
10
619.647059
20
404.911765
0
VERTEX
8
0
10
612.700000
20
426.900000
0
VERTEX
8
0
10
603.800000
20
445.900000
0
VERTEX
8
0
10
597.200000
20
459.100000
0
VERTEX
8
0
10
590.769231
20
469.846154
0
VERTEX
8
0
10
572.750520
20
494.766112
0
VERTEX
8
0
10
543.000000
20
526.000000
0
VERTEX
8
0
10
517.804878
20
545.756098
0
VERTEX
8
0
10
497.846154
20
557.769231
0
VERTEX
8
0
10
488.100000
20
563.200000
0
VERTEX
8
0
10
463.100000
20
574.200000
0
VERTEX
8
0
10
448.900000
20
579.800000
0
VERTEX
8
0
10
425.923077
20
585.615385
0
VERTEX
8
0
10
418.088235
20
587.352941
0
VERTEX
8
0
10
404.959016
20
589.549180
0
VERTEX
8
0
10
383.037931
20
591.455172
0
VERTEX
8
0
10
360.000000
20
592.000000
0
VERTEX
8
0
10
340.023691
20
590.526185
0
VERTEX
8
0
10
316.067568
20
586.594595
0
VERTEX
8
0
10
310.067568
20
585.594595
0
VERTEX
8
0
10
291.100000
20
579.700000
0
VERTEX
8
0
10
274.100000
20
573.700000
0
VERTEX
8
0
10
253.100000
20
563.800000
0
VERTEX
8
0
10
239.900000
20
557.200000
0
VERTEX
8
0
10
229.180000
20
550.760000
0
VERTEX
8
0
10
206.232779
20
534.750594
0
VERTEX
8
0
10
175.000000
20
505.000000
0
VERTEX
8
0
10
154.243902
20
478.804878
0
VERTEX
8
0
10
144.200000
20
461.900000
0
VERTEX
8
0
10
138.200000
20
450.900000
0
VERTEX
8
0
10
126.300000
20
423.900000
0
VERTEX
8
0
10
121.200000
20
410.900000
0
VERTEX
8
0
10
114.352941
20
382.911765
0
VERTEX
8
0
10
112.647059
20
376.088235
0
VERTEX
8
0
10
110.549180
20
357.040984
0
VERTEX
8
0
10
109.000000
20
344.000000
0
VERTEX
8
0
10
109.526185
20
320.976309
0
VERTEX
8
0
10
110.473815
20
302.023691
0
VERTEX
8
0
10
115.405405
20
272.067568
0
VERTEX
8
0
10
122.300000
20
250.100000
0
VERTEX
8
0
10
127.300000
20
235.100000
0
VERTEX
8
0
10
138.200000
20
212.100000
0
VERTEX
8
0
10
142.200000
20
204.100000
0
VERTEX
8
0
10
161.240000
20
175.180000
0
VERTEX
8
0
10
163.760000
20
171.820000
0
VERTEX
8
0
10
174.249315
20
159.231507
0
VERTEX
8
0
10
186.750685
20
145.768493
0
VERTEX
8
0
10
196.820000
20
135.760000
0
VERTEX
8
0
10
222.180000
20
116.240000
0
VERTEX
8
0
10
242.100000
20
104.200000
0
VERTEX
8
0
10
254.100000
20
97.200000
0
VERTEX
8
0
10
276.100000
20
88.300000
0
VERTEX
8
0
10
287.900000
20
83.800000
0
VERTEX
8
0
10
323.088235
20
74.352941
0
VERTEX
8
0
10
325.911765
20
73.647059
0
VERTEX
8
0
10
357.032995
20
70.461929
0
VERTEX
8
0
10
370.000000
20
70.000000
0
SEQEND
0
POLYLINE
8
0
6
CONTINUOUS
66
1
62
7
10
0.0
20
0.0
30
0.000000
0
VERTEX
8
0
10
380.000000
20
49.000000
0
VERTEX
8
0
10
400.977376
20
50.475113
0
VERTEX
8
0
10
427.923077
20
55.384615
0
VERTEX
8
0
10
433.932432
20
56.405405
0
VERTEX
8
0
10
447.900000
20
60.300000
0
VERTEX
8
0
10
470.911765
20
67.352941
0
VERTEX
8
0
10
497.900000
20
80.200000
0
VERTEX
8
0
10
507.900000
20
85.200000
0
VERTEX
8
0
10
530.846154
20
100.230769
0
VERTEX
8
0
10
546.779310
20
111.248276
0
VERTEX
8
0
10
581.000000
20
143.000000
0
VERTEX
8
0
10
602.756098
20
171.195122
0
VERTEX
8
0
10
613.800000
20
190.100000
0
VERTEX
8
0
10
620.200000
20
201.900000
0
VERTEX
8
0
10
630.700000
20
225.100000
0
VERTEX
8
0
10
638.300000
20
243.900000
0
VERTEX
8
0
10
642.615385
20
260.076923
0
VERTEX
8
0
10
644.384615
20
268.923077
0
VERTEX
8
0
10
648.560976
20
291.048780
0
VERTEX
8
0
10
650.445545
20
308.955446
0
VERTEX
8
0
10
652.000000
20
319.000000
0
VERTEX
8
0
10
652.000000
20
341.000000
0
VERTEX
8
0
10
650.524887
20
361.977376
0
VERTEX
8
0
10
645.615385
20
389.923077
0
VERTEX
8
0
10
644.594595
20
395.932432
0
VERTEX
8
0
10
640.700000
20
408.900000
0
VERTEX
8
0
10
633.300000
20
430.100000
0
VERTEX
8
0
10
621.200000
20
458.100000
0
VERTEX
8
0
10
614.800000
20
470.900000
0
VERTEX
8
0
10
604.760000
20
486.820000
0
VERTEX
8
0
10
589.751724
20
507.779310
0
VERTEX
8
0
10
558.000000
20
542.000000
0
VERTEX
8
0
10
528.820000
20
563.760000
0
VERTEX
8
0
10
510.900000
20
574.800000
0
VERTEX
8
0
10
493.900000
20
584.800000
0
VERTEX
8
0
10
474.900000
20
592.700000
0
VERTEX
8
0
10
455.900000
20
599.800000
0
VERTEX
8
0
10
428.911765
20
606.647059
0
VERTEX
8
0
10
422.088235
20
608.352941
0
VERTEX
8
0
10
400.955446
20
611.554455
0
VERTEX
8
0
10
383.048780
20
613.439024
0
VERTEX
8
0
10
369.000000
20
614.000000
0
VERTEX
8
0
10
337.035294
20
611.541176
0
VERTEX
8
0
10
318.060000
20
608.580000
0
VERTEX
8
0
10
306.067568
20
606.594595
0
VERTEX
8
0
10
289.100000
20
601.700000
0
VERTEX
8
0
10
270.900000
20
595.300000
0
VERTEX
8
0
10
242.900000
20
583.200000
0
VERTEX
8
0
10
230.100000
20
576.800000
0
VERTEX
8
0
10
214.180000
20
566.760000
0
VERTEX
8
0
10
193.234862
20
551.750459
0
VERTEX
8
0
10
159.000000
20
519.000000
0
VERTEX
8
0
10
137.243902
20
490.804878
0
VERTEX
8
0
10
123.200000
20
467.900000
0
VERTEX
8
0
10
115.800000
20
455.100000
0
VERTEX
8
0
10
106.700000
20
432.100000
0
VERTEX
8
0
10
101.800000
20
419.100000
0
VERTEX
8
0
10
91.647059
20
379.088235
0
VERTEX
8
0
10
87.000000
20
343.000000
0
VERTEX
8
0
10
87.000000
20
330.000000
0
VERTEX
8
0
10
90.594595
20
291.932432
0
VERTEX
8
0
10
94.615385
20
266.923077
0
VERTEX
8
0
10
103.700000
20
237.900000
0
VERTEX
8
0
10
107.300000
20
227.100000
0
VERTEX
8
0
10
123.200000
20
194.100000
0
VERTEX
8
0
10
125.800000
20
188.900000
0
VERTEX
8
0
10
149.248276
20
154.220690
0
VERTEX
8
0
10
181.000000
20
120.000000
0
VERTEX
8
0
10
193.180000
20
111.240000
0
VERTEX
8
0
10
210.180000
20
98.240000
0
VERTEX
8
0
10
234.900000
20
83.800000
0
VERTEX
8
0
10
245.100000
20
78.200000
0
VERTEX
8
0
10
271.100000
20
67.300000
0
VERTEX
8
0
10
282.900000
20
62.700000
0
VERTEX
8
0
10
321.911765
20
52.647059
0
VERTEX
8
0
10
356.019169
20
49.479233
0
VERTEX
8
0
10
380.000000
20
49.000000
0
SEQEND
0
POLYLINE
8
0
6
CONTINUOUS
66
1
62
7
10
0.0
20
0.0
30
0.000000
0
VERTEX
8
0
10
215.000000
20
626.000000
0
VERTEX
8
0
10
211.000000
20
623.000000
0
VERTEX
8
0
10
206.932432
20
623.594595
0
VERTEX
8
0
10
200.100000
20
625.200000
0
VERTEX
8
0
10
186.846154
20
631.769231
0
VERTEX
8
0
10
175.000000
20
640.000000
0
VERTEX
8
0
10
176.647059
20
646.088235
0
VERTEX
8
0
10
178.352941
20
652.911765
0
VERTEX
8
0
10
180.000000
20
658.000000
0
VERTEX
8
0
10
180.000000
20
664.000000
0
VERTEX
8
0
10
178.580000
20
670.940000
0
VERTEX
8
0
10
178.200000
20
672.100000
0
VERTEX
8
0
10
175.000000
20
679.000000
0
VERTEX
8
0
10
173.000000
20
681.000000
0
VERTEX
8
0
10
162.911765
20
686.647059
0
VERTEX
8
0
10
160.088235
20
687.352941
0
VERTEX
8
0
10
154.000000
20
688.000000
0
VERTEX
8
0
10
148.067568
20
686.594595
0
VERTEX
8
0
10
136.900000
20
683.200000
0
VERTEX
8
0
10
134.000000
20
682.000000
0
VERTEX
8
0
10
131.760000
20
679.180000
0
VERTEX
8
0
10
127.230769
20
672.846154
0
VERTEX
8
0
10
124.000000
20
663.000000
0
VERTEX
8
0
10
124.000000
20
658.000000
0
VERTEX
8
0
10
125.405405
20
652.067568
0
VERTEX
8
0
10
128.200000
20
645.100000
0
VERTEX
8
0
10
134.793103
20
633.517241
0
VERTEX
8
0
10
131.245902
20
627.795082
0
VERTEX
8
0
10
125.700000
20
619.100000
0
VERTEX
8
0
10
124.000000
20
614.000000
0
VERTEX
8
0
10
124.000000
20
600.000000
0
VERTEX
8
0
10
125.200000
20
598.100000
0
VERTEX
8
0
10
127.300000
20
592.100000
0
VERTEX
8
0
10
133.580000
20
575.940000
0
VERTEX
8
0
10
134.420000
20
570.060000
0
VERTEX
8
0
10
135.000000
20
562.000000
0
VERTEX
8
0
10
133.647059
20
558.088235
0
VERTEX
8
0
10
132.352941
20
552.911765
0
VERTEX
8
0
10
127.000000
20
540.000000
0
VERTEX
8
0
10
118.804878
20
533.243902
0
VERTEX
8
0
10
113.900000
20
531.300000
0
VERTEX
8
0
10
111.000000
20
530.000000
0
VERTEX
8
0
10
107.900000
20
530.700000
0
VERTEX
8
0
10
104.900000
20
531.800000
0
VERTEX
8
0
10
99.000000
20
537.000000
0
VERTEX
8
0
10
100.000000
20
538.000000
0
VERTEX
8
0
10
106.000000
20
537.000000
0
VERTEX
8
0
10
109.000000
20
538.000000
0
VERTEX
8
0
10
112.000000
20
541.000000
0
VERTEX
8
0
10
113.000000
20
544.000000
0
VERTEX
8
0
10
112.300000
20
548.100000
0
VERTEX
8
0
10
111.700000
20
549.900000
0
VERTEX
8
0
10
110.000000
20
553.000000
0
VERTEX
8
0
10
109.100000
20
553.200000
0
VERTEX
8
0
10
108.000000
20
554.000000
0
VERTEX
8
0
10
102.000000
20
554.000000
0
VERTEX
8
0
10
97.000000
20
552.000000
0
VERTEX
8
0
10
90.000000
20
545.000000
0
VERTEX
8
0
10
89.000000
20
537.000000
0
VERTEX
8
0
10
90.800000
20
531.900000
0
VERTEX
8
0
10
95.000000
20
525.000000
0
VERTEX
8
0
10
89.000000
20
520.000000
0
VERTEX
8
0
10
82.200000
20
509.900000
0
VERTEX
8
0
10
81.800000
20
509.100000
0
VERTEX
8
0
10
78.000000
20
500.000000
0
VERTEX
8
0
10
78.000000
20
490.000000
0
VERTEX
8
0
10
78.700000
20
488.900000
0
VERTEX
8
0
10
80.000000
20
485.000000
0
VERTEX
8
0
10
84.000000
20
481.000000
0
VERTEX
8
0
10
93.000000
20
478.000000
0
VERTEX
8
0
10
94.000000
20
477.000000
0
VERTEX
8
0
10
89.300000
20
461.900000
0
VERTEX
8
0
10
84.700000
20
449.100000
0
VERTEX
8
0
10
75.352941
20
417.911765
0
VERTEX
8
0
10
73.647059
20
411.088235
0
VERTEX
8
0
10
64.594595
20
363.067568
0
VERTEX
8
0
10
63.594595
20
357.067568
0
VERTEX
8
0
10
62.000000
20
316.000000
0
VERTEX
8
0
10
73.352941
20
264.088235
0
VERTEX
8
0
10
83.800000
20
229.900000
0
VERTEX
8
0
10
89.300000
20
217.100000
0
VERTEX
8
0
10
103.230769
20
188.153846
0
VERTEX
8
0
10
109.800000
20
175.900000
0
VERTEX
8
0
10
117.760000
20
163.820000
0
VERTEX
8
0
10
121.769231
20
157.846154
0
VERTEX
8
0
10
135.247788
20
140.216814
0
VERTEX
8
0
10
141.752212
20
132.783186
0
VERTEX
8
0
10
168.779310
20
105.751724
0
VERTEX
8
0
10
177.220690
20
98.248276
0
VERTEX
8
0
10
200.846154
20
80.769231
0
VERTEX
8
0
10
207.180000
20
76.240000
0
VERTEX
8
0
10
220.100000
20
69.200000
0
VERTEX
8
0
10
222.846154
20
67.769231
0
VERTEX
8
0
10
245.100000
20
56.300000
0
VERTEX
8
0
10
265.900000
20
47.800000
0
VERTEX
8
0
10
292.900000
20
39.700000
0
VERTEX
8
0
10
296.911765
20
38.647059
0
VERTEX
8
0
10
327.053846
20
32.430769
0
VERTEX
8
0
10
335.060000
20
31.420000
0
VERTEX
8
0
10
356.923077
20
27.615385
0
VERTEX
8
0
10
358.000000
20
27.000000
0
VERTEX
8
0
10
379.000000
20
27.000000
0
VERTEX
8
0
10
426.951220
20
32.439024
0
VERTEX
8
0
10
428.076923
20
32.615385
0
VERTEX
8
0
10
460.900000
20
39.300000
0
VERTEX
8
0
10
481.900000
20
46.300000
0
VERTEX
8
0
10
519.900000
20
63.200000
0
VERTEX
8
0
10
521.100000
20
63.800000
0
VERTEX
8
0
10
531.180000
20
69.760000
0
VERTEX
8
0
10
563.783186
20
92.247788
0
VERTEX
8
0
10
583.228302
20
109.750943
0
VERTEX
8
0
10
594.249057
20
120.771698
0
VERTEX
8
0
10
611.752212
20
140.216814
0
VERTEX
8
0
10
630.769231
20
167.153846
0
VERTEX
8
0
10
641.200000
20
185.900000
0
VERTEX
8
0
10
649.700000
20
202.100000
0
VERTEX
8
0
10
658.200000
20
222.900000
0
VERTEX
8
0
10
665.647059
20
246.088235
0
VERTEX
8
0
10
668.300000
20
254.900000
0
VERTEX
8
0
10
675.384615
20
287.923077
0
VERTEX
8
0
10
677.405405
20
298.932432
0
VERTEX
8
0
10
679.000000
20
306.000000
0
VERTEX
8
0
10
679.000000
20
355.000000
0
VERTEX
8
0
10
675.569231
20
384.946154
0
VERTEX
8
0
10
670.647059
20
405.911765
0
VERTEX
8
0
10
667.647059
20
416.911765
0
VERTEX
8
0
10
652.200000
20
461.100000
0
VERTEX
8
0
10
650.800000
20
463.900000
0
VERTEX
8
0
10
640.000000
20
486.000000
0
VERTEX
8
0
10
640.000000
20
488.000000
0
VERTEX
8
0
10
641.900000
20
489.200000
0
VERTEX
8
0
10
643.100000
20
489.700000
0
VERTEX
8
0
10
647.000000
20
491.000000
0
VERTEX
8
0
10
651.760000
20
497.180000
0
VERTEX
8
0
10
655.000000
20
505.000000
0
VERTEX
8
0
10
655.000000
20
510.000000
0
VERTEX
8
0
10
653.594595
20
515.932432
0
VERTEX
8
0
10
651.800000
20
519.900000
0
VERTEX
8
0
10
650.000000
20
524.000000
0
VERTEX
8
0
10
642.153846
20
530.230769
0
VERTEX
8
0
10
637.000000
20
533.000000
0
VERTEX
8
0
10
635.000000
20
535.000000
0
VERTEX
8
0
10
639.000000
20
539.000000
0
VERTEX
8
0
10
640.000000
20
539.000000
0
VERTEX
8
0
10
642.000000
20
541.000000
0
VERTEX
8
0
10
643.000000
20
545.000000
0
VERTEX
8
0
10
642.384615
20
552.076923
0
VERTEX
8
0
10
640.000000
20
560.000000
0
VERTEX
8
0
10
633.000000
20
565.000000
0
VERTEX
8
0
10
624.000000
20
565.000000
0
VERTEX
8
0
10
622.000000
20
564.000000
0
VERTEX
8
0
10
619.000000
20
558.000000
0
VERTEX
8
0
10
620.000000
20
553.000000
0
VERTEX
8
0
10
624.000000
20
549.000000
0
VERTEX
8
0
10
631.000000
20
549.000000
0
VERTEX
8
0
10
632.000000
20
548.000000
0
VERTEX
8
0
10
630.000000
20
544.000000
0
VERTEX
8
0
10
625.000000
20
540.000000
0
VERTEX
8
0
10
620.000000
20
540.000000
0
VERTEX
8
0
10
614.000000
20
542.000000
0
VERTEX
8
0
10
603.800000
20
553.900000
0
VERTEX
8
0
10
602.800000
20
555.900000
0
VERTEX
8
0
10
598.420000
20
568.060000
0
VERTEX
8
0
10
597.000000
20
575.000000
0
VERTEX
8
0
10
597.000000
20
586.000000
0
VERTEX
8
0
10
601.300000
20
599.900000
0
VERTEX
8
0
10
606.000000
20
614.000000
0
VERTEX
8
0
10
606.000000
20
627.000000
0
VERTEX
8
0
10
602.769231
20
633.846154
0
VERTEX
8
0
10
601.230769
20
636.153846
0
VERTEX
8
0
10
595.000000
20
646.000000
0
VERTEX
8
0
10
600.300000
20
658.900000
0
VERTEX
8
0
10
603.000000
20
664.000000
0
VERTEX
8
0
10
603.000000
20
677.000000
0
VERTEX
8
0
10
598.000000
20
687.000000
0
VERTEX
8
0
10
587.100000
20
695.200000
0
VERTEX
8
0
10
584.000000
20
697.000000
0
VERTEX
8
0
10
567.000000
20
697.000000
0
VERTEX
8
0
10
565.100000
20
695.800000
0
VERTEX
8
0
10
561.100000
20
693.800000
0
VERTEX
8
0
10
552.000000
20
688.000000
0
VERTEX
8
0
10
550.769231
20
685.153846
0
VERTEX
8
0
10
547.405405
20
678.932432
0
VERTEX
8
0
10
546.594595
20
674.067568
0
VERTEX
8
0
10
546.000000
20
667.000000
0
VERTEX
8
0
10
547.300000
20
664.100000
0
VERTEX
8
0
10
547.647059
20
662.911765
0
VERTEX
8
0
10
552.000000
20
649.000000
0
VERTEX
8
0
10
546.000000
20
643.000000
0
VERTEX
8
0
10
534.846154
20
635.230769
0
VERTEX
8
0
10
534.100000
20
634.800000
0
VERTEX
8
0
10
526.959016
20
631.450820
0
VERTEX
8
0
10
516.000000
20
631.000000
0
SEQEND
0
ENDSEC
0
EOF
