  0
SECTION
  2
HEADER
  9
$ACADVER
  1
AC1009
  9
$EXTMIN
 10
1.10389172
 20
2.36417372
 30
0.0
  9
$EXTMAX
 10
18.89610828
 20
17.63582628
 30
0.0
  0
ENDSEC
  0
SECTION
  2
TABLES
  0
TABLE
  2
LAYER
 70
1
 0
LAYER
 2
Default_Layer
 70
0
 62
1
 6
CONTINUOUS
 0
ENDTAB
 0
ENDSEC
  0
SECTION
  2
ENTITIES
  0
POLYLINE
  8
Default_Layer
 66
   1
 39
0.000000
 70
    1
  0
VERTEX
  8
0
 10
18.45130287
 20
17.63582628
  0
VERTEX
  8
0
 10
18.89610828
 20
17.63582628
  0
VERTEX
  8
0
 10
18.89610828
 20
17.07240609
  0
VERTEX
  8
0
 10
18.82920231
 20
17.25014309
  0
VERTEX
  8
0
 10
18.74974486
 20
17.41532861
  0
VERTEX
  8
0
 10
18.69735053
 20
17.48525577
  0
VERTEX
  8
0
 10
18.63226777
 20
17.54249450
  0
VERTEX
  8
0
 10
18.55131305
 20
17.58386128
  0
VERTEX
  8
0
 10
18.45130287
 20
17.60617258
  0
VERTEX
  8
0
 10
18.45130287
 20
17.63582628
  0
SEQEND
  0
POLYLINE
  8
Default_Layer
 66
   1
 39
0.000000
 70
    1
  0
VERTEX
  8
0
 10
13.14329159
 20
17.48755781
  0
VERTEX
  8
0
 10
13.18321898
 20
17.48299909
  0
VERTEX
  8
0
 10
13.20259898
 20
17.45790411
  0
VERTEX
  8
0
 10
13.19572623
 20
17.28296700
  0
VERTEX
  8
0
 10
13.20684418
 20
17.12067977
  0
VERTEX
  8
0
 10
13.23515349
 20
16.97084115
  0
VERTEX
  8
0
 10
13.27985486
 20
16.83324986
  0
VERTEX
  8
0
 10
13.34014895
 20
16.70770462
  0
VERTEX
  8
0
 10
13.41523645
 20
16.59400415
  0
VERTEX
  8
0
 10
13.50431805
 20
16.49194717
  0
VERTEX
  8
0
 10
13.60659441
 20
16.40133240
  0
VERTEX
  8
0
 10
13.72126621
 20
16.32195857
  0
VERTEX
  8
0
 10
13.84753415
 20
16.25362439
  0
VERTEX
  8
0
 10
14.13166112
 20
16.14926989
  0
VERTEX
  8
0
 10
14.45258075
 20
16.08665866
  0
VERTEX
  8
0
 10
14.80389847
 20
16.06418048
  0
VERTEX
  8
0
 10
14.74825422
 20
15.80804352
  0
VERTEX
  8
0
 10
14.72205690
 20
15.67866539
  0
VERTEX
  8
0
 10
14.71493739
 20
15.53041398
  0
VERTEX
  8
0
 10
14.67283335
 20
15.53279048
  0
VERTEX
  8
0
 10
14.64397182
 20
15.54840949
  0
VERTEX
  8
0
 10
14.62835280
 20
15.57727102
  0
VERTEX
  8
0
 10
14.62597631
 20
15.61937507
  0
VERTEX
  8
0
 10
14.56443282
 20
15.59224196
  0
VERTEX
  8
0
 10
14.50083339
 20
15.57936415
  0
VERTEX
  8
0
 10
14.37073823
 20
15.58548662
  0
VERTEX
  8
0
 10
14.12186350
 20
15.64902876
  0
VERTEX
  8
0
 10
14.11771295
 20
15.69735097
  0
VERTEX
  8
0
 10
14.13184733
 20
15.72759416
  0
VERTEX
  8
0
 10
14.14840322
 20
15.75562178
  0
VERTEX
  8
0
 10
14.15151720
 20
15.79729723
  0
VERTEX
  8
0
 10
14.09755812
 20
15.79163934
  0
VERTEX
  8
0
 10
14.06989742
 20
15.75988481
  0
VERTEX
  8
0
 10
14.06255612
 20
15.64902876
  0
VERTEX
  8
0
 10
13.97403996
 20
15.67172230
  0
VERTEX
  8
0
 10
13.89700267
 20
15.70588914
  0
VERTEX
  8
0
 10
13.83602129
 20
15.75610634
  0
VERTEX
  8
0
 10
13.79567287
 20
15.82695093
  0
VERTEX
  8
0
 10
13.68151706
 20
15.86025429
  0
VERTEX
  8
0
 10
13.57352904
 20
15.90928475
  0
VERTEX
  8
0
 10
13.47248376
 20
15.97268606
  0
VERTEX
  8
0
 10
13.37915618
 20
16.04910198
  0
VERTEX
  8
0
 10
13.21875397
 20
16.23555264
  0
VERTEX
  8
0
 10
13.09852209
 20
16.45778673
  0
VERTEX
  8
0
 10
13.02466023
 20
16.70495428
  0
VERTEX
  8
0
 10
13.00336807
 20
16.96620530
  0
VERTEX
  8
0
 10
13.01437303
 20
17.09872149
  0
VERTEX
  8
0
 10
13.04084530
 20
17.23068981
  0
VERTEX
  8
0
 10
13.08355983
 20
17.36075399
  0
VERTEX
  8
0
 10
13.14329159
 20
17.48755781
  0
SEQEND
  0
POLYLINE
  8
Default_Layer
 66
   1
 39
0.000000
 70
    1
  0
VERTEX
  8
0
 10
18.56991765
 20
17.48755781
  0
VERTEX
  8
0
 10
18.65794017
 20
17.39299698
  0
VERTEX
  8
0
 10
18.72411677
 20
17.29179845
  0
VERTEX
  8
0
 10
18.76992538
 20
17.18533274
  0
VERTEX
  8
0
 10
18.79684396
 20
17.07497042
  0
VERTEX
  8
0
 10
18.80635047
 20
16.96208203
  0
VERTEX
  8
0
 10
18.79992286
 20
16.84803811
  0
VERTEX
  8
0
 10
18.74517708
 20
16.62196589
  0
VERTEX
  8
0
 10
18.64443024
 20
16.40771816
  0
VERTEX
  8
0
 10
18.50950597
 20
16.21625930
  0
VERTEX
  8
0
 10
18.35222789
 20
16.05855368
  0
VERTEX
  8
0
 10
18.18441962
 20
15.94556570
  0
VERTEX
  8
0
 10
18.09278172
 20
15.97610728
  0
VERTEX
  8
0
 10
18.01356372
 20
15.96138834
  0
VERTEX
  8
0
 10
17.94563944
 20
15.91651781
  0
VERTEX
  8
0
 10
17.88788268
 20
15.85660462
  0
VERTEX
  8
0
 10
17.75843854
 20
15.86060210
  0
VERTEX
  8
0
 10
17.71764854
 20
15.88653709
  0
VERTEX
  8
0
 10
17.70996051
 20
15.94556570
  0
VERTEX
  8
0
 10
17.68197215
 20
15.94372565
  0
VERTEX
  8
0
 10
17.66589321
 20
15.93002437
  0
VERTEX
  8
0
 10
17.65528371
 20
15.88122143
  0
VERTEX
  8
0
 10
17.64977235
 20
15.82752350
  0
VERTEX
  8
0
 10
17.62099943
 20
15.79729723
  0
VERTEX
  8
0
 10
17.56211226
 20
15.79340003
  0
VERTEX
  8
0
 10
17.52675205
 20
15.80795332
  0
VERTEX
  8
0
 10
17.49838157
 20
15.86197359
  0
VERTEX
  8
0
 10
17.47942605
 20
15.89848252
  0
VERTEX
  8
0
 10
17.41342357
 20
15.85660462
  0
VERTEX
  8
0
 10
17.39379447
 20
15.98524844
  0
VERTEX
  8
0
 10
17.38025150
 20
16.04583887
  0
VERTEX
  8
0
 10
17.35411618
 20
16.09383417
  0
VERTEX
  8
0
 10
17.61770607
 20
16.15798876
  0
VERTEX
  8
0
 10
17.87823076
 20
16.24178418
  0
VERTEX
  8
0
 10
18.12127788
 20
16.35112299
  0
VERTEX
  8
0
 10
18.33243509
 20
16.49190776
  0
VERTEX
  8
0
 10
18.42155111
 20
16.57593693
  0
VERTEX
  8
0
 10
18.49729003
 20
16.67004105
  0
VERTEX
  8
0
 10
18.55785028
 20
16.77495795
  0
VERTEX
  8
0
 10
18.60143033
 20
16.89142545
  0
VERTEX
  8
0
 10
18.62622864
 20
17.02018136
  0
VERTEX
  8
0
 10
18.63044366
 20
17.16196351
  0
VERTEX
  8
0
 10
18.61227384
 20
17.31750972
  0
VERTEX
  8
0
 10
18.56991765
 20
17.48755781
  0
SEQEND
  0
POLYLINE
  8
Default_Layer
 66
   1
 39
0.000000
 70
    1
  0
VERTEX
  8
0
 10
14.32943936
 20
15.44145290
  0
VERTEX
  8
0
 10
14.18615242
 20
15.40907726
  0
VERTEX
  8
0
 10
14.03799524
 20
15.39472663
  0
VERTEX
  8
0
 10
13.73636548
 20
15.41179921
  0
VERTEX
  8
0
 10
13.77745772
 20
15.47901005
  0
VERTEX
  8
0
 10
13.83925933
 20
15.51673175
  0
VERTEX
  8
0
 10
13.91613591
 20
15.53063686
  0
VERTEX
  8
0
 10
14.00245306
 20
15.52639793
  0
VERTEX
  8
0
 10
14.18087147
 20
15.48617816
  0
VERTEX
  8
0
 10
14.32943936
 20
15.44145290
  0
SEQEND
  0
POLYLINE
  8
Default_Layer
 66
   1
 39
0.000000
 70
    1
  0
VERTEX
  8
0
 10
15.54524083
 20
14.70011054
  0
VERTEX
  8
0
 10
15.46033061
 20
14.80794377
  0
VERTEX
  8
0
 10
15.36731866
 20
14.90768640
  0
VERTEX
  8
0
 10
15.38529949
 20
14.93041052
  0
VERTEX
  8
0
 10
15.40659811
 20
14.92888451
  0
VERTEX
  8
0
 10
15.45627975
 20
14.90768640
  0
VERTEX
  8
0
 10
15.44673713
 20
14.96486459
  0
VERTEX
  8
0
 10
15.41159328
 20
14.99644156
  0
VERTEX
  8
0
 10
15.37655239
 20
15.02812148
  0
VERTEX
  8
0
 10
15.36731866
 20
15.08560857
  0
VERTEX
  8
0
 10
15.48687428
 20
14.99017838
  0
VERTEX
  8
0
 10
15.58141442
 20
14.86973132
  0
VERTEX
  8
0
 10
15.61451882
 20
14.79534116
  0
VERTEX
  8
0
 10
15.63562750
 20
14.70895442
  0
VERTEX
  8
0
 10
15.64282651
 20
14.60865697
  0
VERTEX
  8
0
 10
15.63420191
 20
14.49253468
  0
VERTEX
  8
0
 10
15.55295813
 20
14.57809719
  0
VERTEX
  8
0
 10
15.45694110
 20
14.64888419
  0
VERTEX
  8
0
 10
15.25207827
 20
14.77762472
  0
VERTEX
  8
0
 10
15.15897796
 20
14.85132479
  0
VERTEX
  8
0
 10
15.08259537
 20
14.94174240
  0
VERTEX
  8
0
 10
15.03080325
 20
15.05675084
  0
VERTEX
  8
0
 10
15.01147433
 20
15.20422335
  0
VERTEX
  8
0
 10
15.07753552
 20
15.20457199
  0
VERTEX
  8
0
 10
15.11529912
 20
15.23342276
  0
VERTEX
  8
0
 10
15.15974280
 20
15.32283812
  0
VERTEX
  8
0
 10
15.18507785
 20
15.29639674
  0
VERTEX
  8
0
 10
15.19349082
 20
15.26831919
  0
VERTEX
  8
0
 10
15.17679940
 20
15.20869232
  0
VERTEX
  8
0
 10
15.14416626
 20
15.14683097
  0
VERTEX
  8
0
 10
15.13008911
 20
15.08560857
  0
VERTEX
  8
0
 10
15.16323074
 20
15.01866898
  0
VERTEX
  8
0
 10
15.20776806
 20
14.96312508
  0
VERTEX
  8
0
 10
15.31895402
 20
14.87414861
  0
VERTEX
  8
0
 10
15.43949546
 20
14.79452761
  0
VERTEX
  8
0
 10
15.54524083
 20
14.70011054
  0
SEQEND
  0
POLYLINE
  8
Default_Layer
 66
   1
 39
0.000000
 70
    1
  0
VERTEX
  8
0
 10
17.26515510
 20
15.32283812
  0
VERTEX
  8
0
 10
17.28664992
 20
15.23565549
  0
VERTEX
  8
0
 10
17.27561125
 20
15.14431907
  0
VERTEX
  8
0
 10
17.23941032
 20
15.05065168
  0
VERTEX
  8
0
 10
17.18541833
 20
14.95647616
  0
VERTEX
  8
0
 10
17.05354614
 20
14.77389207
  0
VERTEX
  8
0
 10
16.93896446
 20
14.61114946
  0
VERTEX
  8
0
 10
16.91037438
 20
14.70937182
  0
VERTEX
  8
0
 10
16.92491717
 20
14.79802707
  0
VERTEX
  8
0
 10
16.97093553
 20
14.88057573
  0
VERTEX
  8
0
 10
17.03677215
 20
14.96047830
  0
VERTEX
  8
0
 10
17.18127094
 20
15.12618727
  0
VERTEX
  8
0
 10
17.23661851
 20
15.21891470
  0
VERTEX
  8
0
 10
17.26515510
 20
15.32283812
  0
SEQEND
  0
POLYLINE
  8
Default_Layer
 66
   1
 39
0.000000
 70
    1
  0
VERTEX
  8
0
 10
16.96861816
 20
15.14491596
  0
VERTEX
  8
0
 10
16.89707545
 20
14.86757439
  0
VERTEX
  8
0
 10
16.79069599
 20
14.55184207
  0
VERTEX
  8
0
 10
16.72241992
 20
14.62705456
  0
VERTEX
  8
0
 10
16.70247660
 20
14.70380950
  0
VERTEX
  8
0
 10
16.71963057
 20
14.78118164
  0
VERTEX
  8
0
 10
16.76264635
 20
14.85824570
  0
VERTEX
  8
0
 10
16.88132146
 20
15.00774856
  0
VERTEX
  8
0
 10
16.93450985
 20
15.07833683
  0
VERTEX
  8
0
 10
16.96861816
 20
15.14491596
  0
SEQEND
  0
POLYLINE
  8
Default_Layer
 66
   1
 39
0.000000
 70
    1
  0
VERTEX
  8
0
 10
12.84675465
 20
14.61114946
  0
VERTEX
  8
0
 10
12.86474799
 20
14.63387358
  0
VERTEX
  8
0
 10
12.88604522
 20
14.63234757
  0
VERTEX
  8
0
 10
12.93571573
 20
14.61114946
  0
VERTEX
  8
0
 10
13.13139393
 20
14.31383377
  0
VERTEX
  8
0
 10
13.29002376
 20
13.97947076
  0
VERTEX
  8
0
 10
13.41912033
 20
13.61557519
  0
VERTEX
  8
0
 10
13.52619879
 20
13.22966185
  0
VERTEX
  8
0
 10
13.70436185
 20
12.42184097
  0
VERTEX
  8
0
 10
13.88463395
 20
11.61612634
  0
VERTEX
  8
0
 10
13.75364656
 20
11.98925345
  0
VERTEX
  8
0
 10
13.64789005
 20
12.38761110
  0
VERTEX
  8
0
 10
13.46232362
 20
13.21027167
  0
VERTEX
  8
0
 10
13.35764067
 20
13.60970141
  0
VERTEX
  8
0
 10
13.22844253
 20
13.98461535
  0
VERTEX
  8
0
 10
13.15076386
 20
14.15899246
  0
VERTEX
  8
0
 10
13.06229270
 20
14.32257689
  0
VERTEX
  8
0
 10
12.96147448
 20
14.47381409
  0
VERTEX
  8
0
 10
12.84675465
 20
14.61114946
  0
SEQEND
  0
POLYLINE
  8
Default_Layer
 66
   1
 39
0.000000
 70
    1
  0
VERTEX
  8
0
 10
15.78247038
 20
14.49253468
  0
VERTEX
  8
0
 10
15.80498885
 20
14.47245588
  0
VERTEX
  8
0
 10
15.82077386
 20
14.42728417
  0
VERTEX
  8
0
 10
15.83486084
 20
14.28943151
  0
VERTEX
  8
0
 10
15.83016602
 20
14.13451566
  0
VERTEX
  8
0
 10
15.81212408
 20
14.01807557
  0
VERTEX
  8
0
 10
15.79596076
 20
13.97698986
  0
VERTEX
  8
0
 10
15.78286676
 20
13.96976988
  0
VERTEX
  8
0
 10
15.76474802
 20
14.02750005
  0
VERTEX
  8
0
 10
15.75281669
 20
14.22565143
  0
VERTEX
  8
0
 10
15.77796059
 20
14.34921150
  0
VERTEX
  8
0
 10
15.78962682
 20
14.41811372
  0
VERTEX
  8
0
 10
15.78247038
 20
14.49253468
  0
SEQEND
  0
POLYLINE
  8
Default_Layer
 66
   1
 39
0.000000
 70
    1
  0
VERTEX
  8
0
 10
14.74459108
 20
14.49253468
  0
VERTEX
  8
0
 10
14.79261207
 20
14.48124272
  0
VERTEX
  8
0
 10
14.83355217
 20
14.46288099
  0
VERTEX
  8
0
 10
14.85787817
 20
14.29988142
  0
VERTEX
  8
0
 10
14.83809737
 20
14.17297159
  0
VERTEX
  8
0
 10
14.78325647
 20
14.07521307
  0
VERTEX
  8
0
 10
14.70240220
 20
13.99966747
  0
VERTEX
  8
0
 10
14.49884039
 20
13.88746137
  0
VERTEX
  8
0
 10
14.29978567
 20
13.78084602
  0
VERTEX
  8
0
 10
14.22114455
 20
13.71294225
  0
VERTEX
  8
0
 10
14.15729910
 20
13.63740668
  0
VERTEX
  8
0
 10
14.05333361
 20
13.48573410
  0
VERTEX
  8
0
 10
14.00288276
 20
13.42074405
  0
VERTEX
  8
0
 10
13.94656595
 20
13.37041613
  0
VERTEX
  8
0
 10
13.87921779
 20
13.34032382
  0
VERTEX
  8
0
 10
13.79567287
 20
13.33604061
  0
VERTEX
  8
0
 10
13.73255314
 20
13.38041430
  0
VERTEX
  8
0
 10
13.68959348
 20
13.44494911
  0
VERTEX
  8
0
 10
13.66308330
 20
13.52593410
  0
VERTEX
  8
0
 10
13.64931204
 20
13.61965834
  0
VERTEX
  8
0
 10
13.64514389
 20
13.83048087
  0
VERTEX
  8
0
 10
13.64740440
 20
14.04772927
  0
VERTEX
  8
0
 10
13.66415246
 20
14.03810543
  0
VERTEX
  8
0
 10
13.67414108
 20
14.00273033
  0
VERTEX
  8
0
 10
13.68414289
 20
13.88419265
  0
VERTEX
  8
0
 10
13.69801573
 20
13.75104877
  0
VERTEX
  8
0
 10
13.71284312
 20
13.69741593
  0
VERTEX
  8
0
 10
13.73636548
 20
13.66223124
  0
VERTEX
  8
0
 10
13.85727854
 20
13.84495993
  0
VERTEX
  8
0
 10
13.99188560
 20
14.01420445
  0
VERTEX
  8
0
 10
14.14700107
 20
14.16314426
  0
VERTEX
  8
0
 10
14.32943936
 20
14.28495882
  0
VERTEX
  8
0
 10
14.49029998
 20
14.27947121
  0
VERTEX
  8
0
 10
14.61313012
 20
14.31222000
  0
VERTEX
  8
0
 10
14.69790281
 20
14.38323217
  0
VERTEX
  8
0
 10
14.74459108
 20
14.49253468
  0
SEQEND
  0
POLYLINE
  8
Default_Layer
 66
   1
 39
0.000000
 70
    1
  0
VERTEX
  8
0
 10
12.66883249
 20
14.16634405
  0
VERTEX
  8
0
 10
12.82732889
 20
13.98382905
  0
VERTEX
  8
0
 10
12.96404236
 20
13.77952869
  0
VERTEX
  8
0
 10
13.08204888
 20
13.55651928
  0
VERTEX
  8
0
 10
13.18442440
 20
13.31787714
  0
VERTEX
  8
0
 10
13.35458634
 20
12.80599994
  0
VERTEX
  8
0
 10
13.49913593
 20
12.26850761
  0
VERTEX
  8
0
 10
13.30694768
 20
12.75835628
  0
VERTEX
  8
0
 10
13.12860577
 20
13.26205406
  0
VERTEX
  8
0
 10
13.03332809
 20
13.50779536
  0
VERTEX
  8
0
 10
12.92795308
 20
13.74343773
  0
VERTEX
  8
0
 10
12.80796109
 20
13.96446076
  0
VERTEX
  8
0
 10
12.66883249
 20
14.16634405
  0
SEQEND
  0
POLYLINE
  8
Default_Layer
 66
   1
 39
0.000000
 70
    1
  0
VERTEX
  8
0
 10
14.29978567
 20
13.72153863
  0
VERTEX
  8
0
 10
14.29676112
 20
13.63776035
  0
VERTEX
  8
0
 10
14.26415544
 20
13.52684487
  0
VERTEX
  8
0
 10
14.20488433
 20
13.42431519
  0
VERTEX
  8
0
 10
14.16616040
 20
13.38729596
  0
VERTEX
  8
0
 10
14.12186350
 20
13.36569430
  0
VERTEX
  8
0
 10
14.14510707
 20
13.47558138
  0
VERTEX
  8
0
 10
14.18849737
 20
13.56552626
  0
VERTEX
  8
0
 10
14.29978567
 20
13.72153863
  0
SEQEND
  0
POLYLINE
  8
Default_Layer
 66
   1
 39
0.000000
 70
    1
  0
VERTEX
  8
0
 10
14.71493739
 20
13.69188494
  0
VERTEX
  8
0
 10
14.75422648
 20
13.31553928
  0
VERTEX
  8
0
 10
14.83267718
 20
12.92639055
  0
VERTEX
  8
0
 10
14.89070371
 20
12.74173984
  0
VERTEX
  8
0
 10
14.96345933
 20
12.57155811
  0
VERTEX
  8
0
 10
15.05259029
 20
12.42173530
  0
VERTEX
  8
0
 10
15.15974280
 20
12.29816131
  0
VERTEX
  8
0
 10
15.21109548
 20
12.30593644
  0
VERTEX
  8
0
 10
15.24367308
 20
12.33253622
  0
VERTEX
  8
0
 10
15.27129943
 20
12.42341682
  0
VERTEX
  8
0
 10
15.28021458
 20
12.53321732
  0
VERTEX
  8
0
 10
15.30801128
 20
12.62435194
  0
VERTEX
  8
0
 10
15.43841389
 20
12.30217761
  0
VERTEX
  8
0
 10
15.56976905
 20
11.94925870
  0
VERTEX
  8
0
 10
15.68144667
 20
11.56321524
  0
VERTEX
  8
0
 10
15.75281669
 20
11.14166723
  0
VERTEX
  8
0
 10
15.75503032
 20
10.92050287
  0
VERTEX
  8
0
 10
15.73209003
 20
10.69648241
  0
VERTEX
  8
0
 10
15.70468623
 20
10.47265165
  0
VERTEX
  8
0
 10
15.69350930
 20
10.25205640
  0
VERTEX
  8
0
 10
15.72702292
 20
9.91415342
  0
VERTEX
  8
0
 10
15.77245131
 20
9.58945292
  0
VERTEX
  8
0
 10
15.77894210
 20
9.43415844
  0
VERTEX
  8
0
 10
15.76358185
 20
9.28469037
  0
VERTEX
  8
0
 10
15.71809398
 20
9.14189066
  0
VERTEX
  8
0
 10
15.63420191
 20
9.00660124
  0
VERTEX
  8
0
 10
15.58100708
 20
9.35373128
  0
VERTEX
  8
0
 10
15.55514974
 20
9.72819881
  0
VERTEX
  8
0
 10
15.54422461
 20
10.51792343
  0
VERTEX
  8
0
 10
15.53854539
 20
10.91256908
  0
VERTEX
  8
0
 10
15.51898075
 20
11.29332932
  0
VERTEX
  8
0
 10
15.47522499
 20
11.64989842
  0
VERTEX
  8
0
 10
15.39697236
 20
11.97197067
  0
VERTEX
  8
0
 10
15.44214497
 20
11.62263424
  0
VERTEX
  8
0
 10
15.45393097
 20
11.25788801
  0
VERTEX
  8
0
 10
15.44309996
 20
10.88185952
  0
VERTEX
  8
0
 10
15.42042155
 20
10.49867633
  0
VERTEX
  8
0
 10
15.38260096
 20
9.72735604
  0
VERTEX
  8
0
 10
15.38899799
 20
9.34747405
  0
VERTEX
  8
0
 10
15.42662605
 20
8.97694755
  0
VERTEX
  8
0
 10
15.43196880
 20
8.92298847
  0
VERTEX
  8
0
 10
15.46362105
 20
8.89532777
  0
VERTEX
  8
0
 10
15.57489452
 20
8.88798646
  0
VERTEX
  8
0
 10
15.41455531
 20
8.75136798
  0
VERTEX
  8
0
 10
15.21905019
 20
8.65075691
  0
VERTEX
  8
0
 10
15.19241009
 20
9.00700512
  0
VERTEX
  8
0
 10
15.20442367
 20
9.35628444
  0
VERTEX
  8
0
 10
15.22375052
 20
9.70123091
  0
VERTEX
  8
0
 10
15.21905019
 20
10.04448054
  0
VERTEX
  8
0
 10
15.21499087
 20
10.23185022
  0
VERTEX
  8
0
 10
15.22808455
 20
10.42093566
  0
VERTEX
  8
0
 10
15.27798077
 20
10.79754183
  0
VERTEX
  8
0
 10
15.31323856
 20
11.16087512
  0
VERTEX
  8
0
 10
15.30803418
 20
11.33336944
  0
VERTEX
  8
0
 10
15.27835758
 20
11.49751156
  0
VERTEX
  8
0
 10
15.24836994
 20
11.56807117
  0
VERTEX
  8
0
 10
15.20763369
 20
11.63127435
  0
VERTEX
  8
0
 10
15.13008911
 20
11.76439481
  0
VERTEX
  8
0
 10
14.98363575
 20
12.21131707
  0
VERTEX
  8
0
 10
14.84934515
 20
12.66297605
  0
VERTEX
  8
0
 10
14.69233121
 20
13.08790955
  0
VERTEX
  8
0
 10
14.59440108
 20
13.28052231
  0
VERTEX
  8
0
 10
14.47770784
 20
13.45465538
  0
VERTEX
  8
0
 10
14.51843652
 20
13.53223397
  0
VERTEX
  8
0
 10
14.57347498
 20
13.59570594
  0
VERTEX
  8
0
 10
14.71493739
 20
13.69188494
  0
SEQEND
  0
POLYLINE
  8
Default_Layer
 66
   1
 39
0.000000
 70
    1
  0
VERTEX
  8
0
 10
16.04935363
 20
13.48430908
  0
VERTEX
  8
0
 10
15.94862349
 20
13.37071095
  0
VERTEX
  8
0
 10
15.86985406
 20
13.25162597
  0
VERTEX
  8
0
 10
15.82894044
 20
13.12285434
  0
VERTEX
  8
0
 10
15.82764679
 20
13.05352360
  0
VERTEX
  8
0
 10
15.84177777
 20
12.98019628
  0
VERTEX
  8
0
 10
15.77423063
 20
13.04479873
  0
VERTEX
  8
0
 10
15.73672644
 20
13.12596729
  0
VERTEX
  8
0
 10
15.72760003
 20
13.21519199
  0
VERTEX
  8
0
 10
15.74518622
 20
13.30396289
  0
VERTEX
  8
0
 10
15.78781985
 20
13.38377000
  0
VERTEX
  8
0
 10
15.85383574
 20
13.44610338
  0
VERTEX
  8
0
 10
15.94156872
 20
13.48245306
  0
VERTEX
  8
0
 10
16.04935363
 20
13.48430908
  0
SEQEND
  0
POLYLINE
  8
Default_Layer
 66
   1
 39
0.000000
 70
    1
  0
VERTEX
  8
0
 10
16.28658319
 20
13.45465538
  0
VERTEX
  8
0
 10
16.30749876
 20
13.47818890
  0
VERTEX
  8
0
 10
16.33287092
 20
13.48769116
  0
VERTEX
  8
0
 10
16.39094693
 20
13.47709858
  0
VERTEX
  8
0
 10
16.49415905
 20
13.42500169
  0
VERTEX
  8
0
 10
16.47213662
 20
13.40036496
  0
VERTEX
  8
0
 10
16.44878383
 20
13.39288260
  0
VERTEX
  8
0
 10
16.39850529
 20
13.41126849
  0
VERTEX
  8
0
 10
16.34415967
 20
13.44393440
  0
VERTEX
  8
0
 10
16.28658319
 20
13.45465538
  0
SEQEND
  0
POLYLINE
  8
Default_Layer
 66
   1
 39
0.000000
 70
    1
  0
VERTEX
  8
0
 10
13.97359503
 20
13.33604061
  0
VERTEX
  8
0
 10
14.06255612
 20
13.33604061
  0
VERTEX
  8
0
 10
14.08520684
 20
13.29742467
  0
VERTEX
  8
0
 10
14.09275709
 20
13.24687360
  0
VERTEX
  8
0
 10
14.08520684
 20
13.19642548
  0
VERTEX
  8
0
 10
14.06255612
 20
13.15811844
  0
VERTEX
  8
0
 10
14.00011390
 20
13.17596054
  0
VERTEX
  8
0
 10
13.96606983
 20
13.22849424
  0
VERTEX
  8
0
 10
13.95802864
 20
13.29032057
  0
VERTEX
  8
0
 10
13.97359503
 20
13.33604061
  0
SEQEND
  0
POLYLINE
  8
Default_Layer
 66
   1
 39
0.000000
 70
    1
  0
VERTEX
  8
0
 10
16.25692949
 20
13.24707952
  0
VERTEX
  8
0
 10
16.25353506
 20
13.11671719
  0
VERTEX
  8
0
 10
16.21340508
 20
13.02330327
  0
VERTEX
  8
0
 10
16.15055676
 20
12.95281640
  0
VERTEX
  8
0
 10
16.07900733
 20
12.89123519
  0
VERTEX
  8
0
 10
16.04576066
 20
12.91634352
  0
VERTEX
  8
0
 10
16.06120193
 20
12.94644349
  0
VERTEX
  8
0
 10
16.09295933
 20
12.97859301
  0
VERTEX
  8
0
 10
16.10866102
 20
13.00984997
  0
VERTEX
  8
0
 10
16.01300726
 20
13.06247024
  0
VERTEX
  8
0
 10
15.90108516
 20
13.09881105
  0
VERTEX
  8
0
 10
15.90108516
 20
13.24707952
  0
VERTEX
  8
0
 10
15.98371011
 20
13.30289550
  0
VERTEX
  8
0
 10
16.07880140
 20
13.32150082
  0
VERTEX
  8
0
 10
16.17399565
 20
13.30289550
  0
VERTEX
  8
0
 10
16.25692949
 20
13.24707952
  0
SEQEND
  0
POLYLINE
  8
Default_Layer
 66
   1
 39
0.000000
 70
    1
  0
VERTEX
  8
0
 10
16.64242752
 20
12.47608347
  0
VERTEX
  8
0
 10
16.55844857
 20
12.44114154
  0
VERTEX
  8
0
 10
16.45826490
 20
12.42260468
  0
VERTEX
  8
0
 10
16.22727580
 20
12.41677608
  0
VERTEX
  8
0
 10
16.42134271
 20
12.45952687
  0
VERTEX
  8
0
 10
16.64242752
 20
12.47608347
  0
SEQEND
  0
POLYLINE
  8
Default_Layer
 66
   1
 39
0.000000
 70
    1
  0
VERTEX
  8
0
 10
15.66385561
 20
11.97197067
  0
VERTEX
  8
0
 10
15.71998247
 20
11.83534669
  0
VERTEX
  8
0
 10
15.79431892
 20
11.71693248
  0
VERTEX
  8
0
 10
15.97149135
 20
11.50860480
  0
VERTEX
  8
0
 10
16.14311438
 20
11.29473050
  0
VERTEX
  8
0
 10
16.21051409
 20
11.16938302
  0
VERTEX
  8
0
 10
16.25692949
 20
11.02305245
  0
VERTEX
  8
0
 10
16.17158415
 20
10.87826971
  0
VERTEX
  8
0
 10
16.10096976
 20
10.71896362
  0
VERTEX
  8
0
 10
16.02678757
 20
10.56343347
  0
VERTEX
  8
0
 10
15.93073886
 20
10.42997857
  0
VERTEX
  8
0
 10
15.89378371
 20
10.84524407
  0
VERTEX
  8
0
 10
15.83689249
 20
11.24057321
  0
VERTEX
  8
0
 10
15.76020364
 20
11.61610306
  0
VERTEX
  8
0
 10
15.66385561
 20
11.97197067
  0
SEQEND
  0
POLYLINE
  8
Default_Layer
 66
   1
 39
0.000000
 70
    1
  0
VERTEX
  8
0
 10
2.23073210
 20
11.88300959
  0
VERTEX
  8
0
 10
2.25976069
 20
11.76377318
  0
VERTEX
  8
0
 10
2.27067801
 20
11.62642412
  0
VERTEX
  8
0
 10
2.29127608
 20
11.49875302
  0
VERTEX
  8
0
 10
2.31389038
 20
11.44723126
  0
VERTEX
  8
0
 10
2.34934688
 20
11.40855048
  0
VERTEX
  8
0
 10
2.33869659
 20
11.01610900
  0
VERTEX
  8
0
 10
2.36089063
 20
10.65651313
  0
VERTEX
  8
0
 10
2.41003030
 20
10.32386353
  0
VERTEX
  8
0
 10
2.48021695
 20
10.01226086
  0
VERTEX
  8
0
 10
2.66013643
 20
9.42859896
  0
VERTEX
  8
0
 10
2.85345968
 20
8.85833277
  0
VERTEX
  8
0
 10
2.66693329
 20
8.79239090
  0
VERTEX
  8
0
 10
2.57382635
 20
8.75957122
  0
VERTEX
  8
0
 10
2.46796165
 20
8.73971799
  0
VERTEX
  8
0
 10
2.48741066
 20
8.80000625
  0
VERTEX
  8
0
 10
2.48180083
 20
8.84964181
  0
VERTEX
  8
0
 10
2.47668483
 20
8.89620942
  0
VERTEX
  8
0
 10
2.49761535
 20
8.94729385
  0
VERTEX
  8
0
 10
2.45015052
 20
8.97468843
  0
VERTEX
  8
0
 10
2.40338386
 20
8.96905686
  0
VERTEX
  8
0
 10
2.35183898
 20
8.95254379
  0
VERTEX
  8
0
 10
2.29003949
 20
8.94729385
  0
VERTEX
  8
0
 10
2.23141023
 20
9.08825805
  0
VERTEX
  8
0
 10
2.21237848
 20
9.20658258
  0
VERTEX
  8
0
 10
2.18769670
 20
9.32129096
  0
VERTEX
  8
0
 10
2.11211732
 20
9.45140666
  0
VERTEX
  8
0
 10
2.13169486
 20
9.49083081
  0
VERTEX
  8
0
 10
2.16508010
 20
9.51664791
  0
VERTEX
  8
0
 10
2.19422422
 20
9.54691151
  0
VERTEX
  8
0
 10
2.20107840
 20
9.59967513
  0
VERTEX
  8
0
 10
2.15357018
 20
9.86384589
  0
VERTEX
  8
0
 10
2.12327599
 20
10.14824496
  0
VERTEX
  8
0
 10
2.10890523
 20
10.44579335
  0
VERTEX
  8
0
 10
2.10916731
 20
10.74941203
  0
VERTEX
  8
0
 10
2.14842761
 20
11.34654426
  0
VERTEX
  8
0
 10
2.23073210
 20
11.88300959
  0
SEQEND
  0
POLYLINE
  8
Default_Layer
 66
   1
 39
0.000000
 70
    1
  0
VERTEX
  8
0
 10
14.71493739
 20
11.43820417
  0
VERTEX
  8
0
 10
14.83337414
 20
10.66217879
  0
VERTEX
  8
0
 10
14.95016215
 20
9.82125807
  0
VERTEX
  8
0
 10
14.99023280
 20
9.39686984
  0
VERTEX
  8
0
 10
15.00864517
 20
8.98074724
  0
VERTEX
  8
0
 10
14.99831723
 20
8.58105340
  0
VERTEX
  8
0
 10
14.95216694
 20
8.20595150
  0
VERTEX
  8
0
 10
14.96417011
 20
8.59238303
  0
VERTEX
  8
0
 10
14.95156301
 20
8.98719205
  0
VERTEX
  8
0
 10
14.87793465
 20
9.79524474
  0
VERTEX
  8
0
 10
14.78211504
 20
10.61671398
  0
VERTEX
  8
0
 10
14.74176890
 20
11.02829368
  0
VERTEX
  8
0
 10
14.71493739
 20
11.43820417
  0
SEQEND
  0
POLYLINE
  8
Default_Layer
 66
   1
 39
0.000000
 70
    1
  0
VERTEX
  8
0
 10
7.62770446
 20
10.31136379
  0
VERTEX
  8
0
 10
7.44763256
 20
10.27832900
  0
VERTEX
  8
0
 10
7.34862532
 20
10.28293890
  0
VERTEX
  8
0
 10
7.27186013
 20
10.31136379
  0
VERTEX
  8
0
 10
7.29084487
 20
10.34607942
  0
VERTEX
  8
0
 10
7.33308980
 20
10.37512663
  0
VERTEX
  8
0
 10
7.45540887
 20
10.40771511
  0
VERTEX
  8
0
 10
7.51950735
 20
10.40700606
  0
VERTEX
  8
0
 10
7.57491466
 20
10.39212793
  0
VERTEX
  8
0
 10
7.61364297
 20
10.36095556
  0
VERTEX
  8
0
 10
7.62770446
 20
10.31136379
  0
SEQEND
  0
POLYLINE
  8
Default_Layer
 66
   1
 39
0.000000
 70
    1
  0
VERTEX
  8
0
 10
14.27013198
 20
10.01482685
  0
VERTEX
  8
0
 10
14.29986624
 20
9.81055711
  0
VERTEX
  8
0
 10
14.30198026
 20
9.61475017
  0
VERTEX
  8
0
 10
14.28232970
 20
9.42640904
  0
VERTEX
  8
0
 10
14.24677022
 20
9.24453672
  0
VERTEX
  8
0
 10
14.15134709
 20
8.89621058
  0
VERTEX
  8
0
 10
14.06255612
 20
8.56179583
  0
VERTEX
  8
0
 10
14.10256834
 20
8.88940631
  0
VERTEX
  8
0
 10
14.17472731
 20
9.24246281
  0
VERTEX
  8
0
 10
14.24269465
 20
9.61844358
  0
VERTEX
  8
0
 10
14.26375071
 20
9.81424251
  0
VERTEX
  8
0
 10
14.27013198
 20
10.01482685
  0
SEQEND
  0
POLYLINE
  8
Default_Layer
 66
   1
 39
0.000000
 70
    1
  0
VERTEX
  8
0
 10
10.38549803
 20
8.50248844
  0
VERTEX
  8
0
 10
10.53058097
 20
8.53619456
  0
VERTEX
  8
0
 10
10.66509857
 20
8.54015167
  0
VERTEX
  8
0
 10
10.78843420
 20
8.51859428
  0
VERTEX
  8
0
 10
10.89997125
 20
8.47575691
  0
VERTEX
  8
0
 10
10.99909312
 20
8.41587406
  0
VERTEX
  8
0
 10
11.08518318
 20
8.34318025
  0
VERTEX
  8
0
 10
11.21580147
 20
8.17629780
  0
VERTEX
  8
0
 10
10.81612543
 20
8.35486881
  0
VERTEX
  8
0
 10
10.60783793
 20
8.43570483
  0
VERTEX
  8
0
 10
10.38549803
 20
8.50248844
  0
SEQEND
  0
POLYLINE
  8
Default_Layer
 66
   1
 39
0.000000
 70
    1
  0
VERTEX
  8
0
 10
11.54199210
 20
8.38387366
  0
VERTEX
  8
0
 10
11.58456622
 20
8.35232008
  0
VERTEX
  8
0
 10
11.60927872
 20
8.30290182
  0
VERTEX
  8
0
 10
11.63095319
 20
8.17629780
  0
VERTEX
  8
0
 10
11.58104892
 20
8.20794398
  0
VERTEX
  8
0
 10
11.54178617
 20
8.25022611
  0
VERTEX
  8
0
 10
11.50262639
 20
8.29261121
  0
VERTEX
  8
0
 10
11.45303102
 20
8.32456627
  0
VERTEX
  8
0
 10
11.46954649
 20
8.34481181
  0
VERTEX
  8
0
 10
11.49965198
 20
8.35166769
  0
VERTEX
  8
0
 10
11.52868726
 20
8.35979971
  0
VERTEX
  8
0
 10
11.54199210
 20
8.38387366
  0
SEQEND
  0
POLYLINE
  8
Default_Layer
 66
   1
 39
0.000000
 70
    1
  0
VERTEX
  8
0
 10
13.52878962
 20
8.23560519
  0
VERTEX
  8
0
 10
13.54638189
 20
7.96836024
  0
VERTEX
  8
0
 10
13.52553974
 20
7.68242273
  0
VERTEX
  8
0
 10
13.47666883
 20
7.40619320
  0
VERTEX
  8
0
 10
13.41017484
 20
7.16807220
  0
VERTEX
  8
0
 10
13.41524524
 20
7.41203669
  0
VERTEX
  8
0
 10
13.45040210
 20
7.68345357
  0
VERTEX
  8
0
 10
13.49509902
 20
7.96406301
  0
VERTEX
  8
0
 10
13.52878962
 20
8.23560519
  0
SEQEND
  0
POLYLINE
  8
Default_Layer
 66
   1
 39
0.000000
 70
    1
  0
VERTEX
  8
0
 10
4.48441286
 20
7.82045347
  0
VERTEX
  8
0
 10
4.50892297
 20
7.79483788
  0
VERTEX
  8
0
 10
4.51069344
 20
7.77340324
  0
VERTEX
  8
0
 10
4.46901646
 20
7.73876178
  0
VERTEX
  8
0
 10
4.40538399
 20
7.70789906
  0
VERTEX
  8
0
 10
4.36579809
 20
7.67218500
  0
VERTEX
  8
0
 10
4.34199627
 20
7.69672913
  0
VERTEX
  8
0
 10
4.33905391
 20
7.71907813
  0
VERTEX
  8
0
 10
4.37610217
 20
7.75814640
  0
VERTEX
  8
0
 10
4.48441286
 20
7.82045347
  0
SEQEND
  0
POLYLINE
  8
Default_Layer
 66
   1
 39
0.000000
 70
    1
  0
VERTEX
  8
0
 10
9.76277045
 20
7.79079978
  0
VERTEX
  8
0
 10
9.62136812
 20
7.74297597
  0
VERTEX
  8
0
 10
9.46628395
 20
7.70888861
  0
VERTEX
  8
0
 10
9.13215589
 20
7.66483327
  0
VERTEX
  8
0
 10
8.79455790
 20
7.62445379
  0
VERTEX
  8
0
 10
8.63513631
 20
7.59496127
  0
VERTEX
  8
0
 10
8.48766159
 20
7.55357022
  0
VERTEX
  8
0
 10
8.52203408
 20
7.60348760
  0
VERTEX
  8
0
 10
8.56747088
 20
7.64329721
  0
VERTEX
  8
0
 10
8.68723330
 20
7.69724662
  0
VERTEX
  8
0
 10
8.83834077
 20
7.72472533
  0
VERTEX
  8
0
 10
9.01218520
 20
7.73504025
  0
VERTEX
  8
0
 10
9.39365250
 20
7.74140625
  0
VERTEX
  8
0
 10
9.58405919
 20
7.75607113
  0
VERTEX
  8
0
 10
9.76277045
 20
7.79079978
  0
SEQEND
  0
POLYLINE
  8
Default_Layer
 66
   1
 39
0.000000
 70
    1
  0
VERTEX
  8
0
 10
11.00822561
 20
7.73149239
  0
VERTEX
  8
0
 10
11.12950086
 20
7.73672704
  0
VERTEX
  8
0
 10
11.27235456
 20
7.70643963
  0
VERTEX
  8
0
 10
11.40175856
 20
7.64419806
  0
VERTEX
  8
0
 10
11.45047063
 20
7.60220943
  0
VERTEX
  8
0
 10
11.48268471
 20
7.55357022
  0
VERTEX
  8
0
 10
11.23334735
 20
7.63041238
  0
VERTEX
  8
0
 10
11.00822561
 20
7.73149239
  0
SEQEND
  0
POLYLINE
  8
Default_Layer
 66
   1
 39
0.000000
 70
    1
  0
VERTEX
  8
0
 10
8.36904681
 20
7.61287761
  0
VERTEX
  8
0
 10
8.01320248
 20
6.81222786
  0
VERTEX
  8
0
 10
7.89709920
 20
6.77498743
  0
VERTEX
  8
0
 10
7.79066685
 20
6.75665141
  0
VERTEX
  8
0
 10
7.69303219
 20
6.75534488
  0
VERTEX
  8
0
 10
7.60332202
 20
6.76919293
  0
VERTEX
  8
0
 10
7.44418218
 20
6.83485306
  0
VERTEX
  8
0
 10
7.30626154
 20
6.93863246
  0
VERTEX
  8
0
 10
7.18257428
 20
7.06553176
  0
VERTEX
  8
0
 10
7.06613460
 20
7.20055159
  0
VERTEX
  8
0
 10
6.94995667
 20
7.32869261
  0
VERTEX
  8
0
 10
6.82705471
 20
7.43495544
  0
VERTEX
  8
0
 10
6.85034619
 20
7.46607638
  0
VERTEX
  8
0
 10
6.88282050
 20
7.45290647
  0
VERTEX
  8
0
 10
6.92447904
 20
7.43076105
  0
VERTEX
  8
0
 10
6.97532318
 20
7.43495544
  0
VERTEX
  8
0
 10
7.08077325
 20
7.53822951
  0
VERTEX
  8
0
 10
7.22639979
 20
7.61536197
  0
VERTEX
  8
0
 10
7.40193821
 20
7.66784737
  0
VERTEX
  8
0
 10
7.59712388
 20
7.69718026
  0
VERTEX
  8
0
 10
7.80169219
 20
7.70485518
  0
VERTEX
  8
0
 10
8.00537853
 20
7.69236669
  0
VERTEX
  8
0
 10
8.19791827
 20
7.66120931
  0
VERTEX
  8
0
 10
8.36904681
 20
7.61287761
  0
SEQEND
  0
POLYLINE
  8
Default_Layer
 66
   1
 39
0.000000
 70
    1
  0
VERTEX
  8
0
 10
3.06103554
 20
7.61287761
  0
VERTEX
  8
0
 10
3.26861140
 20
7.61287761
  0
VERTEX
  8
0
 10
3.26861140
 20
7.55357022
  0
VERTEX
  8
0
 10
3.06103554
 20
7.55357022
  0
VERTEX
  8
0
 10
3.06103554
 20
7.61287761
  0
SEQEND
  0
POLYLINE
  8
Default_Layer
 66
   1
 39
0.000000
 70
    1
  0
VERTEX
  8
0
 10
1.66731191
 20
7.04945742
  0
VERTEX
  8
0
 10
1.42528084
 20
6.31990887
  0
VERTEX
  8
0
 10
1.30462993
 20
5.90784540
  0
VERTEX
  8
0
 10
1.22250649
 20
5.47781162
  0
VERTEX
  8
0
 10
1.21179064
 20
5.70717987
  0
VERTEX
  8
0
 10
1.22428710
 20
5.93260008
  0
VERTEX
  8
0
 10
1.25786351
 20
6.15134448
  0
VERTEX
  8
0
 10
1.31038749
 20
6.36068530
  0
VERTEX
  8
0
 10
1.37972669
 20
6.55789477
  0
VERTEX
  8
0
 10
1.46374874
 20
6.74024513
  0
VERTEX
  8
0
 10
1.56032126
 20
6.90500860
  0
VERTEX
  8
0
 10
1.66731191
 20
7.04945742
  0
SEQEND
  0
POLYLINE
  8
Default_Layer
 66
   1
 39
0.000000
 70
    1
  0
VERTEX
  8
0
 10
1.90454146
 20
6.63430570
  0
VERTEX
  8
0
 10
1.92159343
 20
6.64324346
  0
VERTEX
  8
0
 10
1.93145695
 20
6.62621185
  0
VERTEX
  8
0
 10
1.93636968
 20
6.53989073
  0
VERTEX
  8
0
 10
1.93419516
 20
6.33776876
  0
VERTEX
  8
0
 10
1.89652501
 20
6.35812078
  0
VERTEX
  8
0
 10
1.87849976
 20
6.38545902
  0
VERTEX
  8
0
 10
1.88150182
 20
6.45667319
  0
VERTEX
  8
0
 10
1.90343712
 20
6.54256939
  0
VERTEX
  8
0
 10
1.90454146
 20
6.63430570
  0
SEQEND
  0
POLYLINE
  8
Default_Layer
 66
   1
 39
0.000000
 70
    1
  0
VERTEX
  8
0
 10
11.80887535
 20
3.07586239
  0
VERTEX
  8
0
 10
11.79867600
 20
3.15632768
  0
VERTEX
  8
0
 10
11.76951121
 20
3.23306467
  0
VERTEX
  8
0
 10
11.72331875
 20
3.30438540
  0
VERTEX
  8
0
 10
11.66203635
 20
3.36860197
  0
VERTEX
  8
0
 10
11.50195279
 20
3.46897083
  0
VERTEX
  8
0
 10
11.40702713
 20
3.50174727
  0
VERTEX
  8
0
 10
11.30476255
 20
3.52066780
  0
VERTEX
  8
0
 10
11.27491797
 20
3.77043568
  0
VERTEX
  8
0
 10
11.27767018
 20
4.02210040
  0
VERTEX
  8
0
 10
11.30310241
 20
4.27715860
  0
VERTEX
  8
0
 10
11.34129792
 20
4.53710690
  0
VERTEX
  8
0
 10
11.41631167
 20
5.07766035
  0
VERTEX
  8
0
 10
11.43329639
 20
5.36125875
  0
VERTEX
  8
0
 10
11.42337733
 20
5.65573379
  0
VERTEX
  8
0
 10
11.37737312
 20
5.88426451
  0
VERTEX
  8
0
 10
11.32034981
 20
6.08630300
  0
VERTEX
  8
0
 10
11.30493081
 20
6.18094080
  0
VERTEX
  8
0
 10
11.30742682
 20
6.27321932
  0
VERTEX
  8
0
 10
11.33472779
 20
6.36455981
  0
VERTEX
  8
0
 10
11.39372363
 20
6.45638353
  0
VERTEX
  8
0
 10
11.47908298
 20
6.39067909
  0
VERTEX
  8
0
 10
11.57924361
 20
6.36092809
  0
VERTEX
  8
0
 10
11.69043218
 20
6.35666454
  0
VERTEX
  8
0
 10
11.80887535
 20
6.36742245
  0
VERTEX
  8
0
 10
11.85322206
 20
6.24396632
  0
VERTEX
  8
0
 10
11.90980742
 20
6.09680856
  0
VERTEX
  8
0
 10
11.92541108
 20
6.02464794
  0
VERTEX
  8
0
 10
11.92334017
 20
5.95892955
  0
VERTEX
  8
0
 10
11.89668330
 20
5.90377593
  0
VERTEX
  8
0
 10
11.83852905
 20
5.86330965
  0
VERTEX
  8
0
 10
11.85562624
 20
5.79144576
  0
VERTEX
  8
0
 10
11.88859169
 20
5.73545013
  0
VERTEX
  8
0
 10
11.91876609
 20
5.67666344
  0
VERTEX
  8
0
 10
11.92749013
 20
5.59642640
  0
VERTEX
  8
0
 10
11.80887535
 20
5.59642640
  0
VERTEX
  8
0
 10
11.82604061
 20
5.54687084
  0
VERTEX
  8
0
 10
11.87059820
 20
5.52470762
  0
VERTEX
  8
0
 10
11.92136148
 20
5.50875009
  0
VERTEX
  8
0
 10
11.95714382
 20
5.47781162
  0
VERTEX
  8
0
 10
11.95859878
 20
5.07464790
  0
VERTEX
  8
0
 10
11.94392103
 20
4.69050917
  0
VERTEX
  8
0
 10
11.94690671
 20
4.51144352
  0
VERTEX
  8
0
 10
11.96550837
 20
4.34417733
  0
VERTEX
  8
0
 10
12.00627576
 20
4.19105834
  0
VERTEX
  8
0
 10
12.07575860
 20
4.05443430
  0
VERTEX
  8
0
 10
12.05965410
 20
3.87858308
  0
VERTEX
  8
0
 10
12.05841896
 20
3.72079519
  0
VERTEX
  8
0
 10
12.06095749
 20
3.45387116
  0
VERTEX
  8
0
 10
12.04493157
 20
3.34196590
  0
VERTEX
  8
0
 10
12.00417577
 20
3.24258573
  0
VERTEX
  8
0
 10
11.92879030
 20
3.15434607
  0
VERTEX
  8
0
 10
11.80887535
 20
3.07586239
  0
SEQEND
  0
POLYLINE
  8
Default_Layer
 66
   1
 39
0.000000
 70
    1
  0
VERTEX
  8
0
 10
1.60800452
 20
6.27846137
  0
VERTEX
  8
0
 10
1.61548812
 20
6.00649755
  0
VERTEX
  8
0
 10
1.58728342
 20
5.71309087
  0
VERTEX
  8
0
 10
1.53237215
 20
5.42807277
  0
VERTEX
  8
0
 10
1.45973605
 20
5.18127468
  0
VERTEX
  8
0
 10
1.46348041
 20
5.44138858
  0
VERTEX
  8
0
 10
1.50026614
 20
5.72601247
  0
VERTEX
  8
0
 10
1.60800452
 20
6.27846137
  0
SEQEND
  0
POLYLINE
  8
Default_Layer
 66
   1
 39
0.000000
 70
    1
  0
VERTEX
  8
0
 10
10.83030344
 20
3.37239933
  0
VERTEX
  8
0
 10
10.93142924
 20
3.25854558
  0
VERTEX
  8
0
 10
11.03787279
 20
3.15000123
  0
VERTEX
  8
0
 10
11.12949275
 20
3.02662774
  0
VERTEX
  8
0
 10
11.16344971
 20
2.95308676
  0
VERTEX
  8
0
 10
11.18614777
 20
2.86828653
  0
VERTEX
  8
0
 10
11.26285982
 20
2.88643586
  0
VERTEX
  8
0
 10
11.27557185
 20
2.86995981
  0
VERTEX
  8
0
 10
11.27510885
 20
2.80897914
  0
VERTEX
  8
0
 10
11.35056197
 20
2.83944213
  0
VERTEX
  8
0
 10
11.40259618
 20
2.88965069
  0
VERTEX
  8
0
 10
11.45019412
 20
2.91435033
  0
VERTEX
  8
0
 10
11.47826156
 20
2.90299226
  0
VERTEX
  8
0
 10
11.51233841
 20
2.86828653
  0
VERTEX
  8
0
 10
11.44976150
 20
2.79711292
  0
VERTEX
  8
0
 10
11.36238985
 20
2.75093998
  0
VERTEX
  8
0
 10
11.15649408
 20
2.69036436
  0
VERTEX
  8
0
 10
11.14711650
 20
2.82185114
  0
VERTEX
  8
0
 10
11.11275653
 20
2.92834691
  0
VERTEX
  8
0
 10
11.00822561
 20
3.10551608
  0
VERTEX
  8
0
 10
10.98096782
 20
3.02126362
  0
VERTEX
  8
0
 10
10.97046068
 20
2.92046644
  0
VERTEX
  8
0
 10
10.94891822
 20
2.72001805
  0
VERTEX
  8
0
 10
10.92904925
 20
2.90467377
  0
VERTEX
  8
0
 10
10.91859526
 20
3.06925274
  0
VERTEX
  8
0
 10
10.89364904
 20
3.22230969
  0
VERTEX
  8
0
 10
10.83030344
 20
3.37239933
  0
SEQEND
  0
POLYLINE
  8
Default_Layer
 66
   1
 39
0.000000
 70
    1
  0
VERTEX
  8
0
 10
12.25368077
 20
3.34274563
  0
VERTEX
  8
0
 10
12.09639180
 20
3.18825895
  0
VERTEX
  8
0
 10
11.89783643
 20
3.07586239
  0
VERTEX
  8
0
 10
12.03481850
 20
3.24982113
  0
VERTEX
  8
0
 10
12.12471748
 20
3.31570562
  0
VERTEX
  8
0
 10
12.18315394
 20
3.33524281
  0
VERTEX
  8
0
 10
12.25368077
 20
3.34274563
  0
SEQEND
  0
POLYLINE
  8
Default_Layer
 66
   1
 39
0.000000
 70
    1
  0
VERTEX
  8
0
 10
6.70843993
 20
3.13516977
  0
VERTEX
  8
0
 10
6.71861182
 20
3.09708714
  0
VERTEX
  8
0
 10
6.70196735
 20
3.04859705
  0
VERTEX
  8
0
 10
6.61275022
 20
2.93331724
  0
VERTEX
  8
0
 10
6.38224930
 20
2.72001805
  0
VERTEX
  8
0
 10
6.40795727
 20
2.67159541
  0
VERTEX
  8
0
 10
6.44490809
 20
2.63441282
  0
VERTEX
  8
0
 10
6.48018320
 20
2.59555231
  0
VERTEX
  8
0
 10
6.50086407
 20
2.54209589
  0
VERTEX
  8
0
 10
6.45130620
 20
2.51720716
  0
VERTEX
  8
0
 10
6.38356535
 20
2.51070873
  0
VERTEX
  8
0
 10
6.23398083
 20
2.51244219
  0
VERTEX
  8
0
 10
6.32496650
 20
2.69545403
  0
VERTEX
  8
0
 10
6.44620099
 20
2.84841464
  0
VERTEX
  8
0
 10
6.57994018
 20
2.98907092
  0
VERTEX
  8
0
 10
6.70843993
 20
3.13516977
  0
SEQEND
  0
POLYLINE
  8
Default_Layer
 66
   1
 39
0.000000
 70
    1
  0
VERTEX
  8
0
 10
1.66731191
 20
3.10551608
  0
VERTEX
  8
0
 10
1.72797659
 20
3.01683910
  0
VERTEX
  8
0
 10
1.76954281
 20
2.88906466
  0
VERTEX
  8
0
 10
1.78964728
 20
2.75831458
  0
VERTEX
  8
0
 10
1.78592668
 20
2.66071067
  0
VERTEX
  8
0
 10
1.72934126
 20
2.74497751
  0
VERTEX
  8
0
 10
1.70332574
 20
2.85981982
  0
VERTEX
  8
0
 10
1.68895700
 20
2.98630891
  0
VERTEX
  8
0
 10
1.66731191
 20
3.10551608
  0
SEQEND
  0
POLYLINE
  8
Default_Layer
 66
   1
 39
0.000000
 70
    1
  0
VERTEX
  8
0
 10
1.28181388
 20
3.07586239
  0
VERTEX
  8
0
 10
1.44482596
 20
2.88303014
  0
VERTEX
  8
0
 10
1.63765821
 20
2.72001805
  0
VERTEX
  8
0
 10
1.61772251
 20
2.68396866
  0
VERTEX
  8
0
 10
1.59249395
 20
2.66614905
  0
VERTEX
  8
0
 10
1.53119087
 20
2.66298490
  0
VERTEX
  8
0
 10
1.46381406
 20
2.66609706
  0
VERTEX
  8
0
 10
1.43099337
 20
2.65612283
  0
VERTEX
  8
0
 10
1.40042866
 20
2.63105697
  0
VERTEX
  8
0
 10
1.39598930
 20
2.76746988
  0
VERTEX
  8
0
 10
1.35771453
 20
2.87005294
  0
VERTEX
  8
0
 10
1.31114313
 20
2.96433937
  0
VERTEX
  8
0
 10
1.28181388
 20
3.07586239
  0
SEQEND
  0
POLYLINE
  8
Default_Layer
 66
   1
 39
0.000000
 70
    1
  0
VERTEX
  8
0
 10
14.80389847
 20
3.07586239
  0
VERTEX
  8
0
 10
14.75240204
 20
3.00843793
  0
VERTEX
  8
0
 10
14.68399504
 20
2.95812441
  0
VERTEX
  8
0
 10
14.62364579
 20
2.89995907
  0
VERTEX
  8
0
 10
14.60429542
 20
2.86013110
  0
VERTEX
  8
0
 10
14.59632261
 20
2.80897914
  0
VERTEX
  8
0
 10
14.55456540
 20
2.85107467
  0
VERTEX
  8
0
 10
14.54514417
 20
2.89355345
  0
VERTEX
  8
0
 10
14.56156296
 20
2.93497599
  0
VERTEX
  8
0
 10
14.59732581
 20
2.97390277
  0
VERTEX
  8
0
 10
14.70089983
 20
3.03851109
  0
VERTEX
  8
0
 10
14.80389847
 20
3.07586239
  0
SEQEND
  0
POLYLINE
  8
Default_Layer
 66
   1
 39
0.000000
 70
    1
  0
VERTEX
  8
0
 10
14.95216694
 20
3.04620869
  0
VERTEX
  8
0
 10
14.90389015
 20
2.93096719
  0
VERTEX
  8
0
 10
14.86466995
 20
2.88874408
  0
VERTEX
  8
0
 10
14.80389847
 20
2.86828653
  0
VERTEX
  8
0
 10
14.83285663
 20
2.92056991
  0
VERTEX
  8
0
 10
14.85476140
 20
2.98010706
  0
VERTEX
  8
0
 10
14.88830181
 20
3.02821449
  0
VERTEX
  8
0
 10
14.95216694
 20
3.04620869
  0
SEQEND
  0
POLYLINE
  8
Default_Layer
 66
   1
 39
0.000000
 70
    1
  0
VERTEX
  8
0
 10
10.41515172
 20
2.92759391
  0
VERTEX
  8
0
 10
10.49461383
 20
2.89213920
  0
VERTEX
  8
0
 10
10.56265677
 20
2.83222891
  0
VERTEX
  8
0
 10
10.60142773
 20
2.76069373
  0
VERTEX
  8
0
 10
10.59307389
 20
2.69036436
  0
VERTEX
  8
0
 10
10.53135962
 20
2.73242830
  0
VERTEX
  8
0
 10
10.48551083
 20
2.79036605
  0
VERTEX
  8
0
 10
10.41515172
 20
2.92759391
  0
SEQEND
  0
POLYLINE
  8
Default_Layer
 66
   1
 39
0.000000
 70
    1
  0
VERTEX
  8
0
 10
10.74134236
 20
2.89794022
  0
VERTEX
  8
0
 10
10.79219722
 20
2.86068872
  0
VERTEX
  8
0
 10
10.82260365
 20
2.79757746
  0
VERTEX
  8
0
 10
10.81237943
 20
2.74016703
  0
VERTEX
  8
0
 10
10.78572389
 20
2.72346232
  0
VERTEX
  8
0
 10
10.74134236
 20
2.72001805
  0
VERTEX
  8
0
 10
10.74134236
 20
2.89794022
  0
SEQEND
  0
POLYLINE
  8
Default_Layer
 66
   1
 39
0.000000
 70
    1
  0
VERTEX
  8
0
 10
3.68376312
 20
2.80897914
  0
VERTEX
  8
0
 10
3.69968786
 20
2.78112944
  0
VERTEX
  8
0
 10
3.69815904
 20
2.75194524
  0
VERTEX
  8
0
 10
3.66007554
 20
2.69121151
  0
VERTEX
  8
0
 10
3.60418213
 20
2.63005420
  0
VERTEX
  8
0
 10
3.56514834
 20
2.57174958
  0
VERTEX
  8
0
 10
3.54145429
 20
2.60700518
  0
VERTEX
  8
0
 10
3.53998795
 20
2.63892807
  0
VERTEX
  8
0
 10
3.58129494
 20
2.69624003
  0
VERTEX
  8
0
 10
3.64418232
 20
2.75061416
  0
VERTEX
  8
0
 10
3.68376312
 20
2.80897914
  0
SEQEND
  0
POLYLINE
  8
Default_Layer
 66
   1
 39
0.000000
 70
    1
  0
VERTEX
  8
0
 10
14.38874675
 20
2.77932544
  0
VERTEX
  8
0
 10
14.45153640
 20
2.79108631
  0
VERTEX
  8
0
 10
14.46457549
 20
2.81907935
  0
VERTEX
  8
0
 10
14.45452706
 20
2.86426255
  0
VERTEX
  8
0
 10
14.44805414
 20
2.92759391
  0
VERTEX
  8
0
 10
14.56221070
 20
3.05874927
  0
VERTEX
  8
0
 10
14.70468924
 20
3.18203612
  0
VERTEX
  8
0
 10
14.83746500
 20
3.29671664
  0
VERTEX
  8
0
 10
14.92251325
 20
3.40205302
  0
VERTEX
  8
0
 10
14.75124035
 20
3.28389351
  0
VERTEX
  8
0
 10
14.58996317
 20
3.15594421
  0
VERTEX
  8
0
 10
14.52020976
 20
3.08116160
  0
VERTEX
  8
0
 10
14.46151941
 20
2.99536742
  0
VERTEX
  8
0
 10
14.41674683
 20
2.89570693
  0
VERTEX
  8
0
 10
14.38874675
 20
2.77932544
  0
SEQEND
  0
POLYLINE
  8
Default_Layer
 66
   1
 39
0.000000
 70
    1
  0
VERTEX
  8
0
 10
10.94891822
 20
2.72001805
  0
VERTEX
  8
0
 10
10.97046068
 20
2.92046644
  0
VERTEX
  8
0
 10
10.98096782
 20
3.02126362
  0
VERTEX
  8
0
 10
11.00822561
 20
3.10551608
  0
VERTEX
  8
0
 10
11.11275653
 20
2.92834691
  0
VERTEX
  8
0
 10
11.14711650
 20
2.82185114
  0
VERTEX
  8
0
 10
11.15649408
 20
2.69036436
  0
VERTEX
  8
0
 10
11.36238985
 20
2.75093998
  0
VERTEX
  8
0
 10
11.44976150
 20
2.79711292
  0
VERTEX
  8
0
 10
11.51233841
 20
2.86828653
  0
VERTEX
  8
0
 10
11.47826156
 20
2.90299226
  0
VERTEX
  8
0
 10
11.45019412
 20
2.91435033
  0
VERTEX
  8
0
 10
11.40259618
 20
2.88965069
  0
VERTEX
  8
0
 10
11.35056197
 20
2.83944213
  0
VERTEX
  8
0
 10
11.27510885
 20
2.80897914
  0
VERTEX
  8
0
 10
11.27557185
 20
2.86995981
  0
VERTEX
  8
0
 10
11.26285982
 20
2.88643586
  0
VERTEX
  8
0
 10
11.18614777
 20
2.86828653
  0
VERTEX
  8
0
 10
11.16344971
 20
2.95308676
  0
VERTEX
  8
0
 10
11.12949275
 20
3.02662774
  0
VERTEX
  8
0
 10
11.03787279
 20
3.15000123
  0
VERTEX
  8
0
 10
10.93142924
 20
3.25854558
  0
VERTEX
  8
0
 10
10.83030344
 20
3.37239933
  0
VERTEX
  8
0
 10
10.89364904
 20
3.22230969
  0
VERTEX
  8
0
 10
10.91859526
 20
3.06925274
  0
VERTEX
  8
0
 10
10.92904925
 20
2.90467377
  0
VERTEX
  8
0
 10
10.94891822
 20
2.72001805
  0
SEQEND
  0
POLYLINE
  8
Default_Layer
 66
   1
 39
0.000000
 70
    1
  0
VERTEX
  8
0
 10
6.23398083
 20
2.51244219
  0
VERTEX
  8
0
 10
6.38356535
 20
2.51070873
  0
VERTEX
  8
0
 10
6.45130620
 20
2.51720716
  0
VERTEX
  8
0
 10
6.50086407
 20
2.54209589
  0
VERTEX
  8
0
 10
6.48018320
 20
2.59555231
  0
VERTEX
  8
0
 10
6.44490809
 20
2.63441282
  0
VERTEX
  8
0
 10
6.40795727
 20
2.67159541
  0
VERTEX
  8
0
 10
6.38224930
 20
2.72001805
  0
VERTEX
  8
0
 10
6.61275022
 20
2.93331724
  0
VERTEX
  8
0
 10
6.70196735
 20
3.04859705
  0
VERTEX
  8
0
 10
6.71861182
 20
3.09708714
  0
VERTEX
  8
0
 10
6.70843993
 20
3.13516977
  0
VERTEX
  8
0
 10
6.57994018
 20
2.98907092
  0
VERTEX
  8
0
 10
6.44620099
 20
2.84841464
  0
VERTEX
  8
0
 10
6.32496650
 20
2.69545403
  0
VERTEX
  8
0
 10
6.23398083
 20
2.51244219
  0
SEQEND
  0
POLYLINE
  8
Default_Layer
 66
   1
 39
0.000000
 70
    1
  0
VERTEX
  8
0
 10
14.59632261
 20
2.80897914
  0
VERTEX
  8
0
 10
14.60429542
 20
2.86013110
  0
VERTEX
  8
0
 10
14.62364579
 20
2.89995907
  0
VERTEX
  8
0
 10
14.68399504
 20
2.95812441
  0
VERTEX
  8
0
 10
14.75240204
 20
3.00843793
  0
VERTEX
  8
0
 10
14.80389847
 20
3.07586239
  0
VERTEX
  8
0
 10
14.70089983
 20
3.03851109
  0
VERTEX
  8
0
 10
14.59732581
 20
2.97390277
  0
VERTEX
  8
0
 10
14.56156296
 20
2.93497599
  0
VERTEX
  8
0
 10
14.54514417
 20
2.89355345
  0
VERTEX
  8
0
 10
14.55456540
 20
2.85107467
  0
VERTEX
  8
0
 10
14.59632261
 20
2.80897914
  0
SEQEND
  0
POLYLINE
  8
Default_Layer
 66
   1
 39
0.000000
 70
    1
  0
VERTEX
  8
0
 10
14.80389847
 20
2.86828653
  0
VERTEX
  8
0
 10
14.86466995
 20
2.88874408
  0
VERTEX
  8
0
 10
14.90389015
 20
2.93096719
  0
VERTEX
  8
0
 10
14.95216694
 20
3.04620869
  0
VERTEX
  8
0
 10
14.88830181
 20
3.02821449
  0
VERTEX
  8
0
 10
14.85476140
 20
2.98010706
  0
VERTEX
  8
0
 10
14.83285663
 20
2.92056991
  0
VERTEX
  8
0
 10
14.80389847
 20
2.86828653
  0
SEQEND
  0
POLYLINE
  8
Default_Layer
 66
   1
 39
0.000000
 70
    1
  0
VERTEX
  8
0
 10
10.59307389
 20
2.69036436
  0
VERTEX
  8
0
 10
10.60142773
 20
2.76069373
  0
VERTEX
  8
0
 10
10.56265677
 20
2.83222891
  0
VERTEX
  8
0
 10
10.49461383
 20
2.89213920
  0
VERTEX
  8
0
 10
10.41515172
 20
2.92759391
  0
VERTEX
  8
0
 10
10.48551083
 20
2.79036605
  0
VERTEX
  8
0
 10
10.53135962
 20
2.73242830
  0
VERTEX
  8
0
 10
10.59307389
 20
2.69036436
  0
SEQEND
  0
POLYLINE
  8
Default_Layer
 66
   1
 39
0.000000
 70
    1
  0
VERTEX
  8
0
 10
10.74134236
 20
2.72001805
  0
VERTEX
  8
0
 10
10.78572389
 20
2.72346232
  0
VERTEX
  8
0
 10
10.81237943
 20
2.74016703
  0
VERTEX
  8
0
 10
10.82260365
 20
2.79757746
  0
VERTEX
  8
0
 10
10.79219722
 20
2.86068872
  0
VERTEX
  8
0
 10
10.74134236
 20
2.89794022
  0
VERTEX
  8
0
 10
10.74134236
 20
2.72001805
  0
SEQEND
  0
POLYLINE
  8
Default_Layer
 66
   1
 39
0.000000
 70
    1
  0
VERTEX
  8
0
 10
2.79415229
 20
2.36417372
  0
VERTEX
  8
0
 10
2.83479840
 20
2.43084110
  0
VERTEX
  8
0
 10
2.86498503
 20
2.50801915
  0
VERTEX
  8
0
 10
2.91073558
 20
2.67715269
  0
VERTEX
  8
0
 10
2.96491530
 20
2.83806523
  0
VERTEX
  8
0
 10
3.00563839
 20
2.90496701
  0
VERTEX
  8
0
 10
3.06103554
 20
2.95724761
  0
VERTEX
  8
0
 10
3.04361815
 20
2.81125940
  0
VERTEX
  8
0
 10
3.00396532
 20
2.68771534
  0
VERTEX
  8
0
 10
2.96319390
 20
2.56549579
  0
VERTEX
  8
0
 10
2.94242076
 20
2.42348111
  0
VERTEX
  8
0
 10
3.00336993
 20
2.48824986
  0
VERTEX
  8
0
 10
3.04964757
 20
2.56789884
  0
VERTEX
  8
0
 10
3.12034293
 20
2.74967175
  0
VERTEX
  8
0
 10
3.16726071
 20
2.77191330
  0
VERTEX
  8
0
 10
3.20019864
 20
2.74360588
  0
VERTEX
  8
0
 10
3.23768925
 20
2.70350455
  0
VERTEX
  8
0
 10
3.29826509
 20
2.69036436
  0
VERTEX
  8
0
 10
3.31777993
 20
2.71855271
  0
VERTEX
  8
0
 10
3.31834030
 20
2.74059029
  0
VERTEX
  8
0
 10
3.28511903
 20
2.77723391
  0
VERTEX
  8
0
 10
3.24364395
 20
2.82233672
  0
VERTEX
  8
0
 10
3.23388705
 20
2.85494829
  0
VERTEX
  8
0
 10
3.23895770
 20
2.89794022
  0
VERTEX
  8
0
 10
3.39765666
 20
3.00570710
  0
VERTEX
  8
0
 10
3.47261675
 20
3.06429507
  0
VERTEX
  8
0
 10
3.53549465
 20
3.13516977
  0
VERTEX
  8
0
 10
3.43838601
 20
3.09852623
  0
VERTEX
  8
0
 10
3.35848339
 20
3.04488148
  0
VERTEX
  8
0
 10
3.20930401
 20
2.92759391
  0
VERTEX
  8
0
 10
3.20008368
 20
2.96300171
  0
VERTEX
  8
0
 10
3.20946385
 20
2.99885455
  0
VERTEX
  8
0
 10
3.26480218
 20
3.07195345
  0
VERTEX
  8
0
 10
3.33687196
 20
3.14700682
  0
VERTEX
  8
0
 10
3.38722618
 20
3.22413086
  0
VERTEX
  8
0
 10
3.30522077
 20
3.18721120
  0
VERTEX
  8
0
 10
3.24234210
 20
3.13137352
  0
VERTEX
  8
0
 10
3.14999662
 20
2.98690130
  0
VERTEX
  8
0
 10
3.11002623
 20
3.00253159
  0
VERTEX
  8
0
 10
3.08353156
 20
3.03163759
  0
VERTEX
  8
0
 10
3.06050379
 20
3.11981118
  0
VERTEX
  8
0
 10
3.06103554
 20
3.34274563
  0
VERTEX
  8
0
 10
3.01311840
 20
3.33846478
  0
VERTEX
  8
0
 10
2.99503362
 20
3.30455332
  0
VERTEX
  8
0
 10
2.98029611
 20
3.26749775
  0
VERTEX
  8
0
 10
2.94242076
 20
3.25378455
  0
VERTEX
  8
0
 10
2.77596995
 20
3.39377575
  0
VERTEX
  8
0
 10
2.64899435
 20
3.55449569
  0
VERTEX
  8
0
 10
2.55805549
 20
3.73327462
  0
VERTEX
  8
0
 10
2.49971491
 20
3.92744280
  0
VERTEX
  8
0
 10
2.47053412
 20
4.13433049
  0
VERTEX
  8
0
 10
2.46707466
 20
4.35126796
  0
VERTEX
  8
0
 10
2.48589805
 20
4.57558546
  0
VERTEX
  8
0
 10
2.52356583
 20
4.80461325
  0
VERTEX
  8
0
 10
2.64168065
 20
5.26612074
  0
VERTEX
  8
0
 10
2.79391134
 20
5.71443252
  0
VERTEX
  8
0
 10
3.09068923
 20
6.48603723
  0
VERTEX
  8
0
 10
3.15307608
 20
6.44855736
  0
VERTEX
  8
0
 10
3.19089558
 20
6.39042541
  0
VERTEX
  8
0
 10
3.20963713
 20
6.31408343
  0
VERTEX
  8
0
 10
3.21479011
 20
6.22197347
  0
VERTEX
  8
0
 10
3.20628789
 20
6.00021782
  0
VERTEX
  8
0
 10
3.20930401
 20
5.74469487
  0
VERTEX
  8
0
 10
3.29147920
 20
5.15962974
  0
VERTEX
  8
0
 10
3.39683525
 20
4.53778820
  0
VERTEX
  8
0
 10
3.43787719
 20
4.21622900
  0
VERTEX
  8
0
 10
3.46031964
 20
3.88925899
  0
VERTEX
  8
0
 10
3.45603106
 20
3.55813924
  0
VERTEX
  8
0
 10
3.41687987
 20
3.22413086
  0
VERTEX
  8
0
 10
3.49049492
 20
3.20373114
  0
VERTEX
  8
0
 10
3.56494241
 20
3.20602188
  0
VERTEX
  8
0
 10
3.63949287
 20
3.20254026
  0
VERTEX
  8
0
 10
3.71341681
 20
3.16482347
  0
VERTEX
  8
0
 10
3.64791929
 20
3.01502003
  0
VERTEX
  8
0
 10
3.56390046
 20
2.88394940
  0
VERTEX
  8
0
 10
3.48050556
 20
2.75246076
  0
VERTEX
  8
0
 10
3.41687987
 20
2.60140328
  0
VERTEX
  8
0
 10
3.51036401
 20
2.70035579
  0
VERTEX
  8
0
 10
3.58182649
 20
2.82153727
  0
VERTEX
  8
0
 10
3.65236332
 20
2.94385311
  0
VERTEX
  8
0
 10
3.74307051
 20
3.04620869
  0
VERTEX
  8
0
 10
3.79636842
 20
2.99572006
  0
VERTEX
  8
0
 10
3.83543822
 20
2.93100055
  0
VERTEX
  8
0
 10
3.89133898
 20
2.77932544
  0
VERTEX
  8
0
 10
3.77733811
 20
2.62603677
  0
VERTEX
  8
0
 10
3.68376312
 20
2.45313481
  0
VERTEX
  8
0
 10
3.72880792
 20
2.46721842
  0
VERTEX
  8
0
 10
3.76204682
 20
2.49315838
  0
VERTEX
  8
0
 10
3.80580566
 20
2.56790996
  0
VERTEX
  8
0
 10
3.84043719
 20
2.65199478
  0
VERTEX
  8
0
 10
3.89133898
 20
2.72001805
  0
VERTEX
  8
0
 10
3.91573035
 20
2.69806797
  0
VERTEX
  8
0
 10
3.92578094
 20
2.67202066
  0
VERTEX
  8
0
 10
3.91760342
 20
2.61142676
  0
VERTEX
  8
0
 10
3.89629368
 20
2.54582112
  0
VERTEX
  8
0
 10
3.89133898
 20
2.48278850
  0
VERTEX
  8
0
 10
4.00871588
 20
2.48361452
  0
VERTEX
  8
0
 10
4.04313868
 20
2.50860346
  0
VERTEX
  8
0
 10
4.03960745
 20
2.57174958
  0
VERTEX
  8
0
 10
4.11566341
 20
2.50658946
  0
VERTEX
  8
0
 10
4.21752962
 20
2.54209589
  0
VERTEX
  8
0
 10
4.21752962
 20
2.39382742
  0
VERTEX
  8
0
 10
4.43499515
 20
2.66523598
  0
VERTEX
  8
0
 10
4.55319019
 20
2.79178688
  0
VERTEX
  8
0
 10
4.69198872
 20
2.89794022
  0
VERTEX
  8
0
 10
4.58184145
 20
2.77054627
  0
VERTEX
  8
0
 10
4.46228136
 20
2.65277661
  0
VERTEX
  8
0
 10
4.35378703
 20
2.52414714
  0
VERTEX
  8
0
 10
4.31008907
 20
2.44935868
  0
VERTEX
  8
0
 10
4.27683700
 20
2.36417372
  0
VERTEX
  8
0
 10
2.79415229
 20
2.36417372
  0
SEQEND
  0
POLYLINE
  8
Default_Layer
 66
   1
 39
0.000000
 70
    1
  0
VERTEX
  8
0
 10
3.56514834
 20
2.57174958
  0
VERTEX
  8
0
 10
3.60418213
 20
2.63005420
  0
VERTEX
  8
0
 10
3.66007554
 20
2.69121151
  0
VERTEX
  8
0
 10
3.69815904
 20
2.75194524
  0
VERTEX
  8
0
 10
3.69968786
 20
2.78112944
  0
VERTEX
  8
0
 10
3.68376312
 20
2.80897914
  0
VERTEX
  8
0
 10
3.64418232
 20
2.75061416
  0
VERTEX
  8
0
 10
3.58129494
 20
2.69624003
  0
VERTEX
  8
0
 10
3.53998795
 20
2.63892807
  0
VERTEX
  8
0
 10
3.54145429
 20
2.60700518
  0
VERTEX
  8
0
 10
3.56514834
 20
2.57174958
  0
SEQEND
  0
POLYLINE
  8
Default_Layer
 66
   1
 39
0.000000
 70
    1
  0
VERTEX
  8
0
 10
3.06103554
 20
7.55357022
  0
VERTEX
  8
0
 10
3.26861140
 20
7.55357022
  0
VERTEX
  8
0
 10
3.26861140
 20
7.61287761
  0
VERTEX
  8
0
 10
3.06103554
 20
7.61287761
  0
VERTEX
  8
0
 10
3.06103554
 20
7.55357022
  0
SEQEND
  0
POLYLINE
  8
Default_Layer
 66
   1
 39
0.000000
 70
    1
  0
VERTEX
  8
0
 10
1.78592668
 20
2.66071067
  0
VERTEX
  8
0
 10
1.78964728
 20
2.75831458
  0
VERTEX
  8
0
 10
1.76954281
 20
2.88906466
  0
VERTEX
  8
0
 10
1.72797659
 20
3.01683910
  0
VERTEX
  8
0
 10
1.66731191
 20
3.10551608
  0
VERTEX
  8
0
 10
1.68895700
 20
2.98630891
  0
VERTEX
  8
0
 10
1.70332574
 20
2.85981982
  0
VERTEX
  8
0
 10
1.72934126
 20
2.74497751
  0
VERTEX
  8
0
 10
1.78592668
 20
2.66071067
  0
SEQEND
  0
POLYLINE
  8
Default_Layer
 66
   1
 39
0.000000
 70
    1
  0
VERTEX
  8
0
 10
1.40042866
 20
2.63105697
  0
VERTEX
  8
0
 10
1.43099337
 20
2.65612283
  0
VERTEX
  8
0
 10
1.46381406
 20
2.66609706
  0
VERTEX
  8
0
 10
1.53119087
 20
2.66298490
  0
VERTEX
  8
0
 10
1.59249395
 20
2.66614905
  0
VERTEX
  8
0
 10
1.61772251
 20
2.68396866
  0
VERTEX
  8
0
 10
1.63765821
 20
2.72001805
  0
VERTEX
  8
0
 10
1.44482596
 20
2.88303014
  0
VERTEX
  8
0
 10
1.28181388
 20
3.07586239
  0
VERTEX
  8
0
 10
1.31114313
 20
2.96433937
  0
VERTEX
  8
0
 10
1.35771453
 20
2.87005294
  0
VERTEX
  8
0
 10
1.39598930
 20
2.76746988
  0
VERTEX
  8
0
 10
1.40042866
 20
2.63105697
  0
SEQEND
  0
POLYLINE
  8
Default_Layer
 66
   1
 39
0.000000
 70
    1
  0
VERTEX
  8
0
 10
18.33268809
 20
14.67045685
  0
VERTEX
  8
0
 10
18.35936126
 20
14.68174810
  0
VERTEX
  8
0
 10
18.38792485
 20
14.67603729
  0
VERTEX
  8
0
 10
18.45076371
 20
14.63268896
  0
VERTEX
  8
0
 10
18.52128557
 20
14.57857088
  0
VERTEX
  8
0
 10
18.59957134
 20
14.55184207
  0
VERTEX
  8
0
 10
18.57928547
 20
14.64866350
  0
VERTEX
  8
0
 10
18.54027306
 20
14.74353306
  0
VERTEX
  8
0
 10
18.41617764
 20
14.91993063
  0
VERTEX
  8
0
 10
18.24750315
 20
15.06606283
  0
VERTEX
  8
0
 10
18.05446766
 20
15.16695771
  0
VERTEX
  8
0
 10
17.95513269
 20
15.19576243
  0
VERTEX
  8
0
 10
17.85728926
 20
15.20764335
  0
VERTEX
  8
0
 10
17.76346461
 20
15.20072896
  0
VERTEX
  8
0
 10
17.67618601
 20
15.17314779
  0
VERTEX
  8
0
 10
17.59798071
 20
15.12302833
  0
VERTEX
  8
0
 10
17.53137598
 20
15.04849909
  0
VERTEX
  8
0
 10
17.47889908
 20
14.94768859
  0
VERTEX
  8
0
 10
17.44307726
 20
14.81872532
  0
VERTEX
  8
0
 10
17.42581502
 20
14.87322317
  0
VERTEX
  8
0
 10
17.42455050
 20
14.93082776
  0
VERTEX
  8
0
 10
17.45211958
 20
15.05401013
  0
VERTEX
  8
0
 10
17.48999435
 20
15.18557829
  0
VERTEX
  8
0
 10
17.50238465
 20
15.32283812
  0
VERTEX
  8
0
 10
17.46284519
 20
15.27310761
  0
VERTEX
  8
0
 10
17.43517546
 20
15.21171329
  0
VERTEX
  8
0
 10
17.41342357
 20
15.05595487
  0
VERTEX
  8
0
 10
17.32632049
 20
14.97607634
  0
VERTEX
  8
0
 10
17.27309083
 20
14.86237675
  0
VERTEX
  8
0
 10
17.24500493
 20
14.72358522
  0
VERTEX
  8
0
 10
17.23333314
 20
14.56843088
  0
VERTEX
  8
0
 10
17.22431328
 20
14.24395034
  0
VERTEX
  8
0
 10
17.20950590
 20
14.09208240
  0
VERTEX
  8
0
 10
17.17619402
 20
13.95876819
  0
VERTEX
  8
0
 10
17.12344577
 20
13.99127735
  0
VERTEX
  8
0
 10
17.08453031
 20
14.03761809
  0
VERTEX
  8
0
 10
17.03161092
 20
14.15520814
  0
VERTEX
  8
0
 10
16.98426227
 20
14.27836614
  0
VERTEX
  8
0
 10
16.95231022
 20
14.33166682
  0
VERTEX
  8
0
 10
16.90931077
 20
14.37391991
  0
VERTEX
  8
0
 10
16.87711869
 20
14.28338846
  0
VERTEX
  8
0
 10
16.88431037
 20
14.19994797
  0
VERTEX
  8
0
 10
16.92108810
 20
14.12133635
  0
VERTEX
  8
0
 10
16.97765417
 20
14.04529153
  0
VERTEX
  8
0
 10
17.11096051
 20
13.89185396
  0
VERTEX
  8
0
 10
17.16810535
 20
13.80993706
  0
VERTEX
  8
0
 10
17.20584771
 20
13.72153863
  0
VERTEX
  8
0
 10
17.24952481
 20
13.43766691
  0
VERTEX
  8
0
 10
17.25007895
 20
13.09429199
  0
VERTEX
  8
0
 10
17.22684954
 20
12.93580856
  0
VERTEX
  8
0
 10
17.18403694
 20
12.80507058
  0
VERTEX
  8
0
 10
17.11870699
 20
12.71628514
  0
VERTEX
  8
0
 10
17.07668109
 20
12.69206434
  0
VERTEX
  8
0
 10
17.02792554
 20
12.68365933
  0
VERTEX
  8
0
 10
17.06644067
 20
13.01540353
  0
VERTEX
  8
0
 10
17.10362599
 20
13.16365954
  0
VERTEX
  8
0
 10
17.13438884
 20
13.22569284
  0
VERTEX
  8
0
 10
17.17619402
 20
13.27673322
  0
VERTEX
  8
0
 10
17.15454436
 20
13.34078211
  0
VERTEX
  8
0
 10
17.10949015
 20
13.39012698
  0
VERTEX
  8
0
 10
17.04629492
 20
13.42561765
  0
VERTEX
  8
0
 10
16.97022221
 20
13.44810394
  0
VERTEX
  8
0
 10
16.80049856
 20
13.45746265
  0
VERTEX
  8
0
 10
16.64242752
 20
13.42500169
  0
VERTEX
  8
0
 10
16.68372184
 20
13.40614531
  0
VERTEX
  8
0
 10
16.72830678
 20
13.40023551
  0
VERTEX
  8
0
 10
16.82258796
 20
13.40790131
  0
VERTEX
  8
0
 10
16.91575001
 20
13.40929045
  0
VERTEX
  8
0
 10
16.95893602
 20
13.39553483
  0
VERTEX
  8
0
 10
16.99827185
 20
13.36569430
  0
VERTEX
  8
0
 10
16.86734614
 20
13.30345915
  0
VERTEX
  8
0
 10
16.81769724
 20
13.25683789
  0
VERTEX
  8
0
 10
16.79069599
 20
13.18777214
  0
VERTEX
  8
0
 10
16.79844973
 20
13.12510078
  0
VERTEX
  8
0
 10
16.81920175
 20
13.07542562
  0
VERTEX
  8
0
 10
16.88198209
 20
12.99734814
  0
VERTEX
  8
0
 10
16.94359992
 20
12.91810814
  0
VERTEX
  8
0
 10
16.96289881
 20
12.86697985
  0
VERTEX
  8
0
 10
16.96861816
 20
12.80227411
  0
VERTEX
  8
0
 10
16.85988328
 20
12.70365170
  0
VERTEX
  8
0
 10
16.71411105
 20
12.63090966
  0
VERTEX
  8
0
 10
16.54629060
 20
12.58731484
  0
VERTEX
  8
0
 10
16.37141108
 20
12.57613409
  0
VERTEX
  8
0
 10
16.20446163
 20
12.60063427
  0
VERTEX
  8
0
 10
16.06043140
 20
12.66408223
  0
VERTEX
  8
0
 10
16.00169510
 20
12.71143251
  0
VERTEX
  8
0
 10
15.95430953
 20
12.76974481
  0
VERTEX
  8
0
 10
15.92014834
 20
12.83942749
  0
VERTEX
  8
0
 10
15.90108516
 20
12.92088889
  0
VERTEX
  8
0
 10
15.85897153
 20
12.86631565
  0
VERTEX
  8
0
 10
15.83026971
 20
12.79853791
  0
VERTEX
  8
0
 10
15.81212408
 20
12.62435194
  0
VERTEX
  8
0
 10
15.74100933
 20
12.66152066
  0
VERTEX
  8
0
 10
15.68804295
 20
12.71733280
  0
VERTEX
  8
0
 10
15.65113282
 20
12.78827697
  0
VERTEX
  8
0
 10
15.62818683
 20
12.87084177
  0
VERTEX
  8
0
 10
15.61581878
 20
13.05678772
  0
VERTEX
  8
0
 10
15.63420191
 20
13.24707952
  0
VERTEX
  8
0
 10
15.58302342
 20
13.22381141
  0
VERTEX
  8
0
 10
15.56293054
 20
13.16966501
  0
VERTEX
  8
0
 10
15.54524083
 20
13.03950366
  0
VERTEX
  8
0
 10
15.46162094
 20
13.08463263
  0
VERTEX
  8
0
 10
15.39205970
 20
13.13960858
  0
VERTEX
  8
0
 10
15.28901863
 20
13.27524695
  0
VERTEX
  8
0
 10
15.22392858
 20
13.43870973
  0
VERTEX
  8
0
 10
15.18460055
 20
13.62228788
  0
VERTEX
  8
0
 10
15.13447441
 20
14.01895419
  0
VERTEX
  8
0
 10
15.09929826
 20
14.21662427
  0
VERTEX
  8
0
 10
15.04112803
 20
14.40357360
  0
VERTEX
  8
0
 10
14.95696328
 20
14.57936587
  0
VERTEX
  8
0
 10
14.86961048
 20
14.73927175
  0
VERTEX
  8
0
 10
14.79388223
 20
14.89442387
  0
VERTEX
  8
0
 10
14.74459108
 20
15.05595487
  0
VERTEX
  8
0
 10
14.70134171
 20
15.00983687
  0
VERTEX
  8
0
 10
14.68528370
 20
14.93734010
  0
VERTEX
  8
0
 10
14.60745737
 20
14.97813967
  0
VERTEX
  8
0
 10
14.53701522
 20
15.02630118
  0
VERTEX
  8
0
 10
14.47092704
 20
14.89945895
  0
VERTEX
  8
0
 10
14.37412408
 20
14.80338401
  0
VERTEX
  8
0
 10
14.25657808
 20
14.72810431
  0
VERTEX
  8
0
 10
14.12826071
 20
14.66364778
  0
VERTEX
  8
0
 10
13.99914370
 20
14.60004240
  0
VERTEX
  8
0
 10
13.87919874
 20
14.52731609
  0
VERTEX
  8
0
 10
13.77839753
 20
14.43549681
  0
VERTEX
  8
0
 10
13.70671178
 20
14.31461252
  0
VERTEX
  8
0
 10
13.76176564
 20
14.49660548
  0
VERTEX
  8
0
 10
13.83779296
 20
14.65767836
  0
VERTEX
  8
0
 10
13.93497574
 20
14.79764859
  0
VERTEX
  8
0
 10
14.05349597
 20
14.91633359
  0
VERTEX
  8
0
 10
14.19353562
 20
15.01355077
  0
VERTEX
  8
0
 10
14.35527671
 20
15.08911756
  0
VERTEX
  8
0
 10
14.53890120
 20
15.14285138
  0
VERTEX
  8
0
 10
14.74459108
 20
15.17456965
  0
VERTEX
  8
0
 10
14.78095305
 20
15.27818565
  0
VERTEX
  8
0
 10
14.79950614
 20
15.39365637
  0
VERTEX
  8
0
 10
14.80861580
 20
15.64925948
  0
VERTEX
  8
0
 10
14.82278022
 20
15.91957409
  0
VERTEX
  8
0
 10
14.84765176
 20
16.05343416
  0
VERTEX
  8
0
 10
14.89285956
 20
16.18279526
  0
VERTEX
  8
0
 10
15.07326062
 20
16.26707460
  0
VERTEX
  8
0
 10
15.29580585
 20
16.33434554
  0
VERTEX
  8
0
 10
15.55018916
 20
16.38530863
  0
VERTEX
  8
0
 10
15.82610448
 20
16.42066438
  0
VERTEX
  8
0
 10
16.40130687
 20
16.44735605
  0
VERTEX
  8
0
 10
16.93896446
 20
16.42002481
  0
VERTEX
  8
0
 10
17.07830289
 20
16.38203378
  0
VERTEX
  8
0
 10
17.20584771
 20
16.33106373
  0
VERTEX
  8
0
 10
17.29792185
 20
16.06729354
  0
VERTEX
  8
0
 10
17.33466710
 20
15.92612079
  0
VERTEX
  8
0
 10
17.35411618
 20
15.76764354
  0
VERTEX
  8
0
 10
17.20702439
 20
15.69192077
  0
VERTEX
  8
0
 10
17.14045847
 20
15.64738829
  0
VERTEX
  8
0
 10
17.08723293
 20
15.58972137
  0
VERTEX
  8
0
 10
17.11798156
 20
15.56691211
  0
VERTEX
  8
0
 10
17.14904669
 20
15.56261807
  0
VERTEX
  8
0
 10
17.21298589
 20
15.58981532
  0
VERTEX
  8
0
 10
17.28076942
 20
15.63179244
  0
VERTEX
  8
0
 10
17.35411618
 20
15.64902876
  0
VERTEX
  8
0
 10
17.34002219
 20
15.60363031
  0
VERTEX
  8
0
 10
17.31357150
 20
15.57064421
  0
VERTEX
  8
0
 10
17.23942216
 20
15.52608137
  0
VERTEX
  8
0
 10
17.16331244
 20
15.48368484
  0
VERTEX
  8
0
 10
17.13441127
 20
15.45340663
  0
VERTEX
  8
0
 10
17.11688663
 20
15.41179921
  0
VERTEX
  8
0
 10
17.18746912
 20
15.42987724
  0
VERTEX
  8
0
 10
17.24650235
 20
15.45970491
  0
VERTEX
  8
0
 10
17.35411618
 20
15.53041398
  0
VERTEX
  8
0
 10
17.39688732
 20
15.49064415
  0
VERTEX
  8
0
 10
17.44265306
 20
15.46624954
  0
VERTEX
  8
0
 10
17.54027408
 20
15.44920676
  0
VERTEX
  8
0
 10
17.64119066
 20
15.45052733
  0
VERTEX
  8
0
 10
17.73961421
 20
15.44145290
  0
VERTEX
  8
0
 10
17.87823921
 20
15.39671155
  0
VERTEX
  8
0
 10
18.01195636
 20
15.33481541
  0
VERTEX
  8
0
 10
18.13923338
 20
15.25727689
  0
VERTEX
  8
0
 10
18.25853804
 20
15.16560838
  0
VERTEX
  8
0
 10
18.36833809
 20
15.06132230
  0
VERTEX
  8
0
 10
18.46710126
 20
14.94593105
  0
VERTEX
  8
0
 10
18.55329532
 20
14.82094703
  0
VERTEX
  8
0
 10
18.62538801
 20
14.68788264
  0
VERTEX
  8
0
 10
18.68184709
 20
14.54825028
  0
VERTEX
  8
0
 10
18.72114029
 20
14.40356237
  0
VERTEX
  8
0
 10
18.74173538
 20
14.25533131
  0
VERTEX
  8
0
 10
18.74210009
 20
14.10506949
  0
VERTEX
  8
0
 10
18.72070219
 20
13.95428932
  0
VERTEX
  8
0
 10
18.67600942
 20
13.80450321
  0
VERTEX
  8
0
 10
18.60648952
 20
13.65722356
  0
VERTEX
  8
0
 10
18.51061026
 20
13.51396277
  0
VERTEX
  8
0
 10
18.34842404
 20
13.67796372
  0
VERTEX
  8
0
 10
18.19932299
 20
13.85505122
  0
VERTEX
  8
0
 10
18.11862825
 20
13.93745171
  0
VERTEX
  8
0
 10
18.02794341
 20
14.00986297
  0
VERTEX
  8
0
 10
17.92284801
 20
14.06786472
  0
VERTEX
  8
0
 10
17.79892160
 20
14.10703666
  0
VERTEX
  8
0
 10
17.75520724
 20
14.22606780
  0
VERTEX
  8
0
 10
17.73149612
 20
14.34197841
  0
VERTEX
  8
0
 10
17.72667918
 20
14.45362163
  0
VERTEX
  8
0
 10
17.73964736
 20
14.55985059
  0
VERTEX
  8
0
 10
17.76929160
 20
14.65951841
  0
VERTEX
  8
0
 10
17.81450284
 20
14.75147823
  0
VERTEX
  8
0
 10
17.87417201
 20
14.83458319
  0
VERTEX
  8
0
 10
17.94719007
 20
14.90768640
  0
VERTEX
  8
0
 10
18.03744272
 20
14.85708036
  0
VERTEX
  8
0
 10
18.11484722
 20
14.79362651
  0
VERTEX
  8
0
 10
18.24336132
 20
14.64042635
  0
VERTEX
  8
0
 10
18.35723142
 20
14.47258774
  0
VERTEX
  8
0
 10
18.48095656
 20
14.31461252
  0
VERTEX
  8
0
 10
18.48741183
 20
14.40017736
  0
VERTEX
  8
0
 10
18.45331207
 20
14.50205887
  0
VERTEX
  8
0
 10
18.39596744
 20
14.59917830
  0
VERTEX
  8
0
 10
18.33268809
 20
14.67045685
  0
SEQEND
  0
POLYLINE
  8
Default_Layer
 66
   1
 39
0.000000
 70
    1
  0
VERTEX
  8
0
 10
15.13008911
 20
15.08560857
  0
VERTEX
  8
0
 10
15.14416626
 20
15.14683097
  0
VERTEX
  8
0
 10
15.17679940
 20
15.20869232
  0
VERTEX
  8
0
 10
15.19349082
 20
15.26831919
  0
VERTEX
  8
0
 10
15.18507785
 20
15.29639674
  0
VERTEX
  8
0
 10
15.15974280
 20
15.32283812
  0
VERTEX
  8
0
 10
15.11529912
 20
15.23342276
  0
VERTEX
  8
0
 10
15.07753552
 20
15.20457199
  0
VERTEX
  8
0
 10
15.01147433
 20
15.20422335
  0
VERTEX
  8
0
 10
15.03080325
 20
15.05675084
  0
VERTEX
  8
0
 10
15.08259537
 20
14.94174240
  0
VERTEX
  8
0
 10
15.15897796
 20
14.85132479
  0
VERTEX
  8
0
 10
15.25207827
 20
14.77762472
  0
VERTEX
  8
0
 10
15.45694110
 20
14.64888419
  0
VERTEX
  8
0
 10
15.55295813
 20
14.57809719
  0
VERTEX
  8
0
 10
15.63420191
 20
14.49253468
  0
VERTEX
  8
0
 10
15.64282651
 20
14.60865697
  0
VERTEX
  8
0
 10
15.63562750
 20
14.70895442
  0
VERTEX
  8
0
 10
15.61451882
 20
14.79534116
  0
VERTEX
  8
0
 10
15.58141442
 20
14.86973132
  0
VERTEX
  8
0
 10
15.48687428
 20
14.99017838
  0
VERTEX
  8
0
 10
15.36731866
 20
15.08560857
  0
VERTEX
  8
0
 10
15.37655239
 20
15.02812148
  0
VERTEX
  8
0
 10
15.41159328
 20
14.99644156
  0
VERTEX
  8
0
 10
15.44673713
 20
14.96486459
  0
VERTEX
  8
0
 10
15.45627975
 20
14.90768640
  0
VERTEX
  8
0
 10
15.40659811
 20
14.92888451
  0
VERTEX
  8
0
 10
15.38529949
 20
14.93041052
  0
VERTEX
  8
0
 10
15.36731866
 20
14.90768640
  0
VERTEX
  8
0
 10
15.46033061
 20
14.80794377
  0
VERTEX
  8
0
 10
15.54524083
 20
14.70011054
  0
VERTEX
  8
0
 10
15.43949546
 20
14.79452761
  0
VERTEX
  8
0
 10
15.31895402
 20
14.87414861
  0
VERTEX
  8
0
 10
15.20776806
 20
14.96312508
  0
VERTEX
  8
0
 10
15.16323074
 20
15.01866898
  0
VERTEX
  8
0
 10
15.13008911
 20
15.08560857
  0
SEQEND
  0
POLYLINE
  8
Default_Layer
 66
   1
 39
0.000000
 70
    1
  0
VERTEX
  8
0
 10
16.93896446
 20
14.61114946
  0
VERTEX
  8
0
 10
17.05354614
 20
14.77389207
  0
VERTEX
  8
0
 10
17.18541833
 20
14.95647616
  0
VERTEX
  8
0
 10
17.23941032
 20
15.05065168
  0
VERTEX
  8
0
 10
17.27561125
 20
15.14431907
  0
VERTEX
  8
0
 10
17.28664992
 20
15.23565549
  0
VERTEX
  8
0
 10
17.26515510
 20
15.32283812
  0
VERTEX
  8
0
 10
17.23661851
 20
15.21891470
  0
VERTEX
  8
0
 10
17.18127094
 20
15.12618727
  0
VERTEX
  8
0
 10
17.03677215
 20
14.96047830
  0
VERTEX
  8
0
 10
16.97093553
 20
14.88057573
  0
VERTEX
  8
0
 10
16.92491717
 20
14.79802707
  0
VERTEX
  8
0
 10
16.91037438
 20
14.70937182
  0
VERTEX
  8
0
 10
16.93896446
 20
14.61114946
  0
SEQEND
  0
POLYLINE
  8
Default_Layer
 66
   1
 39
0.000000
 70
    1
  0
VERTEX
  8
0
 10
16.79069599
 20
14.55184207
  0
VERTEX
  8
0
 10
16.89707545
 20
14.86757439
  0
VERTEX
  8
0
 10
16.96861816
 20
15.14491596
  0
VERTEX
  8
0
 10
16.93450985
 20
15.07833683
  0
VERTEX
  8
0
 10
16.88132146
 20
15.00774856
  0
VERTEX
  8
0
 10
16.76264635
 20
14.85824570
  0
VERTEX
  8
0
 10
16.71963057
 20
14.78118164
  0
VERTEX
  8
0
 10
16.70247660
 20
14.70380950
  0
VERTEX
  8
0
 10
16.72241992
 20
14.62705456
  0
VERTEX
  8
0
 10
16.79069599
 20
14.55184207
  0
SEQEND
  0
POLYLINE
  8
Default_Layer
 66
   1
 39
0.000000
 70
    1
  0
VERTEX
  8
0
 10
15.75281669
 20
14.22565143
  0
VERTEX
  8
0
 10
15.76474802
 20
14.02750005
  0
VERTEX
  8
0
 10
15.78286676
 20
13.96976988
  0
VERTEX
  8
0
 10
15.79596076
 20
13.97698986
  0
VERTEX
  8
0
 10
15.81212408
 20
14.01807557
  0
VERTEX
  8
0
 10
15.83016602
 20
14.13451566
  0
VERTEX
  8
0
 10
15.83486084
 20
14.28943151
  0
VERTEX
  8
0
 10
15.82077386
 20
14.42728417
  0
VERTEX
  8
0
 10
15.80498885
 20
14.47245588
  0
VERTEX
  8
0
 10
15.78247038
 20
14.49253468
  0
VERTEX
  8
0
 10
15.78962682
 20
14.41811372
  0
VERTEX
  8
0
 10
15.77796059
 20
14.34921150
  0
VERTEX
  8
0
 10
15.75281669
 20
14.22565143
  0
SEQEND
  0
POLYLINE
  8
Default_Layer
 66
   1
 39
0.000000
 70
    1
  0
VERTEX
  8
0
 10
15.84177777
 20
12.98019628
  0
VERTEX
  8
0
 10
15.82764679
 20
13.05352360
  0
VERTEX
  8
0
 10
15.82894044
 20
13.12285434
  0
VERTEX
  8
0
 10
15.86985406
 20
13.25162597
  0
VERTEX
  8
0
 10
15.94862349
 20
13.37071095
  0
VERTEX
  8
0
 10
16.04935363
 20
13.48430908
  0
VERTEX
  8
0
 10
15.94156872
 20
13.48245306
  0
VERTEX
  8
0
 10
15.85383574
 20
13.44610338
  0
VERTEX
  8
0
 10
15.78781985
 20
13.38377000
  0
VERTEX
  8
0
 10
15.74518622
 20
13.30396289
  0
VERTEX
  8
0
 10
15.72760003
 20
13.21519199
  0
VERTEX
  8
0
 10
15.73672644
 20
13.12596729
  0
VERTEX
  8
0
 10
15.77423063
 20
13.04479873
  0
VERTEX
  8
0
 10
15.84177777
 20
12.98019628
  0
SEQEND
  0
POLYLINE
  8
Default_Layer
 66
   1
 39
0.000000
 70
    1
  0
VERTEX
  8
0
 10
16.49415905
 20
13.42500169
  0
VERTEX
  8
0
 10
16.39094693
 20
13.47709858
  0
VERTEX
  8
0
 10
16.33287092
 20
13.48769116
  0
VERTEX
  8
0
 10
16.30749876
 20
13.47818890
  0
VERTEX
  8
0
 10
16.28658319
 20
13.45465538
  0
VERTEX
  8
0
 10
16.34415967
 20
13.44393440
  0
VERTEX
  8
0
 10
16.39850529
 20
13.41126849
  0
VERTEX
  8
0
 10
16.44878383
 20
13.39288260
  0
VERTEX
  8
0
 10
16.47213662
 20
13.40036496
  0
VERTEX
  8
0
 10
16.49415905
 20
13.42500169
  0
SEQEND
  0
POLYLINE
  8
Default_Layer
 66
   1
 39
0.000000
 70
    1
  0
VERTEX
  8
0
 10
15.90108516
 20
13.24707952
  0
VERTEX
  8
0
 10
15.90108516
 20
13.09881105
  0
VERTEX
  8
0
 10
16.01300726
 20
13.06247024
  0
VERTEX
  8
0
 10
16.10866102
 20
13.00984997
  0
VERTEX
  8
0
 10
16.09295933
 20
12.97859301
  0
VERTEX
  8
0
 10
16.06120193
 20
12.94644349
  0
VERTEX
  8
0
 10
16.04576066
 20
12.91634352
  0
VERTEX
  8
0
 10
16.07900733
 20
12.89123519
  0
VERTEX
  8
0
 10
16.15055676
 20
12.95281640
  0
VERTEX
  8
0
 10
16.21340508
 20
13.02330327
  0
VERTEX
  8
0
 10
16.25353506
 20
13.11671719
  0
VERTEX
  8
0
 10
16.25692949
 20
13.24707952
  0
VERTEX
  8
0
 10
16.17399565
 20
13.30289550
  0
VERTEX
  8
0
 10
16.07880140
 20
13.32150082
  0
VERTEX
  8
0
 10
15.98371011
 20
13.30289550
  0
VERTEX
  8
0
 10
15.90108516
 20
13.24707952
  0
SEQEND
  0
POLYLINE
  8
Default_Layer
 66
   1
 39
0.000000
 70
    1
  0
VERTEX
  8
0
 10
13.20259898
 20
17.63582628
  0
VERTEX
  8
0
 10
13.23225268
 20
17.63582628
  0
VERTEX
  8
0
 10
13.23166722
 20
17.37957574
  0
VERTEX
  8
0
 10
13.26176981
 20
17.14659109
  0
VERTEX
  8
0
 10
13.32159738
 20
16.93695868
  0
VERTEX
  8
0
 10
13.41018687
 20
16.75076486
  0
VERTEX
  8
0
 10
13.52657519
 20
16.58809599
  0
VERTEX
  8
0
 10
13.66979927
 20
16.44903843
  0
VERTEX
  8
0
 10
13.83889604
 20
16.33367853
  0
VERTEX
  8
0
 10
14.03290242
 20
16.24210265
  0
VERTEX
  8
0
 10
14.35435530
 20
16.14708941
  0
VERTEX
  8
0
 10
14.52587316
 20
16.11891919
  0
VERTEX
  8
0
 10
14.65563000
 20
16.12348787
  0
VERTEX
  8
0
 10
14.73853305
 20
16.17118559
  0
VERTEX
  8
0
 10
14.83029117
 20
16.25346092
  0
VERTEX
  8
0
 10
14.98182064
 20
16.39037112
  0
VERTEX
  8
0
 10
15.12582820
 20
16.44860646
  0
VERTEX
  8
0
 10
15.27992615
 20
16.48274940
  0
VERTEX
  8
0
 10
15.44232567
 20
16.49811539
  0
VERTEX
  8
0
 10
15.61123789
 20
16.50001989
  0
VERTEX
  8
0
 10
15.96144506
 20
16.48470627
  0
VERTEX
  8
0
 10
16.31623688
 20
16.47933220
  0
VERTEX
  8
0
 10
16.70870703
 20
16.52145618
  0
VERTEX
  8
0
 10
16.89907096
 20
16.52388320
  0
VERTEX
  8
0
 10
16.99334694
 20
16.50909970
  0
VERTEX
  8
0
 10
17.08723293
 20
16.47933220
  0
VERTEX
  8
0
 10
17.18303942
 20
16.41149278
  0
VERTEX
  8
0
 10
17.26196230
 20
16.31933623
  0
VERTEX
  8
0
 10
17.34248159
 20
16.23304343
  0
VERTEX
  8
0
 10
17.38911488
 20
16.20152746
  0
VERTEX
  8
0
 10
17.44307726
 20
16.18279526
  0
VERTEX
  8
0
 10
17.59440001
 20
16.18241043
  0
VERTEX
  8
0
 10
17.76592462
 20
16.22781655
  0
VERTEX
  8
0
 10
17.94605478
 20
16.30941136
  0
VERTEX
  8
0
 10
18.12319417
 20
16.41759263
  0
VERTEX
  8
0
 10
18.28574648
 20
16.54275813
  0
VERTEX
  8
0
 10
18.42211537
 20
16.67530562
  0
VERTEX
  8
0
 10
18.52070453
 20
16.80563286
  0
VERTEX
  8
0
 10
18.56991765
 20
16.92413761
  0
VERTEX
  8
0
 10
18.58168480
 20
17.03836225
  0
VERTEX
  8
0
 10
18.57534208
 20
17.14284814
  0
VERTEX
  8
0
 10
18.52723206
 20
17.32764486
  0
VERTEX
  8
0
 10
18.46339772
 20
17.48861013
  0
VERTEX
  8
0
 10
18.42164918
 20
17.63582628
  0
VERTEX
  8
0
 10
18.45130287
 20
17.63582628
  0
VERTEX
  8
0
 10
18.45130287
 20
17.60617258
  0
VERTEX
  8
0
 10
18.55131305
 20
17.58386128
  0
VERTEX
  8
0
 10
18.63226777
 20
17.54249450
  0
VERTEX
  8
0
 10
18.69735053
 20
17.48525577
  0
VERTEX
  8
0
 10
18.74974486
 20
17.41532861
  0
VERTEX
  8
0
 10
18.82920231
 20
17.25014309
  0
VERTEX
  8
0
 10
18.89610828
 20
17.07240609
  0
VERTEX
  8
0
 10
18.89610828
 20
16.71656175
  0
VERTEX
  8
0
 10
18.82237818
 20
16.46392407
  0
VERTEX
  8
0
 10
18.70686395
 20
16.25312078
  0
VERTEX
  8
0
 10
18.55504355
 20
16.07867411
  0
VERTEX
  8
0
 10
18.37239492
 20
15.93510627
  0
VERTEX
  8
0
 10
18.16439603
 20
15.81693948
  0
VERTEX
  8
0
 10
17.93652482
 20
15.71869598
  0
VERTEX
  8
0
 10
17.44307726
 20
15.56006768
  0
VERTEX
  8
0
 10
17.62916214
 20
15.50892300
  0
VERTEX
  8
0
 10
17.73570583
 20
15.49684914
  0
VERTEX
  8
0
 10
17.85822898
 20
15.50076029
  0
VERTEX
  8
0
 10
18.14737538
 20
15.31634372
  0
VERTEX
  8
0
 10
18.29797029
 20
15.20137651
  0
VERTEX
  8
0
 10
18.44244585
 20
15.07040232
  0
VERTEX
  8
0
 10
18.57320169
 20
14.92279535
  0
VERTEX
  8
0
 10
18.68263744
 20
14.75792981
  0
VERTEX
  8
0
 10
18.76315273
 20
14.57517993
  0
VERTEX
  8
0
 10
18.80714720
 20
14.37391991
  0
VERTEX
  8
0
 10
18.81580847
 20
14.09677591
  0
VERTEX
  8
0
 10
18.80138686
 20
13.95202812
  0
VERTEX
  8
0
 10
18.77046019
 20
13.81276728
  0
VERTEX
  8
0
 10
18.72002576
 20
13.68619648
  0
VERTEX
  8
0
 10
18.64708090
 20
13.57951883
  0
VERTEX
  8
0
 10
18.54862293
 20
13.49993743
  0
VERTEX
  8
0
 10
18.42164918
 20
13.45465538
  0
VERTEX
  8
0
 10
18.32764894
 20
13.55251154
  0
VERTEX
  8
0
 10
18.26873339
 20
13.65789418
  0
VERTEX
  8
0
 10
18.21214150
 20
13.76544536
  0
VERTEX
  8
0
 10
18.12511223
 20
13.86980710
  0
VERTEX
  8
0
 10
17.99025347
 20
13.96196312
  0
VERTEX
  8
0
 10
17.84651149
 20
14.03405241
  0
VERTEX
  8
0
 10
17.70862826
 20
14.11298012
  0
VERTEX
  8
0
 10
17.59134574
 20
14.22565143
  0
VERTEX
  8
0
 10
17.54657726
 20
14.31490631
  0
VERTEX
  8
0
 10
17.51787776
 20
14.40583931
  0
VERTEX
  8
0
 10
17.47401828
 20
14.48822603
  0
VERTEX
  8
0
 10
17.38376988
 20
14.55184207
  0
VERTEX
  8
0
 10
17.39915729
 20
14.28673272
  0
VERTEX
  8
0
 10
17.39591277
 20
14.04132716
  0
VERTEX
  8
0
 10
17.35564462
 20
13.58615115
  0
VERTEX
  8
0
 10
17.30719883
 20
13.13936149
  0
VERTEX
  8
0
 10
17.29373226
 20
12.90443887
  0
VERTEX
  8
0
 10
17.29480879
 20
12.65400564
  0
VERTEX
  8
0
 10
16.79069599
 20
12.29816131
  0
VERTEX
  8
0
 10
16.76805158
 20
12.19994372
  0
VERTEX
  8
0
 10
16.76388143
 20
12.09851835
  0
VERTEX
  8
0
 10
16.76104230
 20
11.88300959
  0
VERTEX
  8
0
 10
16.72108689
 20
11.68811963
  0
VERTEX
  8
0
 10
16.65147758
 20
11.50974481
  0
VERTEX
  8
0
 10
16.56057004
 20
11.34311058
  0
VERTEX
  8
0
 10
16.45671994
 20
11.18344241
  0
VERTEX
  8
0
 10
16.24361474
 20
10.86590611
  0
VERTEX
  8
0
 10
16.15107097
 20
10.69848892
  0
VERTEX
  8
0
 10
16.07900733
 20
10.51893965
  0
VERTEX
  8
0
 10
16.01947963
 20
10.30127284
  0
VERTEX
  8
0
 10
15.97590494
 20
10.08907639
  0
VERTEX
  8
0
 10
15.90907070
 20
9.67592013
  0
VERTEX
  8
0
 10
15.82341684
 20
9.26912191
  0
VERTEX
  8
0
 10
15.75631763
 20
9.06487301
  0
VERTEX
  8
0
 10
15.66385561
 20
8.85833277
  0
VERTEX
  8
0
 10
15.53407984
 20
8.80707588
  0
VERTEX
  8
0
 10
15.43450507
 20
8.73372404
  0
VERTEX
  8
0
 10
15.35797958
 20
8.64287935
  0
VERTEX
  8
0
 10
15.29735168
 20
8.53914391
  0
VERTEX
  8
0
 10
15.19518178
 20
8.31140919
  0
VERTEX
  8
0
 10
15.13933637
 20
8.19661412
  0
VERTEX
  8
0
 10
15.07078172
 20
8.08733672
  0
VERTEX
  8
0
 10
15.00038263
 20
8.01921587
  0
VERTEX
  8
0
 10
14.90633695
 20
7.95525377
  0
VERTEX
  8
0
 10
14.71493739
 20
7.82045347
  0
VERTEX
  8
0
 10
14.59283041
 20
7.68659478
  0
VERTEX
  8
0
 10
14.49232245
 20
7.55232864
  0
VERTEX
  8
0
 10
14.39933403
 20
7.43351014
  0
VERTEX
  8
0
 10
14.29978567
 20
7.34599436
  0
VERTEX
  8
0
 10
14.07367948
 20
7.22918562
  0
VERTEX
  8
0
 10
13.81393860
 20
7.13913925
  0
VERTEX
  8
0
 10
13.52282458
 20
7.07838620
  0
VERTEX
  8
0
 10
13.20259898
 20
7.04945742
  0
VERTEX
  8
0
 10
13.19361550
 20
6.81945720
  0
VERTEX
  8
0
 10
13.15881811
 20
6.58904831
  0
VERTEX
  8
0
 10
13.04100727
 20
6.13004516
  0
VERTEX
  8
0
 10
12.90761778
 20
5.67852931
  0
VERTEX
  8
0
 10
12.85334708
 20
5.45747953
  0
VERTEX
  8
0
 10
12.81710096
 20
5.24058207
  0
VERTEX
  8
0
 10
12.80016291
 20
4.86143438
  0
VERTEX
  8
0
 10
12.83712474
 20
4.52203366
  0
VERTEX
  8
0
 10
12.91987166
 20
4.21695561
  0
VERTEX
  8
0
 10
13.04028891
 20
3.94077593
  0
VERTEX
  8
0
 10
13.19026169
 20
3.68807033
  0
VERTEX
  8
0
 10
13.36167524
 20
3.45341450
  0
VERTEX
  8
0
 10
13.73636548
 20
3.01655500
  0
VERTEX
  8
0
 10
13.82705499
 20
3.05273616
  0
VERTEX
  8
0
 10
13.88283641
 20
3.11488506
  0
VERTEX
  8
0
 10
13.91456250
 20
3.19438062
  0
VERTEX
  8
0
 10
13.93308603
 20
3.28260181
  0
VERTEX
  8
0
 10
13.97393645
 20
3.45073677
  0
VERTEX
  8
0
 10
14.01796888
 20
3.51340844
  0
VERTEX
  8
0
 10
14.09220981
 20
3.55032149
  0
VERTEX
  8
0
 10
14.03406997
 20
3.49623087
  0
VERTEX
  8
0
 10
14.02336151
 20
3.45260384
  0
VERTEX
  8
0
 10
14.04707720
 20
3.40594167
  0
VERTEX
  8
0
 10
14.09220981
 20
3.34274563
  0
VERTEX
  8
0
 10
13.98731893
 20
3.12104514
  0
VERTEX
  8
0
 10
13.94445892
 20
3.00091141
  0
VERTEX
  8
0
 10
13.91428764
 20
2.86828653
  0
VERTEX
  8
0
 10
13.95324353
 20
2.85116398
  0
VERTEX
  8
0
 10
13.99052899
 20
2.86455232
  0
VERTEX
  8
0
 10
14.06235019
 20
2.94221483
  0
VERTEX
  8
0
 10
14.13427435
 20
3.01998031
  0
VERTEX
  8
0
 10
14.17168851
 20
3.03349736
  0
VERTEX
  8
0
 10
14.21082459
 20
3.01655500
  0
VERTEX
  8
0
 10
14.21471009
 20
2.96570877
  0
VERTEX
  8
0
 10
14.19246170
 20
2.92404676
  0
VERTEX
  8
0
 10
14.17939476
 20
2.89157175
  0
VERTEX
  8
0
 10
14.21082459
 20
2.86828653
  0
VERTEX
  8
0
 10
14.23524615
 20
2.89735876
  0
VERTEX
  8
0
 10
14.28127785
 20
2.92288211
  0
VERTEX
  8
0
 10
14.32915004
 20
2.92852109
  0
VERTEX
  8
0
 10
14.35909306
 20
2.89794022
  0
VERTEX
  8
0
 10
14.32023814
 20
2.82915102
  0
VERTEX
  8
0
 10
14.26608080
 20
2.78902566
  0
VERTEX
  8
0
 10
14.20082094
 20
2.77094113
  0
VERTEX
  8
0
 10
14.12865844
 20
2.76827442
  0
VERTEX
  8
0
 10
13.98042519
 20
2.78270238
  0
VERTEX
  8
0
 10
13.85498026
 20
2.77932544
  0
VERTEX
  8
0
 10
13.84702837
 20
2.83110723
  0
VERTEX
  8
0
 10
13.85271581
 20
2.87892412
  0
VERTEX
  8
0
 10
13.88439207
 20
2.96430276
  0
VERTEX
  8
0
 10
13.90877584
 20
3.03874039
  0
VERTEX
  8
0
 10
13.90534768
 20
3.07288104
  0
VERTEX
  8
0
 10
13.88463395
 20
3.10551608
  0
VERTEX
  8
0
 10
13.82760942
 20
3.04646342
  0
VERTEX
  8
0
 10
13.79191257
 20
2.97819922
  0
VERTEX
  8
0
 10
13.76601917
 20
2.83863283
  0
VERTEX
  8
0
 10
13.60635273
 20
2.81162970
  0
VERTEX
  8
0
 10
13.45910397
 20
2.75228181
  0
VERTEX
  8
0
 10
13.32445777
 20
2.69904231
  0
VERTEX
  8
0
 10
13.26191839
 20
2.68672982
  0
VERTEX
  8
0
 10
13.20259898
 20
2.69036436
  0
VERTEX
  8
0
 10
13.22615813
 20
2.71838333
  0
VERTEX
  8
0
 10
13.26947564
 20
2.72685265
  0
VERTEX
  8
0
 10
13.30900851
 20
2.73931810
  0
VERTEX
  8
0
 10
13.32121376
 20
2.77932544
  0
VERTEX
  8
0
 10
13.22504137
 20
2.79668111
  0
VERTEX
  8
0
 10
13.14673159
 20
2.79606642
  0
VERTEX
  8
0
 10
13.02480412
 20
2.76906728
  0
VERTEX
  8
0
 10
12.91763985
 20
2.75461065
  0
VERTEX
  8
0
 10
12.85778406
 20
2.76967409
  0
VERTEX
  8
0
 10
12.78744726
 20
2.80897914
  0
VERTEX
  8
0
 10
12.66238233
 20
2.75478222
  0
VERTEX
  8
0
 10
12.53265510
 20
2.68534415
  0
VERTEX
  8
0
 10
12.40429576
 20
2.63324304
  0
VERTEX
  8
0
 10
12.34251347
 20
2.62387449
  0
VERTEX
  8
0
 10
12.28333446
 20
2.63105697
  0
VERTEX
  8
0
 10
12.34400971
 20
2.67407192
  0
VERTEX
  8
0
 10
12.42167569
 20
2.70921492
  0
VERTEX
  8
0
 10
12.59533486
 20
2.77034832
  0
VERTEX
  8
0
 10
12.67500556
 20
2.80357036
  0
VERTEX
  8
0
 10
12.73902202
 20
2.84338371
  0
VERTEX
  8
0
 10
12.77922300
 20
2.89340419
  0
VERTEX
  8
0
 10
12.78744726
 20
2.95724761
  0
VERTEX
  8
0
 10
12.74095039
 20
2.96264192
  0
VERTEX
  8
0
 10
12.70662406
 20
2.98021234
  0
VERTEX
  8
0
 10
12.63917879
 20
3.01655500
  0
VERTEX
  8
0
 10
12.63498440
 20
2.96570877
  0
VERTEX
  8
0
 10
12.65712982
 20
2.92404676
  0
VERTEX
  8
0
 10
12.67029973
 20
2.89157175
  0
VERTEX
  8
0
 10
12.63917879
 20
2.86828653
  0
VERTEX
  8
0
 10
12.20758945
 20
2.81099205
  0
VERTEX
  8
0
 10
11.83852905
 20
2.77932544
  0
VERTEX
  8
0
 10
11.83695641
 20
2.83248037
  0
VERTEX
  8
0
 10
11.85314996
 20
2.86808060
  0
VERTEX
  8
0
 10
11.86944648
 20
2.90378379
  0
VERTEX
  8
0
 10
11.86818274
 20
2.95724761
  0
VERTEX
  8
0
 10
11.81820388
 20
2.93728016
  0
VERTEX
  8
0
 10
11.77185015
 20
2.90392798
  0
VERTEX
  8
0
 10
11.68802782
 20
2.81830391
  0
VERTEX
  8
0
 10
11.61273528
 20
2.74284429
  0
VERTEX
  8
0
 10
11.57704380
 20
2.72219770
  0
VERTEX
  8
0
 10
11.54199210
 20
2.72001805
  0
VERTEX
  8
0
 10
11.58500255
 20
2.79531071
  0
VERTEX
  8
0
 10
11.64339863
 20
2.85542922
  0
VERTEX
  8
0
 10
11.69557200
 20
2.92197638
  0
VERTEX
  8
0
 10
11.71991427
 20
3.01655500
  0
VERTEX
  8
0
 10
11.62544369
 20
3.20380564
  0
VERTEX
  8
0
 10
11.57463455
 20
3.29384737
  0
VERTEX
  8
0
 10
11.51233841
 20
3.37239933
  0
VERTEX
  8
0
 10
11.49687082
 20
3.39030103
  0
VERTEX
  8
0
 10
11.48199710
 20
3.38917561
  0
VERTEX
  8
0
 10
11.44897345
 20
3.35343188
  0
VERTEX
  8
0
 10
11.40315173
 20
3.31234502
  0
VERTEX
  8
0
 10
11.37228044
 20
3.30454070
  0
VERTEX
  8
0
 10
11.33441624
 20
3.31309194
  0
VERTEX
  8
0
 10
11.27999717
 20
3.37677234
  0
VERTEX
  8
0
 10
11.24018071
 20
3.45849385
  0
VERTEX
  8
0
 10
11.19827023
 20
3.66751001
  0
VERTEX
  8
0
 10
11.19651403
 20
3.92304012
  0
VERTEX
  8
0
 10
11.22274134
 20
4.20798389
  0
VERTEX
  8
0
 10
11.31046332
 20
4.79771117
  0
VERTEX
  8
0
 10
11.34761644
 20
5.06829409
  0
VERTEX
  8
0
 10
11.36406994
 20
5.29988946
  0
VERTEX
  8
0
 10
11.35670603
 20
5.46563826
  0
VERTEX
  8
0
 10
11.33447998
 20
5.62687614
  0
VERTEX
  8
0
 10
11.26242873
 20
5.93697033
  0
VERTEX
  8
0
 10
11.18189069
 20
6.23247445
  0
VERTEX
  8
0
 10
11.12684038
 20
6.51569092
  0
VERTEX
  8
0
 10
11.11838423
 20
6.66070607
  0
VERTEX
  8
0
 10
11.12338580
 20
6.79900193
  0
VERTEX
  8
0
 10
11.15379687
 20
7.06226094
  0
VERTEX
  8
0
 10
11.17814311
 20
7.31911818
  0
VERTEX
  8
0
 10
11.17556366
 20
7.44941185
  0
VERTEX
  8
0
 10
11.15649408
 20
7.58322392
  0
VERTEX
  8
0
 10
10.98931566
 20
7.67304786
  0
VERTEX
  8
0
 10
10.78626490
 20
7.75620149
  0
VERTEX
  8
0
 10
10.55333945
 20
7.81217373
  0
VERTEX
  8
0
 10
10.42754797
 20
7.82355710
  0
VERTEX
  8
0
 10
10.29653694
 20
7.82045347
  0
VERTEX
  8
0
 10
10.03402723
 20
7.78505552
  0
VERTEX
  8
0
 10
9.71261621
 20
7.72757975
  0
VERTEX
  8
0
 10
9.05108178
 20
7.61287761
  0
VERTEX
  8
0
 10
8.84962566
 20
7.57260571
  0
VERTEX
  8
0
 10
8.67100921
 20
7.51104764
  0
VERTEX
  8
0
 10
8.51564707
 20
7.42924324
  0
VERTEX
  8
0
 10
8.38395389
 20
7.32823233
  0
VERTEX
  8
0
 10
8.27634431
 20
7.20905477
  0
VERTEX
  8
0
 10
8.19323296
 20
7.07275038
  0
VERTEX
  8
0
 10
8.13503450
 20
6.92035900
  0
VERTEX
  8
0
 10
8.10216357
 20
6.75292048
  0
VERTEX
  8
0
 10
7.85788200
 20
6.69244692
  0
VERTEX
  8
0
 10
7.65304941
 20
6.69536658
  0
VERTEX
  8
0
 10
7.47953935
 20
6.74868299
  0
VERTEX
  8
0
 10
7.32922536
 20
6.83939971
  0
VERTEX
  8
0
 10
7.19398099
 20
6.95452029
  0
VERTEX
  8
0
 10
7.06567978
 20
7.08104827
  0
VERTEX
  8
0
 10
6.93619528
 20
7.20598722
  0
VERTEX
  8
0
 10
6.79740102
 20
7.31634067
  0
VERTEX
  8
0
 10
6.64954259
 20
7.40496751
  0
VERTEX
  8
0
 10
6.48069737
 20
7.48775332
  0
VERTEX
  8
0
 10
6.10060461
 20
7.63284806
  0
VERTEX
  8
0
 10
5.69823887
 20
7.74571730
  0
VERTEX
  8
0
 10
5.31471630
 20
7.82045347
  0
VERTEX
  8
0
 10
5.20132389
 20
7.53213044
  0
VERTEX
  8
0
 10
5.05903537
 20
7.25191439
  0
VERTEX
  8
0
 10
4.73622368
 20
6.69065937
  0
VERTEX
  8
0
 10
4.57992731
 20
6.39704847
  0
VERTEX
  8
0
 10
4.44318847
 20
6.08640068
  0
VERTEX
  8
0
 10
4.33812056
 20
5.75243002
  0
VERTEX
  8
0
 10
4.27683700
 20
5.38885054
  0
VERTEX
  8
0
 10
4.25408590
 20
5.02593795
  0
VERTEX
  8
0
 10
4.25584194
 20
4.68002984
  0
VERTEX
  8
0
 10
4.28316278
 20
4.35263574
  0
VERTEX
  8
0
 10
4.33710608
 20
4.04526517
  0
VERTEX
  8
0
 10
4.41872951
 20
3.75942766
  0
VERTEX
  8
0
 10
4.52909073
 20
3.49663272
  0
VERTEX
  8
0
 10
4.66924740
 20
3.25838989
  0
VERTEX
  8
0
 10
4.84025720
 20
3.04620869
  0
VERTEX
  8
0
 10
4.92132579
 20
3.07603756
  0
VERTEX
  8
0
 10
4.98502373
 20
3.12343745
  0
VERTEX
  8
0
 10
5.05047264
 20
3.16929009
  0
VERTEX
  8
0
 10
5.13679414
 20
3.19447716
  0
VERTEX
  8
0
 10
5.03383593
 20
3.05979395
  0
VERTEX
  8
0
 10
4.98766630
 20
2.98744900
  0
VERTEX
  8
0
 10
4.95887197
 20
2.89794022
  0
VERTEX
  8
0
 10
5.05717450
 20
2.71452710
  0
VERTEX
  8
0
 10
5.11801221
 20
2.63451045
  0
VERTEX
  8
0
 10
5.19610153
 20
2.57174958
  0
VERTEX
  8
0
 10
5.44687668
 20
2.78757119
  0
VERTEX
  8
0
 10
5.57735202
 20
2.88229186
  0
VERTEX
  8
0
 10
5.64025065
 20
2.91302452
  0
VERTEX
  8
0
 10
5.70021433
 20
2.92759391
  0
VERTEX
  8
0
 10
5.68480533
 20
2.86708558
  0
VERTEX
  8
0
 10
5.64295136
 20
2.81423913
  0
VERTEX
  8
0
 10
5.61490203
 20
2.76617610
  0
VERTEX
  8
0
 10
5.61863210
 20
2.74303886
  0
VERTEX
  8
0
 10
5.64090694
 20
2.72001805
  0
VERTEX
  8
0
 10
5.68016143
 20
2.74750081
  0
VERTEX
  8
0
 10
5.71924351
 20
2.75462951
  0
VERTEX
  8
0
 10
5.75527925
 20
2.74500741
  0
VERTEX
  8
0
 10
5.78539473
 20
2.72223780
  0
VERTEX
  8
0
 10
5.81636918
 20
2.65166910
  0
VERTEX
  8
0
 10
5.81148029
 20
2.61107656
  0
VERTEX
  8
0
 10
5.78917541
 20
2.57174958
  0
VERTEX
  8
0
 10
5.85673708
 20
2.59198956
  0
VERTEX
  8
0
 10
5.92236033
 20
2.61978799
  0
VERTEX
  8
0
 10
5.97328508
 20
2.61615380
  0
VERTEX
  8
0
 10
5.98924800
 20
2.59036475
  0
VERTEX
  8
0
 10
5.99675127
 20
2.54209589
  0
VERTEX
  8
0
 10
5.97200616
 20
2.51505989
  0
VERTEX
  8
0
 10
5.94325849
 20
2.50475117
  0
VERTEX
  8
0
 10
5.87471944
 20
2.51207391
  0
VERTEX
  8
0
 10
5.79306207
 20
2.51958080
  0
VERTEX
  8
0
 10
5.74791650
 20
2.50950225
  0
VERTEX
  8
0
 10
5.70021433
 20
2.48278850
  0
VERTEX
  8
0
 10
5.70628511
 20
2.55703115
  0
VERTEX
  8
0
 10
5.68082237
 20
2.60456180
  0
VERTEX
  8
0
 10
5.63607797
 20
2.63342566
  0
VERTEX
  8
0
 10
5.58430376
 20
2.65166794
  0
VERTEX
  8
0
 10
5.53775159
 20
2.66733385
  0
VERTEX
  8
0
 10
5.50867332
 20
2.68846859
  0
VERTEX
  8
0
 10
5.50932079
 20
2.72311739
  0
VERTEX
  8
0
 10
5.55194586
 20
2.77932544
  0
VERTEX
  8
0
 10
5.43084187
 20
2.72220671
  0
VERTEX
  8
0
 10
5.33441912
 20
2.64060711
  0
VERTEX
  8
0
 10
5.25779866
 20
2.53940559
  0
VERTEX
  8
0
 10
5.19610153
 20
2.42348111
  0
VERTEX
  8
0
 10
5.13439023
 20
2.48263223
  0
VERTEX
  8
0
 10
5.06017843
 20
2.51186583
  0
VERTEX
  8
0
 10
4.89003739
 20
2.51720548
  0
VERTEX
  8
0
 10
4.71724652
 20
2.51275007
  0
VERTEX
  8
0
 10
4.63972244
 20
2.52973983
  0
VERTEX
  8
0
 10
4.57337395
 20
2.57174958
  0
VERTEX
  8
0
 10
4.57209447
 20
2.63374919
  0
VERTEX
  8
0
 10
4.60080860
 20
2.68430850
  0
VERTEX
  8
0
 10
4.62321883
 20
2.72306889
  0
VERTEX
  8
0
 10
4.62071700
 20
2.73791243
  0
VERTEX
  8
0
 10
4.60302764
 20
2.74967175
  0
VERTEX
  8
0
 10
4.53295145
 20
2.65635068
  0
VERTEX
  8
0
 10
4.45502399
 20
2.57108402
  0
VERTEX
  8
0
 10
4.38437755
 20
2.47873672
  0
VERTEX
  8
0
 10
4.33614439
 20
2.36417372
  0
VERTEX
  8
0
 10
4.27683700
 20
2.36417372
  0
VERTEX
  8
0
 10
4.31008907
 20
2.44935868
  0
VERTEX
  8
0
 10
4.35378703
 20
2.52414714
  0
VERTEX
  8
0
 10
4.46228136
 20
2.65277661
  0
VERTEX
  8
0
 10
4.58184145
 20
2.77054627
  0
VERTEX
  8
0
 10
4.69198872
 20
2.89794022
  0
VERTEX
  8
0
 10
4.55319019
 20
2.79178688
  0
VERTEX
  8
0
 10
4.43499515
 20
2.66523598
  0
VERTEX
  8
0
 10
4.21752962
 20
2.39382742
  0
VERTEX
  8
0
 10
4.21752962
 20
2.54209589
  0
VERTEX
  8
0
 10
4.11566341
 20
2.50658946
  0
VERTEX
  8
0
 10
4.03960745
 20
2.57174958
  0
VERTEX
  8
0
 10
4.04313868
 20
2.50860346
  0
VERTEX
  8
0
 10
4.00871588
 20
2.48361452
  0
VERTEX
  8
0
 10
3.89133898
 20
2.48278850
  0
VERTEX
  8
0
 10
3.89629368
 20
2.54582112
  0
VERTEX
  8
0
 10
3.91760342
 20
2.61142676
  0
VERTEX
  8
0
 10
3.92578094
 20
2.67202066
  0
VERTEX
  8
0
 10
3.91573035
 20
2.69806797
  0
VERTEX
  8
0
 10
3.89133898
 20
2.72001805
  0
VERTEX
  8
0
 10
3.84043719
 20
2.65199478
  0
VERTEX
  8
0
 10
3.80580566
 20
2.56790996
  0
VERTEX
  8
0
 10
3.76204682
 20
2.49315838
  0
VERTEX
  8
0
 10
3.72880792
 20
2.46721842
  0
VERTEX
  8
0
 10
3.68376312
 20
2.45313481
  0
VERTEX
  8
0
 10
3.77733811
 20
2.62603677
  0
VERTEX
  8
0
 10
3.89133898
 20
2.77932544
  0
VERTEX
  8
0
 10
3.83543822
 20
2.93100055
  0
VERTEX
  8
0
 10
3.79636842
 20
2.99572006
  0
VERTEX
  8
0
 10
3.74307051
 20
3.04620869
  0
VERTEX
  8
0
 10
3.65236332
 20
2.94385311
  0
VERTEX
  8
0
 10
3.58182649
 20
2.82153727
  0
VERTEX
  8
0
 10
3.51036401
 20
2.70035579
  0
VERTEX
  8
0
 10
3.41687987
 20
2.60140328
  0
VERTEX
  8
0
 10
3.48050556
 20
2.75246076
  0
VERTEX
  8
0
 10
3.56390046
 20
2.88394940
  0
VERTEX
  8
0
 10
3.64791929
 20
3.01502003
  0
VERTEX
  8
0
 10
3.71341681
 20
3.16482347
  0
VERTEX
  8
0
 10
3.63949287
 20
3.20254026
  0
VERTEX
  8
0
 10
3.56494241
 20
3.20602188
  0
VERTEX
  8
0
 10
3.49049492
 20
3.20373114
  0
VERTEX
  8
0
 10
3.41687987
 20
3.22413086
  0
VERTEX
  8
0
 10
3.45603106
 20
3.55813924
  0
VERTEX
  8
0
 10
3.46031964
 20
3.88925899
  0
VERTEX
  8
0
 10
3.43787719
 20
4.21622900
  0
VERTEX
  8
0
 10
3.39683525
 20
4.53778820
  0
VERTEX
  8
0
 10
3.29147920
 20
5.15962974
  0
VERTEX
  8
0
 10
3.20930401
 20
5.74469487
  0
VERTEX
  8
0
 10
3.20628789
 20
6.00021782
  0
VERTEX
  8
0
 10
3.21479011
 20
6.22197347
  0
VERTEX
  8
0
 10
3.20963713
 20
6.31408343
  0
VERTEX
  8
0
 10
3.19089558
 20
6.39042541
  0
VERTEX
  8
0
 10
3.15307608
 20
6.44855736
  0
VERTEX
  8
0
 10
3.09068923
 20
6.48603723
  0
VERTEX
  8
0
 10
2.79391134
 20
5.71443252
  0
VERTEX
  8
0
 10
2.64168065
 20
5.26612074
  0
VERTEX
  8
0
 10
2.52356583
 20
4.80461325
  0
VERTEX
  8
0
 10
2.48589805
 20
4.57558546
  0
VERTEX
  8
0
 10
2.46707466
 20
4.35126796
  0
VERTEX
  8
0
 10
2.47053412
 20
4.13433049
  0
VERTEX
  8
0
 10
2.49971491
 20
3.92744280
  0
VERTEX
  8
0
 10
2.55805549
 20
3.73327462
  0
VERTEX
  8
0
 10
2.64899435
 20
3.55449569
  0
VERTEX
  8
0
 10
2.77596995
 20
3.39377575
  0
VERTEX
  8
0
 10
2.94242076
 20
3.25378455
  0
VERTEX
  8
0
 10
2.98029611
 20
3.26749775
  0
VERTEX
  8
0
 10
2.99503362
 20
3.30455332
  0
VERTEX
  8
0
 10
3.01311840
 20
3.33846478
  0
VERTEX
  8
0
 10
3.06103554
 20
3.34274563
  0
VERTEX
  8
0
 10
3.06050379
 20
3.11981118
  0
VERTEX
  8
0
 10
3.08353156
 20
3.03163759
  0
VERTEX
  8
0
 10
3.11002623
 20
3.00253159
  0
VERTEX
  8
0
 10
3.14999662
 20
2.98690130
  0
VERTEX
  8
0
 10
3.24234210
 20
3.13137352
  0
VERTEX
  8
0
 10
3.30522077
 20
3.18721120
  0
VERTEX
  8
0
 10
3.38722618
 20
3.22413086
  0
VERTEX
  8
0
 10
3.33687196
 20
3.14700682
  0
VERTEX
  8
0
 10
3.26480218
 20
3.07195345
  0
VERTEX
  8
0
 10
3.20946385
 20
2.99885455
  0
VERTEX
  8
0
 10
3.20008368
 20
2.96300171
  0
VERTEX
  8
0
 10
3.20930401
 20
2.92759391
  0
VERTEX
  8
0
 10
3.35848339
 20
3.04488148
  0
VERTEX
  8
0
 10
3.43838601
 20
3.09852623
  0
VERTEX
  8
0
 10
3.53549465
 20
3.13516977
  0
VERTEX
  8
0
 10
3.47261675
 20
3.06429507
  0
VERTEX
  8
0
 10
3.39765666
 20
3.00570710
  0
VERTEX
  8
0
 10
3.23895770
 20
2.89794022
  0
VERTEX
  8
0
 10
3.23388705
 20
2.85494829
  0
VERTEX
  8
0
 10
3.24364395
 20
2.82233672
  0
VERTEX
  8
0
 10
3.28511903
 20
2.77723391
  0
VERTEX
  8
0
 10
3.31834030
 20
2.74059029
  0
VERTEX
  8
0
 10
3.31777993
 20
2.71855271
  0
VERTEX
  8
0
 10
3.29826509
 20
2.69036436
  0
VERTEX
  8
0
 10
3.23768925
 20
2.70350455
  0
VERTEX
  8
0
 10
3.20019864
 20
2.74360588
  0
VERTEX
  8
0
 10
3.16726071
 20
2.77191330
  0
VERTEX
  8
0
 10
3.12034293
 20
2.74967175
  0
VERTEX
  8
0
 10
3.04964757
 20
2.56789884
  0
VERTEX
  8
0
 10
3.00336993
 20
2.48824986
  0
VERTEX
  8
0
 10
2.94242076
 20
2.42348111
  0
VERTEX
  8
0
 10
2.96319390
 20
2.56549579
  0
VERTEX
  8
0
 10
3.00396532
 20
2.68771534
  0
VERTEX
  8
0
 10
3.04361815
 20
2.81125940
  0
VERTEX
  8
0
 10
3.06103554
 20
2.95724761
  0
VERTEX
  8
0
 10
3.00563839
 20
2.90496701
  0
VERTEX
  8
0
 10
2.96491530
 20
2.83806523
  0
VERTEX
  8
0
 10
2.91073558
 20
2.67715269
  0
VERTEX
  8
0
 10
2.86498503
 20
2.50801915
  0
VERTEX
  8
0
 10
2.83479840
 20
2.43084110
  0
VERTEX
  8
0
 10
2.79415229
 20
2.36417372
  0
VERTEX
  8
0
 10
2.76449860
 20
2.36417372
  0
VERTEX
  8
0
 10
2.83490664
 20
2.59233942
  0
VERTEX
  8
0
 10
2.83521708
 20
2.69582730
  0
VERTEX
  8
0
 10
2.81097551
 20
2.74068101
  0
VERTEX
  8
0
 10
2.76449860
 20
2.77932544
  0
VERTEX
  8
0
 10
2.74463662
 20
2.72505100
  0
VERTEX
  8
0
 10
2.72299610
 20
2.69787146
  0
VERTEX
  8
0
 10
2.67445940
 20
2.69103062
  0
VERTEX
  8
0
 10
2.61904832
 20
2.69127008
  0
VERTEX
  8
0
 10
2.58881485
 20
2.67294090
  0
VERTEX
  8
0
 10
2.55692274
 20
2.63105697
  0
VERTEX
  8
0
 10
2.55692274
 20
2.83863283
  0
VERTEX
  8
0
 10
2.53906847
 20
2.85538161
  0
VERTEX
  8
0
 10
2.52199813
 20
2.85278778
  0
VERTEX
  8
0
 10
2.48613508
 20
2.81233239
  0
VERTEX
  8
0
 10
2.44118532
 20
2.76278696
  0
VERTEX
  8
0
 10
2.41275659
 20
2.74883056
  0
VERTEX
  8
0
 10
2.37900057
 20
2.74967175
  0
VERTEX
  8
0
 10
2.36420798
 20
2.76080571
  0
VERTEX
  8
0
 10
2.35568891
 20
2.78738535
  0
VERTEX
  8
0
 10
2.34914095
 20
2.86021866
  0
VERTEX
  8
0
 10
2.34269595
 20
2.91484564
  0
VERTEX
  8
0
 10
2.33430559
 20
2.91866736
  0
VERTEX
  8
0
 10
2.31969318
 20
2.89794022
  0
VERTEX
  8
0
 10
2.31009852
 20
2.74403326
  0
VERTEX
  8
0
 10
2.28560578
 20
2.68708061
  0
VERTEX
  8
0
 10
2.23073210
 20
2.66071067
  0
VERTEX
  8
0
 10
2.17409297
 20
2.73751316
  0
VERTEX
  8
0
 10
2.08246363
 20
2.77932544
  0
VERTEX
  8
0
 10
2.08546326
 20
2.68694842
  0
VERTEX
  8
0
 10
2.08213654
 20
2.64589701
  0
VERTEX
  8
0
 10
2.05280993
 20
2.63105697
  0
VERTEX
  8
0
 10
2.03066922
 20
2.68304563
  0
VERTEX
  8
0
 10
2.01939409
 20
2.74590404
  0
VERTEX
  8
0
 10
1.99350254
 20
2.86828653
  0
VERTEX
  8
0
 10
2.14156509
 20
2.95704168
  0
VERTEX
  8
0
 10
2.29003949
 20
3.04620869
  0
VERTEX
  8
0
 10
2.25869384
 20
3.17017761
  0
VERTEX
  8
0
 10
2.25670186
 20
3.23685075
  0
VERTEX
  8
0
 10
2.29003949
 20
3.28343825
  0
VERTEX
  8
0
 10
2.31640545
 20
3.22825794
  0
VERTEX
  8
0
 10
2.31893718
 20
3.14924062
  0
VERTEX
  8
0
 10
2.32926033
 20
3.07801472
  0
VERTEX
  8
0
 10
2.34722671
 20
3.05520744
  0
VERTEX
  8
0
 10
2.37900057
 20
3.04620869
  0
VERTEX
  8
0
 10
2.42889715
 20
3.20347611
  0
VERTEX
  8
0
 10
2.46308240
 20
3.27317898
  0
VERTEX
  8
0
 10
2.52726904
 20
3.31309194
  0
VERTEX
  8
0
 10
2.48258257
 20
3.19427123
  0
VERTEX
  8
0
 10
2.43830796
 20
3.07586239
  0
VERTEX
  8
0
 10
2.54103293
 20
3.09886159
  0
VERTEX
  8
0
 10
2.63053449
 20
3.13528596
  0
VERTEX
  8
0
 10
2.70547045
 20
3.18647908
  0
VERTEX
  8
0
 10
2.76449860
 20
3.25378455
  0
VERTEX
  8
0
 10
2.56425687
 20
3.43903390
  0
VERTEX
  8
0
 10
2.47216377
 20
3.53968721
  0
VERTEX
  8
0
 10
2.39202464
 20
3.65229552
  0
VERTEX
  8
0
 10
2.32879105
 20
3.78181078
  0
VERTEX
  8
0
 10
2.28741461
 20
3.93318491
  0
VERTEX
  8
0
 10
2.27284689
 20
4.11136986
  0
VERTEX
  8
0
 10
2.29003949
 20
4.32131755
  0
VERTEX
  8
0
 10
2.41277055
 20
4.71468208
  0
VERTEX
  8
0
 10
2.52606267
 20
5.15540793
  0
VERTEX
  8
0
 10
2.56377373
 20
5.37582253
  0
VERTEX
  8
0
 10
2.58065059
 20
5.58682688
  0
VERTEX
  8
0
 10
2.57053508
 20
5.78133746
  0
VERTEX
  8
0
 10
2.52726904
 20
5.95227073
  0
VERTEX
  8
0
 10
2.79415229
 20
5.95227073
  0
VERTEX
  8
0
 10
2.92545740
 20
6.23718221
  0
VERTEX
  8
0
 10
3.05046639
 20
6.63507352
  0
VERTEX
  8
0
 10
3.09106185
 20
6.83864376
  0
VERTEX
  8
0
 10
3.10662572
 20
7.02516751
  0
VERTEX
  8
0
 10
3.08933878
 20
7.17954763
  0
VERTEX
  8
0
 10
3.06593276
 20
7.23996597
  0
VERTEX
  8
0
 10
3.03138184
 20
7.28668697
  0
VERTEX
  8
0
 10
3.13774759
 20
7.28369730
  0
VERTEX
  8
0
 10
3.17705741
 20
7.29638302
  0
VERTEX
  8
0
 10
3.17965032
 20
7.34599436
  0
VERTEX
  8
0
 10
2.97659236
 20
7.35051227
  0
VERTEX
  8
0
 10
2.89901492
 20
7.37671998
  0
VERTEX
  8
0
 10
2.85345968
 20
7.43495544
  0
VERTEX
  8
0
 10
3.29826509
 20
7.52391653
  0
VERTEX
  8
0
 10
3.29261846
 20
7.70360427
  0
VERTEX
  8
0
 10
3.26948895
 20
7.86581017
  0
VERTEX
  8
0
 10
3.23207030
 20
8.01372763
  0
VERTEX
  8
0
 10
3.18355624
 20
8.15055003
  0
VERTEX
  8
0
 10
3.06601688
 20
8.40368324
  0
VERTEX
  8
0
 10
2.94242076
 20
8.65075691
  0
VERTEX
  8
0
 10
2.73377063
 20
8.64328250
  0
VERTEX
  8
0
 10
2.52516454
 20
8.65601430
  0
VERTEX
  8
0
 10
2.35467781
 20
8.68835769
  0
VERTEX
  8
0
 10
2.29562775
 20
8.71169789
  0
VERTEX
  8
0
 10
2.26038579
 20
8.73971799
  0
VERTEX
  8
0
 10
2.26381407
 20
8.55930309
  0
VERTEX
  8
0
 10
2.22829251
 20
8.36358922
  0
VERTEX
  8
0
 10
2.17916389
 20
8.15577729
  0
VERTEX
  8
0
 10
2.14177102
 20
7.93906825
  0
VERTEX
  8
0
 10
2.13784537
 20
7.65713565
  0
VERTEX
  8
0
 10
2.17594939
 20
7.38224237
  0
VERTEX
  8
0
 10
2.23986527
 20
7.11195960
  0
VERTEX
  8
0
 10
2.31337526
 20
6.84385851
  0
VERTEX
  8
0
 10
2.38026156
 20
6.57551031
  0
VERTEX
  8
0
 10
2.42430640
 20
6.30448618
  0
VERTEX
  8
0
 10
2.42929199
 20
6.02835730
  0
VERTEX
  8
0
 10
2.41206952
 20
5.88761958
  0
VERTEX
  8
0
 10
2.37900057
 20
5.74469487
  0
VERTEX
  8
0
 10
2.42640453
 20
5.71054631
  0
VERTEX
  8
0
 10
2.48033334
 20
5.68292676
  0
VERTEX
  8
0
 10
2.52066288
 20
5.64171073
  0
VERTEX
  8
0
 10
2.52726904
 20
5.56677271
  0
VERTEX
  8
0
 10
2.45600615
 20
5.56287981
  0
VERTEX
  8
0
 10
2.40130624
 20
5.57634026
  0
VERTEX
  8
0
 10
2.35769377
 20
5.58501694
  0
VERTEX
  8
0
 10
2.31969318
 20
5.56677271
  0
VERTEX
  8
0
 10
2.19983233
 20
5.25635096
  0
VERTEX
  8
0
 10
2.07264842
 20
4.95345404
  0
VERTEX
  8
0
 10
1.92071842
 20
4.67550635
  0
VERTEX
  8
0
 10
1.83002894
 20
4.55133360
  0
VERTEX
  8
0
 10
1.72661930
 20
4.43993232
  0
VERTEX
  8
0
 10
1.73158482
 20
4.49349085
  0
VERTEX
  8
0
 10
1.75045200
 20
4.54295508
  0
VERTEX
  8
0
 10
1.80772306
 20
4.63260181
  0
VERTEX
  8
0
 10
1.85409593
 20
4.71487487
  0
VERTEX
  8
0
 10
1.85934037
 20
4.75512203
  0
VERTEX
  8
0
 10
1.84523407
 20
4.79577665
  0
VERTEX
  8
0
 10
1.74226122
 20
4.67987515
  0
VERTEX
  8
0
 10
1.67308037
 20
4.53023295
  0
VERTEX
  8
0
 10
1.62968109
 20
4.35486031
  0
VERTEX
  8
0
 10
1.60405296
 20
4.16176749
  0
VERTEX
  8
0
 10
1.57406844
 20
3.75446228
  0
VERTEX
  8
0
 10
1.55369121
 20
3.55627040
  0
VERTEX
  8
0
 10
1.51904344
 20
3.37239933
  0
VERTEX
  8
0
 10
1.62531945
 20
3.37192445
  0
VERTEX
  8
0
 10
1.71838033
 20
3.34834025
  0
VERTEX
  8
0
 10
1.79759429
 20
3.30585581
  0
VERTEX
  8
0
 10
1.86232959
 20
3.24868020
  0
VERTEX
  8
0
 10
1.91195446
 20
3.18102250
  0
VERTEX
  8
0
 10
1.94583713
 20
3.10709179
  0
VERTEX
  8
0
 10
1.96334585
 20
3.03109713
  0
VERTEX
  8
0
 10
1.96384885
 20
2.95724761
  0
VERTEX
  8
0
 10
1.90084191
 20
3.03323630
  0
VERTEX
  8
0
 10
1.82872024
 20
3.08968266
  0
VERTEX
  8
0
 10
1.67112183
 20
3.16926464
  0
VERTEX
  8
0
 10
1.51903188
 20
3.24662604
  0
VERTEX
  8
0
 10
1.45379579
 20
3.30029667
  0
VERTEX
  8
0
 10
1.40042866
 20
3.37239933
  0
VERTEX
  8
0
 10
1.48177892
 20
3.70640611
  0
VERTEX
  8
0
 10
1.50554267
 20
3.88229913
  0
VERTEX
  8
0
 10
1.51225105
 20
4.05141609
  0
VERTEX
  8
0
 10
1.49756821
 20
4.20423012
  0
VERTEX
  8
0
 10
1.45715829
 20
4.33121436
  0
VERTEX
  8
0
 10
1.38668547
 20
4.42284195
  0
VERTEX
  8
0
 10
1.33882051
 20
4.45241985
  0
VERTEX
  8
0
 10
1.28181388
 20
4.46958602
  0
VERTEX
  8
0
 10
1.33248109
 20
4.64090966
  0
VERTEX
  8
0
 10
1.34112127
 20
4.85508404
  0
VERTEX
  8
0
 10
1.30631334
 20
4.90182538
  0
VERTEX
  8
0
 10
1.25930667
 20
4.93636387
  0
VERTEX
  8
0
 10
1.16319910
 20
5.00335251
  0
VERTEX
  8
0
 10
1.15662771
 20
5.33779371
  0
VERTEX
  8
0
 10
1.13822185
 20
5.48989720
  0
VERTEX
  8
0
 10
1.10389172
 20
5.62608009
  0
VERTEX
  8
0
 10
1.10389172
 20
6.15984659
  0
VERTEX
  8
0
 10
1.12624991
 20
6.33730389
  0
VERTEX
  8
0
 10
1.17726694
 20
6.50137091
  0
VERTEX
  8
0
 10
1.24895091
 20
6.65510248
  0
VERTEX
  8
0
 10
1.33330991
 20
6.80155344
  0
VERTEX
  8
0
 10
1.50808541
 20
7.08483292
  0
VERTEX
  8
0
 10
1.58251810
 20
7.22777111
  0
VERTEX
  8
0
 10
1.63765821
 20
7.37564806
  0
VERTEX
  8
0
 10
1.68449517
 20
7.58902127
  0
VERTEX
  8
0
 10
1.70973076
 20
7.80867964
  0
VERTEX
  8
0
 10
1.71395474
 20
8.26155938
  0
VERTEX
  8
0
 10
1.68744388
 20
8.72370230
  0
VERTEX
  8
0
 10
1.66731191
 20
9.18452341
  0
VERTEX
  8
0
 10
1.64105628
 20
10.69567232
  0
VERTEX
  8
0
 10
1.65031042
 20
11.46113402
  0
VERTEX
  8
0
 10
1.70163400
 20
12.20039584
  0
VERTEX
  8
0
 10
1.74943468
 20
12.55251631
  0
VERTEX
  8
0
 10
1.81538813
 20
12.88886424
  0
VERTEX
  8
0
 10
1.90203950
 20
13.20636543
  0
VERTEX
  8
0
 10
2.01193392
 20
13.50194569
  0
VERTEX
  8
0
 10
2.14761653
 20
13.77253083
  0
VERTEX
  8
0
 10
2.31163248
 20
14.01504666
  0
VERTEX
  8
0
 10
2.50652689
 20
14.22641898
  0
VERTEX
  8
0
 10
2.73484490
 20
14.40357360
  0
VERTEX
  8
0
 10
3.04615816
 20
14.57116458
  0
VERTEX
  8
0
 10
3.41678024
 20
14.71451050
  0
VERTEX
  8
0
 10
3.83453844
 20
14.83291245
  0
VERTEX
  8
0
 10
4.28726007
 20
14.92567153
  0
VERTEX
  8
0
 10
4.76277245
 20
14.99208885
  0
VERTEX
  8
0
 10
5.24890288
 20
15.03146549
  0
VERTEX
  8
0
 10
5.73347867
 20
15.04310257
  0
VERTEX
  8
0
 10
6.20432713
 20
15.02630118
  0
VERTEX
  8
0
 10
6.47084697
 20
14.99572813
  0
VERTEX
  8
0
 10
6.73533619
 20
14.94531757
  0
VERTEX
  8
0
 10
7.26037356
 20
14.81247560
  0
VERTEX
  8
0
 10
7.78374079
 20
14.68275848
  0
VERTEX
  8
0
 10
8.04614234
 20
14.63625401
  0
VERTEX
  8
0
 10
8.30973943
 20
14.61114946
  0
VERTEX
  8
0
 10
8.80209337
 20
14.61700869
  0
VERTEX
  8
0
 10
9.26838570
 20
14.67515935
  0
VERTEX
  8
0
 10
9.71498716
 20
14.77543930
  0
VERTEX
  8
0
 10
10.14826847
 20
14.90768640
  0
VERTEX
  8
0
 10
10.19650339
 20
15.28082522
  0
VERTEX
  8
0
 10
10.23582562
 20
15.63643463
  0
VERTEX
  8
0
 10
10.26673253
 20
15.79889472
  0
VERTEX
  8
0
 10
10.31291693
 20
15.94644714
  0
VERTEX
  8
0
 10
10.38021405
 20
16.07558347
  0
VERTEX
  8
0
 10
10.47445911
 20
16.18279526
  0
VERTEX
  8
0
 10
10.64740431
 20
16.29689014
  0
VERTEX
  8
0
 10
10.85671620
 20
16.37818135
  0
VERTEX
  8
0
 10
11.09233586
 20
16.42888957
  0
VERTEX
  8
0
 10
11.34420435
 20
16.45123549
  0
VERTEX
  8
0
 10
11.60226275
 20
16.44743981
  0
VERTEX
  8
0
 10
11.85645214
 20
16.41972321
  0
VERTEX
  8
0
 10
12.09671358
 20
16.37030639
  0
VERTEX
  8
0
 10
12.31298815
 20
16.30141003
  0
VERTEX
  8
0
 10
12.46967094
 20
16.22154119
  0
VERTEX
  8
0
 10
12.61997764
 20
16.11594539
  0
VERTEX
  8
0
 10
12.92423362
 20
15.87594937
  0
VERTEX
  8
0
 10
13.08956832
 20
15.76573740
  0
VERTEX
  8
0
 10
13.27129777
 20
15.67817494
  0
VERTEX
  8
0
 10
13.47511469
 20
15.62535613
  0
VERTEX
  8
0
 10
13.70671178
 20
15.61937507
  0
VERTEX
  8
0
 10
13.52740662
 20
15.75411729
  0
VERTEX
  8
0
 10
13.34352569
 20
15.95182035
  0
VERTEX
  8
0
 10
13.17396988
 20
16.19776300
  0
VERTEX
  8
0
 10
13.03764009
 20
16.47722399
  0
VERTEX
  8
0
 10
12.98784148
 20
16.62492347
  0
VERTEX
  8
0
 10
12.95343721
 20
16.77548206
  0
VERTEX
  8
0
 10
12.93678990
 20
16.92705961
  0
VERTEX
  8
0
 10
12.94026214
 20
17.07781597
  0
VERTEX
  8
0
 10
12.96621656
 20
17.22591097
  0
VERTEX
  8
0
 10
13.01701576
 20
17.36950446
  0
VERTEX
  8
0
 10
13.09502237
 20
17.50675628
  0
VERTEX
  8
0
 10
13.20259898
 20
17.63582628
  0
SEQEND
  0
POLYLINE
  8
Default_Layer
 66
   1
 39
0.000000
 70
    1
  0
VERTEX
  8
0
 10
12.63917879
 20
15.94556570
  0
VERTEX
  8
0
 10
12.45051044
 20
16.07664716
  0
VERTEX
  8
0
 10
12.24578638
 20
16.20111362
  0
VERTEX
  8
0
 10
12.02276924
 20
16.30159406
  0
VERTEX
  8
0
 10
11.77922166
 20
16.36071742
  0
VERTEX
  8
0
 10
11.40829550
 20
16.38254370
  0
VERTEX
  8
0
 10
11.23845535
 20
16.37257990
  0
VERTEX
  8
0
 10
11.07982323
 20
16.34867198
  0
VERTEX
  8
0
 10
10.93299370
 20
16.31080033
  0
VERTEX
  8
0
 10
10.79856131
 20
16.25894532
  0
VERTEX
  8
0
 10
10.67712063
 20
16.19308732
  0
VERTEX
  8
0
 10
10.56926621
 20
16.11320673
  0
VERTEX
  8
0
 10
10.47559261
 20
16.01928391
  0
VERTEX
  8
0
 10
10.39669439
 20
15.91129925
  0
VERTEX
  8
0
 10
10.33316610
 20
15.78923312
  0
VERTEX
  8
0
 10
10.28560231
 20
15.65306591
  0
VERTEX
  8
0
 10
10.25459757
 20
15.50277799
  0
VERTEX
  8
0
 10
10.24074644
 20
15.33834975
  0
VERTEX
  8
0
 10
10.24464348
 20
15.15976155
  0
VERTEX
  8
0
 10
10.26688325
 20
14.96699379
  0
VERTEX
  8
0
 10
10.40866582
 20
14.92929604
  0
VERTEX
  8
0
 10
10.57303432
 20
14.92354769
  0
VERTEX
  8
0
 10
10.93229971
 20
14.95283321
  0
VERTEX
  8
0
 10
11.10858191
 20
14.96033411
  0
VERTEX
  8
0
 10
11.27022066
 20
14.94471848
  0
VERTEX
  8
0
 10
11.40790861
 20
14.89221981
  0
VERTEX
  8
0
 10
11.46486248
 20
14.84783731
  0
VERTEX
  8
0
 10
11.51233841
 20
14.78907163
  0
VERTEX
  8
0
 10
11.35953791
 20
14.84384142
  0
VERTEX
  8
0
 10
11.18614777
 20
14.87803271
  0
VERTEX
  8
0
 10
10.92606869
 20
14.82188356
  0
VERTEX
  8
0
 10
10.66245183
 20
14.80930154
  0
VERTEX
  8
0
 10
10.14826847
 20
14.81872532
  0
VERTEX
  8
0
 10
9.87451384
 20
14.78068559
  0
VERTEX
  8
0
 10
9.57401595
 20
14.70604071
  0
VERTEX
  8
0
 10
9.25669395
 20
14.62843074
  0
VERTEX
  8
0
 10
8.93246701
 20
14.58149577
  0
VERTEX
  8
0
 10
8.60945870
 20
14.56477505
  0
VERTEX
  8
0
 10
8.32472212
 20
14.56440465
  0
VERTEX
  8
0
 10
8.04732104
 20
14.58740666
  0
VERTEX
  8
0
 10
7.74631923
 20
14.64080315
  0
VERTEX
  8
0
 10
7.74478074
 20
14.60617329
  0
VERTEX
  8
0
 10
7.75646199
 20
14.57534122
  0
VERTEX
  8
0
 10
7.79815962
 20
14.52243652
  0
VERTEX
  8
0
 10
7.82876390
 20
14.47682118
  0
VERTEX
  8
0
 10
7.82657847
 20
14.45510079
  0
VERTEX
  8
0
 10
7.80562662
 20
14.43322729
  0
VERTEX
  8
0
 10
7.36082121
 20
14.52218838
  0
VERTEX
  8
0
 10
7.24220643
 20
14.72976424
  0
VERTEX
  8
0
 10
6.94264725
 20
14.81220350
  0
VERTEX
  8
0
 10
6.62219113
 20
14.87614201
  0
VERTEX
  8
0
 10
6.28519050
 20
14.92186498
  0
VERTEX
  8
0
 10
5.93599783
 20
14.94965762
  0
VERTEX
  8
0
 10
5.57896558
 20
14.95980516
  0
VERTEX
  8
0
 10
5.21844620
 20
14.95259279
  0
VERTEX
  8
0
 10
4.85879215
 20
14.92830574
  0
VERTEX
  8
0
 10
4.50435588
 20
14.88722923
  0
VERTEX
  8
0
 10
4.15948985
 20
14.82964845
  0
VERTEX
  8
0
 10
3.82854651
 20
14.75584864
  0
VERTEX
  8
0
 10
3.51587832
 20
14.66611500
  0
VERTEX
  8
0
 10
3.22583774
 20
14.56073274
  0
VERTEX
  8
0
 10
2.96277721
 20
14.43998709
  0
VERTEX
  8
0
 10
2.73104921
 20
14.30416325
  0
VERTEX
  8
0
 10
2.53500617
 20
14.15354645
  0
VERTEX
  8
0
 10
2.37900057
 20
13.98842188
  0
VERTEX
  8
0
 10
2.27392439
 20
13.83730504
  0
VERTEX
  8
0
 10
2.17650256
 20
13.66389312
  0
VERTEX
  8
0
 10
2.00519809
 20
13.25733454
  0
VERTEX
  8
0
 10
1.86623947
 20
12.78304714
  0
VERTEX
  8
0
 10
1.76077903
 20
12.25533190
  0
VERTEX
  8
0
 10
1.68996911
 20
11.68848979
  0
VERTEX
  8
0
 10
1.65496201
 20
11.09682179
  0
VERTEX
  8
0
 10
1.65691007
 20
10.49462889
  0
VERTEX
  8
0
 10
1.69696560
 20
9.89621207
  0
VERTEX
  8
0
 10
1.75749429
 20
9.15432078
  0
VERTEX
  8
0
 10
1.77414575
 20
8.75910106
  0
VERTEX
  8
0
 10
1.77498093
 20
8.36368337
  0
VERTEX
  8
0
 10
1.75494406
 20
7.98005624
  0
VERTEX
  8
0
 10
1.70897936
 20
7.62020822
  0
VERTEX
  8
0
 10
1.63203108
 20
7.29612787
  0
VERTEX
  8
0
 10
1.51904344
 20
7.01980372
  0
VERTEX
  8
0
 10
1.59359681
 20
7.06738873
  0
VERTEX
  8
0
 10
1.65171159
 20
7.13146632
  0
VERTEX
  8
0
 10
1.73855433
 20
7.28916693
  0
VERTEX
  8
0
 10
1.81942955
 20
7.45304099
  0
VERTEX
  8
0
 10
1.87008494
 20
7.52483538
  0
VERTEX
  8
0
 10
1.93419516
 20
7.58322392
  0
VERTEX
  8
0
 10
1.93567642
 20
7.90109263
  0
VERTEX
  8
0
 10
1.95299290
 20
8.22223052
  0
VERTEX
  8
0
 10
2.00896896
 20
8.87041274
  0
VERTEX
  8
0
 10
2.04979840
 20
9.51996839
  0
VERTEX
  8
0
 10
2.04818158
 20
9.84282308
  0
VERTEX
  8
0
 10
2.02315624
 20
10.16309532
  0
VERTEX
  8
0
 10
2.00110252
 20
10.44505684
  0
VERTEX
  8
0
 10
1.99858499
 20
10.74020725
  0
VERTEX
  8
0
 10
2.02992449
 20
11.35414390
  0
VERTEX
  8
0
 10
2.07270671
 20
11.97304356
  0
VERTEX
  8
0
 10
2.08449259
 20
12.27439775
  0
VERTEX
  8
0
 10
2.08246363
 20
12.56504456
  0
VERTEX
  8
0
 10
2.17087428
 20
12.69885642
  0
VERTEX
  8
0
 10
2.24581386
 20
12.84619084
  0
VERTEX
  8
0
 10
2.38465458
 20
13.15205257
  0
VERTEX
  8
0
 10
2.46324313
 20
13.29589247
  0
VERTEX
  8
0
 10
2.55773542
 20
13.42388012
  0
VERTEX
  8
0
 10
2.67547513
 20
13.52867181
  0
VERTEX
  8
0
 10
2.82380598
 20
13.60292385
  0
VERTEX
  8
0
 10
2.90034211
 20
13.85968415
  0
VERTEX
  8
0
 10
3.01490197
 20
14.07862525
  0
VERTEX
  8
0
 10
3.16735546
 20
14.25987808
  0
VERTEX
  8
0
 10
3.35757248
 20
14.40357360
  0
VERTEX
  8
0
 10
3.27963116
 20
14.28743721
  0
VERTEX
  8
0
 10
3.18132925
 20
14.17171931
  0
VERTEX
  8
0
 10
3.10442814
 20
14.05331379
  0
VERTEX
  8
0
 10
3.08705333
 20
13.99213249
  0
VERTEX
  8
0
 10
3.09068923
 20
13.92911449
  0
VERTEX
  8
0
 10
3.32814335
 20
14.12133144
  0
VERTEX
  8
0
 10
3.57779581
 20
14.30155320
  0
VERTEX
  8
0
 10
4.09891484
 20
14.64080315
  0
VERTEX
  8
0
 10
3.88810731
 20
14.43548629
  0
VERTEX
  8
0
 10
3.67249804
 20
14.24601836
  0
VERTEX
  8
0
 10
3.25315124
 20
13.88164057
  0
VERTEX
  8
0
 10
3.06255223
 20
13.69023636
  0
VERTEX
  8
0
 10
2.89342849
 20
13.48169236
  0
VERTEX
  8
0
 10
2.75234927
 20
13.24776139
  0
VERTEX
  8
0
 10
2.64588382
 20
12.98019628
  0
VERTEX
  8
0
 10
2.57960971
 20
12.72731488
  0
VERTEX
  8
0
 10
2.52576345
 20
12.44932243
  0
VERTEX
  8
0
 10
2.45777911
 20
11.84328047
  0
VERTEX
  8
0
 10
2.44485333
 20
11.52786899
  0
VERTEX
  8
0
 10
2.44678000
 20
11.21262253
  0
VERTEX
  8
0
 10
2.46416529
 20
10.90386010
  0
VERTEX
  8
0
 10
2.49761535
 20
10.60790073
  0
VERTEX
  8
0
 10
2.53487163
 20
10.44826765
  0
VERTEX
  8
0
 10
2.59139977
 20
10.31206341
  0
VERTEX
  8
0
 10
2.73484490
 20
10.04448054
  0
VERTEX
  8
0
 10
2.89777951
 20
9.71452850
  0
VERTEX
  8
0
 10
2.99730774
 20
9.53989591
  0
VERTEX
  8
0
 10
3.12034293
 20
9.36244557
  0
VERTEX
  8
0
 10
3.30879696
 20
9.15589150
  0
VERTEX
  8
0
 10
3.41799444
 20
9.03622075
  0
VERTEX
  8
0
 10
3.51295689
 20
8.91422792
  0
VERTEX
  8
0
 10
3.57552280
 20
8.79636835
  0
VERTEX
  8
0
 10
3.58898158
 20
8.74100580
  0
VERTEX
  8
0
 10
3.58753066
 20
8.68909731
  0
VERTEX
  8
0
 10
3.56889984
 20
8.64144979
  0
VERTEX
  8
0
 10
3.53081895
 20
8.59887014
  0
VERTEX
  8
0
 10
3.47101779
 20
8.56216528
  0
VERTEX
  8
0
 10
3.38722618
 20
8.53214213
  0
VERTEX
  8
0
 10
3.42738261
 20
8.28874376
  0
VERTEX
  8
0
 10
3.44249263
 20
8.05523190
  0
VERTEX
  8
0
 10
3.43563610
 20
7.83125128
  0
VERTEX
  8
0
 10
3.40989288
 20
7.61644660
  0
VERTEX
  8
0
 10
3.36834283
 20
7.41046257
  0
VERTEX
  8
0
 10
3.31406582
 20
7.21294392
  0
VERTEX
  8
0
 10
3.17965032
 20
6.84188156
  0
VERTEX
  8
0
 10
3.19299600
 20
6.81816256
  0
VERTEX
  8
0
 10
3.22026849
 20
6.80836828
  0
VERTEX
  8
0
 10
3.29805916
 20
6.81202194
  0
VERTEX
  8
0
 10
3.37595280
 20
6.81577856
  0
VERTEX
  8
0
 10
3.40335400
 20
6.80611299
  0
VERTEX
  8
0
 10
3.41687987
 20
6.78257417
  0
VERTEX
  8
0
 10
3.36195227
 20
6.76306518
  0
VERTEX
  8
0
 10
3.29249910
 20
6.75828462
  0
VERTEX
  8
0
 10
3.22592892
 20
6.75082200
  0
VERTEX
  8
0
 10
3.17965032
 20
6.72326678
  0
VERTEX
  8
0
 10
3.27666328
 20
6.70166052
  0
VERTEX
  8
0
 10
3.32428837
 20
6.68998045
  0
VERTEX
  8
0
 10
3.35757248
 20
6.66395939
  0
VERTEX
  8
0
 10
3.32428837
 20
6.63763070
  0
VERTEX
  8
0
 10
3.27666328
 20
6.62584752
  0
VERTEX
  8
0
 10
3.17965032
 20
6.60465200
  0
VERTEX
  8
0
 10
3.23432276
 20
6.50374883
  0
VERTEX
  8
0
 10
3.26839445
 20
6.39244640
  0
VERTEX
  8
0
 10
3.29316816
 20
6.14508515
  0
VERTEX
  8
0
 10
3.29083664
 20
5.87545092
  0
VERTEX
  8
0
 10
3.29826509
 20
5.59642640
  0
VERTEX
  8
0
 10
3.37163188
 20
5.06047793
  0
VERTEX
  8
0
 10
3.46480485
 20
4.52148348
  0
VERTEX
  8
0
 10
3.50282425
 20
4.25063699
  0
VERTEX
  8
0
 10
3.52660191
 20
3.97878057
  0
VERTEX
  8
0
 10
3.52974006
 20
3.70583142
  0
VERTEX
  8
0
 10
3.50584095
 20
3.43170672
  0
VERTEX
  8
0
 10
3.67364929
 20
3.36228272
  0
VERTEX
  8
0
 10
3.74276324
 20
3.31278293
  0
VERTEX
  8
0
 10
3.80136909
 20
3.25277575
  0
VERTEX
  8
0
 10
3.84898092
 20
3.18177453
  0
VERTEX
  8
0
 10
3.88511275
 20
3.09929263
  0
VERTEX
  8
0
 10
3.92099267
 20
2.89794022
  0
VERTEX
  8
0
 10
3.94909846
 20
2.88437001
  0
VERTEX
  8
0
 10
3.98083479
 20
2.89591198
  0
VERTEX
  8
0
 10
4.04882250
 20
2.96245311
  0
VERTEX
  8
0
 10
4.11220269
 20
3.03380491
  0
VERTEX
  8
0
 10
4.13817961
 20
3.05136022
  0
VERTEX
  8
0
 10
4.15822223
 20
3.04620869
  0
VERTEX
  8
0
 10
4.14301501
 20
2.97956075
  0
VERTEX
  8
0
 10
4.11353576
 20
2.92738799
  0
VERTEX
  8
0
 10
4.08415947
 20
2.87531819
  0
VERTEX
  8
0
 10
4.06926114
 20
2.80897914
  0
VERTEX
  8
0
 10
4.39216595
 20
2.90081531
  0
VERTEX
  8
0
 10
4.54046964
 20
2.96018919
  0
VERTEX
  8
0
 10
4.66233503
 20
3.04620869
  0
VERTEX
  8
0
 10
4.49600308
 20
3.29906467
  0
VERTEX
  8
0
 10
4.36327357
 20
3.59118802
  0
VERTEX
  8
0
 10
4.26316403
 20
3.91606910
  0
VERTEX
  8
0
 10
4.19469199
 20
4.26719824
  0
VERTEX
  8
0
 10
4.15687499
 20
4.63806578
  0
VERTEX
  8
0
 10
4.14873057
 20
5.02216207
  0
VERTEX
  8
0
 10
4.16927627
 20
5.41297745
  0
VERTEX
  8
0
 10
4.21752962
 20
5.80400226
  0
VERTEX
  8
0
 10
4.08423263
 20
5.87186403
  0
VERTEX
  8
0
 10
3.99725139
 20
5.95789620
  0
VERTEX
  8
0
 10
3.97485711
 20
6.00811904
  0
VERTEX
  8
0
 10
3.96851530
 20
6.06335591
  0
VERTEX
  8
0
 10
3.97971712
 20
6.12376394
  0
VERTEX
  8
0
 10
4.00995376
 20
6.18950029
  0
VERTEX
  8
0
 10
4.16149134
 20
6.16393711
  0
VERTEX
  8
0
 10
4.23382987
 20
6.16576295
  0
VERTEX
  8
0
 10
4.30649070
 20
6.18950029
  0
VERTEX
  8
0
 10
4.37335735
 20
6.35945133
  0
VERTEX
  8
0
 10
4.42510548
 20
6.54534462
  0
VERTEX
  8
0
 10
4.59623731
 20
6.67427199
  0
VERTEX
  8
0
 10
4.73563200
 20
6.83499026
  0
VERTEX
  8
0
 10
4.85006708
 20
7.02072135
  0
VERTEX
  8
0
 10
4.94632010
 20
7.22468719
  0
VERTEX
  8
0
 10
5.11139017
 20
7.66021087
  0
VERTEX
  8
0
 10
5.28506261
 20
8.08733672
  0
VERTEX
  8
0
 10
5.19406219
 20
8.05583072
  0
VERTEX
  8
0
 10
5.12329627
 20
8.00414326
  0
VERTEX
  8
0
 10
5.06717518
 20
7.93786392
  0
VERTEX
  8
0
 10
5.02010924
 20
7.86258227
  0
VERTEX
  8
0
 10
4.93078412
 20
7.70737030
  0
VERTEX
  8
0
 10
4.87734558
 20
7.63861912
  0
VERTEX
  8
0
 10
4.81060350
 20
7.58322392
  0
VERTEX
  8
0
 10
4.85942477
 20
7.74156665
  0
VERTEX
  8
0
 10
4.86991089
 20
7.93906825
  0
VERTEX
  8
0
 10
4.68997110
 20
7.92236968
  0
VERTEX
  8
0
 10
4.53393470
 20
7.87555205
  0
VERTEX
  8
0
 10
4.36796423
 20
7.81601198
  0
VERTEX
  8
0
 10
4.15822223
 20
7.76114608
  0
VERTEX
  8
0
 10
4.49983323
 20
8.03273239
  0
VERTEX
  8
0
 10
4.82989747
 20
8.32383881
  0
VERTEX
  8
0
 10
5.12066103
 20
8.63754923
  0
VERTEX
  8
0
 10
5.24263196
 20
8.80384466
  0
VERTEX
  8
0
 10
5.34437000
 20
8.97694755
  0
VERTEX
  8
0
 10
5.43325522
 20
8.98198470
  0
VERTEX
  8
0
 10
5.51634677
 20
9.00830451
  0
VERTEX
  8
0
 10
5.67677955
 20
9.09841147
  0
VERTEX
  8
0
 10
5.84892972
 20
9.19450728
  0
VERTEX
  8
0
 10
5.94666801
 20
9.22831315
  0
VERTEX
  8
0
 10
6.05605866
 20
9.24383080
  0
VERTEX
  8
0
 10
6.05223471
 20
9.29849412
  0
VERTEX
  8
0
 10
6.06290623
 20
9.35169442
  0
VERTEX
  8
0
 10
6.14501974
 20
9.48106035
  0
VERTEX
  8
0
 10
6.25621805
 20
9.49208505
  0
VERTEX
  8
0
 10
6.35301942
 20
9.51752006
  0
VERTEX
  8
0
 10
6.51195931
 20
9.60309284
  0
VERTEX
  8
0
 10
6.63889534
 20
9.72072236
  0
VERTEX
  8
0
 10
6.75088343
 20
9.85335227
  0
VERTEX
  8
0
 10
6.86497951
 20
9.98392623
  0
VERTEX
  8
0
 10
6.99823950
 20
10.09538790
  0
VERTEX
  8
0
 10
7.07738593
 20
10.13862152
  0
VERTEX
  8
0
 10
7.16771932
 20
10.17068094
  0
VERTEX
  8
0
 10
7.27137165
 20
10.18943412
  0
VERTEX
  8
0
 10
7.39047490
 20
10.19274901
  0
VERTEX
  8
0
 10
6.97699286
 20
9.75986451
  0
VERTEX
  8
0
 10
6.54349773
 20
9.32682275
  0
VERTEX
  8
0
 10
6.11833947
 20
8.90417899
  0
VERTEX
  8
0
 10
5.72986802
 20
8.50248844
  0
VERTEX
  8
0
 10
5.85040998
 20
8.56849432
  0
VERTEX
  8
0
 10
5.97682258
 20
8.61497835
  0
VERTEX
  8
0
 10
6.10853410
 20
8.64392018
  0
VERTEX
  8
0
 10
6.24497283
 20
8.65729947
  0
VERTEX
  8
0
 10
6.52974507
 20
8.64528903
  0
VERTEX
  8
0
 10
6.82656559
 20
8.59478424
  0
VERTEX
  8
0
 10
7.43805660
 20
8.44164057
  0
VERTEX
  8
0
 10
7.74357968
 20
8.37067614
  0
VERTEX
  8
0
 10
8.04285618
 20
8.32456627
  0
VERTEX
  8
0
 10
8.51557661
 20
8.30285159
  0
VERTEX
  8
0
 10
8.93836326
 20
8.32594228
  0
VERTEX
  8
0
 10
9.32689984
 20
8.37983307
  0
VERTEX
  8
0
 10
9.69687009
 20
8.45051865
  0
VERTEX
  8
0
 10
10.06395776
 20
8.52399375
  0
VERTEX
  8
0
 10
10.44384657
 20
8.58625307
  0
VERTEX
  8
0
 10
10.85222025
 20
8.62329132
  0
VERTEX
  8
0
 10
11.30476255
 20
8.62110322
  0
VERTEX
  8
0
 10
11.31772481
 20
8.77803875
  0
VERTEX
  8
0
 10
11.30071980
 20
8.91865448
  0
VERTEX
  8
0
 10
11.25608247
 20
9.04393620
  0
VERTEX
  8
0
 10
11.18614777
 20
9.15486971
  0
VERTEX
  8
0
 10
11.33009846
 20
9.84079949
  0
VERTEX
  8
0
 10
11.40914817
 20
10.17700863
  0
VERTEX
  8
0
 10
11.51233841
 20
10.48928596
  0
VERTEX
  8
0
 10
11.50100454
 20
10.31588684
  0
VERTEX
  8
0
 10
11.47147481
 20
10.15079824
  0
VERTEX
  8
0
 10
11.38798729
 20
9.83481945
  0
VERTEX
  8
0
 10
11.32219478
 20
9.51988328
  0
VERTEX
  8
0
 10
11.31478383
 20
9.35609795
  0
VERTEX
  8
0
 10
11.33441624
 20
9.18452341
  0
VERTEX
  8
0
 10
11.42674495
 20
9.36407707
  0
VERTEX
  8
0
 10
11.50273189
 20
9.56878096
  0
VERTEX
  8
0
 10
11.59093551
 20
9.74445140
  0
VERTEX
  8
0
 10
11.64854309
 20
9.80446666
  0
VERTEX
  8
0
 10
11.71991427
 20
9.83690468
  0
VERTEX
  8
0
 10
11.74271182
 20
10.08057852
  0
VERTEX
  8
0
 10
11.77070825
 20
10.18612668
  0
VERTEX
  8
0
 10
11.79829251
 20
10.22539194
  0
VERTEX
  8
0
 10
11.83852905
 20
10.25205640
  0
VERTEX
  8
0
 10
11.82215527
 20
10.07999413
  0
VERTEX
  8
0
 10
11.78938109
 20
9.91444657
  0
VERTEX
  8
0
 10
11.69772569
 20
9.59922641
  0
VERTEX
  8
0
 10
11.60975115
 20
9.29905745
  0
VERTEX
  8
0
 10
11.58157806
 20
9.15232391
  0
VERTEX
  8
0
 10
11.57164580
 20
9.00660124
  0
VERTEX
  8
0
 10
11.78504914
 20
9.65273205
  0
VERTEX
  8
0
 10
11.87780618
 20
9.99005793
  0
VERTEX
  8
0
 10
11.95714382
 20
10.34101748
  0
VERTEX
  8
0
 10
11.96167842
 20
10.09227361
  0
VERTEX
  8
0
 10
11.91896046
 20
9.85253133
  0
VERTEX
  8
0
 10
11.84561406
 20
9.61946429
  0
VERTEX
  8
0
 10
11.75826333
 20
9.39074611
  0
VERTEX
  8
0
 10
11.67353240
 20
9.16405044
  0
VERTEX
  8
0
 10
11.60804537
 20
8.93705090
  0
VERTEX
  8
0
 10
11.57842636
 20
8.70742112
  0
VERTEX
  8
0
 10
11.58226240
 20
8.59089291
  0
VERTEX
  8
0
 10
11.60129949
 20
8.47283474
  0
VERTEX
  8
0
 10
11.69573204
 20
8.71169737
  0
VERTEX
  8
0
 10
11.77563484
 20
8.96529566
  0
VERTEX
  8
0
 10
11.87215789
 20
9.20247963
  0
VERTEX
  8
0
 10
11.93638640
 20
9.30518187
  0
VERTEX
  8
0
 10
12.01645121
 20
9.39209927
  0
VERTEX
  8
0
 10
11.97928179
 20
9.26224434
  0
VERTEX
  8
0
 10
11.92829313
 20
9.13531035
  0
VERTEX
  8
0
 10
11.80831877
 20
8.88443189
  0
VERTEX
  8
0
 10
11.70344955
 20
8.62791730
  0
VERTEX
  8
0
 10
11.67134231
 20
8.49393813
  0
VERTEX
  8
0
 10
11.66060688
 20
8.35421997
  0
VERTEX
  8
0
 10
11.67234848
 20
8.27619682
  0
VERTEX
  8
0
 10
11.69856081
 20
8.19615297
  0
VERTEX
  8
0
 10
11.74956796
 20
8.02802933
  0
VERTEX
  8
0
 10
11.76202880
 20
7.85260858
  0
VERTEX
  8
0
 10
11.75971525
 20
7.66399333
  0
VERTEX
  8
0
 10
11.75974148
 20
7.47206049
  0
VERTEX
  8
0
 10
11.77922166
 20
7.28668697
  0
VERTEX
  8
0
 10
11.80853886
 20
7.19742925
  0
VERTEX
  8
0
 10
11.85258617
 20
7.10880908
  0
VERTEX
  8
0
 10
11.89701835
 20
7.02016678
  0
VERTEX
  8
0
 10
11.92749013
 20
6.93084264
  0
VERTEX
  8
0
 10
12.07493871
 20
6.12519345
  0
VERTEX
  8
0
 10
12.13245992
 20
5.71392859
  0
VERTEX
  8
0
 10
12.17508011
 20
5.29726267
  0
VERTEX
  8
0
 10
12.19972504
 20
4.87536504
  0
VERTEX
  8
0
 10
12.20332048
 20
4.44840502
  0
VERTEX
  8
0
 10
12.18279221
 20
4.01655195
  0
VERTEX
  8
0
 10
12.13506599
 20
3.57997519
  0
VERTEX
  8
0
 10
12.23037847
 20
3.56038313
  0
VERTEX
  8
0
 10
12.30890010
 20
3.52399970
  0
VERTEX
  8
0
 10
12.37335318
 20
3.47354696
  0
VERTEX
  8
0
 10
12.42646003
 20
3.41174698
  0
VERTEX
  8
0
 10
12.50952430
 20
3.26499359
  0
VERTEX
  8
0
 10
12.57987140
 20
3.10551608
  0
VERTEX
  8
0
 10
12.94065620
 20
3.23360538
  0
VERTEX
  8
0
 10
13.29156007
 20
3.37239933
  0
VERTEX
  8
0
 10
13.20341324
 20
3.47617047
  0
VERTEX
  8
0
 10
13.12048992
 20
3.60539042
  0
VERTEX
  8
0
 10
12.93571573
 20
3.90616583
  0
VERTEX
  8
0
 10
12.87893001
 20
3.96982400
  0
VERTEX
  8
0
 10
12.81797405
 20
4.02482747
  0
VERTEX
  8
0
 10
12.76399497
 20
4.08722093
  0
VERTEX
  8
0
 10
12.72813987
 20
4.17304907
  0
VERTEX
  8
0
 10
12.73900330
 20
4.29431839
  0
VERTEX
  8
0
 10
12.75779357
 20
4.43993232
  0
VERTEX
  8
0
 10
12.73943064
 20
4.81591173
  0
VERTEX
  8
0
 10
12.71067772
 20
5.18070327
  0
VERTEX
  8
0
 10
12.71289615
 20
5.48647313
  0
VERTEX
  8
0
 10
12.73854503
 20
5.60227686
  0
VERTEX
  8
0
 10
12.78744726
 20
5.68538748
  0
VERTEX
  8
0
 10
12.74613460
 20
5.64127116
  0
VERTEX
  8
0
 10
12.70765601
 20
5.64161657
  0
VERTEX
  8
0
 10
12.67200592
 20
5.67126086
  0
VERTEX
  8
0
 10
12.63917879
 20
5.71504118
  0
VERTEX
  8
0
 10
12.69426055
 20
5.79946844
  0
VERTEX
  8
0
 10
12.76903536
 20
5.88528242
  0
VERTEX
  8
0
 10
12.93010208
 20
6.06300594
  0
VERTEX
  8
0
 10
12.99261296
 20
6.15588323
  0
VERTEX
  8
0
 10
13.02725482
 20
6.25208268
  0
VERTEX
  8
0
 10
13.02213715
 20
6.35208816
  0
VERTEX
  8
0
 10
12.96536943
 20
6.45638353
  0
VERTEX
  8
0
 10
13.01772361
 20
6.45561164
  0
VERTEX
  8
0
 10
13.05690832
 20
6.46822071
  0
VERTEX
  8
0
 10
13.07997728
 20
6.49715146
  0
VERTEX
  8
0
 10
13.08398421
 20
6.54534462
  0
VERTEX
  8
0
 10
13.02701065
 20
6.63378728
  0
VERTEX
  8
0
 10
13.00792863
 20
6.71878558
  0
VERTEX
  8
0
 10
13.01646099
 20
6.80319482
  0
VERTEX
  8
0
 10
13.04233057
 20
6.88987030
  0
VERTEX
  8
0
 10
13.10497275
 20
7.08144118
  0
VERTEX
  8
0
 10
13.12119103
 20
7.19204720
  0
VERTEX
  8
0
 10
13.11363790
 20
7.31634067
  0
VERTEX
  8
0
 10
13.11046227
 20
7.33911689
  0
VERTEX
  8
0
 10
13.09407122
 20
7.34867351
  0
VERTEX
  8
0
 10
13.03929774
 20
7.34578843
  0
VERTEX
  8
0
 10
12.98462722
 20
7.34300632
  0
VERTEX
  8
0
 10
12.96836487
 20
7.35269165
  0
VERTEX
  8
0
 10
12.96536943
 20
7.37564806
  0
VERTEX
  8
0
 10
13.14329159
 20
7.58322392
  0
VERTEX
  8
0
 10
13.14473168
 20
7.65138482
  0
VERTEX
  8
0
 10
13.12929818
 20
7.70267213
  0
VERTEX
  8
0
 10
13.08398421
 20
7.79079978
  0
VERTEX
  8
0
 10
13.16831573
 20
7.90977701
  0
VERTEX
  8
0
 10
13.22083988
 20
8.04479347
  0
VERTEX
  8
0
 10
13.29156007
 20
8.32456627
  0
VERTEX
  8
0
 10
13.45554646
 20
8.80739470
  0
VERTEX
  8
0
 10
13.63569914
 20
9.27624690
  0
VERTEX
  8
0
 10
13.79946417
 20
9.75113131
  0
VERTEX
  8
0
 10
13.86502822
 20
9.99708824
  0
VERTEX
  8
0
 10
13.91428764
 20
10.25205640
  0
VERTEX
  8
0
 10
13.93897939
 20
10.15282672
  0
VERTEX
  8
0
 10
13.94714490
 20
10.05102644
  0
VERTEX
  8
0
 10
13.92860387
 20
9.84436868
  0
VERTEX
  8
0
 10
13.85498026
 20
9.45140666
  0
VERTEX
  8
0
 10
13.93386403
 20
9.49837637
  0
VERTEX
  8
0
 10
13.98487510
 20
9.57326697
  0
VERTEX
  8
0
 10
14.01544648
 20
9.66864630
  0
VERTEX
  8
0
 10
14.03301119
 20
9.77708222
  0
VERTEX
  8
0
 10
14.05885263
 20
10.00339529
  0
VERTEX
  8
0
 10
14.08199538
 20
10.10640814
  0
VERTEX
  8
0
 10
14.12186350
 20
10.19274901
  0
VERTEX
  8
0
 10
14.13032883
 20
10.02599362
  0
VERTEX
  8
0
 10
14.12028854
 20
9.86625571
  0
VERTEX
  8
0
 10
14.05683206
 20
9.56477739
  0
VERTEX
  8
0
 10
13.95577592
 20
9.28220416
  0
VERTEX
  8
0
 10
13.84140199
 20
9.01242613
  0
VERTEX
  8
0
 10
13.73799213
 20
8.74933342
  0
VERTEX
  8
0
 10
13.66982818
 20
8.48681612
  0
VERTEX
  8
0
 10
13.65655151
 20
8.35386392
  0
VERTEX
  8
0
 10
13.66119201
 20
8.21876436
  0
VERTEX
  8
0
 10
13.68678492
 20
8.08075372
  0
VERTEX
  8
0
 10
13.73636548
 20
7.93906825
  0
VERTEX
  8
0
 10
13.78594278
 20
8.31174720
  0
VERTEX
  8
0
 10
13.85399518
 20
8.66615698
  0
VERTEX
  8
0
 10
13.95219381
 20
8.99062646
  0
VERTEX
  8
0
 10
14.01624519
 20
9.13798635
  0
VERTEX
  8
0
 10
14.09220981
 20
9.27348449
  0
VERTEX
  8
0
 10
14.02145160
 20
9.10366651
  0
VERTEX
  8
0
 10
13.96860685
 20
8.91246377
  0
VERTEX
  8
0
 10
13.90220096
 20
8.48709759
  0
VERTEX
  8
0
 10
13.82532656
 20
7.61287761
  0
VERTEX
  8
0
 10
13.79582487
 20
7.49622673
  0
VERTEX
  8
0
 10
13.75607942
 20
7.38400649
  0
VERTEX
  8
0
 10
13.73613069
 20
7.28243388
  0
VERTEX
  8
0
 10
13.74296775
 20
7.23758324
  0
VERTEX
  8
0
 10
13.76601917
 20
7.19772589
  0
VERTEX
  8
0
 10
13.80402227
 20
7.23738356
  0
VERTEX
  8
0
 10
13.82606010
 20
7.29305796
  0
VERTEX
  8
0
 10
13.84516319
 20
7.42953380
  0
VERTEX
  8
0
 10
13.86917482
 20
7.56130704
  0
VERTEX
  8
0
 10
13.89734832
 20
7.61110319
  0
VERTEX
  8
0
 10
13.94394134
 20
7.64253130
  0
VERTEX
  8
0
 10
13.94729886
 20
7.54249733
  0
VERTEX
  8
0
 10
13.93316646
 20
7.46015643
  0
VERTEX
  8
0
 10
13.91700808
 20
7.38004188
  0
VERTEX
  8
0
 10
13.91428764
 20
7.28668697
  0
VERTEX
  8
0
 10
14.06576704
 20
7.31789895
  0
VERTEX
  8
0
 10
14.22142409
 20
7.38605185
  0
VERTEX
  8
0
 10
14.29090747
 20
7.43471168
  0
VERTEX
  8
0
 10
14.34954113
 20
7.49348339
  0
VERTEX
  8
0
 10
14.39336036
 20
7.56265919
  0
VERTEX
  8
0
 10
14.41840045
 20
7.64253130
  0
VERTEX
  8
0
 10
14.41465591
 20
7.70547807
  0
VERTEX
  8
0
 10
14.39451345
 20
7.77792875
  0
VERTEX
  8
0
 10
14.35909306
 20
7.90941455
  0
VERTEX
  8
0
 10
14.35781668
 20
8.26415682
  0
VERTEX
  8
0
 10
14.38512065
 20
8.64359632
  0
VERTEX
  8
0
 10
14.48598324
 20
9.44686536
  0
VERTEX
  8
0
 10
14.58270812
 20
10.25981847
  0
VERTEX
  8
0
 10
14.60483996
 20
10.65136305
  0
VERTEX
  8
0
 10
14.59632261
 20
11.02305245
  0
VERTEX
  8
0
 10
14.63578390
 20
10.58730855
  0
VERTEX
  8
0
 10
14.63040410
 20
10.15818192
  0
VERTEX
  8
0
 10
14.59484831
 20
9.73530566
  0
VERTEX
  8
0
 10
14.54378162
 20
9.31831289
  0
VERTEX
  8
0
 10
14.49186914
 20
8.90683670
  0
VERTEX
  8
0
 10
14.45377595
 20
8.50051020
  0
VERTEX
  8
0
 10
14.44416715
 20
8.09896650
  0
VERTEX
  8
0
 10
14.47770784
 20
7.70183869
  0
VERTEX
  8
0
 10
14.51198596
 20
7.78482002
  0
VERTEX
  8
0
 10
14.57683489
 20
7.85129274
  0
VERTEX
  8
0
 10
14.75987847
 20
7.95843783
  0
VERTEX
  8
0
 10
14.95010521
 20
8.07072498
  0
VERTEX
  8
0
 10
15.02393308
 20
8.14362527
  0
VERTEX
  8
0
 10
15.07078172
 20
8.23560519
  0
VERTEX
  8
0
 10
15.08303943
 20
8.32631179
  0
VERTEX
  8
0
 10
15.07987111
 20
8.43045385
  0
VERTEX
  8
0
 10
15.07078172
 20
8.65075691
  0
VERTEX
  8
0
 10
15.11438987
 20
9.98795039
  0
VERTEX
  8
0
 10
15.13008911
 20
11.37889678
  0
VERTEX
  8
0
 10
15.11060500
 20
11.68631059
  0
VERTEX
  8
0
 10
15.05708652
 20
11.97683696
  0
VERTEX
  8
0
 10
14.97662558
 20
12.24942283
  0
VERTEX
  8
0
 10
14.87631407
 20
12.50301512
  0
VERTEX
  8
0
 10
14.76324391
 20
12.73656075
  0
VERTEX
  8
0
 10
14.64450698
 20
12.94900664
  0
VERTEX
  8
0
 10
14.41840045
 20
13.30638691
  0
VERTEX
  8
0
 10
14.41379246
 20
13.15991524
  0
VERTEX
  8
0
 10
14.42530371
 20
13.01801235
  0
VERTEX
  8
0
 10
14.48635943
 20
12.74485050
  0
VERTEX
  8
0
 10
14.58091860
 20
12.48077661
  0
VERTEX
  8
0
 10
14.68833226
 20
12.21966592
  0
VERTEX
  8
0
 10
14.78795143
 20
11.95539366
  0
VERTEX
  8
0
 10
14.85912712
 20
11.68183506
  0
VERTEX
  8
0
 10
14.87759586
 20
11.53965941
  0
VERTEX
  8
0
 10
14.88121036
 20
11.39286538
  0
VERTEX
  8
0
 10
14.86738950
 20
11.24068739
  0
VERTEX
  8
0
 10
14.83355217
 20
11.08235984
  0
VERTEX
  8
0
 10
14.78815592
 20
11.36685486
  0
VERTEX
  8
0
 10
14.72399996
 20
11.63259260
  0
VERTEX
  8
0
 10
14.64477013
 20
11.88325855
  0
VERTEX
  8
0
 10
14.55415226
 20
12.12253821
  0
VERTEX
  8
0
 10
14.15151720
 20
13.03950366
  0
VERTEX
  8
0
 10
14.13479778
 20
12.92247048
  0
VERTEX
  8
0
 10
14.10677624
 20
12.81694396
  0
VERTEX
  8
0
 10
14.05664464
 20
12.73373621
  0
VERTEX
  8
0
 10
13.97359503
 20
12.68365933
  0
VERTEX
  8
0
 10
13.97498670
 20
12.92937136
  0
VERTEX
  8
0
 10
13.95466463
 20
13.03800972
  0
VERTEX
  8
0
 10
13.91949315
 20
13.13571376
  0
VERTEX
  8
0
 10
13.86884412
 20
13.22139153
  0
VERTEX
  8
0
 10
13.80208945
 20
13.29395111
  0
VERTEX
  8
0
 10
13.71860101
 20
13.35230058
  0
VERTEX
  8
0
 10
13.61775070
 20
13.39534800
  0
VERTEX
  8
0
 10
13.57748153
 20
13.52100722
  0
VERTEX
  8
0
 10
13.56967963
 20
13.64057606
  0
VERTEX
  8
0
 10
13.57108643
 20
13.75614564
  0
VERTEX
  8
0
 10
13.55844331
 20
13.86980710
  0
VERTEX
  8
0
 10
13.49330689
 20
14.04851922
  0
VERTEX
  8
0
 10
13.39913749
 20
14.20911670
  0
VERTEX
  8
0
 10
13.17450598
 20
14.49691878
  0
VERTEX
  8
0
 10
13.06944698
 20
14.63459888
  0
VERTEX
  8
0
 10
12.98616124
 20
14.77511538
  0
VERTEX
  8
0
 10
12.93735030
 20
14.92370602
  0
VERTEX
  8
0
 10
12.93571573
 20
15.08560857
  0
VERTEX
  8
0
 10
12.99609458
 20
14.93470886
  0
VERTEX
  8
0
 10
13.06735885
 20
14.79469363
  0
VERTEX
  8
0
 10
13.23286927
 20
14.53764182
  0
VERTEX
  8
0
 10
13.41289824
 20
14.29510357
  0
VERTEX
  8
0
 10
13.58809701
 20
14.04772927
  0
VERTEX
  8
0
 10
13.58874784
 20
14.13573688
  0
VERTEX
  8
0
 10
13.60504203
 20
14.20830011
  0
VERTEX
  8
0
 10
13.62027714
 20
14.28212558
  0
VERTEX
  8
0
 10
13.61775070
 20
14.37391991
  0
VERTEX
  8
0
 10
13.48112430
 20
14.53382558
  0
VERTEX
  8
0
 10
13.32928344
 20
14.67852097
  0
VERTEX
  8
0
 10
13.19564800
 20
14.84142456
  0
VERTEX
  8
0
 10
13.14610104
 20
14.94014772
  0
VERTEX
  8
0
 10
13.11363790
 20
15.05595487
  0
VERTEX
  8
0
 10
13.36840593
 20
14.73247586
  0
VERTEX
  8
0
 10
13.50748027
 20
14.58242669
  0
VERTEX
  8
0
 10
13.67705809
 20
14.46288099
  0
VERTEX
  8
0
 10
13.75845191
 20
14.67770827
  0
VERTEX
  8
0
 10
13.87984912
 20
14.85274087
  0
VERTEX
  8
0
 10
14.03329245
 20
14.99593884
  0
VERTEX
  8
0
 10
14.21082459
 20
15.11526226
  0
VERTEX
  8
0
 10
14.10234443
 20
15.10172720
  0
VERTEX
  8
0
 10
14.00258892
 20
15.11589934
  0
VERTEX
  8
0
 10
13.90998416
 20
15.15115396
  0
VERTEX
  8
0
 10
13.82295628
 20
15.20086634
  0
VERTEX
  8
0
 10
13.65933564
 20
15.31716554
  0
VERTEX
  8
0
 10
13.49913593
 20
15.41179921
  0
VERTEX
  8
0
 10
13.17736668
 20
15.51506475
  0
VERTEX
  8
0
 10
12.89627723
 20
15.58177991
  0
VERTEX
  8
0
 10
12.64232045
 20
15.66729264
  0
VERTEX
  8
0
 10
12.52128334
 20
15.73439434
  0
VERTEX
  8
0
 10
12.40194924
 20
15.82695093
  0
VERTEX
  8
0
 10
12.29439022
 20
15.94057029
  0
VERTEX
  8
0
 10
12.19290124
 20
16.05909652
  0
VERTEX
  8
0
 10
12.07732147
 20
16.16533788
  0
VERTEX
  8
0
 10
11.92749013
 20
16.24210265
  0
VERTEX
  8
0
 10
12.03547241
 20
16.22481871
  0
VERTEX
  8
0
 10
12.13802402
 20
16.19219319
  0
VERTEX
  8
0
 10
12.32682733
 20
16.10029588
  0
VERTEX
  8
0
 10
12.49388420
 20
16.00516771
  0
VERTEX
  8
0
 10
12.63917879
 20
15.94556570
  0
SEQEND
  0
POLYLINE
  8
Default_Layer
 66
   1
 39
0.000000
 70
    1
  0
VERTEX
  8
0
 10
13.79567287
 20
15.82695093
  0
VERTEX
  8
0
 10
13.83602129
 20
15.75610634
  0
VERTEX
  8
0
 10
13.89700267
 20
15.70588914
  0
VERTEX
  8
0
 10
13.97403996
 20
15.67172230
  0
VERTEX
  8
0
 10
14.06255612
 20
15.64902876
  0
VERTEX
  8
0
 10
14.06989742
 20
15.75988481
  0
VERTEX
  8
0
 10
14.09755812
 20
15.79163934
  0
VERTEX
  8
0
 10
14.15151720
 20
15.79729723
  0
VERTEX
  8
0
 10
14.14840322
 20
15.75562178
  0
VERTEX
  8
0
 10
14.13184733
 20
15.72759416
  0
VERTEX
  8
0
 10
14.11771295
 20
15.69735097
  0
VERTEX
  8
0
 10
14.12186350
 20
15.64902876
  0
VERTEX
  8
0
 10
14.37073823
 20
15.58548662
  0
VERTEX
  8
0
 10
14.50083339
 20
15.57936415
  0
VERTEX
  8
0
 10
14.56443282
 20
15.59224196
  0
VERTEX
  8
0
 10
14.62597631
 20
15.61937507
  0
VERTEX
  8
0
 10
14.62835280
 20
15.57727102
  0
VERTEX
  8
0
 10
14.64397182
 20
15.54840949
  0
VERTEX
  8
0
 10
14.67283335
 20
15.53279048
  0
VERTEX
  8
0
 10
14.71493739
 20
15.53041398
  0
VERTEX
  8
0
 10
14.72205690
 20
15.67866539
  0
VERTEX
  8
0
 10
14.74825422
 20
15.80804352
  0
VERTEX
  8
0
 10
14.80389847
 20
16.06418048
  0
VERTEX
  8
0
 10
14.45258075
 20
16.08665866
  0
VERTEX
  8
0
 10
14.13166112
 20
16.14926989
  0
VERTEX
  8
0
 10
13.84753415
 20
16.25362439
  0
VERTEX
  8
0
 10
13.72126621
 20
16.32195857
  0
VERTEX
  8
0
 10
13.60659441
 20
16.40133240
  0
VERTEX
  8
0
 10
13.50431805
 20
16.49194717
  0
VERTEX
  8
0
 10
13.41523645
 20
16.59400415
  0
VERTEX
  8
0
 10
13.34014895
 20
16.70770462
  0
VERTEX
  8
0
 10
13.27985486
 20
16.83324986
  0
VERTEX
  8
0
 10
13.23515349
 20
16.97084115
  0
VERTEX
  8
0
 10
13.20684418
 20
17.12067977
  0
VERTEX
  8
0
 10
13.19572623
 20
17.28296700
  0
VERTEX
  8
0
 10
13.20259898
 20
17.45790411
  0
VERTEX
  8
0
 10
13.18321898
 20
17.48299909
  0
VERTEX
  8
0
 10
13.14329159
 20
17.48755781
  0
VERTEX
  8
0
 10
13.08355983
 20
17.36075399
  0
VERTEX
  8
0
 10
13.04084530
 20
17.23068981
  0
VERTEX
  8
0
 10
13.01437303
 20
17.09872149
  0
VERTEX
  8
0
 10
13.00336807
 20
16.96620530
  0
VERTEX
  8
0
 10
13.02466023
 20
16.70495428
  0
VERTEX
  8
0
 10
13.09852209
 20
16.45778673
  0
VERTEX
  8
0
 10
13.21875397
 20
16.23555264
  0
VERTEX
  8
0
 10
13.37915618
 20
16.04910198
  0
VERTEX
  8
0
 10
13.47248376
 20
15.97268606
  0
VERTEX
  8
0
 10
13.57352904
 20
15.90928475
  0
VERTEX
  8
0
 10
13.68151706
 20
15.86025429
  0
VERTEX
  8
0
 10
13.79567287
 20
15.82695093
  0
SEQEND
  0
POLYLINE
  8
Default_Layer
 66
   1
 39
0.000000
 70
    1
  0
VERTEX
  8
0
 10
17.35411618
 20
16.09383417
  0
VERTEX
  8
0
 10
17.38025150
 20
16.04583887
  0
VERTEX
  8
0
 10
17.39379447
 20
15.98524844
  0
VERTEX
  8
0
 10
17.41342357
 20
15.85660462
  0
VERTEX
  8
0
 10
17.47942605
 20
15.89848252
  0
VERTEX
  8
0
 10
17.49838157
 20
15.86197359
  0
VERTEX
  8
0
 10
17.52675205
 20
15.80795332
  0
VERTEX
  8
0
 10
17.56211226
 20
15.79340003
  0
VERTEX
  8
0
 10
17.62099943
 20
15.79729723
  0
VERTEX
  8
0
 10
17.64977235
 20
15.82752350
  0
VERTEX
  8
0
 10
17.65528371
 20
15.88122143
  0
VERTEX
  8
0
 10
17.66589321
 20
15.93002437
  0
VERTEX
  8
0
 10
17.68197215
 20
15.94372565
  0
VERTEX
  8
0
 10
17.70996051
 20
15.94556570
  0
VERTEX
  8
0
 10
17.71764854
 20
15.88653709
  0
VERTEX
  8
0
 10
17.75843854
 20
15.86060210
  0
VERTEX
  8
0
 10
17.88788268
 20
15.85660462
  0
VERTEX
  8
0
 10
17.94563944
 20
15.91651781
  0
VERTEX
  8
0
 10
18.01356372
 20
15.96138834
  0
VERTEX
  8
0
 10
18.09278172
 20
15.97610728
  0
VERTEX
  8
0
 10
18.18441962
 20
15.94556570
  0
VERTEX
  8
0
 10
18.35222789
 20
16.05855368
  0
VERTEX
  8
0
 10
18.50950597
 20
16.21625930
  0
VERTEX
  8
0
 10
18.64443024
 20
16.40771816
  0
VERTEX
  8
0
 10
18.74517708
 20
16.62196589
  0
VERTEX
  8
0
 10
18.79992286
 20
16.84803811
  0
VERTEX
  8
0
 10
18.80635047
 20
16.96208203
  0
VERTEX
  8
0
 10
18.79684396
 20
17.07497042
  0
VERTEX
  8
0
 10
18.76992538
 20
17.18533274
  0
VERTEX
  8
0
 10
18.72411677
 20
17.29179845
  0
VERTEX
  8
0
 10
18.65794017
 20
17.39299698
  0
VERTEX
  8
0
 10
18.56991765
 20
17.48755781
  0
VERTEX
  8
0
 10
18.61227384
 20
17.31750972
  0
VERTEX
  8
0
 10
18.63044366
 20
17.16196351
  0
VERTEX
  8
0
 10
18.62622864
 20
17.02018136
  0
VERTEX
  8
0
 10
18.60143033
 20
16.89142545
  0
VERTEX
  8
0
 10
18.55785028
 20
16.77495795
  0
VERTEX
  8
0
 10
18.49729003
 20
16.67004105
  0
VERTEX
  8
0
 10
18.42155111
 20
16.57593693
  0
VERTEX
  8
0
 10
18.33243509
 20
16.49190776
  0
VERTEX
  8
0
 10
18.12127788
 20
16.35112299
  0
VERTEX
  8
0
 10
17.87823076
 20
16.24178418
  0
VERTEX
  8
0
 10
17.61770607
 20
16.15798876
  0
VERTEX
  8
0
 10
17.35411618
 20
16.09383417
  0
SEQEND
  0
POLYLINE
  8
Default_Layer
 66
   1
 39
0.000000
 70
    1
  0
VERTEX
  8
0
 10
18.48095656
 20
14.31461252
  0
VERTEX
  8
0
 10
18.35723142
 20
14.47258774
  0
VERTEX
  8
0
 10
18.24336132
 20
14.64042635
  0
VERTEX
  8
0
 10
18.11484722
 20
14.79362651
  0
VERTEX
  8
0
 10
18.03744272
 20
14.85708036
  0
VERTEX
  8
0
 10
17.94719007
 20
14.90768640
  0
VERTEX
  8
0
 10
17.87417201
 20
14.83458319
  0
VERTEX
  8
0
 10
17.81450284
 20
14.75147823
  0
VERTEX
  8
0
 10
17.76929160
 20
14.65951841
  0
VERTEX
  8
0
 10
17.73964736
 20
14.55985059
  0
VERTEX
  8
0
 10
17.72667918
 20
14.45362163
  0
VERTEX
  8
0
 10
17.73149612
 20
14.34197841
  0
VERTEX
  8
0
 10
17.75520724
 20
14.22606780
  0
VERTEX
  8
0
 10
17.79892160
 20
14.10703666
  0
VERTEX
  8
0
 10
17.92284801
 20
14.06786472
  0
VERTEX
  8
0
 10
18.02794341
 20
14.00986297
  0
VERTEX
  8
0
 10
18.11862825
 20
13.93745171
  0
VERTEX
  8
0
 10
18.19932299
 20
13.85505122
  0
VERTEX
  8
0
 10
18.34842404
 20
13.67796372
  0
VERTEX
  8
0
 10
18.51061026
 20
13.51396277
  0
VERTEX
  8
0
 10
18.60648952
 20
13.65722356
  0
VERTEX
  8
0
 10
18.67600942
 20
13.80450321
  0
VERTEX
  8
0
 10
18.72070219
 20
13.95428932
  0
VERTEX
  8
0
 10
18.74210009
 20
14.10506949
  0
VERTEX
  8
0
 10
18.74173538
 20
14.25533131
  0
VERTEX
  8
0
 10
18.72114029
 20
14.40356237
  0
VERTEX
  8
0
 10
18.68184709
 20
14.54825028
  0
VERTEX
  8
0
 10
18.62538801
 20
14.68788264
  0
VERTEX
  8
0
 10
18.55329532
 20
14.82094703
  0
VERTEX
  8
0
 10
18.46710126
 20
14.94593105
  0
VERTEX
  8
0
 10
18.36833809
 20
15.06132230
  0
VERTEX
  8
0
 10
18.25853804
 20
15.16560838
  0
VERTEX
  8
0
 10
18.13923338
 20
15.25727689
  0
VERTEX
  8
0
 10
18.01195636
 20
15.33481541
  0
VERTEX
  8
0
 10
17.87823921
 20
15.39671155
  0
VERTEX
  8
0
 10
17.73961421
 20
15.44145290
  0
VERTEX
  8
0
 10
17.64119066
 20
15.45052733
  0
VERTEX
  8
0
 10
17.54027408
 20
15.44920676
  0
VERTEX
  8
0
 10
17.44265306
 20
15.46624954
  0
VERTEX
  8
0
 10
17.39688732
 20
15.49064415
  0
VERTEX
  8
0
 10
17.35411618
 20
15.53041398
  0
VERTEX
  8
0
 10
17.24650235
 20
15.45970491
  0
VERTEX
  8
0
 10
17.18746912
 20
15.42987724
  0
VERTEX
  8
0
 10
17.11688663
 20
15.41179921
  0
VERTEX
  8
0
 10
17.13441127
 20
15.45340663
  0
VERTEX
  8
0
 10
17.16331244
 20
15.48368484
  0
VERTEX
  8
0
 10
17.23942216
 20
15.52608137
  0
VERTEX
  8
0
 10
17.31357150
 20
15.57064421
  0
VERTEX
  8
0
 10
17.34002219
 20
15.60363031
  0
VERTEX
  8
0
 10
17.35411618
 20
15.64902876
  0
VERTEX
  8
0
 10
17.28076942
 20
15.63179244
  0
VERTEX
  8
0
 10
17.21298589
 20
15.58981532
  0
VERTEX
  8
0
 10
17.14904669
 20
15.56261807
  0
VERTEX
  8
0
 10
17.11798156
 20
15.56691211
  0
VERTEX
  8
0
 10
17.08723293
 20
15.58972137
  0
VERTEX
  8
0
 10
17.14045847
 20
15.64738829
  0
VERTEX
  8
0
 10
17.20702439
 20
15.69192077
  0
VERTEX
  8
0
 10
17.35411618
 20
15.76764354
  0
VERTEX
  8
0
 10
17.33466710
 20
15.92612079
  0
VERTEX
  8
0
 10
17.29792185
 20
16.06729354
  0
VERTEX
  8
0
 10
17.20584771
 20
16.33106373
  0
VERTEX
  8
0
 10
17.07830289
 20
16.38203378
  0
VERTEX
  8
0
 10
16.93896446
 20
16.42002481
  0
VERTEX
  8
0
 10
16.40130687
 20
16.44735605
  0
VERTEX
  8
0
 10
15.82610448
 20
16.42066438
  0
VERTEX
  8
0
 10
15.55018916
 20
16.38530863
  0
VERTEX
  8
0
 10
15.29580585
 20
16.33434554
  0
VERTEX
  8
0
 10
15.07326062
 20
16.26707460
  0
VERTEX
  8
0
 10
14.89285956
 20
16.18279526
  0
VERTEX
  8
0
 10
14.84765176
 20
16.05343416
  0
VERTEX
  8
0
 10
14.82278022
 20
15.91957409
  0
VERTEX
  8
0
 10
14.80861580
 20
15.64925948
  0
VERTEX
  8
0
 10
14.79950614
 20
15.39365637
  0
VERTEX
  8
0
 10
14.78095305
 20
15.27818565
  0
VERTEX
  8
0
 10
14.74459108
 20
15.17456965
  0
VERTEX
  8
0
 10
14.53890120
 20
15.14285138
  0
VERTEX
  8
0
 10
14.35527671
 20
15.08911756
  0
VERTEX
  8
0
 10
14.19353562
 20
15.01355077
  0
VERTEX
  8
0
 10
14.05349597
 20
14.91633359
  0
VERTEX
  8
0
 10
13.93497574
 20
14.79764859
  0
VERTEX
  8
0
 10
13.83779296
 20
14.65767836
  0
VERTEX
  8
0
 10
13.76176564
 20
14.49660548
  0
VERTEX
  8
0
 10
13.70671178
 20
14.31461252
  0
VERTEX
  8
0
 10
13.77839753
 20
14.43549681
  0
VERTEX
  8
0
 10
13.87919874
 20
14.52731609
  0
VERTEX
  8
0
 10
13.99914370
 20
14.60004240
  0
VERTEX
  8
0
 10
14.12826071
 20
14.66364778
  0
VERTEX
  8
0
 10
14.25657808
 20
14.72810431
  0
VERTEX
  8
0
 10
14.37412408
 20
14.80338401
  0
VERTEX
  8
0
 10
14.47092704
 20
14.89945895
  0
VERTEX
  8
0
 10
14.53701522
 20
15.02630118
  0
VERTEX
  8
0
 10
14.60745737
 20
14.97813967
  0
VERTEX
  8
0
 10
14.68528370
 20
14.93734010
  0
VERTEX
  8
0
 10
14.70134171
 20
15.00983687
  0
VERTEX
  8
0
 10
14.74459108
 20
15.05595487
  0
VERTEX
  8
0
 10
14.79388223
 20
14.89442387
  0
VERTEX
  8
0
 10
14.86961048
 20
14.73927175
  0
VERTEX
  8
0
 10
14.95696328
 20
14.57936587
  0
VERTEX
  8
0
 10
15.04112803
 20
14.40357360
  0
VERTEX
  8
0
 10
15.09929826
 20
14.21662427
  0
VERTEX
  8
0
 10
15.13447441
 20
14.01895419
  0
VERTEX
  8
0
 10
15.18460055
 20
13.62228788
  0
VERTEX
  8
0
 10
15.22392858
 20
13.43870973
  0
VERTEX
  8
0
 10
15.28901863
 20
13.27524695
  0
VERTEX
  8
0
 10
15.39205970
 20
13.13960858
  0
VERTEX
  8
0
 10
15.46162094
 20
13.08463263
  0
VERTEX
  8
0
 10
15.54524083
 20
13.03950366
  0
VERTEX
  8
0
 10
15.56293054
 20
13.16966501
  0
VERTEX
  8
0
 10
15.58302342
 20
13.22381141
  0
VERTEX
  8
0
 10
15.63420191
 20
13.24707952
  0
VERTEX
  8
0
 10
15.61581878
 20
13.05678772
  0
VERTEX
  8
0
 10
15.62818683
 20
12.87084177
  0
VERTEX
  8
0
 10
15.65113282
 20
12.78827697
  0
VERTEX
  8
0
 10
15.68804295
 20
12.71733280
  0
VERTEX
  8
0
 10
15.74100933
 20
12.66152066
  0
VERTEX
  8
0
 10
15.81212408
 20
12.62435194
  0
VERTEX
  8
0
 10
15.83026971
 20
12.79853791
  0
VERTEX
  8
0
 10
15.85897153
 20
12.86631565
  0
VERTEX
  8
0
 10
15.90108516
 20
12.92088889
  0
VERTEX
  8
0
 10
15.92014834
 20
12.83942749
  0
VERTEX
  8
0
 10
15.95430953
 20
12.76974481
  0
VERTEX
  8
0
 10
16.00169510
 20
12.71143251
  0
VERTEX
  8
0
 10
16.06043140
 20
12.66408223
  0
VERTEX
  8
0
 10
16.20446163
 20
12.60063427
  0
VERTEX
  8
0
 10
16.37141108
 20
12.57613409
  0
VERTEX
  8
0
 10
16.54629060
 20
12.58731484
  0
VERTEX
  8
0
 10
16.71411105
 20
12.63090966
  0
VERTEX
  8
0
 10
16.85988328
 20
12.70365170
  0
VERTEX
  8
0
 10
16.96861816
 20
12.80227411
  0
VERTEX
  8
0
 10
16.96289881
 20
12.86697985
  0
VERTEX
  8
0
 10
16.94359992
 20
12.91810814
  0
VERTEX
  8
0
 10
16.88198209
 20
12.99734814
  0
VERTEX
  8
0
 10
16.81920175
 20
13.07542562
  0
VERTEX
  8
0
 10
16.79844973
 20
13.12510078
  0
VERTEX
  8
0
 10
16.79069599
 20
13.18777214
  0
VERTEX
  8
0
 10
16.81769724
 20
13.25683789
  0
VERTEX
  8
0
 10
16.86734614
 20
13.30345915
  0
VERTEX
  8
0
 10
16.99827185
 20
13.36569430
  0
VERTEX
  8
0
 10
16.95893602
 20
13.39553483
  0
VERTEX
  8
0
 10
16.91575001
 20
13.40929045
  0
VERTEX
  8
0
 10
16.82258796
 20
13.40790131
  0
VERTEX
  8
0
 10
16.72830678
 20
13.40023551
  0
VERTEX
  8
0
 10
16.68372184
 20
13.40614531
  0
VERTEX
  8
0
 10
16.64242752
 20
13.42500169
  0
VERTEX
  8
0
 10
16.80049856
 20
13.45746265
  0
VERTEX
  8
0
 10
16.97022221
 20
13.44810394
  0
VERTEX
  8
0
 10
17.04629492
 20
13.42561765
  0
VERTEX
  8
0
 10
17.10949015
 20
13.39012698
  0
VERTEX
  8
0
 10
17.15454436
 20
13.34078211
  0
VERTEX
  8
0
 10
17.17619402
 20
13.27673322
  0
VERTEX
  8
0
 10
17.13438884
 20
13.22569284
  0
VERTEX
  8
0
 10
17.10362599
 20
13.16365954
  0
VERTEX
  8
0
 10
17.06644067
 20
13.01540353
  0
VERTEX
  8
0
 10
17.02792554
 20
12.68365933
  0
VERTEX
  8
0
 10
17.07668109
 20
12.69206434
  0
VERTEX
  8
0
 10
17.11870699
 20
12.71628514
  0
VERTEX
  8
0
 10
17.18403694
 20
12.80507058
  0
VERTEX
  8
0
 10
17.22684954
 20
12.93580856
  0
VERTEX
  8
0
 10
17.25007895
 20
13.09429199
  0
VERTEX
  8
0
 10
17.24952481
 20
13.43766691
  0
VERTEX
  8
0
 10
17.20584771
 20
13.72153863
  0
VERTEX
  8
0
 10
17.16810535
 20
13.80993706
  0
VERTEX
  8
0
 10
17.11096051
 20
13.89185396
  0
VERTEX
  8
0
 10
16.97765417
 20
14.04529153
  0
VERTEX
  8
0
 10
16.92108810
 20
14.12133635
  0
VERTEX
  8
0
 10
16.88431037
 20
14.19994797
  0
VERTEX
  8
0
 10
16.87711869
 20
14.28338846
  0
VERTEX
  8
0
 10
16.90931077
 20
14.37391991
  0
VERTEX
  8
0
 10
16.95231022
 20
14.33166682
  0
VERTEX
  8
0
 10
16.98426227
 20
14.27836614
  0
VERTEX
  8
0
 10
17.03161092
 20
14.15520814
  0
VERTEX
  8
0
 10
17.08453031
 20
14.03761809
  0
VERTEX
  8
0
 10
17.12344577
 20
13.99127735
  0
VERTEX
  8
0
 10
17.17619402
 20
13.95876819
  0
VERTEX
  8
0
 10
17.20950590
 20
14.09208240
  0
VERTEX
  8
0
 10
17.22431328
 20
14.24395034
  0
VERTEX
  8
0
 10
17.23333314
 20
14.56843088
  0
VERTEX
  8
0
 10
17.24500493
 20
14.72358522
  0
VERTEX
  8
0
 10
17.27309083
 20
14.86237675
  0
VERTEX
  8
0
 10
17.32632049
 20
14.97607634
  0
VERTEX
  8
0
 10
17.41342357
 20
15.05595487
  0
VERTEX
  8
0
 10
17.43517546
 20
15.21171329
  0
VERTEX
  8
0
 10
17.46284519
 20
15.27310761
  0
VERTEX
  8
0
 10
17.50238465
 20
15.32283812
  0
VERTEX
  8
0
 10
17.48999435
 20
15.18557829
  0
VERTEX
  8
0
 10
17.45211958
 20
15.05401013
  0
VERTEX
  8
0
 10
17.42455050
 20
14.93082776
  0
VERTEX
  8
0
 10
17.42581502
 20
14.87322317
  0
VERTEX
  8
0
 10
17.44307726
 20
14.81872532
  0
VERTEX
  8
0
 10
17.47889908
 20
14.94768859
  0
VERTEX
  8
0
 10
17.53137598
 20
15.04849909
  0
VERTEX
  8
0
 10
17.59798071
 20
15.12302833
  0
VERTEX
  8
0
 10
17.67618601
 20
15.17314779
  0
VERTEX
  8
0
 10
17.76346461
 20
15.20072896
  0
VERTEX
  8
0
 10
17.85728926
 20
15.20764335
  0
VERTEX
  8
0
 10
17.95513269
 20
15.19576243
  0
VERTEX
  8
0
 10
18.05446766
 20
15.16695771
  0
VERTEX
  8
0
 10
18.24750315
 20
15.06606283
  0
VERTEX
  8
0
 10
18.41617764
 20
14.91993063
  0
VERTEX
  8
0
 10
18.54027306
 20
14.74353306
  0
VERTEX
  8
0
 10
18.57928547
 20
14.64866350
  0
VERTEX
  8
0
 10
18.59957134
 20
14.55184207
  0
VERTEX
  8
0
 10
18.52128557
 20
14.57857088
  0
VERTEX
  8
0
 10
18.45076371
 20
14.63268896
  0
VERTEX
  8
0
 10
18.38792485
 20
14.67603729
  0
VERTEX
  8
0
 10
18.35936126
 20
14.68174810
  0
VERTEX
  8
0
 10
18.33268809
 20
14.67045685
  0
VERTEX
  8
0
 10
18.39596744
 20
14.59917830
  0
VERTEX
  8
0
 10
18.45331207
 20
14.50205887
  0
VERTEX
  8
0
 10
18.48741183
 20
14.40017736
  0
VERTEX
  8
0
 10
18.48095656
 20
14.31461252
  0
SEQEND
  0
POLYLINE
  8
Default_Layer
 66
   1
 39
0.000000
 70
    1
  0
VERTEX
  8
0
 10
13.73636548
 20
15.41179921
  0
VERTEX
  8
0
 10
14.03799524
 20
15.39472663
  0
VERTEX
  8
0
 10
14.18615242
 20
15.40907726
  0
VERTEX
  8
0
 10
14.32943936
 20
15.44145290
  0
VERTEX
  8
0
 10
14.18087147
 20
15.48617816
  0
VERTEX
  8
0
 10
14.00245306
 20
15.52639793
  0
VERTEX
  8
0
 10
13.91613591
 20
15.53063686
  0
VERTEX
  8
0
 10
13.83925933
 20
15.51673175
  0
VERTEX
  8
0
 10
13.77745772
 20
15.47901005
  0
VERTEX
  8
0
 10
13.73636548
 20
15.41179921
  0
SEQEND
  0
POLYLINE
  8
Default_Layer
 66
   1
 39
0.000000
 70
    1
  0
VERTEX
  8
0
 10
14.32943936
 20
14.28495882
  0
VERTEX
  8
0
 10
14.14700107
 20
14.16314426
  0
VERTEX
  8
0
 10
13.99188560
 20
14.01420445
  0
VERTEX
  8
0
 10
13.85727854
 20
13.84495993
  0
VERTEX
  8
0
 10
13.73636548
 20
13.66223124
  0
VERTEX
  8
0
 10
13.71284312
 20
13.69741593
  0
VERTEX
  8
0
 10
13.69801573
 20
13.75104877
  0
VERTEX
  8
0
 10
13.68414289
 20
13.88419265
  0
VERTEX
  8
0
 10
13.67414108
 20
14.00273033
  0
VERTEX
  8
0
 10
13.66415246
 20
14.03810543
  0
VERTEX
  8
0
 10
13.64740440
 20
14.04772927
  0
VERTEX
  8
0
 10
13.64514389
 20
13.83048087
  0
VERTEX
  8
0
 10
13.64931204
 20
13.61965834
  0
VERTEX
  8
0
 10
13.66308330
 20
13.52593410
  0
VERTEX
  8
0
 10
13.68959348
 20
13.44494911
  0
VERTEX
  8
0
 10
13.73255314
 20
13.38041430
  0
VERTEX
  8
0
 10
13.79567287
 20
13.33604061
  0
VERTEX
  8
0
 10
13.87921779
 20
13.34032382
  0
VERTEX
  8
0
 10
13.94656595
 20
13.37041613
  0
VERTEX
  8
0
 10
14.00288276
 20
13.42074405
  0
VERTEX
  8
0
 10
14.05333361
 20
13.48573410
  0
VERTEX
  8
0
 10
14.15729910
 20
13.63740668
  0
VERTEX
  8
0
 10
14.22114455
 20
13.71294225
  0
VERTEX
  8
0
 10
14.29978567
 20
13.78084602
  0
VERTEX
  8
0
 10
14.49884039
 20
13.88746137
  0
VERTEX
  8
0
 10
14.70240220
 20
13.99966747
  0
VERTEX
  8
0
 10
14.78325647
 20
14.07521307
  0
VERTEX
  8
0
 10
14.83809737
 20
14.17297159
  0
VERTEX
  8
0
 10
14.85787817
 20
14.29988142
  0
VERTEX
  8
0
 10
14.83355217
 20
14.46288099
  0
VERTEX
  8
0
 10
14.79261207
 20
14.48124272
  0
VERTEX
  8
0
 10
14.74459108
 20
14.49253468
  0
VERTEX
  8
0
 10
14.69790281
 20
14.38323217
  0
VERTEX
  8
0
 10
14.61313012
 20
14.31222000
  0
VERTEX
  8
0
 10
14.49029998
 20
14.27947121
  0
VERTEX
  8
0
 10
14.32943936
 20
14.28495882
  0
SEQEND
  0
POLYLINE
  8
Default_Layer
 66
   1
 39
0.000000
 70
    1
  0
VERTEX
  8
0
 10
14.12186350
 20
13.36569430
  0
VERTEX
  8
0
 10
14.16616040
 20
13.38729596
  0
VERTEX
  8
0
 10
14.20488433
 20
13.42431519
  0
VERTEX
  8
0
 10
14.26415544
 20
13.52684487
  0
VERTEX
  8
0
 10
14.29676112
 20
13.63776035
  0
VERTEX
  8
0
 10
14.29978567
 20
13.72153863
  0
VERTEX
  8
0
 10
14.18849737
 20
13.56552626
  0
VERTEX
  8
0
 10
14.14510707
 20
13.47558138
  0
VERTEX
  8
0
 10
14.12186350
 20
13.36569430
  0
SEQEND
  0
POLYLINE
  8
Default_Layer
 66
   1
 39
0.000000
 70
    1
  0
VERTEX
  8
0
 10
14.47770784
 20
13.45465538
  0
VERTEX
  8
0
 10
14.59440108
 20
13.28052231
  0
VERTEX
  8
0
 10
14.69233121
 20
13.08790955
  0
VERTEX
  8
0
 10
14.84934515
 20
12.66297605
  0
VERTEX
  8
0
 10
14.98363575
 20
12.21131707
  0
VERTEX
  8
0
 10
15.13008911
 20
11.76439481
  0
VERTEX
  8
0
 10
15.20763369
 20
11.63127435
  0
VERTEX
  8
0
 10
15.24836994
 20
11.56807117
  0
VERTEX
  8
0
 10
15.27835758
 20
11.49751156
  0
VERTEX
  8
0
 10
15.30803418
 20
11.33336944
  0
VERTEX
  8
0
 10
15.31323856
 20
11.16087512
  0
VERTEX
  8
0
 10
15.27798077
 20
10.79754183
  0
VERTEX
  8
0
 10
15.22808455
 20
10.42093566
  0
VERTEX
  8
0
 10
15.21499087
 20
10.23185022
  0
VERTEX
  8
0
 10
15.21905019
 20
10.04448054
  0
VERTEX
  8
0
 10
15.22375052
 20
9.70123091
  0
VERTEX
  8
0
 10
15.20442367
 20
9.35628444
  0
VERTEX
  8
0
 10
15.19241009
 20
9.00700512
  0
VERTEX
  8
0
 10
15.21905019
 20
8.65075691
  0
VERTEX
  8
0
 10
15.41455531
 20
8.75136798
  0
VERTEX
  8
0
 10
15.57489452
 20
8.88798646
  0
VERTEX
  8
0
 10
15.46362105
 20
8.89532777
  0
VERTEX
  8
0
 10
15.43196880
 20
8.92298847
  0
VERTEX
  8
0
 10
15.42662605
 20
8.97694755
  0
VERTEX
  8
0
 10
15.38899799
 20
9.34747405
  0
VERTEX
  8
0
 10
15.38260096
 20
9.72735604
  0
VERTEX
  8
0
 10
15.42042155
 20
10.49867633
  0
VERTEX
  8
0
 10
15.44309996
 20
10.88185952
  0
VERTEX
  8
0
 10
15.45393097
 20
11.25788801
  0
VERTEX
  8
0
 10
15.44214497
 20
11.62263424
  0
VERTEX
  8
0
 10
15.39697236
 20
11.97197067
  0
VERTEX
  8
0
 10
15.47522499
 20
11.64989842
  0
VERTEX
  8
0
 10
15.51898075
 20
11.29332932
  0
VERTEX
  8
0
 10
15.53854539
 20
10.91256908
  0
VERTEX
  8
0
 10
15.54422461
 20
10.51792343
  0
VERTEX
  8
0
 10
15.55514974
 20
9.72819881
  0
VERTEX
  8
0
 10
15.58100708
 20
9.35373128
  0
VERTEX
  8
0
 10
15.63420191
 20
9.00660124
  0
VERTEX
  8
0
 10
15.71809398
 20
9.14189066
  0
VERTEX
  8
0
 10
15.76358185
 20
9.28469037
  0
VERTEX
  8
0
 10
15.77894210
 20
9.43415844
  0
VERTEX
  8
0
 10
15.77245131
 20
9.58945292
  0
VERTEX
  8
0
 10
15.72702292
 20
9.91415342
  0
VERTEX
  8
0
 10
15.69350930
 20
10.25205640
  0
VERTEX
  8
0
 10
15.70468623
 20
10.47265165
  0
VERTEX
  8
0
 10
15.73209003
 20
10.69648241
  0
VERTEX
  8
0
 10
15.75503032
 20
10.92050287
  0
VERTEX
  8
0
 10
15.75281669
 20
11.14166723
  0
VERTEX
  8
0
 10
15.68144667
 20
11.56321524
  0
VERTEX
  8
0
 10
15.56976905
 20
11.94925870
  0
VERTEX
  8
0
 10
15.43841389
 20
12.30217761
  0
VERTEX
  8
0
 10
15.30801128
 20
12.62435194
  0
VERTEX
  8
0
 10
15.28021458
 20
12.53321732
  0
VERTEX
  8
0
 10
15.27129943
 20
12.42341682
  0
VERTEX
  8
0
 10
15.24367308
 20
12.33253622
  0
VERTEX
  8
0
 10
15.21109548
 20
12.30593644
  0
VERTEX
  8
0
 10
15.15974280
 20
12.29816131
  0
VERTEX
  8
0
 10
15.05259029
 20
12.42173530
  0
VERTEX
  8
0
 10
14.96345933
 20
12.57155811
  0
VERTEX
  8
0
 10
14.89070371
 20
12.74173984
  0
VERTEX
  8
0
 10
14.83267718
 20
12.92639055
  0
VERTEX
  8
0
 10
14.75422648
 20
13.31553928
  0
VERTEX
  8
0
 10
14.71493739
 20
13.69188494
  0
VERTEX
  8
0
 10
14.57347498
 20
13.59570594
  0
VERTEX
  8
0
 10
14.51843652
 20
13.53223397
  0
VERTEX
  8
0
 10
14.47770784
 20
13.45465538
  0
SEQEND
  0
POLYLINE
  8
Default_Layer
 66
   1
 39
0.000000
 70
    1
  0
VERTEX
  8
0
 10
14.06255612
 20
13.15811844
  0
VERTEX
  8
0
 10
14.08520684
 20
13.19642548
  0
VERTEX
  8
0
 10
14.09275709
 20
13.24687360
  0
VERTEX
  8
0
 10
14.08520684
 20
13.29742467
  0
VERTEX
  8
0
 10
14.06255612
 20
13.33604061
  0
VERTEX
  8
0
 10
13.97359503
 20
13.33604061
  0
VERTEX
  8
0
 10
13.95802864
 20
13.29032057
  0
VERTEX
  8
0
 10
13.96606983
 20
13.22849424
  0
VERTEX
  8
0
 10
14.00011390
 20
13.17596054
  0
VERTEX
  8
0
 10
14.06255612
 20
13.15811844
  0
SEQEND
  0
POLYLINE
  8
Default_Layer
 66
   1
 39
0.000000
 70
    1
  0
VERTEX
  8
0
 10
16.22727580
 20
12.41677608
  0
VERTEX
  8
0
 10
16.45826490
 20
12.42260468
  0
VERTEX
  8
0
 10
16.55844857
 20
12.44114154
  0
VERTEX
  8
0
 10
16.64242752
 20
12.47608347
  0
VERTEX
  8
0
 10
16.42134271
 20
12.45952687
  0
VERTEX
  8
0
 10
16.22727580
 20
12.41677608
  0
SEQEND
  0
POLYLINE
  8
Default_Layer
 66
   1
 39
0.000000
 70
    1
  0
VERTEX
  8
0
 10
15.87143147
 20
12.23885392
  0
VERTEX
  8
0
 10
15.96460748
 20
12.24174699
  0
VERTEX
  8
0
 10
16.06757599
 20
12.23505211
  0
VERTEX
  8
0
 10
16.16143332
 20
12.23767155
  0
VERTEX
  8
0
 10
16.22727580
 20
12.26850761
  0
VERTEX
  8
0
 10
15.96240286
 20
12.31499847
  0
VERTEX
  8
0
 10
15.85096234
 20
12.35923984
  0
VERTEX
  8
0
 10
15.80999070
 20
12.39610915
  0
VERTEX
  8
0
 10
15.78247038
 20
12.44642978
  0
VERTEX
  8
0
 10
15.79601594
 20
12.38583763
  0
VERTEX
  8
0
 10
15.82041319
 20
12.33609855
  0
VERTEX
  8
0
 10
15.87143147
 20
12.23885392
  0
SEQEND
  0
POLYLINE
  8
Default_Layer
 66
   1
 39
0.000000
 70
    1
  0
VERTEX
  8
0
 10
15.93073886
 20
10.42997857
  0
VERTEX
  8
0
 10
16.02678757
 20
10.56343347
  0
VERTEX
  8
0
 10
16.10096976
 20
10.71896362
  0
VERTEX
  8
0
 10
16.17158415
 20
10.87826971
  0
VERTEX
  8
0
 10
16.25692949
 20
11.02305245
  0
VERTEX
  8
0
 10
16.21051409
 20
11.16938302
  0
VERTEX
  8
0
 10
16.14311438
 20
11.29473050
  0
VERTEX
  8
0
 10
15.97149135
 20
11.50860480
  0
VERTEX
  8
0
 10
15.79431892
 20
11.71693248
  0
VERTEX
  8
0
 10
15.71998247
 20
11.83534669
  0
VERTEX
  8
0
 10
15.66385561
 20
11.97197067
  0
VERTEX
  8
0
 10
15.76020364
 20
11.61610306
  0
VERTEX
  8
0
 10
15.83689249
 20
11.24057321
  0
VERTEX
  8
0
 10
15.89378371
 20
10.84524407
  0
VERTEX
  8
0
 10
15.93073886
 20
10.42997857
  0
SEQEND
  0
POLYLINE
  8
Default_Layer
 66
   1
 39
0.000000
 70
    1
  0
VERTEX
  8
0
 10
2.20107840
 20
9.59967513
  0
VERTEX
  8
0
 10
2.19422422
 20
9.54691151
  0
VERTEX
  8
0
 10
2.16508010
 20
9.51664791
  0
VERTEX
  8
0
 10
2.13169486
 20
9.49083081
  0
VERTEX
  8
0
 10
2.11211732
 20
9.45140666
  0
VERTEX
  8
0
 10
2.18769670
 20
9.32129096
  0
VERTEX
  8
0
 10
2.21237848
 20
9.20658258
  0
VERTEX
  8
0
 10
2.23141023
 20
9.08825805
  0
VERTEX
  8
0
 10
2.29003949
 20
8.94729385
  0
VERTEX
  8
0
 10
2.35183898
 20
8.95254379
  0
VERTEX
  8
0
 10
2.40338386
 20
8.96905686
  0
VERTEX
  8
0
 10
2.45015052
 20
8.97468843
  0
VERTEX
  8
0
 10
2.49761535
 20
8.94729385
  0
VERTEX
  8
0
 10
2.47668483
 20
8.89620942
  0
VERTEX
  8
0
 10
2.48180083
 20
8.84964181
  0
VERTEX
  8
0
 10
2.48741066
 20
8.80000625
  0
VERTEX
  8
0
 10
2.46796165
 20
8.73971799
  0
VERTEX
  8
0
 10
2.57382635
 20
8.75957122
  0
VERTEX
  8
0
 10
2.66693329
 20
8.79239090
  0
VERTEX
  8
0
 10
2.85345968
 20
8.85833277
  0
VERTEX
  8
0
 10
2.66013643
 20
9.42859896
  0
VERTEX
  8
0
 10
2.48021695
 20
10.01226086
  0
VERTEX
  8
0
 10
2.41003030
 20
10.32386353
  0
VERTEX
  8
0
 10
2.36089063
 20
10.65651313
  0
VERTEX
  8
0
 10
2.33869659
 20
11.01610900
  0
VERTEX
  8
0
 10
2.34934688
 20
11.40855048
  0
VERTEX
  8
0
 10
2.31389038
 20
11.44723126
  0
VERTEX
  8
0
 10
2.29127608
 20
11.49875302
  0
VERTEX
  8
0
 10
2.27067801
 20
11.62642412
  0
VERTEX
  8
0
 10
2.25976069
 20
11.76377318
  0
VERTEX
  8
0
 10
2.23073210
 20
11.88300959
  0
VERTEX
  8
0
 10
2.14842761
 20
11.34654426
  0
VERTEX
  8
0
 10
2.10916731
 20
10.74941203
  0
VERTEX
  8
0
 10
2.10890523
 20
10.44579335
  0
VERTEX
  8
0
 10
2.12327599
 20
10.14824496
  0
VERTEX
  8
0
 10
2.15357018
 20
9.86384589
  0
VERTEX
  8
0
 10
2.20107840
 20
9.59967513
  0
SEQEND
  0
POLYLINE
  8
Default_Layer
 66
   1
 39
0.000000
 70
    1
  0
VERTEX
  8
0
 10
3.35757248
 20
8.71006430
  0
VERTEX
  8
0
 10
3.33037497
 20
8.79687360
  0
VERTEX
  8
0
 10
3.28598785
 20
8.88569464
  0
VERTEX
  8
0
 10
3.17014795
 20
9.05598741
  0
VERTEX
  8
0
 10
3.00172815
 20
9.27348449
  0
VERTEX
  8
0
 10
3.14845035
 20
8.96057554
  0
VERTEX
  8
0
 10
3.24173777
 20
8.82404752
  0
VERTEX
  8
0
 10
3.35757248
 20
8.71006430
  0
SEQEND
  0
POLYLINE
  8
Default_Layer
 66
   1
 39
0.000000
 70
    1
  0
VERTEX
  8
0
 10
11.21580147
 20
8.17629780
  0
VERTEX
  8
0
 10
11.08518318
 20
8.34318025
  0
VERTEX
  8
0
 10
10.99909312
 20
8.41587406
  0
VERTEX
  8
0
 10
10.89997125
 20
8.47575691
  0
VERTEX
  8
0
 10
10.78843420
 20
8.51859428
  0
VERTEX
  8
0
 10
10.66509857
 20
8.54015167
  0
VERTEX
  8
0
 10
10.53058097
 20
8.53619456
  0
VERTEX
  8
0
 10
10.38549803
 20
8.50248844
  0
VERTEX
  8
0
 10
10.60783793
 20
8.43570483
  0
VERTEX
  8
0
 10
10.81612543
 20
8.35486881
  0
VERTEX
  8
0
 10
11.21580147
 20
8.17629780
  0
SEQEND
  0
POLYLINE
  8
Default_Layer
 66
   1
 39
0.000000
 70
    1
  0
VERTEX
  8
0
 10
11.45303102
 20
8.32456627
  0
VERTEX
  8
0
 10
11.50262639
 20
8.29261121
  0
VERTEX
  8
0
 10
11.54178617
 20
8.25022611
  0
VERTEX
  8
0
 10
11.58104892
 20
8.20794398
  0
VERTEX
  8
0
 10
11.63095319
 20
8.17629780
  0
VERTEX
  8
0
 10
11.60927872
 20
8.30290182
  0
VERTEX
  8
0
 10
11.58456622
 20
8.35232008
  0
VERTEX
  8
0
 10
11.54199210
 20
8.38387366
  0
VERTEX
  8
0
 10
11.52868726
 20
8.35979971
  0
VERTEX
  8
0
 10
11.49965198
 20
8.35166769
  0
VERTEX
  8
0
 10
11.46954649
 20
8.34481181
  0
VERTEX
  8
0
 10
11.45303102
 20
8.32456627
  0
SEQEND
  0
POLYLINE
  8
Default_Layer
 66
   1
 39
0.000000
 70
    1
  0
VERTEX
  8
0
 10
13.41017484
 20
7.16807220
  0
VERTEX
  8
0
 10
13.47666883
 20
7.40619320
  0
VERTEX
  8
0
 10
13.52553974
 20
7.68242273
  0
VERTEX
  8
0
 10
13.54638189
 20
7.96836024
  0
VERTEX
  8
0
 10
13.52878962
 20
8.23560519
  0
VERTEX
  8
0
 10
13.49509902
 20
7.96406301
  0
VERTEX
  8
0
 10
13.45040210
 20
7.68345357
  0
VERTEX
  8
0
 10
13.41524524
 20
7.41203669
  0
VERTEX
  8
0
 10
13.41017484
 20
7.16807220
  0
SEQEND
  0
POLYLINE
  8
Default_Layer
 66
   1
 39
0.000000
 70
    1
  0
VERTEX
  8
0
 10
8.48766159
 20
7.55357022
  0
VERTEX
  8
0
 10
8.63513631
 20
7.59496127
  0
VERTEX
  8
0
 10
8.79455790
 20
7.62445379
  0
VERTEX
  8
0
 10
9.13215589
 20
7.66483327
  0
VERTEX
  8
0
 10
9.46628395
 20
7.70888861
  0
VERTEX
  8
0
 10
9.62136812
 20
7.74297597
  0
VERTEX
  8
0
 10
9.76277045
 20
7.79079978
  0
VERTEX
  8
0
 10
9.58405919
 20
7.75607113
  0
VERTEX
  8
0
 10
9.39365250
 20
7.74140625
  0
VERTEX
  8
0
 10
9.01218520
 20
7.73504025
  0
VERTEX
  8
0
 10
8.83834077
 20
7.72472533
  0
VERTEX
  8
0
 10
8.68723330
 20
7.69724662
  0
VERTEX
  8
0
 10
8.56747088
 20
7.64329721
  0
VERTEX
  8
0
 10
8.52203408
 20
7.60348760
  0
VERTEX
  8
0
 10
8.48766159
 20
7.55357022
  0
SEQEND
  0
POLYLINE
  8
Default_Layer
 66
   1
 39
0.000000
 70
    1
  0
VERTEX
  8
0
 10
11.48268471
 20
7.55357022
  0
VERTEX
  8
0
 10
11.45047063
 20
7.60220943
  0
VERTEX
  8
0
 10
11.40175856
 20
7.64419806
  0
VERTEX
  8
0
 10
11.27235456
 20
7.70643963
  0
VERTEX
  8
0
 10
11.12950086
 20
7.73672704
  0
VERTEX
  8
0
 10
11.00822561
 20
7.73149239
  0
VERTEX
  8
0
 10
11.23334735
 20
7.63041238
  0
VERTEX
  8
0
 10
11.48268471
 20
7.55357022
  0
SEQEND
  0
POLYLINE
  8
Default_Layer
 66
   1
 39
0.000000
 70
    1
  0
VERTEX
  8
0
 10
6.97532318
 20
7.43495544
  0
VERTEX
  8
0
 10
6.92447904
 20
7.43076105
  0
VERTEX
  8
0
 10
6.88282050
 20
7.45290647
  0
VERTEX
  8
0
 10
6.85034619
 20
7.46607638
  0
VERTEX
  8
0
 10
6.82705471
 20
7.43495544
  0
VERTEX
  8
0
 10
6.94995667
 20
7.32869261
  0
VERTEX
  8
0
 10
7.06613460
 20
7.20055159
  0
VERTEX
  8
0
 10
7.18257428
 20
7.06553176
  0
VERTEX
  8
0
 10
7.30626154
 20
6.93863246
  0
VERTEX
  8
0
 10
7.44418218
 20
6.83485306
  0
VERTEX
  8
0
 10
7.60332202
 20
6.76919293
  0
VERTEX
  8
0
 10
7.69303219
 20
6.75534488
  0
VERTEX
  8
0
 10
7.79066685
 20
6.75665141
  0
VERTEX
  8
0
 10
7.89709920
 20
6.77498743
  0
VERTEX
  8
0
 10
8.01320248
 20
6.81222786
  0
VERTEX
  8
0
 10
8.36904681
 20
7.61287761
  0
VERTEX
  8
0
 10
8.19791827
 20
7.66120931
  0
VERTEX
  8
0
 10
8.00537853
 20
7.69236669
  0
VERTEX
  8
0
 10
7.80169219
 20
7.70485518
  0
VERTEX
  8
0
 10
7.59712388
 20
7.69718026
  0
VERTEX
  8
0
 10
7.40193821
 20
7.66784737
  0
VERTEX
  8
0
 10
7.22639979
 20
7.61536197
  0
VERTEX
  8
0
 10
7.08077325
 20
7.53822951
  0
VERTEX
  8
0
 10
6.97532318
 20
7.43495544
  0
SEQEND
  0
POLYLINE
  8
Default_Layer
 66
   1
 39
0.000000
 70
    1
  0
VERTEX
  8
0
 10
1.22250649
 20
5.47781162
  0
VERTEX
  8
0
 10
1.30462993
 20
5.90784540
  0
VERTEX
  8
0
 10
1.42528084
 20
6.31990887
  0
VERTEX
  8
0
 10
1.66731191
 20
7.04945742
  0
VERTEX
  8
0
 10
1.56032126
 20
6.90500860
  0
VERTEX
  8
0
 10
1.46374874
 20
6.74024513
  0
VERTEX
  8
0
 10
1.37972669
 20
6.55789477
  0
VERTEX
  8
0
 10
1.31038749
 20
6.36068530
  0
VERTEX
  8
0
 10
1.25786351
 20
6.15134448
  0
VERTEX
  8
0
 10
1.22428710
 20
5.93260008
  0
VERTEX
  8
0
 10
1.21179064
 20
5.70717987
  0
VERTEX
  8
0
 10
1.22250649
 20
5.47781162
  0
SEQEND
  0
POLYLINE
  8
Default_Layer
 66
   1
 39
0.000000
 70
    1
  0
VERTEX
  8
0
 10
1.43008235
 20
5.86330965
  0
VERTEX
  8
0
 10
1.58907673
 20
6.35627357
  0
VERTEX
  8
0
 10
1.66264426
 20
6.64783699
  0
VERTEX
  8
0
 10
1.69696560
 20
6.90118895
  0
VERTEX
  8
0
 10
1.59834875
 20
6.67330557
  0
VERTEX
  8
0
 10
1.52813839
 20
6.41721747
  0
VERTEX
  8
0
 10
1.43008235
 20
5.86330965
  0
SEQEND
  0
POLYLINE
  8
Default_Layer
 66
   1
 39
0.000000
 70
    1
  0
VERTEX
  8
0
 10
1.25216019
 20
6.54534462
  0
VERTEX
  8
0
 10
1.24746071
 20
6.46077620
  0
VERTEX
  8
0
 10
1.22989673
 20
6.38927961
  0
VERTEX
  8
0
 10
1.19285280
 20
6.24880767
  0
VERTEX
  8
0
 10
1.19919676
 20
6.23267614
  0
VERTEX
  8
0
 10
1.21121987
 20
6.23185964
  0
VERTEX
  8
0
 10
1.22147287
 20
6.24693058
  0
VERTEX
  8
0
 10
1.22250649
 20
6.27846137
  0
VERTEX
  8
0
 10
1.29485834
 20
6.50085386
  0
VERTEX
  8
0
 10
1.32316845
 20
6.60130654
  0
VERTEX
  8
0
 10
1.32394909
 20
6.62906396
  0
VERTEX
  8
0
 10
1.31146758
 20
6.63430570
  0
VERTEX
  8
0
 10
1.28659756
 20
6.58463518
  0
VERTEX
  8
0
 10
1.25216019
 20
6.54534462
  0
SEQEND
  0
POLYLINE
  8
Default_Layer
 66
   1
 39
0.000000
 70
    1
  0
VERTEX
  8
0
 10
1.93419516
 20
6.33776876
  0
VERTEX
  8
0
 10
1.93636968
 20
6.53989073
  0
VERTEX
  8
0
 10
1.93145695
 20
6.62621185
  0
VERTEX
  8
0
 10
1.92159343
 20
6.64324346
  0
VERTEX
  8
0
 10
1.90454146
 20
6.63430570
  0
VERTEX
  8
0
 10
1.90343712
 20
6.54256939
  0
VERTEX
  8
0
 10
1.88150182
 20
6.45667319
  0
VERTEX
  8
0
 10
1.87849976
 20
6.38545902
  0
VERTEX
  8
0
 10
1.89652501
 20
6.35812078
  0
VERTEX
  8
0
 10
1.93419516
 20
6.33776876
  0
SEQEND
  0
POLYLINE
  8
Default_Layer
 66
   1
 39
0.000000
 70
    1
  0
VERTEX
  8
0
 10
11.89783643
 20
3.07586239
  0
VERTEX
  8
0
 10
12.09639180
 20
3.18825895
  0
VERTEX
  8
0
 10
12.25368077
 20
3.34274563
  0
VERTEX
  8
0
 10
12.18315394
 20
3.33524281
  0
VERTEX
  8
0
 10
12.12471748
 20
3.31570562
  0
VERTEX
  8
0
 10
12.03481850
 20
3.24982113
  0
VERTEX
  8
0
 10
11.89783643
 20
3.07586239
  0
SEQEND
  0
POLYLINE
  8
Default_Layer
 66
   1
 39
0.000000
 70
    1
  0
VERTEX
  8
0
 10
12.07575860
 20
4.05443430
  0
VERTEX
  8
0
 10
12.00627576
 20
4.19105834
  0
VERTEX
  8
0
 10
11.96550837
 20
4.34417733
  0
VERTEX
  8
0
 10
11.94690671
 20
4.51144352
  0
VERTEX
  8
0
 10
11.94392103
 20
4.69050917
  0
VERTEX
  8
0
 10
11.95859878
 20
5.07464790
  0
VERTEX
  8
0
 10
11.95714382
 20
5.47781162
  0
VERTEX
  8
0
 10
11.92136148
 20
5.50875009
  0
VERTEX
  8
0
 10
11.87059820
 20
5.52470762
  0
VERTEX
  8
0
 10
11.82604061
 20
5.54687084
  0
VERTEX
  8
0
 10
11.80887535
 20
5.59642640
  0
VERTEX
  8
0
 10
11.92749013
 20
5.59642640
  0
VERTEX
  8
0
 10
11.91876609
 20
5.67666344
  0
VERTEX
  8
0
 10
11.88859169
 20
5.73545013
  0
VERTEX
  8
0
 10
11.85562624
 20
5.79144576
  0
VERTEX
  8
0
 10
11.83852905
 20
5.86330965
  0
VERTEX
  8
0
 10
11.89668330
 20
5.90377593
  0
VERTEX
  8
0
 10
11.92334017
 20
5.95892955
  0
VERTEX
  8
0
 10
11.92541108
 20
6.02464794
  0
VERTEX
  8
0
 10
11.90980742
 20
6.09680856
  0
VERTEX
  8
0
 10
11.85322206
 20
6.24396632
  0
VERTEX
  8
0
 10
11.80887535
 20
6.36742245
  0
VERTEX
  8
0
 10
11.69043218
 20
6.35666454
  0
VERTEX
  8
0
 10
11.57924361
 20
6.36092809
  0
VERTEX
  8
0
 10
11.47908298
 20
6.39067909
  0
VERTEX
  8
0
 10
11.39372363
 20
6.45638353
  0
VERTEX
  8
0
 10
11.33472779
 20
6.36455981
  0
VERTEX
  8
0
 10
11.30742682
 20
6.27321932
  0
VERTEX
  8
0
 10
11.30493081
 20
6.18094080
  0
VERTEX
  8
0
 10
11.32034981
 20
6.08630300
  0
VERTEX
  8
0
 10
11.37737312
 20
5.88426451
  0
VERTEX
  8
0
 10
11.42337733
 20
5.65573379
  0
VERTEX
  8
0
 10
11.43329639
 20
5.36125875
  0
VERTEX
  8
0
 10
11.41631167
 20
5.07766035
  0
VERTEX
  8
0
 10
11.34129792
 20
4.53710690
  0
VERTEX
  8
0
 10
11.30310241
 20
4.27715860
  0
VERTEX
  8
0
 10
11.27767018
 20
4.02210040
  0
VERTEX
  8
0
 10
11.27491797
 20
3.77043568
  0
VERTEX
  8
0
 10
11.30476255
 20
3.52066780
  0
VERTEX
  8
0
 10
11.40702713
 20
3.50174727
  0
VERTEX
  8
0
 10
11.50195279
 20
3.46897083
  0
VERTEX
  8
0
 10
11.66203635
 20
3.36860197
  0
VERTEX
  8
0
 10
11.72331875
 20
3.30438540
  0
VERTEX
  8
0
 10
11.76951121
 20
3.23306467
  0
VERTEX
  8
0
 10
11.79867600
 20
3.15632768
  0
VERTEX
  8
0
 10
11.80887535
 20
3.07586239
  0
VERTEX
  8
0
 10
11.92879030
 20
3.15434607
  0
VERTEX
  8
0
 10
12.00417577
 20
3.24258573
  0
VERTEX
  8
0
 10
12.04493157
 20
3.34196590
  0
VERTEX
  8
0
 10
12.06095749
 20
3.45387116
  0
VERTEX
  8
0
 10
12.05841896
 20
3.72079519
  0
VERTEX
  8
0
 10
12.05965410
 20
3.87858308
  0
VERTEX
  8
0
 10
12.07575860
 20
4.05443430
  0
SEQEND
  0
POLYLINE
  8
Default_Layer
 66
   1
 39
0.000000
 70
    1
  0
VERTEX
  8
0
 10
1.45973605
 20
5.18127468
  0
VERTEX
  8
0
 10
1.53237215
 20
5.42807277
  0
VERTEX
  8
0
 10
1.58728342
 20
5.71309087
  0
VERTEX
  8
0
 10
1.61548812
 20
6.00649755
  0
VERTEX
  8
0
 10
1.60800452
 20
6.27846137
  0
VERTEX
  8
0
 10
1.50026614
 20
5.72601247
  0
VERTEX
  8
0
 10
1.46348041
 20
5.44138858
  0
VERTEX
  8
0
 10
1.45973605
 20
5.18127468
  0
SEQEND
  0
POLYLINE
  8
Default_Layer
 66
   1
 39
0.000000
 70
    1
  0
VERTEX
  8
0
 10
1.34112127
 20
5.09231360
  0
VERTEX
  8
0
 10
1.37708373
 20
5.21516893
  0
VERTEX
  8
0
 10
1.40412960
 20
5.38380179
  0
VERTEX
  8
0
 10
1.41449816
 20
5.53271876
  0
VERTEX
  8
0
 10
1.40042866
 20
5.59642640
  0
VERTEX
  8
0
 10
1.33732873
 20
5.34041770
  0
VERTEX
  8
0
 10
1.31848617
 20
5.20851019
  0
VERTEX
  8
0
 10
1.32307186
 20
5.14758961
  0
VERTEX
  8
0
 10
1.34112127
 20
5.09231360
  0
SEQEND
  0
POLYLINE
  8
Default_Layer
 66
   1
 39
0.000000
 70
    1
  0
VERTEX
  8
0
 10
1.48938974
 20
4.49923971
  0
VERTEX
  8
0
 10
1.52977655
 20
4.55432343
  0
VERTEX
  8
0
 10
1.55840995
 20
4.63108632
  0
VERTEX
  8
0
 10
1.58931767
 20
4.82141355
  0
VERTEX
  8
0
 10
1.60800452
 20
5.15162099
  0
VERTEX
  8
0
 10
1.56278081
 20
4.99535008
  0
VERTEX
  8
0
 10
1.50641039
 20
4.83027407
  0
VERTEX
  8
0
 10
1.47118333
 20
4.66277621
  0
VERTEX
  8
0
 10
1.47158922
 20
4.58011383
  0
VERTEX
  8
0
 10
1.48938974
 20
4.49923971
  0
SEQEND
  0
POLYLINE
  8
Default_Layer
 66
   1
 39
0.000000
 70
    1
  0
VERTEX
  8
0
 10
11.92749013
 20
16.24210265
  0
VERTEX
  8
0
 10
12.07732147
 20
16.16533788
  0
VERTEX
  8
0
 10
12.19290124
 20
16.05909652
  0
VERTEX
  8
0
 10
12.29439022
 20
15.94057029
  0
VERTEX
  8
0
 10
12.40194924
 20
15.82695093
  0
VERTEX
  8
0
 10
12.52128334
 20
15.73439434
  0
VERTEX
  8
0
 10
12.64232045
 20
15.66729264
  0
VERTEX
  8
0
 10
12.89627723
 20
15.58177991
  0
VERTEX
  8
0
 10
13.17736668
 20
15.51506475
  0
VERTEX
  8
0
 10
13.49913593
 20
15.41179921
  0
VERTEX
  8
0
 10
13.65933564
 20
15.31716554
  0
VERTEX
  8
0
 10
13.82295628
 20
15.20086634
  0
VERTEX
  8
0
 10
13.90998416
 20
15.15115396
  0
VERTEX
  8
0
 10
14.00258892
 20
15.11589934
  0
VERTEX
  8
0
 10
14.10234443
 20
15.10172720
  0
VERTEX
  8
0
 10
14.21082459
 20
15.11526226
  0
VERTEX
  8
0
 10
14.03329245
 20
14.99593884
  0
VERTEX
  8
0
 10
13.87984912
 20
14.85274087
  0
VERTEX
  8
0
 10
13.75845191
 20
14.67770827
  0
VERTEX
  8
0
 10
13.67705809
 20
14.46288099
  0
VERTEX
  8
0
 10
13.50748027
 20
14.58242669
  0
VERTEX
  8
0
 10
13.36840593
 20
14.73247586
  0
VERTEX
  8
0
 10
13.11363790
 20
15.05595487
  0
VERTEX
  8
0
 10
13.14610104
 20
14.94014772
  0
VERTEX
  8
0
 10
13.19564800
 20
14.84142456
  0
VERTEX
  8
0
 10
13.32928344
 20
14.67852097
  0
VERTEX
  8
0
 10
13.48112430
 20
14.53382558
  0
VERTEX
  8
0
 10
13.61775070
 20
14.37391991
  0
VERTEX
  8
0
 10
13.62027714
 20
14.28212558
  0
VERTEX
  8
0
 10
13.60504203
 20
14.20830011
  0
VERTEX
  8
0
 10
13.58874784
 20
14.13573688
  0
VERTEX
  8
0
 10
13.58809701
 20
14.04772927
  0
VERTEX
  8
0
 10
13.41289824
 20
14.29510357
  0
VERTEX
  8
0
 10
13.23286927
 20
14.53764182
  0
VERTEX
  8
0
 10
13.06735885
 20
14.79469363
  0
VERTEX
  8
0
 10
12.99609458
 20
14.93470886
  0
VERTEX
  8
0
 10
12.93571573
 20
15.08560857
  0
VERTEX
  8
0
 10
12.93735030
 20
14.92370602
  0
VERTEX
  8
0
 10
12.98616124
 20
14.77511538
  0
VERTEX
  8
0
 10
13.06944698
 20
14.63459888
  0
VERTEX
  8
0
 10
13.17450598
 20
14.49691878
  0
VERTEX
  8
0
 10
13.39913749
 20
14.20911670
  0
VERTEX
  8
0
 10
13.49330689
 20
14.04851922
  0
VERTEX
  8
0
 10
13.55844331
 20
13.86980710
  0
VERTEX
  8
0
 10
13.57108643
 20
13.75614564
  0
VERTEX
  8
0
 10
13.56967963
 20
13.64057606
  0
VERTEX
  8
0
 10
13.57748153
 20
13.52100722
  0
VERTEX
  8
0
 10
13.61775070
 20
13.39534800
  0
VERTEX
  8
0
 10
13.71860101
 20
13.35230058
  0
VERTEX
  8
0
 10
13.80208945
 20
13.29395111
  0
VERTEX
  8
0
 10
13.86884412
 20
13.22139153
  0
VERTEX
  8
0
 10
13.91949315
 20
13.13571376
  0
VERTEX
  8
0
 10
13.95466463
 20
13.03800972
  0
VERTEX
  8
0
 10
13.97498670
 20
12.92937136
  0
VERTEX
  8
0
 10
13.97359503
 20
12.68365933
  0
VERTEX
  8
0
 10
14.05664464
 20
12.73373621
  0
VERTEX
  8
0
 10
14.10677624
 20
12.81694396
  0
VERTEX
  8
0
 10
14.13479778
 20
12.92247048
  0
VERTEX
  8
0
 10
14.15151720
 20
13.03950366
  0
VERTEX
  8
0
 10
14.55415226
 20
12.12253821
  0
VERTEX
  8
0
 10
14.64477013
 20
11.88325855
  0
VERTEX
  8
0
 10
14.72399996
 20
11.63259260
  0
VERTEX
  8
0
 10
14.78815592
 20
11.36685486
  0
VERTEX
  8
0
 10
14.83355217
 20
11.08235984
  0
VERTEX
  8
0
 10
14.86738950
 20
11.24068739
  0
VERTEX
  8
0
 10
14.88121036
 20
11.39286538
  0
VERTEX
  8
0
 10
14.87759586
 20
11.53965941
  0
VERTEX
  8
0
 10
14.85912712
 20
11.68183506
  0
VERTEX
  8
0
 10
14.78795143
 20
11.95539366
  0
VERTEX
  8
0
 10
14.68833226
 20
12.21966592
  0
VERTEX
  8
0
 10
14.58091860
 20
12.48077661
  0
VERTEX
  8
0
 10
14.48635943
 20
12.74485050
  0
VERTEX
  8
0
 10
14.42530371
 20
13.01801235
  0
VERTEX
  8
0
 10
14.41379246
 20
13.15991524
  0
VERTEX
  8
0
 10
14.41840045
 20
13.30638691
  0
VERTEX
  8
0
 10
14.64450698
 20
12.94900664
  0
VERTEX
  8
0
 10
14.76324391
 20
12.73656075
  0
VERTEX
  8
0
 10
14.87631407
 20
12.50301512
  0
VERTEX
  8
0
 10
14.97662558
 20
12.24942283
  0
VERTEX
  8
0
 10
15.05708652
 20
11.97683696
  0
VERTEX
  8
0
 10
15.11060500
 20
11.68631059
  0
VERTEX
  8
0
 10
15.13008911
 20
11.37889678
  0
VERTEX
  8
0
 10
15.11438987
 20
9.98795039
  0
VERTEX
  8
0
 10
15.07078172
 20
8.65075691
  0
VERTEX
  8
0
 10
15.07987111
 20
8.43045385
  0
VERTEX
  8
0
 10
15.08303943
 20
8.32631179
  0
VERTEX
  8
0
 10
15.07078172
 20
8.23560519
  0
VERTEX
  8
0
 10
15.02393308
 20
8.14362527
  0
VERTEX
  8
0
 10
14.95010521
 20
8.07072498
  0
VERTEX
  8
0
 10
14.75987847
 20
7.95843783
  0
VERTEX
  8
0
 10
14.57683489
 20
7.85129274
  0
VERTEX
  8
0
 10
14.51198596
 20
7.78482002
  0
VERTEX
  8
0
 10
14.47770784
 20
7.70183869
  0
VERTEX
  8
0
 10
14.44416715
 20
8.09896650
  0
VERTEX
  8
0
 10
14.45377595
 20
8.50051020
  0
VERTEX
  8
0
 10
14.49186914
 20
8.90683670
  0
VERTEX
  8
0
 10
14.54378162
 20
9.31831289
  0
VERTEX
  8
0
 10
14.59484831
 20
9.73530566
  0
VERTEX
  8
0
 10
14.63040410
 20
10.15818192
  0
VERTEX
  8
0
 10
14.63578390
 20
10.58730855
  0
VERTEX
  8
0
 10
14.59632261
 20
11.02305245
  0
VERTEX
  8
0
 10
14.60483996
 20
10.65136305
  0
VERTEX
  8
0
 10
14.58270812
 20
10.25981847
  0
VERTEX
  8
0
 10
14.48598324
 20
9.44686536
  0
VERTEX
  8
0
 10
14.38512065
 20
8.64359632
  0
VERTEX
  8
0
 10
14.35781668
 20
8.26415682
  0
VERTEX
  8
0
 10
14.35909306
 20
7.90941455
  0
VERTEX
  8
0
 10
14.39451345
 20
7.77792875
  0
VERTEX
  8
0
 10
14.41465591
 20
7.70547807
  0
VERTEX
  8
0
 10
14.41840045
 20
7.64253130
  0
VERTEX
  8
0
 10
14.39336036
 20
7.56265919
  0
VERTEX
  8
0
 10
14.34954113
 20
7.49348339
  0
VERTEX
  8
0
 10
14.29090747
 20
7.43471168
  0
VERTEX
  8
0
 10
14.22142409
 20
7.38605185
  0
VERTEX
  8
0
 10
14.06576704
 20
7.31789895
  0
VERTEX
  8
0
 10
13.91428764
 20
7.28668697
  0
VERTEX
  8
0
 10
13.91700808
 20
7.38004188
  0
VERTEX
  8
0
 10
13.93316646
 20
7.46015643
  0
VERTEX
  8
0
 10
13.94729886
 20
7.54249733
  0
VERTEX
  8
0
 10
13.94394134
 20
7.64253130
  0
VERTEX
  8
0
 10
13.89734832
 20
7.61110319
  0
VERTEX
  8
0
 10
13.86917482
 20
7.56130704
  0
VERTEX
  8
0
 10
13.84516319
 20
7.42953380
  0
VERTEX
  8
0
 10
13.82606010
 20
7.29305796
  0
VERTEX
  8
0
 10
13.80402227
 20
7.23738356
  0
VERTEX
  8
0
 10
13.76601917
 20
7.19772589
  0
VERTEX
  8
0
 10
13.74296775
 20
7.23758324
  0
VERTEX
  8
0
 10
13.73613069
 20
7.28243388
  0
VERTEX
  8
0
 10
13.75607942
 20
7.38400649
  0
VERTEX
  8
0
 10
13.79582487
 20
7.49622673
  0
VERTEX
  8
0
 10
13.82532656
 20
7.61287761
  0
VERTEX
  8
0
 10
13.90220096
 20
8.48709759
  0
VERTEX
  8
0
 10
13.96860685
 20
8.91246377
  0
VERTEX
  8
0
 10
14.02145160
 20
9.10366651
  0
VERTEX
  8
0
 10
14.09220981
 20
9.27348449
  0
VERTEX
  8
0
 10
14.01624519
 20
9.13798635
  0
VERTEX
  8
0
 10
13.95219381
 20
8.99062646
  0
VERTEX
  8
0
 10
13.85399518
 20
8.66615698
  0
VERTEX
  8
0
 10
13.78594278
 20
8.31174720
  0
VERTEX
  8
0
 10
13.73636548
 20
7.93906825
  0
VERTEX
  8
0
 10
13.68678492
 20
8.08075372
  0
VERTEX
  8
0
 10
13.66119201
 20
8.21876436
  0
VERTEX
  8
0
 10
13.65655151
 20
8.35386392
  0
VERTEX
  8
0
 10
13.66982818
 20
8.48681612
  0
VERTEX
  8
0
 10
13.73799213
 20
8.74933342
  0
VERTEX
  8
0
 10
13.84140199
 20
9.01242613
  0
VERTEX
  8
0
 10
13.95577592
 20
9.28220416
  0
VERTEX
  8
0
 10
14.05683206
 20
9.56477739
  0
VERTEX
  8
0
 10
14.12028854
 20
9.86625571
  0
VERTEX
  8
0
 10
14.13032883
 20
10.02599362
  0
VERTEX
  8
0
 10
14.12186350
 20
10.19274901
  0
VERTEX
  8
0
 10
14.08199538
 20
10.10640814
  0
VERTEX
  8
0
 10
14.05885263
 20
10.00339529
  0
VERTEX
  8
0
 10
14.03301119
 20
9.77708222
  0
VERTEX
  8
0
 10
14.01544648
 20
9.66864630
  0
VERTEX
  8
0
 10
13.98487510
 20
9.57326697
  0
VERTEX
  8
0
 10
13.93386403
 20
9.49837637
  0
VERTEX
  8
0
 10
13.85498026
 20
9.45140666
  0
VERTEX
  8
0
 10
13.92860387
 20
9.84436868
  0
VERTEX
  8
0
 10
13.94714490
 20
10.05102644
  0
VERTEX
  8
0
 10
13.93897939
 20
10.15282672
  0
VERTEX
  8
0
 10
13.91428764
 20
10.25205640
  0
VERTEX
  8
0
 10
13.86502822
 20
9.99708824
  0
VERTEX
  8
0
 10
13.79946417
 20
9.75113131
  0
VERTEX
  8
0
 10
13.63569914
 20
9.27624690
  0
VERTEX
  8
0
 10
13.45554646
 20
8.80739470
  0
VERTEX
  8
0
 10
13.29156007
 20
8.32456627
  0
VERTEX
  8
0
 10
13.22083988
 20
8.04479347
  0
VERTEX
  8
0
 10
13.16831573
 20
7.90977701
  0
VERTEX
  8
0
 10
13.08398421
 20
7.79079978
  0
VERTEX
  8
0
 10
13.12929818
 20
7.70267213
  0
VERTEX
  8
0
 10
13.14473168
 20
7.65138482
  0
VERTEX
  8
0
 10
13.14329159
 20
7.58322392
  0
VERTEX
  8
0
 10
12.96536943
 20
7.37564806
  0
VERTEX
  8
0
 10
12.96836487
 20
7.35269165
  0
VERTEX
  8
0
 10
12.98462722
 20
7.34300632
  0
VERTEX
  8
0
 10
13.03929774
 20
7.34578843
  0
VERTEX
  8
0
 10
13.09407122
 20
7.34867351
  0
VERTEX
  8
0
 10
13.11046227
 20
7.33911689
  0
VERTEX
  8
0
 10
13.11363790
 20
7.31634067
  0
VERTEX
  8
0
 10
13.12119103
 20
7.19204720
  0
VERTEX
  8
0
 10
13.10497275
 20
7.08144118
  0
VERTEX
  8
0
 10
13.04233057
 20
6.88987030
  0
VERTEX
  8
0
 10
13.01646099
 20
6.80319482
  0
VERTEX
  8
0
 10
13.00792863
 20
6.71878558
  0
VERTEX
  8
0
 10
13.02701065
 20
6.63378728
  0
VERTEX
  8
0
 10
13.08398421
 20
6.54534462
  0
VERTEX
  8
0
 10
13.07997728
 20
6.49715146
  0
VERTEX
  8
0
 10
13.05690832
 20
6.46822071
  0
VERTEX
  8
0
 10
13.01772361
 20
6.45561164
  0
VERTEX
  8
0
 10
12.96536943
 20
6.45638353
  0
VERTEX
  8
0
 10
13.02213715
 20
6.35208816
  0
VERTEX
  8
0
 10
13.02725482
 20
6.25208268
  0
VERTEX
  8
0
 10
12.99261296
 20
6.15588323
  0
VERTEX
  8
0
 10
12.93010208
 20
6.06300594
  0
VERTEX
  8
0
 10
12.76903536
 20
5.88528242
  0
VERTEX
  8
0
 10
12.69426055
 20
5.79946844
  0
VERTEX
  8
0
 10
12.63917879
 20
5.71504118
  0
VERTEX
  8
0
 10
12.67200592
 20
5.67126086
  0
VERTEX
  8
0
 10
12.70765601
 20
5.64161657
  0
VERTEX
  8
0
 10
12.74613460
 20
5.64127116
  0
VERTEX
  8
0
 10
12.78744726
 20
5.68538748
  0
VERTEX
  8
0
 10
12.73854503
 20
5.60227686
  0
VERTEX
  8
0
 10
12.71289615
 20
5.48647313
  0
VERTEX
  8
0
 10
12.71067772
 20
5.18070327
  0
VERTEX
  8
0
 10
12.73943064
 20
4.81591173
  0
VERTEX
  8
0
 10
12.75779357
 20
4.43993232
  0
VERTEX
  8
0
 10
12.73900330
 20
4.29431839
  0
VERTEX
  8
0
 10
12.72813987
 20
4.17304907
  0
VERTEX
  8
0
 10
12.76399497
 20
4.08722093
  0
VERTEX
  8
0
 10
12.81797405
 20
4.02482747
  0
VERTEX
  8
0
 10
12.87893001
 20
3.96982400
  0
VERTEX
  8
0
 10
12.93571573
 20
3.90616583
  0
VERTEX
  8
0
 10
13.12048992
 20
3.60539042
  0
VERTEX
  8
0
 10
13.20341324
 20
3.47617047
  0
VERTEX
  8
0
 10
13.29156007
 20
3.37239933
  0
VERTEX
  8
0
 10
12.94065620
 20
3.23360538
  0
VERTEX
  8
0
 10
12.57987140
 20
3.10551608
  0
VERTEX
  8
0
 10
12.50952430
 20
3.26499359
  0
VERTEX
  8
0
 10
12.42646003
 20
3.41174698
  0
VERTEX
  8
0
 10
12.37335318
 20
3.47354696
  0
VERTEX
  8
0
 10
12.30890010
 20
3.52399970
  0
VERTEX
  8
0
 10
12.23037847
 20
3.56038313
  0
VERTEX
  8
0
 10
12.13506599
 20
3.57997519
  0
VERTEX
  8
0
 10
12.18279221
 20
4.01655195
  0
VERTEX
  8
0
 10
12.20332048
 20
4.44840502
  0
VERTEX
  8
0
 10
12.19972504
 20
4.87536504
  0
VERTEX
  8
0
 10
12.17508011
 20
5.29726267
  0
VERTEX
  8
0
 10
12.13245992
 20
5.71392859
  0
VERTEX
  8
0
 10
12.07493871
 20
6.12519345
  0
VERTEX
  8
0
 10
11.92749013
 20
6.93084264
  0
VERTEX
  8
0
 10
11.89701835
 20
7.02016678
  0
VERTEX
  8
0
 10
11.85258617
 20
7.10880908
  0
VERTEX
  8
0
 10
11.80853886
 20
7.19742925
  0
VERTEX
  8
0
 10
11.77922166
 20
7.28668697
  0
VERTEX
  8
0
 10
11.75974148
 20
7.47206049
  0
VERTEX
  8
0
 10
11.75971525
 20
7.66399333
  0
VERTEX
  8
0
 10
11.76202880
 20
7.85260858
  0
VERTEX
  8
0
 10
11.74956796
 20
8.02802933
  0
VERTEX
  8
0
 10
11.69856081
 20
8.19615297
  0
VERTEX
  8
0
 10
11.67234848
 20
8.27619682
  0
VERTEX
  8
0
 10
11.66060688
 20
8.35421997
  0
VERTEX
  8
0
 10
11.67134231
 20
8.49393813
  0
VERTEX
  8
0
 10
11.70344955
 20
8.62791730
  0
VERTEX
  8
0
 10
11.80831877
 20
8.88443189
  0
VERTEX
  8
0
 10
11.92829313
 20
9.13531035
  0
VERTEX
  8
0
 10
11.97928179
 20
9.26224434
  0
VERTEX
  8
0
 10
12.01645121
 20
9.39209927
  0
VERTEX
  8
0
 10
11.93638640
 20
9.30518187
  0
VERTEX
  8
0
 10
11.87215789
 20
9.20247963
  0
VERTEX
  8
0
 10
11.77563484
 20
8.96529566
  0
VERTEX
  8
0
 10
11.69573204
 20
8.71169737
  0
VERTEX
  8
0
 10
11.60129949
 20
8.47283474
  0
VERTEX
  8
0
 10
11.58226240
 20
8.59089291
  0
VERTEX
  8
0
 10
11.57842636
 20
8.70742112
  0
VERTEX
  8
0
 10
11.60804537
 20
8.93705090
  0
VERTEX
  8
0
 10
11.67353240
 20
9.16405044
  0
VERTEX
  8
0
 10
11.75826333
 20
9.39074611
  0
VERTEX
  8
0
 10
11.84561406
 20
9.61946429
  0
VERTEX
  8
0
 10
11.91896046
 20
9.85253133
  0
VERTEX
  8
0
 10
11.96167842
 20
10.09227361
  0
VERTEX
  8
0
 10
11.95714382
 20
10.34101748
  0
VERTEX
  8
0
 10
11.87780618
 20
9.99005793
  0
VERTEX
  8
0
 10
11.78504914
 20
9.65273205
  0
VERTEX
  8
0
 10
11.57164580
 20
9.00660124
  0
VERTEX
  8
0
 10
11.58157806
 20
9.15232391
  0
VERTEX
  8
0
 10
11.60975115
 20
9.29905745
  0
VERTEX
  8
0
 10
11.69772569
 20
9.59922641
  0
VERTEX
  8
0
 10
11.78938109
 20
9.91444657
  0
VERTEX
  8
0
 10
11.82215527
 20
10.07999413
  0
VERTEX
  8
0
 10
11.83852905
 20
10.25205640
  0
VERTEX
  8
0
 10
11.79829251
 20
10.22539194
  0
VERTEX
  8
0
 10
11.77070825
 20
10.18612668
  0
VERTEX
  8
0
 10
11.74271182
 20
10.08057852
  0
VERTEX
  8
0
 10
11.71991427
 20
9.83690468
  0
VERTEX
  8
0
 10
11.64854309
 20
9.80446666
  0
VERTEX
  8
0
 10
11.59093551
 20
9.74445140
  0
VERTEX
  8
0
 10
11.50273189
 20
9.56878096
  0
VERTEX
  8
0
 10
11.42674495
 20
9.36407707
  0
VERTEX
  8
0
 10
11.33441624
 20
9.18452341
  0
VERTEX
  8
0
 10
11.31478383
 20
9.35609795
  0
VERTEX
  8
0
 10
11.32219478
 20
9.51988328
  0
VERTEX
  8
0
 10
11.38798729
 20
9.83481945
  0
VERTEX
  8
0
 10
11.47147481
 20
10.15079824
  0
VERTEX
  8
0
 10
11.50100454
 20
10.31588684
  0
VERTEX
  8
0
 10
11.51233841
 20
10.48928596
  0
VERTEX
  8
0
 10
11.40914817
 20
10.17700863
  0
VERTEX
  8
0
 10
11.33009846
 20
9.84079949
  0
VERTEX
  8
0
 10
11.18614777
 20
9.15486971
  0
VERTEX
  8
0
 10
11.25608247
 20
9.04393620
  0
VERTEX
  8
0
 10
11.30071980
 20
8.91865448
  0
VERTEX
  8
0
 10
11.31772481
 20
8.77803875
  0
VERTEX
  8
0
 10
11.30476255
 20
8.62110322
  0
VERTEX
  8
0
 10
10.85222025
 20
8.62329132
  0
VERTEX
  8
0
 10
10.44384657
 20
8.58625307
  0
VERTEX
  8
0
 10
10.06395776
 20
8.52399375
  0
VERTEX
  8
0
 10
9.69687009
 20
8.45051865
  0
VERTEX
  8
0
 10
9.32689984
 20
8.37983307
  0
VERTEX
  8
0
 10
8.93836326
 20
8.32594228
  0
VERTEX
  8
0
 10
8.51557661
 20
8.30285159
  0
VERTEX
  8
0
 10
8.04285618
 20
8.32456627
  0
VERTEX
  8
0
 10
7.74357968
 20
8.37067614
  0
VERTEX
  8
0
 10
7.43805660
 20
8.44164057
  0
VERTEX
  8
0
 10
6.82656559
 20
8.59478424
  0
VERTEX
  8
0
 10
6.52974507
 20
8.64528903
  0
VERTEX
  8
0
 10
6.24497283
 20
8.65729947
  0
VERTEX
  8
0
 10
6.10853410
 20
8.64392018
  0
VERTEX
  8
0
 10
5.97682258
 20
8.61497835
  0
VERTEX
  8
0
 10
5.85040998
 20
8.56849432
  0
VERTEX
  8
0
 10
5.72986802
 20
8.50248844
  0
VERTEX
  8
0
 10
6.11833947
 20
8.90417899
  0
VERTEX
  8
0
 10
6.54349773
 20
9.32682275
  0
VERTEX
  8
0
 10
6.97699286
 20
9.75986451
  0
VERTEX
  8
0
 10
7.39047490
 20
10.19274901
  0
VERTEX
  8
0
 10
7.27137165
 20
10.18943412
  0
VERTEX
  8
0
 10
7.16771932
 20
10.17068094
  0
VERTEX
  8
0
 10
7.07738593
 20
10.13862152
  0
VERTEX
  8
0
 10
6.99823950
 20
10.09538790
  0
VERTEX
  8
0
 10
6.86497951
 20
9.98392623
  0
VERTEX
  8
0
 10
6.75088343
 20
9.85335227
  0
VERTEX
  8
0
 10
6.63889534
 20
9.72072236
  0
VERTEX
  8
0
 10
6.51195931
 20
9.60309284
  0
VERTEX
  8
0
 10
6.35301942
 20
9.51752006
  0
VERTEX
  8
0
 10
6.25621805
 20
9.49208505
  0
VERTEX
  8
0
 10
6.14501974
 20
9.48106035
  0
VERTEX
  8
0
 10
6.06290623
 20
9.35169442
  0
VERTEX
  8
0
 10
6.05223471
 20
9.29849412
  0
VERTEX
  8
0
 10
6.05605866
 20
9.24383080
  0
VERTEX
  8
0
 10
5.94666801
 20
9.22831315
  0
VERTEX
  8
0
 10
5.84892972
 20
9.19450728
  0
VERTEX
  8
0
 10
5.67677955
 20
9.09841147
  0
VERTEX
  8
0
 10
5.51634677
 20
9.00830451
  0
VERTEX
  8
0
 10
5.43325522
 20
8.98198470
  0
VERTEX
  8
0
 10
5.34437000
 20
8.97694755
  0
VERTEX
  8
0
 10
5.24263196
 20
8.80384466
  0
VERTEX
  8
0
 10
5.12066103
 20
8.63754923
  0
VERTEX
  8
0
 10
4.82989747
 20
8.32383881
  0
VERTEX
  8
0
 10
4.49983323
 20
8.03273239
  0
VERTEX
  8
0
 10
4.15822223
 20
7.76114608
  0
VERTEX
  8
0
 10
4.36796423
 20
7.81601198
  0
VERTEX
  8
0
 10
4.53393470
 20
7.87555205
  0
VERTEX
  8
0
 10
4.68997110
 20
7.92236968
  0
VERTEX
  8
0
 10
4.86991089
 20
7.93906825
  0
VERTEX
  8
0
 10
4.85942477
 20
7.74156665
  0
VERTEX
  8
0
 10
4.81060350
 20
7.58322392
  0
VERTEX
  8
0
 10
4.87734558
 20
7.63861912
  0
VERTEX
  8
0
 10
4.93078412
 20
7.70737030
  0
VERTEX
  8
0
 10
5.02010924
 20
7.86258227
  0
VERTEX
  8
0
 10
5.06717518
 20
7.93786392
  0
VERTEX
  8
0
 10
5.12329627
 20
8.00414326
  0
VERTEX
  8
0
 10
5.19406219
 20
8.05583072
  0
VERTEX
  8
0
 10
5.28506261
 20
8.08733672
  0
VERTEX
  8
0
 10
5.11139017
 20
7.66021087
  0
VERTEX
  8
0
 10
4.94632010
 20
7.22468719
  0
VERTEX
  8
0
 10
4.85006708
 20
7.02072135
  0
VERTEX
  8
0
 10
4.73563200
 20
6.83499026
  0
VERTEX
  8
0
 10
4.59623731
 20
6.67427199
  0
VERTEX
  8
0
 10
4.42510548
 20
6.54534462
  0
VERTEX
  8
0
 10
4.37335735
 20
6.35945133
  0
VERTEX
  8
0
 10
4.30649070
 20
6.18950029
  0
VERTEX
  8
0
 10
4.23382987
 20
6.16576295
  0
VERTEX
  8
0
 10
4.16149134
 20
6.16393711
  0
VERTEX
  8
0
 10
4.00995376
 20
6.18950029
  0
VERTEX
  8
0
 10
3.97971712
 20
6.12376394
  0
VERTEX
  8
0
 10
3.96851530
 20
6.06335591
  0
VERTEX
  8
0
 10
3.97485711
 20
6.00811904
  0
VERTEX
  8
0
 10
3.99725139
 20
5.95789620
  0
VERTEX
  8
0
 10
4.08423263
 20
5.87186403
  0
VERTEX
  8
0
 10
4.21752962
 20
5.80400226
  0
VERTEX
  8
0
 10
4.16927627
 20
5.41297745
  0
VERTEX
  8
0
 10
4.14873057
 20
5.02216207
  0
VERTEX
  8
0
 10
4.15687499
 20
4.63806578
  0
VERTEX
  8
0
 10
4.19469199
 20
4.26719824
  0
VERTEX
  8
0
 10
4.26316403
 20
3.91606910
  0
VERTEX
  8
0
 10
4.36327357
 20
3.59118802
  0
VERTEX
  8
0
 10
4.49600308
 20
3.29906467
  0
VERTEX
  8
0
 10
4.66233503
 20
3.04620869
  0
VERTEX
  8
0
 10
4.54046964
 20
2.96018919
  0
VERTEX
  8
0
 10
4.39216595
 20
2.90081531
  0
VERTEX
  8
0
 10
4.06926114
 20
2.80897914
  0
VERTEX
  8
0
 10
4.08415947
 20
2.87531819
  0
VERTEX
  8
0
 10
4.11353576
 20
2.92738799
  0
VERTEX
  8
0
 10
4.14301501
 20
2.97956075
  0
VERTEX
  8
0
 10
4.15822223
 20
3.04620869
  0
VERTEX
  8
0
 10
4.13817961
 20
3.05136022
  0
VERTEX
  8
0
 10
4.11220269
 20
3.03380491
  0
VERTEX
  8
0
 10
4.04882250
 20
2.96245311
  0
VERTEX
  8
0
 10
3.98083479
 20
2.89591198
  0
VERTEX
  8
0
 10
3.94909846
 20
2.88437001
  0
VERTEX
  8
0
 10
3.92099267
 20
2.89794022
  0
VERTEX
  8
0
 10
3.88511275
 20
3.09929263
  0
VERTEX
  8
0
 10
3.84898092
 20
3.18177453
  0
VERTEX
  8
0
 10
3.80136909
 20
3.25277575
  0
VERTEX
  8
0
 10
3.74276324
 20
3.31278293
  0
VERTEX
  8
0
 10
3.67364929
 20
3.36228272
  0
VERTEX
  8
0
 10
3.50584095
 20
3.43170672
  0
VERTEX
  8
0
 10
3.52974006
 20
3.70583142
  0
VERTEX
  8
0
 10
3.52660191
 20
3.97878057
  0
VERTEX
  8
0
 10
3.50282425
 20
4.25063699
  0
VERTEX
  8
0
 10
3.46480485
 20
4.52148348
  0
VERTEX
  8
0
 10
3.37163188
 20
5.06047793
  0
VERTEX
  8
0
 10
3.29826509
 20
5.59642640
  0
VERTEX
  8
0
 10
3.29083664
 20
5.87545092
  0
VERTEX
  8
0
 10
3.29316816
 20
6.14508515
  0
VERTEX
  8
0
 10
3.26839445
 20
6.39244640
  0
VERTEX
  8
0
 10
3.23432276
 20
6.50374883
  0
VERTEX
  8
0
 10
3.17965032
 20
6.60465200
  0
VERTEX
  8
0
 10
3.27666328
 20
6.62584752
  0
VERTEX
  8
0
 10
3.32428837
 20
6.63763070
  0
VERTEX
  8
0
 10
3.35757248
 20
6.66395939
  0
VERTEX
  8
0
 10
3.32428837
 20
6.68998045
  0
VERTEX
  8
0
 10
3.27666328
 20
6.70166052
  0
VERTEX
  8
0
 10
3.17965032
 20
6.72326678
  0
VERTEX
  8
0
 10
3.22592892
 20
6.75082200
  0
VERTEX
  8
0
 10
3.29249910
 20
6.75828462
  0
VERTEX
  8
0
 10
3.36195227
 20
6.76306518
  0
VERTEX
  8
0
 10
3.41687987
 20
6.78257417
  0
VERTEX
  8
0
 10
3.40335400
 20
6.80611299
  0
VERTEX
  8
0
 10
3.37595280
 20
6.81577856
  0
VERTEX
  8
0
 10
3.29805916
 20
6.81202194
  0
VERTEX
  8
0
 10
3.22026849
 20
6.80836828
  0
VERTEX
  8
0
 10
3.19299600
 20
6.81816256
  0
VERTEX
  8
0
 10
3.17965032
 20
6.84188156
  0
VERTEX
  8
0
 10
3.31406582
 20
7.21294392
  0
VERTEX
  8
0
 10
3.36834283
 20
7.41046257
  0
VERTEX
  8
0
 10
3.40989288
 20
7.61644660
  0
VERTEX
  8
0
 10
3.43563610
 20
7.83125128
  0
VERTEX
  8
0
 10
3.44249263
 20
8.05523190
  0
VERTEX
  8
0
 10
3.42738261
 20
8.28874376
  0
VERTEX
  8
0
 10
3.38722618
 20
8.53214213
  0
VERTEX
  8
0
 10
3.47101779
 20
8.56216528
  0
VERTEX
  8
0
 10
3.53081895
 20
8.59887014
  0
VERTEX
  8
0
 10
3.56889984
 20
8.64144979
  0
VERTEX
  8
0
 10
3.58753066
 20
8.68909731
  0
VERTEX
  8
0
 10
3.58898158
 20
8.74100580
  0
VERTEX
  8
0
 10
3.57552280
 20
8.79636835
  0
VERTEX
  8
0
 10
3.51295689
 20
8.91422792
  0
VERTEX
  8
0
 10
3.41799444
 20
9.03622075
  0
VERTEX
  8
0
 10
3.30879696
 20
9.15589150
  0
VERTEX
  8
0
 10
3.12034293
 20
9.36244557
  0
VERTEX
  8
0
 10
2.99730774
 20
9.53989591
  0
VERTEX
  8
0
 10
2.89777951
 20
9.71452850
  0
VERTEX
  8
0
 10
2.73484490
 20
10.04448054
  0
VERTEX
  8
0
 10
2.59139977
 20
10.31206341
  0
VERTEX
  8
0
 10
2.53487163
 20
10.44826765
  0
VERTEX
  8
0
 10
2.49761535
 20
10.60790073
  0
VERTEX
  8
0
 10
2.46416529
 20
10.90386010
  0
VERTEX
  8
0
 10
2.44678000
 20
11.21262253
  0
VERTEX
  8
0
 10
2.44485333
 20
11.52786899
  0
VERTEX
  8
0
 10
2.45777911
 20
11.84328047
  0
VERTEX
  8
0
 10
2.52576345
 20
12.44932243
  0
VERTEX
  8
0
 10
2.57960971
 20
12.72731488
  0
VERTEX
  8
0
 10
2.64588382
 20
12.98019628
  0
VERTEX
  8
0
 10
2.75234927
 20
13.24776139
  0
VERTEX
  8
0
 10
2.89342849
 20
13.48169236
  0
VERTEX
  8
0
 10
3.06255223
 20
13.69023636
  0
VERTEX
  8
0
 10
3.25315124
 20
13.88164057
  0
VERTEX
  8
0
 10
3.67249804
 20
14.24601836
  0
VERTEX
  8
0
 10
3.88810731
 20
14.43548629
  0
VERTEX
  8
0
 10
4.09891484
 20
14.64080315
  0
VERTEX
  8
0
 10
3.57779581
 20
14.30155320
  0
VERTEX
  8
0
 10
3.32814335
 20
14.12133144
  0
VERTEX
  8
0
 10
3.09068923
 20
13.92911449
  0
VERTEX
  8
0
 10
3.08705333
 20
13.99213249
  0
VERTEX
  8
0
 10
3.10442814
 20
14.05331379
  0
VERTEX
  8
0
 10
3.18132925
 20
14.17171931
  0
VERTEX
  8
0
 10
3.27963116
 20
14.28743721
  0
VERTEX
  8
0
 10
3.35757248
 20
14.40357360
  0
VERTEX
  8
0
 10
3.16735546
 20
14.25987808
  0
VERTEX
  8
0
 10
3.01490197
 20
14.07862525
  0
VERTEX
  8
0
 10
2.90034211
 20
13.85968415
  0
VERTEX
  8
0
 10
2.82380598
 20
13.60292385
  0
VERTEX
  8
0
 10
2.67547513
 20
13.52867181
  0
VERTEX
  8
0
 10
2.55773542
 20
13.42388012
  0
VERTEX
  8
0
 10
2.46324313
 20
13.29589247
  0
VERTEX
  8
0
 10
2.38465458
 20
13.15205257
  0
VERTEX
  8
0
 10
2.24581386
 20
12.84619084
  0
VERTEX
  8
0
 10
2.17087428
 20
12.69885642
  0
VERTEX
  8
0
 10
2.08246363
 20
12.56504456
  0
VERTEX
  8
0
 10
2.08449259
 20
12.27439775
  0
VERTEX
  8
0
 10
2.07270671
 20
11.97304356
  0
VERTEX
  8
0
 10
2.02992449
 20
11.35414390
  0
VERTEX
  8
0
 10
1.99858499
 20
10.74020725
  0
VERTEX
  8
0
 10
2.00110252
 20
10.44505684
  0
VERTEX
  8
0
 10
2.02315624
 20
10.16309532
  0
VERTEX
  8
0
 10
2.04818158
 20
9.84282308
  0
VERTEX
  8
0
 10
2.04979840
 20
9.51996839
  0
VERTEX
  8
0
 10
2.00896896
 20
8.87041274
  0
VERTEX
  8
0
 10
1.95299290
 20
8.22223052
  0
VERTEX
  8
0
 10
1.93567642
 20
7.90109263
  0
VERTEX
  8
0
 10
1.93419516
 20
7.58322392
  0
VERTEX
  8
0
 10
1.87008494
 20
7.52483538
  0
VERTEX
  8
0
 10
1.81942955
 20
7.45304099
  0
VERTEX
  8
0
 10
1.73855433
 20
7.28916693
  0
VERTEX
  8
0
 10
1.65171159
 20
7.13146632
  0
VERTEX
  8
0
 10
1.59359681
 20
7.06738873
  0
VERTEX
  8
0
 10
1.51904344
 20
7.01980372
  0
VERTEX
  8
0
 10
1.63203108
 20
7.29612787
  0
VERTEX
  8
0
 10
1.70897936
 20
7.62020822
  0
VERTEX
  8
0
 10
1.75494406
 20
7.98005624
  0
VERTEX
  8
0
 10
1.77498093
 20
8.36368337
  0
VERTEX
  8
0
 10
1.77414575
 20
8.75910106
  0
VERTEX
  8
0
 10
1.75749429
 20
9.15432078
  0
VERTEX
  8
0
 10
1.69696560
 20
9.89621207
  0
VERTEX
  8
0
 10
1.65691007
 20
10.49462889
  0
VERTEX
  8
0
 10
1.65496201
 20
11.09682179
  0
VERTEX
  8
0
 10
1.68996911
 20
11.68848979
  0
VERTEX
  8
0
 10
1.76077903
 20
12.25533190
  0
VERTEX
  8
0
 10
1.86623947
 20
12.78304714
  0
VERTEX
  8
0
 10
2.00519809
 20
13.25733454
  0
VERTEX
  8
0
 10
2.17650256
 20
13.66389312
  0
VERTEX
  8
0
 10
2.27392439
 20
13.83730504
  0
VERTEX
  8
0
 10
2.37900057
 20
13.98842188
  0
VERTEX
  8
0
 10
2.53500617
 20
14.15354645
  0
VERTEX
  8
0
 10
2.73104921
 20
14.30416325
  0
VERTEX
  8
0
 10
2.96277721
 20
14.43998709
  0
VERTEX
  8
0
 10
3.22583774
 20
14.56073274
  0
VERTEX
  8
0
 10
3.51587832
 20
14.66611500
  0
VERTEX
  8
0
 10
3.82854651
 20
14.75584864
  0
VERTEX
  8
0
 10
4.15948985
 20
14.82964845
  0
VERTEX
  8
0
 10
4.50435588
 20
14.88722923
  0
VERTEX
  8
0
 10
4.85879215
 20
14.92830574
  0
VERTEX
  8
0
 10
5.21844620
 20
14.95259279
  0
VERTEX
  8
0
 10
5.57896558
 20
14.95980516
  0
VERTEX
  8
0
 10
5.93599783
 20
14.94965762
  0
VERTEX
  8
0
 10
6.28519050
 20
14.92186498
  0
VERTEX
  8
0
 10
6.62219113
 20
14.87614201
  0
VERTEX
  8
0
 10
6.94264725
 20
14.81220350
  0
VERTEX
  8
0
 10
7.24220643
 20
14.72976424
  0
VERTEX
  8
0
 10
7.36082121
 20
14.52218838
  0
VERTEX
  8
0
 10
7.80562662
 20
14.43322729
  0
VERTEX
  8
0
 10
7.82657847
 20
14.45510079
  0
VERTEX
  8
0
 10
7.82876390
 20
14.47682118
  0
VERTEX
  8
0
 10
7.79815962
 20
14.52243652
  0
VERTEX
  8
0
 10
7.75646199
 20
14.57534122
  0
VERTEX
  8
0
 10
7.74478074
 20
14.60617329
  0
VERTEX
  8
0
 10
7.74631923
 20
14.64080315
  0
VERTEX
  8
0
 10
8.04732104
 20
14.58740666
  0
VERTEX
  8
0
 10
8.32472212
 20
14.56440465
  0
VERTEX
  8
0
 10
8.60945870
 20
14.56477505
  0
VERTEX
  8
0
 10
8.93246701
 20
14.58149577
  0
VERTEX
  8
0
 10
9.25669395
 20
14.62843074
  0
VERTEX
  8
0
 10
9.57401595
 20
14.70604071
  0
VERTEX
  8
0
 10
9.87451384
 20
14.78068559
  0
VERTEX
  8
0
 10
10.14826847
 20
14.81872532
  0
VERTEX
  8
0
 10
10.66245183
 20
14.80930154
  0
VERTEX
  8
0
 10
10.92606869
 20
14.82188356
  0
VERTEX
  8
0
 10
11.18614777
 20
14.87803271
  0
VERTEX
  8
0
 10
11.35953791
 20
14.84384142
  0
VERTEX
  8
0
 10
11.51233841
 20
14.78907163
  0
VERTEX
  8
0
 10
11.46486248
 20
14.84783731
  0
VERTEX
  8
0
 10
11.40790861
 20
14.89221981
  0
VERTEX
  8
0
 10
11.27022066
 20
14.94471848
  0
VERTEX
  8
0
 10
11.10858191
 20
14.96033411
  0
VERTEX
  8
0
 10
10.93229971
 20
14.95283321
  0
VERTEX
  8
0
 10
10.57303432
 20
14.92354769
  0
VERTEX
  8
0
 10
10.40866582
 20
14.92929604
  0
VERTEX
  8
0
 10
10.26688325
 20
14.96699379
  0
VERTEX
  8
0
 10
10.24464348
 20
15.15976155
  0
VERTEX
  8
0
 10
10.24074644
 20
15.33834975
  0
VERTEX
  8
0
 10
10.25459757
 20
15.50277799
  0
VERTEX
  8
0
 10
10.28560231
 20
15.65306591
  0
VERTEX
  8
0
 10
10.33316610
 20
15.78923312
  0
VERTEX
  8
0
 10
10.39669439
 20
15.91129925
  0
VERTEX
  8
0
 10
10.47559261
 20
16.01928391
  0
VERTEX
  8
0
 10
10.56926621
 20
16.11320673
  0
VERTEX
  8
0
 10
10.67712063
 20
16.19308732
  0
VERTEX
  8
0
 10
10.79856131
 20
16.25894532
  0
VERTEX
  8
0
 10
10.93299370
 20
16.31080033
  0
VERTEX
  8
0
 10
11.07982323
 20
16.34867198
  0
VERTEX
  8
0
 10
11.23845535
 20
16.37257990
  0
VERTEX
  8
0
 10
11.40829550
 20
16.38254370
  0
VERTEX
  8
0
 10
11.77922166
 20
16.36071742
  0
VERTEX
  8
0
 10
12.02276924
 20
16.30159406
  0
VERTEX
  8
0
 10
12.24578638
 20
16.20111362
  0
VERTEX
  8
0
 10
12.45051044
 20
16.07664716
  0
VERTEX
  8
0
 10
12.63917879
 20
15.94556570
  0
VERTEX
  8
0
 10
12.49388420
 20
16.00516771
  0
VERTEX
  8
0
 10
12.32682733
 20
16.10029588
  0
VERTEX
  8
0
 10
12.13802402
 20
16.19219319
  0
VERTEX
  8
0
 10
12.03547241
 20
16.22481871
  0
VERTEX
  8
0
 10
11.92749013
 20
16.24210265
  0
SEQEND
  0
POLYLINE
  8
Default_Layer
 66
   1
 39
0.000000
 70
    1
  0
VERTEX
  8
0
 10
12.52056401
 20
14.96699379
  0
VERTEX
  8
0
 10
12.32987818
 20
14.98786176
  0
VERTEX
  8
0
 10
12.13611530
 20
15.02366444
  0
VERTEX
  8
0
 10
11.74433351
 20
15.10887057
  0
VERTEX
  8
0
 10
11.54880218
 20
15.14267234
  0
VERTEX
  8
0
 10
11.35516895
 20
15.16020543
  0
VERTEX
  8
0
 10
11.16467760
 20
15.15366902
  0
VERTEX
  8
0
 10
10.97857191
 20
15.11526226
  0
VERTEX
  8
0
 10
11.20823921
 20
15.13443927
  0
VERTEX
  8
0
 10
11.41266686
 20
15.11843278
  0
VERTEX
  8
0
 10
11.59920063
 20
15.07944733
  0
VERTEX
  8
0
 10
11.77518632
 20
15.02968743
  0
VERTEX
  8
0
 10
11.94796972
 20
14.98135760
  0
VERTEX
  8
0
 10
12.12489661
 20
14.94666237
  0
VERTEX
  8
0
 10
12.31331278
 20
14.93780626
  0
VERTEX
  8
0
 10
12.52056401
 20
14.96699379
  0
SEQEND
  0
POLYLINE
  8
Default_Layer
 66
   1
 39
0.000000
 70
    1
  0
VERTEX
  8
0
 10
13.88463395
 20
11.61612634
  0
VERTEX
  8
0
 10
13.70436185
 20
12.42184097
  0
VERTEX
  8
0
 10
13.52619879
 20
13.22966185
  0
VERTEX
  8
0
 10
13.41912033
 20
13.61557519
  0
VERTEX
  8
0
 10
13.29002376
 20
13.97947076
  0
VERTEX
  8
0
 10
13.13139393
 20
14.31383377
  0
VERTEX
  8
0
 10
12.93571573
 20
14.61114946
  0
VERTEX
  8
0
 10
12.88604522
 20
14.63234757
  0
VERTEX
  8
0
 10
12.86474799
 20
14.63387358
  0
VERTEX
  8
0
 10
12.84675465
 20
14.61114946
  0
VERTEX
  8
0
 10
12.96147448
 20
14.47381409
  0
VERTEX
  8
0
 10
13.06229270
 20
14.32257689
  0
VERTEX
  8
0
 10
13.15076386
 20
14.15899246
  0
VERTEX
  8
0
 10
13.22844253
 20
13.98461535
  0
VERTEX
  8
0
 10
13.35764067
 20
13.60970141
  0
VERTEX
  8
0
 10
13.46232362
 20
13.21027167
  0
VERTEX
  8
0
 10
13.64789005
 20
12.38761110
  0
VERTEX
  8
0
 10
13.75364656
 20
11.98925345
  0
VERTEX
  8
0
 10
13.88463395
 20
11.61612634
  0
SEQEND
  0
POLYLINE
  8
Default_Layer
 66
   1
 39
0.000000
 70
    1
  0
VERTEX
  8
0
 10
13.49913593
 20
12.26850761
  0
VERTEX
  8
0
 10
13.35458634
 20
12.80599994
  0
VERTEX
  8
0
 10
13.18442440
 20
13.31787714
  0
VERTEX
  8
0
 10
13.08204888
 20
13.55651928
  0
VERTEX
  8
0
 10
12.96404236
 20
13.77952869
  0
VERTEX
  8
0
 10
12.82732889
 20
13.98382905
  0
VERTEX
  8
0
 10
12.66883249
 20
14.16634405
  0
VERTEX
  8
0
 10
12.80796109
 20
13.96446076
  0
VERTEX
  8
0
 10
12.92795308
 20
13.74343773
  0
VERTEX
  8
0
 10
13.03332809
 20
13.50779536
  0
VERTEX
  8
0
 10
13.12860577
 20
13.26205406
  0
VERTEX
  8
0
 10
13.30694768
 20
12.75835628
  0
VERTEX
  8
0
 10
13.49913593
 20
12.26850761
  0
SEQEND
  0
POLYLINE
  8
Default_Layer
 66
   1
 39
0.000000
 70
    1
  0
VERTEX
  8
0
 10
14.95216694
 20
8.20595150
  0
VERTEX
  8
0
 10
14.99831723
 20
8.58105340
  0
VERTEX
  8
0
 10
15.00864517
 20
8.98074724
  0
VERTEX
  8
0
 10
14.99023280
 20
9.39686984
  0
VERTEX
  8
0
 10
14.95016215
 20
9.82125807
  0
VERTEX
  8
0
 10
14.83337414
 20
10.66217879
  0
VERTEX
  8
0
 10
14.71493739
 20
11.43820417
  0
VERTEX
  8
0
 10
14.74176890
 20
11.02829368
  0
VERTEX
  8
0
 10
14.78211504
 20
10.61671398
  0
VERTEX
  8
0
 10
14.87793465
 20
9.79524474
  0
VERTEX
  8
0
 10
14.95156301
 20
8.98719205
  0
VERTEX
  8
0
 10
14.96417011
 20
8.59238303
  0
VERTEX
  8
0
 10
14.95216694
 20
8.20595150
  0
SEQEND
  0
POLYLINE
  8
Default_Layer
 66
   1
 39
0.000000
 70
    1
  0
VERTEX
  8
0
 10
7.27186013
 20
10.31136379
  0
VERTEX
  8
0
 10
7.34862532
 20
10.28293890
  0
VERTEX
  8
0
 10
7.44763256
 20
10.27832900
  0
VERTEX
  8
0
 10
7.62770446
 20
10.31136379
  0
VERTEX
  8
0
 10
7.61364297
 20
10.36095556
  0
VERTEX
  8
0
 10
7.57491466
 20
10.39212793
  0
VERTEX
  8
0
 10
7.51950735
 20
10.40700606
  0
VERTEX
  8
0
 10
7.45540887
 20
10.40771511
  0
VERTEX
  8
0
 10
7.33308980
 20
10.37512663
  0
VERTEX
  8
0
 10
7.29084487
 20
10.34607942
  0
VERTEX
  8
0
 10
7.27186013
 20
10.31136379
  0
SEQEND
  0
POLYLINE
  8
Default_Layer
 66
   1
 39
0.000000
 70
    1
  0
VERTEX
  8
0
 10
14.06255612
 20
8.56179583
  0
VERTEX
  8
0
 10
14.15134709
 20
8.89621058
  0
VERTEX
  8
0
 10
14.24677022
 20
9.24453672
  0
VERTEX
  8
0
 10
14.28232970
 20
9.42640904
  0
VERTEX
  8
0
 10
14.30198026
 20
9.61475017
  0
VERTEX
  8
0
 10
14.29986624
 20
9.81055711
  0
VERTEX
  8
0
 10
14.27013198
 20
10.01482685
  0
VERTEX
  8
0
 10
14.26375071
 20
9.81424251
  0
VERTEX
  8
0
 10
14.24269465
 20
9.61844358
  0
VERTEX
  8
0
 10
14.17472731
 20
9.24246281
  0
VERTEX
  8
0
 10
14.10256834
 20
8.88940631
  0
VERTEX
  8
0
 10
14.06255612
 20
8.56179583
  0
SEQEND
  0
POLYLINE
  8
Default_Layer
 66
   1
 39
0.000000
 70
    1
  0
VERTEX
  8
0
 10
4.36579809
 20
7.67218500
  0
VERTEX
  8
0
 10
4.40538399
 20
7.70789906
  0
VERTEX
  8
0
 10
4.46901646
 20
7.73876178
  0
VERTEX
  8
0
 10
4.51069344
 20
7.77340324
  0
VERTEX
  8
0
 10
4.50892297
 20
7.79483788
  0
VERTEX
  8
0
 10
4.48441286
 20
7.82045347
  0
VERTEX
  8
0
 10
4.37610217
 20
7.75814640
  0
VERTEX
  8
0
 10
4.33905391
 20
7.71907813
  0
VERTEX
  8
0
 10
4.34199627
 20
7.69672913
  0
VERTEX
  8
0
 10
4.36579809
 20
7.67218500
  0
SEQEND
  0
POLYLINE
  8
Default_Layer
 66
   1
 39
0.000000
 70
    1
  0
VERTEX
  8
0
 10
10.97857191
 20
15.11526226
  0
VERTEX
  8
0
 10
11.16467760
 20
15.15366902
  0
VERTEX
  8
0
 10
11.35516895
 20
15.16020543
  0
VERTEX
  8
0
 10
11.54880218
 20
15.14267234
  0
VERTEX
  8
0
 10
11.74433351
 20
15.10887057
  0
VERTEX
  8
0
 10
12.13611530
 20
15.02366444
  0
VERTEX
  8
0
 10
12.32987818
 20
14.98786176
  0
VERTEX
  8
0
 10
12.52056401
 20
14.96699379
  0
VERTEX
  8
0
 10
12.31331278
 20
14.93780626
  0
VERTEX
  8
0
 10
12.12489661
 20
14.94666237
  0
VERTEX
  8
0
 10
11.94796972
 20
14.98135760
  0
VERTEX
  8
0
 10
11.77518632
 20
15.02968743
  0
VERTEX
  8
0
 10
11.59920063
 20
15.07944733
  0
VERTEX
  8
0
 10
11.41266686
 20
15.11843278
  0
VERTEX
  8
0
 10
11.20823921
 20
15.13443927
  0
VERTEX
  8
0
 10
10.97857191
 20
15.11526226
  0
SEQEND
  0
POLYLINE
  8
Default_Layer
 66
   1
 39
0.000000
 70
    1
  0
VERTEX
  8
0
 10
15.78247038
 20
12.44642978
  0
VERTEX
  8
0
 10
15.80999070
 20
12.39610915
  0
VERTEX
  8
0
 10
15.85096234
 20
12.35923984
  0
VERTEX
  8
0
 10
15.96240286
 20
12.31499847
  0
VERTEX
  8
0
 10
16.22727580
 20
12.26850761
  0
VERTEX
  8
0
 10
16.16143332
 20
12.23767155
  0
VERTEX
  8
0
 10
16.06757599
 20
12.23505211
  0
VERTEX
  8
0
 10
15.96460748
 20
12.24174699
  0
VERTEX
  8
0
 10
15.87143147
 20
12.23885392
  0
VERTEX
  8
0
 10
15.82041319
 20
12.33609855
  0
VERTEX
  8
0
 10
15.79601594
 20
12.38583763
  0
VERTEX
  8
0
 10
15.78247038
 20
12.44642978
  0
SEQEND
  0
POLYLINE
  8
Default_Layer
 66
   1
 39
0.000000
 70
    1
  0
VERTEX
  8
0
 10
3.00172815
 20
9.27348449
  0
VERTEX
  8
0
 10
3.17014795
 20
9.05598741
  0
VERTEX
  8
0
 10
3.28598785
 20
8.88569464
  0
VERTEX
  8
0
 10
3.33037497
 20
8.79687360
  0
VERTEX
  8
0
 10
3.35757248
 20
8.71006430
  0
VERTEX
  8
0
 10
3.24173777
 20
8.82404752
  0
VERTEX
  8
0
 10
3.14845035
 20
8.96057554
  0
VERTEX
  8
0
 10
3.00172815
 20
9.27348449
  0
SEQEND
  0
POLYLINE
  8
Default_Layer
 66
   1
 39
0.000000
 70
    1
  0
VERTEX
  8
0
 10
1.69696560
 20
6.90118895
  0
VERTEX
  8
0
 10
1.66264426
 20
6.64783699
  0
VERTEX
  8
0
 10
1.58907673
 20
6.35627357
  0
VERTEX
  8
0
 10
1.43008235
 20
5.86330965
  0
VERTEX
  8
0
 10
1.52813839
 20
6.41721747
  0
VERTEX
  8
0
 10
1.59834875
 20
6.67330557
  0
VERTEX
  8
0
 10
1.69696560
 20
6.90118895
  0
SEQEND
  0
POLYLINE
  8
Default_Layer
 66
   1
 39
0.000000
 70
    1
  0
VERTEX
  8
0
 10
1.31146758
 20
6.63430570
  0
VERTEX
  8
0
 10
1.32394909
 20
6.62906396
  0
VERTEX
  8
0
 10
1.32316845
 20
6.60130654
  0
VERTEX
  8
0
 10
1.29485834
 20
6.50085386
  0
VERTEX
  8
0
 10
1.22250649
 20
6.27846137
  0
VERTEX
  8
0
 10
1.22147287
 20
6.24693058
  0
VERTEX
  8
0
 10
1.21121987
 20
6.23185964
  0
VERTEX
  8
0
 10
1.19919676
 20
6.23267614
  0
VERTEX
  8
0
 10
1.19285280
 20
6.24880767
  0
VERTEX
  8
0
 10
1.22989673
 20
6.38927961
  0
VERTEX
  8
0
 10
1.24746071
 20
6.46077620
  0
VERTEX
  8
0
 10
1.25216019
 20
6.54534462
  0
VERTEX
  8
0
 10
1.28659756
 20
6.58463518
  0
VERTEX
  8
0
 10
1.31146758
 20
6.63430570
  0
SEQEND
  0
POLYLINE
  8
Default_Layer
 66
   1
 39
0.000000
 70
    1
  0
VERTEX
  8
0
 10
1.40042866
 20
5.59642640
  0
VERTEX
  8
0
 10
1.41449816
 20
5.53271876
  0
VERTEX
  8
0
 10
1.40412960
 20
5.38380179
  0
VERTEX
  8
0
 10
1.37708373
 20
5.21516893
  0
VERTEX
  8
0
 10
1.34112127
 20
5.09231360
  0
VERTEX
  8
0
 10
1.32307186
 20
5.14758961
  0
VERTEX
  8
0
 10
1.31848617
 20
5.20851019
  0
VERTEX
  8
0
 10
1.33732873
 20
5.34041770
  0
VERTEX
  8
0
 10
1.40042866
 20
5.59642640
  0
SEQEND
  0
POLYLINE
  8
Default_Layer
 66
   1
 39
0.000000
 70
    1
  0
VERTEX
  8
0
 10
1.60800452
 20
5.15162099
  0
VERTEX
  8
0
 10
1.58931767
 20
4.82141355
  0
VERTEX
  8
0
 10
1.55840995
 20
4.63108632
  0
VERTEX
  8
0
 10
1.52977655
 20
4.55432343
  0
VERTEX
  8
0
 10
1.48938974
 20
4.49923971
  0
VERTEX
  8
0
 10
1.47158922
 20
4.58011383
  0
VERTEX
  8
0
 10
1.47118333
 20
4.66277621
  0
VERTEX
  8
0
 10
1.50641039
 20
4.83027407
  0
VERTEX
  8
0
 10
1.56278081
 20
4.99535008
  0
VERTEX
  8
0
 10
1.60800452
 20
5.15162099
  0
SEQEND
  0
POLYLINE
  8
Default_Layer
 66
   1
 39
0.000000
 70
    1
  0
VERTEX
  8
0
 10
14.92251325
 20
3.40205302
  0
VERTEX
  8
0
 10
14.83746500
 20
3.29671664
  0
VERTEX
  8
0
 10
14.70468924
 20
3.18203612
  0
VERTEX
  8
0
 10
14.56221070
 20
3.05874927
  0
VERTEX
  8
0
 10
14.44805414
 20
2.92759391
  0
VERTEX
  8
0
 10
14.45452706
 20
2.86426255
  0
VERTEX
  8
0
 10
14.46457549
 20
2.81907935
  0
VERTEX
  8
0
 10
14.45153640
 20
2.79108631
  0
VERTEX
  8
0
 10
14.38874675
 20
2.77932544
  0
VERTEX
  8
0
 10
14.41674683
 20
2.89570693
  0
VERTEX
  8
0
 10
14.46151941
 20
2.99536742
  0
VERTEX
  8
0
 10
14.52020976
 20
3.08116160
  0
VERTEX
  8
0
 10
14.58996317
 20
3.15594421
  0
VERTEX
  8
0
 10
14.75124035
 20
3.28389351
  0
VERTEX
  8
0
 10
14.92251325
 20
3.40205302
  0
SEQEND
  0
ENDSEC
  0
EOF
