  0
SECTION
  2
HEADER
  0
ENDSEC
  0
SECTION
  2
TABLES
  0
TABLE
  2
LTYPE
 70
5
  0
LTYPE
  2
CONTINUOUS
 70
0
  3
CONTINUOUS
 72
65
 73
0
 40
0.0
  0
LTYPE
  2
DASHED
 70
0
  3
DASHED
 72
65
 73
2
 40
0.75
 49
0.5
 49
-0.25
  0
LTYPE
  2
DOT
 70
0
  3
DOT
 72
65
 73
2
 40
0.25
 49
0.0
 49
-0.25
  0
LTYPE
  2
CENTRE
 70
0
  3
CENTRE
 72
65
 73
4
 40
2.0
 49
1.25
 49
-0.25
 49
0.25
 49
-0.25
  0
LTYPE
  2
DASHDOT
 70
0
  3
DASHDOT
 72
65
 73
4
 40
1.0
 49
0.5
 49
-0.25
 49
0.0
 49
-0.25
  0
ENDTAB
  0
TABLE
  2
LAYER
 70
18
  0
LAYER
  2
0
 70
0
 62
7
  6
CONTINUOUS
  0
LAYER
  2
BLACK
 70
0
 62
250
  6
CONTINUOUS
  0
LAYER
  2
DARK_BLUE
 70
0
 62
172
  6
CONTINUOUS
  0
LAYER
  2
DARK_GREEN
 70
0
 62
92
  6
CONTINUOUS
  0
LAYER
  2
DARK_CYAN
 70
0
 62
132
  6
CONTINUOUS
  0
LAYER
  2
DARK_RED
 70
0
 62
12
  6
CONTINUOUS
  0
LAYER
  2
DARK_MAGENTA
 70
0
 62
212
  6
CONTINUOUS
  0
LAYER
  2
BROWN
 70
0
 62
32
  6
CONTINUOUS
  0
LAYER
  2
LIGHT_GREY
 70
0
 62
9
  6
CONTINUOUS
  0
LAYER
  2
DARK_GREY
 70
0
 62
8
  6
CONTINUOUS
  0
LAYER
  2
BLUE
 70
0
 62
5
  6
CONTINUOUS
  0
LAYER
  2
GREEN
 70
0
 62
3
  6
CONTINUOUS
  0
LAYER
  2
CYAN
 70
0
 62
4
  6
CONTINUOUS
  0
LAYER
  2
RED
 70
0
 62
1
  6
CONTINUOUS
  0
LAYER
  2
MAGENTA
 70
0
 62
6
  6
CONTINUOUS
  0
LAYER
  2
YELLOW
 70
0
 62
2
  6
CONTINUOUS
  0
LAYER
  2
WHITE
 70
0
 62
7
  6
CONTINUOUS
  0
LAYER
  2
SHEET
 70
0
 62
3
  6
CONTINUOUS
  0
ENDTAB
  0
ENDSEC
  0
SECTION
  2
BLOCKS
  0
ENDSEC
  0
SECTION
  2
ENTITIES
  0
POINT
  8
RED
 10
87.707927042
 20
8.6788
  0
ARC
  8
CYAN
 10
-337.5920422269
 20
50.7321323189
 40
22.19758655
 50
169.6732294223
 51
182.0786000485
  0
LINE
  8
CYAN
 10
-359.4300586836
 20
54.7113138779
 11
-358.4617795401
 21
60.0665874703
  0
ARC
  8
CYAN
 10
-331.8354029349
 20
55.1915746459
 40
27.0689800538
 50
151.2244789049
 51
169.6246531679
  0
LINE
  8
CYAN
 10
-355.5617002379
 20
68.2220196669
 11
-353.7774020619
 21
71.5194026963
  0
ARC
  8
CYAN
 10
-353.170740682
 20
71.1744383822
 40
0.6978813708
 50
82.7538511053
 51
150.3762512488
  0
LINE
  8
CYAN
 10
-353.0827153053
 20
71.8667460745
 11
-345.9431435369
 21
71.0983083267
  0
LINE
  8
CYAN
 10
-345.9431435369
 20
71.0983083267
 11
-345.3483774782
 21
74.0245573354
  0
LINE
  8
CYAN
 10
-345.3483774782
 20
74.0245573354
 11
-351.8693925456
 21
74.7097278351
  0
ARC
  8
CYAN
 10
-351.81955388
 20
75.2381593427
 40
0.5307765546
 50
142.4786083668
 51
264.6121244011
  0
LINE
  8
CYAN
 10
-352.2405265662
 20
75.5614328311
 11
-345.5482188739
 21
84.6851441713
  0
ARC
  8
CYAN
 10
-323.8996190235
 20
68.7914123668
 40
26.8565185041
 50
140.0236145692
 51
143.7150371687
  0
LINE
  8
CYAN
 10
-344.4800190325
 20
86.0459689136
 11
-339.0272038065
 21
92.566983981
  0
ARC
  8
CYAN
 10
-327.6982574536
 20
82.998020404
 40
14.8293657789
 50
134.7320789515
 51
139.8139831602
  0
LINE
  8
CYAN
 10
-338.1350547185
 20
93.5328840603
 11
-335.7440951626
 21
95.952392387
  0
ARC
  8
CYAN
 10
-328.4917189674
 20
88.697640438
 40
10.2580888239
 50
115.6344974442
 51
134.9906169805
  0
LINE
  8
CYAN
 10
-332.9296621729
 20
97.9460482157
 11
-331.2429056305
 21
98.7382766059
  0
ARC
  8
CYAN
 10
-330.647456092
 20
97.5007911517
 40
1.3732918125
 50
7.1808903665
 51
115.6957897661
  0
LINE
  8
CYAN
 10
-329.2849357653
 20
97.6724558287
 11
-328.0644758129
 21
88.07768977
  0
ARC
  8
CYAN
 10
-350.9489987612
 20
85.1122128912
 40
23.0758627941
 50
5.9026544392
 51
7.3834937659
  0
LINE
  8
CYAN
 10
-327.99548295
 20
87.4853027756
 11
-325.3666169707
 21
61.8033043616
  0
LINE
  8
CYAN
 10
-325.3666169707
 20
61.8033043616
 11
-324.6029373513
 21
51.0190061856
  0
ARC
  8
CYAN
 10
-312.7730948883
 20
51.8269509141
 40
11.8574005324
 50
183.9070721208
 51
188.4873890281
  0
LINE
  8
CYAN
 10
-324.5006375892
 20
50.0768967486
 11
-322.7900904044
 21
38.5241608247
  0
ARC
  8
CYAN
 10
-342.8693241562
 20
35.5234655326
 40
20.3022117094
 50
2.7356253433
 51
8.4995358369
  0
LINE
  8
CYAN
 10
-322.5902490087
 20
36.4924399683
 11
-321.9455226011
 21
23.0316945282
  0
ARC
  8
CYAN
 10
-340.8141298626
 20
22.0137114945
 40
18.8960479848
 50
358.8738133348
 51
3.0881791534
  0
LINE
  8
CYAN
 10
-321.9217319588
 20
21.6423210151
 11
-322.4165773196
 21
8.7263812847
  0
LINE
  8
CYAN
 10
-322.4165773196
 20
8.7263812847
 11
-322.9875527359
 21
-2.4766321967
  0
LINE
  8
CYAN
 10
-322.9875527359
 20
-2.4766321967
 11
-322.7639206979
 21
-6.3687812847
  0
ARC
  8
CYAN
 10
-311.7570883638
 20
-5.6696779266
 40
11.029011902
 50
183.6342824506
 51
195.8077450875
  0
LINE
  8
CYAN
 10
-322.3689960349
 20
-8.6740945282
 11
-320.565665345
 21
-15.0238169707
  0
ARC
  8
CYAN
 10
-315.1080735526
 20
-13.5024453077
 40
5.6656755916
 50
195.5764739123
 51
207.9850061159
  0
LINE
  8
CYAN
 10
-320.1112640761
 20
-16.1610096749
 11
-318.4007168914
 21
-19.4084323553
  0
ARC
  8
CYAN
 10
-319.106106707
 20
-19.7215938866
 40
0.7717803682
 50
228.6074724532
 51
23.9390805636
  0
LINE
  8
CYAN
 10
-319.6164187153
 20
-20.3005814433
 11
-323.3111054719
 21
-16.7319850912
  0
ARC
  8
CYAN
 10
-319.0192344383
 20
-12.2744342708
 40
6.1878846373
 50
208.1641339984
 51
226.0848280393
  0
LINE
  8
CYAN
 10
-324.4744678826
 20
-15.1951095956
 11
-328.4950864393
 21
-7.6606131642
  0
ARC
  8
CYAN
 10
-323.3161534802
 20
-4.8464019765
 40
5.8941607719
 50
198.2509644122
 51
208.5194777023
  0
LINE
  8
CYAN
 10
-328.9138017447
 20
-6.6923340206
 11
-330.8218112609
 21
-0.7922547185
  0
ARC
  8
CYAN
 10
-336.9210843817
 20
-2.7964355969
 40
6.420114765
 50
18.1901817811
 51
31.3859111726
  0
LINE
  8
CYAN
 10
-331.4403679619
 20
0.5471584457
 11
-332.5323584457
 21
2.2910125297
  0
ARC
  8
CYAN
 10
-333.002793522
 20
2.0104846602
 40
0.5477271644
 50
30.8082916949
 51
185.2546364809
  0
LINE
  8
CYAN
 10
-333.5482188739
 20
1.9603226011
 11
-332.4586074544
 21
-10.5844831086
  0
ARC
  8
CYAN
 10
-332.9579082901
 20
-10.6272001396
 40
0.5011248041
 50
213.7564104228
 51
4.8899582136
  0
LINE
  8
CYAN
 10
-333.3745471848
 20
-10.9056567803
 11
-337.319035686
 21
-4.6106528152
  0
ARC
  8
CYAN
 10
-328.4362771909
 20
0.9309781676
 40
10.4696261839
 50
208.4923555054
 51
211.9585439445
  0
LINE
  8
CYAN
 10
-337.6378302934
 20
-4.0634680412
 11
-343.1001617764
 21
5.9476342585
  0
ARC
  8
CYAN
 10
-344.1087127708
 20
5.3813350967
 40
1.1566632392
 50
29.3141146037
 51
99.8381815533
  0
LINE
  8
CYAN
 10
-344.3063473434
 20
6.5209887391
 11
-344.9534528152
 21
6.4329633624
  0
ARC
  8
CYAN
 10
-345.076598293
 20
7.1165025099
 40
0.694543429
 50
214.9675480719
 51
280.2127771851
  0
LINE
  8
CYAN
 10
-345.6457605075
 20
6.7184510706
 11
-347.3824773989
 21
9.2735660587
  0
ARC
  8
CYAN
 10
-342.9700428792
 20
12.272724104
 40
5.3352157755
 50
195.9072694917
 51
214.2041803187
  0
LINE
  8
CYAN
 10
-348.1009547978
 20
10.8104415543
 11
-349.8115019826
 21
16.8342321967
  0
ARC
  8
CYAN
 10
-359.1298117061
 20
14.2304511325
 40
9.6752556521
 50
15.611762491
 51
32.5559526799
  0
LINE
  8
CYAN
 10
-350.9748643933
 20
19.4369284695
 11
-355.1144361618
 21
25.9056041237
  0
ARC
  8
CYAN
 10
-337.456852693
 20
37.1962269767
 40
20.9587313157
 50
191.5561727151
 51
212.5956866443
  0
LINE
  8
CYAN
 10
-357.9907248216
 20
32.9975946075
 11
-359.1897731959
 21
38.7216231562
  0
ARC
  8
CYAN
 10
-346.4139216849
 20
41.3743715299
 40
13.0483506913
 50
182.0588176498
 51
191.7300845029
  0
LINE
  8
CYAN
 10
-359.4538493259
 20
40.9056041237
 11
-359.7750229976
 21
49.9270157018
  0
LINE
  8
CYAN
 10
-388.0
 20
-213.0
 11
195.0
 21
-213.0
  0
LINE
  8
CYAN
 10
195.0
 20
-213.0
 11
195.0
 21
246.0
  0
LINE
  8
CYAN
 10
195.0
 20
246.0
 11
-388.0
 21
246.0
  0
LINE
  8
CYAN
 10
-388.0
 20
246.0
 11
-388.0
 21
-213.0
  0
LINE
  8
CYAN
 10
-324.5244282316
 20
-52.9746496431
 11
-322.9875527359
 21
-58.6273062649
  0
ARC
  8
CYAN
 10
-335.5899280082
 20
-61.9195991359
 40
13.0253235987
 50
5.1122523599
 51
14.6409499885
  0
LINE
  8
CYAN
 10
-322.6164187153
 20
-60.7589478192
 11
-321.7242696273
 21
-69.7827384615
  0
ARC
  8
CYAN
 10
-343.8258325233
 20
-71.8347556205
 40
22.1966181403
 50
352.9292727042
 51
5.3044135263
  0
LINE
  8
CYAN
 10
-321.7980206186
 20
-74.5670366376
 11
-322.4427470262
 21
-79.9698915147
  0
ARC
  8
CYAN
 10
-349.3142634543
 20
-76.7485894189
 40
27.0639092213
 50
334.7976972591
 51
353.1641208029
  0
LINE
  8
CYAN
 10
-324.8265693894
 20
-88.2728256939
 11
-326.4348168121
 21
-91.6725084853
  0
ARC
  8
CYAN
 10
-327.0783920314
 20
-91.3758814081
 40
0.708644259
 50
267.9829698344
 51
335.2547846199
  0
LINE
  8
CYAN
 10
-327.103333862
 20
-92.0840865979
 11
-334.2666962728
 21
-91.72008977
  0
LINE
  8
CYAN
 10
-334.2666962728
 20
-91.72008977
 11
-334.664
 21
-94.6701294211
  0
LINE
  8
CYAN
 10
-334.664
 20
-94.6701294211
 11
-328.1429849326
 21
-94.993682157
  0
ARC
  8
CYAN
 10
-328.1695998237
 20
-95.5138120623
 40
0.5208103981
 50
326.3286652453
 51
87.070746975
  0
LINE
  8
CYAN
 10
-327.7361649485
 20
-95.8025639968
 11
-333.8218112609
 21
-105.3069256146
  0
ARC
  8
CYAN
 10
-356.4024387307
 20
-90.7782588007
 40
26.8508267343
 50
323.5155591703
 51
327.2422485822
  0
LINE
  8
CYAN
 10
-334.8138810468
 20
-106.7438804124
 11
-339.8456019033
 21
-113.5860691515
  0
ARC
  8
CYAN
 10
-351.6523240399
 20
-104.6548606547
 40
14.8042282076
 50
317.7855580643
 51
322.894274922
  0
LINE
  8
CYAN
 10
-340.6877906424
 20
-114.6019295797
 11
-342.9431435369
 21
-117.1546655036
  0
ARC
  8
CYAN
 10
-350.6248863089
 20
-110.359852128
 40
10.2556648163
 50
299.1973843471
 51
318.5059354505
  0
LINE
  8
CYAN
 10
-345.6219698652
 20
-119.3124767645
 11
-347.2563869945
 21
-120.2046258525
  0
ARC
  8
CYAN
 10
-347.9262314814
 20
-118.9894097743
 40
1.3876028803
 50
191.5514646393
 51
298.8641825496
  0
LINE
  8
CYAN
 10
-349.2857287867
 20
-119.267274544
 11
-351.0985757336
 21
-109.7438804124
  0
ARC
  8
CYAN
 10
-328.4497911157
 20
-105.3913211065
 40
23.0632221768
 50
189.4371715797
 51
190.8782663505
  0
LINE
  8
CYAN
 10
-351.2008754956
 20
-109.172904996
 11
-355.3642379064
 21
-83.6883689136
  0
LINE
  8
CYAN
 10
-355.3642379064
 20
-83.6883689136
 11
-356.7774020619
 21
-72.9564101507
  0
ARC
  8
CYAN
 10
-368.531556321
 20
-74.4698539313
 40
11.8511878909
 50
7.3369337763
 51
11.8289556708
  0
LINE
  8
CYAN
 10
-356.9320412371
 20
-72.0404704203
 11
-359.3301379857
 21
-60.635236479
  0
ARC
  8
CYAN
 10
-339.4698840161
 20
-56.4333957281
 40
20.2998806261
 50
186.13006913
 51
191.9459256284
  0
LINE
  8
CYAN
 10
-359.6536907217
 20
-58.6011365583
 11
-361.1144361618
 21
-45.1903514671
  0
ARC
  8
CYAN
 10
-342.3254383405
 20
-43.1396737227
 40
18.9005745505
 50
182.0123235173
 51
186.2287488681
  0
LINE
  8
CYAN
 10
-361.2143568596
 20
-43.8033570182
 11
-361.511739889
 21
-30.9112079302
  0
LINE
  8
CYAN
 10
-361.511739889
 20
-30.9112079302
 11
-361.6092815226
 21
-19.6820247423
  0
LINE
  8
CYAN
 10
-361.6092815226
 20
-19.6820247423
 11
-362.0803362411
 21
-15.8136662966
  0
ARC
  8
CYAN
 10
-373.0029179449
 20
-17.2307412326
 40
11.0141224095
 50
7.3921549366
 51
19.6083595176
  0
LINE
  8
CYAN
 10
-362.6275210151
 20
-13.5345227597
 11
-364.8091229183
 21
-7.2871000793
  0
ARC
  8
CYAN
 10
-370.1619239299
 20
-9.1715155113
 40
5.6748127889
 50
19.3942539745
 51
31.4932394485
  0
LINE
  8
CYAN
 10
-365.323000793
 20
-6.2070049167
 11
-367.238147502
 21
-3.0737773196
  0
ARC
  8
CYAN
 10
-366.5928878558
 20
-2.6760223905
 40
0.7580032945
 50
48.8219499013
 51
211.6507667173
  0
LINE
  8
CYAN
 10
-366.0938176051
 20
-2.1054981761
 11
-362.1564662966
 21
-5.4266718477
  0
ARC
  8
CYAN
 10
-366.1925821974
 20
-10.1024685256
 40
6.1768362563
 50
31.3400416359
 51
49.199463003
  0
LINE
  8
CYAN
 10
-360.9169738303
 20
-6.8897963521
 11
-356.4300586836
 21
-14.1792491673
  0
ARC
  8
CYAN
 10
-361.4614384442
 20
-17.2774712345
 40
5.9087868698
 50
21.6245592688
 51
31.623922753
  0
LINE
  8
CYAN
 10
-355.9685202221
 20
-15.0999470262
 11
-353.7036510706
 21
-20.8715568596
  0
ARC
  8
CYAN
 10
-347.7287128545
 20
-18.5139158726
 40
6.4232669032
 50
201.5336143369
 51
214.9323734276
  0
LINE
  8
CYAN
 10
-352.9946899286
 20
-22.1919375099
 11
-351.8194321967
 21
-23.8715568596
  0
ARC
  8
CYAN
 10
-351.3732448647
 20
-23.5484353378
 40
0.5508998576
 50
215.9114373408
 51
7.7387530881
  0
LINE
  8
CYAN
 10
-350.8273624108
 20
-23.4742531324
 11
-352.6616209358
 21
-11.0055774782
  0
ARC
  8
CYAN
 10
-352.1655877548
 20
-10.9322782314
 40
0.5014196807
 50
33.1297218004
 51
188.4058147692
  0
LINE
  8
CYAN
 10
-351.7456812054
 20
-10.6582340999
 11
-347.4300586836
 21
-16.6820247423
  0
ARC
  8
CYAN
 10
-355.9758404197
 20
-22.7555012261
 40
10.4841548101
 50
31.9787740731
 51
35.4013609789
  0
LINE
  8
CYAN
 10
-347.0827153053
 20
-17.2030398097
 11
-341.0351340206
 21
-26.8715568596
  0
ARC
  8
CYAN
 10
-340.0678297674
 20
-26.2511865517
 40
1.149146134
 50
212.6736514375
 51
283.4573034132
  0
LINE
  8
CYAN
 10
-339.8003996828
 20
-27.3687812847
 11
-339.1509151467
 21
-27.2426908803
  0
ARC
  8
CYAN
 10
-339.0053005683
 20
-27.9327946201
 40
0.7052990694
 50
38.8769661109
 51
101.9148575874
  0
LINE
  8
CYAN
 10
-338.4562283902
 20
-27.4901135607
 11
-336.5720095163
 21
-29.9191381443
  0
ARC
  8
CYAN
 10
-340.7919184769
 20
-33.17947484
 40
5.3326754078
 50
19.1262104455
 51
37.6899721711
  0
LINE
  8
CYAN
 10
-335.7536114195
 20
-31.4322229976
 11
-333.6719302141
 21
-37.3323022998
  0
ARC
  8
CYAN
 10
-324.5091263536
 20
-34.1796417922
 40
9.6900073716
 50
198.9868848343
 51
215.8974695328
  0
LINE
  8
CYAN
 10
-332.3586867565
 20
-39.8612475813
 11
-327.8218112609
 21
-46.0825005551
  0
ARC
  8
CYAN
 10
-344.7766694419
 20
-58.4289961824
 40
20.9738687469
 50
15.0732891851
 51
36.0620362895
  0
LINE
  8
CYAN
 10
-127.8448088818
 20
181.1609570182
 11
-133.7425091197
 21
184.5606398097
  0
ARC
  8
CYAN
 10
-129.5522771908
 20
191.7995008331
 40
8.3641588061
 50
215.9443723225
 51
239.9354935443
  0
LINE
  8
CYAN
 10
-136.3237938144
 20
186.8897436955
 11
-140.7821601903
 21
193.0396247423
  0
ARC
  8
CYAN
 10
-128.0172025974
 20
202.3125001544
 40
15.7775270799
 50
211.0509994984
 51
215.9958600249
  0
LINE
  8
CYAN
 10
-141.5339444885
 20
194.1744383822
 11
-146.5585281523
 21
202.5344701031
  0
ARC
  8
CYAN
 10
-131.4044743393
 20
211.7332265598
 40
17.7274495435
 50
197.4182123143
 51
211.2584298623
  0
LINE
  8
CYAN
 10
-148.319035686
 20
206.4266191911
 11
-150.6743092784
 21
214.087206027
  0
ARC
  8
CYAN
 10
-157.4518707772
 20
211.8560621588
 40
7.1353586336
 50
18.2213208221
 51
23.7686716433
  0
LINE
  8
CYAN
 10
-150.9217319588
 20
214.7319324346
 11
-153.8456019033
 21
221.6978325139
  0
ARC
  8
CYAN
 10
-158.3609670983
 20
219.7355067223
 40
4.9233368113
 50
23.489211592
 51
35.7759248787
  0
LINE
  8
CYAN
 10
-154.3666169707
 20
222.6137722443
 11
-155.9534528152
 21
224.8691251388
  0
ARC
  8
CYAN
 10
-158.0543895822
 20
223.3990099108
 40
2.5642102258
 50
34.9821260439
 51
78.4343305842
  0
LINE
  8
CYAN
 10
-157.5402886598
 20
225.9111552736
 11
-159.5720095163
 21
226.3084590008
  0
LINE
  8
CYAN
 10
-159.5720095163
 20
226.3084590008
 11
-169.3404472641
 21
227.2505684378
  0
ARC
  8
CYAN
 10
-167.831999016
 20
243.0913385291
 40
15.9124295192
 50
252.0343738613
 51
264.5603723987
  0
LINE
  8
CYAN
 10
-172.7401300555
 20
227.9547714512
 11
-176.3063473434
 21
229.1347873117
  0
ARC
  8
CYAN
 10
-177.0085422901
 20
226.9801369223
 40
2.2661853506
 50
71.9493458551
 51
150.5958976167
  0
LINE
  8
CYAN
 10
-178.9827946075
 20
228.0927571768
 11
-181.3142775575
 21
223.9769760508
  0
ARC
  8
CYAN
 10
-171.5543085266
 20
218.4331778138
 40
11.2245576472
 50
150.4028220936
 51
161.2413575704
  0
LINE
  8
CYAN
 10
-182.1826360032
 20
222.0427968279
 11
-186.1223663759
 21
210.3687286281
  0
ARC
  8
CYAN
 10
-198.369914322
 20
214.5080011977
 40
12.9281092236
 50
333.2383403821
 51
341.326420427
  0
LINE
  8
CYAN
 10
-186.8265693894
 20
208.6867302141
 11
-188.7512323553
 21
204.8635739889
  0
ARC
  8
CYAN
 10
-181.215402683
 20
201.0443706585
 40
8.448375165
 50
153.1238369984
 51
170.5125576093
  0
LINE
  8
CYAN
 10
-189.5482188739
 20
202.4369284695
 11
-190.8828739096
 21
194.2553265662
  0
LINE
  8
CYAN
 10
-190.8828739096
 20
194.2553265662
 11
-191.403888977
 21
188.5765002379
  0
ARC
  8
CYAN
 10
-178.6115165384
 20
187.3913993247
 40
12.8471497532
 50
174.7071566836
 51
181.56904206
  0
LINE
  8
CYAN
 10
-191.4538493259
 20
187.0396247423
 11
-191.3301379857
 21
181.9341528945
  0
ARC
  8
CYAN
 10
-183.0496654462
 20
182.1640262359
 40
8.2836626701
 50
181.5901737921
 51
197.5102843338
  0
LINE
  8
CYAN
 10
-190.9494877082
 20
179.6716628073
 11
-189.4697097542
 21
174.9920434576
  0
ARC
  8
CYAN
 10
-190.3995350587
 20
174.6448447648
 40
0.9925331376
 50
200.3470230628
 51
20.4757359583
  0
LINE
  8
CYAN
 10
-191.3301379857
 20
174.2997357653
 11
-195.1961173672
 21
183.2236057098
  0
ARC
  8
CYAN
 10
-185.9251188572
 20
187.2404892604
 40
10.1037996235
 50
180.2891140205
 51
203.4258355405
  0
LINE
  8
CYAN
 10
-196.0287898493
 20
187.1895057891
 11
-196.0644758129
 21
198.1474756542
  0
ARC
  8
CYAN
 10
-177.3937266161
 20
198.2644353885
 40
18.6711155304
 50
175.7922565967
 51
180.3589149754
  0
LINE
  8
CYAN
 10
-196.0145154639
 20
199.634390801
 11
-195.5672513878
 21
205.7818927835
  0
ARC
  8
CYAN
 10
-183.8162334475
 20
204.9166336617
 40
11.782830559
 50
154.5833099132
 51
175.7887571624
  0
LINE
  8
CYAN
 10
-194.4586074544
 20
209.9738039651
 11
-190.2143568596
 21
218.8453344964
  0
ARC
  8
CYAN
 10
-197.7301381686
 20
222.427068324
 40
8.3256102416
 50
334.519317479
 51
354.2843765133
  0
LINE
  8
CYAN
 10
-189.4459191118
 20
221.597911816
 11
-188.7250626487
 21
228.6875232355
  0
ARC
  8
CYAN
 10
-182.6294013551
 20
228.1347768179
 40
6.1206711403
 50
150.0520172255
 51
174.8186656796
  0
LINE
  8
CYAN
 10
-187.9328342585
 20
231.1902988105
 11
-185.3539286281
 21
235.553502617
  0
ARC
  8
CYAN
 10
-181.7689256138
 20
233.4503121056
 40
4.1563995163
 50
73.60572533
 51
149.6014061303
  0
LINE
  8
CYAN
 10
-180.5958001586
 20
237.4377214909
 11
-173.33251705
 21
235.0086969072
  0
LINE
  8
CYAN
 10
-173.33251705
 20
235.0086969072
 11
-168.2008754956
 21
233.8191647899
  0
ARC
  8
CYAN
 10
-166.9375911349
 20
239.2980626585
 40
5.6226514414
 50
257.0160738516
 51
287.1778379218
  0
LINE
  8
CYAN
 10
-165.2770055512
 20
233.9262226804
 11
-156.4245075337
 21
236.6454931007
  0
ARC
  8
CYAN
 10
-155.9577344279
 20
235.1370586804
 40
1.5790033353
 50
47.3352429342
 51
107.194268508
  0
LINE
  8
CYAN
 10
-154.8876320381
 20
236.2981497224
 11
-153.3007961935
 21
234.8611949247
  0
ARC
  8
CYAN
 10
-151.6298160231
 20
236.6617530271
 40
2.4564576549
 50
227.1376182697
 51
264.5331714307
  0
LINE
  8
CYAN
 10
-151.8638413957
 20
234.2164685171
 11
-150.8479809675
 21
234.1403384615
  0
ARC
  8
CYAN
 10
-150.9940822662
 20
232.4548472689
 40
1.6918114996
 50
17.9761532041
 51
85.0458856827
  0
LINE
  8
CYAN
 10
-149.3848564631
 20
232.9769760508
 11
-148.045443299
 21
228.884985567
  0
LINE
  8
CYAN
 10
-148.045443299
 20
228.884985567
 11
-146.4086471055
 21
224.7216231562
  0
ARC
  8
CYAN
 10
-136.9639820142
 20
228.374124198
 40
10.1263252242
 50
201.1428005528
 51
214.1641733218
  0
LINE
  8
CYAN
 10
-145.3428263283
 20
222.6875232355
 11
-140.5109468676
 21
215.6740418715
  0
ARC
  8
CYAN
 10
-144.9505830857
 20
212.6321123609
 40
5.3817938364
 50
22.0876896516
 51
34.4179828515
  0
LINE
  8
CYAN
 10
-139.9637620936
 20
214.6558023791
 11
-137.2873148295
 21
208.037245678
  0
ARC
  8
CYAN
 10
-131.2381137027
 20
210.5170390155
 40
6.537752616
 50
202.2905549318
 51
244.1154326271
  0
LINE
  8
CYAN
 10
-134.0922315623
 20
204.6351838224
 11
-130.8424298176
 21
203.0554851705
  0
ARC
  8
CYAN
 10
-130.0309391131
 20
204.6946528405
 40
1.8290401346
 50
243.6617065346
 51
292.555984062
  0
LINE
  8
CYAN
 10
-129.3293449643
 20
203.0055248216
 11
-126.7028580492
 21
204.0951362411
  0
ARC
  8
CYAN
 10
-125.3352629122
 20
200.8003542526
 40
3.5673386173
 50
80.0475765926
 51
112.5423160844
  0
LINE
  8
CYAN
 10
-124.7187184774
 20
204.3140101507
 11
-120.3555146709
 21
203.5503305313
  0
ARC
  8
CYAN
 10
-120.4056634061
 20
203.2034712856
 40
0.3504657359
 50
320.7509356919
 51
81.7732111102
  0
LINE
  8
CYAN
 10
-120.1342616971
 20
202.9817341792
 11
-124.6187977795
 21
197.252947502
  0
LINE
  8
CYAN
 10
-124.6187977795
 20
197.252947502
 11
-122.3396542427
 21
195.3449379857
  0
LINE
  8
CYAN
 10
-122.3396542427
 20
195.3449379857
 11
-117.9502807296
 21
200.9738039651
  0
ARC
  8
CYAN
 10
-117.5576126088
 20
200.685912621
 40
0.4868980171
 50
13.5672439722
 51
143.7523567172
  0
LINE
  8
CYAN
 10
-117.0843013481
 20
200.800132276
 11
-116.3158636003
 21
197.9738039651
  0
ARC
  8
CYAN
 10
-119.2396776401
 20
197.1780096118
 40
3.0301777493
 50
350.1676838904
 51
15.2257584372
  0
LINE
  8
CYAN
 10
-116.2540079302
 20
196.6605605075
 11
-116.7369579699
 21
193.9079831879
  0
ARC
  8
CYAN
 10
-113.4898502455
 20
193.338593858
 40
3.2966517533
 50
170.0541441104
 51
212.4085924516
  0
LINE
  8
CYAN
 10
-116.2730404441
 20
191.5717421094
 11
-114.52918636
 21
188.8500926249
  0
ARC
  8
CYAN
 10
-112.1995954185
 20
190.3367233013
 40
2.7635239682
 50
212.5440220021
 51
266.8808974971
  0
LINE
  8
CYAN
 10
-112.349963521
 20
187.5772932593
 11
-108.5315654243
 21
187.3631774782
  0
LINE
  8
CYAN
 10
-108.5315654243
 20
187.3631774782
 11
-97.4260935765
 21
187.6605605075
  0
ARC
  8
CYAN
 10
-97.5766802082
 20
193.4365935202
 40
5.777995647
 50
271.4934167496
 51
280.9010443993
  0
LINE
  8
CYAN
 10
-96.4839841396
 20
187.7628602696
 11
-83.8892180809
 21
190.1633360825
  0
ARC
  8
CYAN
 10
-82.7739936927
 20
184.2895012145
 40
5.9787675563
 50
63.9600586522
 51
100.750395377
  0
LINE
  8
CYAN
 10
-80.1493291039
 20
189.6613535289
 11
-74.4705027756
 21
186.8921227597
  0
ARC
  8
CYAN
 10
-75.6106879574
 20
184.5614012884
 40
2.5946646847
 50
13.7745543474
 51
63.9321943333
  0
LINE
  8
CYAN
 10
-73.0906455194
 20
185.1791965107
 11
-71.9415574941
 21
180.5209887391
  0
LINE
  8
CYAN
 10
-71.9415574941
 20
180.5209887391
 11
-70.6521046788
 21
172.8366112609
  0
ARC
  8
CYAN
 10
-65.743735461
 20
173.6542691223
 40
4.9760077127
 50
189.4577373726
 51
222.3751574638
  0
LINE
  8
CYAN
 10
-69.4197494052
 20
170.3005287867
 11
-63.8099159397
 21
164.1102036479
  0
ARC
  8
CYAN
 10
-66.2736689422
 20
161.9270466921
 40
3.2918464653
 50
21.7020104404
 51
41.5444838999
  0
LINE
  8
CYAN
 10
-63.215149881
 20
163.1443035686
 11
-61.9256970658
 21
160.0205922284
  0
ARC
  8
CYAN
 10
-65.1231786764
 20
158.7309403458
 40
3.4477660344
 50
326.970793601
 51
21.9658779449
  0
LINE
  8
CYAN
 10
-62.2325963521
 20
156.8516786677
 11
-66.0914385408
 21
150.8469205393
  0
ARC
  8
CYAN
 10
-69.1218755061
 20
152.8148454693
 40
3.613347026
 50
296.5887190797
 51
327.0008490582
  0
LINE
  8
CYAN
 10
-67.5046026963
 20
149.5836374306
 11
-70.2048406027
 21
148.1942639175
  0
LINE
  8
CYAN
 10
-70.2048406027
 20
148.1942639175
 11
-79.7496463125
 21
142.938911023
  0
LINE
  8
CYAN
 10
-79.7496463125
 20
142.938911023
 11
-85.502223632
 21
138.8255089611
  0
LINE
  8
CYAN
 10
-85.502223632
 20
138.8255089611
 11
-89.3444123711
 21
135.9230505948
  0
ARC
  8
CYAN
 10
-97.617335519
 20
146.9086516953
 40
13.7522612304
 50
296.4017338113
 51
306.982295045
  0
LINE
  8
CYAN
 10
-91.502223632
 20
134.5907746233
 11
-99.1366407613
 21
130.7676183981
  0
ARC
  8
CYAN
 10
-104.7906925728
 20
142.1824032335
 40
12.7383521197
 50
285.3634308325
 51
296.3504592704
  0
LINE
  8
CYAN
 10
-101.4157842982
 20
129.8992599524
 11
-114.3079333862
 21
126.3306636003
  0
ARC
  8
CYAN
 10
-115.843975928
 20
131.8335791115
 40
5.7132745264
 50
273.477126234
 51
285.5961452829
  0
LINE
  8
CYAN
 10
-115.4974655036
 20
126.1308222046
 11
-120.6029373513
 21
125.8334391753
  0
ARC
  8
CYAN
 10
-120.7028580492
 20
126.7755486122
 40
0.9473934436
 50
96.0541918941
 51
276.0541918941
  0
LINE
  8
CYAN
 10
-120.802778747
 20
127.7176580492
 11
-114.7789881047
 21
128.759688184
  0
ARC
  8
CYAN
 10
-115.7148841993
 20
134.2904710529
 40
5.6094082257
 50
279.6043728439
 51
293.3466466153
  0
LINE
  8
CYAN
 10
-113.4919143537
 20
129.1403384615
 11
-106.6973068993
 21
132.1308222046
  0
ARC
  8
CYAN
 10
-112.1602351669
 20
144.4006717555
 40
13.4310384282
 50
294.000153091
 51
305.3366679066
  0
LINE
  8
CYAN
 10
-104.3919936558
 20
133.4440656622
 11
-93.0367200634
 21
141.4020355274
  0
ARC
  8
CYAN
 10
-102.0344129618
 20
154.1108590792
 40
15.5715340787
 50
305.2980307645
 51
309.0786726088
  0
LINE
  8
CYAN
 10
-92.2183219667
 20
142.0229712926
 11
-84.3864425059
 21
148.3441449643
  0
LINE
  8
CYAN
 10
-84.3864425059
 20
148.3441449643
 11
-75.4601934972
 21
154.9127413164
  0
ARC
  8
CYAN
 10
-83.2533076105
 20
165.8373242829
 40
13.4193569359
 50
305.5023803966
 51
313.1087581679
  0
LINE
  8
CYAN
 10
-74.0827153053
 20
156.0404177637
 11
-71.1969103886
 21
158.7311394132
  0
ARC
  8
CYAN
 10
-72.5102037248
 20
160.143384494
 40
1.928516413
 50
312.9207673929
 51
40.866390428
  0
LINE
  8
CYAN
 10
-71.0517874703
 20
161.405207613
 11
-76.0549595559
 21
167.1339942902
  0
ARC
  8
CYAN
 10
-72.2126936844
 20
170.4811945947
 40
5.0957587174
 50
195.5982186392
 51
221.0608394059
  0
LINE
  8
CYAN
 10
-77.1207803331
 20
169.1109966693
 11
-79.2548009516
 21
176.8524716891
  0
ARC
  8
CYAN
 10
-82.2762118526
 20
175.9983868901
 40
3.1398064712
 50
15.7844024547
 51
69.2305610751
  0
LINE
  8
CYAN
 10
-81.1628104679
 20
178.9341528945
 11
-83.839257732
 21
179.9500133228
  0
ARC
  8
CYAN
 10
-85.4184824603
 20
175.9152260355
 40
4.3328350068
 50
68.6245145228
 51
105.0269989061
  0
LINE
  8
CYAN
 10
-86.5418747026
 20
180.0998943696
 11
-97.1287105472
 21
177.1998150674
  0
ARC
  8
CYAN
 10
-99.0664338006
 20
184.2390409409
 40
7.30105967
 50
262.8211168918
 51
285.3909014187
  0
LINE
  8
CYAN
 10
-99.9788295004
 20
176.9952155432
 11
-110.4895352895
 21
178.3893471848
  0
ARC
  8
CYAN
 10
-111.6036507418
 20
170.0102634457
 40
8.4528277841
 50
82.4261562231
 51
96.2320835654
  0
LINE
  8
CYAN
 10
-112.5212561459
 20
178.4131378271
 11
-117.3816843775
 21
177.8683321174
  0
ARC
  8
CYAN
 10
-118.133652596
 20
184.3917486468
 40
6.5666139995
 50
249.5378489365
 51
276.5755851829
  0
LINE
  8
CYAN
 10
-120.4292656622
 20
178.239466138
 11
-126.6528977002
 21
180.5947397304
  0
ARC
  8
CYAN
 10
-123.7787379722
 20
188.1825869237
 40
8.1139521303
 50
239.9258147921
 51
249.2540835898
  0
ARC
  8
CYAN
 10
98.9160874551
 20
36.5202476117
 40
0.6540328376
 50
298.8944156463
 51
34.3988439392
  0
LINE
  8
CYAN
 10
99.4557462331
 20
36.8897436955
 11
98.6873084853
 21
38.0293154639
  0
ARC
  8
CYAN
 10
99.8532450442
 20
38.8233814956
 40
1.4106554937
 50
133.6233791248
 51
214.2569860748
  0
LINE
  8
CYAN
 10
98.8800126883
 20
39.844541475
 11
100.0505122918
 21
40.9293947661
  0
ARC
  8
CYAN
 10
99.4061765508
 20
41.6252058801
 40
0.9483257107
 50
312.8003362321
 51
8.8793175239
  0
LINE
  8
CYAN
 10
100.3431371927
 20
41.7715835052
 11
100.224183981
 21
42.540021253
  0
ARC
  8
CYAN
 10
103.1335990217
 20
42.9722880819
 40
2.9413518134
 50
143.5060096057
 51
188.4509085281
  0
LINE
  8
CYAN
 10
100.7689896907
 20
44.7216231562
 11
101.7872291832
 21
46.0848269627
  0
ARC
  8
CYAN
 10
103.4744585768
 20
44.847568751
 40
2.0922597614
 50
112.4047734252
 51
143.7471194249
  0
LINE
  8
CYAN
 10
102.676999207
 20
46.7818927835
 11
105.282074544
 21
47.8453344964
  0
ARC
  8
CYAN
 10
105.67449101
 20
46.8604380902
 40
1.0601941397
 50
36.9670028588
 51
111.724031053
  0
LINE
  8
CYAN
 10
106.5215670103
 20
47.4979911182
 11
107.5612180809
 21
46.1609570182
  0
ARC
  8
CYAN
 10
108.1578221718
 20
46.6059536928
 40
0.7442838717
 50
216.7186207934
 51
299.9585073788
  0
LINE
  8
CYAN
 10
108.5294972244
 20
45.9611156225
 11
109.7428199841
 21
46.6795930214
  0
ARC
  8
CYAN
 10
110.2900047581
 20
45.7374835845
 40
1.0894867453
 50
30.148366032
 51
120.148366032
  0
LINE
  8
CYAN
 10
111.2321141951
 20
46.2846683584
 11
111.7769199048
 21
45.3663495638
  0
ARC
  8
CYAN
 10
112.5763789626
 20
45.8254417311
 40
0.9219004302
 50
209.8667479846
 51
258.6835514723
  0
LINE
  8
CYAN
 10
112.3954766059
 20
44.9214645519
 11
113.5612180809
 21
44.6978325139
  0
ARC
  8
CYAN
 10
113.4633241478
 20
44.1820731731
 40
0.5249675416
 50
351.3441956496
 51
79.2527918785
  0
LINE
  8
CYAN
 10
113.9823124504
 20
44.1030664552
 11
112.174223632
 21
31.9555644726
  0
LINE
  8
CYAN
 10
112.174223632
 20
31.9555644726
 11
115.1480539255
 21
31.7081417922
  0
LINE
  8
CYAN
 10
115.1480539255
 20
31.7081417922
 11
116.784850119
 21
42.8635739889
  0
ARC
  8
CYAN
 10
117.7273344464
 20
42.7139739003
 40
0.9542834453
 50
82.7180541177
 51
170.9807130487
  0
LINE
  8
CYAN
 10
117.8482918319
 20
43.6605605075
 11
119.1639143537
 21
43.5320910389
  0
ARC
  8
CYAN
 10
118.9149591602
 20
41.3022815588
 40
2.2436641919
 50
23.3813532808
 51
83.6293875639
  0
LINE
  8
CYAN
 10
120.9743822363
 20
42.1926778747
 11
121.5929389374
 21
40.7319324346
  0
LINE
  8
CYAN
 10
121.5929389374
 20
40.7319324346
 11
123.8482918319
 21
36.8397833466
  0
ARC
  8
CYAN
 10
125.1876742105
 20
37.6082508142
 40
1.5441785535
 50
209.8449465537
 51
242.1730914342
  0
LINE
  8
CYAN
 10
124.4668485329
 20
36.2426382236
 11
125.1139540048
 21
35.9214645519
  0
ARC
  8
CYAN
 10
124.6165236578
 20
34.9798230358
 40
1.064953377
 50
345.3521782221
 51
62.1543551417
  0
LINE
  8
CYAN
 10
125.6468643933
 20
34.7105208565
 11
125.1639143537
 21
32.7977532117
  0
ARC
  8
CYAN
 10
126.825068977
 20
32.3508247414
 40
1.7202266537
 50
164.9413362225
 51
226.1152215213
  0
LINE
  8
CYAN
 10
125.6325900079
 20
31.1109966693
 11
126.5009484536
 21
30.2949776368
  0
ARC
  8
CYAN
 10
125.8609668622
 20
29.6051823871
 40
0.9409537309
 50
324.2541029049
 51
47.1453061832
  0
LINE
  8
CYAN
 10
126.6246597938
 20
29.0554851705
 11
125.9061823949
 21
28.0134550357
  0
ARC
  8
CYAN
 10
127.3311965117
 20
27.0019712761
 40
1.7475023974
 50
144.6326338245
 51
201.8048341412
  0
LINE
  8
CYAN
 10
125.7087200634
 20
26.3528681998
 11
126.2297351309
 21
25.1371663759
  0
ARC
  8
CYAN
 10
125.1545886466
 20
24.7151084551
 40
1.1550207146
 50
323.2334784956
 51
21.4329129808
  0
LINE
  8
CYAN
 10
126.0798540841
 20
24.023764314
 11
124.7666106265
 21
22.1133757335
  0
ARC
  8
CYAN
 10
125.5846952895
 20
21.5438223639
 40
0.9968217277
 50
145.1542309104
 51
178.5773964123
  0
LINE
  8
CYAN
 10
124.5881808089
 20
21.5685700238
 11
124.5929389374
 21
20.5527095956
  0
ARC
  8
CYAN
 10
123.3988865199
 20
20.6057346628
 40
1.195229197
 50
324.2831168117
 51
357.457299375
  0
LINE
  8
CYAN
 10
124.3693068993
 20
19.9079831879
 11
122.3613766852
 21
16.8080624901
  0
ARC
  8
CYAN
 10
125.2615830843
 20
14.924490047
 40
3.4581848281
 50
146.9978269851
 51
190.7557042946
  0
LINE
  8
CYAN
 10
121.8641522601
 20
14.2791172086
 11
122.7325107058
 21
9.7446207772
  0
ARC
  8
CYAN
 10
120.3319764138
 20
9.2756561009
 40
2.4459134806
 50
326.0690181511
 51
11.0539934154
  0
LINE
  8
CYAN
 10
122.3613766852
 20
7.9103622522
 11
120.4271974623
 21
5.0578642347
  0
ARC
  8
CYAN
 10
117.4873736336
 20
7.0764235163
 40
3.566110727
 50
288.5032439888
 51
325.5254976769
  0
LINE
  8
CYAN
 10
118.6191086439
 20
3.6946604282
 11
111.1084028549
 21
1.0681735131
  0
ARC
  8
CYAN
 10
112.7681504986
 20
-2.874817414
 40
4.2780766346
 50
112.8279878078
 51
159.9883466465
  0
LINE
  8
CYAN
 10
108.748371134
 20
-1.4108114195
 11
108.0584425059
 21
-3.3711603489
  0
ARC
  8
CYAN
 10
104.1791224006
 20
-1.9257763914
 40
4.1398380722
 50
308.7259660778
 51
339.5652641115
  0
LINE
  8
CYAN
 10
106.7689896907
 20
-5.155458525
 11
104.2162537669
 21
-7.2371397304
  0
ARC
  8
CYAN
 10
105.7766876544
 20
-9.1457728231
 40
2.4653263881
 50
129.2682717064
 51
189.876137838
  0
LINE
  8
CYAN
 10
103.3478953212
 20
-9.5686226804
 11
103.7951593973
 21
-12.1713189532
  0
ARC
  8
CYAN
 10
99.6629428844
 20
-12.8717769469
 40
4.1911638849
 50
332.2386941031
 51
9.6208372529
  0
LINE
  8
CYAN
 10
103.3716859635
 20
-14.8239755749
 11
100.7951593973
 21
-19.7058153846
  0
ARC
  8
CYAN
 10
104.1400083953
 20
-21.4669348263
 40
3.7801529741
 50
152.2324380047
 51
186.4227551996
  0
LINE
  8
CYAN
 10
100.3835812847
 20
-21.8897963521
 11
100.7451990484
 21
-24.9611682791
  0
ARC
  8
CYAN
 10
97.4859628124
 20
-25.3055916823
 40
3.2773843721
 50
336.7757711213
 51
6.0324060048
  0
LINE
  8
CYAN
 10
100.497776368
 20
-26.5979644726
 11
98.9347311657
 21
-30.3164418715
  0
ARC
  8
CYAN
 10
102.2821500543
 20
-31.7289031386
 40
3.6332162125
 50
157.1224273779
 51
190.6141976059
  0
LINE
  8
CYAN
 10
98.7110991277
 20
-32.3981230769
 11
99.2321141951
 21
-35.1269097542
  0
ARC
  8
CYAN
 10
95.3467873747
 20
-35.8842833206
 40
3.9584566715
 50
337.7638367322
 51
11.0304419078
  0
LINE
  8
CYAN
 10
99.0108612213
 20
-37.3822626487
 11
97.5715273592
 21
-40.8771080095
  0
ARC
  8
CYAN
 10
100.4719169866
 20
-42.0640304043
 40
3.1338546172
 50
157.7442184287
 51
188.693249537
  0
LINE
  8
CYAN
 10
97.3740650278
 20
-42.5376948454
 11
97.9188707375
 21
-46.1562515464
  0
ARC
  8
CYAN
 10
92.6659471251
 20
-46.9323594444
 40
5.3099482056
 50
348.4791186053
 51
8.404521995
  0
LINE
  8
CYAN
 10
97.8689103886
 20
-47.9928891356
 11
96.4819159397
 21
-54.8826591594
  0
ARC
  8
CYAN
 10
98.4140206491
 20
-55.2811317029
 40
1.9727668326
 50
168.3468435888
 51
220.8620513047
  0
LINE
  8
CYAN
 10
96.9220428232
 20
-56.5717947661
 11
97.7951593973
 21
-57.5852761301
  0
ARC
  8
CYAN
 10
96.8559006459
 20
-58.3888170392
 40
1.2360764518
 50
348.8755608115
 51
40.5471658803
  0
LINE
  8
CYAN
 10
98.0687517843
 20
-58.6273062649
 11
97.5976970658
 21
-61.1800421887
  0
ARC
  8
CYAN
 10
101.9087466363
 20
-61.9830886533
 40
4.3852060411
 50
169.4480900598
 51
206.7433734695
  0
LINE
  8
CYAN
 10
97.9926217288
 20
-63.9564101507
 11
100.2003933386
 21
-68.3196139572
  0
ARC
  8
CYAN
 10
99.1345725615
 20
-68.9143800159
 40
1.2205411069
 50
209.1630776149
 51
29.1630776149
  0
LINE
  8
CYAN
 10
98.0687517843
 20
-69.5091460745
 11
95.4636764473
 21
-65.3933649485
  0
LINE
  8
CYAN
 10
95.4636764473
 20
-65.3933649485
 11
92.663517843
 21
-61.2300025377
  0
ARC
  8
CYAN
 10
100.9198982125
 20
-55.7035373115
 40
9.935272251
 50
191.211334724
 51
213.7966469677
  0
LINE
  8
CYAN
 10
91.174223632
 20
-57.635236479
 11
88.2265630452
 21
-42.8350778747
  0
ARC
  8
CYAN
 10
99.5362495933
 20
-40.5092368578
 40
11.5463650666
 50
175.4220254951
 51
191.6208812587
  0
LINE
  8
CYAN
 10
88.0267216495
 20
-39.5876551943
 11
88.8950800952
 21
-29.6978851705
  0
ARC
  8
CYAN
 10
83.5632535333
 20
-29.2448307518
 40
5.3510403467
 50
355.1431463729
 51
16.3606482447
  0
LINE
  8
CYAN
 10
88.6976177637
 20
-27.7375362411
 11
87.829259318
 21
-24.78749659
  0
ARC
  8
CYAN
 10
100.4978431449
 20
-21.0956112082
 40
13.1955687202
 50
181.7235376867
 51
196.2472067689
  0
LINE
  8
CYAN
 10
87.3082442506
 20
-21.4924926249
 11
87.2344932593
 21
-18.9373776368
  0
ARC
  8
CYAN
 10
77.3966274605
 20
-19.3390876697
 40
9.8460639052
 50
2.3382622562
 51
7.3974165473
  0
LINE
  8
CYAN
 10
87.160742268
 20
-18.0713982554
 11
86.0187914354
 21
-8.3291302141
  0
ARC
  8
CYAN
 10
99.7412314038
 20
-6.6281644977
 40
13.827459747
 50
168.4771367782
 51
187.0660585925
  0
LINE
  8
CYAN
 10
86.1924631245
 20
-3.8660057098
 11
86.93711023
 21
-0.3449906423
  0
ARC
  8
CYAN
 10
83.6159132176
 20
0.3475320303
 40
3.3926298424
 50
348.221681485
 51
24.1711453732
  0
LINE
  8
CYAN
 10
86.7110991277
 20
1.736690563
 11
85.5477367169
 21
4.2894264869
  0
ARC
  8
CYAN
 10
89.6397252762
 20
6.1237147615
 40
4.4843041649
 50
163.2574399038
 51
204.1449423983
  0
LINE
  8
CYAN
 10
85.3455162569
 20
7.4155168914
 11
86.887149881
 21
12.6185303727
  0
ARC
  8
CYAN
 10
81.0878876836
 20
14.3330438506
 40
6.0473960099
 50
343.5300349114
 51
350.9994765308
  0
LINE
  8
CYAN
 10
87.0608215702
 20
13.3869681205
 11
87.555666931
 21
16.5106794607
  0
LINE
  8
CYAN
 10
87.555666931
 20
16.5106794607
 11
87.9791403648
 21
19.8342321967
  0
ARC
  8
CYAN
 10
94.2252151633
 20
19.1145907064
 40
6.2873948709
 50
154.5544196772
 51
173.4276462505
  0
LINE
  8
CYAN
 10
88.5477367169
 20
21.8159927042
 11
90.8054686757
 21
26.4266191911
  0
ARC
  8
CYAN
 10
94.4493512342
 20
24.6438278354
 40
4.0566273083
 50
115.000883351
 51
153.9295314168
  0
LINE
  8
CYAN
 10
92.73488977
 20
28.320354322
 11
96.6555876289
 21
30.1213059477
  0
ARC
  8
CYAN
 10
96.1270666621
 20
31.257850363
 40
1.2534223631
 50
294.9395805142
 51
5.8033297884
  0
LINE
  8
CYAN
 10
97.3740650278
 20
31.3845890563
 11
97.1004726408
 21
33.7898229976
  0
ARC
  8
CYAN
 10
98.4134781919
 20
33.9392282316
 40
1.3214785285
 50
120.3782054543
 51
186.4916921916
  0
LINE
  8
CYAN
 10
97.7451990484
 20
35.0792758128
 11
99.2321141951
 21
35.9476342585
  0
LINE
  8
CYAN
 10
-301.9161808089
 20
-103.4726670896
 11
-307.9280761301
 21
-107.9405497224
  0
ARC
  8
CYAN
 10
-302.088565928
 20
-116.0375437395
 40
9.9830452024
 50
125.798947703
 51
146.5590115822
  0
LINE
  8
CYAN
 10
-310.4189563838
 20
-110.5361088025
 11
-313.085887391
 21
-114.5686226804
  0
ARC
  8
CYAN
 10
-311.0396045695
 20
-115.9170127401
 40
2.4505977104
 50
146.6172715587
 51
231.1517069473
  0
LINE
  8
CYAN
 10
-312.5767676447
 20
-117.8255616178
 11
-307.2452846947
 21
-122.1625957177
  0
ARC
  8
CYAN
 10
-307.6543221463
 20
-122.6375467149
 40
0.62680945
 50
289.4963890459
 51
49.2643004018
  0
LINE
  8
CYAN
 10
-307.4451260904
 20
-123.2284164948
 11
-309.9978620143
 21
-124.0967749405
  0
ARC
  8
CYAN
 10
-309.0737401445
 20
-126.8461042077
 40
2.900484899
 50
108.5788505492
 51
150.9156505656
  0
LINE
  8
CYAN
 10
-311.6084885012
 20
-125.4361881047
 11
-312.1556732752
 21
-126.3782975416
  0
ARC
  8
CYAN
 10
-309.2008887717
 20
-128.0294715751
 40
3.3848378323
 50
150.8029435271
 51
194.5717983997
  0
LINE
  8
CYAN
 10
-312.4768469469
 20
-128.8810731166
 11
-312.0081712926
 21
-130.6653712926
  0
ARC
  8
CYAN
 10
-310.5196135448
 20
-130.2697572061
 40
1.5402320195
 50
194.8834454429
 51
258.8955241373
  0
LINE
  8
CYAN
 10
-310.816260111
 20
-131.7811524187
 11
-308.2682823156
 21
-132.3283371927
  0
ARC
  8
CYAN
 10
-308.4609795136
 20
-133.2942577133
 40
0.9849541422
 50
319.1141369569
 51
78.7178413184
  0
LINE
  8
CYAN
 10
-307.7163394132
 20
-133.9389636796
 11
-309.924111023
 21
-136.4916996035
  0
ARC
  8
CYAN
 10
-311.4390051136
 20
-135.2418106821
 40
1.9639568278
 50
298.805137715
 51
320.4750891711
  0
LINE
  8
CYAN
 10
-310.4927073751
 20
-136.962754322
 11
-313.8210182395
 21
-138.7113665345
  0
ARC
  8
CYAN
 10
-313.0212387775
 20
-140.1851834403
 40
1.6768373385
 50
118.48685281
 51
203.5403445994
  0
LINE
  8
CYAN
 10
-314.5585281523
 20
-140.85490341
 11
-313.4427470262
 21
-143.4338090404
  0
ARC
  8
CYAN
 10
-310.4800657531
 20
-142.1145820604
 40
3.2431219759
 50
204.0025224694
 51
221.794540446
  0
LINE
  8
CYAN
 10
-312.8979413164
 20
-144.2759977795
 11
-309.8741506741
 21
-147.7208827914
  0
ARC
  8
CYAN
 10
-302.9951660712
 20
-141.5791800238
 40
9.2217645845
 50
221.7591513891
 51
231.90558253
  0
LINE
  8
CYAN
 10
-308.6846185567
 20
-148.8366639175
 11
-301.8210182395
 21
-154.3204069786
  0
ARC
  8
CYAN
 10
-304.3170976447
 20
-157.4671481526
 40
4.0165149587
 50
42.8275896469
 51
51.5776066766
  0
LINE
  8
CYAN
 10
-301.3713750991
 20
-154.7367432197
 11
-293.8107089611
 21
-162.9421357653
  0
ARC
  8
CYAN
 10
-287.8272874427
 20
-157.396598785
 40
8.1580827078
 50
222.8248787916
 51
238.2188720778
  0
LINE
  8
CYAN
 10
-292.1239524187
 20
-164.3315092784
 11
-283.3000031721
 21
-169.8580754956
  0
ARC
  8
CYAN
 10
-280.2127694662
 20
-164.7236668583
 40
5.9910903857
 50
238.9822134052
 51
248.0168742187
  0
LINE
  8
CYAN
 10
-282.4554353688
 20
-170.2791698652
 11
-275.565665345
 21
-173.2292095163
  0
ARC
  8
CYAN
 10
-273.3223236822
 20
-167.7729307057
 40
5.8994542353
 50
247.6500518537
 51
261.1862845626
  0
LINE
  8
CYAN
 10
-274.2262521808
 20
-173.6027226011
 11
-265.2024615385
 21
-175.1134283902
  0
LINE
  8
CYAN
 10
-265.2024615385
 20
-175.1134283902
 11
-250.6306931007
 21
-178.2347606661
  0
ARC
  8
CYAN
 10
-252.4775589619
 20
-187.0950755563
 40
9.0507509888
 50
74.8024265978
 51
78.2257186082
  0
LINE
  8
CYAN
 10
-250.1049199048
 20
-178.3608510706
 11
-244.9994480571
 21
-179.774015226
  0
ARC
  8
CYAN
 10
-244.1302473819
 20
-176.5700065068
 40
3.319816514
 50
254.8218051118
 51
264.3924105656
  0
LINE
  8
CYAN
 10
-244.4546423473
 20
-179.8739359239
 11
-235.9994480571
 21
-180.7660850119
  0
ARC
  8
CYAN
 10
-235.5586759957
 20
-176.6263926339
 40
4.163091759
 50
263.9223532681
 51
278.635069346
  0
LINE
  8
CYAN
 10
-234.9336272799
 20
-180.7422943696
 11
-225.488742268
 21
-179.3029605075
  0
ARC
  8
CYAN
 10
-225.974965658
 20
-175.9813918468
 40
3.3569676128
 50
278.3280175208
 51
291.466226525
  0
LINE
  8
CYAN
 10
-224.7464742268
 20
-179.1054981761
 11
-214.3333100714
 21
-175.1134283902
  0
LINE
  8
CYAN
 10
-214.3333100714
 20
-175.1134283902
 11
-207.6647930214
 21
-172.7105735131
  0
ARC
  8
CYAN
 10
-209.1203315017
 20
-168.6924139338
 40
4.2736633784
 50
289.9124173128
 51
309.5075999708
  0
LINE
  8
CYAN
 10
-206.4015099128
 20
-171.98971705
 11
-200.5014306106
 21
-168.1974886598
  0
ARC
  8
CYAN
 10
-202.0709951645
 20
-165.6038310987
 40
3.0315989895
 50
301.1804343369
 51
314.2222868796
  0
LINE
  8
CYAN
 10
-199.9566249009
 20
-167.7763942902
 11
-195.1461570182
 21
-162.8422150674
  0
ARC
  8
CYAN
 10
-194.1921522601
 20
-163.6606131642
 40
1.2569409387
 50
319.3751800927
 51
139.3751800927
  0
LINE
  8
CYAN
 10
-193.238147502
 20
-164.4790112609
 11
-197.8249833466
 21
-170.702643299
  0
LINE
  8
CYAN
 10
-197.8249833466
 20
-170.702643299
 11
-203.2040475813
 21
-176.4528415543
  0
ARC
  8
CYAN
 10
-205.92154733
 20
-173.929038129
 40
3.7086909569
 50
287.3647641253
 51
317.1164457251
  0
LINE
  8
CYAN
 10
-204.8146740682
 20
-177.4687019826
 11
-220.6092815226
 21
-182.3695743061
  0
ARC
  8
CYAN
 10
-219.3945507042
 20
-186.2203248523
 40
4.0378027107
 50
107.5080364225
 51
118.5671298309
  0
LINE
  8
CYAN
 10
-221.3253798573
 20
-182.6740945282
 11
-228.1509151467
 21
-186.4044672482
  0
ARC
  8
CYAN
 10
-229.8050628971
 20
-183.3958865812
 40
3.4333310953
 50
275.0205327127
 51
298.8024353498
  0
LINE
  8
CYAN
 10
-229.5046026963
 20
-186.8160453608
 11
-235.157259318
 21
-187.2871000793
  0
ARC
  8
CYAN
 10
-235.527380144
 20
-182.7241277438
 40
4.5779587111
 50
257.1356547368
 51
274.6373358211
  0
LINE
  8
CYAN
 10
-236.5466328311
 20
-187.1871793814
 11
-243.6862045995
 21
-185.5765528945
  0
LINE
  8
CYAN
 10
-243.6862045995
 20
-185.5765528945
 11
-255.0390991277
 21
-182.9238962728
  0
LINE
  8
CYAN
 10
-255.0390991277
 20
-182.9238962728
 11
-264.3103124504
 21
-180.8422150674
  0
ARC
  8
CYAN
 10
-265.6993349071
 20
-187.0373434705
 40
6.348936865
 50
77.3625944117
 51
87.9845922679
  0
LINE
  8
CYAN
 10
-265.4760539255
 20
-180.6923340206
 11
-273.6053164155
 21
-180.4187416336
  0
LINE
  8
CYAN
 10
-273.6053164155
 20
-180.4187416336
 11
-278.9605900079
 21
-180.3045465504
  0
ARC
  8
CYAN
 10
-278.8631359804
 20
-175.5344901194
 40
4.7710518381
 50
230.3015716049
 51
268.829588733
  0
LINE
  8
CYAN
 10
-281.910629659
 20
-179.2054188739
 11
-285.3816843775
 21
-176.3291302141
  0
ARC
  8
CYAN
 10
-291.3288130786
 20
-183.4706440262
 40
9.2935224385
 50
50.2140026542
 51
62.3674345424
  0
LINE
  8
CYAN
 10
-287.018480571
 20
-175.2371397304
 11
-295.2286312451
 21
-170.9572031721
  0
ARC
  8
CYAN
 10
-291.8076029627
 20
-164.4260298067
 40
7.3729003817
 50
233.5328514216
 51
242.3544550741
  0
LINE
  8
CYAN
 10
-296.1897731959
 20
-170.3552999207
 11
-304.816260111
 21
-163.9841659001
  0
ARC
  8
CYAN
 10
-300.2377878211
 20
-157.9139272696
 40
7.6033022787
 50
217.998133535
 51
232.9746067584
  0
LINE
  8
CYAN
 10
-306.2294242665
 20
-162.594792387
 11
-315.1794639175
 21
-151.3656091991
  0
LINE
  8
CYAN
 10
-315.1794639175
 20
-151.3656091991
 11
-317.5085678033
 21
-148.5892412371
  0
ARC
  8
CYAN
 10
-319.4799515518
 20
-150.2098472949
 40
2.5520027191
 50
39.4224354016
 51
58.0504833148
  0
LINE
  8
CYAN
 10
-318.1295035686
 20
-148.0444355274
 11
-320.211184774
 21
-146.7549827121
  0
ARC
  8
CYAN
 10
-319.4971808618
 20
-145.6019276251
 40
1.3562218182
 50
161.346449038
 51
238.2330517638
  0
LINE
  8
CYAN
 10
-320.7821601903
 20
-145.1681468676
 11
-320.5347375099
 21
-144.3997091197
  0
ARC
  8
CYAN
 10
-321.7425988881
 20
-143.9571484126
 40
1.2863860573
 50
339.877153417
 51
3.496535903
  0
LINE
  8
CYAN
 10
-320.4586074544
 20
-143.8786940523
 11
-320.6084885012
 21
-142.2680675654
  0
ARC
  8
CYAN
 10
-321.873621046
 20
-142.3522182333
 40
1.2679281095
 50
3.8054403212
 51
58.0816524416
  0
LINE
  8
CYAN
 10
-321.2032545599
 20
-141.2759977795
 11
-322.9946899286
 21
-140.195902617
  0
ARC
  8
CYAN
 10
-322.12011631
 20
-138.7717597866
 40
1.6712455881
 50
186.0152153125
 51
238.4456949638
  0
LINE
  8
CYAN
 10
-323.7821601903
 20
-138.9468938937
 11
-323.9558318795
 21
-137.4837693894
  0
ARC
  8
CYAN
 10
-326.3872394584
 20
-137.7359403518
 40
2.4444494286
 50
5.9212033632
 51
37.6057522913
  0
LINE
  8
CYAN
 10
-324.4506772403
 20
-136.2442769231
 11
-326.1350547185
 21
-134.0864656622
  0
ARC
  8
CYAN
 10
-324.5514233617
 20
-132.8471774081
 40
2.0109012036
 50
183.5212539374
 51
218.0453503347
  0
LINE
  8
CYAN
 10
-326.5585281523
 20
-132.9706845361
 11
-326.7536114195
 21
-129.9730636003
  0
ARC
  8
CYAN
 10
-325.5909144016
 20
-129.8976132893
 40
1.1651425256
 50
87.5096996716
 51
183.712860293
  0
LINE
  8
CYAN
 10
-325.5402886598
 20
-128.733571134
 11
-320.3348961142
 21
-128.9809938144
  0
LINE
  8
CYAN
 10
-320.3348961142
 20
-128.9809938144
 11
-320.3348961142
 21
-126.0047844568
  0
LINE
  8
CYAN
 10
-320.3348961142
 20
-126.0047844568
 11
-325.269075337
 21
-125.783531483
  0
ARC
  8
CYAN
 10
-325.2186604728
 20
-124.918296516
 40
0.8667024902
 50
156.1484636163
 51
266.6653027863
  0
LINE
  8
CYAN
 10
-326.0113433783
 20
-124.567829659
 11
-325.1191942903
 21
-122.5337297383
  0
ARC
  8
CYAN
 10
-321.8781695884
 20
-124.0174340464
 40
3.5644942968
 50
121.3415335332
 51
155.4022310524
  0
LINE
  8
CYAN
 10
-323.7321998414
 20
-120.9730636003
 11
-322.5664583664
 21
-120.2284164948
  0
ARC
  8
CYAN
 10
-323.6322791435
 20
-118.5178693101
 40
2.0154269028
 50
301.9265227005
 51
355.0566250546
  0
LINE
  8
CYAN
 10
-321.6243489294
 20
-118.6915409992
 11
-321.4387819191
 21
-116.4100183981
  0
ARC
  8
CYAN
 10
-319.8139903807
 20
-116.560093156
 40
1.6317076872
 50
126.3949243537
 51
174.7228172829
  0
LINE
  8
CYAN
 10
-320.7821601903
 20
-115.2466559873
 11
-318.8241903251
 21
-113.8073221253
  0
ARC
  8
CYAN
 10
-319.1444046996
 20
-113.3861172151
 40
0.5291037913
 50
307.2433384697
 51
10.6112082904
  0
LINE
  8
CYAN
 10
-318.6243489294
 20
-113.2886861221
 11
-318.812295004
 21
-112.3989160983
  0
ARC
  8
CYAN
 10
-316.443304117
 20
-111.9013439525
 40
2.4206808676
 50
137.465955009
 51
191.8617262799
  0
LINE
  8
CYAN
 10
-318.2270452022
 20
-110.2648954798
 11
-309.031961935
 21
-100.0991540048
  0
ARC
  8
CYAN
 10
-300.2936590008
 20
-108.0690191911
 40
11.8269475884
 50
132.3667229492
 51
137.6332770508
  0
LINE
  8
CYAN
 10
-308.2635241872
 20
-99.3307162569
 11
-301.9899318002
 21
-93.6043086439
  0
ARC
  8
CYAN
 10
-291.876977481
 20
-104.6883444437
 40
15.0042558853
 50
127.2083585786
 51
132.3769863171
  0
LINE
  8
CYAN
 10
-300.9502807296
 20
-92.7383292625
 11
-291.6029373513
 21
-85.6225481364
  0
LINE
  8
CYAN
 10
-291.6029373513
 20
-85.6225481364
 11
-286.9066645519
 21
-81.8897963521
  0
ARC
  8
CYAN
 10
-290.0680195977
 20
-77.9400503742
 40
5.0591164263
 50
308.6735888157
 51
318.9967744258
  0
LINE
  8
CYAN
 10
-286.2500428232
 20
-81.2593443299
 11
-283.7972275972
 21
-78.4306369548
  0
ARC
  8
CYAN
 10
-281.1183635502
 20
-80.788272561
 40
3.5685793019
 50
90.0006055967
 51
138.6493873326
  0
LINE
  8
CYAN
 10
-281.1184012688
 20
-77.2196932593
 11
-277.0026201427
 21
-77.2196932593
  0
LINE
  8
CYAN
 10
-277.0026201427
 20
-77.2196932593
 11
-266.3420333069
 21
-77.3529208565
  0
ARC
  8
CYAN
 10
-266.2436505931
 20
-69.956362034
 40
7.397213095
 50
269.2379453716
 51
277.3104981553
  0
LINE
  8
CYAN
 10
-265.3023822363
 20
-77.2934442506
 11
-256.8233973037
 21
-76.2038328311
  0
ARC
  8
CYAN
 10
-258.050885754
 20
-67.4684140212
 40
8.8212396906
 50
277.9987483287
 51
279.139535431
  0
LINE
  8
CYAN
 10
-256.6497256146
 20
-76.1776631245
 11
-235.2310103093
 21
-73.0063704996
  0
ARC
  8
CYAN
 10
-234.1564207775
 20
-80.2665036645
 40
7.3392285857
 50
91.6287939631
 51
98.419356554
  0
LINE
  8
CYAN
 10
-234.3650309278
 20
-72.9302404441
 11
-231.4387819191
 21
-72.8564894528
  0
ARC
  8
CYAN
 10
-231.3360471266
 20
-75.9560660091
 40
3.1012786502
 50
68.0241303804
 51
91.8983612209
  0
LINE
  8
CYAN
 10
-230.1754988105
 20
-73.0801214909
 11
-223.8067438541
 21
-75.6875758922
  0
ARC
  8
CYAN
 10
-225.4128505792
 20
-79.6236348264
 40
4.2511338189
 50
58.3701297143
 51
67.8021110475
  0
LINE
  8
CYAN
 10
-223.1834290246
 20
-76.0039914354
 11
-214.7115812847
 21
-81.2212793021
  0
ARC
  8
CYAN
 10
-211.8521159761
 20
-76.5759319467
 40
5.4548871578
 50
238.385430732
 51
254.4173780338
  0
LINE
  8
CYAN
 10
-213.3174496431
 20
-81.8303197462
 11
-204.5910420301
 21
-84.2593443299
  0
ARC
  8
CYAN
 10
-205.3189005024
 20
-87.0072513363
 40
2.8426696733
 50
38.8201568555
 51
75.1643365052
  0
LINE
  8
CYAN
 10
-203.1041268834
 20
-85.2252444092
 11
-201.964555115
 21
-86.6883689136
  0
ARC
  8
CYAN
 10
-200.0081139752
 20
-85.0929071945
 40
2.52451184
 50
219.1969618707
 51
231.1691441009
  0
LINE
  8
CYAN
 10
-201.5910420301
 20
-87.0595029342
 11
-198.2698683585
 21
-89.8120802538
  0
ARC
  8
CYAN
 10
-201.4078540841
 20
-93.6185830293
 40
4.9331954953
 50
39.5013172656
 51
50.4986827344
  0
LINE
  8
CYAN
 10
-197.6013513085
 20
-90.4805973037
 11
-192.3697890563
 21
-96.827940682
  0
LINE
  8
CYAN
 10
-192.3697890563
 20
-96.827940682
 11
-190.3380681998
 21
-99.9516520222
  0
ARC
  8
CYAN
 10
-191.4659945349
 20
-100.6394933037
 40
1.3211144711
 50
247.4567040121
 51
31.376016339
  0
LINE
  8
CYAN
 10
-191.9724853291
 20
-101.8596615385
 11
-195.345998414
 21
-100.4227067407
  0
ARC
  8
CYAN
 10
-194.1173611828
 20
-97.584617266
 40
3.0926204604
 50
220.773315335
 51
246.5917324276
  0
LINE
  8
CYAN
 10
-196.4594004758
 20
-99.6043086439
 11
-199.5593211737
 21
-96.0357122918
  0
ARC
  8
CYAN
 10
-201.9699410383
 20
-98.0836813496
 40
3.1631100824
 50
40.3499368901
 51
73.9647012751
  0
LINE
  8
CYAN
 10
-201.0961966693
 20
-95.0436425059
 11
-203.3277589215
 21
-94.4227067407
  0
ARC
  8
CYAN
 10
-202.703157305
 20
-92.2021144821
 40
2.3067633511
 50
205.170568866
 51
254.289926495
  0
LINE
  8
CYAN
 10
-204.7908834259
 20
-93.1832142744
 11
-205.4903283109
 21
-91.7248478985
  0
ARC
  8
CYAN
 10
-208.0411100303
 20
-92.9323997504
 40
2.8221744906
 50
25.3330908669
 51
53.8257185656
  0
LINE
  8
CYAN
 10
-206.3753402062
 20
-90.6542689929
 11
-210.8456019033
 21
-87.4163625694
  0
ARC
  8
CYAN
 10
-212.3572142392
 20
-89.4879664392
 40
2.5644715727
 50
53.8824385906
 51
71.2561249425
  0
LINE
  8
CYAN
 10
-211.5331514671
 20
-87.0595029342
 11
-221.1540872324
 21
-83.7978058684
  0
ARC
  8
CYAN
 10
-222.2126872561
 20
-86.9369807808
 40
3.3128617751
 50
71.3647425214
 51
81.0362866866
  0
LINE
  8
CYAN
 10
-221.6965138779
 20
-83.6645782712
 11
-226.5069817605
 21
-82.9032777161
  0
ARC
  8
CYAN
 10
-226.3332647845
 20
-81.7066362647
 40
1.2091849945
 50
215.0635892413
 51
261.7400481334
  0
LINE
  8
CYAN
 10
-227.323000793
 20
-82.4012951626
 11
-228.4387819191
 21
-80.7882896114
  0
ARC
  8
CYAN
 10
-230.4285315831
 20
-82.1653836438
 40
2.4198123273
 50
34.6868804315
 51
48.8458953188
  0
LINE
  8
CYAN
 10
-228.8360856463
 20
-80.3434045995
 11
-229.8281554322
 21
-79.4988367962
  0
ARC
  8
CYAN
 10
-231.1539233656
 20
-81.0259676507
 40
2.0223227388
 50
49.0373475195
 51
91.0606813692
  0
LINE
  8
CYAN
 10
-231.1913592387
 20
-79.0039914354
 11
-236.7440951626
 21
-79.1277027756
  0
LINE
  8
CYAN
 10
-236.7440951626
 20
-79.1277027756
 11
-246.7837462332
 21
-80.1697329104
  0
LINE
  8
CYAN
 10
-246.7837462332
 20
-80.1697329104
 11
-261.0866804124
 21
-82.2276234734
  0
LINE
  8
CYAN
 10
-261.0866804124
 20
-82.2276234734
 11
-275.3658239493
 21
-85.0277820777
  0
LINE
  8
CYAN
 10
-275.3658239493
 20
-85.0277820777
 11
-280.2500428232
 21
-85.7724291832
  0
LINE
  8
CYAN
 10
-280.2500428232
 20
-85.7724291832
 11
-282.9526597938
 21
-87.0357122918
  0
ARC
  8
CYAN
 10
-278.6996716196
 20
-96.1266248395
 40
10.0365631248
 50
115.0715337586
 51
131.1793920738
  0
LINE
  8
CYAN
 10
-285.3079333862
 20
-88.5725877875
 11
-291.7528183981
 21
-94.1752840603
  0
LINE
  8
CYAN
 10
-291.7528183981
 20
-94.1752840603
 11
-301.9161808089
 21
-103.4726670896
  0
LINE
  8
CYAN
 10
68.9156986519
 20
54.7136929421
 11
67.6262458366
 21
61.4297912768
  0
ARC
  8
CYAN
 10
68.3310547947
 20
61.5704596204
 40
0.7187094338
 50
41.9310537552
 51
191.2869929862
  0
LINE
  8
CYAN
 10
68.8657383029
 20
62.050727042
 11
71.6421062649
 21
59.1506477399
  0
LINE
  8
CYAN
 10
71.6421062649
 20
59.1506477399
 11
73.6238667724
 21
61.3798309278
  0
LINE
  8
CYAN
 10
73.6238667724
 20
61.3798309278
 11
69.707927042
 21
65.4218610626
  0
ARC
  8
CYAN
 10
72.1797983741
 20
67.7841339512
 40
3.4191345516
 50
155.715776409
 51
223.7012276861
  0
LINE
  8
CYAN
 10
69.0632006344
 20
69.1902988105
 11
71.0996796194
 21
73.8104415543
  0
ARC
  8
CYAN
 10
80.0197102577
 20
69.8326883468
 40
9.7667531539
 50
140.0336696815
 51
155.966238477
  0
LINE
  8
CYAN
 10
72.5342553529
 20
76.1062385408
 11
74.1924631245
 21
78.0665874703
  0
ARC
  8
CYAN
 10
68.9093105458
 20
82.4427396315
 40
6.8602047279
 50
320.364295624
 51
325.5441325715
  0
LINE
  8
CYAN
 10
74.5659762094
 20
78.5614328311
 11
78.0013449643
 21
83.526539889
  0
ARC
  8
CYAN
 10
85.0547958009
 20
78.6371706477
 40
8.5823714835
 50
127.1548560796
 51
145.2707548114
  0
LINE
  8
CYAN
 10
79.8712894528
 20
85.4773725615
 11
86.7134781919
 21
91.1038594766
  0
LINE
  8
CYAN
 10
86.7134781919
 20
91.1038594766
 11
94.7856431404
 21
97.8818134814
  0
ARC
  8
CYAN
 10
101.0662533553
 20
90.3591458195
 40
9.7998261935
 50
108.4253665932
 51
129.8582136119
  0
LINE
  8
CYAN
 10
97.9688310864
 20
99.6565954005
 11
104.2662141158
 21
101.7382766059
  0
ARC
  8
CYAN
 10
108.0967472586
 20
90.2145369898
 40
12.1437044964
 50
81.8469073755
 51
108.3869953683
  0
LINE
  8
CYAN
 10
109.8189500397
 20
102.2355010309
 11
117.2059444885
 21
101.1934708961
  0
ARC
  8
CYAN
 10
115.8906397408
 20
91.946656805
 40
9.3398927946
 50
65.1975432816
 51
81.9043228729
  0
LINE
  8
CYAN
 10
119.8086407613
 20
100.4250331483
 11
126.596111023
 21
97.2894264869
  0
ARC
  8
CYAN
 10
123.2558741298
 20
90.060137344
 40
7.9636551918
 50
43.253212422
 51
65.2010688457
  0
LINE
  8
CYAN
 10
129.0560634417
 20
95.517023632
 11
139.5643901665
 21
84.3116310864
  0
ARC
  8
CYAN
 10
132.3484595731
 20
77.5465782004
 40
9.8911877386
 50
32.0713185909
 51
43.1528882014
  0
LINE
  8
CYAN
 10
140.7301316416
 20
82.7985462331
 11
149.3566185567
 21
69.064208406
  0
ARC
  8
CYAN
 10
143.2369192034
 20
65.2209242057
 40
7.2264482023
 50
18.2146507181
 51
32.1295797318
  0
LINE
  8
CYAN
 10
150.1012656622
 20
67.4797516257
 11
154.7118921491
 21
53.3980704203
  0
ARC
  8
CYAN
 10
141.9211849536
 20
49.1829095883
 40
13.4673594814
 50
14.5044584671
 51
18.239568192
  0
LINE
  8
CYAN
 10
154.9593148295
 20
52.5558816812
 11
157.53822046
 21
42.490060904
  0
ARC
  8
CYAN
 10
143.7462357902
 20
38.8172306321
 40
14.2726494856
 50
7.1028326044
 51
14.9118977147
  0
LINE
  8
CYAN
 10
157.9093544806
 20
40.5820513878
 11
159.596111023
 21
26.0554851705
  0
LINE
  8
CYAN
 10
159.596111023
 20
26.0554851705
 11
161.3566185567
 21
0.2497754163
  0
LINE
  8
CYAN
 10
161.3566185567
 20
0.2497754163
 11
162.5128437748
 21
-31.6558550357
  0
ARC
  8
CYAN
 10
149.8039943587
 20
-31.9992945792
 40
12.7134890648
 50
355.173374007
 51
1.5479645537
  0
LINE
  8
CYAN
 10
162.4723996828
 20
-33.0690191911
 11
161.6040412371
 21
-44.5955854084
  0
LINE
  8
CYAN
 10
161.6040412371
 20
-44.5955854084
 11
159.1750166535
 21
-73.3513348136
  0
ARC
  8
CYAN
 10
147.6386213859
 20
-72.4164918671
 40
11.5742104311
 50
350.416586848
 51
355.3672032274
  0
LINE
  8
CYAN
 10
159.0513053132
 20
-74.3434045995
 11
157.6619318002
 21
-82.2276234734
  0
LINE
  8
CYAN
 10
157.6619318002
 20
-82.2276234734
 11
154.6619318002
 21
-95.935791594
  0
LINE
  8
CYAN
 10
154.6619318002
 20
-95.935791594
 11
151.8808057098
 21
-109.3941579699
  0
ARC
  8
CYAN
 10
146.9034275167
 20
-108.3560197914
 40
5.0844886227
 50
343.8806693291
 51
348.2186450441
  0
LINE
  8
CYAN
 10
151.7880222046
 20
-109.7676710547
 11
146.3518604282
 21
-128.6074807296
  0
ARC
  8
CYAN
 10
140.09287346
 20
-126.7989752
 40
6.5150295562
 50
341.8253051005
 51
343.8835930618
  0
LINE
  8
CYAN
 10
146.2828675654
 20
-128.8311127676
 11
140.7800919905
 21
-145.8366639175
  0
ARC
  8
CYAN
 10
139.8506714518
 20
-145.5775684427
 40
0.9648590585
 50
164.2489007892
 51
344.4230726071
  0
LINE
  8
CYAN
 10
138.9220428232
 20
-145.3156488501
 11
140.2852466297
 21
-139.6653712926
  0
LINE
  8
CYAN
 10
140.2852466297
 20
-139.6653712926
 11
143.4327486122
 21
-126.9468938937
  0
ARC
  8
CYAN
 10
159.6419952682
 20
-130.7417961448
 40
16.6475511788
 50
156.9379443052
 51
166.8232617493
  0
LINE
  8
CYAN
 10
144.3248977002
 20
-124.2204862807
 11
146.6064203014
 21
-118.6915409992
  0
ARC
  8
CYAN
 10
132.7756047281
 20
-112.8518246582
 40
15.0131191418
 50
337.1093124407
 51
352.1615785961
  0
LINE
  8
CYAN
 10
147.6484504362
 20
-114.899312609
 11
148.761852498
 21
-106.496457732
  0
ARC
  8
CYAN
 10
155.9362691275
 20
-107.6652504867
 40
7.2689979005
 50
167.5581444337
 51
170.7471618803
  0
LINE
  8
CYAN
 10
148.8379825535
 20
-106.0991540048
 11
151.2907977795
 21
-93.3069256146
  0
LINE
  8
CYAN
 10
151.2907977795
 20
-93.3069256146
 11
154.3907184774
 21
-66.0143007137
  0
LINE
  8
CYAN
 10
154.3907184774
 20
-66.0143007137
 11
156.4985693894
 21
-38.1744910389
  0
LINE
  8
CYAN
 10
156.4985693894
 20
-38.1744910389
 11
157.3550325139
 21
-17.7716361618
  0
ARC
  8
CYAN
 10
134.1618442272
 20
-16.7870518485
 40
23.2140773922
 50
357.5691709934
 51
9.3551782749
  0
LINE
  8
CYAN
 10
157.0671657415
 20
-13.0135076923
 11
155.2709722443
 21
-2.1078772403
  0
ARC
  8
CYAN
 10
173.0070398495
 20
0.8163580222
 40
17.9755179611
 50
178.8029458773
 51
189.3624163111
  0
LINE
  8
CYAN
 10
155.035444885
 20
1.1918848533
 11
155.2662141158
 21
12.4472377478
  0
ARC
  8
CYAN
 10
137.2857205632
 20
12.8092062329
 40
17.9841366092
 50
358.8467243401
 51
7.0733284947
  0
LINE
  8
CYAN
 10
155.1329865186
 20
15.023764314
 11
152.8038826328
 21
33.9872853291
  0
ARC
  8
CYAN
 10
149.0013528388
 20
33.5899850095
 40
3.8232290512
 50
5.9648014116
 51
12.7621010799
  0
LINE
  8
CYAN
 10
152.7301316416
 20
34.4345494052
 11
149.0116542427
 21
49.2584986519
  0
LINE
  8
CYAN
 10
149.0116542427
 20
49.2584986519
 11
142.7142712133
 21
64.3798309278
  0
LINE
  8
CYAN
 10
142.7142712133
 20
64.3798309278
 11
139.690480571
 21
72.61139318
  0
ARC
  8
CYAN
 10
132.8134791488
 20
70.1356962068
 40
7.3090508319
 50
19.7987027414
 51
41.6219208582
  0
LINE
  8
CYAN
 10
138.2773164155
 20
74.9904574148
 11
125.187704996
 21
89.566983981
  0
ARC
  8
CYAN
 10
117.1955849774
 20
82.4380254133
 40
10.7096233665
 50
41.7329118985
 51
58.5556811135
  0
LINE
  8
CYAN
 10
122.7824710547
 20
91.5749141951
 11
117.0275146709
 21
95.0650014274
  0
ARC
  8
CYAN
 10
113.8586321865
 20
89.8643595021
 40
6.090032236
 50
58.6449930773
 51
94.1895582388
  0
LINE
  8
CYAN
 10
113.4137160983
 20
95.9381180016
 11
109.0005519429
 21
95.6240815226
  0
ARC
  8
CYAN
 10
110.0410600078
 20
81.7092015625
 40
13.9537285819
 50
94.2764275064
 51
120.3022187913
  0
LINE
  8
CYAN
 10
103.0005519429
 20
93.7565160983
 11
97.1266423473
 21
90.3116310864
  0
ARC
  8
CYAN
 10
103.5802165318
 20
79.3240126083
 40
12.7426990695
 50
120.4278325321
 51
138.5663910835
  0
LINE
  8
CYAN
 10
94.0267216495
 20
87.7565160983
 11
86.9133195876
 21
79.7509649485
  0
LINE
  8
CYAN
 10
86.9133195876
 20
79.7509649485
 11
80.9632799366
 21
73.503542268
  0
ARC
  8
CYAN
 10
84.8319399993
 20
69.785520661
 40
5.3656514378
 50
136.1374951715
 51
156.873866576
  0
LINE
  8
CYAN
 10
79.8974591594
 20
71.8929157811
 11
77.0306867565
 21
65.2291568596
  0
ARC
  8
CYAN
 10
78.0627742837
 20
64.8273979679
 40
1.1075264651
 50
158.7306171579
 51
310.4743459499
  0
LINE
  8
CYAN
 10
78.7816780333
 20
63.9849062649
 11
79.7951593973
 21
64.8556437748
  0
ARC
  8
CYAN
 10
81.4324392022
 20
62.8922814056
 40
2.5564578918
 50
87.183744799
 51
129.8252764843
  0
LINE
  8
CYAN
 10
81.5580459952
 20
65.445651705
 11
83.2923838224
 21
65.3528681998
  0
ARC
  8
CYAN
 10
83.4662310323
 20
69.511518224
 40
4.1622821715
 50
267.6062147247
 51
301.6072599842
  0
LINE
  8
CYAN
 10
85.6476574148
 20
65.9666667724
 11
92.5897668517
 21
70.2061592387
  0
ARC
  8
CYAN
 10
89.5433391863
 20
75.253685865
 40
5.8956124842
 50
301.1130226701
 51
322.5565645523
  0
LINE
  8
CYAN
 10
94.224183981
 20
71.6692837431
 11
95.9109405234
 21
73.9246366376
  0
ARC
  8
CYAN
 10
97.9641462082
 20
72.3639934285
 40
2.5790038407
 50
72.0009985452
 51
142.7615066273
  0
LINE
  8
CYAN
 10
98.7610594766
 20
74.8167857256
 11
99.8768406027
 21
74.4694423473
  0
LINE
  8
CYAN
 10
99.8768406027
 20
74.4694423473
 11
102.4795368755
 21
71.5194026963
  0
ARC
  8
CYAN
 10
101.4922006468
 20
70.660293926
 40
1.3087783264
 50
308.4402193765
 51
41.0274388592
  0
LINE
  8
CYAN
 10
102.3058651864
 20
69.6351838224
 11
99.5294972244
 21
67.4535819191
  0
ARC
  8
CYAN
 10
97.3061455313
 20
70.3244309797
 40
3.6311247679
 50
287.3656997743
 51
307.7562737478
  0
LINE
  8
CYAN
 10
98.389925456
 20
66.8588158604
 11
92.887149881
 21
65.1744383822
  0
ARC
  8
CYAN
 10
95.8624365424
 20
55.6790799275
 40
9.9505860582
 50
107.3979213862
 51
130.7572943181
  0
LINE
  8
CYAN
 10
89.3661348136
 20
63.2164685171
 11
83.7896082474
 21
58.4060006344
  0
ARC
  8
CYAN
 10
79.3929680645
 20
63.4668907489
 40
6.7039580584
 50
304.0320465022
 51
310.98242667
  0
LINE
  8
CYAN
 10
83.1448818398
 20
57.9111552736
 11
76.2527327518
 21
53.3266984933
  0
ARC
  8
CYAN
 10
74.1163809633
 20
56.4955412131
 40
3.8217225367
 50
290.9732031042
 51
303.9868300049
  0
LINE
  8
CYAN
 10
75.484295004
 20
52.9270157018
 11
71.4922252181
 21
51.4163099128
  0
ARC
  8
CYAN
 10
70.9935970047
 20
52.7634866032
 40
1.4364940412
 50
201.5987073649
 51
290.3109391293
  0
LINE
  8
CYAN
 10
69.6579666931
 20
52.2347080095
 11
69.5342553529
 21
52.5558816812
  0
ARC
  8
CYAN
 10
81.0701707005
 20
57.0303224401
 40
12.3732761633
 50
190.7910845533
 51
201.1998017571
  0
LINE
  8
CYAN
 10
38.7705757335
 20
-177.0713982554
 11
36.7126851705
 21
-179.1292888184
  0
ARC
  8
CYAN
 10
34.4635575607
 20
-176.9316293469
 40
3.1445639058
 50
290.6616644623
 51
315.6631249448
  0
LINE
  8
CYAN
 10
35.5731134021
 20
-179.8739359239
 11
27.6888945282
 21
-182.7502245837
  0
ARC
  8
CYAN
 10
25.7407814159
 20
-177.7152564957
 40
5.3987080256
 50
284.2570808178
 51
291.152285087
  0
LINE
  8
CYAN
 10
27.0703378271
 20
-182.9476869152
 11
19.4597113402
 21
-184.7319850912
  0
ARC
  8
CYAN
 10
18.8256485928
 20
-182.153735876
 40
2.6550714836
 50
268.6916353179
 51
283.8164301699
  0
LINE
  8
CYAN
 10
18.7650245837
 20
-184.8081151467
 11
8.5754924663
 21
-184.4108114195
  0
ARC
  8
CYAN
 10
8.8396823616
 20
-180.7302967032
 40
3.6899844008
 50
262.0303238772
 51
265.89431108
  0
LINE
  8
CYAN
 10
8.3280697859
 20
-184.3846417129
 11
-0.5458398097
 21
-183.4449113402
  0
ARC
  8
CYAN
 10
-0.0486984842
 20
-178.8825511409
 40
4.5893659786
 50
242.9937139776
 51
263.7812537518
  0
LINE
  8
CYAN
 10
-2.1326756542
 20
-182.9714775575
 11
-11.9986550357
 21
-177.9659264076
  0
ARC
  8
CYAN
 10
-8.3715283559
 20
-170.8920625468
 40
7.9495658921
 50
205.5540016997
 51
242.8534980894
  0
LINE
  8
CYAN
 10
-15.5434607454
 20
-174.3212
 11
-17.8249833466
 21
-169.6106528152
  0
ARC
  8
CYAN
 10
-7.7140009357
 20
-164.7639121522
 40
11.2126205843
 50
162.3021193838
 51
205.6109197853
  0
LINE
  8
CYAN
 10
-18.3959587629
 20
-161.3552999207
 11
-17.4276796194
 21
-158.2577582871
  0
ARC
  8
CYAN
 10
-8.4746269836
 20
-161.130542897
 40
9.4026614804
 50
138.9881568854
 51
162.2100147203
  0
LINE
  8
CYAN
 10
-15.569630452
 20
-154.9603752577
 11
-12.0486153846
 21
-150.8945544806
  0
ARC
  8
CYAN
 10
-7.6450619909
 20
-154.739181946
 40
5.8457200446
 50
105.652873092
 51
138.8766383503
  0
LINE
  8
CYAN
 10
-9.2222870738
 20
-149.1102563045
 11
-5.2325963521
 21
-147.9683054719
  0
ARC
  8
CYAN
 10
-4.105945806
 20
-152.1848059412
 40
4.364426384
 50
90.7985933481
 51
104.9599629618
  0
LINE
  8
CYAN
 10
-4.1667755749
 20
-147.8208034893
 11
0.8173639968
 21
-147.6614061856
  0
ARC
  8
CYAN
 10
0.8661234379
 20
-150.051503394
 40
2.3905945178
 50
17.4685751877
 51
91.1687067391
  0
LINE
  8
CYAN
 10
3.1464678826
 20
-149.3338883426
 11
4.0362379064
 21
-152.1102563045
  0
ARC
  8
CYAN
 10
8.229694763
 20
-150.7741789002
 40
4.4011570341
 50
197.6724005239
 51
212.3026064636
  0
LINE
  8
CYAN
 10
4.5096716891
 20
-153.1261167328
 11
6.3082442506
 21
-155.9833728787
  0
ARC
  8
CYAN
 10
7.2368265638
 20
-155.380273381
 40
1.107246186
 50
213.0030852767
 51
254.507917579
  0
LINE
  8
CYAN
 10
6.941075337
 20
-156.4472904044
 11
10.2622490087
 21
-157.3893998414
  0
ARC
  8
CYAN
 10
9.988494398
 20
-158.3431918823
 40
0.9923007831
 50
0.674573048
 51
73.9856165797
  0
LINE
  8
CYAN
 10
10.9807264076
 20
-158.3315092784
 11
10.9569357653
 21
-166.2894791435
  0
LINE
  8
CYAN
 10
10.9569357653
 20
-166.2894791435
 11
13.9307660587
 21
-166.4369811261
  0
LINE
  8
CYAN
 10
13.9307660587
 20
-166.4369811261
 11
13.9474195083
 21
-159.0261960349
  0
ARC
  8
CYAN
 10
15.1207164161
 20
-159.0256663377
 40
1.1732970274
 50
103.3860667785
 51
180.025866779
  0
LINE
  8
CYAN
 10
14.8490848533
 20
-157.8842452022
 11
17.4755717684
 21
-157.2157281523
  0
ARC
  8
CYAN
 10
17.1035348611
 20
-155.7034474016
 40
1.5573710314
 50
283.8209055051
 51
339.5550265636
  0
LINE
  8
CYAN
 10
18.5628041237
 20
-156.2474490087
 11
19.730924663
 21
-153.0523657415
  0
LINE
  8
CYAN
 10
19.730924663
 20
-153.0523657415
 11
20.9228358446
 21
-150.6471318002
  0
ARC
  8
CYAN
 10
23.9608089987
 20
-151.9866128386
 40
3.3201642034
 50
96.7057268797
 51
156.2067069115
  0
LINE
  8
CYAN
 10
23.5731134021
 20
-148.689161935
 11
28.13377954
 21
-148.1467352895
  0
ARC
  8
CYAN
 10
28.8804007982
 20
-154.4156951197
 40
6.3132638672
 50
75.929048217
 51
96.791826966
  0
LINE
  8
CYAN
 10
30.4153021412
 20
-148.2918582078
 11
34.13377954
 21
-149.2339676447
  0
ARC
  8
CYAN
 10
33.0553832852
 20
-153.6900914458
 40
4.5847549349
 50
61.0340898091
 51
76.3957918019
  0
LINE
  8
CYAN
 10
35.2757303727
 20
-149.6788526566
 11
36.9838984933
 21
-150.6495108644
  0
ARC
  8
CYAN
 10
35.1033959784
 20
-153.9932100302
 40
3.8362239011
 50
39.7674458979
 51
60.6465196208
  0
LINE
  8
CYAN
 10
38.0520983347
 20
-151.5392808882
 11
40.7785059477
 21
-154.8366639175
  0
ARC
  8
CYAN
 10
35.6666148848
 20
-159.1607011086
 40
6.6954258914
 50
18.4472626964
 51
40.2271532115
  0
LINE
  8
CYAN
 10
42.017998414
 20
-157.0420564631
 11
43.5310832672
 21
-161.7526036479
  0
ARC
  8
CYAN
 10
40.0768496248
 20
-162.9269886568
 40
3.6484120115
 50
353.9223316366
 51
18.7772239412
  0
LINE
  8
CYAN
 10
43.7047549564
 20
-163.3132697859
 11
43.0100681998
 21
-168.9659264076
  0
ARC
  8
CYAN
 10
38.5686556065
 20
-168.4534840857
 40
4.4708772023
 50
331.2675860817
 51
353.4184164163
  0
LINE
  8
CYAN
 10
42.4890531324
 20
-170.6027226011
 11
39.2892117367
 21
-176.379090563
  0
ARC
  8
CYAN
 10
36.6134804143
 20
-174.9150103751
 40
3.0500932619
 50
315.0093968754
 51
331.3138394872
  0
ARC
  8
CYAN
 10
-181.4260935765
 20
134.3124241079
 40
4.4256740255
 50
359.0451587461
 51
0.9548412539
  0
LINE
  8
CYAN
 10
-177.0010340999
 20
134.2386731166
 11
-178.3642379064
 21
117.0832409199
  0
LINE
  8
CYAN
 10
-178.3642379064
 20
117.0832409199
 11
-178.9590039651
 21
106.5487444885
  0
ARC
  8
CYAN
 10
-180.00366514
 20
106.5934712291
 40
1.0456182151
 50
306.6097757742
 51
357.5484019194
  0
LINE
  8
CYAN
 10
-179.3800983347
 20
105.7541370341
 11
-179.6560697859
 21
105.5590537669
  0
ARC
  8
CYAN
 10
-178.2650883377
 20
103.6474216187
 40
2.3641418864
 50
126.0411624168
 51
170.3532157066
  0
LINE
  8
CYAN
 10
-180.5958001586
 20
104.0435898493
 11
-180.7885043616
 21
102.9325668517
  0
ARC
  8
CYAN
 10
-182.7780294651
 20
103.2738704063
 40
2.0185881833
 50
317.5698857644
 51
350.2656482293
  0
LINE
  8
CYAN
 10
-181.2881078509
 20
101.911948295
 11
-184.2643172086
 21
98.6645256146
  0
LINE
  8
CYAN
 10
-184.2643172086
 20
98.6645256146
 11
-190.2214940523
 21
90.5162306106
  0
ARC
  8
CYAN
 10
-183.5921481431
 20
85.700711761
 40
8.1937445027
 50
144.0055603371
 51
153.2139034545
  0
LINE
  8
CYAN
 10
-190.9066645519
 20
89.3933122918
 11
-196.0644758129
 21
79.2037801745
  0
LINE
  8
CYAN
 10
-196.0644758129
 20
79.2037801745
 11
-198.7575765266
 21
72.9397040444
  0
ARC
  8
CYAN
 10
-203.1526761647
 20
74.8693477305
 40
4.8000443315
 50
326.7551977738
 51
336.296395006
  0
LINE
  8
CYAN
 10
-199.1382268041
 20
72.2378800952
 11
-203.4514702617
 21
65.6454931007
  0
ARC
  8
CYAN
 10
-208.4102246214
 20
68.9158803664
 40
5.940090712
 50
306.3621113202
 51
326.5944339932
  0
ARC
  8
CYAN
 10
-207.3453564999
 20
67.3789596698
 40
4.0714381048
 50
285.9308808147
 51
307.1177776591
  0
LINE
  8
CYAN
 10
-206.2278382236
 20
63.4638911975
 11
-209.4015099128
 21
62.5455724029
  0
LINE
  8
CYAN
 10
-209.4015099128
 20
62.5455724029
 11
-214.2833497224
 21
60.2902195083
  0
LINE
  8
CYAN
 10
-214.2833497224
 20
60.2902195083
 11
-222.4935003965
 21
56.0816548771
  0
ARC
  8
CYAN
 10
-223.0095262417
 20
57.0923459586
 40
1.1348035668
 50
121.6222961977
 51
297.0473716474
  0
LINE
  8
CYAN
 10
-223.6045233941
 20
58.0586572561
 11
-220.5807327518
 21
59.8929157811
  0
LINE
  8
CYAN
 10
-220.5807327518
 20
59.8929157811
 11
-215.7726439334
 21
63.9349459159
  0
LINE
  8
CYAN
 10
-215.7726439334
 20
63.9349459159
 11
-211.2357684378
 21
67.9270157018
  0
ARC
  8
CYAN
 10
-205.1622215912
 20
61.0347191572
 40
9.1864967728
 50
120.295460674
 51
131.3867604213
  0
LINE
  8
CYAN
 10
-209.7964345757
 20
68.9666667724
 11
-206.5751816019
 21
70.8508856463
  0
ARC
  8
CYAN
 10
-209.3511706606
 20
75.5856557155
 40
5.4885483383
 50
300.3830362589
 51
337.1413771415
  0
LINE
  8
CYAN
 10
-204.2936590008
 20
73.4535819191
 11
-202.5593211737
 21
77.5693630452
  0
LINE
  8
CYAN
 10
-202.5593211737
 20
77.5693630452
 11
-198.0961966693
 21
89.8881576527
  0
ARC
  8
CYAN
 10
-187.4083427332
 20
85.9269268884
 40
11.3983143898
 50
147.8285665463
 51
159.6638232599
  0
LINE
  8
CYAN
 10
-197.0565455987
 20
91.9960085646
 11
-192.3198287074
 21
99.6803860428
  0
ARC
  8
CYAN
 10
-181.4352004879
 20
92.8810994621
 40
12.8337613147
 50
140.7792810226
 51
148.008268789
  0
LINE
  8
CYAN
 10
-191.3777192704
 20
100.9960085646
 11
-187.3618588422
 21
105.9777690722
  0
ARC
  8
CYAN
 10
-191.2611538093
 20
109.1752168278
 40
5.0426355599
 50
320.6480199668
 51
337.7670881686
  0
LINE
  8
CYAN
 10
-186.5934210944
 20
107.2672218874
 11
-185.2611451229
 21
110.6169443299
  0
ARC
  8
CYAN
 10
-190.1139295257
 20
112.5753518998
 40
5.2330561501
 50
338.0227861795
 51
1.5843339704
  0
LINE
  8
CYAN
 10
-184.8828739096
 20
112.7200371134
 11
-184.8590832673
 21
121.3726937351
  0
LINE
  8
CYAN
 10
-184.8590832673
 20
121.3726937351
 11
-184.7092022205
 21
126.2307429025
  0
LINE
  8
CYAN
 10
-184.7092022205
 20
126.2307429025
 11
-184.2738334655
 21
135.9492203014
  0
ARC
  8
CYAN
 10
-185.6035830514
 20
135.9966270804
 40
1.3305943649
 50
357.9582182158
 51
8.645513133
  0
LINE
  8
CYAN
 10
-184.2881078509
 20
136.1966429818
 11
-184.4879492466
 21
137.486095797
  0
ARC
  8
CYAN
 10
-190.7624315445
 20
136.5451309275
 40
6.3446467981
 50
8.5289127196
 51
67.2018245846
  0
LINE
  8
CYAN
 10
-188.3039682791
 20
142.3941053132
 11
-192.7409230769
 21
144.2283638382
  0
ARC
  8
CYAN
 10
-192.1243107406
 20
145.7117279819
 40
1.6064183627
 50
153.2906529833
 51
247.4280730905
  0
LINE
  8
CYAN
 10
-193.5593211737
 20
146.4337563838
 11
-192.9407644726
 21
147.6756279144
  0
ARC
  8
CYAN
 10
-195.1051896397
 20
148.7982512146
 40
2.4382410418
 50
332.5855660477
 51
359.22423616
  0
LINE
  8
CYAN
 10
-192.6671720857
 20
148.7652393339
 11
-192.6695511499
 21
150.5495375099
  0
ARC
  8
CYAN
 10
-195.2458208957
 20
150.5747295279
 40
2.5763929128
 50
359.4397518715
 51
29.9962761686
  0
LINE
  8
CYAN
 10
-193.0145154639
 20
151.8627809675
 11
-194.0065852498
 21
153.5495375099
  0
ARC
  8
CYAN
 10
-196.4857977134
 20
152.1127300986
 40
2.865468544
 50
30.094087458
 51
84.0384494757
  0
LINE
  8
CYAN
 10
-196.1881871531
 20
154.9627016653
 11
-199.4356098335
 21
155.3100450436
  0
ARC
  8
CYAN
 10
-199.9435490984
 20
150.6758191271
 40
4.6619794232
 50
83.7450034605
 51
114.6565601858
  0
LINE
  8
CYAN
 10
-201.8884250595
 20
154.9127413164
 11
-203.1041268834
 21
154.3417659001
  0
ARC
  8
CYAN
 10
-204.347784772
 20
157.0514108917
 40
2.9814192803
 50
224.4731926385
 51
294.6539149561
  0
LINE
  8
CYAN
 10
-206.475260904
 20
154.9627016653
 11
-210.4411609834
 21
159.0285224425
  0
ARC
  8
CYAN
 10
-212.6305899713
 20
156.9035275419
 40
3.0510985924
 50
44.1443754904
 51
103.4688221316
  0
LINE
  8
CYAN
 10
-213.3412402855
 20
159.8707111816
 11
-216.2175289453
 21
159.1760244251
  0
ARC
  8
CYAN
 10
-214.8985642024
 20
153.8058140848
 40
5.529812573
 50
103.799140383
 51
126.341314217
  0
LINE
  8
CYAN
 10
-218.1754988105
 20
158.2600846947
 11
-223.5093608247
 21
154.3726937351
  0
ARC
  8
CYAN
 10
-226.8501954735
 20
158.9557832665
 40
5.6714976684
 50
293.9641393022
 51
306.0901091642
  0
LINE
  8
CYAN
 10
-224.5466328311
 20
153.773169548
 11
-231.4387819191
 21
150.6994185567
  0
LINE
  8
CYAN
 10
-231.4387819191
 20
150.6994185567
 11
-239.7940555115
 21
146.4837167328
  0
ARC
  8
CYAN
 10
-235.9269895857
 20
138.3533897609
 40
9.0031336514
 50
115.4373835995
 51
143.5103706275
  0
LINE
  8
CYAN
 10
-243.1651895321
 20
143.7073487708
 11
-245.7678858049
 21
140.1649221253
  0
ARC
  8
CYAN
 10
-237.9084438982
 20
134.3646094939
 40
9.7680322331
 50
143.5724643641
 51
152.3393555791
  0
LINE
  8
CYAN
 10
-246.5601141951
 20
138.8992599524
 11
-251.2540079302
 21
129.9301877875
  0
ARC
  8
CYAN
 10
-259.7220261387
 20
134.364709737
 40
9.5588868233
 50
323.7297814864
 51
332.359900493
  0
LINE
  8
CYAN
 10
-252.0153084853
 20
128.7097278351
 11
-260.3444123711
 21
117.3806239492
  0
LINE
  8
CYAN
 10
-260.3444123711
 20
117.3806239492
 11
-268.9161808089
 21
106.2656358446
  0
ARC
  8
CYAN
 10
-267.6810778831
 20
105.3847277269
 40
1.5170624078
 50
144.5025285668
 51
191.37107573
  0
LINE
  8
CYAN
 10
-269.1683616178
 20
105.0856199841
 11
-268.8471879461
 21
103.4488237906
  0
ARC
  8
CYAN
 10
-273.4151009093
 20
102.537978293
 40
4.6578394519
 50
342.5795830853
 51
11.2769174708
  0
LINE
  8
CYAN
 10
-268.9708992863
 20
101.1435105472
 11
-269.6893766852
 21
98.8643670103
  0
ARC
  8
CYAN
 10
-255.490745611
 20
94.4357167716
 40
14.8732668677
 50
162.6769422041
 51
168.40538447
  0
LINE
  8
CYAN
 10
-270.0605107058
 20
97.4250331483
 11
-271.7710578906
 21
89.293391594
  0
LINE
  8
CYAN
 10
-271.7710578906
 20
89.293391594
 11
-272.4919143537
 21
81.8826065028
  0
ARC
  8
CYAN
 10
-273.2750996281
 20
82.0396168085
 40
0.7987686838
 50
193.2575106231
 51
348.6638141146
  0
LINE
  8
CYAN
 10
-274.0525804917
 20
81.8564367962
 11
-275.0684409199
 21
90.6328047581
  0
ARC
  8
CYAN
 10
-264.9336272799
 20
91.7854613799
 40
10.2001502344
 50
173.5114943549
 51
186.4885056451
  0
LINE
  8
CYAN
 10
-275.0684409199
 20
92.9381180016
 11
-274.8305344964
 21
95.1958499604
  0
ARC
  8
CYAN
 10
-281.5146855807
 20
95.9199569769
 40
6.7232586362
 50
353.8171490596
 51
357.6197784703
  0
LINE
  8
CYAN
 10
-274.7972275972
 20
95.6407349722
 11
-274.4546423473
 21
103.0538991277
  0
ARC
  8
CYAN
 10
-268.0781530484
 20
102.7562046223
 40
6.3834346396
 50
150.4539965745
 51
177.3270146212
  0
LINE
  8
CYAN
 10
-273.6314861221
 20
105.9040180809
 11
-272.6394163362
 21
107.6645256146
  0
LINE
  8
CYAN
 10
-272.6394163362
 20
107.6645256146
 11
-272.2682823156
 21
110.2910125297
  0
LINE
  8
CYAN
 10
-272.2682823156
 20
110.2910125297
 11
-268.6735162569
 21
116.141131483
  0
ARC
  8
CYAN
 10
-256.1218190057
 20
108.3817876628
 40
14.7564399638
 50
139.4486060263
 51
148.2760245284
  0
LINE
  8
CYAN
 10
-267.3341030928
 20
117.9753900079
 11
-262.3761332276
 21
123.8255089611
  0
ARC
  8
CYAN
 10
-269.6213596224
 20
130.0477744112
 40
9.550387052
 50
319.3437198968
 51
329.599487869
  0
LINE
  8
CYAN
 10
-261.3840634417
 20
125.2148824742
 11
-256.502223632
 21
133.593946709
  0
LINE
  8
CYAN
 10
-256.502223632
 20
133.593946709
 11
-254.444333069
 21
139.6415279937
  0
LINE
  8
CYAN
 10
-254.444333069
 20
139.6415279937
 11
-253.3285519429
 21
142.4202750198
  0
ARC
  8
CYAN
 10
-246.7825540545
 20
139.7931305464
 40
7.0535080945
 50
132.4605553044
 51
158.1326330158
  0
LINE
  8
CYAN
 10
-251.5442537669
 20
144.996801586
 11
-246.7837462332
 21
149.3837960349
  0
LINE
  8
CYAN
 10
-246.7837462332
 20
149.3837960349
 11
-238.2310103093
 21
155.283875337
  0
LINE
  8
CYAN
 10
-238.2310103093
 20
155.283875337
 11
-231.1413988898
 21
159.6970394925
  0
LINE
  8
CYAN
 10
-231.1413988898
 20
159.6970394925
 11
-219.7885043616
 21
164.8548507534
  0
LINE
  8
CYAN
 10
-219.7885043616
 20
164.8548507534
 11
-216.3912006344
 21
166.9103622522
  0
ARC
  8
CYAN
 10
-213.4386894287
 20
161.9337534239
 40
5.7865324548
 50
77.415029647
 51
120.6797124139
  0
LINE
  8
CYAN
 10
-212.1778778747
 20
167.5812583664
 11
-208.7068231562
 21
166.8342321967
  0
ARC
  8
CYAN
 10
-207.1872455702
 20
173.7513885369
 40
7.0821019391
 50
257.6099390543
 51
262.0887643851
  0
LINE
  8
CYAN
 10
-208.1620174465
 20
166.736690563
 11
-205.359479778
 21
166.3417659001
  0
ARC
  8
CYAN
 10
-204.6088981802
 20
171.920638298
 40
5.6291375865
 50
262.3374370613
 51
280.8281031782
  0
LINE
  8
CYAN
 10
-203.5513909596
 20
166.391726249
 11
-198.0985757335
 21
167.4147238699
  0
ARC
  8
CYAN
 10
-196.440028232
 20
158.5811149096
 40
8.9879601178
 50
83.1612927463
 51
100.6337265617
  0
LINE
  8
CYAN
 10
-195.3697890563
 20
167.5051283109
 11
-190.1144361618
 21
166.8627809675
  0
ARC
  8
CYAN
 10
-190.1759815487
 20
166.4196316385
 40
0.4474026848
 50
329.3999569821
 51
82.0932344486
  0
LINE
  8
CYAN
 10
-189.7908834259
 20
166.1918848533
 11
-193.2619381443
 21
160.8865716098
  0
LINE
  8
CYAN
 10
-193.2619381443
 20
160.8865716098
 11
-190.8329135607
 21
159.2021941316
  0
LINE
  8
CYAN
 10
-190.8329135607
 20
159.2021941316
 11
-187.4855701824
 21
164.283875337
  0
ARC
  8
CYAN
 10
-187.0924925025
 20
164.0150085021
 40
0.4762346453
 50
27.3652336294
 51
145.627703081
  0
LINE
  8
CYAN
 10
-186.6695511499
 20
164.2339149881
 11
-184.9590039651
 21
160.9127413164
  0
ARC
  8
CYAN
 10
-190.9837030142
 20
157.8155123182
 40
6.7742029863
 50
10.0902975469
 51
27.2071785587
  0
LINE
  8
CYAN
 10
-184.3142775575
 20
159.0023527359
 11
-183.4459191118
 21
154.1205129263
  0
ARC
  8
CYAN
 10
-179.3611738557
 20
154.8750773499
 40
4.1538549898
 50
190.4661161599
 51
199.6860237899
  0
LINE
  8
CYAN
 10
-183.2722474227
 20
153.4757865186
 11
-181.8424298176
 21
149.4075866772
  0
ARC
  8
CYAN
 10
-177.1489004543
 20
151.0711298074
 40
4.9796178196
 50
199.5160219723
 51
225.0076608855
  0
LINE
  8
CYAN
 10
-180.6695511499
 20
147.5495375099
 11
-178.735371927
 21
145.6177373513
  0
ARC
  8
CYAN
 10
-181.9568875736
 20
142.3804192588
 40
4.5670988049
 50
2.9785761534
 51
45.1401819109
  0
LINE
  8
CYAN
 10
-177.3959587629
 20
142.6177373513
 11
-177.0010340999
 21
134.8096485329
  0
ARC
  8
CYAN
 10
-181.4141982554
 20
134.597911816
 40
4.418240634
 50
357.2531444697
 51
2.7468555303
  0
ARC
  8
CYAN
 10
-156.1501680948
 20
38.0102103685
 40
13.2142417464
 50
332.2527206178
 51
340.0081505347
  0
LINE
  8
CYAN
 10
-143.7321998414
 20
33.4924399683
 11
-141.8551181602
 21
38.6764209358
  0
ARC
  8
CYAN
 10
-133.0247718708
 20
35.4751425894
 40
9.3927205133
 50
145.4226496255
 51
160.0728261067
  0
LINE
  8
CYAN
 10
-140.758369548
 20
40.8056834259
 11
-137.484777161
 21
45.5661909596
  0
ARC
  8
CYAN
 10
-139.9346551232
 20
47.2590250111
 40
2.9778497538
 50
325.356027466
 51
348.7797716588
  0
LINE
  8
CYAN
 10
-137.0137224425
 20
46.6795930214
 11
-136.3475844568
 21
50.1268570975
  0
ARC
  8
CYAN
 10
-138.8242198643
 20
50.6232056751
 40
2.5258829847
 50
348.6673464226
 51
13.5841629966
  0
LINE
  8
CYAN
 10
-136.3689960349
 20
51.2164685171
 11
-137.3372751784
 21
55.1086176051
  0
ARC
  8
CYAN
 10
-130.9920498072
 20
56.6486807509
 40
6.5294471056
 50
173.9207075786
 51
193.6425728305
  0
LINE
  8
CYAN
 10
-137.484777161
 20
57.3401798573
 11
-137.1136431404
 21
60.8611949247
  0
ARC
  8
CYAN
 10
-140.1352755785
 20
61.1867140272
 40
3.039115871
 50
353.8512649912
 51
18.9658081682
  0
LINE
  8
CYAN
 10
-137.2611451229
 20
62.1744383822
 11
-137.9582109437
 21
64.1561988898
  0
ARC
  8
CYAN
 10
-132.2555410988
 20
66.1398583298
 40
6.0378264411
 50
173.3885716677
 51
199.1801024045
  0
LINE
  8
CYAN
 10
-138.2532149088
 20
66.8350252181
 11
-138.0557525773
 21
68.5955327518
  0
ARC
  8
CYAN
 10
-140.6297777543
 20
68.9144637987
 40
2.5937082767
 50
352.9368432836
 51
13.3074176406
  0
LINE
  8
CYAN
 10
-138.1057129263
 20
69.5114724822
 11
-139.816260111
 21
76.5463654243
  0
ARC
  8
CYAN
 10
-138.9729235379
 20
76.7244600932
 40
0.8619363588
 50
18.5302219696
 51
191.9244424248
  0
LINE
  8
CYAN
 10
-138.1556732752
 20
76.9983876289
 11
-135.2936590008
 21
68.3171822363
  0
ARC
  8
CYAN
 10
-141.9260273903
 20
66.156844502
 40
6.975340105
 50
11.1317396115
 51
18.0417991125
  0
LINE
  8
CYAN
 10
-135.0819222839
 20
67.503542268
 11
-131.7726439334
 21
56.4932329897
  0
ARC
  8
CYAN
 10
-137.485778361
 20
54.8163755692
 40
5.9541377039
 50
5.683188744
 51
16.3574483199
  0
LINE
  8
CYAN
 10
-131.5609072165
 20
55.4060006344
 11
-130.7734369548
 21
47.7953741475
  0
ARC
  8
CYAN
 10
-138.8002943459
 20
46.9553574552
 40
8.0706918923
 50
348.4727488207
 51
5.9743002175
  0
LINE
  8
CYAN
 10
-130.8923901665
 20
45.3425589215
 11
-132.2056336241
 21
37.6581814433
  0
LINE
  8
CYAN
 10
-132.2056336241
 20
37.6581814433
 11
-134.7607486122
 21
24.2212266455
  0
ARC
  8
CYAN
 10
-142.170769627
 20
25.6372191161
 40
7.5441000866
 50
340.5828796067
 51
349.1816823621
  0
LINE
  8
CYAN
 10
-135.0557525773
 20
23.1292361618
 11
-137.5894559873
 21
15.8945018239
  0
ARC
  8
CYAN
 10
-130.2478116737
 20
13.3119172719
 40
7.7826399246
 50
160.6195580284
 51
186.3965628167
  0
LINE
  8
CYAN
 10
-137.982001586
 20
12.4448586836
 11
-137.6346582078
 21
9.34731705
  0
ARC
  8
CYAN
 10
-140.6374059724
 20
9.0195866536
 40
3.0205796382
 50
330.6016633214
 51
6.2288067664
  0
LINE
  8
CYAN
 10
-138.0057922284
 20
7.5368491673
 11
-139.8400507534
 21
4.2656358446
  0
ARC
  8
CYAN
 10
-145.3472505017
 20
7.2898540263
 40
6.2829248507
 50
312.7854431057
 51
331.227094473
  0
LINE
  8
CYAN
 10
-141.0795432197
 20
2.6788
 11
-143.484777161
 21
0.5209887391
  0
LINE
  8
CYAN
 10
-143.484777161
 20
0.5209887391
 11
-146.0636827914
 21
-2.2054188739
  0
ARC
  8
CYAN
 10
-142.2852043918
 20
-5.5893423022
 40
5.072261506
 50
138.1530637169
 51
182.9473050771
  0
LINE
  8
CYAN
 10
-147.3507565424
 20
-5.8501452815
 11
-147.2103917526
 21
-9.0214379064
  0
ARC
  8
CYAN
 10
-155.7561384283
 20
-9.4435028197
 40
8.5561629856
 50
339.8382302833
 51
2.8274772631
  0
LINE
  8
CYAN
 10
-147.7242696273
 20
-12.392571927
 11
-148.9399714512
 21
-15.7399153053
  0
ARC
  8
CYAN
 10
-132.6765942841
 20
-21.7134518544
 40
17.3257200654
 50
159.8317221009
 51
164.6575768785
  0
LINE
  8
CYAN
 10
-149.3848564631
 20
-17.1292888184
 11
-150.6243489294
 21
-21.6162039651
  0
ARC
  8
CYAN
 10
-154.667151973
 20
-20.5039736845
 40
4.1930075895
 50
327.1315982935
 51
344.6176953594
  0
LINE
  8
CYAN
 10
-151.1453639968
 20
-22.7795663759
 11
-153.3507565424
 21
-26.2006607454
  0
ARC
  8
CYAN
 10
-158.1962834654
 20
-23.1966151873
 40
5.7011771483
 50
318.5701534779
 51
328.2026343083
  0
LINE
  8
CYAN
 10
-153.9217319588
 20
-26.9690984933
 11
-158.1350547185
 21
-31.5821040444
  0
ARC
  8
CYAN
 10
-160.3198236501
 20
-29.597419414
 40
2.9516416393
 50
301.993165428
 51
317.7474099384
  0
LINE
  8
CYAN
 10
-158.7559904837
 20
-32.1007400476
 11
-160.5950071372
 21
-33.2331746233
  0
ARC
  8
CYAN
 10
-163.0454405779
 20
-29.3244015104
 40
4.6133644226
 50
239.3349950584
 51
302.0838472281
  0
LINE
  8
CYAN
 10
-165.3983378271
 20
-33.2926512292
 11
-166.5878699445
 21
-32.5717947661
  0
LINE
  8
CYAN
 10
-166.5878699445
 20
-32.5717947661
 11
-168.7195114988
 21
-31.7533966693
  0
ARC
  8
CYAN
 10
-168.0779282819
 20
-30.098422177
 40
1.7749843928
 50
164.4221658315
 51
248.810204732
  0
LINE
  8
CYAN
 10
-169.7877113402
 20
-29.621755115
 11
-166.664
 21
-17.9714775575
  0
LINE
  8
CYAN
 10
-166.664
 20
-17.9714775575
 11
-169.4641586043
 21
-16.9794077716
  0
LINE
  8
CYAN
 10
-169.4641586043
 20
-16.9794077716
 11
-172.4927073751
 21
-28.6058946868
  0
ARC
  8
CYAN
 10
-173.331295269
 20
-28.3818389838
 40
0.8680038097
 50
233.2079942954
 51
345.0410130356
  0
LINE
  8
CYAN
 10
-173.8511530531
 20
-29.0769494052
 11
-175.8590832673
 21
-27.5900342585
  0
ARC
  8
CYAN
 10
-172.9579427141
 20
-23.6773442885
 40
4.8709094952
 50
208.8411666857
 51
233.4441901412
  0
LINE
  8
CYAN
 10
-177.224666138
 20
-26.0269890563
 11
-178.6877906424
 21
-23.3767114988
  0
ARC
  8
CYAN
 10
-174.3977646394
 20
-20.9980282486
 40
4.905349846
 50
174.4570765435
 51
209.0069774429
  0
LINE
  8
CYAN
 10
-179.2801776368
 20
-20.5242134814
 11
-179.1326756542
 21
-18.9635473434
  0
ARC
  8
CYAN
 10
-181.9280761301
 20
-18.6280992863
 40
2.8154554195
 50
353.1572265874
 51
6.8427734126
  0
LINE
  8
CYAN
 10
-179.1326756542
 20
-18.2926512292
 11
-179.5775606661
 21
-15.168939889
  0
ARC
  8
CYAN
 10
-175.3240179788
 20
-14.5843488121
 40
4.2935267695
 50
134.5875809449
 51
187.8254932451
  0
LINE
  8
CYAN
 10
-178.3380681998
 20
-11.5265925456
 11
-177.1295035686
 21
-9.5900342585
  0
ARC
  8
CYAN
 10
-178.8351730705
 20
-8.5261322141
 40
2.0102726208
 50
328.0463726322
 51
2.8359271619
  0
LINE
  8
CYAN
 10
-176.8273624108
 20
-8.4266718477
 11
-177.0010340999
 21
-5.0317471848
  0
ARC
  8
CYAN
 10
-174.5879115305
 20
-4.9183895793
 40
2.4157836165
 50
125.3372976957
 51
182.689519933
  0
LINE
  8
CYAN
 10
-175.9851736717
 20
-2.9476869151
 11
-174.4482981761
 21
-1.8319057891
  0
ARC
  8
CYAN
 10
-175.6362949849
 20
-0.1950983591
 40
2.0224922696
 50
305.9721902479
 51
348.6019193518
  0
LINE
  8
CYAN
 10
-173.6536907217
 20
-0.594792387
 11
-172.9090436162
 21
3.1498547185
  0
ARC
  8
CYAN
 10
-169.71819199
 20
2.5012018506
 40
3.2561149616
 50
126.8191090482
 51
168.5091945887
  0
LINE
  8
CYAN
 10
-171.6695511499
 20
5.1078245837
 11
-168.7195114988
 21
7.3393868358
  0
ARC
  8
CYAN
 10
-166.1467653075
 20
3.8821369012
 40
4.3094779354
 50
112.6099983271
 51
126.6551381437
  0
LINE
  8
CYAN
 10
-167.8035717684
 20
7.8604019033
 11
-166.6663790642
 21
8.3600053925
  0
ARC
  8
CYAN
 10
-165.2003862534
 20
4.8605085997
 40
3.7941550739
 50
91.8758960996
 51
112.7295565509
  0
LINE
  8
CYAN
 10
-165.3245868358
 20
8.6526302934
 11
-163.0192735924
 21
8.7263812847
  0
ARC
  8
CYAN
 10
-163.0955662824
 20
11.4289397362
 40
2.7036351008
 50
271.6170190571
 51
307.9624817446
  0
LINE
  8
CYAN
 10
-161.4324377478
 20
9.297356701
 11
-158.8535321174
 21
11.3314566217
  0
ARC
  8
CYAN
 10
-156.1427184823
 20
7.8575038982
 40
4.4064564096
 50
94.9694812725
 51
127.9658216057
  0
LINE
  8
CYAN
 10
-156.5244282316
 20
12.2473963521
 11
-153.8955622522
 21
12.4948190325
  0
ARC
  8
CYAN
 10
-154.1833999212
 20
15.5210134835
 40
3.0398525259
 50
275.4333647206
 51
345.3106229871
  0
LINE
  8
CYAN
 10
-151.2429056305
 20
14.750171927
 11
-149.3111054719
 21
22.1633360825
  0
ARC
  8
CYAN
 10
-140.7837460358
 20
19.8825588635
 40
8.8271061891
 50
151.8460933118
 51
165.0258428756
  0
LINE
  8
CYAN
 10
-148.5664583664
 20
24.0475549564
 11
-144.4554353688
 21
31.858022839
  0
LINE
  8
CYAN
 10
-136.0240317209
 20
-123.3782975416
 11
-142.592628073
 21
-129.2783768438
  0
ARC
  8
CYAN
 10
-133.7721998306
 20
-139.1004648399
 40
13.2012638403
 50
131.9244632036
 51
139.6924317271
  0
LINE
  8
CYAN
 10
-143.839257732
 20
-130.5606924663
 11
-147.4007168914
 21
-134.7573617764
  0
ARC
  8
CYAN
 10
-154.5611393414
 20
-128.6787583413
 40
9.3926071665
 50
305.0756778133
 51
319.6715109101
  0
LINE
  8
CYAN
 10
-149.1636034893
 20
-136.3656091991
 11
-153.8955622522
 21
-139.689161935
  0
ARC
  8
CYAN
 10
-152.186806564
 20
-142.1201012127
 40
2.9714157861
 50
125.1041482318
 51
148.7035874072
  0
LINE
  8
CYAN
 10
-154.7258556701
 20
-140.5765528945
 11
-156.5482188739
 21
-143.6074807296
  0
ARC
  8
CYAN
 10
-154.3936495486
 20
-144.9232136876
 40
2.5245439577
 50
148.5887987655
 51
173.1781373104
  0
LINE
  8
CYAN
 10
-156.9003203807
 20
-144.6233411578
 11
-157.3428263283
 21
-148.5892412371
  0
ARC
  8
CYAN
 10
-163.8059792897
 20
-147.8301427391
 40
6.5075784077
 50
333.3930743801
 51
353.3012896052
  0
LINE
  8
CYAN
 10
-157.9875527359
 20
-150.7446734338
 11
-159.5482188739
 21
-153.9183451229
  0
ARC
  8
CYAN
 10
-156.7959810892
 20
-155.282922272
 40
3.0719511095
 50
153.627490857
 51
178.5986963154
  0
LINE
  8
CYAN
 10
-159.8670134814
 20
-155.2077979381
 11
-159.8955622522
 21
-157.2894791435
  0
ARC
  8
CYAN
 10
-165.9436533348
 20
-157.1678033007
 40
6.0493148996
 50
333.0311084361
 51
358.8474756989
  0
LINE
  8
CYAN
 10
-160.552183981
 20
-159.9112079302
 11
-161.3586867565
 21
-161.5051809675
  0
ARC
  8
CYAN
 10
-159.0357171714
 20
-162.7081643178
 40
2.6159810081
 50
152.6219674109
 51
172.598296395
  0
LINE
  8
CYAN
 10
-161.6299000793
 20
-162.3711603489
 11
-162.4744678826
 21
-169.5606924663
  0
ARC
  8
CYAN
 10
-163.3297326952
 20
-169.4868396577
 40
0.8584475156
 50
175.0783471174
 51
355.0647053962
  0
LINE
  8
CYAN
 10
-164.1850150674
 20
-169.4131904837
 11
-163.8614623315
 21
-160.2894791435
  0
ARC
  8
CYAN
 10
-156.8949526381
 20
-160.5305367361
 40
6.9706790251
 50
171.0401851034
 51
178.01822219
  0
LINE
  8
CYAN
 10
-163.7805741475
 20
-159.4449113402
 11
-163.0430642347
 21
-147.9683054719
  0
ARC
  8
CYAN
 10
-157.0908541394
 20
-148.3265025612
 40
5.9629782973
 50
165.7124003915
 51
176.5561598177
  0
LINE
  8
CYAN
 10
-162.8693925456
 20
-146.85490341
 11
-160.9613830293
 21
-139.4655298969
  0
ARC
  8
CYAN
 10
-153.153848209
 20
-141.4747536827
 40
8.0619216191
 50
148.0635925038
 51
165.5684069009
  0
LINE
  8
CYAN
 10
-159.99548295
 20
-137.2101770024
 11
-156.0771641554
 21
-130.4679089611
  0
LINE
  8
CYAN
 10
-156.0771641554
 20
-130.4679089611
 11
-149.0375130849
 21
-118.7415013481
  0
ARC
  8
CYAN
 10
-142.5680963345
 20
-122.6359590217
 40
7.5511690261
 50
140.3348043687
 51
148.9529122585
  0
LINE
  8
CYAN
 10
-148.3808913561
 20
-117.8160453608
 11
-143.484777161
 21
-111.899312609
  0
ARC
  8
CYAN
 10
-149.4837532018
 20
-106.9393152106
 40
7.7839121097
 50
320.4158077686
 51
345.9941694486
  0
LINE
  8
CYAN
 10
-141.9312482157
 20
-108.8231825535
 11
-141.1794639175
 21
-105.8017709754
  0
ARC
  8
CYAN
 10
-138.2537007407
 20
-106.5210285082
 40
3.0128759625
 50
129.9859286381
 51
166.1885282096
  0
LINE
  8
CYAN
 10
-140.1897731959
 20
-104.2125560666
 11
-137.3372751784
 21
-101.7859105472
  0
ARC
  8
CYAN
 10
-133.2737320067
 20
-106.5715802853
 40
6.2781380959
 50
111.7774614272
 51
130.3348020759
  0
LINE
  8
CYAN
 10
-135.6029373513
 20
-100.7415013481
 11
-132.1794639175
 21
-99.4068463125
  0
LINE
  8
CYAN
 10
-132.1794639175
 20
-99.4068463125
 11
-129.255593973
 21
-97.8937614592
  0
ARC
  8
CYAN
 10
-131.5850238562
 20
-93.407235396
 40
5.0552111425
 50
297.4385963664
 51
342.6448523574
  0
LINE
  8
CYAN
 10
-126.7599555908
 20
-94.9151730373
 11
-125.8083298969
 21
-91.8937614592
  0
ARC
  8
CYAN
 10
-117.6265494061
 20
-94.4680389578
 40
8.577204477
 50
139.6125675548
 51
162.5345807747
  0
LINE
  8
CYAN
 10
-124.1596383822
 20
-88.9104149088
 11
-121.8424298176
 21
-86.1935235527
  0
ARC
  8
CYAN
 10
-135.0470882533
 20
-74.957912996
 40
17.3378761383
 50
319.6061270749
 51
324.3964080401
  0
LINE
  8
CYAN
 10
-120.9502807296
 20
-85.0515727201
 11
-118.2476637589
 21
-81.2855140365
  0
ARC
  8
CYAN
 10
-114.8143778034
 20
-83.7284382644
 40
4.2137075404
 50
127.0896834135
 51
144.5665838286
  0
LINE
  8
CYAN
 10
-117.3555146709
 20
-80.3671952419
 11
-114.0843013481
 21
-77.9143800159
  0
ARC
  8
CYAN
 10
-110.6197120644
 20
-82.4532069158
 40
5.7100200116
 50
117.6086232299
 51
127.3553132716
  0
LINE
  8
CYAN
 10
-113.2659032514
 20
-77.3933649485
 11
-107.7131673275
 21
-74.540866931
  0
ARC
  8
CYAN
 10
-106.3348700184
 20
-77.167275934
 40
2.966096378
 50
102.3352248255
 51
117.689768187
  0
LINE
  8
CYAN
 10
-106.968520222
 20
-74.2696536082
 11
-104.8368786677
 21
-73.8485592387
  0
ARC
  8
CYAN
 10
-103.9208326408
 20
-78.3854728417
 40
4.6284690087
 50
39.1393399758
 51
101.415092944
  0
LINE
  8
CYAN
 10
-100.3309310071
 20
-75.4639438541
 11
-99.4340237906
 21
-76.5487971451
  0
LINE
  8
CYAN
 10
-99.4340237906
 20
-76.5487971451
 11
-97.7472672482
 21
-78.0618819984
  0
ARC
  8
CYAN
 10
-98.9034559717
 20
-79.3897140122
 40
1.7606561905
 50
324.2989528019
 51
48.9527966094
  0
LINE
  8
CYAN
 10
-97.4736748612
 20
-80.4171555908
 11
-104.4395749405
 21
-90.2831349722
  0
LINE
  8
CYAN
 10
-104.4395749405
 20
-90.2831349722
 11
-102.1604314037
 21
-92.1673538462
  0
LINE
  8
CYAN
 10
-102.1604314037
 20
-92.1673538462
 11
-95.292072958
 21
-82.3251651071
  0
ARC
  8
CYAN
 10
-94.5821530245
 20
-82.8081326081
 40
0.8586290928
 50
32.1412475098
 51
145.7720508051
  0
LINE
  8
CYAN
 10
-93.8551181602
 20
-82.3513348136
 11
-92.4919143537
 21
-84.433016019
  0
ARC
  8
CYAN
 10
-96.5806844591
 20
-87.1116555534
 40
4.8880620628
 50
8.7603388532
 51
33.2296536122
  0
LINE
  8
CYAN
 10
-91.7496463125
 20
-86.3671952419
 11
-91.3023822363
 21
-89.3671952419
  0
ARC
  8
CYAN
 10
-96.1605643422
 20
-90.0865314095
 40
4.9111483276
 50
333.9783509793
 51
8.4224161186
  0
LINE
  8
CYAN
 10
-91.7472672482
 20
-92.2411048374
 11
-92.4181633624
 21
-93.6804386994
  0
ARC
  8
CYAN
 10
-89.9177343335
 20
-94.9491343807
 40
2.8038783961
 50
153.0971638281
 51
166.0924340897
  0
LINE
  8
CYAN
 10
-92.6394163362
 20
-94.2752047581
 11
-93.3103124504
 21
-97.3727463918
  0
ARC
  8
CYAN
 10
-97.4813216248
 20
-96.447914766
 40
4.2723098048
 50
294.0628410393
 51
347.4981518614
  0
LINE
  8
CYAN
 10
-95.7393370341
 20
-100.3489557494
 11
-97.5498049167
 21
-101.7359501983
  0
ARC
  8
CYAN
 10
-96.3091192235
 20
-103.3448535845
 40
2.0317162932
 50
127.6371630016
 51
162.9585434159
  0
LINE
  8
CYAN
 10
-98.251628866
 20
-102.7494315623
 11
-99.2603521015
 21
-105.9754426646
  0
ARC
  8
CYAN
 10
-101.5654542937
 20
-105.2567608664
 40
2.4145392197
 50
285.4817244658
 51
342.6836329637
  0
LINE
  8
CYAN
 10
-100.9209389374
 20
-107.5836900872
 11
-102.7551974623
 21
-108.1070842189
  0
ARC
  8
CYAN
 10
-102.2093145516
 20
-110.0642555073
 40
2.0318729302
 50
105.5845425297
 51
147.5178062929
  0
LINE
  8
CYAN
 10
-103.9233180016
 20
-108.9730636003
 11
-105.9288691515
 21
-112.2466559873
  0
ARC
  8
CYAN
 10
-108.6972174514
 20
-110.5348679936
 40
3.254838006
 50
286.2408510709
 51
328.2697278362
  0
LINE
  8
CYAN
 10
-107.7869183188
 20
-113.6598201427
 11
-111.3079333862
 21
-114.7018502776
  0
ARC
  8
CYAN
 10
-112.5433173007
 20
-110.5615843702
 40
4.3206452295
 50
272.564907781
 51
286.6141956373
  0
LINE
  8
CYAN
 10
-112.349963521
 20
-114.8779010309
 11
-113.5870769231
 21
-114.949272958
  0
ARC
  8
CYAN
 10
-113.7600078569
 20
-111.1809382718
 40
3.7723005468
 50
251.5310290416
 51
272.6274911551
  0
LINE
  8
CYAN
 10
-114.9550388581
 20
-114.7589478192
 11
-117.1580523394
 21
-114.0309541634
  0
ARC
  8
CYAN
 10
-118.0006188629
 20
-116.6098581724
 40
2.7130544105
 50
71.9070103963
 51
107.6011833571
  0
LINE
  8
CYAN
 10
-118.8210182395
 20
-114.0238169707
 11
-121.9661411578
 21
-115.0230239492
  0
ARC
  8
CYAN
 10
-123.3044315328
 20
-110.8096753535
 40
4.4207835863
 50
255.0148846556
 51
287.6214645049
  0
LINE
  8
CYAN
 10
-124.4475051546
 20
-115.0801214909
 11
-127.0002410785
 21
-114.3782975416
  0
ARC
  8
CYAN
 10
-127.7930675497
 20
-117.3047655294
 40
3.0319611964
 50
74.8415289412
 51
145.3774689731
  0
LINE
  8
CYAN
 10
-130.2881078509
 20
-115.5821040444
 11
-134.6846185567
 21
-121.8652126883
  0
ARC
  8
CYAN
 10
-141.9221450341
 20
-116.8077887611
 40
8.8294578708
 50
311.9132000606
 51
325.0549988726
  0
ARC
  8
CYAN
 10
-2.1567137807
 20
-121.0725243235
 40
4.3084432597
 50
8.2801814909
 51
48.2837426078
  0
LINE
  8
CYAN
 10
2.1068168121
 20
-120.4520485329
 11
2.4993624108
 21
-123.2545862014
  0
ARC
  8
CYAN
 10
-3.1979798888
 20
-124.0695531578
 40
5.7553349528
 50
334.7367867335
 51
8.140557861
  0
LINE
  8
CYAN
 10
2.0068961142
 20
-126.5257995242
 11
-0.8789088025
 21
-132.6185830293
  0
ARC
  8
CYAN
 10
-3.6950933565
 20
-131.2856723571
 40
3.1156935507
 50
295.9821031938
 51
334.6716312895
  0
LINE
  8
CYAN
 10
-2.3301379857
 20
-134.0864656622
 11
-8.0327549564
 21
-136.8628336241
  0
ARC
  8
CYAN
 10
-9.8459251816
 20
-133.1444137812
 40
4.136935145
 50
264.1954244079
 51
295.9947181323
  0
LINE
  8
CYAN
 10
-10.2643172086
 20
-137.2601373513
 11
-15.6433814433
 21
-136.7153316416
  0
ARC
  8
CYAN
 10
-15.1450707
 20
-131.9315858735
 40
4.8096296293
 50
222.0389680113
 51
264.0530908258
  0
LINE
  8
CYAN
 10
-18.7171324346
 20
-135.1522864393
 11
-23.6251419508
 21
-129.7232618557
  0
ARC
  8
CYAN
 10
-17.3045291844
 20
-123.9744146832
 40
8.5439680217
 50
194.9493240932
 51
222.2877591787
  0
LINE
  8
CYAN
 10
-25.5593211737
 20
-126.1784561459
 11
-28.0525804917
 21
-116.8382499604
  0
ARC
  8
CYAN
 10
-14.2797439865
 20
-113.1682894161
 40
14.253407866
 50
179.9866758495
 51
194.920557883
  0
LINE
  8
CYAN
 10
-28.5331514671
 20
-113.1649747819
 11
-28.5331514671
 21
-101.5123181602
  0
ARC
  8
CYAN
 10
-15.4045440849
 20
-101.5552358192
 40
13.1286775313
 50
157.609735657
 51
179.8126997102
  0
LINE
  8
CYAN
 10
-27.5434607454
 20
-96.554348295
 11
-23.8487739889
 21
-87.5067670103
  0
ARC
  8
CYAN
 10
-15.3629496404
 20
-91.0211344009
 40
9.1847696232
 50
139.8716612424
 51
157.5033204702
  0
LINE
  8
CYAN
 10
-22.3856494845
 20
-85.101533069
 11
-18.4435400476
 21
-80.3933649485
  0
ARC
  8
CYAN
 10
-11.8317764221
 20
-85.9444247458
 40
8.6330575761
 50
103.2407704162
 51
139.9840798397
  0
LINE
  8
CYAN
 10
-13.8091229183
 20
-77.540866931
 11
-9.7694718477
 21
-76.5702087232
  0
ARC
  8
CYAN
 10
-8.5249706264
 20
-81.8803089137
 40
5.4539845363
 50
75.5541889656
 51
103.1900633964
  0
LINE
  8
CYAN
 10
-7.1643965107
 20
-76.5987574941
 11
-2.1088850119
 21
-77.9143800159
  0
ARC
  8
CYAN
 10
-3.120537515
 20
-81.9339851941
 40
4.144956764
 50
30.6263571212
 51
75.8732208328
  0
LINE
  8
CYAN
 10
0.4462299762
 20
-79.8223895321
 11
3.0465471848
 21
-84.2355536876
  0
ARC
  8
CYAN
 10
-1.8365483742
 20
-87.1060572781
 40
5.6643104701
 50
10.0276054755
 51
30.4489309757
  0
LINE
  8
CYAN
 10
3.7412339413
 20
-86.1197725615
 11
4.6595527359
 21
-91.3251651071
  0
ARC
  8
CYAN
 10
-0.4271987641
 20
-92.2296491965
 40
5.1665396825
 50
337.2784046994
 51
10.0824837534
  0
LINE
  8
CYAN
 10
4.3383790642
 20
-94.2252444092
 11
3.2463885805
 21
-96.8041500397
  0
ARC
  8
CYAN
 10
2.2104489654
 20
-96.3933099671
 40
1.1144327936
 50
303.4844996375
 51
338.3673720025
  0
LINE
  8
CYAN
 10
2.8252942109
 20
-97.3227860428
 11
2.3685138779
 21
-97.5797249802
  0
ARC
  8
CYAN
 10
1.5371076941
 20
-96.2828087066
 40
1.5405285012
 50
266.233912786
 51
302.66246571
  0
LINE
  8
CYAN
 10
1.4359206979
 20
-97.8200104679
 11
0.322518636
 21
-97.7438804124
  0
ARC
  8
CYAN
 10
0.1153648984
 20
-100.5958960136
 40
2.8595289229
 50
85.8456650361
 51
118.8478799343
  0
LINE
  8
CYAN
 10
-1.2643172086
 20
-98.0912237906
 11
-3.6719302141
 21
-99.4258788263
  0
ARC
  8
CYAN
 10
-1.8621303395
 20
-102.6810126297
 40
3.7244156138
 50
119.0733263304
 51
149.1300891253
  0
LINE
  8
CYAN
 10
-5.058924663
 20
-100.770050119
 11
-7.6449674861
 21
-105.0523657415
  0
ARC
  8
CYAN
 10
-8.306827749
 20
-104.6624739713
 40
0.7681631337
 50
270.0358325118
 51
329.498311009
  0
LINE
  8
CYAN
 10
-8.3063473434
 20
-105.4306369548
 11
-14.3039682791
 21
-105.3545068993
  0
LINE
  8
CYAN
 10
-14.3039682791
 20
-105.3545068993
 11
-14.3039682791
 21
-108.3307162569
  0
LINE
  8
CYAN
 10
-14.3039682791
 20
-108.3307162569
 11
-8.1326756542
 21
-108.4211206979
  0
ARC
  8
CYAN
 10
-8.1312992265
 20
-109.4712617572
 40
1.0501419614
 50
19.3711248224
 51
90.0750979627
  0
LINE
  8
CYAN
 10
-7.1406058684
 20
-109.1229446471
 11
-6.2222870738
 21
-111.7518106265
  0
ARC
  8
CYAN
 10
-3.8921745479
 20
-110.958530196
 40
2.4614463684
 50
198.8010009098
 51
235.6742435563
  0
LINE
  8
CYAN
 10
-5.2801776368
 20
-112.9913030928
 11
-3.3483774782
 21
-114.3045465504
  0
ARC
  8
CYAN
 10
-7.1633093679
 20
-119.8843047688
 40
6.7592460452
 50
48.150385
 51
55.6392255705
  0
LINE
  8
CYAN
 10
-2.6536907216
 20
-114.8493522601
 11
0.7103061063
 21
-117.8564894528
  0
ARC
  8
CYAN
 10
-52.184215155
 20
-144.4725410342
 40
4.2339826804
 50
21.8935210222
 51
59.3851294091
  0
LINE
  8
CYAN
 10
-48.255593973
 20
-142.8937614592
 11
-45.4149912768
 21
-149.8525243458
  0
ARC
  8
CYAN
 10
-51.0945542524
 20
-152.1792511164
 40
6.1376781489
 50
355.3310088363
 51
22.2772696679
  0
LINE
  8
CYAN
 10
-44.9772434576
 20
-152.6788526566
 11
-45.5149119746
 21
-158.9500659794
  0
ARC
  8
CYAN
 10
-54.0992901452
 20
-158.1380586429
 40
8.6226970542
 50
345.208594479
 51
354.5963967529
  0
LINE
  8
CYAN
 10
-45.762334655
 20
-160.3394394925
 11
-48.3650309278
 21
-170.5765528945
  0
ARC
  8
CYAN
 10
-57.6870298959
 20
-168.1993625137
 40
9.6203273784
 50
326.7660136892
 51
345.6939827549
  0
LINE
  8
CYAN
 10
-49.6402093577
 20
-173.4718740682
 11
-55.8281554322
 21
-182.9238962728
  0
ARC
  8
CYAN
 10
-64.2288104644
 20
-177.4161095508
 40
10.045233673
 50
313.4738860653
 51
326.7496377687
  0
LINE
  8
CYAN
 10
-57.3174496431
 20
-184.7058153846
 11
-63.8099159397
 21
-190.9056567803
  0
ARC
  8
CYAN
 10
-67.2773598427
 20
-187.2342143864
 40
5.0500154923
 50
274.4712444093
 51
313.3631798842
  0
LINE
  8
CYAN
 10
-66.883666931
 20
-192.2688605868
 11
-73.1810499604
 21
-192.8136662966
  0
ARC
  8
CYAN
 10
-73.725022068
 20
-186.4427122951
 40
6.3941348549
 50
240.7475882165
 51
274.8802574988
  0
LINE
  8
CYAN
 10
-76.8495670103
 20
-192.0214379064
 11
-82.278591594
 21
-188.9714775575
  0
ARC
  8
CYAN
 10
-78.9552337862
 20
-183.0329782419
 40
6.8051804708
 50
176.7763974265
 51
240.7673481706
  0
LINE
  8
CYAN
 10
-85.7496463125
 20
-182.6503038858
 11
-85.502223632
 21
-178.2871000793
  0
ARC
  8
CYAN
 10
-73.8629172452
 20
-178.9391699214
 40
11.6575575591
 50
150.5378558116
 51
176.7934655764
  0
LINE
  8
CYAN
 10
-84.0129294211
 20
-173.2054188739
 11
-82.3523425853
 21
-170.2553792228
  0
ARC
  8
CYAN
 10
-79.4520146663
 20
-171.8920175502
 40
3.3302382876
 50
94.2650503313
 51
150.5642133009
  0
LINE
  8
CYAN
 10
-79.6996859635
 20
-168.5710017447
 11
-74.2207010309
 21
-168.1475283109
  0
ARC
  8
CYAN
 10
-74.4495406125
 20
-165.1492428602
 40
3.0070056864
 50
274.3645515421
 51
303.6398789235
  0
LINE
  8
CYAN
 10
-72.7837462332
 20
-167.65268295
 11
-70.1072989691
 21
-165.868384774
  0
ARC
  8
CYAN
 10
-68.5729307481
 20
-168.1713312586
 40
2.7672817617
 50
67.2906341461
 51
123.6740558025
  0
LINE
  8
CYAN
 10
-67.5046026963
 20
-165.6185830293
 11
-63.215149881
 21
-167.4052602696
  0
LINE
  8
CYAN
 10
-63.215149881
 20
-167.4052602696
 11
-62.2492498017
 21
-164.5789319588
  0
LINE
  8
CYAN
 10
-62.2492498017
 20
-164.5789319588
 11
-67.4784329897
 21
-162.4211206979
  0
ARC
  8
CYAN
 10
-66.5383247377
 20
-160.1234687646
 40
2.4825406205
 50
183.8342967226
 51
247.7475642429
  0
LINE
  8
CYAN
 10
-69.0153084853
 20
-160.2894791435
 11
-69.2389405234
 21
-156.7708431404
  0
ARC
  8
CYAN
 10
-71.0733286382
 20
-156.8942333857
 40
1.838533358
 50
3.8482077635
 51
40.1085608451
  0
LINE
  8
CYAN
 10
-69.6671720856
 20
-155.7097804917
 11
-72.1390198255
 21
-152.7787733545
  0
ARC
  8
CYAN
 10
-70.1063918384
 20
-151.0676217542
 40
2.6569938527
 50
194.0565863305
 51
220.0920808336
  0
LINE
  8
CYAN
 10
-72.6838255353
 20
-151.7129525773
 11
-72.883666931
 21
-150.9183451229
  0
ARC
  8
CYAN
 10
-69.2866038133
 20
-150.0247076864
 40
3.7064067425
 50
155.5277672192
 51
193.9518350436
  0
LINE
  8
CYAN
 10
-72.6600348929
 20
-148.4893205393
 11
-70.3285519429
 21
-143.4076393339
  0
ARC
  8
CYAN
 10
-64.5521227642
 20
-146.0340938899
 40
6.3455021544
 50
113.7689938727
 51
155.5494286837
  0
LINE
  8
CYAN
 10
-67.1096780333
 20
-140.226830452
 11
-62.4229214909
 21
-138.1784561459
  0
ARC
  8
CYAN
 10
-60.1468950128
 20
-143.407379636
 40
5.7028008376
 50
84.4625260272
 51
113.5223508383
  0
LINE
  8
CYAN
 10
-59.59659318
 20
-137.7311920698
 11
-55.6782743854
 21
-138.1023260904
  0
ARC
  8
CYAN
 10
-56.2028549289
 20
-143.653900312
 40
5.5763035323
 50
59.304720444
 51
84.6020226059
  0
LINE
  8
CYAN
 10
-53.3563076923
 20
-138.8588685171
 11
-50.0279968279
 21
-140.8287337034
  0
ARC
  8
CYAN
 10
-296.5858466748
 20
-44.2524276866
 40
4.143695553
 50
190.3272452387
 51
202.8104131205
  0
LINE
  8
CYAN
 10
-300.6624139572
 20
-44.9952681998
 11
-301.2976241079
 21
-41.5456250595
  0
ARC
  8
CYAN
 10
-294.6766539371
 20
-40.3344308523
 40
6.7308422511
 50
171.485405986
 51
190.3666669808
  0
LINE
  8
CYAN
 10
-301.3333100714
 20
-39.3378534496
 11
-300.7266486915
 21
-35.3981230769
  0
ARC
  8
CYAN
 10
-296.6130671102
 20
-35.9925132668
 40
4.1563028191
 50
137.1626263712
 51
171.7779776478
  0
LINE
  8
CYAN
 10
-299.6608279144
 20
-33.1665608247
 11
-298.7924694687
 21
-32.2506210944
  0
ARC
  8
CYAN
 10
-300.4548347271
 20
-30.6904602989
 40
2.2798157733
 50
316.8165631616
 51
339.870423852
  0
LINE
  8
CYAN
 10
-298.3142775575
 20
-31.4750461538
 11
-294.8265693894
 21
-22.0872586836
  0
LINE
  8
CYAN
 10
-294.8265693894
 20
-22.0872586836
 11
-292.1739127677
 21
-15.2950302934
  0
LINE
  8
CYAN
 10
-292.1739127677
 20
-15.2950302934
 11
-290.1897731959
 21
-9.2950302934
  0
ARC
  8
CYAN
 10
-286.8656644631
 20
-10.4078994079
 40
3.5054495479
 50
106.0847183445
 51
161.4901126036
  0
LINE
  8
CYAN
 10
-287.8368786677
 20
-7.0396773989
 11
-281.8868390167
 21
-5.3029605075
  0
ARC
  8
CYAN
 10
-282.4782743854
 20
-3.2933649485
 40
2.0948198267
 50
286.399455068
 51
306.7306472861
  0
LINE
  8
CYAN
 10
-281.2254591594
 20
-4.9722705789
 11
-275.2682823156
 21
-0.6185830293
  0
ARC
  8
CYAN
 10
-279.2527064959
 20
4.8150388667
 40
6.7379435258
 50
306.2522477054
 51
315.9850002302
  0
LINE
  8
CYAN
 10
-274.4070610627
 20
0.1332012688
 11
-269.3420333069
 21
4.8841925456
  0
LINE
  8
CYAN
 10
-269.3420333069
 20
4.8841925456
 11
-267.6076954798
 21
6.0261433783
  0
ARC
  8
CYAN
 10
-266.0048443749
 20
3.5469826995
 40
2.9521804375
 50
87.9093756552
 51
122.8838698477
  0
LINE
  8
CYAN
 10
-265.897148295
 20
6.4971980967
 11
-262.9708992863
 21
6.3972773989
  0
ARC
  8
CYAN
 10
-262.8980261153
 20
9.100166429
 40
2.7038712263
 50
268.4556103333
 51
292.0880229118
  0
LINE
  8
CYAN
 10
-261.8812878668
 20
6.5947397304
 11
-254.170740682
 21
9.6946604282
  0
ARC
  8
CYAN
 10
-252.8570572608
 20
6.2974052098
 40
3.6424040344
 50
81.4426571206
 51
111.1409702228
  0
LINE
  8
CYAN
 10
-252.3150705789
 20
9.8992599524
 11
-247.502223632
 21
9.3211473434
  0
LINE
  8
CYAN
 10
-247.502223632
 20
9.3211473434
 11
-244.775816019
 21
8.6788
  0
ARC
  8
CYAN
 10
-245.0493263244
 20
7.5375436495
 40
1.1735731527
 50
269.9959926383
 51
76.5228392657
  0
LINE
  8
CYAN
 10
-245.049408406
 20
6.3639704996
 11
-249.5862839017
 21
6.3711076923
  0
LINE
  8
CYAN
 10
-249.5862839017
 20
6.3711076923
 11
-251.2207010309
 21
6.4710283902
  0
ARC
  8
CYAN
 10
-251.4178689398
 20
3.5733925986
 40
2.9043361315
 50
86.1073429863
 51
118.5862019842
  0
LINE
  8
CYAN
 10
-252.8075368755
 20
6.1236850119
 11
-259.6259349722
 21
2.3314566217
  0
ARC
  8
CYAN
 10
-260.669102017
 20
4.190852892
 40
2.1320300123
 50
273.4211157688
 51
299.293497081
  0
LINE
  8
CYAN
 10
-260.5418747026
 20
2.0626223632
 11
-261.9312482157
 21
1.9841132435
  0
ARC
  8
CYAN
 10
-261.8127708168
 20
-0.1739359239
 40
2.1612989388
 50
93.1423969945
 51
139.9877053596
  0
LINE
  8
CYAN
 10
-263.4681237113
 20
1.2156754956
 11
-263.9629690722
 21
0.6447000793
  0
ARC
  8
CYAN
 10
-265.6482303934
 20
2.0587786429
 40
2.1999372502
 50
282.8955868989
 51
320.0004706355
  0
LINE
  8
CYAN
 10
-265.157259318
 20
-0.0856726408
 11
-266.3420333069
 21
-0.3711603489
  0
ARC
  8
CYAN
 10
-265.8261676986
 20
-2.627987908
 40
2.3150351957
 50
102.8754674344
 51
133.1767412311
  0
LINE
  8
CYAN
 10
-267.4102331483
 20
-0.939756701
 11
-272.565665345
 21
-5.8739359239
  0
LINE
  8
CYAN
 10
-272.565665345
 20
-5.8739359239
 11
-278.910629659
 21
-10.1372190325
  0
LINE
  8
CYAN
 10
-278.910629659
 20
-10.1372190325
 11
-283.076371134
 21
-13.4346020619
  0
ARC
  8
CYAN
 10
-279.8295459536
 20
-17.5252422205
 40
5.2225674395
 50
128.4397537809
 51
171.2635141551
  0
LINE
  8
CYAN
 10
-284.991517843
 20
-16.7319850912
 11
-286.5474258525
 21
-26.1768701031
  0
ARC
  8
CYAN
 10
-294.1420007287
 20
-24.6276183295
 40
7.7509837188
 50
336.344980676
 51
348.4701701997
  0
LINE
  8
CYAN
 10
-287.0422712133
 20
-27.7375362411
 11
-291.3816843775
 21
-37.7533966693
  0
ARC
  8
CYAN
 10
-293.3140211293
 20
-36.911711907
 40
2.1076903382
 50
289.9462433268
 51
336.4630836408
  0
LINE
  8
CYAN
 10
-292.5950071372
 20
-38.8929684377
 11
-293.363444885
 21
-39.1665608247
  0
ARC
  8
CYAN
 10
-293.020837681
 20
-40.3324948803
 40
1.2152291628
 50
106.3753112943
 51
266.6319728397
  0
LINE
  8
CYAN
 10
-293.0922315623
 20
-41.5456250595
 11
-285.7528183981
 21
-42.2902721649
  0
ARC
  8
CYAN
 10
-285.8289120789
 20
-42.9850545518
 40
0.6989369166
 50
317.9006507386
 51
83.7497853461
  0
LINE
  8
CYAN
 10
-285.3103124504
 20
-43.4536345757
 11
-286.9685202221
 21
-45.2641024584
  0
ARC
  8
CYAN
 10
-286.0501591622
 20
-46.1330610707
 40
1.2643085486
 50
136.5832820909
 51
231.4732452421
  0
LINE
  8
CYAN
 10
-286.8376716891
 20
-47.1221516257
 11
-284.1421919112
 21
-49.2062118953
  0
ARC
  8
CYAN
 10
-283.3232500328
 20
-48.1403310086
 40
1.3441606544
 50
232.4640621476
 51
320.1516534284
  0
LINE
  8
CYAN
 10
-282.2912799366
 20
-49.0016123711
 11
-280.9946899286
 21
-47.4956647105
  0
ARC
  8
CYAN
 10
-280.2281128861
 20
-48.1356952818
 40
0.9986388207
 50
26.1542440397
 51
140.1408164192
  0
LINE
  8
CYAN
 10
-279.3317240286
 20
-47.6955061063
 11
-278.6394163362
 21
-49.132460904
  0
ARC
  8
CYAN
 10
-284.3661483736
 20
-51.8791173583
 40
6.351344858
 50
5.5567852553
 51
25.623317862
  0
LINE
  8
CYAN
 10
-278.0446502776
 20
-51.2641024584
 11
-277.7948485329
 21
-53.743087391
  0
ARC
  8
CYAN
 10
-276.4637554713
 20
-53.5599785384
 40
1.3436285166
 50
187.8326063648
 51
344.6012486519
  0
LINE
  8
CYAN
 10
-275.1683616178
 20
-53.9167590801
 11
-275.0446502776
 21
-53.4956647105
  0
ARC
  8
CYAN
 10
-273.5818650481
 20
-53.8671329314
 40
1.5092147848
 50
103.3853969626
 51
165.7511738309
  0
LINE
  8
CYAN
 10
-273.9312482157
 20
-52.3989160983
 11
-269.2444916733
 21
-51.240311816
  0
ARC
  8
CYAN
 10
-270.0601180684
 20
-47.8928393764
 40
3.4454053681
 50
283.6935467066
 51
292.6982248166
  0
LINE
  8
CYAN
 10
-268.7306137986
 20
-51.0713982554
 11
-261.9312482157
 21
-48.2641024584
  0
ARC
  8
CYAN
 10
-259.0438342079
 20
-55.2811259291
 40
7.587870455
 50
91.3955347981
 51
112.366529521
  0
LINE
  8
CYAN
 10
-259.228631245
 20
-47.6955061063
 11
-251.5442537669
 21
-47.4956647105
  0
ARC
  8
CYAN
 10
-251.6532565199
 20
-43.8031215609
 40
3.6941516634
 50
271.6908629896
 51
325.2490030023
  0
LINE
  8
CYAN
 10
-248.6180047581
 20
-45.908828866
 11
-243.9336272799
 21
-39.1166004758
  0
ARC
  8
CYAN
 10
-234.2157142406
 20
-45.8362278369
 40
11.8148730722
 50
135.0022794601
 51
145.337376315
  0
LINE
  8
CYAN
 10
-242.5704234734
 20
-37.4821833466
 11
-238.6782743854
 21
-33.2926512292
  0
LINE
  8
CYAN
 10
-238.6782743854
 20
-33.2926512292
 11
-235.8519460745
 21
-30.8374569389
  0
ARC
  8
CYAN
 10
-236.7438574498
 20
-29.8209105025
 40
1.3523581473
 50
311.2635083049
 51
10.5124518297
  0
LINE
  8
CYAN
 10
-235.4141982554
 20
-29.5741738303
 11
-235.5545630452
 21
-28.8295267248
  0
ARC
  8
CYAN
 10
-234.1914261227
 20
-28.5822388946
 40
1.385385701
 50
116.9561045972
 51
190.2822533834
  0
LINE
  8
CYAN
 10
-234.8194321967
 20
-27.3473697066
 11
-233.6703441713
 21
-26.7954268041
  0
ARC
  8
CYAN
 10
-234.2652623321
 20
-25.6060885526
 40
1.3298319799
 50
296.5746480855
 51
347.19170133
  0
LINE
  8
CYAN
 10
-232.9685202221
 20
-25.9008986519
 11
-232.2072196669
 21
-22.7058153846
  0
ARC
  8
CYAN
 10
-227.1136574927
 20
-23.8787262198
 40
5.2268628689
 50
144.8772765971
 51
167.0323698971
  0
LINE
  8
CYAN
 10
-231.3888215702
 20
-20.8715568596
 11
-229.8781157811
 21
-18.7399153053
  0
ARC
  8
CYAN
 10
-231.9827213482
 20
-17.2506367671
 40
2.5782387704
 50
324.7156932366
 51
355.0243584607
  0
LINE
  8
CYAN
 10
-229.4141982554
 20
-17.4742531324
 11
-228.9835876289
 21
-12.7898756542
  0
ARC
  8
CYAN
 10
-228.0698731115
 20
-12.8612010004
 40
0.9164941485
 50
38.1525255937
 51
175.5364932928
  0
LINE
  8
CYAN
 10
-227.3491704996
 20
-12.2950302934
 11
-226.4570214116
 21
-13.4346020619
  0
ARC
  8
CYAN
 10
-228.0922338686
 20
-14.722230566
 40
2.0813233637
 50
8.8923676579
 51
38.218241074
  0
LINE
  8
CYAN
 10
-226.035927042
 20
-14.4005021412
 11
-225.4149912768
 21
-18.5162832672
  0
ARC
  8
CYAN
 10
-227.686956798
 20
-18.8467400338
 40
2.2958721663
 50
331.8625274766
 51
8.2756225132
  0
LINE
  8
CYAN
 10
-225.6624139572
 20
-19.9294474227
 11
-227.8939762094
 21
-24.1451492466
  0
ARC
  8
CYAN
 10
-224.3284633246
 20
-26.0623255918
 40
4.0482647232
 50
151.7330796865
 51
169.9873557962
  0
LINE
  8
CYAN
 10
-228.3150705789
 20
-25.3584720063
 11
-229.0597176844
 21
-29.8215965107
  0
ARC
  8
CYAN
 10
-232.0719278311
 20
-29.2846769622
 40
3.0596883125
 50
324.508234908
 51
349.8933041155
  0
LINE
  8
CYAN
 10
-229.5807327518
 20
-31.061088977
 11
-233.323000793
 21
-36.4639438541
  0
ARC
  8
CYAN
 10
-238.7988615624
 20
-32.6688820911
 40
6.6623978379
 50
314.0667669586
 51
325.2759891121
  0
LINE
  8
CYAN
 10
-234.1651895321
 20
-37.45601364
 11
-237.0652688343
 21
-40.2585513085
  0
ARC
  8
CYAN
 10
-230.747630179
 20
-46.8052037208
 40
9.0978687606
 50
133.9801120204
 51
146.1923313989
  0
LINE
  8
CYAN
 10
-238.3071403648
 20
-41.743087391
 11
-242.8178461539
 21
-48.5115251388
  0
ARC
  8
CYAN
 10
-237.7852917716
 20
-51.9189335744
 40
6.0775847059
 50
145.8991181576
 51
161.8388807525
  0
LINE
  8
CYAN
 10
-243.5601141951
 20
-50.0246099921
 11
-244.6283140365
 21
-53.3457836638
  0
ARC
  8
CYAN
 10
-246.5125818085
 20
-52.7272638293
 40
1.9831872887
 50
272.201409133
 51
341.8273325328
  0
LINE
  8
CYAN
 10
-246.4364028549
 20
-54.7089874703
 11
-248.9891387788
 21
-54.8089081681
  0
ARC
  8
CYAN
 10
-248.8206882872
 20
-60.7352207183
 40
5.9287060992
 50
91.6281463635
 51
103.9982953204
  0
LINE
  8
CYAN
 10
-250.2548009516
 20
-54.9825798573
 11
-257.6180047581
 21
-56.8905893735
  0
ARC
  8
CYAN
 10
-256.4048067617
 20
-61.7878965762
 40
5.0453411397
 50
103.9136361311
 51
109.787870297
  0
LINE
  8
CYAN
 10
-258.112850119
 20
-57.0404704203
 11
-269.3420333069
 21
-61.1562515464
  0
LINE
  8
CYAN
 10
-269.3420333069
 20
-61.1562515464
 11
-271.5236352102
 21
-62.3695743061
  0
ARC
  8
CYAN
 10
-272.3296586821
 20
-60.9306231297
 40
1.6493193522
 50
263.5231433079
 51
299.2552160882
  0
LINE
  8
CYAN
 10
-272.515704996
 20
-62.5694157018
 11
-274.126331483
 21
-62.3957440127
  0
ARC
  8
CYAN
 10
-274.3770402903
 20
-64.6250352852
 40
2.2433444862
 50
83.5834076665
 51
110.0071125491
  0
LINE
  8
CYAN
 10
-275.1445709754
 20
-62.5170762887
 11
-277.3000031721
 21
-63.2878931007
  0
ARC
  8
CYAN
 10
-277.9566249009
 20
-61.536901824
 40
1.8700595033
 50
249.4439547804
 51
290.5560452196
  0
LINE
  8
CYAN
 10
-278.6132466297
 20
-63.2878931007
 11
-286.0002410785
 21
-60.3116837431
  0
ARC
  8
CYAN
 10
-283.6145331481
 20
-53.1875964811
 40
7.512936952
 50
249.270108862
 51
251.4853788607
  0
LINE
  8
CYAN
 10
-286.2738334655
 20
-60.2141421094
 11
-292.0002410785
 21
-57.6590271213
  0
ARC
  8
CYAN
 10
-291.7433207757
 20
-57.1022479091
 40
0.6131974667
 50
138.1492367574
 51
245.2295015935
  0
LINE
  8
CYAN
 10
-292.2000824742
 20
-56.693127042
 11
-288.802778747
 21
-53.0484006344
  0
LINE
  8
CYAN
 10
-288.802778747
 20
-53.0484006344
 11
-290.8844599524
 21
-50.9429287867
  0
LINE
  8
CYAN
 10
-290.8844599524
 20
-50.9429287867
 11
-294.4792260111
 21
-54.8089081681
  0
ARC
  8
CYAN
 10
-294.9538779435
 20
-54.3593234911
 40
0.6537743026
 50
217.680471016
 51
316.5536020789
  0
LINE
  8
CYAN
 10
-295.471295797
 20
-54.7589478192
 11
-297.9264900872
 21
-51.5376948454
  0
ARC
  8
CYAN
 10
-294.8012658905
 20
-49.1784282176
 40
3.9157585856
 50
194.340843226
 51
217.0495623644
  0
LINE
  8
CYAN
 10
-298.5950071372
 20
-50.1483213323
 11
-300.4054750198
 21
-45.8588685171
  0
ARC
  8
CYAN
 10
-235.752591073
 20
120.257490807
 40
3.067133203
 50
212.7927508027
 51
235.9549322902
  0
LINE
  8
CYAN
 10
-238.3309310071
 20
118.5963257732
 11
-239.8939762094
 21
120.9753900079
  0
ARC
  8
CYAN
 10
-239.2227817479
 20
121.3972339937
 40
0.7927511296
 50
104.4456333662
 51
212.1492554687
  0
LINE
  8
CYAN
 10
-239.4205424267
 20
122.1649221253
 11
-228.8860459952
 21
124.817578747
  0
LINE
  8
CYAN
 10
-228.8860459952
 20
124.817578747
 11
-230.1255384615
 21
127.5201957177
  0
LINE
  8
CYAN
 10
-230.1255384615
 20
127.5201957177
 11
-239.5442537669
 21
125.2148824742
  0
ARC
  8
CYAN
 10
-239.8723764436
 20
126.4614492926
 40
1.2890280539
 50
218.3221028829
 51
284.7469490993
  0
LINE
  8
CYAN
 10
-240.883666931
 20
125.6621465504
 11
-242.4205424267
 21
127.6439070579
  0
ARC
  8
CYAN
 10
-240.8408893627
 20
128.8981137841
 40
2.0170122247
 50
153.3851000411
 51
218.4487341062
  0
LINE
  8
CYAN
 10
-242.6441744647
 20
129.8017183188
 11
-242.1493291039
 21
130.7676183981
  0
ARC
  8
CYAN
 10
-243.7333013893
 20
131.5880006168
 40
1.7838147846
 50
332.6191353536
 51
359.9362703802
  0
LINE
  8
CYAN
 10
-241.9494877082
 20
131.5860164948
 11
-241.9542458366
 21
134.3385938144
  0
ARC
  8
CYAN
 10
-238.3060635151
 20
134.3355778747
 40
3.6481835681
 50
133.3401773959
 51
179.9526337869
  0
LINE
  8
CYAN
 10
-240.8099159397
 20
136.9888713719
 11
-239.2468707375
 21
138.4781655829
  0
ARC
  8
CYAN
 10
-237.4052751114
 20
136.4964766066
 40
2.705284763
 50
86.4749423155
 51
132.9014985638
  0
LINE
  8
CYAN
 10
-237.2389405234
 20
139.1966429818
 11
-235.2310103093
 21
139.0967222839
  0
ARC
  8
CYAN
 10
-235.188584684
 20
140.4859347833
 40
1.3898601736
 50
268.2507686947
 51
315.8485052851
  0
LINE
  8
CYAN
 10
-234.1913592387
 20
139.5178166535
 11
-232.511739889
 21
141.2117103886
  0
ARC
  8
CYAN
 10
-231.7599802287
 20
140.436292142
 40
1.0800074278
 50
53.5027088655
 51
134.1124618067
  0
LINE
  8
CYAN
 10
-231.1176082474
 20
141.3044938937
 11
-230.1992894528
 21
140.6098071372
  0
ARC
  8
CYAN
 10
-229.6782743854
 20
141.3282845361
 40
0.8875057595
 50
234.0516708014
 51
324.0516708014
  0
LINE
  8
CYAN
 10
-228.9597969865
 20
140.8072694687
 11
-227.170740682
 21
143.3266984933
  0
ARC
  8
CYAN
 10
-226.2082440661
 20
142.6413879782
 40
1.1815456986
 50
51.0173669728
 51
144.5486233773
  0
LINE
  8
CYAN
 10
-225.4649516257
 20
143.5598467883
 11
-224.6751022998
 21
142.9103622522
  0
ARC
  8
CYAN
 10
-223.6310891843
 20
144.228313636
 40
1.6813563678
 50
231.6155503638
 51
322.8314957499
  0
LINE
  8
CYAN
 10
-222.2912799366
 20
143.21250341
 11
-221.5228421887
 21
144.2283638382
  0
ARC
  8
CYAN
 10
-220.4878615951
 20
143.4409027622
 40
1.3004921281
 50
49.2308429198
 51
142.7344451318
  0
LINE
  8
CYAN
 10
-219.6386233148
 20
144.4258261697
 11
-219.0676478985
 21
143.9571505155
  0
ARC
  8
CYAN
 10
-218.1126182034
 20
145.1299860279
 40
1.5124896224
 50
230.8443751733
 51
304.3335653335
  0
LINE
  8
CYAN
 10
-217.2595590801
 20
143.88102046
 11
-213.1937383029
 21
146.6835581285
  0
ARC
  8
CYAN
 10
-214.8570418431
 20
149.1939124255
 40
3.0113879464
 50
303.5275474669
 51
311.2831657959
  0
LINE
  8
CYAN
 10
-212.870185567
 20
146.9309808089
 11
-211.6616209358
 21
148.0515200634
  0
ARC
  8
CYAN
 10
-210.2914198815
 20
146.5342368615
 40
2.0444068196
 50
75.9884886586
 51
132.0839982773
  0
LINE
  8
CYAN
 10
-209.7964345757
 20
148.5178166535
 11
-207.2984171293
 21
147.8778483743
  0
ARC
  8
CYAN
 10
-207.6642592614
 20
146.3854829469
 40
1.5365529716
 50
359.0499362778
 51
76.2259994106
  0
LINE
  8
CYAN
 10
-206.1279175258
 20
146.3600053925
 11
-206.3015892149
 21
138.378244885
  0
ARC
  8
CYAN
 10
-208.0616300496
 20
138.4034665088
 40
1.7602215401
 50
324.6946565624
 51
359.1789999064
  0
LINE
  8
CYAN
 10
-206.6251419508
 20
137.3861750991
 11
-211.4332307692
 21
130.54398636
  0
LINE
  8
CYAN
 10
-211.4332307692
 20
130.54398636
 11
-209.0042061856
 21
128.8596088818
  0
LINE
  8
CYAN
 10
-209.0042061856
 20
128.8596088818
 11
-204.2746264869
 21
135.6066350515
  0
ARC
  8
CYAN
 10
-203.4512194583
 20
135.0071909966
 40
1.0184951202
 50
71.4923659308
 51
143.9452118241
  0
LINE
  8
CYAN
 10
-203.1279175258
 20
135.9730109437
 11
-199.3856494845
 21
134.7810997621
  0
ARC
  8
CYAN
 10
-200.476853406
 20
131.437202687
 40
3.5174385065
 50
40.4156904208
 51
71.9270970316
  0
LINE
  8
CYAN
 10
-197.79881364
 20
133.7176580492
 11
-194.1374337827
 21
129.4210680412
  0
ARC
  8
CYAN
 10
-198.2467261648
 20
125.9106362548
 40
5.4045735455
 50
22.0693631379
 51
40.5061631451
  0
LINE
  8
CYAN
 10
-193.238147502
 20
127.9412900872
 11
-190.3880285488
 21
120.9016390167
  0
ARC
  8
CYAN
 10
-191.5355313081
 20
120.4293103229
 40
1.2409097379
 50
273.7741819097
 51
22.3727726894
  0
LINE
  8
CYAN
 10
-191.4538493259
 20
119.1910918319
 11
-193.1643965107
 21
119.0864130056
  0
ARC
  8
CYAN
 10
-192.9927351488
 20
116.2903916377
 40
2.8012859748
 50
93.5132570212
 51
120.8134778226
  0
LINE
  8
CYAN
 10
-194.4276796194
 20
118.6962464711
 11
-196.0145154639
 21
117.7541370341
  0
ARC
  8
CYAN
 10
-197.3165944459
 20
119.8875861017
 40
2.4994028485
 50
259.4312490599
 51
301.396401882
  0
LINE
  8
CYAN
 10
-197.7750229976
 20
117.4305842982
 11
-202.6568628073
 21
118.3726937351
  0
ARC
  8
CYAN
 10
-203.0372270674
 20
116.6199047268
 40
1.7935847563
 50
77.7563539823
 51
229.8489928379
  0
LINE
  8
CYAN
 10
-204.1937383029
 20
115.2489823949
 11
-202.7734369548
 21
113.9666667724
  0
ARC
  8
CYAN
 10
-204.170336434
 20
112.3983300521
 40
2.1002400395
 50
239.5164749307
 51
48.3089126952
  0
LINE
  8
CYAN
 10
-205.2357684378
 20
110.5883955591
 11
-211.9590039651
 21
114.570949088
  0
ARC
  8
CYAN
 10
-212.4501997421
 20
113.7369715562
 40
0.9678800623
 50
59.5027814563
 51
219.806264529
  0
LINE
  8
CYAN
 10
-213.1937383029
 20
113.1173408406
 11
-211.7805741475
 21
111.4305842982
  0
ARC
  8
CYAN
 10
-212.6540613867
 20
110.7139110545
 40
1.129867468
 50
255.009291251
 51
39.3679751529
  0
LINE
  8
CYAN
 10
-212.9463156225
 20
109.6224954798
 11
-216.4911213323
 21
110.5384352102
  0
ARC
  8
CYAN
 10
-215.7405603554
 20
113.1238836512
 40
2.6921897076
 50
231.7558981417
 51
253.8118787437
  0
LINE
  8
CYAN
 10
-217.4070610627
 20
111.0094899286
 11
-219.538702617
 21
112.5963257732
  0
ARC
  8
CYAN
 10
-219.9286885713
 20
112.1396607985
 40
0.6005263889
 50
49.5031037021
 51
195.6394564977
  0
LINE
  8
CYAN
 10
-220.5069817605
 20
111.9777690722
 11
-219.812295004
 21
109.0277294211
  0
ARC
  8
CYAN
 10
-220.5820714023
 20
108.8291492245
 40
0.79497786
 50
266.4935402752
 51
14.4652850663
  0
LINE
  8
CYAN
 10
-220.6306931007
 20
108.0356596352
 11
-225.8860459952
 21
108.4258261697
  0
ARC
  8
CYAN
 10
-225.6367064255
 20
111.6531707602
 40
3.2369620522
 50
217.1968867104
 51
265.5821939577
  0
LINE
  8
CYAN
 10
-228.2151498811
 20
109.6962464711
 11
-230.5728025377
 21
112.817578747
  0
ARC
  8
CYAN
 10
-234.313767205
 20
109.9686171151
 40
4.7022759407
 50
37.2913760648
 51
56.411802767
  0
LINE
  8
CYAN
 10
-231.7123743061
 20
113.8857785884
 11
-237.4697097542
 21
117.7160720063
  0
ARC
  8
CYAN
 10
-162.8070068269
 20
152.4593246891
 40
3.2190500808
 50
216.3898741269
 51
226.3931881679
  0
LINE
  8
CYAN
 10
-165.3983378271
 20
150.5495375099
 11
-167.7797811261
 21
153.6470791435
  0
ARC
  8
CYAN
 10
-171.5219328419
 20
150.7968511504
 40
4.7039875719
 50
37.2948873509
 51
56.4082914809
  0
LINE
  8
CYAN
 10
-168.9193528945
 20
154.7152789849
 11
-174.6695511499
 21
158.557467724
  0
ARC
  8
CYAN
 10
-172.9529131784
 20
161.0970043372
 40
3.0653045745
 50
212.5088782645
 51
235.9426814056
  0
LINE
  8
CYAN
 10
-175.5379095956
 20
159.4496168121
 11
-177.0771641554
 21
161.8286810468
  0
ARC
  8
CYAN
 10
-176.405969694
 20
162.2505250326
 40
0.7927511296
 50
104.4456333662
 51
212.1492554687
  0
LINE
  8
CYAN
 10
-176.6037303727
 20
163.0182131642
 11
-166.0692339413
 21
165.6470791435
  0
LINE
  8
CYAN
 10
-166.0692339413
 20
165.6470791435
 11
-167.33251705
 21
168.3496961142
  0
LINE
  8
CYAN
 10
-167.33251705
 20
168.3496961142
 11
-176.7559904837
 21
166.0586572561
  0
ARC
  8
CYAN
 10
-177.0740960974
 20
167.307430174
 40
1.2886523898
 50
217.9221187955
 51
284.2912706426
  0
LINE
  8
CYAN
 10
-178.0906455194
 20
166.5154375892
 11
-179.6275210151
 21
168.4971980968
  0
ARC
  8
CYAN
 10
-178.0240593576
 20
169.7227109697
 40
2.0181603229
 50
153.3212608941
 51
217.3903891916
  0
LINE
  8
CYAN
 10
-179.8273624108
 20
170.6288396511
 11
-179.3396542427
 21
171.6256675654
  0
ARC
  8
CYAN
 10
-180.9435370299
 20
172.4138202722
 40
1.7870715387
 50
333.8303628245
 51
0.0543957702
  0
LINE
  8
CYAN
 10
-179.1564662966
 20
172.4155168914
 11
-179.1612244251
 21
175.1657151467
  0
ARC
  8
CYAN
 10
-175.514181036
 20
175.1655712334
 40
3.6470433919
 50
133.3324793664
 51
179.9977390934
  0
LINE
  8
CYAN
 10
-178.0168945282
 20
177.8183717684
 11
-176.4324377478
 21
179.3100450436
  0
ARC
  8
CYAN
 10
-174.5705633124
 20
177.347855696
 40
2.7049516538
 50
87.3588746362
 51
133.497330703
  0
LINE
  8
CYAN
 10
-174.4459191118
 20
180.0499340206
 11
-172.4403679619
 21
179.9500133228
  0
ARC
  8
CYAN
 10
-172.3634815166
 20
181.3135055245
 40
1.3656582697
 50
266.772545915
 51
314.9690049343
  0
LINE
  8
CYAN
 10
-171.3983378271
 20
180.34731705
 11
-169.7115812847
 21
182.0340735924
  0
ARC
  8
CYAN
 10
-168.9487527121
 20
181.2679561665
 40
1.0811305848
 50
53.020239607
 51
134.876753579
  0
LINE
  8
CYAN
 10
-168.2984171293
 20
182.131615226
 11
-167.4086471055
 21
181.4583400476
  0
ARC
  8
CYAN
 10
-166.8618372301
 20
182.1577320803
 40
0.8877782692
 50
231.9804234901
 51
324.0686361786
  0
LINE
  8
CYAN
 10
-166.1429849326
 20
181.6367698652
 11
-164.3586867565
 21
184.1657151467
  0
ARC
  8
CYAN
 10
-163.3985777114
 20
183.4756514795
 40
1.1823693346
 50
50.6029946624
 51
144.2938873824
  0
LINE
  8
CYAN
 10
-162.6481395718
 20
184.3893471848
 11
-161.8773227597
 21
183.7374835845
  0
ARC
  8
CYAN
 10
-160.8373159006
 20
185.0579097757
 40
1.6808151574
 50
231.7749821671
 51
322.8134104499
  0
LINE
  8
CYAN
 10
-159.498258525
 20
184.0420038065
 11
-158.7060301348
 21
185.0816548771
  0
ARC
  8
CYAN
 10
-157.6698183108
 20
184.2943244968
 40
1.3013931274
 50
49.3365366047
 51
142.7718471835
  0
LINE
  8
CYAN
 10
-156.8218112609
 20
185.2814962728
 11
-156.2770055512
 21
184.8104415543
  0
ARC
  8
CYAN
 10
-155.2946873788
 20
185.9571633364
 40
1.5099403423
 50
229.4155944497
 51
304.3482275462
  0
LINE
  8
CYAN
 10
-154.4427470262
 20
184.7105208565
 11
-150.3816843775
 21
187.54398636
  0
ARC
  8
CYAN
 10
-152.1048953582
 20
190.0208989858
 40
3.0173750579
 50
304.8266921576
 51
312.162054551
  0
LINE
  8
CYAN
 10
-150.0795432197
 20
187.7842718477
 11
-148.8448088818
 21
188.9048111023
  0
ARC
  8
CYAN
 10
-147.4746078276
 20
187.3875279004
 40
2.0444068196
 50
75.9884886586
 51
132.0839982773
  0
LINE
  8
CYAN
 10
-146.9796225218
 20
189.3711076923
 11
-144.5030166535
 21
188.7382766059
  0
ARC
  8
CYAN
 10
-144.8484203605
 20
187.2400283155
 40
1.5375472872
 50
359.0038021458
 51
77.0179428161
  0
LINE
  8
CYAN
 10
-143.3111054719
 20
187.2132964314
 11
-143.5085678033
 21
179.2077452815
  0
ARC
  8
CYAN
 10
-145.2690393174
 20
179.2578134244
 40
1.7611833439
 50
324.6747212786
 51
358.3709363163
  0
LINE
  8
CYAN
 10
-143.8321205393
 20
178.239466138
 11
-148.6402093577
 21
171.3972773989
  0
LINE
  8
CYAN
 10
-148.6402093577
 20
171.3972773989
 11
-146.211184774
 21
169.6867302141
  0
LINE
  8
CYAN
 10
-146.211184774
 20
169.6867302141
 11
-141.4697097542
 21
176.4432726408
  0
ARC
  8
CYAN
 10
-140.6344248047
 20
175.8604790653
 40
1.0185034602
 50
71.491490744
 51
145.0958142342
  0
LINE
  8
CYAN
 10
-140.3111054719
 20
176.8263019826
 11
-136.5688374306
 21
175.6106001586
  0
ARC
  8
CYAN
 10
-137.660041352
 20
172.2667030835
 40
3.5174385065
 50
40.4156904208
 51
71.9270970316
  0
LINE
  8
CYAN
 10
-134.982001586
 20
174.5471584457
 11
-131.3134845361
 21
170.2577056305
  0
ARC
  8
CYAN
 10
-135.4233149065
 20
166.7481525768
 40
5.4044119301
 50
22.2506350929
 51
40.4953751873
  0
LINE
  8
CYAN
 10
-130.4213354481
 20
168.7945811261
 11
-127.583111816
 21
161.7240022205
  0
ARC
  8
CYAN
 10
-128.7346697331
 20
161.2599411352
 40
1.2415467478
 50
273.4097168473
 51
21.9487175787
  0
LINE
  8
CYAN
 10
-128.6608279144
 20
160.0205922284
 11
-130.3713750991
 21
159.9206715305
  0
ARC
  8
CYAN
 10
-130.1849274396
 20
157.1207898913
 40
2.8060826652
 50
93.8097737169
 51
121.1070478574
  0
LINE
  8
CYAN
 10
-131.6346582078
 20
159.5233678033
 11
-133.2048406027
 21
158.5931536876
  0
ARC
  8
CYAN
 10
-134.4866265922
 20
160.7387429615
 40
2.4993056346
 50
259.1794125122
 51
300.8543104698
  0
LINE
  8
CYAN
 10
-134.9558318795
 20
158.283875337
 11
-139.8424298176
 21
159.2188475813
  0
ARC
  8
CYAN
 10
-140.1871435276
 20
157.442199462
 40
1.8097806723
 50
79.0196315501
 51
228.8967352601
  0
LINE
  8
CYAN
 10
-141.376926249
 20
156.0784827914
 11
-139.968520222
 21
154.8080624901
  0
ARC
  8
CYAN
 10
-141.3532168513
 20
153.2282514367
 40
2.1007588437
 50
239.5150714903
 51
48.7655940842
  0
LINE
  8
CYAN
 10
-142.4189563838
 20
151.4178959556
 11
-149.1612244251
 21
155.4099657415
  0
ARC
  8
CYAN
 10
-149.78106549
 20
154.6903804755
 40
0.9497399122
 50
49.2588328097
 51
229.273932738
  0
LINE
  8
CYAN
 10
-150.4007168914
 20
153.9706318795
 11
-148.9970689929
 21
152.2767381443
  0
ARC
  8
CYAN
 10
-149.8556215942
 20
151.5420643196
 40
1.1299815033
 50
254.726232467
 51
40.5540033197
  0
LINE
  8
CYAN
 10
-150.1532942109
 20
150.4519958763
 11
-153.6743092784
 21
151.3941053132
  0
ARC
  8
CYAN
 10
-152.977779297
 20
153.9934592679
 40
2.6910583414
 50
233.1877076735
 51
254.9992763274
  0
LINE
  8
CYAN
 10
-154.5902490087
 20
151.8389903251
 11
-156.7361649485
 21
153.4329633624
  0
ARC
  8
CYAN
 10
-157.1194954757
 20
152.9545779891
 40
0.6130210914
 50
51.2947792617
 51
194.1333885763
  0
LINE
  8
CYAN
 10
-157.7139603489
 20
152.8048904044
 11
-157.0192735924
 21
149.8548507534
  0
ARC
  8
CYAN
 10
-157.7954554559
 20
149.6828418182
 40
0.7950128043
 50
266.9560865392
 51
12.4953251523
  0
LINE
  8
CYAN
 10
-157.8376716891
 20
148.8889506741
 11
-163.0930245837
 21
149.2862544013
  0
ARC
  8
CYAN
 10
-162.8417256475
 20
152.5055122997
 40
3.2290513424
 50
227.4045581339
 51
265.536477762
  0
ARC
  8
CYAN
 10
-206.2942377603
 20
-59.2968400129
 40
5.5896254373
 50
244.1590376368
 51
257.3609848382
  0
LINE
  8
CYAN
 10
-208.7306137986
 20
-64.3275441713
 11
-212.6822394925
 21
-62.4909065821
  0
ARC
  8
CYAN
 10
-210.9624822969
 20
-58.8744984069
 40
4.0044940881
 50
221.4890944754
 51
244.5669080866
  0
LINE
  8
CYAN
 10
-213.9621760508
 20
-61.527385567
 11
-215.8202252181
 21
-59.419534655
  0
ARC
  8
CYAN
 10
-212.716894464
 20
-56.6586861974
 40
4.1536665701
 50
202.9746751937
 51
221.6575841396
  0
LINE
  8
CYAN
 10
-216.5410816812
 20
-58.2799628866
 11
-217.035927042
 21
-57.1142214116
  0
ARC
  8
CYAN
 10
-216.0080355562
 20
-56.6714521434
 40
1.1191986113
 50
102.1554144659
 51
203.3041967372
  0
LINE
  8
CYAN
 10
-216.2436986519
 20
-55.5773459159
 11
-205.5093608247
 21
-53.1982816812
  0
LINE
  8
CYAN
 10
-205.5093608247
 20
-53.1982816812
 11
-206.251628866
 21
-50.3219930214
  0
LINE
  8
CYAN
 10
-206.251628866
 20
-50.3219930214
 11
-217.1358477399
 21
-52.7272269627
  0
ARC
  8
CYAN
 10
-217.3047710384
 20
-51.9207139456
 40
0.8240135482
 50
165.2822128652
 51
281.8295360729
  0
LINE
  8
CYAN
 10
-218.1017478192
 20
-51.7113665345
 11
-216.8884250595
 21
-47.2982023791
  0
ARC
  8
CYAN
 10
-212.3129376655
 20
-48.574165113
 40
4.7500700827
 50
135.4240998973
 51
164.4178483644
  0
LINE
  8
CYAN
 10
-215.6965138779
 20
-45.240311816
 11
-211.3832704203
 21
-40.8033570182
  0
LINE
  8
CYAN
 10
-211.3832704203
 20
-40.8033570182
 11
-205.7805741475
 21
-35.6455457573
  0
LINE
  8
CYAN
 10
-205.7805741475
 20
-35.6455457573
 11
-202.7068231562
 21
-28.4322229976
  0
LINE
  8
CYAN
 10
-202.7068231562
 20
-28.4322229976
 11
-201.3507565424
 21
-24.6875758921
  0
ARC
  8
CYAN
 10
-197.5030670214
 20
-26.0787535574
 40
4.0914655011
 50
115.4604401693
 51
160.1219436685
  0
LINE
  8
CYAN
 10
-199.2619381443
 20
-22.3846417129
 11
-197.5799397304
 21
-21.5828970658
  0
ARC
  8
CYAN
 10
-195.3184610205
 20
-26.2764019302
 40
5.209920716
 50
96.0175647288
 51
115.7262341331
  0
LINE
  8
CYAN
 10
-195.8646344171
 20
-21.0951888977
 11
-194.13029659
 21
-20.9215172086
  0
ARC
  8
CYAN
 10
-193.7746376466
 20
-24.3803230626
 40
3.4770434596
 50
51.3149801549
 51
95.8709244422
  0
LINE
  8
CYAN
 10
-191.6013513085
 20
-21.666164314
 11
-188.5775606661
 21
-24.0690191911
  0
ARC
  8
CYAN
 10
-189.7917694783
 20
-25.6067745033
 40
1.9593352035
 50
9.4605661418
 51
51.7054424264
  0
LINE
  8
CYAN
 10
-187.8590832673
 20
-25.2847210151
 11
-187.5617002379
 21
-27.1427701824
  0
ARC
  8
CYAN
 10
-192.4221724333
 20
-27.9423640203
 40
4.9258035149
 50
328.8536955068
 51
9.3420240583
  0
LINE
  8
CYAN
 10
-188.2064266455
 20
-30.4901135607
 11
-189.924111023
 21
-33.3354743854
  0
ARC
  8
CYAN
 10
-181.7571053278
 20
-38.3206614781
 40
9.5682847143
 50
148.5998695374
 51
153.3902503751
  0
LINE
  8
CYAN
 10
-190.3118984933
 20
-34.0349192704
 11
-191.1564662966
 21
-35.7216758128
  0
ARC
  8
CYAN
 10
-189.562504733
 20
-36.5013027287
 40
1.7744102102
 50
153.9361538012
 51
207.9255836303
  0
LINE
  8
CYAN
 10
-191.13029659
 20
-37.3323022998
 11
-190.3380681998
 21
-38.8453871531
  0
ARC
  8
CYAN
 10
-189.4255642145
 20
-38.3617336834
 40
1.0327556351
 50
207.9248817373
 51
264.7718902858
  0
LINE
  8
CYAN
 10
-189.5196701031
 20
-39.3901928628
 11
-187.8828739096
 21
-39.5638645519
  0
ARC
  8
CYAN
 10
-187.7838285352
 20
-38.7954981268
 40
0.7747237892
 50
262.6548586835
 51
286.6616495359
  0
LINE
  8
CYAN
 10
-187.5617002379
 20
-39.5376948454
 11
-184.7924694687
 21
-38.6717154639
  0
ARC
  8
CYAN
 10
-183.7929330536
 20
-41.9429462136
 40
3.4205297343
 50
66.9531108349
 51
106.9907221453
  0
LINE
  8
CYAN
 10
-182.4538493259
 20
-38.7954268041
 11
-180.2770055512
 21
-39.7256409199
  0
ARC
  8
CYAN
 10
-181.5863879688
 20
-42.8104826272
 40
3.3512282337
 50
29.2208125935
 51
67.0008687135
  0
LINE
  8
CYAN
 10
-178.6616209358
 20
-41.1744910389
 11
-177.224666138
 21
-43.7533966693
  0
ARC
  8
CYAN
 10
-179.5793053585
 20
-45.055425653
 40
2.69065147
 50
354.4839628396
 51
28.9409817826
  0
LINE
  8
CYAN
 10
-176.9011134021
 20
-45.3140628073
 11
-177.1247454401
 21
-47.5218344171
  0
ARC
  8
CYAN
 10
-178.5188265127
 20
-47.3789833689
 40
1.4013809114
 50
315.3393374002
 51
354.1493398845
  0
LINE
  8
CYAN
 10
-177.5220491673
 20
-48.3640231562
 11
-180.4839841396
 21
-51.2997884219
  0
ARC
  8
CYAN
 10
-183.5960291779
 20
-48.2159816513
 40
4.3811743311
 50
295.1312788084
 51
315.2611299316
  0
LINE
  8
CYAN
 10
-181.735371927
 20
-52.182421253
 11
-184.735371927
 21
-53.5932063442
  0
ARC
  8
CYAN
 10
-182.6956621898
 20
-57.9185228108
 40
4.7821311514
 50
115.2473781756
 51
133.2922447382
  0
LINE
  8
CYAN
 10
-185.9748643933
 20
-54.4377741475
 11
-186.9978620143
 21
-55.3465766852
  0
ARC
  8
CYAN
 10
-185.9487655261
 20
-56.469767776
 40
1.5369325516
 50
133.0464544225
 51
197.8371560079
  0
LINE
  8
CYAN
 10
-187.4118191911
 20
-56.9405497224
 11
-187.0406851705
 21
-58.0825005551
  0
ARC
  8
CYAN
 10
-184.635258039
 20
-57.3118828142
 40
2.525852606
 50
197.7637064972
 51
250.5184078296
  0
LINE
  8
CYAN
 10
-185.4776399683
 20
-59.693127042
 11
-183.103333862
 21
-60.5472111023
  0
ARC
  8
CYAN
 10
-181.472792054
 20
-55.9454446854
 40
4.8821020825
 50
250.4892597112
 51
258.6923697648
  0
LINE
  8
CYAN
 10
-182.4300586836
 20
-60.7327781126
 11
-179.7036510706
 21
-61.25379318
  0
ARC
  8
CYAN
 10
-180.197810703
 20
-63.6095235595
 40
2.4070021528
 50
34.5092306369
 51
78.1528878339
  0
LINE
  8
CYAN
 10
-178.2143568596
 20
-62.2458629659
 11
-177.6933417922
 21
-63.0143007137
  0
ARC
  8
CYAN
 10
-179.4262114594
 20
-64.2584116675
 40
2.133225105
 50
4.0892378048
 51
35.676395085
  0
LINE
  8
CYAN
 10
-177.2984171293
 20
-64.1062911975
 11
-177.1080919905
 21
-68.2220723236
  0
ARC
  8
CYAN
 10
-179.4298310667
 20
-68.3425765208
 40
2.324864211
 50
326.2898405086
 51
2.9711314842
  0
LINE
  8
CYAN
 10
-177.4958794607
 20
-69.6328574148
 11
-178.9970689929
 21
-71.8810731166
  0
ARC
  8
CYAN
 10
-181.2654640168
 20
-70.3782111111
 40
2.7210678404
 50
276.8028680475
 51
326.4746437668
  0
LINE
  8
CYAN
 10
-180.9431435369
 20
-73.0801214909
 11
-183.6433814433
 21
-73.4012951626
  0
ARC
  8
CYAN
 10
-184.0462847979
 20
-70.0276120488
 40
3.3976563783
 50
240.3435041849
 51
276.8103147182
  0
LINE
  8
CYAN
 10
-185.7274417129
 20
-72.980200793
 11
-188.1065059477
 21
-71.6169969865
  0
LINE
  8
CYAN
 10
-188.1065059477
 20
-71.6169969865
 11
-196.2167359239
 21
-67.2871000793
  0
ARC
  8
CYAN
 10
-199.140118421
 20
-72.7820805079
 40
6.2242248621
 50
61.9865925948
 51
79.6553913536
  0
LINE
  8
CYAN
 10
-198.022445678
 20
-66.6590271213
 11
-200.5513909596
 21
-66.1974886598
  0
ARC
  8
CYAN
 10
-199.2822180178
 20
-59.5804029178
 40
6.737701661
 50
257.6346330986
 51
259.1423940536
  0
LINE
  8
CYAN
 10
-200.7250626487
 20
-66.1618026963
 11
-207.5172910389
 21
-64.7510176051
  0
LINE
  8
CYAN
 10
-236.3967517843
 20
196.3869681205
 11
-218.9938969072
 21
195.5923606661
  0
ARC
  8
CYAN
 10
-219.0319864405
 20
195.0856860583
 40
0.5081042912
 50
314.9966854811
 51
85.7008458054
  0
LINE
  8
CYAN
 10
-218.6727232355
 20
194.7263812847
 11
-219.9859666931
 21
193.5106794607
  0
ARC
  8
CYAN
 10
-217.3333100714
 20
190.6605605075
 40
3.8935543145
 50
132.9448724251
 51
155.5647373732
  0
LINE
  8
CYAN
 10
-220.8781157811
 20
192.2711869945
 11
-223.6306931007
 21
186.1474756542
  0
LINE
  8
CYAN
 10
-223.6306931007
 20
186.1474756542
 11
-226.3571007137
 21
179.3552472641
  0
ARC
  8
CYAN
 10
-238.2374435263
 20
184.1051856005
 40
12.7947043555
 50
325.86888394
 51
338.2077326323
  0
LINE
  8
CYAN
 10
-227.646553529
 20
176.9262226804
 11
-231.2413195876
 21
171.620909437
  0
ARC
  8
CYAN
 10
-236.5782512703
 20
175.2342510762
 40
6.4450816587
 50
311.5055859346
 51
325.9002411434
  0
LINE
  8
CYAN
 10
-232.3071403648
 20
170.4075866772
 11
-237.1413988898
 21
166.1680942109
  0
ARC
  8
CYAN
 10
-240.277601431
 20
169.6332635146
 40
4.6736671558
 50
294.2946014199
 51
312.1471341987
  0
LINE
  8
CYAN
 10
-238.3547216495
 20
165.3734867565
 11
-241.5783536876
 21
163.9864923077
  0
ARC
  8
CYAN
 10
-241.8261299298
 20
164.5814298197
 40
0.6444716513
 50
195.6491060667
 51
292.6104777466
  0
LINE
  8
CYAN
 10
-242.4467121332
 20
164.4075866772
 11
-245.9653481364
 21
177.1236850119
  0
LINE
  8
CYAN
 10
-245.9653481364
 20
177.1236850119
 11
-248.9153877875
 21
176.7287603489
  0
LINE
  8
CYAN
 10
-248.9153877875
 20
176.7287603489
 11
-245.2230800952
 21
163.3417659001
  0
ARC
  8
CYAN
 10
-245.8255535891
 20
163.1935555008
 40
0.6204358415
 50
268.5145875545
 51
13.820511682
  0
LINE
  8
CYAN
 10
-245.8416367962
 20
162.5733281523
 11
-251.1969103886
 21
162.894501824
  0
ARC
  8
CYAN
 10
-250.9983520695
 20
166.044825311
 40
3.1565746433
 50
235.5552508808
 51
266.3935370441
  0
LINE
  8
CYAN
 10
-252.7837462332
 20
163.4416865979
 11
-256.278591594
 21
165.8207508327
  0
ARC
  8
CYAN
 10
-253.7188210451
 20
169.5512443794
 40
4.5242687105
 50
205.1116566353
 51
235.5430688951
  0
LINE
  8
CYAN
 10
-257.8154670896
 20
167.6312187153
 11
-260.2444916733
 21
172.7628602696
  0
ARC
  8
CYAN
 10
-254.3594067807
 20
175.4631487823
 40
6.4750121424
 50
188.3666435682
 51
204.6473586958
  0
LINE
  8
CYAN
 10
-260.7655067407
 20
174.5209887391
 11
-262.0787501983
 21
183.2236057098
  0
LINE
  8
CYAN
 10
-262.0787501983
 20
183.2236057098
 11
-263.2207010309
 21
189.9420831086
  0
ARC
  8
CYAN
 10
-265.5549743532
 20
189.5751193324
 40
2.3629418859
 50
8.9341687103
 51
16.9310480832
  0
LINE
  8
CYAN
 10
-263.2944520222
 20
190.2632567803
 11
-264.893183188
 21
195.3663495638
  0
ARC
  8
CYAN
 10
-261.2619103459
 20
196.518356106
 40
3.8096274787
 50
185.3471649396
 51
197.6014184384
  0
LINE
  8
CYAN
 10
-265.0549595559
 20
196.1633360825
 11
-265.1786708961
 21
197.3766588422
  0
ARC
  8
CYAN
 10
-264.5831761375
 20
197.4035303594
 40
0.5961007348
 50
85.2625753116
 51
182.5837016472
  0
LINE
  8
CYAN
 10
-264.5339444885
 20
197.9975946075
 11
-250.1548802538
 21
196.8080624901
  0
LINE
  8
CYAN
 10
-250.1548802538
 20
196.8080624901
 11
-236.3967517843
 21
196.3869681205
  0
LINE
  8
CYAN
 10
45.3153814433
 20
-118.6439597145
 11
47.0259286281
 21
-123.9231032514
  0
ARC
  8
CYAN
 10
43.6547538255
 20
-125.0092720902
 40
3.541833183
 50
338.5902230101
 51
17.8585759368
  0
LINE
  8
CYAN
 10
46.9521776368
 20
-126.3021674861
 11
45.0417890563
 21
-131.0388843775
  0
ARC
  8
CYAN
 10
42.0933319137
 20
-129.8740184866
 40
3.1702227155
 50
296.9695855013
 51
338.4421926192
  0
LINE
  8
CYAN
 10
43.5310832672
 20
-132.6994712133
 11
39.7864361618
 21
-134.5836900872
  0
ARC
  8
CYAN
 10
38.0782059424
 20
-131.1622627406
 40
3.8241620743
 50
259.8244871027
 51
296.5317708597
  0
LINE
  8
CYAN
 10
37.4026137986
 20
-134.926275337
 11
32.0283076923
 21
-133.962754322
  0
ARC
  8
CYAN
 10
32.820508271
 20
-129.5257798888
 40
4.5071414308
 50
209.6777516996
 51
259.8767835578
  0
LINE
  8
CYAN
 10
28.9045963521
 20
-131.7573617764
 11
25.062407613
 21
-125.0388843775
  0
ARC
  8
CYAN
 10
30.5833461952
 20
-121.8030810256
 40
6.3993113817
 50
185.8918654945
 51
210.3744226463
  0
LINE
  8
CYAN
 10
24.2178398097
 20
-122.459978747
 11
23.1282283902
 21
-110.9334125297
  0
ARC
  8
CYAN
 10
30.8126041119
 20
-110.21389179
 40
7.717988101
 50
174.843664264
 51
185.3492506362
  0
LINE
  8
CYAN
 10
23.1258493259
 20
-109.5202483743
 11
23.6992038065
 21
-103.0016123711
  0
ARC
  8
CYAN
 10
33.5159434317
 20
-103.8656425302
 40
9.8546905068
 50
144.4530760805
 51
174.9700167072
  0
LINE
  8
CYAN
 10
25.497776368
 20
-98.1364260111
 11
28.457332276
 21
-93.4568066614
  0
ARC
  8
CYAN
 10
34.863362463
 20
-97.3666046724
 40
7.5049146061
 50
134.5408509323
 51
148.6029943764
  0
LINE
  8
CYAN
 10
29.5992831086
 20
-92.0174727994
 11
33.2178398097
 21
-88.5487971451
  0
ARC
  8
CYAN
 10
37.4952347859
 20
-92.9822186402
 40
6.1604653993
 50
101.0415125263
 51
133.9738384234
  0
LINE
  8
CYAN
 10
36.3153814433
 20
-86.935791594
 11
39.3891324346
 21
-86.3410255353
  0
ARC
  8
CYAN
 10
40.44372352
 20
-91.8388044022
 40
5.5980116852
 50
63.2874963946
 51
100.85865024
  0
LINE
  8
CYAN
 10
42.9601078509
 20
-86.8382499604
 11
47.2971419508
 21
-88.993682157
  0
ARC
  8
CYAN
 10
45.4105252508
 20
-92.7573418447
 40
4.2100423771
 50
23.1599783245
 51
63.3766806212
  0
LINE
  8
CYAN
 10
49.2812815226
 20
-91.101533069
 11
50.5445646312
 21
-93.9778217288
  0
ARC
  8
CYAN
 10
47.1259642363
 20
-95.4606585885
 40
3.7263432227
 50
355.7266100697
 51
23.44905598
  0
LINE
  8
CYAN
 10
50.8419476606
 20
-95.7383292625
 11
50.5207739889
 21
-99.9516520222
  0
ARC
  8
CYAN
 10
47.7942560926
 20
-99.7545091124
 40
2.7336358876
 50
326.0401878282
 51
355.8643830814
  0
LINE
  8
CYAN
 10
50.0616145916
 20
-101.2815489294
 11
47.2233909596
 21
-105.4544275971
  0
ARC
  8
CYAN
 10
44.6713880387
 20
-103.7200844733
 40
3.0855574827
 50
313.678201918
 51
325.7999427191
  0
LINE
  8
CYAN
 10
46.80229659
 20
-105.9516520222
 11
45.3653417922
 21
-107.2886861221
  0
ARC
  8
CYAN
 10
44.0489376647
 20
-105.9022848067
 40
1.911812866
 50
300.8707114009
 51
313.5164869406
  0
LINE
  8
CYAN
 10
45.0298937351
 20
-107.5432459952
 11
42.7364758128
 21
-108.9254823156
  0
ARC
  8
CYAN
 10
42.0239609045
 20
-108.57739319
 40
0.7929965536
 50
269.5691926299
 51
333.9628293839
  0
LINE
  8
CYAN
 10
42.017998414
 20
-109.3703673275
 11
35.623073751
 21
-109.0991540048
  0
LINE
  8
CYAN
 10
35.623073751
 20
-109.0991540048
 11
35.623073751
 21
-112.0729842982
  0
LINE
  8
CYAN
 10
35.623073751
 20
-112.0729842982
 11
41.4232323553
 21
-112.2728256939
  0
ARC
  8
CYAN
 10
41.3741197391
 20
-113.4129403454
 40
1.1411719711
 50
27.1960828715
 51
87.5333998034
  0
LINE
  8
CYAN
 10
42.3891324346
 20
-112.8913823949
 11
45.0679587629
 21
-118.0230239492
  0
ARC
  8
CYAN
 10
41.4451313677
 20
-119.8263655042
 40
4.0468406318
 50
16.9885130373
 51
26.4628300699
  0
LINE
  8
CYAN
 10
-245.444333069
 20
84.064208406
 11
-246.7647137193
 21
84.5186096749
  0
ARC
  8
CYAN
 10
-246.2373127526
 20
85.9463512824
 40
1.52203741
 50
186.4733340425
 51
249.726009619
  0
LINE
  8
CYAN
 10
-247.7496463125
 20
85.7747555908
 11
-247.9494877082
 21
87.459133069
  0
ARC
  8
CYAN
 10
-249.4883169313
 20
87.3015619938
 40
1.5468755676
 50
5.8465233174
 51
69.3008775341
  0
LINE
  8
CYAN
 10
-248.9415574941
 20
88.7485858842
 11
-250.0668548771
 21
89.141131483
  0
ARC
  8
CYAN
 10
-249.559839944
 20
90.508617161
 40
1.4584516522
 50
170.2136895958
 51
249.6570155142
  0
LINE
  8
CYAN
 10
-250.9970689929
 20
90.7565160983
 11
-250.7020650278
 21
92.517023632
  0
ARC
  8
CYAN
 10
-251.6424572287
 20
92.6918860804
 40
0.9565115616
 50
349.4663661002
 51
68.6645573827
  0
LINE
  8
CYAN
 10
-251.2944520222
 20
93.5828444092
 11
-252.3626518636
 21
93.9801481364
  0
ARC
  8
CYAN
 10
-252.0015824946
 20
94.9711637796
 40
1.0547431414
 50
154.988884554
 51
249.9811551857
  0
LINE
  8
CYAN
 10
-252.9574179223
 20
95.4171029342
 11
-252.7385440127
 21
95.9143273592
  0
ARC
  8
CYAN
 10
-254.0971645104
 20
96.4838135827
 40
1.4731477235
 50
337.258272267
 51
44.9707190667
  0
LINE
  8
CYAN
 10
-253.0549595559
 20
97.5249538462
 11
-254.4776399683
 21
98.952392387
  0
ARC
  8
CYAN
 10
-254.0724347226
 20
99.3839771542
 40
0.5919938365
 50
56.9578152238
 51
226.8056320375
  0
LINE
  8
CYAN
 10
-253.7496463125
 20
99.8802274385
 11
-247.552183981
 21
95.9619086439
  0
LINE
  8
CYAN
 10
-247.552183981
 20
95.9619086439
 11
-244.4784329897
 21
101.0697595559
  0
LINE
  8
CYAN
 10
-244.4784329897
 20
101.0697595559
 11
-251.3943727201
 21
105.2830823156
  0
ARC
  8
CYAN
 10
-251.282556701
 20
105.6304256939
 40
0.3648975809
 50
72.1557083917
 51
252.1557083917
  0
LINE
  8
CYAN
 10
-251.170740682
 20
105.9777690722
 11
-245.6180047581
 21
105.5328840603
  0
ARC
  8
CYAN
 10
-245.5642360002
 20
106.7493313629
 40
1.2176350518
 50
267.4690897821
 51
286.2708948343
  0
LINE
  8
CYAN
 10
-245.2230800952
 20
105.580465345
 11
-244.2809706582
 21
105.8088555115
  0
ARC
  8
CYAN
 10
-244.0059981133
 20
104.7378646633
 40
1.1057265925
 50
42.3624680071
 51
104.3994395236
  0
LINE
  8
CYAN
 10
-243.1889801745
 20
105.4829237113
 11
-242.4705027756
 21
104.6883162569
  0
ARC
  8
CYAN
 10
-241.1053956553
 20
105.9531906344
 40
1.8610278452
 50
222.8174237939
 51
272.2125364664
  0
LINE
  8
CYAN
 10
-241.0335479778
 20
104.0935501983
 11
-238.3047613006
 21
104.1673011895
  0
ARC
  8
CYAN
 10
-238.2318372873
 20
102.5569957647
 40
1.6119557913
 50
44.9711456299
 51
92.5929152166
  0
LINE
  8
CYAN
 10
-237.0914385408
 20
103.6962464711
 11
-236.6560697859
 21
103.239466138
  0
ARC
  8
CYAN
 10
-236.0244000293
 20
103.895182372
 40
0.9104781496
 50
226.0700764813
 51
240.6616957668
  0
LINE
  8
CYAN
 10
-236.4705027756
 20
103.1014804124
 11
-235.157259318
 21
102.3592123711
  0
ARC
  8
CYAN
 10
-234.3485825864
 20
103.8031912452
 40
1.6550024305
 50
240.749706798
 51
293.2931777668
  0
LINE
  8
CYAN
 10
-233.6941348136
 20
102.2830823156
 11
-233.4728818398
 21
102.4091727201
  0
ARC
  8
CYAN
 10
-232.5832309087
 20
100.8943500064
 40
1.7567488817
 50
98.7985963469
 51
120.4255910709
  0
LINE
  8
CYAN
 10
-232.8519460745
 20
102.6304256939
 11
-232.0597176844
 21
102.7541370341
  0
ARC
  8
CYAN
 10
-231.887650596
 20
101.547542399
 40
1.2188017462
 50
26.1984010258
 51
98.1159748048
  0
LINE
  8
CYAN
 10
-230.7940555115
 20
102.0856199841
 11
-229.5093608247
 21
99.5067143537
  0
ARC
  8
CYAN
 10
-227.3077247938
 20
100.6371595874
 40
2.4748954804
 50
207.1785446384
 51
213.1042264657
  0
LINE
  8
CYAN
 10
-229.3808913561
 20
99.2854613799
 11
-229.1096780333
 21
98.8381973037
  0
ARC
  8
CYAN
 10
-227.9511246495
 20
99.5914966866
 40
1.3819210916
 50
213.0321995936
 51
263.0806227678
  0
LINE
  8
CYAN
 10
-228.1176082474
 20
98.2196406027
 11
-227.0018271213
 21
98.0697595559
  0
ARC
  8
CYAN
 10
-226.8931887408
 20
98.8639203501
 40
0.8015570253
 50
262.2104894866
 51
336.2280038943
  0
LINE
  8
CYAN
 10
-226.1596383822
 20
98.5408142744
 11
-225.7694718477
 21
99.4615121332
  0
ARC
  8
CYAN
 10
-224.5708506535
 20
98.9640774041
 40
1.2977419146
 50
118.5643077837
 51
157.4612672246
  0
LINE
  8
CYAN
 10
-225.1913592387
 20
100.1038594766
 11
-224.4966724822
 21
100.4749934972
  0
ARC
  8
CYAN
 10
-223.320274714
 20
98.3005540406
 40
2.4722658958
 50
64.1240870417
 51
118.4139184853
  0
LINE
  8
CYAN
 10
-222.2413195876
 20
100.5249538462
 11
-220.3333100714
 21
99.6328047581
  0
ARC
  8
CYAN
 10
-221.3740178068
 20
97.4998655876
 40
2.3732892988
 50
24.6805734364
 51
63.9912382578
  0
LINE
  8
CYAN
 10
-219.2175289453
 20
98.4908539255
 11
-214.309519429
 21
87.8064764473
  0
ARC
  8
CYAN
 10
-222.9645516585
 20
84.0031670186
 40
9.4538217406
 50
17.2994324673
 51
23.7222860986
  0
LINE
  8
CYAN
 10
-213.9383854084
 20
86.8144066614
 11
-213.1271245044
 21
84.185540682
  0
ARC
  8
CYAN
 10
-215.349056171
 20
83.4944563054
 40
2.3269245684
 50
332.0443365564
 51
17.2771898361
  0
LINE
  8
CYAN
 10
-213.2936590008
 20
82.4036215702
 11
-214.4094401269
 21
80.2957706582
  0
ARC
  8
CYAN
 10
-216.1822409102
 20
81.2473107659
 40
2.0120266384
 50
232.500863575
 51
331.7755893704
  0
LINE
  8
CYAN
 10
-217.4070610627
 20
79.6510442506
 11
-224.7964345757
 21
85.4012425059
  0
LINE
  8
CYAN
 10
-224.7964345757
 20
85.4012425059
 11
-226.7544044409
 21
83.1458896114
  0
LINE
  8
CYAN
 10
-226.7544044409
 20
83.1458896114
 11
-219.7575765266
 21
77.7168650278
  0
ARC
  8
CYAN
 10
-220.8047875736
 20
76.355129369
 40
1.7178402083
 50
339.690960026
 51
52.4387552896
  0
LINE
  8
CYAN
 10
-219.1937383029
 20
75.7588951626
 11
-219.9122157018
 21
73.8009252974
  0
ARC
  8
CYAN
 10
-222.1953119604
 20
74.6418248932
 40
2.4330311663
 50
278.8683362846
 51
339.7804688828
  0
LINE
  8
CYAN
 10
-221.8202252181
 20
72.2378800952
 11
-223.2357684378
 21
72.0309015067
  0
ARC
  8
CYAN
 10
-223.8289148276
 20
75.7827162294
 40
3.7984123464
 50
256.4275763635
 51
278.9838696915
  0
LINE
  8
CYAN
 10
-224.7203045202
 20
72.0903781126
 11
-231.6386233148
 21
73.7509649485
  0
ARC
  8
CYAN
 10
-232.9029175042
 20
68.5694991522
 40
5.3334817516
 50
76.2875905737
 51
88.3788009027
  0
LINE
  8
CYAN
 10
-232.7520253767
 20
73.9008459952
 11
-235.6045233941
 21
73.9745969865
  0
ARC
  8
CYAN
 10
-235.3856829106
 20
78.0271897596
 40
4.0584971777
 50
263.0647491723
 51
266.9090233176
  0
LINE
  8
CYAN
 10
-235.8757367169
 20
73.9983876289
 11
-239.1992894528
 21
74.2957706582
  0
ARC
  8
CYAN
 10
-238.9895714369
 20
76.7031371455
 40
2.4164840265
 50
206.228053449
 51
265.0212406857
  0
LINE
  8
CYAN
 10
-241.157259318
 20
75.6351838224
 11
-241.9256970658
 21
77.1958499604
  0
ARC
  8
CYAN
 10
-240.7362111814
 20
77.7927079054
 40
1.3308328504
 50
135.0622753614
 51
206.6464944494
  0
LINE
  8
CYAN
 10
-241.6782743854
 20
78.732725456
 11
-240.9098366376
 21
79.5273329104
  0
ARC
  8
CYAN
 10
-242.3498668558
 20
81.0108420433
 40
2.0674831019
 50
314.1479592478
 51
337.5710472228
  0
LINE
  8
CYAN
 10
-240.4387819191
 20
80.2220196669
 11
-239.8678065028
 21
81.6589744647
  0
ARC
  8
CYAN
 10
-240.353008148
 20
81.8599324774
 40
0.5251711716
 50
337.5019240945
 51
34.0283450215
  0
LINE
  8
CYAN
 10
-239.9177668517
 20
82.1538198255
 11
-240.2175289453
 21
82.5749141951
  0
ARC
  8
CYAN
 10
-241.5038699549
 20
81.6822877683
 40
1.5657123397
 50
34.7578150001
 51
79.0783392543
  0
LINE
  8
CYAN
 10
-241.2072196669
 20
83.2196406027
 11
-244.9256970658
 21
83.9143273592
  0
ARC
  8
CYAN
 10
-244.2800674611
 20
87.1206738853
 40
3.2707026205
 50
249.1472148974
 51
258.6151676073
  0
LINE
  8
CYAN
 10
-243.3388612213
 20
-9.7898756542
 11
-251.0232386995
 21
-15.1213586043
  0
LINE
  8
CYAN
 10
-251.0232386995
 20
-15.1213586043
 11
-249.4601934972
 21
-17.6740945282
  0
LINE
  8
CYAN
 10
-249.4601934972
 20
-17.6740945282
 11
-242.2230800952
 21
-12.6162039651
  0
ARC
  8
CYAN
 10
-241.2322141328
 20
-14.0293360743
 40
1.725907794
 50
51.9127174706
 51
125.0375330464
  0
LINE
  8
CYAN
 10
-240.1675685964
 20
-12.6709224425
 11
-238.5046026963
 21
-13.9556171293
  0
ARC
  8
CYAN
 10
-239.9908497005
 20
-15.8652847583
 40
2.4198678912
 50
351.7870320534
 51
52.1072619132
  0
LINE
  8
CYAN
 10
-237.5958001586
 20
-16.2109700238
 11
-237.8099159397
 21
-17.6241341792
  0
ARC
  8
CYAN
 10
-241.5519237693
 20
-17.0786018407
 40
3.7815642437
 50
328.8887738812
 51
351.705510796
  0
LINE
  8
CYAN
 10
-238.3142775575
 20
-19.0325402062
 11
-241.9756574148
 21
-25.1348399683
  0
ARC
  8
CYAN
 10
-237.3855714578
 20
-27.8804082072
 40
5.3485543885
 50
149.1141696724
 51
161.1314985511
  0
LINE
  8
CYAN
 10
-242.4467121332
 20
-26.1507003965
 11
-243.3626518636
 21
-28.8533173672
  0
ARC
  8
CYAN
 10
-247.1760457218
 20
-27.4728448358
 40
4.055573588
 50
336.2977552417
 51
340.0994257856
  0
LINE
  8
CYAN
 10
-243.4625725615
 20
-29.1031191118
 11
-244.7520253767
 21
-32.2006607454
  0
ARC
  8
CYAN
 10
-246.979707583
 20
-31.2830333987
 40
2.4092754014
 50
278.8252212206
 51
337.6122467451
  0
LINE
  8
CYAN
 10
-246.610074544
 20
-33.6637852498
 11
-248.3206217288
 21
-33.9349985726
  0
ARC
  8
CYAN
 10
-248.5497531721
 20
-32.6142547716
 40
1.3404720833
 50
207.9575332011
 51
279.8420930013
  0
LINE
  8
CYAN
 10
-249.7337858842
 20
-33.2426908803
 11
-250.228631245
 21
-32.2506210944
  0
ARC
  8
CYAN
 10
-252.0679155929
 20
-33.2570739459
 40
2.0966435688
 50
28.6873937516
 51
51.9557050363
  0
LINE
  8
CYAN
 10
-250.775816019
 20
-31.6058946868
 11
-251.9653481364
 21
-30.6399946075
  0
ARC
  8
CYAN
 10
-252.3135907631
 20
-31.0608996615
 40
0.5462911235
 50
50.3967930751
 51
105.8258908457
  0
LINE
  8
CYAN
 10
-252.4625725615
 20
-30.5353157811
 11
-252.9574179223
 21
-30.6875758921
  0
ARC
  8
CYAN
 10
-252.4828819126
 20
-32.1739890345
 40
1.560323189
 50
107.7056344039
 51
151.5157420761
  0
LINE
  8
CYAN
 10
-253.8543251388
 20
-31.4298439334
 11
-255.6338651864
 21
-34.7795663759
  0
ARC
  8
CYAN
 10
-258.4768219778
 20
-33.2010294187
 40
3.2517967715
 50
321.5195647337
 51
330.9590036657
  0
LINE
  8
CYAN
 10
-255.9312482157
 20
-35.2244513878
 11
-256.7734369548
 21
-36.3402325139
  0
ARC
  8
CYAN
 10
-257.988346973
 20
-35.4239841564
 40
1.5216824258
 50
259.6118142428
 51
322.9775071416
  0
LINE
  8
CYAN
 10
-258.2627311657
 20
-36.9207241872
 11
-259.9233180016
 21
-36.5876551943
  0
ARC
  8
CYAN
 10
-260.2207634049
 20
-38.1245545247
 40
1.5654179377
 50
79.0466194993
 51
142.7797284829
  0
LINE
  8
CYAN
 10
-261.4673306899
 20
-37.1776631245
 11
-262.1786708961
 21
-38.1245306899
  0
ARC
  8
CYAN
 10
-263.3237643386
 20
-37.2301700963
 40
1.4529693264
 50
242.7456669111
 51
322.0088391457
  0
LINE
  8
CYAN
 10
-263.9891387788
 20
-38.5218344171
 11
-265.5735955591
 21
-37.729606027
  0
ARC
  8
CYAN
 10
-266.0209255078
 20
-38.5955987663
 40
0.9747038051
 50
62.6813119568
 51
140.2450638816
  0
LINE
  8
CYAN
 10
-266.7702648692
 20
-37.9722705789
 11
-267.4839841396
 21
-38.8691777954
  0
ARC
  8
CYAN
 10
-268.3272598483
 20
-38.2007682664
 40
1.0760507513
 50
229.6999844308
 51
321.5984377478
  0
LINE
  8
CYAN
 10
-269.0232386995
 20
-39.0214379064
 11
-269.4181633624
 21
-38.6717154639
  0
ARC
  8
CYAN
 10
-270.3855274812
 20
-39.7611438785
 40
1.4569308868
 50
48.3963442363
 51
117.3536230659
  0
LINE
  8
CYAN
 10
-271.0549595559
 20
-38.4671159397
 11
-272.8630483743
 21
-39.4139835052
  0
ARC
  8
CYAN
 10
-273.1359656551
 20
-38.8939773877
 40
0.5872735345
 50
129.8823078777
 51
297.6920499697
  0
LINE
  8
CYAN
 10
-273.5125329104
 20
-38.4433252974
 11
-267.9050785091
 21
-33.6875758921
  0
LINE
  8
CYAN
 10
-267.9050785091
 20
-33.6875758921
 11
-271.8709785884
 21
-29.226830452
  0
LINE
  8
CYAN
 10
-271.8709785884
 20
-29.226830452
 11
-277.9685202221
 21
-34.5797249802
  0
ARC
  8
CYAN
 10
-278.2109885321
 20
-34.2896175293
 40
0.3780915424
 50
159.7301335589
 51
309.8884709368
  0
LINE
  8
CYAN
 10
-278.565665345
 20
-34.1586306106
 11
-276.4816050753
 21
-28.9770287074
  0
ARC
  8
CYAN
 10
-277.609612421
 20
-28.5599785683
 40
1.2026351859
 50
339.7094927781
 51
357.8119388225
  0
LINE
  8
CYAN
 10
-276.4078540841
 20
-28.6058946868
 11
-276.3341030928
 21
-27.6399946075
  0
ARC
  8
CYAN
 10
-275.2167751894
 20
-27.7007339935
 40
1.1189776212
 50
116.3345826498
 51
176.888390198
  0
LINE
  8
CYAN
 10
-275.7131673275
 20
-26.6978851705
 11
-274.7210975416
 21
-26.226830452
  0
ARC
  8
CYAN
 10
-275.5286483615
 20
-24.548470771
 40
1.8625330992
 50
295.6947570133
 51
344.7843303576
  0
LINE
  8
CYAN
 10
-273.73140682
 20
-25.0372983347
 11
-272.9867597145
 21
-22.4084323553
  0
ARC
  8
CYAN
 10
-271.4264793743
 20
-22.8300147823
 40
1.6162321871
 50
118.4690111253
 51
164.8799269689
  0
LINE
  8
CYAN
 10
-272.1969103886
 20
-21.4092253767
 11
-271.623555908
 21
-21.11897954
  0
ARC
  8
CYAN
 10
-272.0571676842
 20
-20.3325759006
 40
0.8980255322
 50
298.8717168199
 51
314.6468595207
  0
LINE
  8
CYAN
 10
-271.4260935765
 20
-20.9714775575
 11
-270.3103124504
 21
-19.9556171293
  0
ARC
  8
CYAN
 10
-271.4290103745
 20
-18.7437283261
 40
1.6492906101
 50
312.7101898774
 51
6.1777196834
  0
LINE
  8
CYAN
 10
-269.789297383
 20
-18.5662436162
 11
-269.8630483743
 21
-18.3188209358
  0
ARC
  8
CYAN
 10
-268.1523894431
 20
-17.9222893945
 40
1.7560157295
 50
171.0111262901
 51
193.0507021836
  0
LINE
  8
CYAN
 10
-269.8868390167
 20
-17.6479248216
 11
-269.7631276765
 21
-16.8794870738
  0
ARC
  8
CYAN
 10
-268.5499962839
 20
-17.0533546329
 40
1.2255275205
 50
99.4885625364
 51
171.843837404
  0
LINE
  8
CYAN
 10
-268.7520253767
 20
-15.8445941316
 11
-265.897148295
 21
-15.4187416336
  0
ARC
  8
CYAN
 10
-266.5038739739
 20
-13.0067562938
 40
2.4871247112
 50
284.1195910857
 51
290.0858668524
  0
LINE
  8
CYAN
 10
-265.6497256146
 20
-15.3426115781
 11
-265.1525011895
 21
-15.2189002379
  0
ARC
  8
CYAN
 10
-265.4989799999
 20
-13.904931285
 40
1.3588826201
 50
284.7720041231
 51
335.230851042
  0
LINE
  8
CYAN
 10
-264.26511023
 20
-14.4742531324
 11
-263.789297383
 21
-13.4346020619
  0
ARC
  8
CYAN
 10
-264.5081576544
 20
-13.1116735582
 40
0.7880627565
 50
335.8092915753
 51
48.8067400595
  0
LINE
  8
CYAN
 10
-263.9891387788
 20
-12.5186623315
 11
-264.7575765266
 21
-11.8477662173
  0
ARC
  8
CYAN
 10
-263.9126031251
 20
-10.8563746816
 40
1.302627048
 50
192.2007112537
 51
229.5586969545
  0
LINE
  8
CYAN
 10
-265.1858080888
 20
-11.1316678826
 11
-265.3261728787
 21
-10.3370604282
  0
ARC
  8
CYAN
 10
-262.8970937522
 20
-9.8658154392
 40
2.4743680491
 50
137.0300292469
 51
190.9790844427
  0
LINE
  8
CYAN
 10
-264.7076161776
 20
-8.1792491673
 11
-263.2682823156
 21
-6.6423736717
  0
ARC
  8
CYAN
 10
-261.5184146329
 20
-8.2499595419
 40
2.3762090054
 50
98.1461010529
 51
137.42662255
  0
LINE
  8
CYAN
 10
-261.8551181602
 20
-5.8977265662
 11
-250.1810499604
 21
-4.4108114195
  0
ARC
  8
CYAN
 10
-249.2097459039
 20
-13.8055876638
 40
9.4448532149
 50
89.7152720749
 51
95.9027055832
  0
LINE
  8
CYAN
 10
-249.1628104679
 20
-4.3608510706
 11
-246.386442506
 21
-4.3608510706
  0
ARC
  8
CYAN
 10
-246.3871997205
 20
-6.665850374
 40
2.3049994278
 50
44.9811726604
 51
89.9811777842
  0
LINE
  8
CYAN
 10
-244.7567835052
 20
-5.0365053132
 11
-243.0652688343
 21
-6.7422943695
  0
ARC
  8
CYAN
 10
-244.4759323609
 20
-8.1517253372
 40
1.9941081309
 50
304.7652467105
 51
44.9749581355
  0
ARC
  8
CYAN
 10
-168.3504609055
 20
-94.5403470185
 40
3.1259199555
 50
12.6814934344
 51
25.2002239108
  0
LINE
  8
CYAN
 10
-165.5220491673
 20
-93.209383981
 11
-166.9970689929
 21
-90.0904307692
  0
ARC
  8
CYAN
 10
-169.4145111018
 20
-91.2247660451
 40
2.6703450841
 50
25.1373573082
 51
41.2314045435
  0
LINE
  8
CYAN
 10
-167.4062680412
 20
-89.4647368755
 11
-171.0129294211
 21
-85.3846417129
  0
ARC
  8
CYAN
 10
-170.0090098682
 20
-84.5065408958
 40
1.333759916
 50
161.6059658278
 51
221.1752955755
  0
LINE
  8
CYAN
 10
-171.2746264869
 20
-84.0856726408
 11
-171.1509151467
 21
-83.7383292625
  0
ARC
  8
CYAN
 10
-170.3468959434
 20
-84.007218161
 40
0.8477901386
 50
73.6954609022
 51
161.508470381
  0
LINE
  8
CYAN
 10
-170.1088850119
 20
-83.1935235527
 11
-168.2508358446
 21
-83.7216758128
  0
ARC
  8
CYAN
 10
-168.1507527629
 20
-83.3670216294
 40
0.3685053773
 50
254.2409828591
 51
19.5871304088
  0
LINE
  8
CYAN
 10
-167.8035717684
 20
-83.2434839017
 11
-168.3483774782
 21
-81.6328574148
  0
LINE
  8
CYAN
 10
-168.3483774782
 20
-81.6328574148
 11
-169.9352133228
 21
-78.9302404441
  0
ARC
  8
CYAN
 10
-167.6298300961
 20
-77.6101545859
 40
2.6565802255
 50
176.913522226
 51
209.7958907324
  0
LINE
  8
CYAN
 10
-170.282556701
 20
-77.4671159397
 11
-170.1588453608
 21
-74.6146179223
  0
ARC
  8
CYAN
 10
-169.4405296193
 20
-74.6647775748
 40
0.7200649244
 50
105.9026682487
 51
176.0055466137
  0
LINE
  8
CYAN
 10
-169.6378302934
 20
-73.9722705789
 11
-169.19770341
 21
-73.8247685964
  0
ARC
  8
CYAN
 10
-168.8678143157
 20
-74.9882636315
 40
1.2093583056
 50
64.5632517064
 51
105.8297767755
  0
LINE
  8
CYAN
 10
-168.3483774782
 20
-73.8961405234
 11
-166.0977827121
 21
-74.9476869151
  0
ARC
  8
CYAN
 10
-165.6720551755
 20
-74.0460096481
 40
0.9971287928
 50
244.7256294267
 51
284.3745983642
  0
LINE
  8
CYAN
 10
-165.4245075337
 20
-75.0119216495
 11
-165.0057922284
 21
-74.895347502
  0
ARC
  8
CYAN
 10
-165.2240188025
 20
-73.971333646
 40
0.949433749
 50
283.2881928493
 51
7.4299121268
  0
LINE
  8
CYAN
 10
-164.282556701
 20
-73.8485592387
 11
-164.6584488501
 21
-71.0460215702
  0
ARC
  8
CYAN
 10
-166.9356760138
 20
-71.3422072111
 40
2.2964079535
 50
7.4105271713
 51
34.8442180055
  0
LINE
  8
CYAN
 10
-165.0509944489
 20
-70.030161142
 11
-166.3309310071
 21
-68.1816282316
  0
ARC
  8
CYAN
 10
-164.3579677907
 20
-66.8088250278
 40
2.4035749394
 50
179.9452703682
 51
214.8304977337
  0
LINE
  8
CYAN
 10
-166.7615416336
 20
-66.8065291039
 11
-166.7615416336
 21
-65.2458629659
  0
ARC
  8
CYAN
 10
-165.3530088441
 20
-65.2741524234
 40
1.4088168485
 50
129.0481905468
 51
178.8494065317
  0
LINE
  8
CYAN
 10
-166.2405265662
 20
-64.1800421887
 11
-165.3483774782
 21
-63.4353950833
  0
ARC
  8
CYAN
 10
-164.1497511526
 20
-64.8914344009
 40
1.8859362563
 50
64.5879065426
 51
129.4615577037
  0
LINE
  8
CYAN
 10
-163.3404472641
 20
-63.1879724029
 11
-154.7877113402
 21
-67.2276234734
  0
ARC
  8
CYAN
 10
-155.2132872472
 20
-68.0776338981
 40
0.9505959051
 50
340.6012755662
 51
63.404182505
  0
LINE
  8
CYAN
 10
-154.3166566217
 20
-68.3933649485
 11
-156.9693132435
 21
-75.8303197462
  0
LINE
  8
CYAN
 10
-156.9693132435
 20
-75.8303197462
 11
-154.0692339413
 21
-76.4750461538
  0
LINE
  8
CYAN
 10
-154.0692339413
 20
-76.4750461538
 11
-150.7551974623
 21
-67.2752047581
  0
ARC
  8
CYAN
 10
-149.556518178
 20
-67.7232064195
 40
1.2796630476
 50
98.9677657536
 51
159.5069684732
  0
LINE
  8
CYAN
 10
-149.7559904837
 20
-66.4591857256
 11
-143.0375130849
 21
-65.4433252974
  0
ARC
  8
CYAN
 10
-142.5795432197
 20
-68.5646575734
 40
3.1547506359
 50
81.6529733719
 51
98.3470266281
  0
LINE
  8
CYAN
 10
-142.1215733545
 20
-65.4433252974
 11
-139.6449674861
 21
-65.8097011895
  0
ARC
  8
CYAN
 10
-139.8895890611
 20
-67.4517449374
 40
1.6601648668
 50
0.0168911177
 51
81.526743472
  0
LINE
  8
CYAN
 10
-138.2294242665
 20
-67.4512555115
 11
-138.2294242665
 21
-69.5353157811
  0
ARC
  8
CYAN
 10
-139.7311979226
 20
-69.5590005166
 40
1.5019604126
 50
330.2739230632
 51
0.9035468713
  0
LINE
  8
CYAN
 10
-138.4268865979
 20
-70.3037535289
 11
-139.7662997621
 21
-72.5091460745
  0
ARC
  8
CYAN
 10
-141.4268865979
 20
-71.4932856463
 40
1.9466692192
 50
301.456120635
 51
328.543879365
  0
LINE
  8
CYAN
 10
-140.4110261697
 20
-73.1538724822
 11
-143.2016685171
 21
-74.8406290246
  0
ARC
  8
CYAN
 10
-142.7399322782
 20
-75.6074856766
 40
0.8951365701
 50
121.0527957201
 51
266.7878030486
  0
LINE
  8
CYAN
 10
-142.7900904044
 20
-76.5012158604
 11
-140.7084091991
 21
-76.6249272006
  0
ARC
  8
CYAN
 10
-140.7976007682
 20
-78.2529697599
 40
1.6304838886
 50
28.8145260746
 51
86.8642115361
  0
LINE
  8
CYAN
 10
-139.3689960349
 20
-77.4671159397
 11
-138.6838255353
 21
-78.7851175258
  0
ARC
  8
CYAN
 10
-139.9399419987
 20
-79.4746524518
 40
1.4329295111
 50
322.6792129688
 51
28.7642269781
  0
LINE
  8
CYAN
 10
-138.8003996828
 20
-80.3434045995
 11
-141.5101538462
 21
-83.8572824742
  0
ARC
  8
CYAN
 10
-143.1623443135
 20
-82.5497317282
 40
2.1069936624
 50
298.0504284389
 51
321.6417544386
  0
LINE
  8
CYAN
 10
-142.1715337034
 20
-84.4092253767
 11
-144.4816050753
 21
-85.6606131642
  0
ARC
  8
CYAN
 10
-144.0060599337
 20
-86.5895156823
 40
1.0435530988
 50
117.1098588087
 51
265.9620939547
  0
LINE
  8
CYAN
 10
-144.0795432197
 20
-87.6304783505
 11
-142.8900111023
 21
-87.7042293418
  0
ARC
  8
CYAN
 10
-142.9614959797
 20
-88.5391830941
 40
0.8380082674
 50
13.1204759339
 51
85.1065335083
  0
LINE
  8
CYAN
 10
-142.1453639968
 20
-88.3489557494
 11
-141.9978620143
 21
-89.0436425059
  0
ARC
  8
CYAN
 10
-143.4829197855
 20
-89.3803239716
 40
1.5227445594
 50
301.3729150638
 51
12.7737514857
  0
LINE
  8
CYAN
 10
-142.6901697066
 20
-90.6804386994
 11
-145.7662997621
 21
-92.4885275178
  0
ARC
  8
CYAN
 10
-147.1299929679
 20
-90.2400134042
 40
2.6297290505
 50
282.0205547667
 51
301.2362414257
  0
LINE
  8
CYAN
 10
-146.5823187946
 20
-92.8120802538
 11
-147.4506772403
 21
-92.9857519429
  0
ARC
  8
CYAN
 10
-147.0057922284
 20
-95.1911444885
 40
2.2498175379
 50
101.4049896734
 51
168.5950103266
  0
LINE
  8
CYAN
 10
-149.211184774
 20
-94.7462594766
 11
-150.1532942109
 21
-99.5305576527
  0
ARC
  8
CYAN
 10
-152.322413446
 20
-99.0941630518
 40
2.2125818636
 50
311.7887054008
 51
348.6247894711
  0
LINE
  8
CYAN
 10
-150.8479809675
 20
-100.7438804124
 11
-153.5077747819
 21
-103.0896377478
  0
ARC
  8
CYAN
 10
-154.2429597901
 20
-102.280733412
 40
1.0930796955
 50
182.6208564794
 51
312.2666079769
  0
LINE
  8
CYAN
 10
-155.3348961142
 20
-102.3307162569
 11
-155.8535321174
 21
-92.7383292625
  0
LINE
  8
CYAN
 10
-155.8535321174
 20
-92.7383292625
 11
-158.829741475
 21
-92.7383292625
  0
LINE
  8
CYAN
 10
-158.829741475
 20
-92.7383292625
 11
-158.2849357653
 21
-102.7518106265
  0
ARC
  8
CYAN
 10
-158.8340055486
 20
-102.7775242824
 40
0.5496715556
 50
262.7375026607
 51
2.6812772541
  0
LINE
  8
CYAN
 10
-158.9034924663
 20
-103.3227860428
 11
-160.8115019826
 21
-103.0254030135
  0
LINE
  8
CYAN
 10
-160.8115019826
 20
-103.0254030135
 11
-163.2429056305
 21
-100.6201690722
  0
ARC
  8
CYAN
 10
-160.8281973519
 20
-98.2529221321
 40
3.3815195025
 50
192.0624138285
 51
224.4313528725
  0
LINE
  8
CYAN
 10
-164.1350547185
 20
-98.9595822363
 11
-165.3007961935
 21
-93.8541103886
  0
ARC
  8
CYAN
 10
-169.0427520465
 20
68.9687977477
 40
3.6498505245
 50
41.6769238643
 51
58.004795487
  0
LINE
  8
CYAN
 10
-166.3166566217
 20
71.3956913561
 11
-164.5061887391
 21
69.387761142
  0
ARC
  8
CYAN
 10
-168.7692966788
 20
65.5689837098
 40
5.7233862688
 50
7.7198243351
 51
41.8531279981
  0
LINE
  8
CYAN
 10
-163.0977827121
 20
66.337800793
 11
-162.721890563
 21
63.8112345757
  0
ARC
  8
CYAN
 10
-166.4572432813
 20
63.3012178759
 40
3.7700102074
 50
324.4375467118
 51
7.7749603157
  0
LINE
  8
CYAN
 10
-163.390407613
 20
61.1086176051
 11
-164.3586867565
 21
59.7454137986
  0
ARC
  8
CYAN
 10
-165.8702542365
 20
60.8106800048
 40
1.8492237119
 50
280.7034002045
 51
324.8260107411
  0
LINE
  8
CYAN
 10
-165.5268072958
 20
58.9936295004
 11
-169.1905662173
 21
58.3060799366
  0
LINE
  8
CYAN
 10
-169.1905662173
 20
58.3060799366
 11
-174.5458398097
 21
58.0348666138
  0
LINE
  8
CYAN
 10
-174.5458398097
 20
58.0348666138
 11
-176.1826360032
 21
57.6613535289
  0
ARC
  8
CYAN
 10
-176.5294368957
 20
59.1505327288
 40
1.529027648
 50
232.9507867192
 51
283.10941755
  0
LINE
  8
CYAN
 10
-177.4506772403
 20
57.9301877875
 11
-181.6116605868
 21
61.1324082474
  0
LINE
  8
CYAN
 10
-181.6116605868
 20
61.1324082474
 11
-183.3721681205
 21
58.7033836638
  0
LINE
  8
CYAN
 10
-183.3721681205
 20
58.7033836638
 11
-179.3063473434
 21
55.6534233148
  0
ARC
  8
CYAN
 10
-180.1957595039
 20
54.4725232339
 40
1.4783703841
 50
351.0542664094
 51
53.0142341293
  0
LINE
  8
CYAN
 10
-178.735371927
 20
54.2426382236
 11
-179.2563869945
 21
50.8453344964
  0
ARC
  8
CYAN
 10
-173.9533971312
 20
50.0099876859
 40
5.3683801825
 50
171.0481139229
 51
210.3119023553
  0
LINE
  8
CYAN
 10
-178.5878699445
 20
47.3005287867
 11
-177.6957208565
 21
45.7874439334
  0
ARC
  8
CYAN
 10
-179.4301263775
 20
44.7703978785
 40
2.010608164
 50
323.0091386259
 51
30.3871300252
  0
LINE
  8
CYAN
 10
-177.8241903251
 20
43.5606398097
 11
-178.9090436162
 21
42.1189268834
  0
ARC
  8
CYAN
 10
-180.6932143525
 20
43.4584495791
 40
2.2310504855
 50
298.2551605125
 51
323.1014495975
  0
LINE
  8
CYAN
 10
-179.637037272
 20
41.4932329897
 11
-182.0327549564
 21
40.1847476606
  0
ARC
  8
CYAN
 10
-183.2708972519
 20
42.4430613419
 40
2.5754566638
 50
287.8835088748
 51
298.7341816155
  0
LINE
  8
CYAN
 10
-182.4800190325
 20
39.9920434576
 11
-184.4118191911
 21
39.3687286281
  0
ARC
  8
CYAN
 10
-185.6780762683
 20
43.2846833996
 40
4.1155933665
 50
249.1843066345
 51
287.9190522349
  0
LINE
  8
CYAN
 10
-187.1406058684
 20
39.4377214909
 11
-189.8908041237
 21
40.5083003965
  0
ARC
  8
CYAN
 10
-188.7406594021
 20
43.5283725078
 40
3.231666511
 50
214.5022358072
 51
249.1514888698
  0
LINE
  8
CYAN
 10
-191.403888977
 20
41.6978325139
 11
-192.9145947661
 21
43.9032250595
  0
ARC
  8
CYAN
 10
-187.2649122117
 20
47.7733661392
 40
6.8481314928
 50
182.5038051149
 51
214.4118925122
  0
LINE
  8
CYAN
 10
-194.1065059477
 20
47.4742004758
 11
-194.3039682791
 21
52.3084590008
  0
ARC
  8
CYAN
 10
-187.2144285761
 20
52.6065135593
 40
7.0958022605
 50
172.7826012616
 51
182.407380221
  0
LINE
  8
CYAN
 10
-194.2540079302
 20
53.4979911182
 11
-193.6354512292
 21
58.3322496431
  0
ARC
  8
CYAN
 10
-187.1221526864
 20
57.54069724
 40
6.5612203982
 50
149.3558029984
 51
173.070900183
  0
LINE
  8
CYAN
 10
-192.7670927835
 20
60.884985567
 11
-190.3880285488
 21
64.827095004
  0
ARC
  8
CYAN
 10
-185.9521390448
 20
62.1696729006
 40
5.1709774634
 50
139.2079716652
 51
149.0753087818
  0
LINE
  8
CYAN
 10
-189.8670134814
 20
65.5479514671
 11
-187.8091229183
 21
67.9246366376
  0
ARC
  8
CYAN
 10
-183.1490450873
 20
63.8844923208
 40
6.1675839266
 50
129.1226774922
 51
139.0757168903
  0
LINE
  8
CYAN
 10
-187.0406851705
 20
68.6692837431
 11
-182.8011927042
 21
72.114168755
  0
ARC
  8
CYAN
 10
-179.7237753701
 20
68.347966022
 40
4.8636180436
 50
113.4805064547
 51
129.2527425992
  0
LINE
  8
CYAN
 10
-181.6616209358
 20
72.8088555115
 11
-178.3142775575
 21
74.2719800159
  0
ARC
  8
CYAN
 10
-176.6780351821
 20
70.479663041
 40
4.1302490419
 50
84.836874496
 51
113.3383839871
  0
LINE
  8
CYAN
 10
-176.3063473434
 20
74.5931536876
 11
-170.9772434576
 21
74.0983083267
  0
ARC
  8
CYAN
 10
-171.2491055855
 20
71.1484896455
 40
2.9623199133
 50
57.6500346428
 51
84.7343631031
  0
LINE
  8
CYAN
 10
-169.664
 20
73.6510442506
 11
-167.1088850119
 21
72.064208406
  0
ARC
  8
CYAN
 10
-292.3725684195
 20
30.5911749465
 40
0.3723216526
 50
89.8163621784
 51
179.81753185
  0
LINE
  8
CYAN
 10
-292.3713750991
 20
30.9634946868
 11
-288.1580523394
 21
30.9634946868
  0
LINE
  8
CYAN
 10
-288.1580523394
 20
30.9634946868
 11
-288.1580523394
 21
33.9397040444
  0
LINE
  8
CYAN
 10
-288.1580523394
 20
33.9397040444
 11
-292.5950071372
 21
33.9373249802
  0
ARC
  8
CYAN
 10
-292.5954987622
 20
34.3112952449
 40
0.3739705879
 50
184.0829418951
 51
270.0753215487
  0
LINE
  8
CYAN
 10
-292.9685202221
 20
34.2846683584
 11
-293.5394956384
 21
44.6716628073
  0
ARC
  8
CYAN
 10
-292.8923102338
 20
44.7217204077
 40
0.6491184108
 50
96.7423827356
 51
184.4228287774
  0
LINE
  8
CYAN
 10
-292.9685202221
 20
45.3663495638
 11
-292.5950071372
 21
45.4163099128
  0
ARC
  8
CYAN
 10
-292.4046121397
 20
43.7105012799
 40
1.7164012779
 50
52.3222864071
 51
96.3687475047
  0
LINE
  8
CYAN
 10
-291.3555146709
 20
45.0689665345
 11
-289.6211768438
 21
43.7295533703
  0
ARC
  8
CYAN
 10
-290.760417705
 20
42.2184127108
 40
1.8924629013
 50
21.5498484871
 51
52.987554984
  0
LINE
  8
CYAN
 10
-289.0002410785
 20
42.9135343378
 11
-287.9130087232
 21
40.1109966693
  0
ARC
  8
CYAN
 10
-286.3227232142
 20
40.7305547299
 40
1.7067103418
 50
201.2853510771
 51
234.4154774807
  0
LINE
  8
CYAN
 10
-287.3158636003
 20
39.3425589215
 11
-285.5553560666
 21
38.0792758128
  0
ARC
  8
CYAN
 10
-283.9278866745
 20
40.4334469356
 40
2.8619535806
 50
235.3433859873
 51
258.1962971466
  0
LINE
  8
CYAN
 10
-284.5133259318
 20
37.6320117367
 11
-283.2000824742
 21
37.3346287074
  0
ARC
  8
CYAN
 10
-283.7815713113
 20
34.638242181
 40
2.7583744429
 50
35.627134161
 51
77.8302621519
  0
LINE
  8
CYAN
 10
-281.5394956384
 20
36.2450172879
 11
-279.9026994449
 21
33.9135343378
  0
ARC
  8
CYAN
 10
-283.1728181956
 20
31.5699186539
 40
4.0232090572
 50
9.7745715951
 51
35.6282612638
  0
LINE
  8
CYAN
 10
-279.2080126883
 20
32.252947502
 11
-278.7369579699
 21
29.3766588422
  0
ARC
  8
CYAN
 10
-282.95313919
 20
28.6914641307
 40
4.271495742
 50
356.5517888731
 51
9.2307503194
  0
LINE
  8
CYAN
 10
-278.6893766852
 20
28.4345494052
 11
-278.9367993656
 21
24.1213059477
  0
ARC
  8
CYAN
 10
-280.078357508
 20
24.1737211582
 40
1.1427608441
 50
204.4787544883
 51
357.3710821743
  0
LINE
  8
CYAN
 10
-281.1184012688
 20
23.7002115781
 11
-281.7369579699
 21
25.0634153846
  0
ARC
  8
CYAN
 10
-283.9426081232
 20
24.0682801449
 40
2.4197493144
 50
24.2837284443
 51
45.0868452691
  0
LINE
  8
CYAN
 10
-282.2341823949
 20
25.7818927835
 11
-283.0549595559
 21
26.597911816
  0
ARC
  8
CYAN
 10
-284.2903366929
 20
25.3603857902
 40
1.7486072558
 50
45.0497885373
 51
108.2134824493
  0
LINE
  8
CYAN
 10
-284.8368786677
 20
27.0213852498
 11
-285.6552767645
 21
26.750171927
  0
ARC
  8
CYAN
 10
-285.0551710618
 20
24.9664176319
 40
1.8819952816
 50
108.59440405
 51
157.5749432992
  0
LINE
  8
CYAN
 10
-286.7948485329
 20
25.6843511499
 11
-287.8844599524
 21
23.0316945282
  0
ARC
  8
CYAN
 10
-283.7931965697
 20
21.3465738571
 40
4.424711035
 50
157.6140839557
 51
176.167499648
  0
LINE
  8
CYAN
 10
-288.2080126883
 20
21.6423210151
 11
-288.4102331483
 21
18.7922020619
  0
ARC
  8
CYAN
 10
-292.8703020078
 20
19.0984117985
 40
4.4705680438
 50
350.9459828997
 51
356.0724738313
  0
LINE
  8
CYAN
 10
-288.4554353688
 20
18.3948983347
 11
-289.2738334655
 21
13.239466138
  0
ARC
  8
CYAN
 10
-283.8923199486
 20
12.3875390893
 40
5.4485289233
 50
171.004372218
 51
187.2219063071
  0
LINE
  8
CYAN
 10
-289.2976241079
 20
11.7025906423
 11
-288.4792260111
 21
6.0998943695
  0
ARC
  8
CYAN
 10
-288.950664487
 20
5.9997174247
 40
0.481964373
 50
235.4681143911
 51
11.9964654201
  0
LINE
  8
CYAN
 10
-289.2238731166
 20
5.6026699445
 11
-290.0922315623
 21
6.1736453608
  0
ARC
  8
CYAN
 10
-289.2536114195
 20
7.4095692308
 40
1.4935834614
 50
214.1583459972
 51
235.8416540028
  0
LINE
  8
CYAN
 10
-290.4895352895
 20
6.570949088
 11
-291.2627311657
 21
7.6819720856
  0
ARC
  8
CYAN
 10
-288.851647408
 20
9.3682015786
 40
2.9422261622
 50
186.2099710321
 51
214.9676252455
  0
LINE
  8
CYAN
 10
-291.7766090405
 20
9.0499340206
 11
-292.7020650278
 21
17.3290775575
  0
ARC
  8
CYAN
 10
-286.1267364368
 20
18.0807663596
 40
6.6181554934
 50
180.0609625405
 51
186.5217170831
  0
LINE
  8
CYAN
 10
-292.744888184
 20
18.073724663
 11
-292.744888184
 21
30.5923606661
  0
ARC
  8
CYAN
 10
-340.2913748283
 20
-168.9386416628
 40
2.4048399912
 50
1.7308289136
 51
26.7853178149
  0
LINE
  8
CYAN
 10
-337.8876320381
 20
-168.8660057098
 11
-337.8876320381
 21
-174.0737773196
  0
LINE
  8
CYAN
 10
-337.8876320381
 20
-174.0737773196
 11
-338.089852498
 21
-176.6740945282
  0
ARC
  8
CYAN
 10
-338.4814274103
 20
-176.6500320936
 40
0.3923135388
 50
214.8009196813
 51
356.4835732332
  0
LINE
  8
CYAN
 10
-338.8035717684
 20
-176.8739359239
 11
-343.8614623315
 21
-169.6844038065
  0
LINE
  8
CYAN
 10
-343.8614623315
 20
-169.6844038065
 11
-346.2405265662
 21
-171.4710810468
  0
LINE
  8
CYAN
 10
-346.2405265662
 20
-171.4710810468
 11
-341.2207010309
 21
-178.6177900079
  0
ARC
  8
CYAN
 10
-341.6785757336
 20
-178.9063229183
 40
0.541202812
 50
254.0428413254
 51
32.2173633829
  0
LINE
  8
CYAN
 10
-341.8273624108
 20
-179.4266718477
 11
-347.1612244251
 21
-177.8065291039
  0
ARC
  8
CYAN
 10
-346.2906523598
 20
-174.9658353575
 40
2.9711002476
 50
229.387341703
 51
252.9615521206
  0
LINE
  8
CYAN
 10
-348.224666138
 20
-177.2212793021
 11
-352.5878699445
 21
-173.4790112609
  0
ARC
  8
CYAN
 10
-351.0407702865
 20
-171.7082721096
 40
2.3513899068
 50
205.8729353601
 51
228.8561987335
  0
LINE
  8
CYAN
 10
-353.1564662966
 20
-172.7343641554
 11
-354.5196701031
 21
-170.0079565424
  0
ARC
  8
CYAN
 10
-350.5351715386
 20
-168.0354749923
 40
4.4459995812
 50
172.5008451731
 51
206.3371974161
  0
LINE
  8
CYAN
 10
-354.9431435369
 20
-167.4552206186
 11
-354.8670134814
 21
-166.6867828707
  0
ARC
  8
CYAN
 10
-354.4245752208
 20
-166.7034502785
 40
0.4427520942
 50
25.4612099855
 51
177.84258995
  0
LINE
  8
CYAN
 10
-354.0248247423
 20
-166.5131111816
 11
-351.893183188
 21
-170.5527622522
  0
LINE
  8
CYAN
 10
-351.893183188
 20
-170.5527622522
 11
-349.6616209358
 21
-168.5686226804
  0
LINE
  8
CYAN
 10
-349.6616209358
 20
-168.5686226804
 11
-352.9114226804
 21
-162.4472904044
  0
ARC
  8
CYAN
 10
-352.1644688515
 20
-162.0503638827
 40
0.8458668253
 50
130.3012803437
 51
207.9858929601
  0
LINE
  8
CYAN
 10
-352.7115812847
 20
-161.4052602696
 11
-351.8551181602
 21
-160.6748875496
  0
ARC
  8
CYAN
 10
-351.3728814588
 20
-161.2315456481
 40
0.736492006
 50
42.2089882494
 51
130.9026067213
  0
LINE
  8
CYAN
 10
-350.8273624108
 20
-160.7367432197
 11
-345.7694718477
 21
-166.1395980968
  0
LINE
  8
CYAN
 10
-345.7694718477
 20
-166.1395980968
 11
-343.7877113402
 21
-163.9080358446
  0
LINE
  8
CYAN
 10
-343.7877113402
 20
-163.9080358446
 11
-346.9352133228
 21
-160.536901824
  0
ARC
  8
CYAN
 10
-346.6283380758
 20
-160.2086374548
 40
0.4493661239
 50
78.3907747125
 51
226.9287782351
  0
LINE
  8
CYAN
 10
-346.5379095956
 20
-159.7684640761
 11
-344.8273624108
 21
-160.020644885
  0
ARC
  8
CYAN
 10
-345.0719604314
 20
-161.7537860636
 40
1.7503161248
 50
52.6042691635
 51
81.9669061302
  0
LINE
  8
CYAN
 10
-344.008964314
 20
-160.3632301348
 11
-341.1850150674
 21
-162.4972507534
  0
ARC
  8
CYAN
 10
-343.1887960106
 20
-165.1496551686
 40
3.3242122751
 50
26.6114843406
 51
52.9304739769
  0
LINE
  8
CYAN
 10
-340.2167359239
 20
-163.6606131642
 11
-338.1445709754
 21
-167.85490341
  0
LINE
  8
CYAN
 10
-50.0279968279
 20
70.777134655
 11
-50.4229214909
 21
71.8667460745
  0
ARC
  8
CYAN
 10
-50.8436516889
 20
71.7190019567
 40
0.4459172837
 50
19.3492954868
 51
93.4113452615
  0
ARC
  8
CYAN
 10
-50.9834778348
 20
73.3676255488
 40
1.2088171205
 50
226.713792332
 51
275.377744269
  0
LINE
  8
CYAN
 10
-51.812295004
 20
72.4876818398
 11
-56.099368755
 21
76.5772932593
  0
LINE
  8
CYAN
 10
-56.099368755
 20
76.5772932593
 11
-57.8360856463
 21
74.172059318
  0
LINE
  8
CYAN
 10
-57.8360856463
 20
74.172059318
 11
-52.9280761301
 21
69.4876818398
  0
ARC
  8
CYAN
 10
-55.9522356098
 20
66.3266903158
 40
4.3746323244
 50
4.0750194047
 51
46.2673288057
  0
LINE
  8
CYAN
 10
-51.5886629659
 20
66.6375628866
 11
-51.2912799366
 21
62.5717421094
  0
LINE
  8
CYAN
 10
-51.2912799366
 20
62.5717421094
 11
-51.2912799366
 21
60.3140101507
  0
ARC
  8
CYAN
 10
-47.3496827654
 20
60.301080792
 40
3.9416183768
 50
179.8120571451
 51
195.8522347633
  0
LINE
  8
CYAN
 10
-51.1413988898
 20
59.2243987312
 11
-50.8939762094
 21
58.3322496431
  0
ARC
  8
CYAN
 10
-51.4892411641
 20
58.1579114289
 40
0.6202694408
 50
270.0460842292
 51
16.323987712
  0
LINE
  8
CYAN
 10
-51.488742268
 20
57.5376421887
 11
-52.3571007137
 21
57.5638118953
  0
ARC
  8
CYAN
 10
-52.3718856662
 20
58.7250568132
 40
1.1613390349
 50
215.0170374084
 51
270.7294495724
  0
LINE
  8
CYAN
 10
-53.323000793
 20
58.0586572561
 11
-54.6862045995
 21
60.0427968279
  0
ARC
  8
CYAN
 10
-55.5457051782
 20
59.4352290647
 40
1.052558707
 50
35.2559038968
 51
89.1871107034
  0
LINE
  8
CYAN
 10
-55.5307724029
 20
60.4876818398
 11
-56.372961142
 21
60.4876818398
  0
ARC
  8
CYAN
 10
-56.372961142
 20
59.719244092
 40
0.7684377478
 50
90.0
 51
180.0
  0
LINE
  8
CYAN
 10
-57.1413988898
 20
59.719244092
 11
-57.1413988898
 21
57.5876025377
  0
ARC
  8
CYAN
 10
-57.7613724178
 20
57.5885257174
 40
0.6199742153
 50
267.7118200066
 51
359.914683034
  0
LINE
  8
CYAN
 10
-57.7861252974
 20
56.9690458366
 11
-84.9312482157
 21
57.9849062649
  0
LINE
  8
CYAN
 10
-84.9312482157
 20
57.9849062649
 11
-84.9312482157
 21
55.0110759715
  0
LINE
  8
CYAN
 10
-84.9312482157
 20
55.0110759715
 11
-58.0597176844
 21
53.992836479
  0
ARC
  8
CYAN
 10
-58.1328900365
 20
52.1342163877
 40
1.8600599014
 50
3.0235829686
 51
87.7454763505
  0
LINE
  8
CYAN
 10
-56.2754195083
 20
52.2323289453
 11
-55.430851705
 21
36.6899022998
  0
ARC
  8
CYAN
 10
-83.9297768707
 20
35.1988118038
 40
28.5379061332
 50
349.6978885284
 51
2.9950379655
  0
LINE
  8
CYAN
 10
-55.8519460745
 20
30.0951362411
 11
-57.3888215702
 21
21.5685700238
  0
ARC
  8
CYAN
 10
-57.7612150954
 20
21.642600905
 40
0.3796807988
 50
219.3161528157
 51
348.7563341201
  0
LINE
  8
CYAN
 10
-58.0549595559
 20
21.4020355274
 11
-61.9518667724
 21
26.6264605868
  0
LINE
  8
CYAN
 10
-61.9518667724
 20
26.6264605868
 11
-63.1913592387
 21
23.9238436162
  0
LINE
  8
CYAN
 10
-63.1913592387
 20
23.9238436162
 11
-58.4546423473
 21
17.800132276
  0
ARC
  8
CYAN
 10
-59.4731233354
 20
17.0329761012
 40
1.2750812207
 50
344.3546378953
 51
36.9883619918
  0
LINE
  8
CYAN
 10
-58.2452846947
 20
16.6891092784
 11
-58.9518667724
 21
14.0079038858
  0
ARC
  8
CYAN
 10
-62.2499990509
 20
14.8742331151
 40
3.4100150821
 50
334.1861643526
 51
345.2824407055
  0
LINE
  8
CYAN
 10
-59.1802569389
 20
13.3893471848
 11
-61.0335479778
 21
9.4948190325
  0
ARC
  8
CYAN
 10
-61.7041206747
 20
9.8207389797
 40
0.7455813529
 50
201.7234340993
 51
334.0787540343
  0
LINE
  8
CYAN
 10
-62.3967517843
 20
9.5447793814
 11
-62.6941348136
 21
10.2894264869
  0
ARC
  8
CYAN
 10
-63.1407001732
 20
10.1158484402
 40
0.479113722
 50
21.2408913671
 51
174.0257698074
  0
LINE
  8
CYAN
 10
-63.6172117367
 20
10.1657151467
 11
-64.0073782712
 21
6.5209887391
  0
ARC
  8
CYAN
 10
-66.5614727315
 20
6.7986080738
 40
2.5691381837
 50
337.7619155405
 51
353.7965438592
  0
LINE
  8
CYAN
 10
-64.1834290246
 20
5.8263019826
 11
-65.7678858049
 21
1.9603226011
  0
ARC
  8
CYAN
 10
-67.0244356711
 20
2.4856143768
 40
1.361928418
 50
302.6883101056
 51
337.3129790896
  0
LINE
  8
CYAN
 10
-66.2889008723
 20
1.3393868358
 11
-67.0073782712
 21
0.8683321174
  0
ARC
  8
CYAN
 10
-67.428720674
 20
1.5417441752
 40
0.7943634055
 50
180.1814700819
 51
302.0335106543
  0
LINE
  8
CYAN
 10
-68.2230800952
 20
1.5392282316
 11
-68.2230800952
 21
3.1498547185
  0
ARC
  8
CYAN
 10
-68.6203838224
 20
3.1498547185
 40
0.3973037272
 50
0.0
 51
90.0
  0
LINE
  8
CYAN
 10
-68.6203838224
 20
3.5471584457
 11
-69.1651895321
 21
3.5471584457
  0
ARC
  8
CYAN
 10
-69.0602506375
 20
2.5530202904
 40
0.9996613643
 50
96.0256940952
 51
184.1120320622
  0
LINE
  8
CYAN
 10
-70.0573386201
 20
2.4813376685
 11
-69.7837462332
 21
-2.4028812054
  0
ARC
  8
CYAN
 10
-73.1068998459
 20
-2.574511226
 40
3.3275827259
 50
334.921122218
 51
2.9565128588
  0
LINE
  8
CYAN
 10
-70.0930245837
 20
-3.9849589215
 11
-71.8178461538
 21
-7.7819454401
  0
ARC
  8
CYAN
 10
-74.7843120856
 20
-6.3577999511
 40
3.2906094417
 50
319.318352808
 51
334.3551979277
  0
LINE
  8
CYAN
 10
-72.2889008723
 20
-8.5028019033
 11
-73.552183981
 21
-10.0396773989
  0
ARC
  8
CYAN
 10
-74.4446743567
 20
-9.2950003934
 40
1.1623609222
 50
209.8272354235
 51
320.159021711
  0
LINE
  8
CYAN
 10
-75.4530563045
 20
-9.8731429025
 11
-75.9812085646
 21
-8.9238962728
  0
ARC
  8
CYAN
 10
-76.5291141895
 20
-9.2427524529
 40
0.6339320448
 50
30.1974606165
 51
159.5668675412
  0
LINE
  8
CYAN
 10
-77.1231593973
 20
-9.0214379064
 11
-78.7575765266
 21
-13.5583134021
  0
ARC
  8
CYAN
 10
-82.726561058
 20
-12.152419741
 40
4.2106264614
 50
333.5277295451
 51
340.4948368507
  0
LINE
  8
CYAN
 10
-78.9574179223
 20
-14.0293681205
 11
-80.0731990484
 21
-16.3108907217
  0
ARC
  8
CYAN
 10
-80.7913701279
 20
-15.9636228412
 40
0.7977246895
 50
178.1146241586
 51
334.1941533142
  0
LINE
  8
CYAN
 10
-81.5886629659
 20
-15.9373776368
 11
-81.5839048374
 21
-15.3188209358
  0
ARC
  8
CYAN
 10
-82.030685113
 20
-15.3047722209
 40
0.4470010973
 50
358.1989649528
 51
131.7872920928
  0
LINE
  8
CYAN
 10
-82.3285519429
 20
-14.9714775575
 11
-82.9970689929
 21
-15.5662436162
  0
ARC
  8
CYAN
 10
-78.3874533827
 20
-20.7989473167
 40
6.973503
 50
131.3776079549
 51
145.565621113
  0
LINE
  8
CYAN
 10
-84.1390198255
 20
-16.8556964314
 11
-89.5918350515
 21
-24.8874172879
  0
ARC
  8
CYAN
 10
-91.5674600817
 20
-23.5486833356
 40
2.3864833657
 50
282.4009400008
 51
325.8774307559
  0
LINE
  8
CYAN
 10
-91.0549595559
 20
-25.8794870738
 11
-91.9970689929
 21
-26.0769494052
  0
ARC
  8
CYAN
 10
-92.1459845961
 20
-25.3478587797
 40
0.7441431294
 50
182.8332801967
 51
281.5437940887
  0
LINE
  8
CYAN
 10
-92.8892180809
 20
-25.3846417129
 11
-92.8892180809
 21
-24.6637852498
  0
ARC
  8
CYAN
 10
-93.5332501444
 20
-24.6639952329
 40
0.6440320977
 50
0.0186809721
 51
146.3286537663
  0
LINE
  8
CYAN
 10
-94.0692339413
 20
-24.3069256146
 11
-105.6552767645
 21
-41.5218344171
  0
ARC
  8
CYAN
 10
-106.4064035415
 20
-41.0201504338
 40
0.9032597934
 50
233.4173742993
 51
326.2607004727
  0
LINE
  8
CYAN
 10
-106.9447295797
 20
-41.7454664552
 11
-111.9026994449
 21
-37.9270683584
  0
LINE
  8
CYAN
 10
-111.9026994449
 20
-37.9270683584
 11
-113.242112609
 21
-40.5797249802
  0
LINE
  8
CYAN
 10
-113.242112609
 20
-40.5797249802
 11
-108.6552767645
 21
-44.1744910389
  0
ARC
  8
CYAN
 10
-109.2452874783
 20
-44.9381388606
 40
0.9650236464
 50
317.6965205669
 51
52.3095548432
  0
LINE
  8
CYAN
 10
-108.5315654243
 20
-45.5876551943
 11
-110.7369579699
 21
-48.0404704203
  0
ARC
  8
CYAN
 10
-111.506404804
 20
-47.3485977832
 40
1.0347638265
 50
268.6066970998
 51
318.0386963025
  0
LINE
  8
CYAN
 10
-111.5315654243
 20
-48.3830556701
 11
-112.8685995242
 21
-48.3640231562
  0
ARC
  8
CYAN
 10
-112.9125743712
 20
-46.3344337206
 40
2.0300657783
 50
244.4881762434
 51
271.241225902
  0
LINE
  8
CYAN
 10
-113.7869183188
 20
-48.1665608247
 11
-115.1001617764
 21
-47.4956647105
  0
ARC
  8
CYAN
 10
-115.6947338925
 20
-48.6851902783
 40
1.3298447569
 50
63.4422963966
 51
120.4261172189
  0
LINE
  8
CYAN
 10
-116.3682030135
 20
-47.5384878668
 11
-117.579146709
 21
-48.2902721649
  0
ARC
  8
CYAN
 10
-116.7366812343
 20
-49.7031040495
 40
1.644944379
 50
120.8074390026
 51
159.6133562588
  0
LINE
  8
CYAN
 10
-118.278591594
 20
-49.1300818398
 11
-119.4395749405
 21
-52.2561722443
  0
ARC
  8
CYAN
 10
-121.7598515082
 20
-51.3794543473
 40
2.4803865871
 50
325.7008245702
 51
339.3008979677
  0
LINE
  8
CYAN
 10
-119.7107882633
 20
-52.7771873117
 11
-120.7528183981
 21
-54.3378534496
  0
ARC
  8
CYAN
 10
-122.6596628892
 20
-53.0735351148
 40
2.2879153754
 50
296.7938051637
 51
326.4539429498
  0
LINE
  8
CYAN
 10
-121.6283140365
 20
-55.1158074544
 11
-122.7845392546
 21
-55.7010572561
  0
ARC
  8
CYAN
 10
-123.652385977
 20
-54.0146508402
 40
1.8966086928
 50
264.0083696574
 51
297.2309408949
  0
LINE
  8
CYAN
 10
-123.8503600317
 20
-55.9008986519
 11
-126.1057129263
 21
-55.6273062649
  0
ARC
  8
CYAN
 10
-126.0318354271
 20
-54.9828863955
 40
0.6486407734
 50
141.3916679282
 51
263.4600559145
  0
LINE
  8
CYAN
 10
-126.538702617
 20
-54.5781389374
 11
-124.5450467883
 21
-52.0087495638
  0
LINE
  8
CYAN
 10
-124.5450467883
 20
-52.0087495638
 11
-126.924111023
 21
-50.2482420301
  0
LINE
  8
CYAN
 10
-126.924111023
 20
-50.2482420301
 11
-130.19770341
 21
-54.4615647899
  0
ARC
  8
CYAN
 10
-131.1643869729
 20
-53.7199268518
 40
1.2184022086
 50
295.1101218593
 51
322.5046428926
  0
LINE
  8
CYAN
 10
-130.6473465504
 20
-54.8231825535
 11
-132.0557525773
 21
-55.4536345757
  0
ARC
  8
CYAN
 10
-132.6767094525
 20
-54.1142058442
 40
1.4763660683
 50
172.3143287992
 51
294.8723585871
  0
LINE
  8
CYAN
 10
-134.1398128469
 20
-53.9167590801
 11
-133.4189563838
 21
-48.4377741475
  0
ARC
  8
CYAN
 10
-127.0147106087
 20
-49.2214887366
 40
6.4520208079
 50
164.9452195445
 51
173.0231626966
  0
LINE
  8
CYAN
 10
-133.2452846947
 20
-47.5456250595
 11
-128.3872355274
 21
-28.3085116574
  0
LINE
  8
CYAN
 10
-128.3872355274
 20
-28.3085116574
 11
-124.8424298176
 21
-17.6479248216
  0
ARC
  8
CYAN
 10
-124.3221829536
 20
-17.8218035736
 40
0.548534976
 50
48.6510455832
 51
161.5191585211
  0
LINE
  8
CYAN
 10
-123.9597969865
 20
-17.4100183981
 11
-117.3317240286
 21
-23.1031191118
  0
LINE
  8
CYAN
 10
-117.3317240286
 20
-23.1031191118
 11
-115.968520222
 21
-20.4504624901
  0
LINE
  8
CYAN
 10
-115.968520222
 20
-20.4504624901
 11
-123.4554353688
 21
-13.9794077716
  0
ARC
  8
CYAN
 10
-122.5273938908
 20
-12.9047374837
 40
1.4199215515
 50
165.2178801093
 51
229.1874466244
  0
LINE
  8
CYAN
 10
-123.9003203807
 20
-12.5424529738
 11
-102.4816050753
 21
62.5717421094
  0
LINE
  8
CYAN
 10
-102.4816050753
 20
62.5717421094
 11
-105.2579730373
 21
63.6375628866
  0
LINE
  8
CYAN
 10
-105.2579730373
 20
63.6375628866
 11
-111.1080919905
 21
43.1847476606
  0
ARC
  8
CYAN
 10
-111.4550513278
 20
43.2846424097
 40
0.3610536562
 50
188.3309735715
 51
343.9381040888
  0
LINE
  8
CYAN
 10
-111.812295004
 20
43.2323289453
 11
-113.2896938937
 21
54.6637325932
  0
ARC
  8
CYAN
 10
-107.6872480285
 20
55.4147295115
 40
5.6525565936
 50
179.5820634024
 51
187.6348743027
  0
LINE
  8
CYAN
 10
-113.3396542427
 20
55.4559609833
 11
-113.1659825535
 21
65.8691251388
  0
ARC
  8
CYAN
 10
-99.5192642122
 20
65.7071677091
 40
13.6476793521
 50
159.7547926273
 51
179.3200532664
  0
LINE
  8
CYAN
 10
-112.3237938144
 20
70.4297912768
 11
-106.8709785884
 21
85.006317843
  0
ARC
  8
CYAN
 10
-89.3199160122
 20
78.4583235067
 40
18.7327527978
 50
145.0799158244
 51
159.5403350546
  0
LINE
  8
CYAN
 10
-104.6798604282
 20
89.1815755749
 11
-100.8448088818
 21
94.6486651864
  0
ARC
  8
CYAN
 10
-95.8232696827
 20
91.1626453695
 40
6.1129526493
 50
123.9162995791
 51
145.2311003876
  0
LINE
  8
CYAN
 10
-99.2341823949
 20
96.2355010309
 11
-98.5394956384
 21
96.6827651071
  0
ARC
  8
CYAN
 10
-98.2435621847
 20
96.2603395593
 40
0.515771221
 50
343.2608434083
 51
125.01345862
  0
LINE
  8
CYAN
 10
-97.7496463125
 20
96.1117896907
 11
-104.910629659
 21
73.0824478985
  0
LINE
  8
CYAN
 10
-104.910629659
 20
73.0824478985
 11
-102.0605107058
 21
72.1902988105
  0
LINE
  8
CYAN
 10
-102.0605107058
 20
72.1902988105
 11
-94.0525804917
 21
98.0697595559
  0
ARC
  8
CYAN
 10
-93.0863622428
 20
97.7724586788
 40
1.0109231009
 50
46.0583085094
 51
162.8971109896
  0
LINE
  8
CYAN
 10
-92.3848564631
 20
98.5003701824
 11
-78.8812878668
 21
85.7747555908
  0
LINE
  8
CYAN
 10
-78.8812878668
 20
85.7747555908
 11
-77.1469500397
 21
88.2037801745
  0
LINE
  8
CYAN
 10
-77.1469500397
 20
88.2037801745
 11
-86.7655067407
 21
97.351282157
  0
ARC
  8
CYAN
 10
-86.4300488168
 20
97.6864628237
 40
0.4742131357
 50
139.2502405359
 51
224.9763126289
  0
LINE
  8
CYAN
 10
-86.789297383
 20
97.9960085646
 11
-82.5997652657
 21
102.4829237113
  0
ARC
  8
CYAN
 10
-82.0935961438
 20
102.0237505746
 40
0.6834084792
 50
44.9669309322
 51
137.7871434554
  0
LINE
  8
CYAN
 10
-81.610074544
 20
102.5067143537
 11
-72.7599555908
 21
94.0039387787
  0
LINE
  8
CYAN
 10
-72.7599555908
 20
94.0039387787
 11
-71.1231593973
 21
96.4829237113
  0
LINE
  8
CYAN
 10
-71.1231593973
 20
96.4829237113
 11
-79.3523425853
 21
104.4646842189
  0
ARC
  8
CYAN
 10
-78.7765152083
 20
105.0679410827
 40
0.8339640351
 50
144.123730546
 51
226.3326532245
  0
LINE
  8
CYAN
 10
-79.4522632831
 20
105.5566747026
 11
-76.6996859635
 21
109.2751521015
  0
ARC
  8
CYAN
 10
-76.0495342167
 20
108.7970151371
 40
0.8070391878
 50
45.7473469841
 51
143.6683575046
  0
LINE
  8
CYAN
 10
-75.4863632038
 20
109.3750727994
 11
-68.6441744647
 21
103.1014804124
  0
LINE
  8
CYAN
 10
-68.6441744647
 20
103.1014804124
 11
-66.9574179223
 21
105.5566747026
  0
LINE
  8
CYAN
 10
-66.9574179223
 20
105.5566747026
 11
-73.7996066614
 21
111.804097383
  0
ARC
  8
CYAN
 10
-73.3548392661
 20
112.3001777188
 40
0.666268516
 50
142.7588995218
 51
228.1217645402
  0
LINE
  8
CYAN
 10
-73.8852529738
 20
112.7033836638
 11
-70.2548009516
 21
117.4805446471
  0
ARC
  8
CYAN
 10
-69.7841353392
 20
117.1093823088
 40
0.5994060394
 50
46.5838403933
 51
141.7410304838
  0
LINE
  8
CYAN
 10
-69.3721681205
 20
117.5447793814
 11
-61.9518667724
 21
110.8358182395
  0
LINE
  8
CYAN
 10
-61.9518667724
 20
110.8358182395
 11
-60.4625725615
 21
113.4147238699
  0
LINE
  8
CYAN
 10
-60.4625725615
 20
113.4147238699
 11
-67.0811292625
 21
119.4884748612
  0
ARC
  8
CYAN
 10
-66.3626575847
 20
120.2594016249
 40
1.0538166951
 50
138.9400505301
 51
227.0170649052
  0
LINE
  8
CYAN
 10
-67.157259318
 20
120.9515993656
 11
-63.3626518636
 21
125.2386731166
  0
ARC
  8
CYAN
 10
-62.6439867823
 20
124.5939518073
 40
0.9654766003
 50
45.0076617624
 51
138.1044166084
  0
LINE
  8
CYAN
 10
-61.9613830293
 20
125.2767381443
 11
-55.6782743854
 21
119.1910918319
  0
LINE
  8
CYAN
 10
-55.6782743854
 20
119.1910918319
 11
-53.6965138779
 21
121.4226540841
  0
LINE
  8
CYAN
 10
-53.6965138779
 20
121.4226540841
 11
-59.59659318
 21
127.3227333862
  0
ARC
  8
CYAN
 10
-58.6544953569
 20
128.2639960712
 40
1.3317371176
 50
133.4538005251
 51
224.9745933456
  0
LINE
  8
CYAN
 10
-59.5704234734
 20
129.2307429025
 11
-54.8860459952
 21
133.6177373513
  0
ARC
  8
CYAN
 10
-54.0664257836
 20
132.7517234955
 40
1.1923746432
 50
43.3449245718
 51
133.4234483828
  0
LINE
  8
CYAN
 10
-53.1992894528
 20
133.5701560666
 11
-47.3253798573
 21
127.1490616971
  0
LINE
  8
CYAN
 10
-47.3253798573
 20
127.1490616971
 11
-45.3412402855
 21
129.3544542427
  0
LINE
  8
CYAN
 10
-45.3412402855
 20
129.3544542427
 11
-50.372961142
 21
134.8833995242
  0
ARC
  8
CYAN
 10
-49.6804993108
 20
135.5028825997
 40
0.9291192972
 50
119.2901521166
 51
221.8161240168
  0
LINE
  8
CYAN
 10
-50.1350547185
 20
136.3132171293
 11
-44.9201459159
 21
139.270393973
  0
ARC
  8
CYAN
 10
-44.4613850887
 20
138.4711192292
 40
0.9215756142
 50
34.7793065005
 51
119.8545904712
  0
LINE
  8
CYAN
 10
-43.704444092
 20
138.996801586
 11
-38.9701062649
 21
132.5780862807
  0
LINE
  8
CYAN
 10
-38.9701062649
 20
132.5780862807
 11
-36.2674892942
 21
133.817578747
  0
LINE
  8
CYAN
 10
-36.2674892942
 20
133.817578747
 11
-40.8804948454
 21
140.1887127676
  0
ARC
  8
CYAN
 10
-39.8385447412
 20
140.9306602821
 40
1.2791192805
 50
116.5077663131
 51
215.45375018
  0
LINE
  8
CYAN
 10
-40.4094401269
 20
142.0753107058
 11
-35.3015892149
 21
144.5519165742
  0
ARC
  8
CYAN
 10
-34.7368054188
 20
143.3961698512
 40
1.286363566
 50
27.0387218896
 51
116.0435742266
  0
LINE
  8
CYAN
 10
-33.5910420301
 20
143.9809411578
 11
-30.1961173672
 21
137.3861750991
  0
LINE
  8
CYAN
 10
-30.1961173672
 20
137.3861750991
 11
-27.5672513878
 21
138.996801586
  0
LINE
  8
CYAN
 10
-27.5672513878
 20
138.996801586
 11
-31.1358477399
 21
145.7414486915
  0
ARC
  8
CYAN
 10
-29.5417436991
 20
146.5888137159
 40
1.8053241198
 50
117.2162862398
 51
207.9934111604
  0
LINE
  8
CYAN
 10
-30.3674099921
 20
148.1942639175
 11
-26.5751816019
 21
150.1522337827
  0
ARC
  8
CYAN
 10
-26.1778778747
 20
149.3837960349
 40
0.8650704156
 50
27.3402235262
 51
117.3402235262
  0
LINE
  8
CYAN
 10
-25.4094401269
 20
149.7810997621
 11
-21.6172117367
 21
142.5915676447
  0
LINE
  8
CYAN
 10
-21.6172117367
 20
142.5915676447
 11
-19.1144361618
 21
144.1784034893
  0
LINE
  8
CYAN
 10
-19.1144361618
 20
144.1784034893
 11
-22.3118984933
 21
150.2783241872
  0
ARC
  8
CYAN
 10
-21.2194740603
 20
150.8480951385
 40
1.232083633
 50
111.9020651729
 51
207.5449936387
  0
LINE
  8
CYAN
 10
-21.6790674068
 20
151.9912504362
 11
-15.619590801
 21
154.3417659001
  0
ARC
  8
CYAN
 10
-15.4499144918
 20
153.9322712867
 40
0.4432560076
 50
25.1303642025
 51
112.5069367969
  0
LINE
  8
CYAN
 10
-15.0486153846
 20
154.1205129263
 11
-11.1564662966
 21
146.9048111023
  0
LINE
  8
CYAN
 10
-11.1564662966
 20
146.9048111023
 11
-8.5537700238
 21
148.3679356067
  0
LINE
  8
CYAN
 10
-8.5537700238
 20
148.3679356067
 11
-11.9748643933
 21
154.8389903251
  0
ARC
  8
CYAN
 10
-11.5038960326
 20
155.0861023282
 40
0.5318604505
 50
121.2462342344
 51
207.6855102829
  0
LINE
  8
CYAN
 10
-11.7797811261
 20
155.5408142744
 11
-6.9431435369
 21
158.4837167328
  0
ARC
  8
CYAN
 10
-8.8483328412
 20
161.633383306
 40
3.6810522691
 50
301.1691575987
 51
313.8453155734
  0
LINE
  8
CYAN
 10
-6.2984171293
 20
158.9785620936
 11
-0.8693925456
 21
164.2101243458
  0
ARC
  8
CYAN
 10
2.7710886525
 20
160.4386723413
 40
5.2418463899
 50
116.7646619548
 51
133.9876738814
  0
LINE
  8
CYAN
 10
0.4105440127
 20
165.1189268834
 11
2.0806471055
 21
165.9444621729
  0
ARC
  8
CYAN
 10
3.3388973864
 20
163.4654040262
 40
2.7800940747
 50
92.9374755464
 51
116.9101509056
  0
LINE
  8
CYAN
 10
3.1964282316
 20
166.2418452022
 11
7.3859603489
 21
166.391726249
  0
ARC
  8
CYAN
 10
7.5331942201
 20
162.8212599049
 40
3.5735007664
 50
65.867600939
 51
92.3613449516
  0
LINE
  8
CYAN
 10
8.9942077716
 20
166.0824478985
 11
12.0465471848
 21
164.7049697066
  0
ARC
  8
CYAN
 10
11.2300133965
 20
162.8931422922
 40
1.9873213145
 50
42.0574014132
 51
65.7404040416
  0
LINE
  8
CYAN
 10
12.7055479778
 20
164.2243987312
 11
13.609592387
 21
163.2180545599
  0
ARC
  8
CYAN
 10
13.2363122008
 20
162.8966261423
 40
0.4925995585
 50
306.7553178768
 51
40.7314634421
  0
LINE
  8
CYAN
 10
13.5310832672
 20
162.5019562252
 11
3.5699413164
 21
155.3837960349
  0
LINE
  8
CYAN
 10
3.5699413164
 20
155.3837960349
 11
5.1068168121
 21
152.831060111
  0
LINE
  8
CYAN
 10
5.1068168121
 20
152.831060111
 11
14.8229151467
 21
159.7707904837
  0
ARC
  8
CYAN
 10
15.1671050343
 20
159.3070304684
 40
0.5775292465
 50
30.4250886942
 51
126.5817852706
  0
LINE
  8
CYAN
 10
15.6651038858
 20
159.5994978588
 11
16.3859603489
 21
158.4075866772
  0
ARC
  8
CYAN
 10
13.7591014563
 20
156.9079365941
 40
3.0247872675
 50
357.4463857385
 51
29.721656747
  0
LINE
  8
CYAN
 10
16.7808850119
 20
156.773169548
 11
16.6333830293
 21
152.5336770817
  0
ARC
  8
CYAN
 10
15.4673262934
 20
152.5832722666
 40
1.1671109603
 50
280.8247089718
 51
357.5645411882
  0
LINE
  8
CYAN
 10
15.6865154639
 20
151.4369284695
 11
7.3859603489
 21
149.88102046
  0
LINE
  8
CYAN
 10
7.3859603489
 20
149.88102046
 11
7.6333830293
 21
146.9048111023
  0
LINE
  8
CYAN
 10
7.6333830293
 20
146.9048111023
 11
14.4517811261
 21
148.1704732752
  0
ARC
  8
CYAN
 10
14.5750260054
 20
147.5499670673
 40
0.6326272633
 50
353.4830409698
 51
101.2338795825
  0
LINE
  8
CYAN
 10
15.2035654243
 20
147.4781655829
 11
15.170258525
 21
147.0047318002
  0
ARC
  8
CYAN
 10
14.8265550493
 20
147.0390737422
 40
0.3454148928
 50
286.184992118
 51
354.2940952528
  0
LINE
  8
CYAN
 10
14.9228358446
 20
146.7073487708
 11
6.9886566217
 21
143.6335977795
  0
LINE
  8
CYAN
 10
6.9886566217
 20
143.6335977795
 11
-4.7115812847
 21
139.6676977002
  0
LINE
  8
CYAN
 10
-4.7115812847
 20
139.6676977002
 11
-9.0747850912
 21
137.9309808089
  0
ARC
  8
CYAN
 10
-7.5859653852
 20
134.1881894375
 40
4.028035671
 50
111.6918339908
 51
163.9107904035
  0
LINE
  8
CYAN
 10
-11.4562283902
 20
135.3044938937
 11
-11.8249833466
 21
133.9912504362
  0
ARC
  8
CYAN
 10
-8.8010460448
 20
133.1246348493
 40
3.1456667624
 50
164.008482591
 51
186.3714473604
  0
LINE
  8
CYAN
 10
-11.9272831086
 20
132.7755486122
 11
-11.0327549564
 21
124.5201957177
  0
ARC
  8
CYAN
 10
-12.566643683
 20
124.3507589577
 40
1.5432185332
 50
317.4343662877
 51
6.3034640347
  0
LINE
  8
CYAN
 10
-11.4300586836
 20
123.306872958
 11
-12.0985757335
 21
122.5622258525
  0
ARC
  8
CYAN
 10
-12.645794222
 20
123.0713566088
 40
0.7474370884
 50
186.7642479347
 51
317.0649623009
  0
LINE
  8
CYAN
 10
-13.3880285488
 20
122.983320222
 11
-13.5854908803
 21
125.4623051546
  0
ARC
  8
CYAN
 10
-14.6269200764
 20
125.3881289504
 40
1.044067469
 50
4.0740344623
 51
105.3609492544
  0
LINE
  8
CYAN
 10
-14.9034924663
 20
126.3948983347
 11
-15.0985757335
 21
126.3306636003
  0
ARC
  8
CYAN
 10
-14.8369033766
 20
125.2790828029
 40
1.0836487419
 50
103.9735185339
 51
184.6574757725
  0
LINE
  8
CYAN
 10
-15.9169738303
 20
125.1910918319
 11
-15.5934210944
 21
121.8437484536
  0
ARC
  8
CYAN
 10
-18.3840269501
 20
121.6275679973
 40
2.7989667793
 50
342.3287505036
 51
4.4296973317
  0
LINE
  8
CYAN
 10
-15.7171324346
 20
120.7779276764
 11
-16.7092022205
 21
117.5542956384
  0
ARC
  8
CYAN
 10
-19.5848676742
 20
118.4478296287
 40
3.0112878962
 50
328.8057052135
 51
342.7388041506
  0
LINE
  8
CYAN
 10
-17.008964314
 20
116.8881576527
 11
-17.7012720063
 21
115.74620682
  0
ARC
  8
CYAN
 10
-18.3948309835
 20
116.1671693712
 40
0.8113159214
 50
197.9227558526
 51
328.7439243656
  0
LINE
  8
CYAN
 10
-19.1667755749
 20
115.9174994449
 11
-20.0565455987
 21
118.867539096
  0
ARC
  8
CYAN
 10
-21.59367608
 20
118.5225173509
 40
1.575376184
 50
12.6508402709
 51
192.7352512801
  0
LINE
  8
CYAN
 10
-23.13029659
 20
118.1752314037
 11
-22.6330721649
 21
115.0515200634
  0
ARC
  8
CYAN
 10
-23.2275430706
 20
114.9518691392
 40
0.6027652647
 50
255.3394240204
 51
9.5159950752
  0
LINE
  8
CYAN
 10
-23.3800983347
 20
114.3687286281
 11
-29.1041268834
 21
115.9936295004
  0
LINE
  8
CYAN
 10
-29.1041268834
 20
115.9936295004
 11
-29.8487739889
 21
113.1173408406
  0
LINE
  8
CYAN
 10
-29.8487739889
 20
113.1173408406
 11
-23.2777985726
 21
111.306872958
  0
ARC
  8
CYAN
 10
-23.6259020034
 20
110.0682898402
 40
1.2865706891
 50
5.4771677938
 51
74.3019970841
  0
LINE
  8
CYAN
 10
-22.3452053925
 20
110.1910918319
 11
-22.2881078509
 21
109.74620682
  0
ARC
  8
CYAN
 10
-23.0380882532
 20
109.6852867628
 40
0.7524505679
 50
311.9047814515
 51
4.6438754413
  0
LINE
  8
CYAN
 10
-22.5355305313
 20
109.1252710547
 11
-24.296038065
 21
107.4908539255
  0
ARC
  8
CYAN
 10
-25.2146307077
 20
108.4829197478
 40
1.3520381056
 50
228.8606346444
 51
312.7978115926
  0
LINE
  8
CYAN
 10
-26.1041268834
 20
107.4646842189
 11
-28.4094401269
 21
109.4488237906
  0
ARC
  8
CYAN
 10
-29.5313780771
 20
108.1645937062
 40
1.7052834585
 50
48.8586631663
 51
181.8544187653
  0
LINE
  8
CYAN
 10
-31.2357684377
 20
108.1094106265
 11
-31.0620967486
 21
103.2251917526
  0
ARC
  8
CYAN
 10
-31.7322226283
 20
103.2019629524
 40
0.6705283527
 50
250.2319685397
 51
1.9852681218
  0
LINE
  8
CYAN
 10
-31.9590039651
 20
102.570949088
 11
-38.1279175258
 21
104.5646049167
  0
LINE
  8
CYAN
 10
-38.1279175258
 20
104.5646049167
 11
-39.0200666138
 21
101.7382766059
  0
LINE
  8
CYAN
 10
-39.0200666138
 20
101.7382766059
 11
-32.2278382236
 21
99.6066350515
  0
ARC
  8
CYAN
 10
-32.4251481249
 20
98.9375168858
 40
0.6976032661
 50
314.8878906301
 51
73.5702395197
  0
LINE
  8
CYAN
 10
-31.9328342585
 20
98.4432726408
 11
-33.5172910389
 21
96.8564367962
  0
ARC
  8
CYAN
 10
-34.5117141079
 20
97.8479945077
 40
1.4043019388
 50
249.4697161944
 51
315.0826658461
  0
LINE
  8
CYAN
 10
-35.0042061856
 20
96.5328840603
 11
-37.7306137986
 21
97.5987048374
  0
ARC
  8
CYAN
 10
-38.301725245
 20
96.1616180058
 40
1.5464109564
 50
68.3266746988
 51
199.9651697947
  0
LINE
  8
CYAN
 10
-39.7551974623
 20
95.6335977795
 11
-38.525221253
 21
92.1696802538
  0
ARC
  8
CYAN
 10
-40.3282567605
 20
91.5498497345
 40
1.9066008796
 50
350.2683858412
 51
18.9714611221
  0
LINE
  8
CYAN
 10
-38.4490911975
 20
91.2275708168
 11
-39.2175289453
 21
86.1958499604
  0
ARC
  8
CYAN
 10
-40.8485770656
 20
86.4687541086
 40
1.6537214533
 50
308.8023960676
 51
350.501356595
  0
LINE
  8
CYAN
 10
-39.812295004
 20
85.1799895321
 11
-40.8543251388
 21
84.3116310864
  0
ARC
  8
CYAN
 10
-41.5946500624
 20
85.2014152819
 40
1.1574959641
 50
226.514811189
 51
309.7613875546
  0
LINE
  8
CYAN
 10
-42.3912006344
 20
84.3615914354
 11
-42.812295004
 21
84.8064764473
  0
ARC
  8
CYAN
 10
-40.1386522711
 20
87.7020899253
 40
3.9411854659
 50
222.1693212627
 51
227.2823979498
  0
LINE
  8
CYAN
 10
-43.0597176844
 20
85.0562781919
 11
-44.5228421887
 21
86.840576368
  0
ARC
  8
CYAN
 10
-45.3650951059
 20
86.1454135001
 40
1.0920812192
 50
39.5349426754
 51
117.2207213975
  0
LINE
  8
CYAN
 10
-45.8646344171
 20
87.1165478192
 11
-46.8781157811
 21
86.6169443299
  0
ARC
  8
CYAN
 10
-47.1766966384
 20
87.1881358681
 40
0.6445233135
 50
221.9469665418
 51
297.5975686362
  0
LINE
  8
CYAN
 10
-47.6560697859
 20
86.7573091197
 11
-50.2492498017
 21
89.7406556701
  0
LINE
  8
CYAN
 10
-50.2492498017
 20
89.7406556701
 11
-51.9859666931
 21
87.3116310864
  0
LINE
  8
CYAN
 10
-51.9859666931
 20
87.3116310864
 11
-46.9042854877
 21
81.5352631245
  0
ARC
  8
CYAN
 10
-49.0096404448
 20
79.6745878002
 40
2.809738806
 50
9.1646110144
 51
41.4696778334
  0
LINE
  8
CYAN
 10
-46.2357684377
 20
80.1220989691
 11
-46.085887391
 21
79.1561988898
  0
ARC
  8
CYAN
 10
-48.8862076669
 20
78.7115793006
 40
2.8353977194
 50
357.9750858403
 51
9.0218032897
  0
LINE
  8
CYAN
 10
-46.0525804917
 20
78.61139318
 11
-46.2833497224
 21
71.4956120539
  0
ARC
  8
CYAN
 10
-47.8706036354
 20
71.5443541255
 40
1.5880021328
 50
323.8782073919
 51
358.2410894641
  0
LINE
  8
CYAN
 10
-46.5878699445
 20
70.6082210944
 11
-47.1754988105
 21
69.8088555115
  0
ARC
  8
CYAN
 10
-47.9445162991
 20
70.3796745662
 40
0.9577172292
 50
246.7735376105
 51
323.4145880395
  0
LINE
  8
CYAN
 10
-48.3222077716
 20
69.499577161
 11
-49.1834290246
 21
69.9087762094
  0
ARC
  8
CYAN
 10
-48.5491977147
 20
71.3705250215
 40
1.5934111033
 50
201.8638655991
 51
246.5446872954
  0
ARC
  8
CYAN
 10
-13.6539113957
 20
94.3705526767
 40
0.1645588966
 50
240.328695855
 51
344.830449273
  0
LINE
  8
CYAN
 10
-13.4950864393
 20
94.3274915147
 11
-13.6854115781
 21
101.6407349722
  0
ARC
  8
CYAN
 10
-12.8444607465
 20
101.6901428666
 40
0.8424009979
 50
44.7381967753
 51
183.3624002839
  0
LINE
  8
CYAN
 10
-12.2460777161
 20
102.2830823156
 11
-10.9328342585
 21
101.1197199048
  0
ARC
  8
CYAN
 10
-10.5213536501
 20
101.5978832726
 40
0.6308379327
 50
229.2865571004
 51
343.3471766657
  0
LINE
  8
CYAN
 10
-9.9169738303
 20
101.4171029342
 11
-6.0985757335
 21
115.1490616971
  0
ARC
  8
CYAN
 10
-4.6762235842
 20
114.7683260459
 40
1.4724283591
 50
44.1422976922
 51
165.014375292
  0
LINE
  8
CYAN
 10
-3.619590801
 20
115.7937881047
 11
-3.2984171293
 21
115.4964050753
  0
ARC
  8
CYAN
 10
-2.7038581059
 20
116.0911401892
 40
0.8409579585
 50
225.0084833889
 51
331.9932193163
  0
LINE
  8
CYAN
 10
-1.9613830293
 20
115.6962464711
 11
3.048926249
 21
125.3885541634
  0
ARC
  8
CYAN
 10
18.2458184769
 20
117.5567710582
 40
17.0962674287
 50
134.9481367874
 51
152.735492333
  0
LINE
  8
CYAN
 10
6.1678794607
 20
129.6565954005
 11
12.6413132435
 21
136.1228919905
  0
LINE
  8
CYAN
 10
12.6413132435
 20
136.1228919905
 11
19.6833433783
 21
144.2045731959
  0
ARC
  8
CYAN
 10
16.4853701937
 20
147.0492134724
 40
4.2800713536
 50
318.3464756182
 51
330.9818954622
  0
LINE
  8
CYAN
 10
20.228149088
 20
144.9730109437
 11
21.4914321967
 21
147.1284431404
  0
ARC
  8
CYAN
 10
17.5757137084
 20
149.3676539593
 40
4.5107556319
 50
330.2368401726
 51
342.9724408065
  0
LINE
  8
CYAN
 10
21.8887359239
 20
148.046761935
 11
24.8625662173
 21
157.4178959556
  0
ARC
  8
CYAN
 10
26.7218676206
 20
156.8206995132
 40
1.952855678
 50
23.0219763562
 51
162.1932936832
  0
LINE
  8
CYAN
 10
28.5191879461
 20
157.584430452
 11
29.4731927042
 21
155.3837960349
  0
ARC
  8
CYAN
 10
30.8848560383
 20
155.9800673162
 40
1.5324270977
 50
202.8986685533
 51
246.9335547598
  0
LINE
  8
CYAN
 10
30.2844536082
 20
154.5701560666
 11
31.1099888977
 21
154.2442242665
  0
ARC
  8
CYAN
 10
31.5802855278
 20
155.3338629101
 40
1.1867987589
 50
246.6545913954
 51
289.2320097847
  0
LINE
  8
CYAN
 10
31.9712101507
 20
154.2132964314
 11
32.8205360825
 21
154.4916469469
  0
ARC
  8
CYAN
 10
32.2758814384
 20
156.1285495931
 40
1.7251373727
 50
288.4040845314
 51
321.9389648623
  0
LINE
  8
CYAN
 10
33.6341760508
 20
155.0650014274
 11
44.0996796194
 21
171.3496961142
  0
ARC
  8
CYAN
 10
45.994055517
 20
170.2845405859
 40
2.1732961927
 50
347.4640130323
 51
150.6521479237
  0
LINE
  8
CYAN
 10
48.1155400476
 20
169.8128206186
 11
44.744406027
 21
152.9309808089
  0
ARC
  8
CYAN
 10
48.9101279289
 20
152.0857540444
 40
4.2506055154
 50
168.5303662586
 51
188.0669245307
  0
LINE
  8
CYAN
 10
44.7015828707
 20
151.4892678826
 11
44.9180777161
 21
149.9309808089
  0
ARC
  8
CYAN
 10
46.0086806624
 20
150.0802033379
 40
1.1007643479
 50
187.7911563021
 51
249.9778365653
  0
LINE
  8
CYAN
 10
45.6317969865
 20
149.0459689136
 11
47.8181570182
 21
148.2941846154
  0
ARC
  8
CYAN
 10
48.2882674391
 20
149.6336154536
 40
1.4195347048
 50
250.6600617396
 51
287.1954268519
  0
LINE
  8
CYAN
 10
48.707927042
 20
148.2775311657
 11
49.6524155432
 21
148.5677770024
  0
ARC
  8
CYAN
 10
50.3754709229
 20
146.267448219
 40
2.4112904416
 50
329.5864475158
 51
107.4493397535
  0
LINE
  8
CYAN
 10
52.4549532117
 20
145.046761935
 11
49.6785852498
 21
140.3124241079
  0
ARC
  8
CYAN
 10
59.346606432
 20
134.6579457109
 40
11.2001678345
 50
149.6781678983
 51
179.8689765431
  0
LINE
  8
CYAN
 10
48.1464678826
 20
134.6835581285
 11
48.1655003965
 21
129.651837272
  0
LINE
  8
CYAN
 10
48.1655003965
 20
129.651837272
 11
48.7864361618
 21
117.4805446471
  0
ARC
  8
CYAN
 10
37.5073303957
 20
116.8866122443
 40
11.2947325148
 50
351.7974143978
 51
3.014283211
  0
LINE
  8
CYAN
 10
48.6865154639
 20
115.2751521015
 11
47.5945249802
 21
107.638355908
  0
ARC
  8
CYAN
 10
38.5350517196
 20
108.9872983556
 40
9.1593504947
 50
339.6633406972
 51
351.530963988
  0
LINE
  8
CYAN
 10
47.1234702617
 20
105.804097383
 11
43.7785059477
 21
96.7565160983
  0
ARC
  8
CYAN
 10
44.9444904042
 20
96.334902278
 40
1.2398701409
 50
160.1202772247
 51
250.0169232032
  0
LINE
  8
CYAN
 10
44.5207739889
 20
95.1696802538
 11
46.0338588422
 21
94.6486651864
  0
ARC
  8
CYAN
 10
45.7386697667
 20
93.8354612953
 40
0.8651226264
 50
335.952106586
 51
70.0493478875
  0
LINE
  8
CYAN
 10
46.528704203
 20
93.4829237113
 11
44.1996003172
 21
88.0538991277
  0
LINE
  8
CYAN
 10
44.1996003172
 20
88.0538991277
 11
41.0259286281
 21
82.3037008723
  0
ARC
  8
CYAN
 10
41.9176661811
 20
81.804907712
 40
1.0217585235
 50
150.7795445538
 51
263.0689907635
  0
LINE
  8
CYAN
 10
41.7943663759
 20
80.790616019
 11
42.8863568596
 21
80.6431140365
  0
ARC
  8
CYAN
 10
42.826490669
 20
80.137510942
 40
0.5091350017
 50
314.5618473243
 51
83.247304361
  0
LINE
  8
CYAN
 10
43.183739889
 20
79.7747555908
 11
38.4731927042
 21
75.2140894528
  0
ARC
  8
CYAN
 10
38.9438125766
 20
74.718327421
 40
0.6835664244
 50
133.5096836705
 51
259.610254436
  0
LINE
  8
CYAN
 10
38.8205360825
 20
74.0459689136
 11
40.8284662966
 21
73.7271743061
  0
ARC
  8
CYAN
 10
40.7541905374
 20
73.2318826896
 40
0.5008299849
 50
308.9086026928
 51
81.4712689459
  0
LINE
  8
CYAN
 10
41.0687517843
 20
72.8421624108
 11
33.7126851705
 21
66.2402591594
  0
ARC
  8
CYAN
 10
34.0267027223
 20
65.9334004499
 40
0.439054997
 50
135.6606038936
 51
274.3531390609
  0
LINE
  8
CYAN
 10
34.0600285488
 20
65.4956120539
 11
36.8625662173
 21
65.992836479
  0
ARC
  8
CYAN
 10
36.9604293461
 20
65.4214109694
 40
0.5797450344
 50
331.3570824496
 51
99.7182731344
  0
LINE
  8
CYAN
 10
37.4692275971
 20
65.1435105472
 11
34.3574115781
 21
58.4060006344
  0
LINE
  8
CYAN
 10
34.3574115781
 20
58.4060006344
 11
31.4335416336
 21
52.9531854084
  0
LINE
  8
CYAN
 10
31.4335416336
 20
52.9531854084
 11
26.5493227597
 21
46.3822099921
  0
ARC
  8
CYAN
 10
21.9407695789
 20
49.8053317643
 40
5.740777394
 50
305.3213836287
 51
323.3959286134
  0
LINE
  8
CYAN
 10
25.2598699445
 20
45.1213059477
 11
19.6072133228
 21
41.1268570975
  0
ARC
  8
CYAN
 10
16.521750102
 20
45.5531540241
 40
5.3955711253
 50
286.6790873139
 51
304.8794089109
  0
LINE
  8
CYAN
 10
18.0703378271
 20
40.3845890563
 11
10.9307660587
 21
38.2029871531
  0
ARC
  8
CYAN
 10
9.0195207853
 20
44.4740730838
 40
6.5558658655
 50
257.5594476716
 51
286.9497022603
  0
LINE
  8
CYAN
 10
7.6072133228
 20
38.0721386201
 11
-2.1826360032
 21
40.2608777161
  0
ARC
  8
CYAN
 10
-2.0591285958
 20
40.829844126
 40
0.5822171891
 50
159.9642498854
 51
257.7526263542
  0
LINE
  8
CYAN
 10
-2.606109437
 20
41.0293154639
 11
3.1726375892
 21
56.2243987312
  0
LINE
  8
CYAN
 10
3.1726375892
 20
56.2243987312
 11
0.5199809675
 21
57.5638118953
  0
LINE
  8
CYAN
 10
0.5199809675
 20
57.5638118953
 11
-5.3301379857
 21
42.2188475813
  0
ARC
  8
CYAN
 10
-5.9002670947
 20
42.4427955112
 40
0.6125356122
 50
242.3820940291
 51
338.5549941652
  0
LINE
  8
CYAN
 10
-6.184222046
 20
41.9000529738
 11
-13.4855701824
 21
45.7374835845
  0
ARC
  8
CYAN
 10
-10.3605686607
 20
51.7109056797
 40
6.7414691306
 50
223.173705067
 51
242.3836414479
  0
LINE
  8
CYAN
 10
-15.2770055512
 20
47.0983083267
 11
-18.8908041237
 21
50.9690458366
  0
ARC
  8
CYAN
 10
-13.9616772755
 20
55.5921112303
 40
6.7578861429
 50
193.6890878176
 51
223.164815793
  0
LINE
  8
CYAN
 10
-20.5276003172
 20
53.992836479
 11
-22.1144361618
 21
60.5876025377
  0
ARC
  8
CYAN
 10
-14.3532344834
 20
62.4838527676
 40
7.9894941283
 50
177.5946401765
 51
193.7297729269
  0
LINE
  8
CYAN
 10
-22.3356891356
 20
62.8191647899
 11
-22.0644758128
 21
69.1165478192
  0
ARC
  8
CYAN
 10
-12.9466491606
 20
68.8029480639
 40
9.1232180543
 50
167.8240036503
 51
178.0301377678
  0
LINE
  8
CYAN
 10
-21.8646344171
 20
70.7271743061
 11
-19.6354512292
 21
80.5693630452
  0
ARC
  8
CYAN
 10
-23.253030811
 20
81.3939757161
 40
3.7103730389
 50
347.1590601442
 51
359.8672964565
  0
LINE
  8
CYAN
 10
-19.542667724
 20
81.3853820777
 11
-19.5355305313
 21
85.9722179223
  0
ARC
  8
CYAN
 10
-18.9409048783
 20
85.9721499729
 40
0.5946256569
 50
51.6559266759
 51
179.9934526619
  0
LINE
  8
CYAN
 10
-18.5720095163
 20
86.4385145123
 11
-16.9827946075
 21
85.3037008723
  0
ARC
  8
CYAN
 10
-16.6684804205
 20
85.7320622924
 40
0.5313067987
 50
233.7302934945
 51
356.3918174453
  0
LINE
  8
CYAN
 10
-16.1382268041
 20
85.6986255353
 11
-15.7908834259
 21
94.2775311657
  0
ARC
  8
CYAN
 10
-14.8992548921
 20
94.2274009517
 40
0.8930366625
 50
39.3626088062
 51
176.7820354917
  0
LINE
  8
CYAN
 10
-14.2088057098
 20
94.7937881047
 11
-13.735371927
 21
94.2275708168
  0
LINE
  8
CYAN
 10
-7.86622046
 20
-3.5472111023
 11
-12.6433814433
 21
4.4892678826
  0
ARC
  8
CYAN
 10
-5.6271156227
 20
8.658392199
 40
8.1614694529
 50
182.1286511853
 51
210.7191386039
  0
LINE
  8
CYAN
 10
-13.7829532117
 20
8.3552472641
 11
-13.8828739096
 21
10.5868095163
  0
ARC
  8
CYAN
 10
-12.7936429422
 20
10.6359891457
 40
1.0903406515
 50
125.453965228
 51
182.5851934592
  0
LINE
  8
CYAN
 10
-13.4260935765
 20
11.5241608247
 11
-13.1643965107
 21
11.7025906423
  0
ARC
  8
CYAN
 10
-13.8418554182
 20
12.6395337302
 40
1.1562062624
 50
305.8688992027
 51
21.6337310343
  0
LINE
  8
CYAN
 10
-12.7670927835
 20
13.0657944489
 11
-14.7750229976
 21
18.3211473434
  0
ARC
  8
CYAN
 10
-14.0036084883
 20
18.619564764
 40
0.8271235108
 50
98.8105089637
 51
201.1486855776
  0
LINE
  8
CYAN
 10
-14.13029659
 20
19.4369284695
 11
-12.3959587629
 21
19.7581021412
  0
ARC
  8
CYAN
 10
-12.5772544904
 20
20.6994338693
 40
0.9586310882
 50
280.9013973305
 51
15.005470367
  0
LINE
  8
CYAN
 10
-11.6513116574
 20
20.9476342585
 11
-12.8670134814
 21
25.8818134814
  0
ARC
  8
CYAN
 10
-11.8204933603
 20
26.1572677331
 40
1.0821642244
 50
110.4446815623
 51
194.7463390161
  0
LINE
  8
CYAN
 10
-12.1984964314
 20
27.1712662966
 11
-11.3539286281
 21
27.4686493259
  0
ARC
  8
CYAN
 10
-11.6279965258
 20
28.2363422472
 40
0.8151476148
 50
289.6466654748
 51
5.2435409187
  0
LINE
  8
CYAN
 10
-10.816260111
 20
28.310838065
 11
-11.1326756542
 21
32.0554851705
  0
ARC
  8
CYAN
 10
-10.1152575573
 20
32.1520539897
 40
1.0219907635
 50
94.2258531328
 51
185.4220182793
  0
LINE
  8
CYAN
 10
-10.1905662173
 20
33.1712662966
 11
-8.3301379857
 21
33.2688079302
  0
ARC
  8
CYAN
 10
-8.3804090263
 20
34.1368076765
 40
0.8694542754
 50
273.314637466
 51
4.8896545291
  0
LINE
  8
CYAN
 10
-7.5141189532
 20
34.2109173672
 11
-7.735371927
 21
36.3925192704
  0
ARC
  8
CYAN
 10
-7.214874357
 20
36.442147729
 40
0.5228582067
 50
59.9005625752
 51
185.4465785772
  0
LINE
  8
CYAN
 10
-6.9526597938
 20
36.8945018239
 11
-1.785332276
 21
33.9397040444
  0
LINE
  8
CYAN
 10
-1.785332276
 20
33.9397040444
 11
3.8911149881
 21
31.5083003965
  0
ARC
  8
CYAN
 10
6.5416106082
 20
37.0140648734
 40
6.1105293966
 50
244.2936622352
 51
264.1880559108
  0
LINE
  8
CYAN
 10
5.9228358446
 20
30.9349459159
 11
14.9965868358
 21
30.0213852498
  0
ARC
  8
CYAN
 10
14.8967564196
 20
28.9840158943
 40
1.0421618356
 50
1.1825977656
 51
84.5031133771
  0
LINE
  8
CYAN
 10
15.9386962728
 20
29.0055248216
 11
16.336
 21
8.6788
  0
LINE
  8
CYAN
 10
16.336
 20
8.6788
 11
19.336
 21
8.6788
  0
LINE
  8
CYAN
 10
19.336
 20
8.6788
 11
18.9149056305
 21
28.7081417922
  0
ARC
  8
CYAN
 10
19.9816963298
 20
28.7331626466
 40
1.0670840826
 50
102.1505984276
 51
181.3435874259
  0
LINE
  8
CYAN
 10
19.7570943695
 20
29.7763416336
 11
22.8808057098
 21
30.3925192704
  0
LINE
  8
CYAN
 10
22.8808057098
 20
30.3925192704
 11
28.730924663
 21
31.4345494052
  0
LINE
  8
CYAN
 10
28.730924663
 20
31.4345494052
 11
34.407371927
 21
33.0951362411
  0
ARC
  8
CYAN
 10
32.8686490738
 20
38.2127091788
 40
5.3438956569
 50
286.7346841654
 51
295.5778822364
  0
LINE
  8
CYAN
 10
35.1758096749
 20
33.3925192704
 11
41.6206946868
 21
36.3925192704
  0
ARC
  8
CYAN
 10
39.8277419945
 20
39.8976106878
 40
3.9370477773
 50
297.0910193573
 51
300.8109710577
  0
LINE
  8
CYAN
 10
41.8443267248
 20
36.5162306106
 11
43.6286249009
 21
37.4845097542
  0
ARC
  8
CYAN
 10
43.92639909
 20
36.9394608362
 40
0.6210859769
 50
357.6075603872
 51
118.6489104898
  0
LINE
  8
CYAN
 10
44.5469436955
 20
36.9135343378
 11
44.4470229976
 21
34.5820513878
  0
ARC
  8
CYAN
 10
45.2906113107
 20
34.5472204229
 40
0.8443070757
 50
177.6356543247
 51
280.1288210636
  0
LINE
  8
CYAN
 10
45.4390927835
 20
33.7160720063
 11
45.8102268041
 21
33.7898229976
  0
ARC
  8
CYAN
 10
45.9349283843
 20
33.1203891676
 40
0.6809494378
 50
353.8599095679
 51
100.5520677225
  0
LINE
  8
CYAN
 10
46.6119714512
 20
33.0475549564
 11
46.13377954
 21
27.3948983347
  0
ARC
  8
CYAN
 10
46.7784630559
 20
27.3449793152
 40
0.6466132879
 50
175.5723182732
 51
276.5530824045
  0
LINE
  8
CYAN
 10
46.8522569389
 20
26.7025906423
 11
47.47081364
 21
26.7739625694
  0
ARC
  8
CYAN
 10
47.5467375049
 20
26.0557056885
 40
0.7222585273
 50
350.119760958
 51
96.034084189
  0
LINE
  8
CYAN
 10
48.2582839017
 20
25.9317738303
 11
47.3970626487
 21
20.6764209358
  0
ARC
  8
CYAN
 10
48.0172681065
 20
20.5844512788
 40
0.6269874223
 50
171.565133354
 51
272.2413612811
  0
LINE
  8
CYAN
 10
48.0417890563
 20
19.9579435369
 11
49.9497985726
 21
19.9579435369
  0
ARC
  8
CYAN
 10
49.9498365898
 20
19.2632058644
 40
0.6947376735
 50
343.4918065826
 51
90.0031353231
  0
LINE
  8
CYAN
 10
50.6159365583
 20
19.0657944489
 11
49.2313211737
 21
13.9817341792
  0
ARC
  8
CYAN
 10
50.1997134387
 20
13.710283254
 40
1.0057182427
 50
164.3412356698
 51
246.5765933683
  0
LINE
  8
CYAN
 10
49.7999175258
 20
12.7874439334
 11
50.3233116574
 21
12.5685700238
  0
ARC
  8
CYAN
 10
49.9829107648
 20
11.7506140715
 40
0.8859597663
 50
340.5201234556
 51
67.4048544935
  0
LINE
  8
CYAN
 10
50.8181570182
 20
11.4551679619
 11
45.9838984933
 21
-2.379090563
  0
ARC
  8
CYAN
 10
34.7779846346
 20
1.5378636179
 40
11.8707638955
 50
337.4507800529
 51
340.7332590051
  0
LINE
  8
CYAN
 10
45.7412339413
 20
-3.0143007137
 11
44.4731927042
 21
-6.1213586043
  0
ARC
  8
CYAN
 10
39.316931504
 20
-3.9876390701
 40
5.5803036311
 50
309.0384305707
 51
337.5196718002
  0
LINE
  8
CYAN
 10
42.8316383822
 20
-8.3219930214
 11
35.6706550357
 21
-14.2030398097
  0
ARC
  8
CYAN
 10
31.0328726857
 20
-8.5517387335
 40
7.3106927838
 50
274.5058984389
 51
309.3742694695
  0
LINE
  8
CYAN
 10
31.6072133228
 20
-15.8398360032
 11
24.1202981761
 21
-16.4084323553
  0
LINE
  8
CYAN
 10
24.1202981761
 20
-16.4084323553
 11
11.8490848533
 21
-16.6320643933
  0
ARC
  8
CYAN
 10
11.7000237126
 20
-11.2169031348
 40
5.4172124455
 50
256.5056573113
 51
271.5767615622
  0
LINE
  8
CYAN
 10
10.4359206979
 20
-16.4845624108
 11
4.3621697066
 21
-14.9714775575
  0
ARC
  8
CYAN
 10
6.1717747065
 20
-7.7314899374
 40
7.4627133802
 50
224.3357427522
 51
255.9666755872
  0
LINE
  8
CYAN
 10
0.8340174465
 20
-12.9468938937
 11
-6.0747850912
 21
-5.8739359239
  0
ARC
  8
CYAN
 10
2.7798721466
 20
2.7966169945
 40
12.3928787095
 50
210.7900052501
 51
224.3981234807
  0
LINE
  8
CYAN
 10
-185.4966724822
 20
-125.4861484536
 11
-185.2064266455
 21
-129.5257995242
  0
ARC
  8
CYAN
 10
-185.9004658446
 20
-129.5750887291
 40
0.6957872056
 50
267.9871809241
 51
4.0622056719
  0
LINE
  8
CYAN
 10
-185.9249040444
 20
-130.2704466297
 11
-197.1041268834
 21
-129.9968542427
  0
LINE
  8
CYAN
 10
-197.1041268834
 20
-129.9968542427
 11
-197.3539286281
 21
-132.9706845361
  0
LINE
  8
CYAN
 10
-197.3539286281
 20
-132.9706845361
 11
-185.6513116574
 21
-133.2442769231
  0
ARC
  8
CYAN
 10
-185.6775083493
 20
-134.18635557
 40
0.9424428065
 50
354.0574391441
 51
88.4071678119
  0
LINE
  8
CYAN
 10
-184.7401300555
 20
-134.2839279937
 11
-185.0827153053
 21
-137.9048637589
  0
ARC
  8
CYAN
 10
-188.1306613811
 20
-137.6084822469
 40
3.0623222041
 50
325.5268322603
 51
354.4460341493
  0
LINE
  8
CYAN
 10
-185.606109437
 20
-139.3418185567
 11
-187.8590832673
 21
-142.689161935
  0
ARC
  8
CYAN
 10
-191.5378705831
 20
-140.1729748097
 40
4.4569803416
 50
312.0723084436
 51
325.6289692043
  0
LINE
  8
CYAN
 10
-188.5513909596
 20
-143.4813903251
 11
-191.5276003172
 21
-146.1840072958
  0
ARC
  8
CYAN
 10
-195.8925655104
 20
-141.3771231859
 40
6.4930005377
 50
296.4992103961
 51
312.2415026048
  0
LINE
  8
CYAN
 10
-192.99548295
 20
-147.1879724029
 11
-203.7726439334
 21
-152.581311023
  0
ARC
  8
CYAN
 10
-199.7381190519
 20
-160.6640152098
 40
9.0336868437
 50
116.5263213098
 51
130.6149394863
  0
LINE
  8
CYAN
 10
-205.6187977795
 20
-153.8065291039
 11
-209.8463949247
 21
-157.4393601903
  0
ARC
  8
CYAN
 10
-198.67664088
 20
-170.4376179164
 40
17.1382061293
 50
130.6733581914
 51
133.6018313564
  0
LINE
  8
CYAN
 10
-210.4958794608
 20
-158.0269890563
 11
-214.1096780333
 21
-161.4790112609
  0
ARC
  8
CYAN
 10
-217.8691345798
 20
-157.5333886831
 40
5.4499037654
 50
289.5676236609
 51
313.6159190824
  0
LINE
  8
CYAN
 10
-216.0438572562
 20
-162.6685433783
 11
-220.2833497224
 21
-164.1816282316
  0
ARC
  8
CYAN
 10
-221.7080375973
 20
-160.237132861
 40
4.1938978611
 50
252.259189404
 51
289.8588992235
  0
LINE
  8
CYAN
 10
-222.9859666931
 20
-164.2315885805
 11
-226.2571800159
 21
-163.1657678033
  0
ARC
  8
CYAN
 10
-225.1464313035
 20
-159.7610881995
 40
3.5812855103
 50
206.0087017921
 51
251.9315106218
  0
LINE
  8
CYAN
 10
-228.3650309278
 20
-161.3315092784
 11
-229.7781950833
 21
-158.4052602696
  0
ARC
  8
CYAN
 10
-226.7282183305
 20
-156.9185196317
 40
3.3930452276
 50
164.752681551
 51
205.9873661697
  0
LINE
  8
CYAN
 10
-230.0018271213
 20
-156.0261960349
 11
-229.2333893735
 21
-153.2997884219
  0
ARC
  8
CYAN
 10
-225.0292728269
 20
-154.4555812545
 40
4.3600978211
 50
124.0868000183
 51
164.6280468309
  0
LINE
  8
CYAN
 10
-227.4728818398
 20
-150.8445941316
 11
-225.5149119746
 21
-149.5313506741
  0
ARC
  8
CYAN
 10
-221.5032858612
 20
-155.5574534155
 40
7.2392719471
 50
113.6204503935
 51
123.6520325584
  0
LINE
  8
CYAN
 10
-224.403888977
 20
-148.9246892942
 11
-213.7647137193
 21
-144.2997884219
  0
LINE
  8
CYAN
 10
-213.7647137193
 20
-144.2997884219
 11
-214.0121363997
 21
-143.8049430611
  0
LINE
  8
CYAN
 10
-214.0121363997
 20
-143.8049430611
 11
-223.8281554322
 21
-148.1919375099
  0
ARC
  8
CYAN
 10
-226.7275425433
 20
-141.6968679021
 40
7.1128317027
 50
281.8453238551
 51
294.0558964652
  0
LINE
  8
CYAN
 10
-225.2674892942
 20
-148.6582340999
 11
-229.3808913561
 21
-149.5313506741
  0
ARC
  8
CYAN
 10
-230.0425260234
 20
-146.6307129604
 40
2.975140262
 50
271.2878759859
 51
282.8493142482
  0
LINE
  8
CYAN
 10
-229.9756574148
 20
-149.6051016653
 11
-232.5783536876
 21
-149.6051016653
  0
ARC
  8
CYAN
 10
-232.5905611622
 20
-147.5161902583
 40
2.0889470767
 50
236.4813532843
 51
270.3348293323
  0
LINE
  8
CYAN
 10
-233.7440951626
 20
-149.2577582871
 11
-237.3888215702
 21
-146.8287337034
  0
ARC
  8
CYAN
 10
-235.6335110371
 20
-144.1778020503
 40
3.1793951779
 50
191.2305529976
 51
236.489523654
  0
LINE
  8
CYAN
 10
-238.7520253767
 20
-144.797012847
 11
-239.1231593973
 21
-142.9365846154
  0
ARC
  8
CYAN
 10
-232.9755431689
 20
-141.6945406582
 40
6.2718305528
 50
163.4503663462
 51
191.4220932309
  0
LINE
  8
CYAN
 10
-238.9875527359
 20
-139.9080358446
 11
-238.6782743854
 21
-138.8707638382
  0
ARC
  8
CYAN
 10
-234.2706945625
 20
-140.1731957483
 40
4.5959861592
 50
121.8228664359
 51
163.5376847321
  0
LINE
  8
CYAN
 10
-236.6941348136
 20
-136.2680675654
 11
-234.5125329104
 21
-134.9310334655
  0
ARC
  8
CYAN
 10
-231.260577952
 20
-140.1847730343
 40
6.1787531516
 50
97.4312662125
 51
121.7566415511
  0
LINE
  8
CYAN
 10
-232.0597176844
 20
-134.0579168914
 11
-224.8202252181
 21
-133.0943958763
  0
LINE
  8
CYAN
 10
-224.8202252181
 20
-133.0943958763
 11
-215.4490911975
 21
-131.9310334655
  0
ARC
  8
CYAN
 10
-214.1989671065
 20
-141.8461409222
 40
9.9936062621
 50
91.7662027632
 51
97.1860912108
  0
LINE
  8
CYAN
 10
-214.5069817605
 20
-131.8572824742
 11
-211.978036479
 21
-131.6336504362
  0
LINE
  8
CYAN
 10
-211.978036479
 20
-131.6336504362
 11
-212.2754195083
 21
-129.6994712133
  0
LINE
  8
CYAN
 10
-212.2754195083
 20
-129.6994712133
 11
-220.2333893735
 21
-128.9809938144
  0
ARC
  8
CYAN
 10
-219.409367177
 20
-120.1321354353
 40
8.8871428026
 50
250.053423175
 51
264.6798529545
  0
LINE
  8
CYAN
 10
-222.4411609834
 20
-128.4861484536
 11
-230.6941348136
 21
-125.5836900872
  0
LINE
  8
CYAN
 10
-230.6941348136
 20
-125.5836900872
 11
-235.5783536876
 21
-122.9809938144
  0
ARC
  8
CYAN
 10
-232.2616593966
 20
-116.6696900459
 40
7.1297276441
 50
194.213783973
 51
242.2773329163
  0
LINE
  8
CYAN
 10
-239.1731197462
 20
-118.4203276764
 11
-239.3467914354
 21
-117.7256409199
  0
ARC
  8
CYAN
 10
-235.7783306057
 20
-116.8341413539
 40
3.6781359639
 50
142.4017650717
 51
194.0269397148
  0
LINE
  8
CYAN
 10
-238.6925487708
 20
-114.5900342585
 11
-236.1992894528
 21
-111.3545068993
  0
ARC
  8
CYAN
 10
-233.3226276057
 20
-113.5612113455
 40
3.6255658724
 50
103.8636828239
 51
142.5079716949
  0
LINE
  8
CYAN
 10
-234.1913592387
 20
-110.0412634417
 11
-230.7940555115
 21
-109.222865345
  0
ARC
  8
CYAN
 10
-229.5506225452
 20
-114.4234651733
 40
5.3471828206
 50
79.0913573081
 51
103.4466482188
  0
LINE
  8
CYAN
 10
-228.538702617
 20
-109.172904996
 11
-224.4490911975
 21
-109.9413427439
  0
ARC
  8
CYAN
 10
-225.4650805637
 20
-115.2965707362
 40
5.4507523556
 50
61.7892850912
 51
79.257563911
  0
LINE
  8
CYAN
 10
-222.8884250595
 20
-110.4932856463
 11
-212.1279175258
 21
-116.2886861221
  0
LINE
  8
CYAN
 10
-212.1279175258
 20
-116.2886861221
 11
-211.8804948454
 21
-115.7914616971
  0
LINE
  8
CYAN
 10
-211.8804948454
 20
-115.7914616971
 11
-222.4149912768
 21
-110.2886861221
  0
ARC
  8
CYAN
 10
-220.5071613624
 20
-106.6437981574
 40
4.1140033128
 50
213.684137614
 51
242.3712608237
  0
LINE
  8
CYAN
 10
-223.9304551943
 20
-108.9254823156
 11
-225.488742268
 21
-106.5702087232
  0
ARC
  8
CYAN
 10
-219.9132082973
 20
-102.8177223074
 40
6.7206944105
 50
181.7708173917
 51
213.941629123
  0
LINE
  8
CYAN
 10
-226.6306931007
 20
-103.0254030135
 11
-226.6782743854
 21
-100.1990747026
  0
ARC
  8
CYAN
 10
-222.7119202373
 20
-100.0980586404
 40
3.9676402903
 50
133.5094861568
 51
181.4589073286
  0
LINE
  8
CYAN
 10
-225.4435400476
 20
-97.2204862807
 11
-224.1017478192
 21
-95.9595822363
  0
ARC
  8
CYAN
 10
-220.9932239201
 20
-99.2448617709
 40
4.5228290319
 50
113.3868657809
 51
133.4164709929
  0
LINE
  8
CYAN
 10
-222.7885043616
 20
-95.0936028549
 11
-221.7964345757
 21
-94.6962991277
  0
ARC
  8
CYAN
 10
-219.4312116156
 20
-100.2227611458
 40
6.0113278141
 50
93.8846275949
 51
113.1700241235
  0
LINE
  8
CYAN
 10
-219.8384647106
 20
-94.2252444092
 11
-217.9042854877
 21
-94.1253237113
  0
ARC
  8
CYAN
 10
-217.7069771452
 20
-97.3979316778
 40
3.2785505158
 50
44.0745243518
 51
93.4502352355
  0
LINE
  8
CYAN
 10
-215.3515495638
 20
-95.1173934972
 11
-212.4253005551
 21
-98.1673538462
  0
LINE
  8
CYAN
 10
-212.4253005551
 20
-98.1673538462
 11
-204.1699476606
 21
-107.1411841396
  0
LINE
  8
CYAN
 10
-204.1699476606
 20
-107.1411841396
 11
-199.4594004758
 21
-111.280755908
  0
LINE
  8
CYAN
 10
-199.4594004758
 20
-111.280755908
 11
-193.2619381443
 21
-115.9913030928
  0
LINE
  8
CYAN
 10
-193.2619381443
 20
-115.9913030928
 11
-189.022445678
 21
-118.9151730373
  0
ARC
  8
CYAN
 10
-191.7038438761
 20
-122.6569110523
 40
4.6033139877
 50
28.5846130653
 51
54.3739209498
  0
LINE
  8
CYAN
 10
-187.6616209358
 20
-120.4544275971
 11
-186.1984964314
 21
-123.1308748612
  0
ARC
  8
CYAN
 10
-191.228798349
 20
-125.9120046859
 40
5.7479231452
 50
4.2488637668
 51
28.9371232127
  0
LINE
  8
CYAN
 10
96.0798540841
 20
-98.0388843775
 11
98.0925424266
 21
-94.9675124504
  0
ARC
  8
CYAN
 10
95.1897764478
 20
-93.087243239
 40
3.4585347526
 50
327.0668162153
 51
10.7701874378
  0
LINE
  8
CYAN
 10
98.5873877875
 20
-92.4409462332
 11
97.721408406
 21
-87.9040707375
  0
ARC
  8
CYAN
 10
100.1246192454
 20
-87.431243097
 40
2.449283225
 50
146.1638346391
 51
191.1306778442
  0
LINE
  8
CYAN
 10
98.0901633624
 20
-86.0674331483
 11
100.0267216495
 21
-83.2173141951
  0
ARC
  8
CYAN
 10
103.0030029374
 20
-85.2251892311
 40
3.590238497
 50
108.9886100206
 51
145.99539636
  0
LINE
  8
CYAN
 10
101.8348104679
 20
-81.8303197462
 11
109.3478953212
 21
-79.2276234734
  0
ARC
  8
CYAN
 10
107.6714922146
 20
-75.2917607752
 40
4.2780068437
 50
293.070623479
 51
340.461917493
  0
LINE
  8
CYAN
 10
111.7031689136
 20
-76.7224688343
 11
112.3954766059
 21
-74.7906686757
  0
ARC
  8
CYAN
 10
116.3132363469
 20
-76.204621293
 40
4.1651054479
 50
129.1683621495
 51
160.1550581428
  0
LINE
  8
CYAN
 10
113.6825503569
 20
-72.9754426646
 11
116.237665345
 21
-70.92231023
  0
ARC
  8
CYAN
 10
114.677090683
 20
-69.0140553576
 40
2.4651227015
 50
309.2763689902
 51
9.8297610421
  0
LINE
  8
CYAN
 10
117.1060237906
 20
-68.5932063442
 11
116.6611387787
 21
-65.9881310071
  0
ARC
  8
CYAN
 10
120.8008571231
 20
-65.2687072192
 40
4.2017661236
 50
152.533334909
 51
189.8587239115
  0
LINE
  8
CYAN
 10
117.0727168914
 20
-63.3307162569
 11
119.6587597145
 21
-58.4536345757
  0
ARC
  8
CYAN
 10
116.3021817843
 20
-56.7153708372
 40
3.7799704002
 50
332.6218142605
 51
6.7355041571
  0
LINE
  8
CYAN
 10
120.0560634417
 20
-56.2720326725
 11
119.7087200634
 21
-53.1982816812
  0
ARC
  8
CYAN
 10
122.9821559635
 20
-52.8258703923
 40
3.2945519816
 50
157.3423049642
 51
186.4905029361
  0
LINE
  8
CYAN
 10
119.9418683584
 20
-51.5567273592
 11
121.5191879461
 21
-47.8430080888
  0
ARC
  8
CYAN
 10
118.1717335673
 20
-46.4309117099
 40
3.6331070726
 50
337.1279467639
 51
11.0023449208
  0
LINE
  8
CYAN
 10
121.7380618557
 20
-45.7375362411
 11
121.2218049167
 21
-43.0349192704
  0
ARC
  8
CYAN
 10
125.1138958398
 20
-42.2646958645
 40
3.9675705222
 50
157.6097524767
 51
191.1938895039
  0
LINE
  8
CYAN
 10
121.4454369548
 20
-40.7533966693
 11
122.8823917526
 21
-37.2823419508
  0
ARC
  8
CYAN
 10
119.9820021253
 20
-36.0954195561
 40
3.1338546172
 50
337.7442184287
 51
8.693249537
  0
LINE
  8
CYAN
 10
123.0798540841
 20
-35.621755115
 11
122.5350483743
 21
-32.003198414
  0
ARC
  8
CYAN
 10
127.7904403356
 20
-31.2069154314
 40
5.3153749872
 50
168.712889634
 51
188.615770462
  0
LINE
  8
CYAN
 10
122.5778715305
 20
-30.1665608247
 11
123.9720031721
 21
-23.2506210944
  0
ARC
  8
CYAN
 10
122.0326470688
 20
-22.8803030958
 40
1.974395481
 50
349.1895659971
 51
40.8060629394
  0
LINE
  8
CYAN
 10
123.5271181602
 20
-21.5900342585
 11
122.6587597145
 21
-20.5503831879
  0
ARC
  8
CYAN
 10
123.6013313448
 20
-19.7336237767
 40
1.247211776
 50
170.5926854981
 51
220.9096618288
  0
LINE
  8
CYAN
 10
122.3708929421
 20
-19.5297646312
 11
122.8586011102
 21
-16.9556171293
  0
ARC
  8
CYAN
 10
118.5430722059
 20
-16.1735535912
 40
4.3858195474
 50
349.7282899915
 51
26.6982706014
  0
LINE
  8
CYAN
 10
122.461297383
 20
-14.2030398097
 11
120.2535257732
 21
-9.8398360032
  0
ARC
  8
CYAN
 10
121.3453885044
 20
-9.2951015208
 40
1.2202048516
 50
31.7682124688
 51
206.5147837425
  0
LINE
  8
CYAN
 10
122.3827882633
 20
-8.65268295
 11
124.9902426646
 21
-12.7660850119
  0
LINE
  8
CYAN
 10
124.9902426646
 20
-12.7660850119
 11
127.7904012688
 21
-16.9294474227
  0
ARC
  8
CYAN
 10
119.5342653618
 20
-22.4493625005
 40
9.9314270164
 50
11.1772099102
 51
33.766028398
  0
LINE
  8
CYAN
 10
129.2773164155
 20
-20.5242134814
 11
132.2273560666
 21
-35.3243720856
  0
ARC
  8
CYAN
 10
120.9245323333
 20
-37.5817071938
 40
11.5260308058
 50
355.0840820878
 51
11.2941897417
  0
LINE
  8
CYAN
 10
132.4081649485
 20
-38.5694157018
 11
131.5588390167
 21
-48.4639438541
  0
ARC
  8
CYAN
 10
136.8881101905
 20
-48.9367670462
 40
5.3502049508
 50
174.9298836689
 51
195.8776990516
  0
LINE
  8
CYAN
 10
131.7420269627
 20
-50.4005021412
 11
132.6246597938
 21
-53.3719533703
  0
ARC
  8
CYAN
 10
119.9563987586
 20
-57.0635022563
 40
13.1951646762
 50
1.711793727
 51
16.2461961437
  0
LINE
  8
CYAN
 10
133.1456748612
 20
-56.6693363997
 11
133.2194258525
 21
-59.195902617
  0
ARC
  8
CYAN
 10
143.0607100781
 20
-58.8867921026
 40
9.8461375432
 50
181.7990443806
 51
187.0216715069
  0
LINE
  8
CYAN
 10
133.2884187153
 20
-60.0904307692
 11
134.4351276764
 21
-69.8326988105
  0
ARC
  8
CYAN
 10
120.7246854192
 20
-71.4647192409
 40
13.8072342478
 50
348.1981262715
 51
6.7882531554
  0
LINE
  8
CYAN
 10
134.2400444092
 20
-74.2886861221
 11
133.5168088818
 21
-77.814459318
  0
ARC
  8
CYAN
 10
136.8378761461
 20
-78.5105346441
 40
3.3932298232
 50
168.162509628
 51
204.1008653882
  0
LINE
  8
CYAN
 10
133.7404409199
 20
-79.8961405234
 11
134.9061823949
 21
-82.4488764473
  0
ARC
  8
CYAN
 10
130.8163894686
 20
-84.2755055367
 40
4.4791717997
 50
343.1671378963
 51
24.0670287957
  0
LINE
  8
CYAN
 10
135.1036447264
 20
-85.5725877875
 11
133.5667692308
 21
-90.7779803331
  0
ARC
  8
CYAN
 10
139.3676796435
 20
-92.4899488526
 40
6.0482557675
 50
163.5575810499
 51
171.0479906444
  0
LINE
  8
CYAN
 10
133.3930975416
 20
-91.5487971451
 11
132.8982521808
 21
-94.6463387787
  0
LINE
  8
CYAN
 10
132.8982521808
 20
-94.6463387787
 11
132.4771578113
 21
-97.993682157
  0
ARC
  8
CYAN
 10
126.2541021078
 20
-97.2232998657
 40
6.270559079
 50
334.038895002
 51
352.9429810073
  0
LINE
  8
CYAN
 10
131.8919080095
 20
-99.9683054718
 11
129.6508295004
 21
-104.5622785091
  0
ARC
  8
CYAN
 10
126.0077638445
 20
-102.7763562605
 40
4.0572707145
 50
294.8357483964
 51
333.8847464289
  0
LINE
  8
CYAN
 10
127.7118921491
 20
-106.4583927042
 11
123.8007105472
 21
-108.2569652657
  0
ARC
  8
CYAN
 10
124.3188465974
 20
-109.397425475
 40
1.2526429881
 50
114.4333384749
 51
186.8310805921
  0
LINE
  8
CYAN
 10
123.0750959556
 20
-109.5464180809
 11
123.3534464711
 21
-111.9254823156
  0
ARC
  8
CYAN
 10
122.0397584128
 20
-112.0738637992
 40
1.3220413681
 50
299.9211983491
 51
6.4442642909
  0
LINE
  8
CYAN
 10
122.6992038065
 20
-113.2196932593
 11
121.2218049167
 21
-114.1070842189
  0
ARC
  8
CYAN
 10
121.5569181711
 20
-114.6842282093
 40
0.6673800109
 50
120.1411916965
 51
213.1520678891
  0
LINE
  8
CYAN
 10
120.9981728787
 20
-115.0491936558
 11
121.7666106265
 21
-116.1887654243
  0
ARC
  8
CYAN
 10
120.6054217339
 20
-116.9781202705
 40
1.4040800253
 50
313.3439028922
 51
34.2071446093
  0
LINE
  8
CYAN
 10
121.569148295
 20
-117.9992333069
 11
120.40340682
 21
-119.0888447264
  0
ARC
  8
CYAN
 10
121.0433339545
 20
-119.7884061331
 40
0.9480996251
 50
132.4508648091
 51
188.6521341578
  0
LINE
  8
CYAN
 10
120.1060237906
 20
-119.9310334655
 11
120.2297351309
 21
-120.6994712133
  0
ARC
  8
CYAN
 10
117.3343348907
 20
-121.1161206131
 40
2.9252246535
 50
323.4714479653
 51
8.1886753764
  0
LINE
  8
CYAN
 10
119.6849294211
 20
-122.8572824742
 11
118.6690689929
 21
-124.2442769231
  0
ARC
  8
CYAN
 10
116.9885704055
 20
-123.0036196978
 40
2.0888527599
 50
292.1027634388
 51
323.5627591041
  0
LINE
  8
CYAN
 10
117.7745408406
 20
-124.9389636796
 11
115.1718445678
 21
-125.9809938144
  0
ARC
  8
CYAN
 10
114.7706398578
 20
-124.9820105821
 40
1.0765373741
 50
218.8593069554
 51
291.8810387374
  0
LINE
  8
CYAN
 10
113.9323521015
 20
-125.6574410785
 11
112.8927010309
 21
-124.3204069786
  0
ARC
  8
CYAN
 10
112.2961941386
 20
-124.764932703
 40
0.7439244533
 50
36.6940218287
 51
119.9831063435
  0
LINE
  8
CYAN
 10
111.9244218874
 20
-124.1205655829
 11
110.6849294211
 21
-124.841422046
  0
ARC
  8
CYAN
 10
110.1410524805
 20
-123.8995560003
 40
1.0876183957
 50
210.6266739743
 51
300.0041208579
  0
LINE
  8
CYAN
 10
109.2051514671
 20
-124.4536345757
 11
108.676999207
 21
-123.5257995242
  0
ARC
  8
CYAN
 10
107.8840008345
 20
-123.99631437
 40
0.9220795188
 50
30.6822010644
 51
79.2454073154
  0
LINE
  8
CYAN
 10
108.0560634417
 20
-123.0904307692
 11
106.8927010309
 21
-122.8572824742
  0
ARC
  8
CYAN
 10
106.9924483086
 20
-122.3360251998
 40
0.5307152396
 50
172.0384280774
 51
259.1668989734
  0
LINE
  8
CYAN
 10
106.4668485329
 20
-122.2625164155
 11
108.2559048374
 21
-110.115014433
  0
LINE
  8
CYAN
 10
108.2559048374
 20
-110.115014433
 11
105.282074544
 21
-109.8675917526
  0
LINE
  8
CYAN
 10
105.282074544
 20
-109.8675917526
 11
103.6690689929
 21
-121.0230239492
  0
ARC
  8
CYAN
 10
102.7061093099
 20
-120.8721588003
 40
0.974705927
 50
263.9422746937
 51
351.0959529472
  0
LINE
  8
CYAN
 10
102.6032482157
 20
-121.841422046
 11
101.2900047581
 21
-121.6915409992
  0
ARC
  8
CYAN
 10
101.5384985896
 20
-119.4607697942
 40
2.2445688569
 50
203.4643025823
 51
263.6438157345
  0
LINE
  8
CYAN
 10
99.4795368755
 20
-120.3545068993
 11
98.8609801745
 21
-118.8913823949
  0
LINE
  8
CYAN
 10
98.8609801745
 20
-118.8913823949
 11
96.5794575734
 21
-114.9992333069
  0
ARC
  8
CYAN
 10
95.2438991881
 20
-115.7691815136
 40
1.5416019076
 50
29.9634102069
 51
62.2831952213
  0
LINE
  8
CYAN
 10
95.9609008723
 20
-114.4044672482
 11
95.3399651071
 21
-114.0809145123
  0
ARC
  8
CYAN
 10
95.8398291972
 20
-113.1274901316
 40
1.0765138914
 50
166.0292841703
 51
242.33274628
  0
LINE
  8
CYAN
 10
94.7951593973
 20
-112.8675917526
 11
95.2923838224
 21
-110.9572031721
  0
ARC
  8
CYAN
 10
93.6292924165
 20
-110.514248446
 40
1.7210699909
 50
345.0858343358
 51
46.1626348265
  0
LINE
  8
CYAN
 10
94.8213291039
 20
-109.2728256939
 11
93.9529706582
 21
-108.4544275971
  0
ARC
  8
CYAN
 10
94.5977390493
 20
-107.760146681
 40
0.9474978991
 50
144.6946851398
 51
227.1175970878
  0
LINE
  8
CYAN
 10
93.8245011895
 20
-107.2125560666
 11
94.5477367169
 21
-106.172904996
  0
ARC
  8
CYAN
 10
93.110864861
 20
-105.1824467853
 40
1.7451670973
 50
325.4208976957
 51
22.2431632144
  0
LINE
  8
CYAN
 10
94.7261665345
 20
-104.5218344171
 11
94.224183981
 21
-103.2989954005
  0
ARC
  8
CYAN
 10
95.3160570866
 20
-102.8526742616
 40
1.179571718
 50
143.5753932031
 51
202.2330988944
  0
LINE
  8
CYAN
 10
94.3669278351
 20
-102.1522864393
 11
95.6873084853
 21
-100.2728256939
  0
ARC
  8
CYAN
 10
94.8644498799
 20
-99.7104329052
 40
0.9966854736
 50
325.6488679324
 51
358.9889310879
  0
LINE
  8
CYAN
 10
95.8609801745
 20
-99.7280199841
 11
95.8609801745
 21
-98.7121595559
  0
ARC
  8
CYAN
 10
97.0769155714
 20
-98.7352317076
 40
1.2161542721
 50
145.0695676666
 51
178.912953516
  0
ARC
  8
CYAN
 10
93.3784344541
 20
-134.5755246689
 40
6.6250540639
 50
221.2864462598
 51
236.6600526717
  0
LINE
  8
CYAN
 10
89.7372688343
 20
-140.1102563045
 11
95.5398065028
 21
-144.0024053925
  0
LINE
  8
CYAN
 10
95.5398065028
 20
-144.0024053925
 11
99.6056272799
 21
-145.5392808882
  0
ARC
  8
CYAN
 10
98.8103151926
 20
-147.6702165558
 40
2.2745127249
 50
20.3648219381
 51
69.5333189251
  0
LINE
  8
CYAN
 10
100.9426613799
 20
-146.8786940523
 11
101.4589183188
 21
-148.2680675654
  0
ARC
  8
CYAN
 10
99.7293728888
 20
-148.9111122019
 40
1.8452191736
 50
345.2319851432
 51
20.3951239076
  0
LINE
  8
CYAN
 10
101.5136367962
 20
-149.3814696273
 11
100.9688310864
 21
-151.415569548
  0
ARC
  8
CYAN
 10
99.7015810867
 20
-151.0676095817
 40
1.3141532255
 50
271.2102909818
 51
344.6461881624
  0
LINE
  8
CYAN
 10
99.7293386201
 20
-152.3814696273
 11
98.0687517843
 21
-152.4314299762
  0
ARC
  8
CYAN
 10
98.0501950833
 20
-149.9883689136
 40
2.443131537
 50
216.4347058201
 51
270.4351918257
  0
LINE
  8
CYAN
 10
96.0846122125
 20
-151.4393601903
 11
94.2479746233
 21
-149.0103356067
  0
ARC
  8
CYAN
 10
89.8368248639
 20
-152.3310853747
 40
5.5213785617
 50
36.9727341231
 51
44.4355848544
  0
LINE
  8
CYAN
 10
93.7792989691
 20
-148.4655298969
 11
91.1266423473
 21
-145.7629129263
  0
ARC
  8
CYAN
 10
87.8695158586
 20
-148.8739693291
 40
4.5041697243
 50
43.6860094494
 51
63.3878913256
  0
LINE
  8
CYAN
 10
89.887149881
 20
-144.8469731959
 11
85.6976177637
 21
-142.8628336241
  0
LINE
  8
CYAN
 10
85.6976177637
 20
-142.8628336241
 11
82.447816019
 21
-141.1308748612
  0
ARC
  8
CYAN
 10
81.8537411604
 20
-142.1682073759
 40
1.1954010556
 50
60.2004605934
 51
123.9057802431
  0
LINE
  8
CYAN
 10
81.1869119746
 20
-141.1760770817
 11
80.7586804124
 21
-141.4901135607
  0
ARC
  8
CYAN
 10
82.1767194208
 20
-143.5572103055
 40
2.5067356426
 50
124.4503230564
 51
194.2930546836
  0
LINE
  8
CYAN
 10
79.7475781126
 20
-144.1760770817
 11
81.393890563
 21
-150.5757598731
  0
ARC
  8
CYAN
 10
87.1348853778
 20
-149.134708936
 40
5.9190919292
 50
194.0907311513
 51
216.4944889613
  0
LINE
  8
CYAN
 10
82.376444092
 20
-152.6550620143
 11
91.3740650278
 21
-164.7763942902
  0
LINE
  8
CYAN
 10
91.3740650278
 20
-164.7763942902
 11
93.9363172086
 21
-168.4805973037
  0
ARC
  8
CYAN
 10
95.8363990108
 20
-167.1809907144
 40
2.3020182758
 50
214.3711138289
 51
247.8598933037
  0
LINE
  8
CYAN
 10
94.9688310864
 20
-169.3132697859
 11
97.7927803331
 21
-170.459978747
  0
ARC
  8
CYAN
 10
96.5773860719
 20
-173.4278140155
 40
3.2070593058
 50
50.5872129913
 51
67.7298138188
  0
LINE
  8
CYAN
 10
98.6135574941
 20
-170.9500659794
 11
103.9926217288
 21
-175.4108114195
  0
ARC
  8
CYAN
 10
105.7243840145
 20
-173.3250913473
 40
2.7109461142
 50
230.2973312107
 51
273.223867096
  0
LINE
  8
CYAN
 10
105.8768406027
 20
-176.0317471848
 11
111.5770785091
 21
-175.7010572561
  0
ARC
  8
CYAN
 10
111.3801250917
 20
-172.1156741259
 40
3.5907886097
 50
273.1442300653
 51
296.2172999858
  0
LINE
  8
CYAN
 10
112.9664520222
 20
-175.3370604282
 11
123.6746201427
 21
-170.0579168914
  0
ARC
  8
CYAN
 10
119.410674456
 20
-161.4310412609
 40
9.6231084355
 50
296.301484859
 51
310.0973019974
  0
LINE
  8
CYAN
 10
125.6087993656
 20
-168.7922547185
 11
136.5168088818
 21
-159.6209620936
  0
ARC
  8
CYAN
 10
129.8631203627
 20
-151.6743076493
 40
10.3644048438
 50
309.9392463963
 51
322.6627519818
  0
LINE
  8
CYAN
 10
138.1036447264
 20
-157.9603752577
 11
144.524739096
 21
-149.5313506741
  0
ARC
  8
CYAN
 10
137.6193264874
 20
-144.2055630683
 40
8.7205926929
 50
322.3588559151
 51
330.9551442623
  0
LINE
  8
CYAN
 10
145.2432164948
 20
-148.4393601903
 11
149.6563806503
 21
-140.3838486915
  0
LINE
  8
CYAN
 10
149.6563806503
 20
-140.3838486915
 11
151.9854845361
 21
-137.18638636
  0
ARC
  8
CYAN
 10
146.4413887029
 20
-132.9919418505
 40
6.9520042687
 50
322.8902860986
 51
335.7526021051
  0
LINE
  8
CYAN
 10
152.7800919905
 20
-135.8469731959
 11
157.0671657415
 21
-125.9548241079
  0
LINE
  8
CYAN
 10
157.0671657415
 20
-125.9548241079
 11
163.174223632
 21
-111.3473697066
  0
ARC
  8
CYAN
 10
156.9185322145
 20
-108.7794124214
 40
6.7622540421
 50
337.6818816213
 51
349.2454454741
  0
LINE
  8
CYAN
 10
163.5620111023
 20
-110.0412634417
 11
166.6619318002
 21
-92.1173934972
  0
LINE
  8
CYAN
 10
166.6619318002
 20
-92.1173934972
 11
169.6357620936
 21
-69.7327781126
  0
LINE
  8
CYAN
 10
169.6357620936
 20
-69.7327781126
 11
172.0481332276
 21
-42.0904307692
  0
ARC
  8
CYAN
 10
167.8254864581
 20
-41.7150123842
 40
4.2393023841
 50
354.9194227798
 51
359.9420951799
  0
LINE
  8
CYAN
 10
172.0647866772
 20
-41.7192967486
 11
172.0148263283
 21
-23.1269097542
  0
LINE
  8
CYAN
 10
172.0148263283
 20
-23.1269097542
 11
172.3883394132
 21
5.0340735924
  0
ARC
  8
CYAN
 10
167.6825503569
 20
5.2446207772
 40
4.7104968697
 50
357.4381714114
 51
2.5618285886
  0
LINE
  8
CYAN
 10
172.3883394132
 20
5.4551679619
 11
170.5279111816
 21
28.5344701031
  0
LINE
  8
CYAN
 10
170.5279111816
 20
28.5344701031
 11
168.8173639968
 21
42.4662702617
  0
LINE
  8
CYAN
 10
168.8173639968
 20
42.4662702617
 11
167.3804091991
 21
55.158577954
  0
LINE
  8
CYAN
 10
167.3804091991
 20
55.158577954
 11
166.53822046
 21
62.1982290246
  0
ARC
  8
CYAN
 10
167.2935136286
 20
62.3721604802
 40
0.7750612375
 50
12.9287755625
 51
192.9681836926
  0
LINE
  8
CYAN
 10
168.048926249
 20
62.5455724029
 11
170.9751752577
 21
54.5376421887
  0
ARC
  8
CYAN
 10
155.232588507
 20
48.788635887
 40
16.7594782455
 50
9.8779800676
 51
20.0615949668
  0
LINE
  8
CYAN
 10
171.7436130056
 20
51.6637325932
 11
174.4081649485
 21
36.3401798573
  0
ARC
  8
CYAN
 10
166.737519779
 20
34.9930898289
 40
7.7880324126
 50
6.8462402891
 51
9.960501892
  0
LINE
  8
CYAN
 10
174.4700206186
 20
35.9214645519
 11
176.8490848533
 21
16.1633360825
  0
LINE
  8
CYAN
 10
176.8490848533
 20
16.1633360825
 11
179.237665345
 21
-18.2450699445
  0
ARC
  8
CYAN
 10
158.2329355626
 20
-19.7366257541
 40
21.0576212323
 50
356.6381573038
 51
4.0617824321
  0
LINE
  8
CYAN
 10
179.2543187946
 20
-20.9714775575
 11
178.8332244251
 21
-28.1110493259
  0
LINE
  8
CYAN
 10
178.8332244251
 20
-28.1110493259
 11
175.1147470262
 21
-66.5353157811
  0
LINE
  8
CYAN
 10
175.1147470262
 20
-66.5353157811
 11
174.8911149881
 21
-75.1618026963
  0
LINE
  8
CYAN
 10
174.8911149881
 20
-75.1618026963
 11
172.0148263283
 21
-95.3909858842
  0
ARC
  8
CYAN
 10
162.4705849944
 20
-94.0557334099
 40
9.6371905558
 50
346.4912274765
 51
352.0359319187
  0
LINE
  8
CYAN
 10
171.8411546392
 20
-96.3069256146
 11
167.5493227597
 21
-113.9809938144
  0
ARC
  8
CYAN
 10
149.0391584449
 20
-109.4841986829
 40
19.0485524231
 50
339.9490765691
 51
346.3452855992
  0
LINE
  8
CYAN
 10
166.9331451229
 20
-116.0150937351
 11
160.9854845361
 21
-132.402088184
  0
ARC
  8
CYAN
 10
156.0932701814
 20
-130.6307560962
 40
5.2030163038
 50
335.0785062123
 51
340.0961148504
  0
LINE
  8
CYAN
 10
160.8118128469
 20
-132.8231825535
 11
155.3066582078
 21
-144.5472111023
  0
ARC
  8
CYAN
 10
146.4366686072
 20
-140.4963544684
 40
9.7512130006
 50
323.4186725906
 51
335.4541814071
  0
LINE
  8
CYAN
 10
154.2670071372
 20
-146.307718636
 11
146.0235495638
 21
-157.2062118953
  0
ARC
  8
CYAN
 10
139.9307234676
 20
-152.5893342771
 40
7.644480936
 50
313.5043320973
 51
322.8467400019
  0
LINE
  8
CYAN
 10
145.1932561459
 20
-158.1340469469
 11
135.5746994449
 21
-167.2815489294
  0
ARC
  8
CYAN
 10
127.8364072583
 20
-159.1286454961
 40
11.2405960855
 50
305.7828936268
 51
313.5054562875
  0
LINE
  8
CYAN
 10
134.4089579699
 20
-168.2474490087
 11
118.6191086439
 21
-179.6003435369
  0
ARC
  8
CYAN
 10
116.2376036734
 20
-176.305367398
 40
4.0655176399
 50
282.7115748679
 51
305.8582177241
  0
LINE
  8
CYAN
 10
117.1321934972
 20
-180.2712396511
 11
106.6952386994
 21
-182.6003435369
  0
ARC
  8
CYAN
 10
105.4057878783
 20
-176.9476872112
 40
5.7978622747
 50
240.2580162541
 51
282.8500991236
  0
LINE
  8
CYAN
 10
102.5294972244
 20
-181.9817868358
 11
92.927593973
 21
-176.4671159397
  0
ARC
  8
CYAN
 10
98.7625667611
 20
-166.2907726365
 40
11.7305102389
 50
218.5595375649
 51
240.1706443121
  0
LINE
  8
CYAN
 10
89.5897668517
 20
-173.6027226011
 11
81.8530499604
 21
-163.8604545599
  0
ARC
  8
CYAN
 10
93.4849637827
 20
-154.5935697465
 40
14.8720063648
 50
211.7576757151
 51
218.5435459995
  0
LINE
  8
CYAN
 10
80.8395685964
 20
-162.4211206979
 11
73.0433750991
 21
-149.8596615385
  0
ARC
  8
CYAN
 10
77.0452091932
 20
-147.374359569
 40
4.710775095
 50
181.8132866925
 51
211.8419651789
  0
LINE
  8
CYAN
 10
72.3367930214
 20
-147.52342046
 11
72.1631213323
 21
-141.9207241872
  0
ARC
  8
CYAN
 10
74.9376845708
 20
-141.8219674088
 40
2.7763202384
 50
127.3657683583
 51
182.0385042244
  0
LINE
  8
CYAN
 10
73.2527327518
 20
-139.6154109437
 11
76.7237874703
 21
-136.962754322
  0
LINE
  8
CYAN
 10
76.7237874703
 20
-136.962754322
 11
75.2368723236
 21
-134.3838486915
  0
LINE
  8
CYAN
 10
75.2368723236
 20
-134.3838486915
 11
72.8078477399
 21
-136.2680675654
  0
ARC
  8
CYAN
 10
72.1632818146
 20
-135.4188231024
 40
1.066152611
 50
178.9727463033
 51
307.198043461
  0
LINE
  8
CYAN
 10
71.0973005551
 20
-135.3997091197
 11
71.1543980967
 21
-130.1705259318
  0
ARC
  8
CYAN
 10
77.1211813782
 20
-130.2434958658
 40
5.9672294526
 50
167.5282548192
 51
179.2993442788
  0
LINE
  8
CYAN
 10
71.2947628866
 20
-128.9548241079
 11
71.7896082474
 21
-127.7914616971
  0
ARC
  8
CYAN
 10
73.7855945837
 20
-128.6503211752
 40
2.1729245403
 50
62.4801177543
 51
156.7181158706
  0
LINE
  8
CYAN
 10
74.7896082474
 20
-126.7232618557
 11
79.4763647899
 21
-129.1546655036
  0
ARC
  8
CYAN
 10
77.2738829748
 20
-133.3969568178
 40
4.7799541567
 50
40.8505260193
 51
62.5628929399
  0
LINE
  8
CYAN
 10
80.8895289453
 20
-130.2704466297
 11
88.4002347343
 21
-138.9468938937
  0
ARC
  8
CYAN
 10
-74.4268633668
 20
-91.6757905025
 40
1.891084083
 50
20.8856197912
 51
63.3403616795
  0
LINE
  8
CYAN
 10
-73.5783536876
 20
-89.9857519429
 11
-76.228631245
 21
-88.6725084853
  0
ARC
  8
CYAN
 10
-78.7143181438
 20
-93.6754439799
 40
5.586412348
 50
63.5797144483
 51
71.5839507002
  0
LINE
  8
CYAN
 10
-76.9494877082
 20
-88.375125456
 11
-79.1049199048
 21
-87.6566480571
  0
ARC
  8
CYAN
 10
-77.8142567613
 20
-83.7755180244
 40
4.0901077835
 50
186.0892149462
 51
251.6055425707
  0
LINE
  8
CYAN
 10
-81.8812878668
 20
-84.209383981
 11
-82.035927042
 21
-82.6725084853
  0
ARC
  8
CYAN
 10
-75.9573539741
 20
-82.0034557536
 40
6.1152826672
 50
160.1037030756
 51
186.2811140141
  0
LINE
  8
CYAN
 10
-81.7076161776
 20
-79.92231023
 11
-80.211184774
 21
-75.7993919112
  0
ARC
  8
CYAN
 10
-72.7822036689
 20
-78.506683421
 40
7.9069075864
 50
135.8982460862
 51
159.9770968419
  0
LINE
  8
CYAN
 10
-78.4601934972
 20
-73.0039914354
 11
-75.1889801745
 21
-69.6090667724
  0
ARC
  8
CYAN
 10
-69.5116924626
 20
-75.111523194
 40
7.9062394623
 50
85.6918180531
 51
135.8959309344
  0
LINE
  8
CYAN
 10
-68.9177668517
 20
-67.2276234734
 11
-65.6441744647
 21
-67.4821833466
  0
ARC
  8
CYAN
 10
-66.1081823139
 20
-73.8237182347
 40
6.3584878723
 50
72.8290887786
 51
85.8151458727
  0
LINE
  8
CYAN
 10
-64.2310103093
 20
-67.7486385408
 11
-59.0755781126
 21
-69.361644092
  0
ARC
  8
CYAN
 10
-60.9477566595
 20
-75.3284417393
 40
6.2536170874
 50
35.8382256324
 51
72.5799134021
  0
LINE
  8
CYAN
 10
-55.8781157811
 20
-71.6669573354
 11
-52.0240317209
 21
-77.0555378271
  0
ARC
  8
CYAN
 10
-56.8216993082
 20
-80.5137738975
 40
5.9141365386
 50
12.3244825194
 51
35.7846705543
  0
LINE
  8
CYAN
 10
-51.0438572561
 20
-79.2514141158
 11
-48.0938176051
 21
-92.7621199048
  0
ARC
  8
CYAN
 10
-61.5487044837
 20
-95.8035182237
 40
13.7943497364
 50
2.7521082877
 51
12.7373128052
  0
LINE
  8
CYAN
 10
-47.7702648692
 20
-95.1411841396
 11
-47.5537700238
 21
-100.9675124504
  0
ARC
  8
CYAN
 10
-55.2065502166
 20
-101.2848432358
 40
7.6593565987
 50
345.3433077602
 51
2.3744710061
  0
LINE
  8
CYAN
 10
-47.7964345757
 20
-103.222865345
 11
-50.0327549564
 21
-111.8231825535
  0
ARC
  8
CYAN
 10
-54.7834756431
 20
-110.5790664937
 40
4.910923723
 50
333.2239175413
 51
345.3249647276
  0
LINE
  8
CYAN
 10
-50.3991308485
 20
-112.7914616971
 11
-54.6624139572
 21
-121.3441976209
  0
ARC
  8
CYAN
 10
-58.7785427301
 20
-119.2628884916
 40
4.6124140932
 50
300.7113542256
 51
333.1766838243
  0
LINE
  8
CYAN
 10
-56.4229214909
 20
-123.2284164948
 11
-62.4490911975
 21
-126.8208034893
  0
ARC
  8
CYAN
 10
-64.6522123693
 20
-123.1308904583
 40
4.2975808397
 50
255.6420027729
 51
300.8399842419
  0
LINE
  8
CYAN
 10
-65.717925456
 20
-127.294237272
 11
-71.4942934179
 21
-125.8073221253
  0
ARC
  8
CYAN
 10
-69.7909610029
 20
-119.2302649856
 40
6.7940431213
 50
227.8895075516
 51
255.4804883119
  0
LINE
  8
CYAN
 10
-74.3467914354
 20
-124.2704466297
 11
-79.8233973037
 21
-119.3624371134
  0
ARC
  8
CYAN
 10
-76.5026089903
 20
-115.6764438066
 40
4.9612681524
 50
182.2080406819
 51
227.9836504492
  0
LINE
  8
CYAN
 10
-81.4601934972
 20
-115.8675917526
 11
-81.6980999207
 21
-110.38860682
  0
ARC
  8
CYAN
 10
-78.2621733788
 20
-110.2379877472
 40
3.4392262657
 50
103.3272728714
 51
182.5100407787
  0
LINE
  8
CYAN
 10
-79.0549595559
 20
-106.8913823949
 11
-77.7916764473
 21
-106.5939993656
  0
ARC
  8
CYAN
 10
-78.3671475045
 20
-104.0376299419
 40
2.62034188
 50
282.6865258928
 51
308.1182367448
  0
LINE
  8
CYAN
 10
-76.7496463125
 20
-106.0991540048
 11
-73.9827946075
 21
-103.881866138
  0
ARC
  8
CYAN
 10
-74.7408888868
 20
-102.9244179702
 40
1.2212345927
 50
308.3716964707
 51
335.91945268
  0
LINE
  8
CYAN
 10
-73.6259349722
 20
-103.4227067407
 11
-71.8678065028
 21
-99.4568066614
  0
ARC
  8
CYAN
 10
-70.1029947596
 20
-100.2493235687
 40
1.9345913101
 50
89.3524072134
 51
155.8167738932
  0
LINE
  8
CYAN
 10
-70.0811292625
 20
-98.3148558287
 11
-64.4546423473
 21
-98.3148558287
  0
LINE
  8
CYAN
 10
-64.4546423473
 20
-98.3148558287
 11
-64.4546423473
 21
-95.3410255353
  0
LINE
  8
CYAN
 10
-64.4546423473
 20
-95.3410255353
 11
-69.9336272799
 21
-95.3410255353
  0
ARC
  8
CYAN
 10
-69.9335485909
 20
-93.8042043663
 40
1.536821171
 50
200.7607414371
 51
269.9970663154
  0
LINE
  8
CYAN
 10
-71.3705820777
 20
-94.3489557494
 11
-72.6600348929
 21
-91.0016123711
  0
ARC
  8
CYAN
 10
-255.1898313357
 20
-96.9315186293
 40
3.5170313918
 50
98.8972506082
 51
124.2797011807
  0
LINE
  8
CYAN
 10
-255.7337858842
 20
-93.4568066614
 11
-252.3126915147
 21
-92.885831245
  0
ARC
  8
CYAN
 10
-252.2130279011
 20
-93.4064307516
 40
0.530053471
 50
322.6479403785
 51
100.8375819283
  0
LINE
  8
CYAN
 10
-251.7916764473
 20
-93.7280199841
 11
-257.4681237113
 21
-101.3648161776
  0
LINE
  8
CYAN
 10
-257.4681237113
 20
-101.3648161776
 11
-255.0390991277
 21
-103.0753633624
  0
LINE
  8
CYAN
 10
-255.0390991277
 20
-103.0753633624
 11
-249.5601141951
 21
-95.7359501983
  0
ARC
  8
CYAN
 10
-248.8511038339
 20
-96.2688614832
 40
0.88695554
 50
34.8428079659
 51
143.0704903489
  0
LINE
  8
CYAN
 10
-248.1231593973
 20
-95.7621199048
 11
-246.7599555908
 21
-97.72008977
  0
ARC
  8
CYAN
 10
-249.6967659341
 20
-99.8566027887
 40
3.6317410248
 50
13.4877847225
 51
36.0356788264
  0
LINE
  8
CYAN
 10
-246.1651895321
 20
-99.0095425853
 11
-245.6632069786
 21
-101.3196139572
  0
ARC
  8
CYAN
 10
-249.6342565474
 20
-102.2092073812
 40
4.0694730786
 50
327.2213853328
 51
12.6269129221
  0
LINE
  8
CYAN
 10
-246.2127708168
 20
-104.4123974623
 11
-248.4609865186
 21
-107.8739359239
  0
ARC
  8
CYAN
 10
-250.3805684747
 20
-106.6456801941
 40
2.2789047861
 50
292.4541674217
 51
327.3866168582
  0
LINE
  8
CYAN
 10
-249.5101538462
 20
-108.7518106265
 11
-253.0811292625
 21
-110.1887654243
  0
ARC
  8
CYAN
 10
-252.1622920818
 20
-112.3845788212
 40
2.380306333
 50
112.7068514902
 51
147.5411760849
  0
LINE
  8
CYAN
 10
-254.170740682
 20
-111.1070842189
 11
-255.1628104679
 21
-112.6201690722
  0
ARC
  8
CYAN
 10
-253.7948500822
 20
-113.5051513845
 40
1.6292664945
 50
147.0997327654
 51
218.8958444533
  0
LINE
  8
CYAN
 10
-255.06288977
 20
-114.5281785884
 11
-250.502223632
 21
-120.1808352102
  0
ARC
  8
CYAN
 10
-253.9203779415
 20
-122.9228899485
 40
4.3820820475
 50
5.7198969414
 51
38.7367017762
  0
LINE
  8
CYAN
 10
-249.5601141951
 20
-122.4861484536
 11
-249.0390991277
 21
-128.236346709
  0
ARC
  8
CYAN
 10
-253.014404895
 20
-128.6719704233
 40
3.999102895
 50
350.9332740516
 51
6.2536591398
  0
LINE
  8
CYAN
 10
-249.0652688343
 20
-129.3021674861
 11
-249.9716923077
 21
-134.581311023
  0
ARC
  8
CYAN
 10
-253.2041888447
 20
-134.0108199174
 40
3.2824524313
 50
332.0444285362
 51
349.9911514338
  0
LINE
  8
CYAN
 10
-250.3047613006
 20
-135.5495901665
 11
-252.5839048374
 21
-139.912793973
  0
ARC
  8
CYAN
 10
-248.5374028707
 20
-142.0313324741
 40
4.5675358287
 50
152.3657785344
 51
180.1643666761
  0
LINE
  8
CYAN
 10
-253.1049199048
 20
-142.0444355274
 11
-253.1215733545
 21
-143.0103356067
  0
ARC
  8
CYAN
 10
-249.8839645867
 20
-143.0086278074
 40
3.2376092183
 50
180.0302228241
 51
199.7435319295
  0
LINE
  8
CYAN
 10
-252.9312482157
 20
-144.1023260904
 11
-252.5624932593
 21
-145.0943958763
  0
ARC
  8
CYAN
 10
-250.0337012064
 20
-144.1987181835
 40
2.6827276746
 50
199.5037337454
 51
231.8262693283
  0
LINE
  8
CYAN
 10
-251.6917557494
 20
-146.307718636
 11
-248.8416367962
 21
-148.5654505948
  0
LINE
  8
CYAN
 10
-248.8416367962
 20
-148.5654505948
 11
-247.3356891356
 21
-149.6146179223
  0
ARC
  8
CYAN
 10
-248.7418874364
 20
-151.6627364167
 40
2.4843878579
 50
12.0996566608
 51
55.5272652868
  0
LINE
  8
CYAN
 10
-246.3126915147
 20
-151.141977161
 11
-245.8178461539
 21
-153.4472904044
  0
ARC
  8
CYAN
 10
-248.5908475324
 20
-154.1044899338
 40
2.8498154093
 50
1.2553306321
 51
13.333061985
  0
LINE
  8
CYAN
 10
-245.7417160983
 20
-154.0420564631
 11
-245.7512323553
 21
-157.5630715305
  0
ARC
  8
CYAN
 10
-248.5938828952
 20
-157.585895576
 40
2.8427421672
 50
321.7102172998
 51
0.4600260761
  0
LINE
  8
CYAN
 10
-246.3626518636
 20
-159.3473697066
 11
-248.3206217288
 21
-161.8025639968
  0
ARC
  8
CYAN
 10
-248.7247110587
 20
-161.4909274391
 40
0.5102994519
 50
210.8498172664
 51
322.3603356493
  0
LINE
  8
CYAN
 10
-249.1628104679
 20
-161.7526036479
 11
-253.6996859635
 21
-153.8945544806
  0
LINE
  8
CYAN
 10
-253.6996859635
 20
-153.8945544806
 11
-256.4260935765
 21
-155.0840865979
  0
LINE
  8
CYAN
 10
-256.4260935765
 20
-155.0840865979
 11
-252.1628104679
 21
-162.4710810468
  0
ARC
  8
CYAN
 10
-252.514770606
 20
-162.6683437051
 40
0.403470563
 50
260.13374462
 51
29.2692678518
  0
LINE
  8
CYAN
 10
-252.5839048374
 20
-163.0658471055
 11
-256.7234766059
 21
-162.2474490087
  0
ARC
  8
CYAN
 10
-256.3366799823
 20
-160.4774045754
 40
1.8118137111
 50
249.4294954299
 51
257.6732883161
  0
LINE
  8
CYAN
 10
-256.9732783505
 20
-162.1736980174
 11
-258.8313275178
 21
-161.5289716098
  0
ARC
  8
CYAN
 10
-258.3560573656
 20
-160.1342684943
 40
1.4734580069
 50
195.8581944996
 51
251.1825339586
  0
LINE
  8
CYAN
 10
-259.7734369548
 20
-160.536901824
 11
-260.3444123711
 21
-158.6051016653
  0
LINE
  8
CYAN
 10
-260.3444123711
 20
-158.6051016653
 11
-261.336482157
 21
-154.639201586
  0
ARC
  8
CYAN
 10
-262.9969757958
 20
-155.0605020645
 40
1.7131063066
 50
14.2366709036
 51
34.4258129303
  0
LINE
  8
CYAN
 10
-261.5839048374
 20
-154.0920168121
 11
-263.6941348136
 21
-150.9706845361
  0
ARC
  8
CYAN
 10
-266.6144683183
 20
-152.9534132328
 40
3.5298103155
 50
34.1741176078
 51
65.9983258115
  0
LINE
  8
CYAN
 10
-265.1786708961
 20
-149.7288130056
 11
-268.0287898493
 21
-148.4655298969
  0
ARC
  8
CYAN
 10
-268.9549588442
 20
-150.4941379772
 40
2.230031334
 50
65.4607451615
 51
87.8418006119
  0
LINE
  8
CYAN
 10
-268.8709785884
 20
-148.2656885012
 11
-273.0866804124
 21
-148.141977161
  0
ARC
  8
CYAN
 10
-272.9925950764
 20
-146.1957240382
 40
1.9485259219
 50
253.9423663966
 51
267.2323747297
  0
LINE
  8
CYAN
 10
-273.5315654243
 20
-148.0682261697
 11
-276.4316447264
 21
-147.3259581285
  0
ARC
  8
CYAN
 10
-276.2354670459
 20
-146.6302937992
 40
0.7227963347
 50
210.9855707935
 51
254.2515221817
  0
LINE
  8
CYAN
 10
-276.8551181602
 20
-147.0024053925
 11
-277.1382268041
 21
-146.5622785091
  0
ARC
  8
CYAN
 10
-276.3580726831
 20
-146.1088343933
 40
0.9023591406
 50
164.1797932768
 51
210.1661720558
  0
LINE
  8
CYAN
 10
-277.2262521808
 20
-145.8628336241
 11
-277.157259318
 21
-145.536901824
  0
ARC
  8
CYAN
 10
-276.1604815074
 20
-145.8367030689
 40
1.0408875012
 50
92.7483693874
 51
163.2602691662
  0
LINE
  8
CYAN
 10
-276.2103917526
 20
-144.797012847
 11
-270.0605107058
 21
-144.4496694687
  0
LINE
  8
CYAN
 10
-270.0605107058
 20
-144.4496694687
 11
-271.0026201427
 21
-138.3759184774
  0
LINE
  8
CYAN
 10
-271.0026201427
 20
-138.3759184774
 11
-285.5315654243
 21
-139.3489557494
  0
ARC
  8
CYAN
 10
-285.6780304624
 20
-137.2368422399
 40
2.1171857463
 50
214.949118299
 51
273.9668397242
  0
LINE
  8
CYAN
 10
-287.4134052339
 20
-138.4496694687
 11
-288.3626518636
 21
-137.0912237906
  0
ARC
  8
CYAN
 10
-284.9104587394
 20
-134.6815987343
 40
4.2099798431
 50
195.0281882202
 51
214.9149767232
  0
LINE
  8
CYAN
 10
-288.9764504362
 20
-135.7732222046
 11
-289.9685202221
 21
-132.128495797
  0
ARC
  8
CYAN
 10
-289.0126211755
 20
-131.8579493549
 40
0.993447716
 50
92.1679084361
 51
195.8030120704
  0
LINE
  8
CYAN
 10
-289.0502014274
 20
-130.8652126883
 11
-271.8471879461
 21
-130.0967749405
  0
LINE
  8
CYAN
 10
-271.8471879461
 20
-130.0967749405
 11
-271.8471879461
 21
-127.1205655829
  0
LINE
  8
CYAN
 10
-271.8471879461
 20
-127.1205655829
 11
-289.3237938144
 21
-127.8890033307
  0
ARC
  8
CYAN
 10
-289.3476244043
 20
-127.1205281545
 40
0.7688445834
 50
181.953384573
 51
271.7761859456
  0
LINE
  8
CYAN
 10
-290.1160222046
 20
-127.1467352895
 11
-290.1160222046
 21
-125.3362674068
  0
ARC
  8
CYAN
 10
-286.3496717784
 20
-125.3394461977
 40
3.7663517677
 50
159.1164269924
 51
179.9516425094
  0
LINE
  8
CYAN
 10
-289.8685995242
 20
-123.9968542427
 11
-288.6124536083
 21
-120.6733015067
  0
ARC
  8
CYAN
 10
-282.9034411169
 20
-122.8586903499
 40
6.1129982841
 50
145.3859390675
 51
159.0533391053
  0
ARC
  8
CYAN
 10
-287.1770930797
 20
-119.8082451233
 40
0.8669735747
 50
89.2657173187
 51
150.8714483251
  0
LINE
  8
CYAN
 10
-287.1659825535
 20
-118.9413427439
 11
-270.3578937351
 21
-118.841422046
  0
LINE
  8
CYAN
 10
-270.3578937351
 20
-118.841422046
 11
-270.7813671689
 21
-112.9175521015
  0
LINE
  8
CYAN
 10
-270.7813671689
 20
-112.9175521015
 11
-277.9946899286
 21
-112.9413427439
  0
ARC
  8
CYAN
 10
-277.9946899286
 20
-112.4702880254
 40
0.4710547185
 50
180.0
 51
270.0
  0
LINE
  8
CYAN
 10
-278.4657446471
 20
-112.4702880254
 11
-278.4657446471
 21
-112.1229446471
  0
ARC
  8
CYAN
 10
-277.3239711315
 20
-112.1232806163
 40
1.141773565
 50
124.3686666337
 51
179.9831405978
  0
LINE
  8
CYAN
 10
-277.9685202221
 20
-111.1808352102
 11
-276.336482157
 21
-110.0840865979
  0
ARC
  8
CYAN
 10
-274.1964843255
 20
-113.3093351577
 40
3.8706354764
 50
111.8877521339
 51
123.5648340368
  0
LINE
  8
CYAN
 10
-275.6394163362
 20
-109.7177107058
 11
-273.457814433
 21
-108.8517313243
  0
ARC
  8
CYAN
 10
-271.7311953222
 20
-113.2399799907
 40
4.7157120259
 50
98.6687346049
 51
111.4778655957
  0
LINE
  8
CYAN
 10
-272.4419540048
 20
-108.5781389374
 11
-267.5839048374
 21
-107.8168383822
  0
ARC
  8
CYAN
 10
-267.955560979
 20
-105.3071382481
 40
2.5370697765
 50
278.4235893551
 51
305.8935791845
  0
LINE
  8
CYAN
 10
-266.4681237113
 20
-107.3624371134
 11
-263.8630483743
 21
-105.4544275971
  0
ARC
  8
CYAN
 10
-266.0852805106
 20
-102.3974577186
 40
3.7793359874
 50
306.014883639
 51
325.4928130272
  0
LINE
  8
CYAN
 10
-262.9708992863
 20
-104.5384878668
 11
-261.2936590008
 21
-102.0785354481
  0
ARC
  8
CYAN
 10
-264.7299321881
 20
-99.7503194288
 40
4.1507304478
 50
325.8807493662
 51
352.40396411
  0
LINE
  8
CYAN
 10
-260.6156256939
 20
-100.2989954005
 11
-260.2468707375
 21
-97.6201690722
  0
ARC
  8
CYAN
 10
-256.6493186888
 20
-98.1167278509
 40
3.6316595881
 50
124.9817777122
 51
172.1412994099
  0
LINE
  8
CYAN
 10
-258.73140682
 20
-95.1411841396
 11
-257.170740682
 21
-94.0254030135
  0
LINE
  8
CYAN
 10
-104.7631276764
 20
-159.3973300555
 11
-111.0605107058
 21
-160.536901824
  0
ARC
  8
CYAN
 10
-111.5313687864
 20
-159.2974499604
 40
1.3258764098
 50
225.8651361047
 51
290.801393088
  0
LINE
  8
CYAN
 10
-112.4546423473
 20
-160.2490350515
 11
-117.3816843775
 21
-155.5051809675
  0
LINE
  8
CYAN
 10
-117.3816843775
 20
-155.5051809675
 11
-119.2159429025
 21
-157.8604545599
  0
LINE
  8
CYAN
 10
-119.2159429025
 20
-157.8604545599
 11
-114.3079333862
 21
-162.5710017447
  0
ARC
  8
CYAN
 10
-115.049622516
 20
-163.3360988457
 40
1.0655873213
 50
358.541014579
 51
45.8900201354
  0
LINE
  8
CYAN
 10
-113.9843806503
 20
-163.3632301348
 11
-114.1818429818
 21
-173.6764735924
  0
ARC
  8
CYAN
 10
-118.8610182601
 20
-173.5867375755
 40
4.6800356663
 50
331.9938536116
 51
358.901330993
  0
LINE
  8
CYAN
 10
-114.7290277558
 20
-175.7843245044
 11
-115.4475051546
 21
-177.1475283109
  0
ARC
  8
CYAN
 10
-119.5394917552
 20
-174.9230986525
 40
4.6575145351
 50
308.1752357049
 51
331.4712187691
  0
LINE
  8
CYAN
 10
-116.6608279144
 20
-178.5844831086
 11
-121.0002410785
 21
-182.0793284695
  0
ARC
  8
CYAN
 10
-124.545165737
 20
-177.6685837992
 40
5.6587241831
 50
268.7485013751
 51
308.7889123653
  0
LINE
  8
CYAN
 10
-124.6687581285
 20
-183.3259581285
 11
-129.4030959556
 21
-183.2212793021
  0
ARC
  8
CYAN
 10
-129.2828900142
 20
-178.0309804844
 40
5.1916906
 50
204.9536823036
 51
268.6732821428
  0
LINE
  8
CYAN
 10
-133.9899318002
 20
-180.2212793021
 11
-137.9320412371
 21
-171.7922547185
  0
ARC
  8
CYAN
 10
-131.5604155239
 20
-168.8148463465
 40
7.0329634468
 50
170.6849834688
 51
205.0462980491
  0
LINE
  8
CYAN
 10
-138.5006375892
 20
-167.6764735924
 11
-137.0137224425
 21
-158.5789319588
  0
ARC
  8
CYAN
 10
-129.7260154059
 20
-159.7667657876
 40
7.3838758831
 50
148.356711342
 51
170.7426831289
  0
LINE
  8
CYAN
 10
-136.0121363997
 20
-155.8929684378
 11
-130.3713750991
 21
-146.7549827121
  0
ARC
  8
CYAN
 10
-120.7029771827
 20
-152.7289572576
 40
11.3651348492
 50
132.6067664784
 51
148.2886322575
  0
LINE
  8
CYAN
 10
-128.3967517843
 20
-144.3640231562
 11
-122.4371958763
 21
-138.8969335448
  0
ARC
  8
CYAN
 10
-117.1776673345
 20
-144.5944833231
 40
7.7540127649
 50
112.8331317914
 51
132.7107572559
  0
LINE
  8
CYAN
 10
-120.1866011102
 20
-137.4480834259
 11
-114.2080126883
 21
-134.9548241079
  0
ARC
  8
CYAN
 10
-111.2199903572
 20
-142.1654030039
 40
7.8051729941
 50
85.5415513736
 51
112.5088352696
  0
LINE
  8
CYAN
 10
-110.6132466297
 20
-134.3838486915
 11
-102.0367200634
 21
-135.0047844568
  0
ARC
  8
CYAN
 10
-102.5034400538
 20
-141.3512385183
 40
6.3635922799
 50
56.272614331
 51
85.7940238079
  0
LINE
  8
CYAN
 10
-98.9701062649
 20
-136.0587099128
 11
-96.5815257732
 21
-137.6312713719
  0
ARC
  8
CYAN
 10
-99.2853122515
 20
-141.6905302037
 40
4.8772987999
 50
9.5815946296
 51
56.3332550846
  0
LINE
  8
CYAN
 10
-94.4760539255
 20
-140.8786940523
 11
-93.5577351309
 21
-146.3338883426
  0
ARC
  8
CYAN
 10
-99.3341475642
 20
-147.3239884453
 40
5.8606517397
 50
337.8742217323
 51
9.7262099931
  0
LINE
  8
CYAN
 10
-93.9050785091
 20
-149.5313506741
 11
-96.1366407613
 21
-154.9841659001
  0
ARC
  8
CYAN
 10
-99.0438572561
 20
-153.78749659
 40
3.143871051
 50
292.3730600432
 51
337.6269399568
  0
LINE
  8
CYAN
 10
-97.8471879461
 20
-156.6947130849
 11
-103.4974655036
 21
-159.0261960349
  0
ARC
  8
CYAN
 10
-105.8496990705
 20
-153.3481597144
 40
6.1459823633
 50
280.1830613828
 51
292.5027037041
  0
LINE
  8
CYAN
 10
-33.2436986519
 20
-38.2506210944
 11
-31.5593211737
 21
-29.5242134814
  0
ARC
  8
CYAN
 10
-25.7252368697
 20
-30.6292030644
 40
5.9378061306
 50
138.8467036704
 51
169.2750833587
  0
LINE
  8
CYAN
 10
-30.1961173672
 20
-26.7216758128
 11
-27.5172910389
 21
-23.6740945282
  0
ARC
  8
CYAN
 10
-25.4892481449
 20
-25.4317784943
 40
2.683730781
 50
85.650828316
 51
139.0848618743
  0
LINE
  8
CYAN
 10
-25.2857287867
 20
-22.7557757335
 11
-21.9145947661
 21
-23.0293681205
  0
ARC
  8
CYAN
 10
-22.1370602705
 20
-26.0274003342
 40
3.0062747803
 50
55.4021473237
 51
85.7562107713
  0
LINE
  8
CYAN
 10
-20.4300586836
 20
-23.5527622522
 11
-9.4958794607
 21
-30.9611682791
  0
ARC
  8
CYAN
 10
-16.7463763581
 20
-41.6577047278
 40
12.9222907124
 50
46.2418929817
 51
55.8691693059
  0
LINE
  8
CYAN
 10
-7.8091229183
 20
-32.3243720856
 11
-3.569630452
 21
-36.3664022205
  0
ARC
  8
CYAN
 10
-2.4045205794
 20
-35.151330258
 40
1.6834134636
 50
226.2025117217
 51
274.1547388861
  0
LINE
  8
CYAN
 10
-2.282556701
 20
-36.8303197462
 11
-0.3721681205
 21
-36.7113665345
  0
ARC
  8
CYAN
 10
-0.435973602
 20
-35.8449978606
 40
0.8687150387
 50
274.2120598459
 51
350.1981444368
  0
LINE
  8
CYAN
 10
0.4200602696
 20
-35.9928891356
 11
0.4700206186
 21
-35.6717154639
  0
ARC
  8
CYAN
 10
5.9520298261
 20
-36.5781487877
 40
5.5564418761
 50
158.9207502318
 51
170.6112658849
  0
LINE
  8
CYAN
 10
0.7674036479
 20
-34.5797249802
 11
1.883184774
 21
-31.7058153846
  0
ARC
  8
CYAN
 10
7.0415582125
 20
-33.7080677232
 40
5.5333381388
 50
146.4440679991
 51
158.7859908384
  0
LINE
  8
CYAN
 10
2.430369548
 20
-30.6495108644
 11
4.3383790642
 21
-27.8136662966
  0
ARC
  8
CYAN
 10
5.82499851
 20
-28.8035738182
 40
1.7860443102
 50
106.154514311
 51
146.341218323
  0
LINE
  8
CYAN
 10
5.3280697859
 20
-27.088051705
 11
5.9989659001
 21
-26.8715568596
  0
ARC
  8
CYAN
 10
6.1233458265
 20
-27.2431715228
 40
0.3918773073
 50
0.0702740327
 51
108.5054628434
  0
LINE
  8
CYAN
 10
6.515222839
 20
-27.2426908803
 11
6.8173639968
 21
-34.5797249802
  0
LINE
  8
CYAN
 10
6.8173639968
 20
-34.5797249802
 11
9.7911942902
 21
-34.5797249802
  0
LINE
  8
CYAN
 10
9.7911942902
 20
-34.5797249802
 11
9.5176019033
 21
-27.5162832672
  0
ARC
  8
CYAN
 10
10.3595951782
 20
-27.4903145308
 40
0.8423936434
 50
89.8248920339
 51
181.7665550715
  0
LINE
  8
CYAN
 10
10.3621697066
 20
-26.6479248216
 11
10.7071340206
 21
-26.6479248216
  0
ARC
  8
CYAN
 10
10.7081820457
 20
-27.6143391492
 40
0.9664148959
 50
37.6650409027
 51
90.0621342086
  0
LINE
  8
CYAN
 10
11.4731927042
 20
-27.0238169707
 11
13.5596320381
 21
-29.621755115
  0
ARC
  8
CYAN
 10
12.4615217374
 20
-30.4758229802
 40
1.39114275
 50
21.3614664538
 51
37.87440093
  0
LINE
  8
CYAN
 10
13.7570943695
 20
-29.9690984933
 11
14.7991245044
 21
-32.4742531324
  0
ARC
  8
CYAN
 10
12.7116757966
 20
-33.3076136871
 40
2.2476503112
 50
6.0935914861
 51
21.7630923922
  0
LINE
  8
CYAN
 10
14.9466264869
 20
-33.0690191911
 11
15.3439302141
 21
-36.3164418715
  0
ARC
  8
CYAN
 10
17.6754131642
 20
-36.0428494845
 40
2.3474806795
 50
186.6928753578
 51
263.3071246422
  0
LINE
  8
CYAN
 10
17.4018207772
 20
-38.3743324346
 11
18.9149056305
 21
-38.5480041237
  0
LINE
  8
CYAN
 10
18.9149056305
 20
-38.5480041237
 11
21.4414718477
 21
-37.2823419508
  0
ARC
  8
CYAN
 10
20.0819628273
 20
-34.5296383268
 40
3.0701208475
 50
296.2839077256
 51
311.9970858037
  0
LINE
  8
CYAN
 10
22.1361586043
 20
-36.8112872324
 11
25.7808850119
 21
-33.4901135607
  0
ARC
  8
CYAN
 10
29.4412622743
 20
-37.474157628
 40
5.4102651352
 50
113.1098320842
 51
132.5755297507
  0
LINE
  8
CYAN
 10
27.3177605075
 20
-32.4980437748
 11
33.7388548771
 21
-29.7716361618
  0
LINE
  8
CYAN
 10
33.7388548771
 20
-29.7716361618
 11
41.0996796194
 21
-26.5242134814
  0
ARC
  8
CYAN
 10
42.1877879276
 20
-29.4953922432
 40
3.1641559578
 50
49.3374480102
 51
110.1137957968
  0
LINE
  8
CYAN
 10
44.2495606661
 20
-27.0951888977
 11
46.1076098335
 21
-28.6558550357
  0
ARC
  8
CYAN
 10
44.0500388057
 20
-31.0853942626
 40
3.1837492661
 50
13.9323990469
 51
49.7388159465
  0
LINE
  8
CYAN
 10
47.1401237113
 20
-30.3188209358
 11
48.2392513878
 21
-34.7533966693
  0
ARC
  8
CYAN
 10
42.2919364415
 20
-36.245651963
 40
6.1316703215
 50
353.3211615344
 51
14.0854365238
  0
LINE
  8
CYAN
 10
48.3819952419
 20
-36.9587892149
 11
47.1734306106
 21
-47.0983609833
  0
ARC
  8
CYAN
 10
40.7279080825
 20
-46.2420320798
 40
6.5021580919
 50
339.1010702084
 51
352.4322073962
  0
LINE
  8
CYAN
 10
46.80229659
 20
-48.5614854877
 11
44.7705757335
 21
-54.0904307692
  0
ARC
  8
CYAN
 10
40.5061588705
 20
-52.5253783846
 40
4.5425367526
 50
316.5201227217
 51
339.8467282535
  0
LINE
  8
CYAN
 10
43.80229659
 20
-55.6510969072
 11
34.5810436162
 21
-65.2958233148
  0
LINE
  8
CYAN
 10
34.5810436162
 20
-65.2958233148
 11
28.2836605868
 21
-70.9960612213
  0
ARC
  8
CYAN
 10
24.6872138926
 20
-67.0311763367
 40
5.3530123269
 50
290.0581144488
 51
312.2103762611
  0
LINE
  8
CYAN
 10
26.5231530531
 20
-72.0595029342
 11
23.1282283902
 21
-73.3013744647
  0
ARC
  8
CYAN
 10
22.7690509277
 20
-72.0834021493
 40
1.2698287328
 50
132.4168550331
 51
286.4306768329
  0
LINE
  8
CYAN
 10
21.9125265662
 20
-71.145942268
 11
24.5413925456
 21
-69.0642610627
  0
LINE
  8
CYAN
 10
24.5413925456
 20
-69.0642610627
 11
29.8205360825
 21
-64.25379318
  0
ARC
  8
CYAN
 10
25.1075597644
 20
-59.0762609552
 40
7.0013559911
 50
312.3108010955
 51
326.0084834919
  0
LINE
  8
CYAN
 10
30.9125265662
 20
-62.9905100714
 11
36.241630452
 21
-55.0563308485
  0
LINE
  8
CYAN
 10
36.241630452
 20
-55.0563308485
 11
40.4549532117
 21
-44.8929684377
  0
LINE
  8
CYAN
 10
40.4549532117
 20
-44.8929684377
 11
41.9442474227
 21
-36.4639438541
  0
LINE
  8
CYAN
 10
41.9442474227
 20
-36.4639438541
 11
41.2733513085
 21
-34.5797249802
  0
ARC
  8
CYAN
 10
40.1576853799
 20
-34.9771028756
 40
1.184322446
 50
19.6048824041
 51
94.8453629474
  0
LINE
  8
CYAN
 10
40.0576494845
 20
-33.7970128469
 11
38.1258493259
 21
-33.9611682791
  0
LINE
  8
CYAN
 10
38.1258493259
 20
-33.9611682791
 11
25.3835812847
 21
-42.513904203
  0
LINE
  8
CYAN
 10
25.3835812847
 20
-42.513904203
 11
14.1044377478
 21
-48.1665608247
  0
LINE
  8
CYAN
 10
14.1044377478
 20
-48.1665608247
 11
10.9807264076
 21
-50.1982816812
  0
ARC
  8
CYAN
 10
10.1888847525
 20
-48.9586974142
 40
1.470912085
 50
264.136456861
 51
302.5702835535
  0
LINE
  8
CYAN
 10
10.0386169707
 20
-50.4219137193
 11
4.4620904044
 21
-49.9008986519
  0
ARC
  8
CYAN
 10
4.7531189876
 20
-46.2088795479
 40
3.7034717091
 50
234.0305640225
 51
265.4928995263
  0
LINE
  8
CYAN
 10
2.5778715305
 20
-49.2062118953
 11
-4.7115812847
 21
-43.7771873117
  0
LINE
  8
CYAN
 10
-4.7115812847
 20
-43.7771873117
 11
-11.1802569389
 21
-39.0928098335
  0
ARC
  8
CYAN
 10
-5.8073001833
 20
-31.647356292
 40
9.1816906252
 50
216.4987204205
 51
234.1841770912
  0
LINE
  8
CYAN
 10
-13.1881871531
 20
-37.1086702617
 11
-14.7750229976
 21
-34.953238065
  0
ARC
  8
CYAN
 10
-19.7998478672
 20
-38.7699077682
 40
6.3099788108
 50
37.2189497791
 51
42.5119953509
  0
LINE
  8
CYAN
 10
-15.1485360825
 20
-34.5059739889
 11
-18.8408437748
 21
-30.3426115781
  0
ARC
  8
CYAN
 10
-20.4289131755
 20
-31.7529015799
 40
2.1238837799
 50
41.6067784217
 51
94.6569704826
  0
LINE
  8
CYAN
 10
-20.6013513085
 20
-29.6360295004
 11
-21.7171324346
 21
-29.7216758128
  0
ARC
  8
CYAN
 10
-21.5449011575
 20
-31.7303064833
 40
2.0160011863
 50
94.9008745316
 51
136.965401579
  0
LINE
  8
CYAN
 10
-23.018480571
 20
-30.3545068993
 11
-24.8646344171
 21
-32.3243720856
  0
ARC
  8
CYAN
 10
-21.4694618453
 20
-35.5736208381
 40
4.6994482918
 50
136.258119369
 51
175.4480752729
  0
LINE
  8
CYAN
 10
-26.1540872324
 20
-35.2006607454
 11
-26.5513909596
 21
-40.4298439334
  0
ARC
  8
CYAN
 10
-17.2802442937
 20
-41.1495497453
 40
9.2990395717
 50
175.5611131016
 51
191.0697335978
  0
LINE
  8
CYAN
 10
-26.4062680412
 20
-42.9349985726
 11
-25.0882664552
 21
-49.6772666138
  0
ARC
  8
CYAN
 10
-18.0995336734
 20
-48.3119327192
 40
7.120851251
 50
191.0541974636
 51
217.3744576399
  0
LINE
  8
CYAN
 10
-23.758369548
 20
-52.6344434576
 11
-18.6671720856
 21
-59.2720326725
  0
ARC
  8
CYAN
 10
-10.464669092
 20
-53.0279669195
 40
10.3087056651
 50
217.2798080765
 51
221.1899228076
  0
LINE
  8
CYAN
 10
-18.2222870738
 20
-59.8168383822
 11
-12.9169738303
 21
-65.8406290246
  0
ARC
  8
CYAN
 10
-8.0593992436
 20
-61.5486839902
 40
6.4820384944
 50
221.4624378066
 51
236.2731510099
  0
LINE
  8
CYAN
 10
-11.6584488501
 20
-66.939756701
 11
-9.3721681205
 21
-68.4433252974
  0
ARC
  8
CYAN
 10
-10.114780094
 20
-69.6096060581
 40
1.3826363787
 50
237.4305370202
 51
57.5136588782
  0
LINE
  8
CYAN
 10
-10.8590832672
 20
-70.7748082474
 11
-16.2881078509
 21
-67.4512555115
  0
ARC
  8
CYAN
 10
-12.6255089291
 20
-61.3991226893
 40
7.0741036577
 50
226.0546590283
 51
238.818726141
  0
LINE
  8
CYAN
 10
-17.5347375099
 20
-66.4924926249
 11
-23.5014306106
 21
-60.7089874703
  0
LINE
  8
CYAN
 10
-23.5014306106
 20
-60.7089874703
 11
-27.072406027
 21
-56.7668780333
  0
ARC
  8
CYAN
 10
-20.8598472846
 20
-50.7298935588
 40
8.6626247565
 50
210.3449332963
 51
224.1788285031
  0
LINE
  8
CYAN
 10
-28.3356891356
 20
-55.1062911975
 11
-31.1120570975
 21
-50.2720326725
  0
ARC
  8
CYAN
 10
-23.1543836536
 20
-45.6867729201
 40
9.1841806188
 50
190.5729511142
 51
209.9508073601
  0
LINE
  8
CYAN
 10
-32.1826360032
 20
-47.3719533703
 11
-33.2436986519
 21
-41.5717947661
  0
ARC
  8
CYAN
 10
-24.4625725615
 20
-39.9112079302
 40
8.9367625041
 50
169.291332546
 51
190.708667454
  0
LINE
  8
CYAN
 10
-304.5950071372
 20
203.2291568596
 11
-291.0843013481
 21
202.8080624901
  0
LINE
  8
CYAN
 10
-291.0843013481
 20
202.8080624901
 11
-273.7052371134
 21
202.0396247423
  0
ARC
  8
CYAN
 10
-273.7315165358
 20
201.542716506
 40
0.4976026561
 50
311.300306104
 51
86.9726833665
  0
LINE
  8
CYAN
 10
-273.4030959556
 20
201.1688872324
 11
-274.6735162569
 21
199.9555644726
  0
ARC
  8
CYAN
 10
-272.0422414049
 20
197.0840750537
 40
3.8947475952
 50
132.5004293062
 51
155.6118107203
  0
LINE
  8
CYAN
 10
-275.5894559873
 20
198.692281364
 11
-278.3420333069
 21
192.5685700238
  0
LINE
  8
CYAN
 10
-278.3420333069
 20
192.5685700238
 11
-281.0684409199
 21
185.800132276
  0
ARC
  8
CYAN
 10
-292.9409297654
 20
190.563308622
 40
12.7923352164
 50
325.8029086519
 51
338.1396186498
  0
LINE
  8
CYAN
 10
-282.3602727994
 20
183.3734867565
 11
-285.9526597938
 21
178.0657944489
  0
ARC
  8
CYAN
 10
-291.2800918711
 20
181.6886254269
 40
6.4425489392
 50
311.3845674078
 51
325.7829949682
  0
LINE
  8
CYAN
 10
-287.0208596352
 20
176.8548507534
 11
-291.8265693894
 21
172.5891885805
  0
ARC
  8
CYAN
 10
-294.8791265062
 20
176.1291011939
 40
4.6743006174
 50
292.8226101027
 51
310.7720380077
  0
LINE
  8
CYAN
 10
-293.0660618557
 20
171.8207508327
 11
-296.2635241872
 21
170.4313773196
  0
ARC
  8
CYAN
 10
-296.5132235272
 20
171.0332337174
 40
0.6515987139
 50
198.2958870237
 51
292.5326784872
  0
LINE
  8
CYAN
 10
-297.1318826328
 20
170.8286810468
 11
-300.6766883426
 21
183.570949088
  0
LINE
  8
CYAN
 10
-300.6766883426
 20
183.570949088
 11
-303.6267279937
 21
183.1736453608
  0
LINE
  8
CYAN
 10
-303.6267279937
 20
183.1736453608
 11
-299.9082505948
 21
169.786650912
  0
ARC
  8
CYAN
 10
-300.5025529498
 20
169.6135452141
 40
0.6189998965
 50
265.1064983983
 51
16.2395458816
  0
LINE
  8
CYAN
 10
-300.5553560666
 20
168.996801586
 11
-305.8820808882
 21
169.3417659001
  0
ARC
  8
CYAN
 10
-305.7234255802
 20
172.5140786016
 40
3.1762775985
 50
236.6645487074
 51
267.1368800211
  0
LINE
  8
CYAN
 10
-307.4689167328
 20
169.8604019033
 11
-310.9637620936
 21
172.2418452022
  0
ARC
  8
CYAN
 10
-308.4170410225
 20
175.9951042865
 40
4.5357184621
 50
205.0295954577
 51
235.8416988892
  0
LINE
  8
CYAN
 10
-312.5268072958
 20
174.0761037272
 11
-314.9320412371
 21
179.2077452815
  0
ARC
  8
CYAN
 10
-309.0624978785
 20
182.0042772717
 40
6.5017021164
 50
189.402656575
 51
205.475369903
  0
LINE
  8
CYAN
 10
-315.4768469469
 20
180.9420831086
 11
-316.7900904044
 21
189.6447000793
  0
LINE
  8
CYAN
 10
-316.7900904044
 20
189.6447000793
 11
-317.8559111816
 21
196.0396247423
  0
ARC
  8
CYAN
 10
-325.5170857863
 20
194.7528168867
 40
7.7684921819
 50
9.5346757166
 51
15.5229397017
  0
LINE
  8
CYAN
 10
-318.031961935
 20
196.8318531324
 11
-319.592628073
 21
201.7898229976
  0
ARC
  8
CYAN
 10
-315.9465214982
 20
202.9246875989
 40
3.8186399173
 50
184.7537907637
 51
197.2889531371
  0
LINE
  8
CYAN
 10
-319.7520253767
 20
202.6082210944
 11
-319.8638413957
 21
203.7977532117
  0
ARC
  8
CYAN
 10
-319.269075337
 20
203.8477135607
 40
0.5968607049
 50
85.1984266501
 51
184.8015733499
  0
LINE
  8
CYAN
 10
-319.2191149881
 20
204.4424796194
 11
-304.9899318002
 21
203.252947502
  0
ARC
  8
CYAN
 10
-304.3454026111
 20
210.6623620163
 40
7.437394794
 50
265.0284766139
 51
268.0767496824
  0
LINE
  8
CYAN
 10
-161.170740682
 20
99.8992599524
 11
-162.6219698652
 21
103.0277294211
  0
ARC
  8
CYAN
 10
-164.939885011
 20
101.9094445779
 40
2.5735756476
 50
25.7551193371
 51
41.7307274552
  0
LINE
  8
CYAN
 10
-163.0192735924
 20
103.6224954798
 11
-166.6378302934
 21
107.7121068993
  0
ARC
  8
CYAN
 10
-165.5720368329
 20
108.6543508534
 40
1.4225819377
 50
161.4789411473
 51
221.4791727466
  0
LINE
  8
CYAN
 10
-166.9209389374
 20
109.1062385408
 11
-166.7877113402
 21
109.4488237906
  0
ARC
  8
CYAN
 10
-165.8946173976
 20
109.1519477083
 40
0.9411440902
 50
74.8176614101
 51
161.6125197352
  0
LINE
  8
CYAN
 10
-165.6481395718
 20
110.060243299
 11
-163.7877113402
 21
109.5487444885
  0
ARC
  8
CYAN
 10
-163.7130210509
 20
109.8208906757
 40
0.2822094728
 50
254.6530953386
 51
14.9531207852
  0
LINE
  8
CYAN
 10
-163.4403679619
 20
109.8937088025
 11
-163.9851736717
 21
111.4805446471
  0
LINE
  8
CYAN
 10
-163.9851736717
 20
111.4805446471
 11
-165.5720095163
 21
114.1831616178
  0
ARC
  8
CYAN
 10
-163.2169874932
 20
115.5735636991
 40
2.7348394243
 50
176.9298651392
 51
210.5575496281
  0
LINE
  8
CYAN
 10
-165.9479016653
 20
115.7200371134
 11
-165.7956415543
 21
118.5463654243
  0
ARC
  8
CYAN
 10
-164.9725057144
 20
118.4987586171
 40
0.824511382
 50
106.0797995115
 51
176.6899341057
  0
LINE
  8
CYAN
 10
-165.2008754956
 20
119.2910125297
 11
-164.7797811261
 21
119.4147238699
  0
ARC
  8
CYAN
 10
-164.4080024181
 20
118.1491794354
 40
1.3190231702
 50
65.8616611718
 51
106.3711940947
  0
LINE
  8
CYAN
 10
-163.8685995242
 20
119.3528681998
 11
-161.606109437
 21
118.2989427439
  0
ARC
  8
CYAN
 10
-161.2320645613
 20
119.1171169287
 40
0.8996213458
 50
245.4315317073
 51
285.7710575827
  0
LINE
  8
CYAN
 10
-160.9875527359
 20
118.2513614592
 11
-160.5640793021
 21
118.3489030928
  0
ARC
  8
CYAN
 10
-160.7777099753
 20
119.1632819177
 40
0.8419328566
 50
284.6988406859
 51
8.7261039362
  0
LINE
  8
CYAN
 10
-159.9455226011
 20
119.2910125297
 11
-160.2928659794
 21
122.1149617764
  0
ARC
  8
CYAN
 10
-162.4715054702
 20
121.7910536615
 40
2.2025863202
 50
8.4564762544
 51
35.9209253208
  0
LINE
  8
CYAN
 10
-160.6877906424
 20
123.0832409199
 11
-161.9534528152
 21
124.9174994449
  0
ARC
  8
CYAN
 10
-159.8955532324
 20
126.3544255692
 40
2.5099217876
 50
179.999345451
 51
214.9246288703
  0
LINE
  8
CYAN
 10
-162.4054750198
 20
126.3544542427
 11
-162.3983378271
 21
127.9174994449
  0
ARC
  8
CYAN
 10
-160.8840862287
 20
127.9199959737
 40
1.5142536564
 50
129.8077540784
 51
180.0944627925
  0
LINE
  8
CYAN
 10
-161.8535321174
 20
129.0832409199
 11
-160.9613830293
 21
129.8017183188
  0
ARC
  8
CYAN
 10
-159.6973022021
 20
128.2649437774
 40
1.98986842
 50
64.9861381873
 51
129.4391595503
  0
LINE
  8
CYAN
 10
-158.8559111816
 20
130.0681735131
 11
-150.3007961935
 21
126.033280571
  0
ARC
  8
CYAN
 10
-150.7435878341
 20
125.1061558202
 40
1.0274360031
 50
339.3503487678
 51
64.4710170964
  0
LINE
  8
CYAN
 10
-149.7821601903
 20
124.7438277558
 11
-152.3848564631
 21
117.4067936558
  0
LINE
  8
CYAN
 10
-152.3848564631
 20
117.4067936558
 11
-149.6822394925
 21
116.7858578906
  0
LINE
  8
CYAN
 10
-149.6822394925
 20
116.7858578906
 11
-146.4086471055
 21
125.9095692308
  0
ARC
  8
CYAN
 10
-145.1135265689
 20
125.4392592663
 40
1.3778710633
 50
98.5776562354
 51
160.0420198054
  0
LINE
  8
CYAN
 10
-145.319035686
 20
126.8017183188
 11
-138.6005582871
 21
127.817578747
  0
ARC
  8
CYAN
 10
-138.1295035686
 20
124.593946709
 40
3.2578667966
 50
81.6864665711
 51
98.3135334289
  0
LINE
  8
CYAN
 10
-137.6584488501
 20
127.817578747
 11
-135.1794639175
 21
127.4464447264
  0
ARC
  8
CYAN
 10
-135.4285154354
 20
125.7116092454
 40
1.7526211241
 50
359.9384938969
 51
81.8304835686
  0
LINE
  8
CYAN
 10
-133.6758953212
 20
125.7097278351
 11
-133.6687581285
 21
123.6280466297
  0
ARC
  8
CYAN
 10
-135.2533344499
 20
123.6276150235
 40
1.5845763802
 50
329.0223438191
 51
0.0156061963
  0
LINE
  8
CYAN
 10
-133.8947692308
 20
122.8120275971
 11
-135.2294242665
 21
120.6042559873
  0
ARC
  8
CYAN
 10
-136.9893659684
 20
121.6444889417
 40
2.0443775076
 50
302.1882535316
 51
329.4143211286
  0
LINE
  8
CYAN
 10
-135.9003203807
 20
119.9143273592
 11
-138.7004789849
 21
118.2251917526
  0
ARC
  8
CYAN
 10
-138.2842022085
 20
117.5521510021
 40
0.7913723564
 50
121.7368570551
 51
266.7298653404
  0
LINE
  8
CYAN
 10
-138.3293449643
 20
116.7620672482
 11
-136.2452846947
 21
116.638355908
  0
ARC
  8
CYAN
 10
-136.348440524
 20
114.9331231513
 40
1.708350046
 50
27.427642292
 51
86.5381853326
  0
LINE
  8
CYAN
 10
-134.8321205393
 20
115.7200371134
 11
-134.1398128469
 21
114.4305842982
  0
ARC
  8
CYAN
 10
-135.476825405
 20
113.7123642873
 40
1.5177096443
 50
322.1877413594
 51
28.2439226365
  0
LINE
  8
CYAN
 10
-134.2777985726
 20
112.7818927835
 11
-136.9899318002
 21
109.2489823949
  0
ARC
  8
CYAN
 10
-138.7228648983
 20
110.5895802645
 40
2.1909495134
 50
298.2157994608
 51
322.2744468439
  0
LINE
  8
CYAN
 10
-137.6869976209
 20
108.6589744647
 11
-139.9899318002
 21
107.4147238699
  0
ARC
  8
CYAN
 10
-139.5428042292
 20
106.5731940308
 40
0.9529404676
 50
117.9829174415
 51
265.4260123351
  0
LINE
  8
CYAN
 10
-139.6187977795
 20
105.6232885012
 11
-138.4268865979
 21
105.5566747026
  0
ARC
  8
CYAN
 10
-138.5031618682
 20
104.6218308544
 40
0.9379503917
 50
11.6995208798
 51
85.3354864583
  0
LINE
  8
CYAN
 10
-137.5846978588
 20
104.8120275971
 11
-137.4348168121
 21
104.1435105472
  0
ARC
  8
CYAN
 10
-139.0216764915
 20
103.7961131188
 40
1.6244410163
 50
300.0587992671
 51
12.348455038
  0
LINE
  8
CYAN
 10
-138.2080126883
 20
102.3901402062
 11
-141.2532149088
 21
100.5725351309
  0
ARC
  8
CYAN
 10
-142.6201423746
 20
102.9338231741
 40
2.7284009823
 50
280.5289926035
 51
300.0661469409
  0
LINE
  8
CYAN
 10
-142.1215733545
 20
100.2513614592
 11
-142.9899318002
 21
100.07768977
  0
ARC
  8
CYAN
 10
-142.5670615545
 20
97.9692373739
 40
2.1504396647
 50
101.3407554641
 51
168.4971632309
  0
LINE
  8
CYAN
 10
-144.6743092784
 20
98.3980704203
 11
-145.6164187153
 21
93.6066350515
  0
ARC
  8
CYAN
 10
-147.8719920637
 20
94.0535115085
 40
2.2994150773
 50
311.9492876565
 51
348.7936226462
  0
LINE
  8
CYAN
 10
-146.3348961142
 20
92.3433519429
 11
-148.9875527359
 21
89.9880783505
  0
ARC
  8
CYAN
 10
-149.7812678109
 20
90.8798491124
 40
1.1938336199
 50
182.3802797331
 51
311.6704842713
  0
LINE
  8
CYAN
 10
-150.9740713719
 20
90.8302670896
 11
-151.4927073751
 21
100.3251124504
  0
LINE
  8
CYAN
 10
-151.4927073751
 20
100.3251124504
 11
-154.269075337
 21
100.3251124504
  0
LINE
  8
CYAN
 10
-154.269075337
 20
100.3251124504
 11
-153.721890563
 21
90.4091727201
  0
ARC
  8
CYAN
 10
-154.3733038314
 20
90.3857863694
 40
0.6518329292
 50
261.7765895367
 51
2.0560894744
  0
LINE
  8
CYAN
 10
-154.4665376685
 20
89.7406556701
 11
-156.4007168914
 21
90.0380386994
  0
LINE
  8
CYAN
 10
-156.4007168914
 20
90.0380386994
 11
-158.8535321174
 21
92.4932329897
  0
ARC
  8
CYAN
 10
-156.4057670669
 20
94.9679819385
 40
3.4807953261
 50
193.1244164671
 51
225.3140769139
  0
ARC
  8
CYAN
 10
86.5746663819
 20
152.1083897816
 40
253.0895174133
 50
192.1047392655
 51
193.231990613
  0
LINE
  8
CYAN
 10
-160.8876320381
 20
99.0356596352
 11
-161.170740682
 21
99.8992599524
  0
ARC
  8
CYAN
 10
-328.6639937148
 20
195.3431680721
 40
9.6965641225
 50
170.2569735722
 51
190.1499549695
  0
LINE
  8
CYAN
 10
-338.2088057098
 20
193.634390801
 11
-337.6187977795
 21
190.3869681205
  0
ARC
  8
CYAN
 10
-334.0683563626
 20
191.0063550118
 40
3.6040635922
 50
189.8958603514
 51
229.1751773374
  0
LINE
  8
CYAN
 10
-336.4245075337
 20
188.2791172086
 11
-332.4086471055
 21
184.8104415543
  0
LINE
  8
CYAN
 10
-332.4086471055
 20
184.8104415543
 11
-329.0422712133
 21
182.0745176844
  0
ARC
  8
CYAN
 10
-330.2755687761
 20
180.5185485768
 40
1.9854628533
 50
9.3805842061
 51
51.5988320297
  0
LINE
  8
CYAN
 10
-328.3166566217
 20
180.8421624108
 11
-328.0692339413
 21
179.3814169707
  0
ARC
  8
CYAN
 10
-329.3679760099
 20
179.1467739384
 40
1.3197682802
 50
320.9653200145
 51
10.2411230135
  0
LINE
  8
CYAN
 10
-328.3428263283
 20
178.3155961935
 11
-328.8638413957
 21
177.7208301348
  0
ARC
  8
CYAN
 10
-329.6144453029
 20
178.3413740262
 40
0.9738998647
 50
255.7889559029
 51
320.4185701661
  0
LINE
  8
CYAN
 10
-329.8535321174
 20
177.3972773989
 11
-332.0137224425
 21
177.9611156225
  0
ARC
  8
CYAN
 10
-331.5897448208
 20
179.5547911576
 40
1.6491084667
 50
223.8112729728
 51
255.1022378273
  0
LINE
  8
CYAN
 10
-332.7797811261
 20
178.4131378271
 11
-335.637037272
 21
181.3584193497
  0
ARC
  8
CYAN
 10
-337.8124184032
 20
179.3057762786
 40
2.9909240451
 50
43.3371906019
 51
80.4588805917
  0
LINE
  8
CYAN
 10
-337.3166566217
 20
182.2553265662
 11
-337.8876320381
 21
182.3528681998
  0
ARC
  8
CYAN
 10
-338.3819875174
 20
179.3314832457
 40
3.0615607753
 50
80.707669658
 51
105.514011649
  0
LINE
  8
CYAN
 10
-339.2008754956
 20
182.2814962728
 11
-342.6719302141
 21
181.3393868358
  0
ARC
  8
CYAN
 10
-343.171498279
 20
182.9742042279
 40
1.7094432301
 50
271.8331364744
 51
286.9921223993
  0
LINE
  8
CYAN
 10
-343.116815226
 20
181.2656358446
 11
-344.058924663
 21
181.2561195876
  0
ARC
  8
CYAN
 10
-344.0600800072
 20
181.7852267213
 40
0.529108395
 50
190.7285156593
 51
270.1251093379
  0
LINE
  8
CYAN
 10
-344.5799397304
 20
181.6867302141
 11
-345.8194321967
 21
187.6106001586
  0
LINE
  8
CYAN
 10
-345.8194321967
 20
187.6106001586
 11
-348.7195114988
 21
186.965873751
  0
LINE
  8
CYAN
 10
-348.7195114988
 20
186.965873751
 11
-347.3610658208
 21
180.4210680412
  0
ARC
  8
CYAN
 10
-350.0589441081
 20
180.3234839943
 40
2.6996425503
 50
308.6685783617
 51
2.0715232558
  0
LINE
  8
CYAN
 10
-348.3721681205
 20
178.2156754956
 11
-351.0010340999
 21
176.1078245837
  0
LINE
  8
CYAN
 10
-351.0010340999
 20
176.1078245837
 11
-352.3380681998
 21
174.5971187946
  0
ARC
  8
CYAN
 10
-349.2122079768
 20
171.8465447479
 40
4.1637314659
 50
138.6541127102
 51
158.3689101822
  0
LINE
  8
CYAN
 10
-353.0827153053
 20
173.3814169707
 11
-354.5458398097
 21
169.7628602696
  0
ARC
  8
CYAN
 10
-356.0113328945
 20
170.3243291517
 40
1.5693684358
 50
286.6488593798
 51
339.0368517629
  0
LINE
  8
CYAN
 10
-355.5617002379
 20
168.8207508327
 11
-358.4141982554
 21
168.0594502776
  0
ARC
  8
CYAN
 10
-358.7072372325
 20
169.1679767034
 40
1.1466048486
 50
248.3480760555
 51
284.8074237249
  0
LINE
  8
CYAN
 10
-359.13029659
 20
168.1022734338
 11
-360.0795432197
 21
168.4329633624
  0
ARC
  8
CYAN
 10
-359.6516328177
 20
169.4659239754
 40
1.1180853903
 50
183.9272173301
 51
247.4979118253
  0
LINE
  8
CYAN
 10
-360.7670927835
 20
169.3893471848
 11
-360.8170531324
 21
169.8604019033
  0
ARC
  8
CYAN
 10
-356.9225582058
 20
170.1124167832
 40
3.9026404182
 50
153.6512344495
 51
183.7024787539
  0
LINE
  8
CYAN
 10
-360.4197494052
 20
171.844541475
 11
-358.5164980175
 21
175.8389903251
  0
ARC
  8
CYAN
 10
-349.5628242502
 20
171.521283043
 40
9.9403656926
 50
149.0813993415
 51
154.2553590773
  0
LINE
  8
CYAN
 10
-358.0906455194
 20
176.6288396511
 11
-355.0264107851
 21
181.7414486915
  0
ARC
  8
CYAN
 10
-357.719853693
 20
183.3701951745
 40
3.1476101734
 50
328.8383107262
 51
350.0495988347
  0
LINE
  8
CYAN
 10
-354.619590801
 20
182.8263019826
 11
-354.0747850912
 21
185.8762623315
  0
ARC
  8
CYAN
 10
-356.1300606819
 20
186.2646532204
 40
2.0916513181
 50
349.29885513
 51
5.6623662876
  0
LINE
  8
CYAN
 10
-354.0486153846
 20
186.4710283902
 11
-354.6552767645
 21
192.1213059477
  0
ARC
  8
CYAN
 10
-358.2861595754
 20
191.738121482
 40
3.6510464693
 50
6.0243985039
 51
12.3434399978
  0
LINE
  8
CYAN
 10
-354.7195114988
 20
192.5186096749
 11
-355.8352926249
 21
197.7002115781
  0
ARC
  8
CYAN
 10
-347.0587367359
 20
198.9527904547
 40
8.8654885435
 50
174.4639475577
 51
188.122330125
  0
LINE
  8
CYAN
 10
-355.8828739096
 20
199.8080624901
 11
-355.4879492466
 21
203.9476342585
  0
ARC
  8
CYAN
 10
-345.6449242417
 20
203.033731635
 40
9.885360856
 50
163.858939314
 51
174.6954245498
  0
LINE
  8
CYAN
 10
-355.1406058684
 20
205.7818927835
 11
-354.1747057891
 21
209.1292361618
  0
ARC
  8
CYAN
 10
-357.2715745438
 20
210.0266667142
 40
3.2242794049
 50
343.839128817
 51
1.639696586
  0
LINE
  8
CYAN
 10
-354.0486153846
 20
210.1189268834
 11
-354.1818429818
 21
214.3346287074
  0
ARC
  8
CYAN
 10
-348.6462840471
 20
214.5305901
 40
5.5390264115
 50
139.5141852956
 51
182.0274509255
  0
LINE
  8
CYAN
 10
-352.8590832673
 20
218.1268570975
 11
-351.0795432197
 21
220.1895057891
  0
ARC
  8
CYAN
 10
-349.0415929388
 20
218.4253398069
 40
2.6954634036
 50
114.4318759783
 51
139.1186683558
  0
LINE
  8
CYAN
 10
-350.1564662966
 20
220.8794344171
 11
-348.1009547978
 21
221.8215438541
  0
ARC
  8
CYAN
 10
-347.2477611014
 20
219.8967986521
 40
2.1053701756
 50
76.64743255
 51
113.9065691113
  0
LINE
  8
CYAN
 10
-346.7615416336
 20
221.9452551943
 11
-345.3983378271
 21
221.647872165
  0
ARC
  8
CYAN
 10
-345.813333704
 20
219.8308898115
 40
1.8637721027
 50
40.9784873015
 51
77.1344199357
  0
LINE
  8
CYAN
 10
-344.4062680412
 20
221.0531061063
 11
-342.4768469469
 21
218.7929950833
  0
ARC
  8
CYAN
 10
-343.5640894334
 20
217.8795099844
 40
1.4200532562
 50
335.2356708067
 51
40.0364817129
  0
LINE
  8
CYAN
 10
-342.2746264869
 20
217.2846683584
 11
-347.6037303727
 21
205.7319324346
  0
LINE
  8
CYAN
 10
-347.6037303727
 20
205.7319324346
 11
-345.0272038065
 21
204.2450172879
  0
LINE
  8
CYAN
 10
-345.0272038065
 20
204.2450172879
 11
-339.3983378271
 21
216.3925192704
  0
ARC
  8
CYAN
 10
-336.2793793863
 20
214.9793586457
 40
3.4241677393
 50
92.4291222004
 51
155.625320973
  0
ARC
  8
CYAN
 10
-336.2330359269
 20
216.0050006911
 40
2.4030889077
 50
60.8174227752
 51
94.5700164838
  0
LINE
  8
CYAN
 10
-335.0613037272
 20
218.1030664552
 11
-331.8376716891
 21
216.3163892149
  0
ARC
  8
CYAN
 10
-332.5052222942
 20
215.0517567886
 40
1.4300066377
 50
9.05188925
 51
62.1721577198
  0
LINE
  8
CYAN
 10
-331.0930245837
 20
215.2767381443
 11
-330.4506772403
 21
211.087206027
  0
ARC
  8
CYAN
 10
-332.7298207772
 20
210.7398626487
 40
2.3054593217
 50
331.7953511265
 51
8.6652487724
  0
LINE
  8
CYAN
 10
-330.6980999207
 20
209.6502512292
 11
-332.4919143537
 21
206.283875337
  0
ARC
  8
CYAN
 10
-336.4999724672
 20
208.4323748151
 40
4.5475905542
 50
311.7052196214
 51
331.8066891464
  0
LINE
  8
CYAN
 10
-333.4744678826
 20
205.037245678
 11
-335.6798604282
 21
203.0554851705
  0
ARC
  8
CYAN
 10
-331.1286211307
 20
197.9620702176
 40
6.8305676942
 50
131.7824957445
 51
170.296362864
  0
LINE
  8
CYAN
 10
-337.8614623315
 20
199.1133757335
 11
-338.2207010309
 21
196.9841132435
  0
ARC
  8
CYAN
 10
-327.6694232119
 20
141.6688385442
 40
9.683646008
 50
172.8893413222
 51
190.4338976334
  0
LINE
  8
CYAN
 10
-337.1929452815
 20
139.9151203807
 11
-336.5981792228
 21
136.6676977002
  0
ARC
  8
CYAN
 10
-333.0494470429
 20
137.2877395053
 40
3.6024924601
 50
189.9107933221
 51
228.586859351
  0
LINE
  8
CYAN
 10
-335.4324377478
 20
134.5860164948
 11
-331.3927866772
 21
131.091171134
  0
LINE
  8
CYAN
 10
-331.3927866772
 20
131.091171134
 11
-328.0192735924
 21
128.3623844568
  0
ARC
  8
CYAN
 10
-329.2850485794
 20
126.8019104789
 40
2.0092947403
 50
9.8801988576
 51
50.9528405569
  0
LINE
  8
CYAN
 10
-327.305554322
 20
127.1466826328
 11
-327.0533735131
 21
125.6621465504
  0
ARC
  8
CYAN
 10
-328.3594524279
 20
125.4481349372
 40
1.3234965441
 50
321.2715917452
 51
9.305681563
  0
LINE
  8
CYAN
 10
-327.3269659001
 20
124.6201164155
 11
-327.8456019033
 21
123.9991806503
  0
ARC
  8
CYAN
 10
-328.5956046338
 20
124.6230722463
 40
0.9755740974
 50
255.6332473042
 51
320.2445404208
  0
LINE
  8
CYAN
 10
-328.8376716891
 20
123.6780069786
 11
-330.99548295
 21
124.2489823949
  0
ARC
  8
CYAN
 10
-330.5756077275
 20
125.8603147038
 40
1.6651387366
 50
224.467982023
 51
255.3948523333
  0
LINE
  8
CYAN
 10
-331.7639206979
 20
124.6938674068
 11
-334.6140396511
 21
127.6700767645
  0
ARC
  8
CYAN
 10
-336.7561518136
 20
125.5733897273
 40
2.9974557626
 50
44.3860128264
 51
81.2621355923
  0
LINE
  8
CYAN
 10
-336.3007961935
 20
128.5360561459
 11
-336.8693925456
 21
128.6359768438
  0
ARC
  8
CYAN
 10
-337.3651049285
 20
125.612268229
 40
3.0640731965
 50
80.68964563
 51
105.5208069349
  0
LINE
  8
CYAN
 10
-338.1850150674
 20
128.5646049167
 11
-341.6536907217
 21
127.6201164155
  0
ARC
  8
CYAN
 10
-342.1618224183
 20
129.2534868821
 40
1.7105837899
 50
272.0391834328
 51
287.2806027241
  0
LINE
  8
CYAN
 10
-342.1009547978
 20
127.54398636
 11
-343.0430642347
 21
127.54398636
  0
ARC
  8
CYAN
 10
-343.0445713368
 20
128.09759248
 40
0.5536081714
 50
191.074721419
 51
270.1559779943
  0
LINE
  8
CYAN
 10
-343.5878699445
 20
127.9912504362
 11
-344.8273624108
 21
133.8913297383
  0
LINE
  8
CYAN
 10
-344.8273624108
 20
133.8913297383
 11
-347.7274417129
 21
133.2466033307
  0
LINE
  8
CYAN
 10
-347.7274417129
 20
133.2466033307
 11
-346.3404472641
 21
126.7279673275
  0
ARC
  8
CYAN
 10
-349.0363052976
 20
126.6081831938
 40
2.6985178849
 50
308.5035466727
 51
2.5441303056
  0
LINE
  8
CYAN
 10
-347.3563076923
 20
124.4964050753
 11
-349.9851736717
 21
122.3885541634
  0
LINE
  8
CYAN
 10
-349.9851736717
 20
122.3885541634
 11
-351.3222077716
 21
120.8754693101
  0
ARC
  8
CYAN
 10
-348.2265045867
 20
118.1223003551
 40
4.1428634426
 50
138.3516503838
 51
158.1448915513
  0
LINE
  8
CYAN
 10
-352.0716130056
 20
119.6645256146
 11
-353.5299793815
 21
116.0435898493
  0
ARC
  8
CYAN
 10
-354.9587099746
 20
116.613424002
 40
1.5381749151
 50
284.6520767558
 51
338.2559353958
  0
LINE
  8
CYAN
 10
-354.569630452
 20
115.1252710547
 11
-357.3959587629
 21
114.3330426646
  0
ARC
  8
CYAN
 10
-357.6964350762
 20
115.4466177061
 40
1.1534016594
 50
248.49807307
 51
285.1005135279
  0
LINE
  8
CYAN
 10
-358.1191942903
 20
114.3734867565
 11
-359.0565455987
 21
114.7279673275
  0
ARC
  8
CYAN
 10
-358.6612186444
 20
115.7694548367
 40
1.1139926538
 50
183.8906637295
 51
249.2142817747
  0
LINE
  8
CYAN
 10
-359.7726439334
 20
115.6938674068
 11
-359.8011927042
 21
116.141131483
  0
ARC
  8
CYAN
 10
-355.9089407658
 20
116.4390516198
 40
3.9036369657
 50
153.9423989733
 51
184.376990118
  0
LINE
  8
CYAN
 10
-359.4157842982
 20
118.1538198255
 11
-357.4958794608
 21
122.1149617764
  0
ARC
  8
CYAN
 10
-348.5106048086
 20
117.8621853786
 40
9.9408886758
 50
149.4866106418
 51
154.6715670518
  0
LINE
  8
CYAN
 10
-357.0747850912
 20
122.9095692308
 11
-354.0010340999
 21
128.0150410785
  0
ARC
  8
CYAN
 10
-356.7205010321
 20
129.6227483877
 40
3.1591491239
 50
329.4090691204
 51
350.6046738341
  0
LINE
  8
CYAN
 10
-353.6037303727
 20
129.1070315623
 11
-353.058924663
 21
132.1569919112
  0
ARC
  8
CYAN
 10
-355.1405492439
 20
132.5296988338
 40
2.114727251
 50
349.8489700214
 51
6.0275145971
  0
LINE
  8
CYAN
 10
-353.0375130849
 20
132.7517579699
 11
-353.6536907217
 21
138.4282052339
  0
ARC
  8
CYAN
 10
-357.2958812302
 20
138.0299291306
 40
3.6639016847
 50
6.2405388528
 51
12.0841552387
  0
LINE
  8
CYAN
 10
-353.7131673275
 20
138.7969601903
 11
-354.843222839
 21
144.0047318002
  0
ARC
  8
CYAN
 10
-346.0667905315
 20
145.2678318486
 40
8.8668588452
 50
174.6875188056
 51
188.1897465829
  0
LINE
  8
CYAN
 10
-354.8955622522
 20
146.0887920698
 11
-354.4958794608
 21
150.2521544806
  0
ARC
  8
CYAN
 10
-344.6527917334
 20
149.3147631818
 40
9.8876224875
 50
163.8645537261
 51
174.5599311765
  0
LINE
  8
CYAN
 10
-354.1509151467
 20
152.0626223632
 11
-353.1564662966
 21
155.4099657415
  0
ARC
  8
CYAN
 10
-356.2563503935
 20
156.3000285732
 40
3.2251346109
 50
343.9797572012
 51
1.770210101
  0
LINE
  8
CYAN
 10
-353.0327549564
 20
156.3996564631
 11
-353.1564662966
 21
160.6391489294
  0
ARC
  8
CYAN
 10
-347.6201933998
 20
160.8228833054
 40
5.5393208887
 50
139.6738573717
 51
181.9007989939
  0
LINE
  8
CYAN
 10
-351.843222839
 20
164.4075866772
 11
-350.058924663
 21
166.4654772403
  0
ARC
  8
CYAN
 10
-348.0105973979
 20
164.7120713139
 40
2.696308018
 50
114.7774469571
 51
139.4358644784
  0
LINE
  8
CYAN
 10
-349.1406058684
 20
167.1601639968
 11
-347.0827153053
 21
168.1022734338
  0
ARC
  8
CYAN
 10
-346.2180270907
 20
166.1917559668
 40
2.0970843331
 50
77.0497528481
 51
114.3512090079
  0
LINE
  8
CYAN
 10
-345.7480602696
 20
168.2355010309
 11
-344.3824773989
 21
167.9286017447
  0
ARC
  8
CYAN
 10
-344.7876128839
 20
166.1280665249
 40
1.8455519063
 50
40.7937468852
 51
77.3191603519
  0
LINE
  8
CYAN
 10
-343.390407613
 20
167.333835686
 11
-341.4562283902
 21
165.1022734338
  0
ARC
  8
CYAN
 10
-342.5484459678
 20
164.1857629793
 40
1.4258087705
 50
334.3146690379
 51
40.0009569894
  0
LINE
  8
CYAN
 10
-341.2635241872
 20
163.5677770024
 11
-346.5878699445
 21
152.0364526566
  0
LINE
  8
CYAN
 10
-346.5878699445
 20
152.0364526566
 11
-344.008964314
 21
150.5495375099
  0
LINE
  8
CYAN
 10
-344.008964314
 20
150.5495375099
 11
-338.3824773989
 21
162.6732488501
  0
ARC
  8
CYAN
 10
-335.246167425
 20
161.2343898647
 40
3.4506166742
 50
92.6988925163
 51
155.355550657
  0
ARC
  8
CYAN
 10
-335.2197348059
 20
162.3071861003
 40
2.3814975225
 50
60.4561491463
 51
94.549767988
  0
LINE
  8
CYAN
 10
-334.045443299
 20
164.3790379064
 11
-330.8218112609
 21
162.6232885012
  0
ARC
  8
CYAN
 10
-331.5187247802
 20
161.3740588903
 40
1.4304765199
 50
8.3283887809
 51
60.8439602771
  0
LINE
  8
CYAN
 10
-330.103333862
 20
161.5812583664
 11
-329.4324377478
 21
157.3679356067
  0
ARC
  8
CYAN
 10
-331.6822406007
 20
157.0369675154
 40
2.2740168764
 50
331.5822803112
 51
8.3687460969
  0
LINE
  8
CYAN
 10
-329.6822394925
 20
155.9547714512
 11
-331.4903283109
 21
152.557467724
  0
ARC
  8
CYAN
 10
-335.5021991623
 20
154.693549957
 40
4.5451023129
 50
312.0394453784
 51
331.9673580556
  0
LINE
  8
CYAN
 10
-332.4586074544
 20
151.3179752577
 11
-334.664
 21
149.3362147502
  0
ARC
  8
CYAN
 10
-330.1145819784
 20
144.2438077092
 40
6.8286026247
 50
131.7767355276
 51
170.302123081
  0
LINE
  8
CYAN
 10
-336.8456019033
 20
145.3941053132
 11
-337.2167359239
 21
143.2862544013
  0
ARC
  8
CYAN
 10
-327.6724019381
 20
141.6623694342
 40
9.6814933568
 50
170.3440888523
 51
172.8491689666
  0
LINE
  8
CYAN
 10
-182.403888977
 20
9.3211473434
 11
-189.0985757335
 21
7.6605605075
  0
ARC
  8
CYAN
 10
-189.2499495144
 20
8.3097961894
 40
0.6666490772
 50
225.5093492483
 51
283.1244351589
  0
LINE
  8
CYAN
 10
-189.7171324346
 20
7.8342321967
 11
-193.6092815226
 21
11.5527095956
  0
LINE
  8
CYAN
 10
-193.6092815226
 20
11.5527095956
 11
-195.3935796987
 21
9.1736453608
  0
LINE
  8
CYAN
 10
-195.3935796987
 20
9.1736453608
 11
-192.072406027
 21
5.9761830293
  0
ARC
  8
CYAN
 10
-192.7182215878
 20
5.3079594591
 40
0.9293010698
 50
358.3681995718
 51
45.9769571608
  0
LINE
  8
CYAN
 10
-191.789297383
 20
5.2814962728
 11
-191.7750229976
 21
-2.4766321967
  0
ARC
  8
CYAN
 10
-195.0892036138
 20
-2.4675193396
 40
3.3141931448
 50
320.8333225323
 51
359.842456706
  0
LINE
  8
CYAN
 10
-192.5196701031
 20
-4.5606924663
 11
-194.3539286281
 21
-6.8160453608
  0
ARC
  8
CYAN
 10
-197.8732794108
 20
-3.9665470246
 40
4.5282966665
 50
300.9290898929
 51
321.0040879615
  0
LINE
  8
CYAN
 10
-195.5458398097
 20
-7.8509383029
 11
-198.1461570182
 21
-9.4187416336
  0
ARC
  8
CYAN
 10
-199.9399383163
 20
-6.4187345563
 40
3.4953817831
 50
263.237237689
 51
300.8762873787
  0
LINE
  8
CYAN
 10
-200.3515495638
 20
-9.8897963521
 11
-205.1858080888
 21
-9.3188209358
  0
ARC
  8
CYAN
 10
-204.8903238368
 20
-6.7911756891
 40
2.544857842
 50
217.4506227835
 51
263.3323294051
  0
LINE
  8
CYAN
 10
-206.910629659
 20
-8.3386464711
 11
-209.525221253
 21
-4.9080358446
  0
ARC
  8
CYAN
 10
-205.8306422951
 20
-2.081318353
 40
4.6519077219
 50
173.5446985164
 51
217.4195551775
  0
LINE
  8
CYAN
 10
-210.4530563045
 20
-1.5583134021
 11
-209.7726439334
 21
4.4892678826
  0
ARC
  8
CYAN
 10
-203.8492967027
 20
3.8166631966
 40
5.9614125406
 50
152.4567476516
 51
173.521729339
  0
LINE
  8
CYAN
 10
-209.1350547185
 20
6.5733281523
 11
-205.4332307692
 21
13.7343114988
  0
ARC
  8
CYAN
 10
-196.9047544305
 20
9.3238476551
 40
9.6014113534
 50
136.7966036572
 51
152.6544547419
  0
LINE
  8
CYAN
 10
-203.9034924663
 20
15.8968808882
 11
-199.9304551943
 21
20.131615226
  0
ARC
  8
CYAN
 10
-192.7706538456
 20
13.4336305806
 40
9.8043742107
 50
128.6966571132
 51
136.9087002158
  0
LINE
  8
CYAN
 10
-198.9003203807
 20
21.0856199841
 11
-193.238147502
 21
25.6082210944
  0
ARC
  8
CYAN
 10
-189.6933516739
 20
21.1974315904
 40
5.6586784244
 50
99.3394510608
 51
128.787611222
  0
LINE
  8
CYAN
 10
-190.6116605868
 20
26.7810997621
 11
-184.9590039651
 21
27.7160720063
  0
ARC
  8
CYAN
 10
-184.2606202124
 20
23.4149039078
 40
4.3574977771
 50
61.5184617969
 51
99.2226693543
  0
LINE
  8
CYAN
 10
-182.1826360032
 20
27.2450172879
 11
-179.8273624108
 21
25.9817341792
  0
ARC
  8
CYAN
 10
-181.512977361
 20
22.859174813
 40
3.5484749902
 50
32.4595035302
 51
61.6390108721
  0
LINE
  8
CYAN
 10
-178.5188770817
 20
24.763653291
 11
-176.5799397304
 21
21.7160720063
  0
ARC
  8
CYAN
 10
-179.3748223609
 20
19.9527824315
 40
3.3046269144
 50
348.8407683726
 51
32.2477999623
  0
LINE
  8
CYAN
 10
-176.1326756542
 20
19.3132171293
 11
-176.9249040444
 21
15.073724663
  0
ARC
  8
CYAN
 10
-180.2818183014
 20
15.7349984192
 40
3.4214260638
 50
316.6642429438
 51
348.8560689047
  0
LINE
  8
CYAN
 10
-177.7932624901
 20
13.3869681205
 11
-180.619590801
 21
10.3631774782
  0
ARC
  8
CYAN
 10
-183.2494928098
 20
12.8177667272
 40
3.5974147603
 50
283.5950861715
 51
316.9747705273
  0
LINE
  8
CYAN
 10
-277.3737541634
 20
145.1942639175
 11
-279.852739096
 21
143.9071901665
  0
ARC
  8
CYAN
 10
-281.052878184
 20
146.1605148548
 40
2.5529994088
 50
272.4278553708
 51
298.0401285125
  0
LINE
  8
CYAN
 10
-280.9447295797
 20
143.6098071372
 11
-284.7869183188
 21
143.5098864393
  0
ARC
  8
CYAN
 10
-284.9008563382
 20
147.1122500969
 40
3.6041650619
 50
243.7051874103
 51
271.8115861404
  0
LINE
  8
CYAN
 10
-286.4974655036
 20
143.88102046
 11
-288.5077747819
 21
144.8683321174
  0
ARC
  8
CYAN
 10
-289.7453256969
 20
142.4442143044
 40
2.721741986
 50
62.9549614554
 51
79.5153119589
  0
LINE
  8
CYAN
 10
-289.2500428232
 20
145.1205129263
 11
-291.2579730373
 21
145.4940260111
  0
ARC
  8
CYAN
 10
-291.0563281006
 20
146.477077589
 40
1.0035193498
 50
199.8469858146
 51
258.4081975904
  0
LINE
  8
CYAN
 10
-292.0002410785
 20
146.1363733545
 11
-293.6869976209
 21
150.7493789056
  0
LINE
  8
CYAN
 10
-293.6869976209
 20
150.7493789056
 11
-296.4134052339
 21
149.5336770817
  0
LINE
  8
CYAN
 10
-296.4134052339
 20
149.5336770817
 11
-294.6933417922
 21
144.7922020619
  0
ARC
  8
CYAN
 10
-295.6685209796
 20
144.4264589581
 40
1.0415097049
 50
298.3525425039
 51
20.5586674956
  0
LINE
  8
CYAN
 10
-295.1739127677
 20
143.5098864393
 11
-296.5418747026
 21
142.7985462332
  0
ARC
  8
CYAN
 10
-295.4954494701
 20
140.8330126548
 40
2.2267303417
 50
118.0302729082
 51
161.164521817
  0
LINE
  8
CYAN
 10
-297.6029373513
 20
141.5519165742
 11
-298.5950071372
 21
138.651837272
  0
ARC
  8
CYAN
 10
-302.0738567136
 20
139.857001465
 40
3.6816864488
 50
313.5522514393
 51
340.8925807345
  0
LINE
  8
CYAN
 10
-299.5371165742
 20
137.1887127676
 11
-301.3214147502
 21
135.5019562252
  0
ARC
  8
CYAN
 10
-303.1737995267
 20
137.4365175479
 40
2.6784056584
 50
271.9658004979
 51
313.7568794695
  0
LINE
  8
CYAN
 10
-303.0819222839
 20
134.759688184
 11
-306.4292656622
 21
134.6716628073
  0
ARC
  8
CYAN
 10
-306.5497418255
 20
139.4672353345
 40
4.7970856121
 50
246.8301314802
 51
271.439103258
  0
LINE
  8
CYAN
 10
-308.4371958763
 20
135.0570712133
 11
-311.8321205393
 21
136.4940260111
  0
ARC
  8
CYAN
 10
-310.566686268
 20
139.4657209431
 40
3.2299062933
 50
199.2277455974
 51
246.9342822307
  0
LINE
  8
CYAN
 10
-313.6164187153
 20
138.4020355274
 11
-314.8559111816
 21
141.996801586
  0
ARC
  8
CYAN
 10
-311.2872713368
 20
143.2613226449
 40
3.7860538625
 50
156.4643267911
 51
199.5114038784
  0
LINE
  8
CYAN
 10
-314.758369548
 20
144.773169548
 11
-312.7766090405
 21
149.3362147502
  0
ARC
  8
CYAN
 10
-307.9663437419
 20
147.2280989206
 40
5.2519334148
 50
128.8548931843
 51
156.3343935529
  0
LINE
  8
CYAN
 10
-311.2611451229
 20
151.3179752577
 11
-307.8900111023
 21
154.0205922284
  0
ARC
  8
CYAN
 10
-301.5465067045
 20
146.1115677808
 40
10.1386742603
 50
120.8822534152
 51
128.7316708897
  0
LINE
  8
CYAN
 10
-306.7504393339
 20
154.8128206186
 11
-299.1160222046
 21
159.3996564631
  0
LINE
  8
CYAN
 10
-299.1160222046
 20
159.3996564631
 11
-291.6029373513
 21
160.5891885805
  0
LINE
  8
CYAN
 10
-291.6029373513
 20
160.5891885805
 11
-286.076371134
 21
161.0459689136
  0
ARC
  8
CYAN
 10
-285.57878513
 20
155.1863011402
 40
5.8807566049
 50
74.8540762701
 51
94.8537472321
  0
LINE
  8
CYAN
 10
-284.0422712133
 20
160.8627809675
 11
-279.0890594766
 21
159.5138515464
  0
ARC
  8
CYAN
 10
-279.9534781772
 20
156.3264714667
 40
3.3025159292
 50
35.8381098092
 51
74.8263405078
  0
LINE
  8
CYAN
 10
-277.2762125297
 20
158.2600846947
 11
-274.1525011895
 21
153.8968808882
  0
ARC
  8
CYAN
 10
-275.7389710626
 20
152.7442226431
 40
1.9609966059
 50
358.1576951814
 51
36.0004825123
  0
LINE
  8
CYAN
 10
-273.7789881047
 20
152.6811790642
 11
-273.8313275178
 21
151.0705525773
  0
ARC
  8
CYAN
 10
-279.0105550023
 20
151.2680005514
 40
5.1829897779
 50
326.3246813884
 51
357.8167671181
  0
LINE
  8
CYAN
 10
-274.6973068993
 20
148.3941053132
 11
-276.0367200634
 21
146.4099657415
  0
ARC
  8
CYAN
 10
-279.0897543211
 20
148.4246171206
 40
3.6578461365
 50
297.9777455277
 51
326.5797805149
  0
LINE
  8
CYAN
 10
-300.4054750198
 20
62.4218610626
 11
-300.9455226011
 21
64.0015597145
  0
ARC
  8
CYAN
 10
-296.5375698522
 20
65.4488624247
 40
4.639475463
 50
177.8943971299
 51
198.1770242911
  0
LINE
  8
CYAN
 10
-301.1739127677
 20
65.6193233941
 11
-301.0739920698
 21
67.9745969865
  0
ARC
  8
CYAN
 10
-297.726616135
 20
67.8771281963
 40
3.3487946808
 50
133.5044264534
 51
178.3321345059
  0
LINE
  8
CYAN
 10
-300.031961935
 20
70.3060799366
 11
-297.7766090405
 21
72.4115517843
  0
LINE
  8
CYAN
 10
-297.7766090405
 20
72.4115517843
 11
-296.1160222046
 21
73.6772139572
  0
ARC
  8
CYAN
 10
-294.7422294724
 20
71.8187929543
 40
2.3110679555
 50
85.3028107236
 51
126.472767404
  0
LINE
  8
CYAN
 10
-294.5529770024
 20
74.1220989691
 11
-289.3737541634
 21
73.9008459952
  0
LINE
  8
CYAN
 10
-289.3737541634
 20
73.9008459952
 11
-289.1739127677
 21
76.8508856463
  0
LINE
  8
CYAN
 10
-289.1739127677
 20
76.8508856463
 11
-295.0502014274
 21
77.1482686757
  0
ARC
  8
CYAN
 10
-294.9912054335
 20
78.1809963489
 40
1.0344114144
 50
225.3067375192
 51
266.730453051
  0
LINE
  8
CYAN
 10
-295.7187184774
 20
77.445651705
 11
-297.4792260111
 21
79.1300291832
  0
LINE
  8
CYAN
 10
-297.4792260111
 20
79.1300291832
 11
-299.1160222046
 21
81.2616707375
  0
LINE
  8
CYAN
 10
-299.1160222046
 20
81.2616707375
 11
-300.2579730373
 21
82.5011632038
  0
ARC
  8
CYAN
 10
-298.9164320154
 20
83.7175434129
 40
1.8108873865
 50
178.4405451115
 51
222.1987130245
  0
LINE
  8
CYAN
 10
-300.7266486915
 20
83.7668253767
 11
-300.6338651864
 21
87.5352631245
  0
ARC
  8
CYAN
 10
-297.5783343001
 20
87.4605211498
 40
3.0564448891
 50
120.7225071127
 51
178.5987554885
  0
LINE
  8
CYAN
 10
-299.139812847
 20
90.0879990484
 11
-296.8130880254
 21
91.4821306899
  0
ARC
  8
CYAN
 10
-294.2085192185
 20
87.0878321302
 40
5.1081932717
 50
95.8215833964
 51
120.6558789376
  0
LINE
  8
CYAN
 10
-294.7266486915
 20
92.1696802538
 11
-293.5133259318
 21
92.293391594
  0
ARC
  8
CYAN
 10
-293.039745748
 20
87.7231754511
 40
4.5946875609
 50
58.122175657
 51
95.9160542839
  0
LINE
  8
CYAN
 10
-290.6132466297
 20
91.624874544
 11
-288.1818429818
 21
90.1117896907
  0
ARC
  8
CYAN
 10
-291.0153084853
 20
85.4702353688
 40
5.4380652151
 50
31.4022360802
 51
58.5977639198
  0
LINE
  8
CYAN
 10
-286.3737541634
 20
88.3037008723
 11
-284.5632862807
 21
85.2537405234
  0
ARC
  8
CYAN
 10
-289.5883439995
 20
82.2239548066
 40
5.8677769697
 50
13.9961306784
 51
31.0872670377
  0
LINE
  8
CYAN
 10
-283.8947692308
 20
83.6431140365
 11
-282.2080126883
 21
76.8009252974
  0
ARC
  8
CYAN
 10
-285.7789909676
 20
75.9564399738
 40
3.6694742584
 50
350.6707677474
 51
13.3051942188
  0
LINE
  8
CYAN
 10
-282.1580523394
 20
75.3615914354
 11
-283.0026201428
 21
70.1823685964
  0
ARC
  8
CYAN
 10
-286.5251070284
 20
70.7402720688
 40
3.5663945582
 50
341.1432583401
 51
351.0000577816
  0
LINE
  8
CYAN
 10
-283.1501221253
 20
69.5876025377
 11
-284.5014306106
 21
65.6740418715
  0
ARC
  8
CYAN
 10
-286.9419626496
 20
66.5121376539
 40
2.5804265488
 50
318.4593716281
 51
341.0471697612
  0
LINE
  8
CYAN
 10
-285.0105503569
 20
64.8009252974
 11
-287.9843806503
 21
61.4297912768
  0
ARC
  8
CYAN
 10
-290.0042868797
 20
63.1402655052
 40
2.646836463
 50
304.4922906533
 51
319.7417824416
  0
LINE
  8
CYAN
 10
-288.5053957177
 20
60.9587365583
 11
-291.8051578113
 21
58.8080624901
  0
ARC
  8
CYAN
 10
-293.1898828522
 20
60.9349230889
 40
2.5379124189
 50
260.4517368616
 51
303.0667533104
  0
LINE
  8
CYAN
 10
-293.6108675654
 20
58.432170341
 11
-296.2896938937
 21
58.898466931
  0
ARC
  8
CYAN
 10
-295.7458968031
 20
62.025011548
 40
3.1734833414
 50
231.3796587157
 51
260.1333001098
  0
LINE
  8
CYAN
 10
-297.7266486915
 20
59.5455724029
 11
-299.2444916733
 21
60.7541370341
  0
ARC
  8
CYAN
 10
-296.9862789098
 20
63.5641584851
 40
3.6049612258
 50
198.4736296721
 51
231.2136559603
  0
LINE
  8
CYAN
 10
-213.3174496431
 20
20.47657954
 11
-239.6941348136
 21
20.47657954
  0
ARC
  8
CYAN
 10
-239.6750090639
 20
20.814124707
 40
0.3380865778
 50
129.8387417683
 51
266.7570139149
  0
LINE
  8
CYAN
 10
-239.8915971451
 20
21.073724663
 11
-233.6203838224
 21
25.8818134814
  0
LINE
  8
CYAN
 10
-233.6203838224
 20
25.8818134814
 11
-235.5046026963
 21
28.1633360825
  0
LINE
  8
CYAN
 10
-235.5046026963
 20
28.1633360825
 11
-241.2310103093
 21
23.800132276
  0
ARC
  8
CYAN
 10
-241.5311624659
 20
24.226161663
 40
0.5211452348
 50
186.0465266221
 51
305.1659946056
  0
LINE
  8
CYAN
 10
-242.049408406
 20
24.1712662966
 11
-242.0731990484
 21
25.0396247423
  0
ARC
  8
CYAN
 10
-238.0812285175
 20
25.1154753296
 40
3.9926910763
 50
139.8057698276
 51
181.0885339978
  0
LINE
  8
CYAN
 10
-241.1310896114
 20
27.692281364
 11
-239.6441744647
 21
29.4266191911
  0
ARC
  8
CYAN
 10
-233.8580419695
 20
24.5999166319
 40
7.5350107397
 50
131.7527442251
 51
140.1656566686
  0
LINE
  8
CYAN
 10
-238.8757367169
 20
30.2212266455
 11
-235.2571800159
 21
33.418688977
  0
ARC
  8
CYAN
 10
-229.5232390084
 20
26.9502919114
 40
8.6439713139
 50
118.6702835653
 51
131.5555351066
  0
LINE
  8
CYAN
 10
-233.6703441713
 20
34.5344701031
 11
-229.9019064235
 21
36.5899816019
  0
ARC
  8
CYAN
 10
-229.6036269291
 20
36.0755562859
 40
0.5946461658
 50
357.0714912961
 51
120.1064661208
  0
LINE
  8
CYAN
 10
-229.0097573355
 20
36.0451758921
 11
-229.0097573355
 21
30.8159927042
  0
LINE
  8
CYAN
 10
-229.0097573355
 20
30.8159927042
 11
-226.035927042
 21
30.7660323553
  0
LINE
  8
CYAN
 10
-226.035927042
 20
30.7660323553
 11
-226.035927042
 21
36.2925985726
  0
ARC
  8
CYAN
 10
-225.0315050796
 20
36.3023616844
 40
1.0044694107
 50
56.2108921339
 51
180.556904874
  0
LINE
  8
CYAN
 10
-224.4728818398
 20
37.1371663759
 11
-218.8202252181
 21
33.4924399683
  0
ARC
  8
CYAN
 10
-222.3631910114
 20
27.9620667618
 40
6.5679246658
 50
47.0164084895
 51
57.3548423144
  0
LINE
  8
CYAN
 10
-217.8852529738
 20
32.7668253767
 11
-211.1120570975
 21
26.4527888977
  0
ARC
  8
CYAN
 10
-211.8755447212
 20
25.6265915055
 40
1.1249513244
 50
345.0830361765
 51
47.2590280678
  0
LINE
  8
CYAN
 10
-210.7885043616
 20
25.3370077716
 11
-211.1620174465
 21
23.9476342585
  0
ARC
  8
CYAN
 10
-211.5329406073
 20
24.0476254056
 40
0.3841643148
 50
233.040283195
 51
344.9131902767
  0
LINE
  8
CYAN
 10
-211.7639206979
 20
23.7406556701
 11
-217.8543251388
 21
28.7319324346
  0
LINE
  8
CYAN
 10
-217.8543251388
 20
28.7319324346
 11
-219.5648723236
 21
26.2791172086
  0
LINE
  8
CYAN
 10
-219.5648723236
 20
26.2791172086
 11
-213.1199873117
 21
21.0475549564
  0
ARC
  8
CYAN
 10
-213.3250354121
 20
20.7988351881
 40
0.3223449187
 50
271.3484706762
 51
50.4973466842
  0
LINE
  8
CYAN
 10
-86.8892180809
 20
-46.5535552736
 11
-88.4260935765
 21
-44.0008193497
  0
LINE
  8
CYAN
 10
-88.4260935765
 20
-44.0008193497
 11
-91.3761332276
 21
-45.6875758922
  0
ARC
  8
CYAN
 10
-91.7469350226
 20
-45.0172200142
 40
0.7660750448
 50
124.2311856773
 51
298.9488112117
  0
LINE
  8
CYAN
 10
-92.1778778747
 20
-44.3838486915
 11
-89.7155463918
 21
-42.8350778747
  0
LINE
  8
CYAN
 10
-89.7155463918
 20
-42.8350778747
 11
-68.5942141158
 21
-30.9112079302
  0
ARC
  8
CYAN
 10
-72.6043829396
 20
-23.8574563184
 40
8.1139919766
 50
299.6189118716
 51
307.8263320137
  0
LINE
  8
CYAN
 10
-67.6283140365
 20
-30.2664815226
 11
-60.1651895321
 21
-24.4663229183
  0
ARC
  8
CYAN
 10
-65.6129185302
 20
-17.4921645174
 40
8.8496687304
 50
307.9944863402
 51
311.4186291537
  0
LINE
  8
CYAN
 10
-59.758369548
 20
-24.128495797
 11
-54.762334655
 21
-19.7819454401
  0
ARC
  8
CYAN
 10
-59.5549561587
 20
-14.3803449413
 40
7.2212539649
 50
311.5813467773
 51
321.6221097191
  0
LINE
  8
CYAN
 10
-53.8939762094
 20
-18.8636266455
 11
-48.6148326725
 21
-12.442532276
  0
ARC
  8
CYAN
 10
-48.192082936
 20
-12.7892970996
 40
0.5467752579
 50
322.0799895778
 51
140.6393309017
  0
LINE
  8
CYAN
 10
-47.7607486122
 20
-13.1253237113
 11
-52.2571800159
 21
-19.1372190325
  0
ARC
  8
CYAN
 10
-58.4622773645
 20
-15.3752653701
 40
7.2564129199
 50
314.7998896126
 51
328.7728958936
  0
LINE
  8
CYAN
 10
-53.3491704996
 20
-20.5242134814
 11
-61.1072989691
 21
-28.2847210151
  0
ARC
  8
CYAN
 10
-68.8253040341
 20
-20.491724263
 40
10.9680627533
 50
308.4871610507
 51
314.722991865
  0
LINE
  8
CYAN
 10
-61.9994480571
 20
-29.0769494052
 11
-69.6600348929
 21
-35.2506210944
  0
LINE
  8
CYAN
 10
-69.6600348929
 20
-35.2506210944
 11
-72.2127708168
 21
-37.0587099128
  0
ARC
  8
CYAN
 10
-72.0650845552
 20
-37.2827068598
 40
0.2683018154
 50
123.397769417
 51
290.1897818406
  0
LINE
  8
CYAN
 10
-71.9724853291
 20
-37.5345227597
 11
-59.1493291039
 21
-32.3981230769
  0
LINE
  8
CYAN
 10
-59.1493291039
 20
-32.3981230769
 11
-53.1493291039
 21
-30.2926512292
  0
ARC
  8
CYAN
 10
-49.8126374148
 20
-39.554033008
 40
9.8441202696
 50
98.6388446846
 51
109.8130831129
  0
LINE
  8
CYAN
 10
-51.2912799366
 20
-29.8215965107
 11
-45.5149119746
 21
-28.9770287074
  0
ARC
  8
CYAN
 10
-45.1806534496
 20
-31.3323022998
 40
2.3788741994
 50
81.9225703652
 51
98.0774296348
  0
LINE
  8
CYAN
 10
-44.8463949247
 20
-28.9770287074
 11
-41.3015892149
 21
-29.4480834259
  0
ARC
  8
CYAN
 10
-41.2254843861
 20
-29.9570317907
 40
0.5146070181
 50
278.2425644737
 51
98.5046233334
  0
LINE
  8
CYAN
 10
-41.1517081681
 20
-30.4663229183
 11
-41.3015892149
 21
-30.5400739096
  0
ARC
  8
CYAN
 10
-44.1350360648
 20
-24.409219756
 40
6.753946528
 50
278.7321887041
 51
294.8045783972
  0
LINE
  8
CYAN
 10
-43.1096780333
 20
-31.0848796194
 11
-51.6124536082
 21
-32.4480834259
  0
ARC
  8
CYAN
 10
-49.8494487295
 20
-43.3784470557
 40
11.0716320063
 50
99.1625667469
 51
113.6660515535
  0
LINE
  8
CYAN
 10
-54.2936590008
 20
-33.2379327518
 11
-60.7361649485
 21
-36.0428494845
  0
LINE
  8
CYAN
 10
-60.7361649485
 20
-36.0428494845
 11
-73.6259349722
 21
-41.1982816812
  0
LINE
  8
CYAN
 10
-73.6259349722
 20
-41.1982816812
 11
-89.4919143537
 21
-49.7510176051
  0
ARC
  8
CYAN
 10
-89.7110677361
 20
-49.0177549963
 40
0.76531187
 50
130.7262102631
 51
286.6400559709
  0
LINE
  8
CYAN
 10
-90.2103917526
 20
-48.4377741475
 11
-86.8892180809
 21
-46.5535552736
  0
ARC
  8
CYAN
 10
-314.3046801879
 20
103.3738960104
 40
4.3371064388
 50
69.6723516952
 51
77.8949141266
  0
LINE
  8
CYAN
 10
-313.3951657415
 20
107.6145652657
 11
-320.7821601903
 21
109.07768977
  0
ARC
  8
CYAN
 10
-322.1541996732
 20
103.6379386238
 40
5.6101145154
 50
75.8438527161
 51
80.7582720663
  0
LINE
  8
CYAN
 10
-321.2532149088
 20
109.1752314036
 11
-323.4586074544
 21
109.3988634417
  0
ARC
  8
CYAN
 10
-323.28184
 20
111.0755378471
 40
1.6859667241
 50
199.4317330629
 51
263.9816858963
  0
LINE
  8
CYAN
 10
-324.8717716098
 20
110.5146445678
 11
-325.2405265662
 21
111.499577161
  0
ARC
  8
CYAN
 10
-324.6990789195
 20
111.6790903092
 40
0.5704301224
 50
87.5112775262
 51
198.3425758392
  0
LINE
  8
CYAN
 10
-324.6743092784
 20
112.2489823949
 11
-319.9875527359
 21
112.1014804124
  0
LINE
  8
CYAN
 10
-319.9875527359
 20
112.1014804124
 11
-319.8400507534
 21
115.0753107058
  0
LINE
  8
CYAN
 10
-319.8400507534
 20
115.0753107058
 11
-325.269075337
 21
115.2347080095
  0
ARC
  8
CYAN
 10
-325.2687710888
 20
115.6953123755
 40
0.4606044664
 50
126.1201854261
 51
269.9621537676
  0
LINE
  8
CYAN
 10
-325.5402886598
 20
116.0673804917
 11
-324.2770055512
 21
117.0356596352
  0
ARC
  8
CYAN
 10
-322.8888901902
 20
115.2247344537
 40
2.281734925
 50
92.4782504086
 51
127.470986108
  0
LINE
  8
CYAN
 10
-322.9875527359
 20
117.5043352895
 11
-315.7504393339
 21
117.81361364
  0
ARC
  8
CYAN
 10
-315.8979929934
 20
121.2489657592
 40
3.4385194874
 50
272.4594302216
 51
303.2291529949
  0
LINE
  8
CYAN
 10
-314.0137224425
 20
118.3726937351
 11
-307.5283933386
 21
122.0840339413
  0
ARC
  8
CYAN
 10
-304.7721361359
 20
117.2304955985
 40
5.5815578661
 50
108.8638478023
 51
119.5916428336
  0
LINE
  8
CYAN
 10
-306.5767676447
 20
122.5122655036
 11
-303.7837462332
 21
123.4805446471
  0
ARC
  8
CYAN
 10
-303.5766489233
 20
122.8593409564
 40
0.6548154864
 50
299.3601929089
 51
108.4373903634
  0
LINE
  8
CYAN
 10
-303.255593973
 20
122.2886334655
 11
-309.1104710547
 21
119.100687391
  0
ARC
  8
CYAN
 10
-308.8584764643
 20
118.6709289876
 40
0.4981902838
 50
120.3857984126
 51
264.2660191195
  0
LINE
  8
CYAN
 10
-308.9082505948
 20
118.1752314037
 11
-302.7607486122
 21
117.6994185567
  0
ARC
  8
CYAN
 10
-302.5421667992
 20
120.5777486203
 40
2.8866177378
 50
265.6572654035
 51
281.9929933829
  0
LINE
  8
CYAN
 10
-301.9423505155
 20
117.7541370341
 11
-297.255593973
 21
118.7438277558
  0
ARC
  8
CYAN
 10
-297.6463569236
 20
121.3750820996
 40
2.6601118596
 50
278.447156591
 51
281.6742229996
  0
LINE
  8
CYAN
 10
-297.1080919905
 20
118.7699974623
 11
-289.0026201428
 21
120.9777690722
  0
LINE
  8
CYAN
 10
-289.0026201428
 20
120.9777690722
 11
-285.9264900872
 21
122.091171134
  0
ARC
  8
CYAN
 10
-285.7908834259
 20
121.7818927835
 40
0.3377014432
 50
293.6756026335
 51
113.6756026335
  0
LINE
  8
CYAN
 10
-285.6552767645
 20
121.472614433
 11
-290.7607486122
 21
118.9174994449
  0
ARC
  8
CYAN
 10
-292.1314326163
 20
121.6442261639
 40
3.0518540659
 50
286.6309629169
 51
296.687979942
  0
LINE
  8
CYAN
 10
-291.2579730373
 20
118.7200371134
 11
-298.8685995242
 21
116.4432726408
  0
ARC
  8
CYAN
 10
-299.9103957436
 20
120.0089655589
 40
3.7147685459
 50
281.1856433071
 51
286.2868933042
  0
LINE
  8
CYAN
 10
-299.1897731959
 20
116.364763521
 11
-306.2817636796
 21
114.9325668517
  0
ARC
  8
CYAN
 10
-306.6746057845
 20
116.9360300476
 40
2.0416144829
 50
274.8211571334
 51
281.0938933204
  0
LINE
  8
CYAN
 10
-306.5030166535
 20
114.9016390167
 11
-308.139812847
 21
114.7541370341
  0
ARC
  8
CYAN
 10
-308.0136717639
 20
113.539261598
 40
1.2214065245
 50
95.9278063037
 51
257.053607877
  0
LINE
  8
CYAN
 10
-308.2873148295
 20
112.3489030928
 11
-299.6108675654
 21
110.5146445678
  0
LINE
  8
CYAN
 10
-299.6108675654
 20
110.5146445678
 11
-291.9003203807
 21
108.5566747026
  0
ARC
  8
CYAN
 10
-293.1299785609
 20
103.7888862231
 40
4.9238060711
 50
55.8148541243
 51
75.5380307378
  0
LINE
  8
CYAN
 10
-290.363444885
 20
107.8619879461
 11
-286.6211768438
 21
105.306872958
  0
ARC
  8
CYAN
 10
-286.9919746557
 20
104.7627248725
 40
0.658474112
 50
250.1150715357
 51
55.7283819434
  0
LINE
  8
CYAN
 10
-287.2159429025
 20
104.1435105472
 11
-294.255593973
 21
106.5725351309
  0
LINE
  8
CYAN
 10
-294.255593973
 20
106.5725351309
 11
-300.0081712926
 21
108.4067936558
  0
ARC
  8
CYAN
 10
-301.4747613319
 20
104.1764464861
 40
4.4773567559
 50
70.8794310923
 51
81.6759746414
  0
LINE
  8
CYAN
 10
-300.8265693894
 20
108.6066350515
 11
-305.1636034893
 21
109.1252710547
  0
LINE
  8
CYAN
 10
-305.1636034893
 20
109.1252710547
 11
-306.8741506741
 21
109.1133757335
  0
ARC
  8
CYAN
 10
-306.8736210883
 20
108.4819299477
 40
0.6314460079
 50
90.0480532487
 51
228.1092942873
  0
LINE
  8
CYAN
 10
-307.2952450436
 20
108.0118689929
 11
-302.8844599524
 21
104.2672218874
  0
ARC
  8
CYAN
 10
-303.1776531002
 20
104.0142063655
 40
0.3872713212
 50
250.7152868168
 51
40.79305466
  0
LINE
  8
CYAN
 10
-303.305554322
 20
103.6486651864
 11
-306.4530563045
 21
105.1355803331
  0
ARC
  8
CYAN
 10
-309.3853062841
 20
99.2889709985
 40
6.5407133138
 50
63.3648617176
 51
69.2839330154
  0
LINE
  8
CYAN
 10
-307.0716130056
 20
105.4067936558
 11
-312.7980206186
 21
107.4408935765
  0
LINE
  8
CYAN
 10
-257.2944520222
 20
33.1950569389
 11
-257.2944520222
 21
45.7136929421
  0
ARC
  8
CYAN
 10
-256.9233180016
 20
45.7136929421
 40
0.3711340206
 50
90.0
 51
180.0
  0
LINE
  8
CYAN
 10
-256.9233180016
 20
46.0848269627
 11
-252.7076161776
 21
46.0848269627
  0
LINE
  8
CYAN
 10
-252.7076161776
 20
46.0848269627
 11
-252.7076161776
 21
49.0610363204
  0
LINE
  8
CYAN
 10
-252.7076161776
 20
49.0610363204
 11
-257.1469500397
 21
49.0610363204
  0
ARC
  8
CYAN
 10
-257.1473565213
 20
49.4325507661
 40
0.3715146681
 50
183.7303481298
 51
270.0626884766
  0
LINE
  8
CYAN
 10
-257.5180840603
 20
49.4083796987
 11
-258.0890594766
 21
59.7953741475
  0
ARC
  8
CYAN
 10
-257.416873831
 20
59.8226018597
 40
0.6727368657
 50
98.6527443881
 51
182.3195684619
  0
LINE
  8
CYAN
 10
-257.5180840603
 20
60.4876818398
 11
-257.1469500397
 21
60.5376421887
  0
ARC
  8
CYAN
 10
-256.9457986296
 20
58.8702177404
 40
1.6795136739
 50
51.812340573
 51
96.8786933388
  0
LINE
  8
CYAN
 10
-255.9074575734
 20
60.1902988105
 11
-254.170740682
 21
58.8532647105
  0
ARC
  8
CYAN
 10
-255.3371618073
 20
57.3410886919
 40
1.9097681935
 50
21.2250940468
 51
52.3551030764
  0
LINE
  8
CYAN
 10
-253.5569421094
 20
58.0324875496
 11
-252.4601934972
 21
55.2323289453
  0
ARC
  8
CYAN
 10
-250.8722114653
 20
55.847025708
 40
1.7028032898
 50
201.1610728208
 51
234.3182256377
  0
LINE
  8
CYAN
 10
-251.8654274385
 20
54.4638911975
 11
-250.1049199048
 21
53.2006080888
  0
ARC
  8
CYAN
 10
-248.4438125334
 20
55.5056867921
 40
2.8412436586
 50
234.2223716806
 51
257.2673825467
  0
LINE
  8
CYAN
 10
-249.0700269627
 20
52.7343114988
 11
-247.7496463125
 21
52.4559609833
  0
ARC
  8
CYAN
 10
-248.3465631468
 20
49.779361307
 40
2.7423521901
 50
35.1154534723
 51
77.4280171143
  0
LINE
  8
CYAN
 10
-246.103333862
 20
51.3568333069
 11
-244.4546423473
 21
49.0348666138
  0
ARC
  8
CYAN
 10
-247.7245226322
 20
46.7262953511
 40
4.0027013818
 50
9.2819204219
 51
35.2225101121
  0
LINE
  8
CYAN
 10
-243.7742299762
 20
47.3719007137
 11
-243.2889008723
 21
44.4979911182
  0
ARC
  8
CYAN
 10
-247.5020382548
 20
43.8021877414
 40
4.2702071312
 50
356.693337283
 51
9.3778009671
  0
LINE
  8
CYAN
 10
-243.2389405234
 20
43.5558816812
 11
-243.4863632038
 21
39.2426382236
  0
ARC
  8
CYAN
 10
-244.6357038516
 20
39.3353729674
 40
1.1530757379
 50
206.4627634053
 51
355.3870732574
  0
LINE
  8
CYAN
 10
-245.6679651071
 20
38.8215438541
 11
-246.2889008723
 21
40.1847476606
  0
ARC
  8
CYAN
 10
-248.4971088485
 20
39.1991582633
 40
2.4181747096
 50
24.0526385969
 51
44.8841162207
  0
LINE
  8
CYAN
 10
-246.7837462332
 20
40.9056041237
 11
-247.6021443299
 21
41.7216231562
  0
ARC
  8
CYAN
 10
-248.8416637743
 20
40.4821371201
 40
1.752921586
 50
44.9992278531
 51
108.1882735656
  0
LINE
  8
CYAN
 10
-249.3888215702
 20
42.1474756542
 11
-250.2048406027
 21
41.871504203
  0
ARC
  8
CYAN
 10
-249.610822749
 20
40.0865091541
 40
1.8812401588
 50
108.4066188949
 51
157.5245628905
  0
LINE
  8
CYAN
 10
-251.3491704996
 20
40.8056834259
 11
-252.4364028549
 21
38.1530268041
  0
ARC
  8
CYAN
 10
-248.3463450962
 20
36.4681868948
 40
4.4234893455
 50
157.6114992585
 51
176.1700843451
  0
LINE
  8
CYAN
 10
-252.7599555908
 20
36.763653291
 11
-252.9574179223
 21
33.9135343378
  0
ARC
  8
CYAN
 10
-257.4113508743
 20
34.2454384395
 40
4.4662824668
 50
350.6032774563
 51
355.7382339374
  0
LINE
  8
CYAN
 10
-253.004999207
 20
33.5162306106
 11
-253.8233973037
 21
28.360798414
  0
ARC
  8
CYAN
 10
-248.4704986724
 20
27.4926608578
 40
5.4228393461
 50
170.7879311417
 51
187.0836778736
  0
LINE
  8
CYAN
 10
-253.8519460745
 20
26.8239229183
 11
-253.0311689136
 21
21.2212266455
  0
ARC
  8
CYAN
 10
-253.530216157
 20
21.1644987497
 40
0.5022610928
 50
240.7258844803
 51
6.485111862
  0
LINE
  8
CYAN
 10
-253.775816019
 20
20.7263812847
 11
-254.6417954005
 21
21.2949776368
  0
ARC
  8
CYAN
 10
-253.8238585657
 20
22.5349204476
 40
1.4854221083
 50
214.7834041928
 51
236.5888842028
  0
LINE
  8
CYAN
 10
-255.0438572562
 20
21.6875232355
 11
-255.8075368755
 21
22.8080624901
  0
ARC
  8
CYAN
 10
-253.3810450478
 20
24.5166327356
 40
2.967671625
 50
186.6830103181
 51
215.1505972886
  0
LINE
  8
CYAN
 10
-256.3285519429
 20
24.1712662966
 11
-257.2444916733
 21
32.4504098335
  0
ARC
  8
CYAN
 10
-250.6761252982
 20
33.2650984902
 40
6.6186973374
 50
180.6063368631
 51
187.0704097317
  0
ENDSEC
  0
EOF
