  0
SECTION
  2
HEADER
  9
$ACADVER
  1
AC1009
  9
$EXTMIN
 10
-102.78571429
 20
-101.00000000
 30
0.0
  9
$EXTMAX
 10
99.21428571
 20
101.00000000
 30
0.0
  0
ENDSEC
  0
SECTION
  2
TABLES
  0
TABLE
  2
LAYER
 70
1
 0
LAYER
 2
По умолчанию
 70
0
 62
1
 6
CONTINUOUS
 0
ENDTAB
 0
ENDSEC
  0
SECTION
  2
ENTITIES
  0
POLYLINE
  8
По умолчанию
 66
   1
 39
0.000000
 70
    1
  0
VERTEX
  8
0
 10
64.12721387
 20
52.27696284
  0
VERTEX
  8
0
 10
67.50225041
 20
50.39785741
  0
VERTEX
  8
0
 10
69.95494873
 20
50.39785741
  0
VERTEX
  8
0
 10
69.95494873
 20
53.87308588
  0
VERTEX
  8
0
 10
67.50225041
 20
53.87308588
  0
VERTEX
  8
0
 10
67.50225041
 20
51.82913094
  0
VERTEX
  8
0
 10
64.12721387
 20
53.77232143
  0
VERTEX
  8
0
 10
61.67337051
 20
53.77232143
  0
VERTEX
  8
0
 10
61.67337051
 20
50.39785741
  0
VERTEX
  8
0
 10
64.12721387
 20
50.39785741
  0
VERTEX
  8
0
 10
64.12721387
 20
52.27696284
  0
SEQEND
  0
POLYLINE
  8
По умолчанию
 66
   1
 39
0.000000
 70
    1
  0
VERTEX
  8
0
 10
34.31461594
 20
78.09432412
  0
VERTEX
  8
0
 10
37.68965248
 20
76.21521869
  0
VERTEX
  8
0
 10
40.14235079
 20
76.21521869
  0
VERTEX
  8
0
 10
40.14235079
 20
79.69044716
  0
VERTEX
  8
0
 10
37.68965248
 20
79.69044716
  0
VERTEX
  8
0
 10
37.68965248
 20
77.64649222
  0
VERTEX
  8
0
 10
34.31461594
 20
79.58968271
  0
VERTEX
  8
0
 10
31.86077258
 20
79.58968271
  0
VERTEX
  8
0
 10
31.86077258
 20
76.21521869
  0
VERTEX
  8
0
 10
34.31461594
 20
76.21521869
  0
VERTEX
  8
0
 10
34.31461594
 20
78.09432412
  0
SEQEND
  0
POLYLINE
  8
По умолчанию
 66
   1
 39
0.000000
 70
    1
  0
VERTEX
  8
0
 10
-5.21240174
 20
89.45510727
  0
VERTEX
  8
0
 10
-1.83736520
 20
87.57600184
  0
VERTEX
  8
0
 10
0.61533312
 20
87.57600184
  0
VERTEX
  8
0
 10
0.61533312
 20
91.05123030
  0
VERTEX
  8
0
 10
-1.83736520
 20
91.05123030
  0
VERTEX
  8
0
 10
-1.83736520
 20
89.00727536
  0
VERTEX
  8
0
 10
-5.21240174
 20
90.95046585
  0
VERTEX
  8
0
 10
-7.66624510
 20
90.95046585
  0
VERTEX
  8
0
 10
-7.66624510
 20
87.57600184
  0
VERTEX
  8
0
 10
-5.21240174
 20
87.57600184
  0
VERTEX
  8
0
 10
-5.21240174
 20
89.45510727
  0
SEQEND
  0
POLYLINE
  8
По умолчанию
 66
   1
 39
0.000000
 70
    1
  0
VERTEX
  8
0
 10
-71.90441557
 20
-25.03888537
  0
VERTEX
  8
0
 10
-68.52937902
 20
-26.91799080
  0
VERTEX
  8
0
 10
-66.07668071
 20
-26.91799080
  0
VERTEX
  8
0
 10
-66.07668071
 20
-23.44276234
  0
VERTEX
  8
0
 10
-68.52937902
 20
-23.44276234
  0
VERTEX
  8
0
 10
-68.52937902
 20
-25.48671728
  0
VERTEX
  8
0
 10
-71.90441557
 20
-23.54352679
  0
VERTEX
  8
0
 10
-74.35825893
 20
-23.54352679
  0
VERTEX
  8
0
 10
-74.35825893
 20
-26.91799080
  0
VERTEX
  8
0
 10
-71.90441557
 20
-26.91799080
  0
VERTEX
  8
0
 10
-71.90441557
 20
-25.03888537
  0
SEQEND
  0
POLYLINE
  8
По умолчанию
 66
   1
 39
0.000000
 70
    1
  0
VERTEX
  8
0
 10
-75.54838878
 20
50.73874842
  0
VERTEX
  8
0
 10
-72.17335224
 20
48.85964299
  0
VERTEX
  8
0
 10
-69.72065393
 20
48.85964299
  0
VERTEX
  8
0
 10
-69.72065393
 20
52.33487146
  0
VERTEX
  8
0
 10
-72.17335224
 20
52.33487146
  0
VERTEX
  8
0
 10
-72.17335224
 20
50.29091652
  0
VERTEX
  8
0
 10
-75.54838878
 20
52.23410701
  0
VERTEX
  8
0
 10
-78.00223214
 20
52.23410701
  0
VERTEX
  8
0
 10
-78.00223214
 20
48.85964299
  0
VERTEX
  8
0
 10
-75.54838878
 20
48.85964299
  0
VERTEX
  8
0
 10
-75.54838878
 20
50.73874842
  0
SEQEND
  0
POLYLINE
  8
По умолчанию
 66
   1
 39
0.000000
 70
    1
  0
VERTEX
  8
0
 10
-74.91265315
 20
-43.37667849
  0
VERTEX
  8
0
 10
-74.91265315
 20
-28.38577082
  0
VERTEX
  8
0
 10
-77.82680684
 20
-28.38577082
  0
VERTEX
  8
0
 10
-77.82680684
 20
-53.63757094
  0
VERTEX
  8
0
 10
-74.91265315
 20
-53.63757094
  0
VERTEX
  8
0
 10
-74.91265315
 20
-45.37062461
  0
VERTEX
  8
0
 10
-65.14946129
 20
-38.14909013
  0
VERTEX
  8
0
 10
-65.14946129
 20
-53.12638766
  0
VERTEX
  8
0
 10
-62.23530760
 20
-53.12638766
  0
VERTEX
  8
0
 10
-62.23530760
 20
-27.87458753
  0
VERTEX
  8
0
 10
-65.14946129
 20
-27.87458753
  0
VERTEX
  8
0
 10
-65.14946129
 20
-36.15514402
  0
VERTEX
  8
0
 10
-74.91265315
 20
-43.37667849
  0
SEQEND
  0
POLYLINE
  8
По умолчанию
 66
   1
 39
0.000000
 70
    1
  0
VERTEX
  8
0
 10
-48.53559548
 20
-60.38551751
 42
-0.09210805
  0
VERTEX
  8
0
 10
-41.58350276
 20
-60.38551751
 42
0.58753178
  0
VERTEX
  8
0
 10
-42.17136354
 20
-58.80084931
 42
-0.50489229
  0
VERTEX
  8
0
 10
-42.14580438
 20
-56.98614864
 42
-0.25108862
  0
VERTEX
  8
0
 10
-37.74962810
 20
-57.01170780
 42
-0.64550804
  0
VERTEX
  8
0
 10
-37.69850977
 20
-62.12354069
 42
-0.26359391
  0
VERTEX
  8
0
 10
-40.35666287
 20
-62.53248732
 42
-0.13581661
  0
VERTEX
  8
0
 10
-43.57711758
 20
-65.29287707
 42
0.44272623
  0
VERTEX
  8
0
 10
-40.94452365
 20
-68.28329931
 42
-0.28791471
  0
VERTEX
  8
0
 10
-38.66975802
 20
-66.28968448
 42
-0.42354184
  0
VERTEX
  8
0
 10
-36.75282069
 20
-67.66987936
 42
-0.08992164
  0
VERTEX
  8
0
 10
-36.85505734
 20
-75.31206952
 42
-0.37628891
  0
VERTEX
  8
0
 10
-39.94771624
 20
-78.25137343
 42
-0.21852903
  0
VERTEX
  8
0
 10
-43.90938672
 20
-76.07884445
 42
0.52220934
  0
VERTEX
  8
0
 10
-49.25125208
 20
-76.20664028
  0
VERTEX
  8
0
 10
-49.64601408
 20
-76.59155584
  0
VERTEX
  8
0
 10
-49.84590602
 20
-76.79314645
  0
VERTEX
  8
0
 10
-50.03463365
 20
-77.00462766
  0
VERTEX
  8
0
 10
-50.20256830
 20
-77.22885100
  0
VERTEX
  8
0
 10
-50.34008127
 20
-77.46866803
  0
VERTEX
  8
0
 10
-50.43754389
 20
-77.72693028
  0
VERTEX
  8
0
 10
-50.48532746
 20
-78.00648930
  0
VERTEX
  8
0
 10
-50.30616260
 20
-78.10205957
  0
VERTEX
  8
0
 10
-50.10930948
 20
-78.16209336
  0
VERTEX
  8
0
 10
-49.90214406
 20
-78.18686798
  0
VERTEX
  8
0
 10
-49.69204228
 20
-78.17666071
  0
VERTEX
  8
0
 10
-49.48638011
 20
-78.13174886
  0
VERTEX
  8
0
 10
-49.29253348
 20
-78.05240972
  0
VERTEX
  8
0
 10
-49.11787836
 20
-77.93892060
  0
VERTEX
  8
0
 10
-48.96979069
 20
-77.79155879
  0
VERTEX
  8
0
 10
-48.77151953
 20
-77.57917604
  0
VERTEX
  8
0
 10
-48.54495735
 20
-77.39939642
  0
VERTEX
  8
0
 10
-48.29398004
 20
-77.25772715
  0
VERTEX
  8
0
 10
-48.02246348
 20
-77.15967547
  0
VERTEX
  8
0
 10
-47.65875492
 20
-77.08034671
  0
VERTEX
  8
0
 10
-47.29229828
 20
-77.03355071
  0
VERTEX
  8
0
 10
-46.92146254
 20
-77.01728917
  0
VERTEX
  8
0
 10
-46.54461668
 20
-77.02956374
  0
VERTEX
  8
0
 10
-46.25379596
 20
-77.16924281
  0
VERTEX
  8
0
 10
-45.96098844
 20
-77.30039842
  0
VERTEX
  8
0
 10
-45.67409508
 20
-77.44270994
  0
VERTEX
  8
0
 10
-45.40101687
 20
-77.61585674
  0
VERTEX
  8
0
 10
-44.98527470
 20
-77.88925627
  0
VERTEX
  8
0
 10
-44.55396928
 20
-78.13037524
  0
VERTEX
  8
0
 10
-44.12064741
 20
-78.36673269
  0
VERTEX
  8
0
 10
-43.69885591
 20
-78.62584770
 42
0.18485547
  0
VERTEX
  8
0
 10
-35.50042163
 20
-79.09482585
 42
0.21184985
  0
VERTEX
  8
0
 10
-32.68891354
 20
-77.15232936
 42
0.18345582
  0
VERTEX
  8
0
 10
-32.79115020
 20
-66.57083529
 42
0.24290817
  0
VERTEX
  8
0
 10
-36.21607823
 20
-64.57722047
 42
-0.56955372
  0
VERTEX
  8
0
 10
-36.21607823
 20
-63.09478893
 42
0.07236920
  0
VERTEX
  8
0
 10
-34.47805505
 20
-62.45580982
 42
0.68548475
  0
VERTEX
  8
0
 10
-34.37581839
 20
-56.83279365
 42
0.23780718
  0
VERTEX
  8
0
 10
-44.44612917
 20
-56.19381454
 42
0.08969799
  0
VERTEX
  8
0
 10
-48.53559548
 20
-60.38551751
  0
SEQEND
  0
POLYLINE
  8
По умолчанию
 66
   1
 39
0.000000
 70
    1
  0
VERTEX
  8
0
 10
-81.96771863
 20
13.00812995
  0
VERTEX
  8
0
 10
-78.59268209
 20
11.12902452
  0
VERTEX
  8
0
 10
-76.13998378
 20
11.12902452
  0
VERTEX
  8
0
 10
-76.13998378
 20
14.60425298
  0
VERTEX
  8
0
 10
-78.59268209
 20
14.60425298
  0
VERTEX
  8
0
 10
-78.59268209
 20
12.56029804
  0
VERTEX
  8
0
 10
-81.96771863
 20
14.50348853
  0
VERTEX
  8
0
 10
-84.42156199
 20
14.50348853
  0
VERTEX
  8
0
 10
-84.42156199
 20
11.12902452
  0
VERTEX
  8
0
 10
-81.96771863
 20
11.12902452
  0
VERTEX
  8
0
 10
-81.96771863
 20
13.00812995
  0
SEQEND
  0
POLYLINE
  8
По умолчанию
 66
   1
 39
0.000000
 70
    1
  0
VERTEX
  8
0
 10
-83.30488183
 20
-9.23856242
 42
0.08781943
  0
VERTEX
  8
0
 10
-80.53566932
 20
-13.71448329
 42
0.08527370
  0
VERTEX
  8
0
 10
-77.76883871
 20
-9.23856242
  0
VERTEX
  8
0
 10
-83.30488183
 20
-9.23856242
  0
SEQEND
  0
POLYLINE
  8
По умолчанию
 66
   1
 39
0.000000
 70
    1
  0
VERTEX
  8
0
 10
-80.33119601
 20
6.63061158
 42
-0.25361439
  0
VERTEX
  8
0
 10
-77.28792616
 20
-7.86450174
  0
VERTEX
  8
0
 10
-83.77665642
 20
-7.86450174
 42
-0.26386600
  0
VERTEX
  8
0
 10
-80.33119601
 20
6.63061158
  0
SEQEND
  0
POLYLINE
  8
По умолчанию
 66
   1
 39
0.000000
 70
    1
  0
VERTEX
  8
0
 10
-75.53292920
 20
-7.92107269
  0
VERTEX
  8
0
 10
-72.11818451
 20
-7.92107269
 42
0.14848489
  0
VERTEX
  8
0
 10
-74.60594318
 20
-14.87316541
  0
VERTEX
  8
0
 10
-75.56015198
 20
-14.87316541
  0
VERTEX
  8
0
 10
-75.56015198
 20
-9.23856242
  0
VERTEX
  8
0
 10
-75.95911018
 20
-9.23856242
 42
-0.11056919
  0
VERTEX
  8
0
 10
-80.53566932
 20
-15.75921644
 42
-0.11249082
  0
VERTEX
  8
0
 10
-84.97946178
 20
-9.23856242
  0
VERTEX
  8
0
 10
-85.75587306
 20
-9.23856242
  0
VERTEX
  8
0
 10
-85.75587306
 20
-14.63461321
  0
VERTEX
  8
0
 10
-85.75587306
 20
-16.00867389
  0
VERTEX
  8
0
 10
-88.50399442
 20
-16.00867389
  0
VERTEX
  8
0
 10
-88.50399442
 20
-14.63461321
  0
VERTEX
  8
0
 10
-88.50399442
 20
-8.01478963
  0
VERTEX
  8
0
 10
-88.50399442
 20
-7.86450174
  0
VERTEX
  8
0
 10
-85.75587306
 20
-7.86450174
  0
VERTEX
  8
0
 10
-85.45504259
 20
-7.86450174
 42
-0.29653546
  0
VERTEX
  8
0
 10
-80.02448603
 20
10.72007789
 42
-0.28350952
  0
VERTEX
  8
0
 10
-75.45348479
 20
-7.85954582
  0
VERTEX
  8
0
 10
-75.53292920
 20
-7.92107269
  0
SEQEND
  0
POLYLINE
  8
По умолчанию
 66
   1
 39
0.000000
 70
    1
  0
VERTEX
  8
0
 10
-41.37927481
 20
-50.99119985
  0
VERTEX
  8
0
 10
-38.00423827
 20
-52.87030528
  0
VERTEX
  8
0
 10
-35.55153996
 20
-52.87030528
  0
VERTEX
  8
0
 10
-35.55153996
 20
-49.39507681
  0
VERTEX
  8
0
 10
-38.00423827
 20
-49.39507681
  0
VERTEX
  8
0
 10
-38.00423827
 20
-51.43903175
  0
VERTEX
  8
0
 10
-41.37927481
 20
-49.49584126
  0
VERTEX
  8
0
 10
-43.83311817
 20
-49.49584126
  0
VERTEX
  8
0
 10
-43.83311817
 20
-52.87030528
  0
VERTEX
  8
0
 10
-41.37927481
 20
-52.87030528
  0
VERTEX
  8
0
 10
-41.37927481
 20
-50.99119985
  0
SEQEND
  0
POLYLINE
  8
По умолчанию
 66
   1
 39
0.000000
 70
    1
  0
VERTEX
  8
0
 10
-4.71362630
 20
-60.35274869
  0
VERTEX
  8
0
 10
-1.33858976
 20
-62.23185412
  0
VERTEX
  8
0
 10
1.11410855
 20
-62.23185412
  0
VERTEX
  8
0
 10
1.11410855
 20
-58.75662566
  0
VERTEX
  8
0
 10
-1.33858976
 20
-58.75662566
  0
VERTEX
  8
0
 10
-1.33858976
 20
-60.80058060
  0
VERTEX
  8
0
 10
-4.71362630
 20
-58.85739010
  0
VERTEX
  8
0
 10
-7.16746966
 20
-58.85739010
  0
VERTEX
  8
0
 10
-7.16746966
 20
-62.23185412
  0
VERTEX
  8
0
 10
-4.71362630
 20
-62.23185412
  0
VERTEX
  8
0
 10
-4.71362630
 20
-60.35274869
  0
SEQEND
  0
POLYLINE
  8
По умолчанию
 66
   1
 39
0.000000
 70
    1
  0
VERTEX
  8
0
 10
4.38527265
 20
-75.67597460
 42
-0.19129611
  0
VERTEX
  8
0
 10
4.43639098
 20
-82.62806732
 42
-0.22862989
  0
VERTEX
  8
0
 10
-0.26649527
 20
-87.38207190
  0
VERTEX
  8
0
 10
-0.61234059
 20
-87.49186406
  0
VERTEX
  8
0
 10
-0.94156518
 20
-87.62878404
  0
VERTEX
  8
0
 10
-1.27846301
 20
-87.74267624
  0
VERTEX
  8
0
 10
-1.62163695
 20
-87.83246278
  0
VERTEX
  8
0
 10
-1.96968990
 20
-87.89706574
  0
VERTEX
  8
0
 10
-2.32122474
 20
-87.93540724
  0
VERTEX
  8
0
 10
-2.67484435
 20
-87.94640936
  0
VERTEX
  8
0
 10
-3.02915163
 20
-87.92899421
  0
VERTEX
  8
0
 10
-3.38274945
 20
-87.88208389
  0
VERTEX
  8
0
 10
-4.39413136
 20
-87.67983076
  0
VERTEX
  8
0
 10
-4.89371076
 20
-87.55579165
  0
VERTEX
  8
0
 10
-5.38626539
 20
-87.41197792
  0
VERTEX
  8
0
 10
-5.86958247
 20
-87.24501491
  0
VERTEX
  8
0
 10
-6.34144921
 20
-87.05152792
  0
VERTEX
  8
0
 10
-6.79965281
 20
-86.82814229
  0
VERTEX
  8
0
 10
-7.24198050
 20
-86.57148333
  0
VERTEX
  8
0
 10
-7.48849334
 20
-86.42876315
  0
VERTEX
  8
0
 10
-7.74598066
 20
-86.30501172
  0
VERTEX
  8
0
 10
-8.01274877
 20
-86.20034240
  0
VERTEX
  8
0
 10
-8.28710402
 20
-86.11486854
  0
VERTEX
  8
0
 10
-8.56735272
 20
-86.04870350
  0
VERTEX
  8
0
 10
-8.85180122
 20
-86.00196062
  0
VERTEX
  8
0
 10
-9.13875582
 20
-85.97475326
  0
VERTEX
  8
0
 10
-9.42652287
 20
-85.96719477
  0
VERTEX
  8
0
 10
-9.71340869
 20
-85.97939850
  0
VERTEX
  8
0
 10
-9.99771961
 20
-86.01147782
  0
VERTEX
  8
0
 10
-10.27776195
 20
-86.06354606
  0
VERTEX
  8
0
 10
-10.55184205
 20
-86.13571658
  0
VERTEX
  8
0
 10
-10.81826624
 20
-86.22810274
  0
VERTEX
  8
0
 10
-11.07534084
 20
-86.34081789
  0
VERTEX
  8
0
 10
-11.32137218
 20
-86.47397538
  0
VERTEX
  8
0
 10
-11.55466659
 20
-86.62768856
  0
VERTEX
  8
0
 10
-12.01637916
 20
-86.96349699
  0
VERTEX
  8
0
 10
-12.48591935
 20
-87.32120046
  0
VERTEX
  8
0
 10
-12.94012897
 20
-87.70464264
  0
VERTEX
  8
0
 10
-13.15424787
 20
-87.90721689
  0
VERTEX
  8
0
 10
-13.35584979
 20
-88.11766717
  0
VERTEX
  8
0
 10
-13.54203995
 20
-88.33647395
  0
VERTEX
  8
0
 10
-13.70992358
 20
-88.56411769
  0
VERTEX
  8
0
 10
-13.85660591
 20
-88.80107884
  0
VERTEX
  8
0
 10
-13.97919215
 20
-89.04783785
  0
VERTEX
  8
0
 10
-14.07478753
 20
-89.30487518
  0
VERTEX
  8
0
 10
-14.14049727
 20
-89.57267129
  0
VERTEX
  8
0
 10
-14.17342659
 20
-89.85170663
  0
VERTEX
  8
0
 10
-14.17068071
 20
-90.14246166
  0
VERTEX
  8
0
 10
-13.99176656
 20
-90.37249414
  0
VERTEX
  8
0
 10
-13.65949743
 20
-90.37249414
  0
VERTEX
  8
0
 10
-13.35278745
 20
-90.14246166
  0
VERTEX
  8
0
 10
-13.22499163
 20
-89.93798834
  0
VERTEX
  8
0
 10
-12.86716333
 20
-89.55460088
  0
VERTEX
  8
0
 10
-12.61157168
 20
-89.27345007
 42
-0.35119296
  0
VERTEX
  8
0
 10
-5.91507061
 20
-88.94118093
 42
0.22574813
  0
VERTEX
  8
0
 10
0.88366712
 20
-88.91562177
 42
0.13599283
  0
VERTEX
  8
0
 10
8.06579232
 20
-82.52583066
 42
0.24295599
  0
VERTEX
  8
0
 10
8.11691065
 20
-74.70472635
 42
0.25914579
  0
VERTEX
  8
0
 10
3.72073437
 20
-72.14880991
 42
0.15521747
  0
VERTEX
  8
0
 10
-2.20899177
 20
-72.14880991
 42
-0.17029513
  0
VERTEX
  8
0
 10
-5.32720983
 20
-72.60887487
 42
-0.33754735
  0
VERTEX
  8
0
 10
-7.57641630
 20
-68.72388188
 42
-0.35422839
  0
VERTEX
  8
0
 10
-5.07161818
 20
-65.60566382
 42
-0.45650406
  0
VERTEX
  8
0
 10
-1.54445349
 20
-68.26381692
 42
-0.15901080
  0
VERTEX
  8
0
 10
0.04021470
 20
-64.83888889
 42
0.40182174
  0
VERTEX
  8
0
 10
-9.41667613
 20
-65.86125547
 42
0.19514669
  0
VERTEX
  8
0
 10
-11.05246266
 20
-69.84848512
 42
0.33807146
  0
VERTEX
  8
0
 10
-8.75213786
 20
-74.90919967
 42
0.29217473
  0
VERTEX
  8
0
 10
-3.99813328
 20
-74.24466139
 42
-0.12991493
  0
VERTEX
  8
0
 10
-0.11314029
 20
-73.37564980
 42
-0.36197125
  0
VERTEX
  8
0
 10
4.38527265
 20
-75.67597460
  0
SEQEND
  0
POLYLINE
  8
По умолчанию
 66
   1
 39
0.000000
 70
    1
  0
VERTEX
  8
0
 10
29.26527415
 20
-54.26355110
  0
VERTEX
  8
0
 10
32.64031069
 20
-56.14265653
  0
VERTEX
  8
0
 10
35.09300900
 20
-56.14265653
  0
VERTEX
  8
0
 10
35.09300900
 20
-52.66742807
  0
VERTEX
  8
0
 10
32.64031069
 20
-52.66742807
  0
VERTEX
  8
0
 10
32.64031069
 20
-54.71138301
  0
VERTEX
  8
0
 10
29.26527415
 20
-52.76819252
  0
VERTEX
  8
0
 10
26.81143079
 20
-52.76819252
  0
VERTEX
  8
0
 10
26.81143079
 20
-56.14265653
  0
VERTEX
  8
0
 10
29.26527415
 20
-56.14265653
  0
VERTEX
  8
0
 10
29.26527415
 20
-54.26355110
  0
SEQEND
  0
POLYLINE
  8
По умолчанию
 66
   1
 39
0.000000
 70
    1
  0
VERTEX
  8
0
 10
27.27288617
 20
-70.20023664
 42
-0.27042654
  0
VERTEX
  8
0
 10
26.91505786
 20
-62.43025066
 42
-0.33375478
  0
VERTEX
  8
0
 10
31.31123414
 20
-59.56762424
 42
-0.20409635
  0
VERTEX
  8
0
 10
35.80964708
 20
-61.63791656
 42
-0.40847287
  0
VERTEX
  8
0
 10
34.96619465
 20
-64.88393044
  0
VERTEX
  8
0
 10
34.96619465
 20
-65.31843624
  0
VERTEX
  8
0
 10
40.94703913
 20
-65.31843624
 42
0.21665080
  0
VERTEX
  8
0
 10
34.55724802
 20
-58.57081683
 42
0.16056329
  0
VERTEX
  8
0
 10
28.34637107
 20
-58.54525767
 42
0.21295689
  0
VERTEX
  8
0
 10
23.33677485
 20
-64.50054298
 42
0.20760882
  0
VERTEX
  8
0
 10
23.36233401
 20
-70.58362411
 42
0.09016994
  0
VERTEX
  8
0
 10
25.96936878
 20
-74.31526211
 42
-0.13510542
  0
VERTEX
  8
0
 10
28.37193023
 20
-79.96383744
  0
VERTEX
  8
0
 10
28.37193023
 20
-83.95106709
 42
0.18734463
  0
VERTEX
  8
0
 10
34.12274223
 20
-84.10442208
 42
0.18294763
  0
VERTEX
  8
0
 10
37.44543360
 20
-81.39515065
 42
-0.24884130
  0
VERTEX
  8
0
 10
39.49016675
 20
-79.60600914
  0
VERTEX
  8
0
 10
38.95342430
 20
-78.78811588
 42
-0.11256559
  0
VERTEX
  8
0
 10
36.19303454
 20
-77.38236184
  0
VERTEX
  8
0
 10
34.35277471
 20
-77.35680267
  0
VERTEX
  8
0
 10
34.35277471
 20
-78.37916925
 42
-0.25388347
  0
VERTEX
  8
0
 10
35.40070045
 20
-79.04370753
 42
-0.26257346
  0
VERTEX
  8
0
 10
35.42625961
 20
-81.42070982
 42
-0.13132882
  0
VERTEX
  8
0
 10
34.83839883
 20
-82.18748475
 42
-0.25318973
  0
VERTEX
  8
0
 10
29.82880261
 20
-82.26416224
 42
0.04940181
  0
VERTEX
  8
0
 10
29.82880261
 20
-78.02134095
 42
0.18261473
  0
VERTEX
  8
0
 10
27.63071447
 20
-71.98937815
 42
-0.15483580
  0
VERTEX
  8
0
 10
31.84797659
 20
-68.94783758
 42
-0.21858532
  0
VERTEX
  8
0
 10
35.96300206
 20
-69.33122505
 42
-0.39277252
  0
VERTEX
  8
0
 10
36.03967956
 20
-71.78490483
  0
VERTEX
  8
0
 10
35.63073293
 20
-71.98937815
  0
VERTEX
  8
0
 10
35.70741042
 20
-72.70503475
  0
VERTEX
  8
0
 10
39.97579088
 20
-72.70503475
 42
0.28424971
  0
VERTEX
  8
0
 10
36.29527120
 20
-67.46540605
 42
0.14498165
  0
VERTEX
  8
0
 10
31.33679331
 20
-67.43984688
 42
0.15817842
  0
VERTEX
  8
0
 10
27.27288617
 20
-70.20023664
  0
SEQEND
  0
POLYLINE
  8
По умолчанию
 66
   1
 39
0.000000
 70
    1
  0
VERTEX
  8
0
 10
61.34263891
 20
-26.96026682
  0
VERTEX
  8
0
 10
64.71767545
 20
-28.83937225
  0
VERTEX
  8
0
 10
67.17037376
 20
-28.83937225
  0
VERTEX
  8
0
 10
67.17037376
 20
-25.36414379
  0
VERTEX
  8
0
 10
64.71767545
 20
-25.36414379
  0
VERTEX
  8
0
 10
64.71767545
 20
-27.40809873
  0
VERTEX
  8
0
 10
61.34263891
 20
-25.46490824
  0
VERTEX
  8
0
 10
58.88879554
 20
-25.46490824
  0
VERTEX
  8
0
 10
58.88879554
 20
-28.83937225
  0
VERTEX
  8
0
 10
61.34263891
 20
-28.83937225
  0
VERTEX
  8
0
 10
61.34263891
 20
-26.96026682
  0
SEQEND
  0
POLYLINE
  8
По умолчанию
 66
   1
 39
0.000000
 70
    1
  0
VERTEX
  8
0
 10
65.81610610
 20
-36.76884959
 42
-0.04171232
  0
VERTEX
  8
0
 10
59.63078831
 20
-42.90304905
 42
0.16592921
  0
VERTEX
  8
0
 10
57.91832429
 20
-46.14906293
 42
0.11748497
  0
VERTEX
  8
0
 10
57.96944262
 20
-51.43980996
  0
VERTEX
  8
0
 10
65.86722443
 20
-51.43980996
  0
VERTEX
  8
0
 10
65.81610610
 20
-36.76884959
  0
SEQEND
  0
POLYLINE
  8
По умолчанию
 66
   1
 39
0.000000
 70
    1
  0
VERTEX
  8
0
 10
65.76498777
 20
-30.22570350
  0
VERTEX
  8
0
 10
65.76586909
 20
-33.47092123
  0
VERTEX
  8
0
 10
65.58830314
 20
-33.29440166
  0
VERTEX
  8
0
 10
65.40890970
 20
-33.15395421
  0
VERTEX
  8
0
 10
65.22477801
 20
-33.04337628
  0
VERTEX
  8
0
 10
65.03299730
 20
-32.95646526
  0
VERTEX
  8
0
 10
64.83065682
 20
-32.88701852
  0
VERTEX
  8
0
 10
64.61484582
 20
-32.82883347
  0
VERTEX
  8
0
 10
64.13116920
 20
-32.72143795
  0
VERTEX
  8
0
 10
63.92499522
 20
-32.68804789
  0
VERTEX
  8
0
 10
63.72835838
 20
-32.67862894
  0
VERTEX
  8
0
 10
63.54225834
 20
-32.69212169
  0
VERTEX
  8
0
 10
63.36769481
 20
-32.72746673
  0
VERTEX
  8
0
 10
63.20566745
 20
-32.78360465
  0
VERTEX
  8
0
 10
63.05717594
 20
-32.85947606
  0
VERTEX
  8
0
 10
62.92321997
 20
-32.95402154
  0
VERTEX
  8
0
 10
62.80479922
 20
-33.06618170
  0
VERTEX
  8
0
 10
62.70291337
 20
-33.19489711
  0
VERTEX
  8
0
 10
62.61856209
 20
-33.33910838
  0
VERTEX
  8
0
 10
62.55274507
 20
-33.49775610
  0
VERTEX
  8
0
 10
62.50646199
 20
-33.66978086
  0
VERTEX
  8
0
 10
62.48071252
 20
-33.85412326
  0
VERTEX
  8
0
 10
62.47649636
 20
-34.04972390
  0
VERTEX
  8
0
 10
62.49481317
 20
-34.25552336
  0
VERTEX
  8
0
 10
62.53666264
 20
-34.47046224
  0
VERTEX
  8
0
 10
62.59203118
 20
-34.65431930
  0
VERTEX
  8
0
 10
62.66108776
 20
-34.81519543
  0
VERTEX
  8
0
 10
62.74289135
 20
-34.95458424
  0
VERTEX
  8
0
 10
62.83650091
 20
-35.07397936
  0
VERTEX
  8
0
 10
62.94097543
 20
-35.17487441
  0
VERTEX
  8
0
 10
63.05537388
 20
-35.25876301
  0
VERTEX
  8
0
 10
63.17875522
 20
-35.32713879
  0
VERTEX
  8
0
 10
63.31017843
 20
-35.38149537
  0
VERTEX
  8
0
 10
63.59338633
 20
-35.45412540
  0
VERTEX
  8
0
 10
63.89746935
 20
-35.48860210
  0
VERTEX
  8
0
 10
64.21489928
 20
-35.49687442
  0
VERTEX
  8
0
 10
64.53814788
 20
-35.49089137
 42
-0.14651119
  0
VERTEX
  8
0
 10
57.27934518
 20
-42.23851077
 42
0.25693220
  0
VERTEX
  8
0
 10
54.57007376
 20
-46.83916037
  0
VERTEX
  8
0
 10
54.67231041
 20
-51.54204662
  0
VERTEX
  8
0
 10
53.34323386
 20
-51.59316495
  0
VERTEX
  8
0
 10
55.38796702
 20
-55.22256629
  0
VERTEX
  8
0
 10
56.20586028
 20
-55.27368462
  0
VERTEX
  8
0
 10
56.41033359
 20
-52.56441320
  0
VERTEX
  8
0
 10
68.06531257
 20
-52.87112317
  0
VERTEX
  8
0
 10
69.34327079
 20
-55.68263125
  0
VERTEX
  8
0
 10
71.89918723
 20
-52.00211158
  0
VERTEX
  8
0
 10
69.08767914
 20
-52.00211158
  0
VERTEX
  8
0
 10
69.03656081
 20
-30.22570350
  0
VERTEX
  8
0
 10
65.76498777
 20
-30.22570350
  0
SEQEND
  0
POLYLINE
  8
По умолчанию
 66
   1
 39
0.000000
 70
    1
  0
VERTEX
  8
0
 10
83.69697035
 20
2.35777573
  0
VERTEX
  8
0
 10
86.04841347
 20
9.87217007
  0
VERTEX
  8
0
 10
71.42857143
 20
9.92296124
  0
VERTEX
  8
0
 10
68.51441774
 20
9.92296124
  0
VERTEX
  8
0
 10
68.51441774
 20
-15.32883888
  0
VERTEX
  8
0
 10
71.42857143
 20
-15.32883888
  0
VERTEX
  8
0
 10
71.42857143
 20
8.59281771
  0
VERTEX
  8
0
 10
82.06118382
 20
8.56865269
  0
VERTEX
  8
0
 10
83.69697035
 20
2.35777573
  0
SEQEND
  0
POLYLINE
  8
По умолчанию
 66
   1
 39
0.000000
 70
    1
  0
VERTEX
  8
0
 10
73.31970423
 20
14.35871922
  0
VERTEX
  8
0
 10
76.69474077
 20
12.47961379
  0
VERTEX
  8
0
 10
79.14743908
 20
12.47961379
  0
VERTEX
  8
0
 10
79.14743908
 20
15.95484225
  0
VERTEX
  8
0
 10
76.69474077
 20
15.95484225
  0
VERTEX
  8
0
 10
76.69474077
 20
13.91088731
  0
VERTEX
  8
0
 10
73.31970423
 20
15.85407780
  0
VERTEX
  8
0
 10
70.86586086
 20
15.85407780
  0
VERTEX
  8
0
 10
70.86586086
 20
12.47961379
  0
VERTEX
  8
0
 10
73.31970423
 20
12.47961379
  0
VERTEX
  8
0
 10
73.31970423
 20
14.35871922
  0
SEQEND
  0
POLYLINE
  8
По умолчанию
 66
   1
 39
0.000000
 70
    1
  0
VERTEX
  8
0
 10
-75.83319202
 20
22.68209399
  0
VERTEX
  8
0
 10
-72.91903833
 20
22.68209399
  0
VERTEX
  8
0
 10
-72.91903833
 20
47.93389411
  0
VERTEX
  8
0
 10
-75.83319202
 20
47.93389411
  0
VERTEX
  8
0
 10
-75.83319202
 20
22.68209399
  0
SEQEND
  0
POLYLINE
  8
По умолчанию
 66
   1
 39
0.000000
 70
    1
  0
VERTEX
  8
0
 10
7.26441774
 20
60.04959236
  0
VERTEX
  8
0
 10
10.17857143
 20
60.04959236
  0
VERTEX
  8
0
 10
10.17857143
 20
85.30139248
  0
VERTEX
  8
0
 10
7.26441774
 20
85.30139248
  0
VERTEX
  8
0
 10
7.26441774
 20
60.04959236
  0
SEQEND
  0
POLYLINE
  8
По умолчанию
 66
   1
 39
0.000000
 70
    1
  0
VERTEX
  8
0
 10
-6.33264878
 20
83.99820225
 42
-0.14338499
  0
VERTEX
  8
0
 10
0.51720728
 20
83.99820225
 42
-0.67525411
  0
VERTEX
  8
0
 10
0.51720728
 20
79.85761762
 42
-0.28935042
  0
VERTEX
  8
0
 10
-2.65212911
 20
80.52215589
  0
VERTEX
  8
0
 10
-4.08344231
 20
80.47103756
  0
VERTEX
  8
0
 10
-9.50198517
 20
74.23460145
  0
VERTEX
  8
0
 10
-9.45086684
 20
79.49978932
 42
-0.28697437
  0
VERTEX
  8
0
 10
-6.33264878
 20
83.99820225
  0
SEQEND
  0
POLYLINE
  8
По умолчанию
 66
   1
 39
0.000000
 70
    1
  0
VERTEX
  8
0
 10
-13.28474150
 20
60.27929768
  0
VERTEX
  8
0
 10
4.35108194
 20
60.02370604
  0
VERTEX
  8
0
 10
4.70891024
 20
70.09401681
 42
-0.08323031
  0
VERTEX
  8
0
 10
-0.76075094
 20
69.37836021
 42
-0.16625996
  0
VERTEX
  8
0
 10
-8.47961859
 20
73.16111654
  0
VERTEX
  8
0
 10
-3.52114070
 20
78.83525104
 42
0.17005132
  0
VERTEX
  8
0
 10
-1.78311752
 20
77.30170118
 42
0.19258240
  0
VERTEX
  8
0
 10
3.68654367
 20
77.35281951
 42
0.51861217
  0
VERTEX
  8
0
 10
3.83989865
 20
83.99820225
 42
0.15102677
  0
VERTEX
  8
0
 10
-2.85660242
 20
85.99181708
 42
0.08761062
  0
VERTEX
  8
0
 10
-8.22402695
 20
85.17392382
 42
0.29790877
  0
VERTEX
  8
0
 10
-12.97803153
 20
79.75538096
  0
VERTEX
  8
0
 10
-13.28474150
 20
60.27929768
  0
SEQEND
  0
POLYLINE
  8
По умолчанию
 66
   1
 39
0.000000
 70
    1
  0
VERTEX
  8
0
 10
-9.70645848
 20
71.72980334
 42
-0.20721515
  0
VERTEX
  8
0
 10
-8.73521024
 20
71.78092166
 42
0.23052915
  0
VERTEX
  8
0
 10
1.23286388
 20
67.89592867
  0
VERTEX
  8
0
 10
1.23286388
 20
67.38474539
  0
VERTEX
  8
0
 10
1.13062723
 20
61.14830927
  0
VERTEX
  8
0
 10
-9.70645848
 20
61.35278258
  0
VERTEX
  8
0
 10
-9.70645848
 20
71.72980334
  0
SEQEND
  0
POLYLINE
  8
По умолчанию
 66
   1
 39
0.000000
 70
    1
  0
VERTEX
  8
0
 10
63.00459801
 20
46.80961803
 42
-0.14338499
  0
VERTEX
  8
0
 10
69.85445407
 20
46.80961803
 42
-0.67525411
  0
VERTEX
  8
0
 10
69.85445407
 20
42.66903340
 42
-0.28935042
  0
VERTEX
  8
0
 10
66.68511769
 20
43.33357167
  0
VERTEX
  8
0
 10
65.25380448
 20
43.28245335
  0
VERTEX
  8
0
 10
59.83526163
 20
37.04601723
  0
VERTEX
  8
0
 10
59.88637995
 20
42.31120510
 42
-0.28697437
  0
VERTEX
  8
0
 10
63.00459801
 20
46.80961803
  0
SEQEND
  0
POLYLINE
  8
По умолчанию
 66
   1
 39
0.000000
 70
    1
  0
VERTEX
  8
0
 10
56.05250529
 20
23.09071346
  0
VERTEX
  8
0
 10
73.68832874
 20
22.83512182
  0
VERTEX
  8
0
 10
74.04615704
 20
32.90543260
 42
-0.08323031
  0
VERTEX
  8
0
 10
68.57649585
 20
32.18977599
 42
-0.16625996
  0
VERTEX
  8
0
 10
60.85762820
 20
35.97253232
  0
VERTEX
  8
0
 10
65.81610610
 20
41.64666682
 42
0.17005132
  0
VERTEX
  8
0
 10
67.55412928
 20
40.11311696
 42
0.19258240
  0
VERTEX
  8
0
 10
73.02379046
 20
40.16423529
 42
0.51861217
  0
VERTEX
  8
0
 10
73.17714545
 20
46.80961803
 42
0.15102677
  0
VERTEX
  8
0
 10
66.48064437
 20
48.80323286
 42
0.08761062
  0
VERTEX
  8
0
 10
61.11321985
 20
47.98533960
 42
0.29790877
  0
VERTEX
  8
0
 10
56.35921527
 20
42.56679674
  0
VERTEX
  8
0
 10
56.05250529
 20
23.09071346
  0
SEQEND
  0
POLYLINE
  8
По умолчанию
 66
   1
 39
0.000000
 70
    1
  0
VERTEX
  8
0
 10
59.63078831
 20
34.54121912
 42
-0.20721515
  0
VERTEX
  8
0
 10
60.60203656
 20
34.59233745
 42
0.23052915
  0
VERTEX
  8
0
 10
70.57011068
 20
30.70734446
  0
VERTEX
  8
0
 10
70.57011068
 20
30.19616117
  0
VERTEX
  8
0
 10
70.46787402
 20
23.95972505
  0
VERTEX
  8
0
 10
59.63078831
 20
24.16419837
  0
VERTEX
  8
0
 10
59.63078831
 20
34.54121912
  0
SEQEND
  0
POLYLINE
  8
По умолчанию
 66
   1
 39
0.000000
 70
    1
  0
VERTEX
  8
0
 10
30.23791282
 20
63.78090320
 42
0.23606798
  0
VERTEX
  8
0
 10
28.09094300
 20
59.99814687
 42
0.32427820
  0
VERTEX
  8
0
 10
29.36890123
 20
57.80005873
 42
0.30232877
  0
VERTEX
  8
0
 10
32.18040931
 20
59.18025361
 42
0.04647439
  0
VERTEX
  8
0
 10
37.29166967
 20
66.11733601
  0
VERTEX
  8
0
 10
37.29166967
 20
69.22839376
 42
-0.14390082
  0
VERTEX
  8
0
 10
30.23791282
 20
63.78090320
  0
SEQEND
  0
POLYLINE
  8
По умолчанию
 66
   1
 39
0.000000
 70
    1
  0
VERTEX
  8
0
 10
37.29166967
 20
64.54311805
  0
VERTEX
  8
0
 10
37.29166967
 20
49.97895442
  0
VERTEX
  8
0
 10
40.20582336
 20
49.97895442
  0
VERTEX
  8
0
 10
40.20582336
 20
75.23075455
  0
VERTEX
  8
0
 10
37.29166967
 20
75.23075455
  0
VERTEX
  8
0
 10
37.29166967
 20
73.44108530
 42
0.00299564
  0
VERTEX
  8
0
 10
37.08776888
 20
73.69785900
  0
VERTEX
  8
0
 10
36.95360301
 20
73.82839412
  0
VERTEX
  8
0
 10
36.80977419
 20
73.94614677
  0
VERTEX
  8
0
 10
36.65743737
 20
74.05076876
  0
VERTEX
  8
0
 10
36.49774751
 20
74.14191189
  0
VERTEX
  8
0
 10
36.33185955
 20
74.21922797
  0
VERTEX
  8
0
 10
36.16092847
 20
74.28236882
  0
VERTEX
  8
0
 10
35.98610920
 20
74.33098625
  0
VERTEX
  8
0
 10
35.80855670
 20
74.36473207
  0
VERTEX
  8
0
 10
35.62942593
 20
74.38325810
  0
VERTEX
  8
0
 10
35.44987185
 20
74.38621613
  0
VERTEX
  8
0
 10
35.27104940
 20
74.37325798
  0
VERTEX
  8
0
 10
35.09411355
 20
74.34403547
  0
VERTEX
  8
0
 10
34.92021924
 20
74.29820040
  0
VERTEX
  8
0
 10
34.75052143
 20
74.23540458
  0
VERTEX
  8
0
 10
34.58617508
 20
74.15529983
  0
VERTEX
  8
0
 10
34.42833514
 20
74.05753796
  0
VERTEX
  8
0
 10
34.16385663
 20
73.85982107
  0
VERTEX
  8
0
 10
33.91596904
 20
73.64186137
  0
VERTEX
  8
0
 10
33.69100002
 20
73.40455121
  0
VERTEX
  8
0
 10
33.49527723
 20
73.14878293
  0
VERTEX
  8
0
 10
33.33512834
 20
72.87544886
  0
VERTEX
  8
0
 10
33.21688099
 20
72.58544134
  0
VERTEX
  8
0
 10
33.14686286
 20
72.27965271
  0
VERTEX
  8
0
 10
33.13140159
 20
71.95897532
 42
0.39908665
  0
VERTEX
  8
0
 10
34.53185244
 20
70.52852261
 42
0.65564663
  0
VERTEX
  8
0
 10
35.70757400
 20
72.87996573
  0
VERTEX
  8
0
 10
35.64367609
 20
72.98220239
  0
VERTEX
  8
0
 10
35.63089651
 20
73.12277780
  0
VERTEX
  8
0
 10
35.70757400
 20
73.31447153
  0
VERTEX
  8
0
 10
35.82259024
 20
73.34003069
  0
VERTEX
  8
0
 10
36.12930021
 20
73.30169195
  0
VERTEX
  8
0
 10
36.46156935
 20
73.18667571
  0
VERTEX
  8
0
 10
36.64048350
 20
73.03332072
  0
VERTEX
  8
0
 10
36.88329556
 20
72.73939033
  0
VERTEX
  8
0
 10
37.03665055
 20
72.53491701
  0
VERTEX
  8
0
 10
37.15166679
 20
72.35600286
  0
VERTEX
  8
0
 10
37.20278512
 20
72.07485206
  0
VERTEX
  8
0
 10
37.20278512
 20
71.71702375
  0
VERTEX
  8
0
 10
37.19000554
 20
71.42309336
 42
-0.18054880
  0
VERTEX
  8
0
 10
29.31778290
 20
65.46780805
 42
0.27438680
  0
VERTEX
  8
0
 10
25.07496160
 20
58.92466197
 42
0.31257123
  0
VERTEX
  8
0
 10
26.50627481
 20
56.41986385
 42
0.01354490
  0
VERTEX
  8
0
 10
26.70649893
 20
56.31401814
  0
VERTEX
  8
0
 10
26.43357858
 20
56.25534099
  0
VERTEX
  8
0
 10
26.18134628
 20
56.14999897
  0
VERTEX
  8
0
 10
25.95464150
 20
56.00283789
  0
VERTEX
  8
0
 10
25.75830366
 20
55.81870357
  0
VERTEX
  8
0
 10
25.59717223
 20
55.60244182
  0
VERTEX
  8
0
 10
25.47608666
 20
55.35889847
  0
VERTEX
  8
0
 10
25.39988638
 20
55.09291934
  0
VERTEX
  8
0
 10
25.37341086
 20
54.80935023
  0
VERTEX
  8
0
 10
25.38578535
 20
54.61844003
  0
VERTEX
  8
0
 10
25.42089497
 20
54.43040009
  0
VERTEX
  8
0
 10
25.52278324
 20
54.15202016
  0
VERTEX
  8
0
 10
25.67416565
 20
53.90296630
  0
VERTEX
  8
0
 10
25.87002160
 20
53.68705661
  0
VERTEX
  8
0
 10
26.10446992
 20
53.51231754
  0
VERTEX
  8
0
 10
26.36806020
 20
53.38495102
  0
VERTEX
  8
0
 10
26.47306411
 20
53.35112368
 42
-0.21464031
  0
VERTEX
  8
0
 10
25.02384328
 20
50.77128852
  0
VERTEX
  8
0
 10
25.02384328
 20
50.10675024
  0
VERTEX
  8
0
 10
29.11330958
 20
50.08119108
  0
VERTEX
  8
0
 10
29.11330958
 20
50.74572935
 42
-0.33407756
  0
VERTEX
  8
0
 10
27.33920631
 20
53.36134388
  0
VERTEX
  8
0
 10
27.51220731
 20
53.42680587
  0
VERTEX
  8
0
 10
27.67561001
 20
53.51274246
  0
VERTEX
  8
0
 10
27.83968368
 20
53.62794562
  0
VERTEX
  8
0
 10
27.98699720
 20
53.76357718
  0
VERTEX
  8
0
 10
28.11537568
 20
53.91726776
  0
VERTEX
  8
0
 10
28.22264422
 20
54.08664796
  0
VERTEX
  8
0
 10
28.30049912
 20
54.25439217
  0
VERTEX
  8
0
 10
28.35811317
 20
54.43037580
  0
VERTEX
  8
0
 10
28.39306831
 20
54.61842166
  0
VERTEX
  8
0
 10
28.40550475
 20
54.80935023
  0
VERTEX
  8
0
 10
28.39667146
 20
54.97395891
  0
VERTEX
  8
0
 10
28.37078057
 20
55.13345635
  0
VERTEX
  8
0
 10
28.32874562
 20
55.28692869
  0
VERTEX
  8
0
 10
28.27148012
 20
55.43346207
  0
VERTEX
  8
0
 10
28.19989759
 20
55.57214261
  0
VERTEX
  8
0
 10
28.11491154
 20
55.70205647
  0
VERTEX
  8
0
 10
28.01743548
 20
55.82228977
  0
VERTEX
  8
0
 10
27.90838295
 20
55.93192865
 42
0.03095201
  0
VERTEX
  8
0
 10
28.42321214
 20
55.88312140
 42
0.11865773
  0
VERTEX
  8
0
 10
32.30820513
 20
57.16107962
 42
0.10469555
  0
VERTEX
  8
0
 10
33.91843249
 20
58.97578029
 42
-0.00697944
  0
VERTEX
  8
0
 10
37.29166967
 20
64.54311805
  0
SEQEND
  0
POLYLINE
  8
По умолчанию
 66
   1
 39
0.000000
 70
    1
  0
VERTEX
  8
0
 10
-52.62506178
 20
60.76492180
 42
0.23606798
  0
VERTEX
  8
0
 10
-54.77203159
 20
56.98216547
 42
0.32427820
  0
VERTEX
  8
0
 10
-53.49407337
 20
54.78407733
 42
0.30232877
  0
VERTEX
  8
0
 10
-50.68256529
 20
56.16427221
 42
0.04647439
  0
VERTEX
  8
0
 10
-45.57130493
 20
63.10135461
  0
VERTEX
  8
0
 10
-45.57130493
 20
66.21241236
 42
-0.14390082
  0
VERTEX
  8
0
 10
-52.62506178
 20
60.76492180
  0
SEQEND
  0
POLYLINE
  8
По умолчанию
 66
   1
 39
0.000000
 70
    1
  0
VERTEX
  8
0
 10
-45.57130493
 20
61.52713665
  0
VERTEX
  8
0
 10
-45.57130493
 20
46.96297302
  0
VERTEX
  8
0
 10
-42.65715124
 20
46.96297302
  0
VERTEX
  8
0
 10
-42.65715124
 20
72.21477314
  0
VERTEX
  8
0
 10
-45.57130493
 20
72.21477314
  0
VERTEX
  8
0
 10
-45.57130493
 20
70.42510390
 42
0.00299564
  0
VERTEX
  8
0
 10
-45.77520572
 20
70.68187759
  0
VERTEX
  8
0
 10
-45.90937159
 20
70.81241272
  0
VERTEX
  8
0
 10
-46.05320041
 20
70.93016537
  0
VERTEX
  8
0
 10
-46.20553723
 20
71.03478736
  0
VERTEX
  8
0
 10
-46.36522709
 20
71.12593048
  0
VERTEX
  8
0
 10
-46.53111505
 20
71.20324657
  0
VERTEX
  8
0
 10
-46.70204613
 20
71.26638742
  0
VERTEX
  8
0
 10
-46.87686540
 20
71.31500485
  0
VERTEX
  8
0
 10
-47.05441790
 20
71.34875067
  0
VERTEX
  8
0
 10
-47.23354867
 20
71.36727669
  0
VERTEX
  8
0
 10
-47.41310275
 20
71.37023473
  0
VERTEX
  8
0
 10
-47.59192520
 20
71.35727658
  0
VERTEX
  8
0
 10
-47.76886105
 20
71.32805406
  0
VERTEX
  8
0
 10
-47.94275536
 20
71.28221899
  0
VERTEX
  8
0
 10
-48.11245317
 20
71.21942318
  0
VERTEX
  8
0
 10
-48.27679952
 20
71.13931843
  0
VERTEX
  8
0
 10
-48.43463946
 20
71.04155656
  0
VERTEX
  8
0
 10
-48.69911797
 20
70.84383967
  0
VERTEX
  8
0
 10
-48.94700556
 20
70.62587997
  0
VERTEX
  8
0
 10
-49.17197458
 20
70.38856981
  0
VERTEX
  8
0
 10
-49.36769737
 20
70.13280153
  0
VERTEX
  8
0
 10
-49.52784626
 20
69.85946746
  0
VERTEX
  8
0
 10
-49.64609361
 20
69.56945994
  0
VERTEX
  8
0
 10
-49.71611174
 20
69.26367131
  0
VERTEX
  8
0
 10
-49.73157301
 20
68.94299392
 42
0.39908665
  0
VERTEX
  8
0
 10
-48.33112216
 20
67.51254121
 42
0.65564663
  0
VERTEX
  8
0
 10
-47.15540060
 20
69.86398433
  0
VERTEX
  8
0
 10
-47.21929851
 20
69.96622099
  0
VERTEX
  8
0
 10
-47.23207809
 20
70.10679640
  0
VERTEX
  8
0
 10
-47.15540060
 20
70.29849013
  0
VERTEX
  8
0
 10
-47.04038436
 20
70.32404929
  0
VERTEX
  8
0
 10
-46.73367439
 20
70.28571055
  0
VERTEX
  8
0
 10
-46.40140525
 20
70.17069431
  0
VERTEX
  8
0
 10
-46.22249110
 20
70.01733932
  0
VERTEX
  8
0
 10
-45.97967904
 20
69.72340893
  0
VERTEX
  8
0
 10
-45.82632405
 20
69.51893561
  0
VERTEX
  8
0
 10
-45.71130781
 20
69.34002146
  0
VERTEX
  8
0
 10
-45.66018948
 20
69.05887065
  0
VERTEX
  8
0
 10
-45.66018948
 20
68.70104235
  0
VERTEX
  8
0
 10
-45.67296906
 20
68.40711196
 42
-0.18054880
  0
VERTEX
  8
0
 10
-53.54519170
 20
62.45182665
 42
0.27438680
  0
VERTEX
  8
0
 10
-57.78801300
 20
55.90868057
 42
0.31257123
  0
VERTEX
  8
0
 10
-56.35669979
 20
53.40388245
 42
0.01354490
  0
VERTEX
  8
0
 10
-56.15647567
 20
53.29803674
  0
VERTEX
  8
0
 10
-56.42939602
 20
53.23935959
  0
VERTEX
  8
0
 10
-56.68162832
 20
53.13401757
  0
VERTEX
  8
0
 10
-56.90833310
 20
52.98685649
  0
VERTEX
  8
0
 10
-57.10467094
 20
52.80272217
  0
VERTEX
  8
0
 10
-57.26580237
 20
52.58646042
  0
VERTEX
  8
0
 10
-57.38688794
 20
52.34291707
  0
VERTEX
  8
0
 10
-57.46308822
 20
52.07693794
  0
VERTEX
  8
0
 10
-57.48956374
 20
51.79336883
  0
VERTEX
  8
0
 10
-57.47718925
 20
51.60245863
  0
VERTEX
  8
0
 10
-57.44207963
 20
51.41441869
  0
VERTEX
  8
0
 10
-57.34019136
 20
51.13603876
  0
VERTEX
  8
0
 10
-57.18880895
 20
50.88698490
  0
VERTEX
  8
0
 10
-56.99295300
 20
50.67107521
  0
VERTEX
  8
0
 10
-56.75850468
 20
50.49633614
  0
VERTEX
  8
0
 10
-56.49491440
 20
50.36896962
  0
VERTEX
  8
0
 10
-56.38991049
 20
50.33514228
 42
-0.21464031
  0
VERTEX
  8
0
 10
-57.83913132
 20
47.75530712
  0
VERTEX
  8
0
 10
-57.83913132
 20
47.09076884
  0
VERTEX
  8
0
 10
-53.74966502
 20
47.06520968
  0
VERTEX
  8
0
 10
-53.74966502
 20
47.72974795
 42
-0.33407756
  0
VERTEX
  8
0
 10
-55.52376829
 20
50.34536248
  0
VERTEX
  8
0
 10
-55.35076729
 20
50.41082447
  0
VERTEX
  8
0
 10
-55.18736459
 20
50.49676106
  0
VERTEX
  8
0
 10
-55.02329092
 20
50.61196422
  0
VERTEX
  8
0
 10
-54.87597740
 20
50.74759578
  0
VERTEX
  8
0
 10
-54.74759892
 20
50.90128636
  0
VERTEX
  8
0
 10
-54.64033038
 20
51.07066656
  0
VERTEX
  8
0
 10
-54.56247548
 20
51.23841077
  0
VERTEX
  8
0
 10
-54.50486143
 20
51.41439440
  0
VERTEX
  8
0
 10
-54.46990629
 20
51.60244025
  0
VERTEX
  8
0
 10
-54.45746985
 20
51.79336883
  0
VERTEX
  8
0
 10
-54.46630314
 20
51.95797751
  0
VERTEX
  8
0
 10
-54.49219403
 20
52.11747495
  0
VERTEX
  8
0
 10
-54.53422898
 20
52.27094729
  0
VERTEX
  8
0
 10
-54.59149448
 20
52.41748067
  0
VERTEX
  8
0
 10
-54.66307701
 20
52.55616121
  0
VERTEX
  8
0
 10
-54.74806306
 20
52.68607507
  0
VERTEX
  8
0
 10
-54.84553912
 20
52.80630837
  0
VERTEX
  8
0
 10
-54.95459165
 20
52.91594725
 42
0.03095201
  0
VERTEX
  8
0
 10
-54.43976246
 20
52.86714000
 42
0.11865773
  0
VERTEX
  8
0
 10
-50.55476947
 20
54.14509822
 42
0.10469555
  0
VERTEX
  8
0
 10
-48.94454211
 20
55.95979889
 42
-0.00697944
  0
VERTEX
  8
0
 10
-45.57130493
 20
61.52713665
  0
SEQEND
  0
POLYLINE
  8
По умолчанию
 66
   1
 39
0.000000
 70
    1
  0
VERTEX
  8
0
 10
-40.15259850
 20
46.96297302
  0
VERTEX
  8
0
 10
-37.23844481
 20
46.96297302
  0
VERTEX
  8
0
 10
-37.23844481
 20
72.21477314
  0
VERTEX
  8
0
 10
-40.15259850
 20
72.21477314
  0
VERTEX
  8
0
 10
-40.15259850
 20
46.96297302
  0
SEQEND
  0
POLYLINE
  8
По умолчанию
 66
   1
 39
0.000000
 70
    1
  0
VERTEX
  8
0
 10
-42.97059200
 20
76.08244839
  0
VERTEX
  8
0
 10
-39.59555545
 20
74.20334296
  0
VERTEX
  8
0
 10
-37.14285714
 20
74.20334296
  0
VERTEX
  8
0
 10
-37.14285714
 20
77.67857143
  0
VERTEX
  8
0
 10
-39.59555545
 20
77.67857143
  0
VERTEX
  8
0
 10
-39.59555545
 20
75.63461649
  0
VERTEX
  8
0
 10
-42.97059200
 20
77.57780698
  0
VERTEX
  8
0
 10
-45.42443536
 20
77.57780698
  0
VERTEX
  8
0
 10
-45.42443536
 20
74.20334296
  0
VERTEX
  8
0
 10
-42.97059200
 20
74.20334296
  0
VERTEX
  8
0
 10
-42.97059200
 20
76.08244839
  0
SEQEND
  0
POLYLINE
  8
По умолчанию
 66
   1
 39
0.000000
 70
    1
  0
VERTEX
  8
0
 10
-3.78571429
 20
95.00000000
  0
VERTEX
  8
0
 10
-3.77538851
 20
95.20448838
  0
VERTEX
  8
0
 10
-3.74508139
 20
95.40306976
  0
VERTEX
  8
0
 10
-3.69579824
 20
95.59473882
  0
VERTEX
  8
0
 10
-3.62854437
 20
95.77849026
  0
VERTEX
  8
0
 10
-3.54432509
 20
95.95331876
  0
VERTEX
  8
0
 10
-3.44414570
 20
96.11821902
  0
VERTEX
  8
0
 10
-3.32901151
 20
96.27218572
  0
VERTEX
  8
0
 10
-3.19992785
 20
96.41421356
  0
VERTEX
  8
0
 10
-3.05790001
 20
96.54329723
  0
VERTEX
  8
0
 10
-2.90393330
 20
96.65843141
  0
VERTEX
  8
0
 10
-2.73903305
 20
96.75861080
  0
VERTEX
  8
0
 10
-2.56420454
 20
96.84283009
  0
VERTEX
  8
0
 10
-2.38045311
 20
96.91008396
  0
VERTEX
  8
0
 10
-2.18878404
 20
96.95936711
  0
VERTEX
  8
0
 10
-1.99020267
 20
96.98967423
  0
VERTEX
  8
0
 10
-1.78571429
 20
97.00000000
  0
VERTEX
  8
0
 10
-1.58122590
 20
96.98967423
  0
VERTEX
  8
0
 10
-1.38264453
 20
96.95936711
  0
VERTEX
  8
0
 10
-1.19097547
 20
96.91008396
  0
VERTEX
  8
0
 10
-1.00722403
 20
96.84283009
  0
VERTEX
  8
0
 10
-0.83239553
 20
96.75861080
  0
VERTEX
  8
0
 10
-0.66749527
 20
96.65843141
  0
VERTEX
  8
0
 10
-0.51352856
 20
96.54329723
  0
VERTEX
  8
0
 10
-0.37150072
 20
96.41421356
  0
VERTEX
  8
0
 10
-0.24241706
 20
96.27218572
  0
VERTEX
  8
0
 10
-0.12728287
 20
96.11821902
  0
VERTEX
  8
0
 10
-0.02710349
 20
95.95331876
  0
VERTEX
  8
0
 10
0.05711580
 20
95.77849026
  0
VERTEX
  8
0
 10
0.12436967
 20
95.59473882
  0
VERTEX
  8
0
 10
0.17365282
 20
95.40306976
  0
VERTEX
  8
0
 10
0.20395994
 20
95.20448838
  0
VERTEX
  8
0
 10
0.21428571
 20
95.00000000
  0
VERTEX
  8
0
 10
0.20395994
 20
94.79551162
  0
VERTEX
  8
0
 10
0.17365282
 20
94.59693024
  0
VERTEX
  8
0
 10
0.12436967
 20
94.40526118
  0
VERTEX
  8
0
 10
0.05711580
 20
94.22150974
  0
VERTEX
  8
0
 10
-0.02710349
 20
94.04668124
  0
VERTEX
  8
0
 10
-0.12728287
 20
93.88178098
  0
VERTEX
  8
0
 10
-0.24241706
 20
93.72781428
  0
VERTEX
  8
0
 10
-0.37150072
 20
93.58578644
  0
VERTEX
  8
0
 10
-0.51352856
 20
93.45670277
  0
VERTEX
  8
0
 10
-0.66749527
 20
93.34156859
  0
VERTEX
  8
0
 10
-0.83239553
 20
93.24138920
  0
VERTEX
  8
0
 10
-1.00722403
 20
93.15716991
  0
VERTEX
  8
0
 10
-1.19097547
 20
93.08991604
  0
VERTEX
  8
0
 10
-1.38264453
 20
93.04063289
  0
VERTEX
  8
0
 10
-1.58122590
 20
93.01032577
  0
VERTEX
  8
0
 10
-1.78571429
 20
93.00000000
  0
VERTEX
  8
0
 10
-1.99020267
 20
93.01032577
  0
VERTEX
  8
0
 10
-2.18878404
 20
93.04063289
  0
VERTEX
  8
0
 10
-2.38045311
 20
93.08991604
  0
VERTEX
  8
0
 10
-2.56420454
 20
93.15716991
  0
VERTEX
  8
0
 10
-2.73903305
 20
93.24138920
  0
VERTEX
  8
0
 10
-2.90393330
 20
93.34156859
  0
VERTEX
  8
0
 10
-3.05790001
 20
93.45670277
  0
VERTEX
  8
0
 10
-3.19992785
 20
93.58578644
  0
VERTEX
  8
0
 10
-3.32901151
 20
93.72781428
  0
VERTEX
  8
0
 10
-3.44414570
 20
93.88178098
  0
VERTEX
  8
0
 10
-3.54432509
 20
94.04668124
  0
VERTEX
  8
0
 10
-3.62854437
 20
94.22150974
  0
VERTEX
  8
0
 10
-3.69579824
 20
94.40526118
  0
VERTEX
  8
0
 10
-3.74508139
 20
94.59693024
  0
VERTEX
  8
0
 10
-3.77538851
 20
94.79551162
  0
VERTEX
  8
0
 10
-3.78571429
 20
95.00000000
  0
SEQEND
  0
POLYLINE
  8
По умолчанию
 66
   1
 39
0.000000
 70
    1
  0
VERTEX
  8
0
 10
91.21428571
 20
0.00000000
  0
VERTEX
  8
0
 10
91.22461149
 20
0.20448838
  0
VERTEX
  8
0
 10
91.25491861
 20
0.40306976
  0
VERTEX
  8
0
 10
91.30420176
 20
0.59473882
  0
VERTEX
  8
0
 10
91.37145563
 20
0.77849026
  0
VERTEX
  8
0
 10
91.45567491
 20
0.95331876
  0
VERTEX
  8
0
 10
91.55585430
 20
1.11821902
  0
VERTEX
  8
0
 10
91.67098849
 20
1.27218572
  0
VERTEX
  8
0
 10
91.80007215
 20
1.41421356
  0
VERTEX
  8
0
 10
91.94209999
 20
1.54329723
  0
VERTEX
  8
0
 10
92.09606670
 20
1.65843141
  0
VERTEX
  8
0
 10
92.26096695
 20
1.75861080
  0
VERTEX
  8
0
 10
92.43579546
 20
1.84283009
  0
VERTEX
  8
0
 10
92.61954689
 20
1.91008396
  0
VERTEX
  8
0
 10
92.81121596
 20
1.95936711
  0
VERTEX
  8
0
 10
93.00979733
 20
1.98967423
  0
VERTEX
  8
0
 10
93.21428571
 20
2.00000000
  0
VERTEX
  8
0
 10
93.41877410
 20
1.98967423
  0
VERTEX
  8
0
 10
93.61735547
 20
1.95936711
  0
VERTEX
  8
0
 10
93.80902453
 20
1.91008396
  0
VERTEX
  8
0
 10
93.99277597
 20
1.84283009
  0
VERTEX
  8
0
 10
94.16760447
 20
1.75861080
  0
VERTEX
  8
0
 10
94.33250473
 20
1.65843141
  0
VERTEX
  8
0
 10
94.48647144
 20
1.54329723
  0
VERTEX
  8
0
 10
94.62849928
 20
1.41421356
  0
VERTEX
  8
0
 10
94.75758294
 20
1.27218572
  0
VERTEX
  8
0
 10
94.87271713
 20
1.11821902
  0
VERTEX
  8
0
 10
94.97289651
 20
0.95331876
  0
VERTEX
  8
0
 10
95.05711580
 20
0.77849026
  0
VERTEX
  8
0
 10
95.12436967
 20
0.59473882
  0
VERTEX
  8
0
 10
95.17365282
 20
0.40306976
  0
VERTEX
  8
0
 10
95.20395994
 20
0.20448838
  0
VERTEX
  8
0
 10
95.21428571
 20
0.00000000
  0
VERTEX
  8
0
 10
95.20395994
 20
-0.20448838
  0
VERTEX
  8
0
 10
95.17365282
 20
-0.40306976
  0
VERTEX
  8
0
 10
95.12436967
 20
-0.59473882
  0
VERTEX
  8
0
 10
95.05711580
 20
-0.77849026
  0
VERTEX
  8
0
 10
94.97289651
 20
-0.95331876
  0
VERTEX
  8
0
 10
94.87271713
 20
-1.11821902
  0
VERTEX
  8
0
 10
94.75758294
 20
-1.27218572
  0
VERTEX
  8
0
 10
94.62849928
 20
-1.41421356
  0
VERTEX
  8
0
 10
94.48647144
 20
-1.54329723
  0
VERTEX
  8
0
 10
94.33250473
 20
-1.65843141
  0
VERTEX
  8
0
 10
94.16760447
 20
-1.75861080
  0
VERTEX
  8
0
 10
93.99277597
 20
-1.84283009
  0
VERTEX
  8
0
 10
93.80902453
 20
-1.91008396
  0
VERTEX
  8
0
 10
93.61735547
 20
-1.95936711
  0
VERTEX
  8
0
 10
93.41877410
 20
-1.98967423
  0
VERTEX
  8
0
 10
93.21428571
 20
-2.00000000
  0
VERTEX
  8
0
 10
93.00979733
 20
-1.98967423
  0
VERTEX
  8
0
 10
92.81121596
 20
-1.95936711
  0
VERTEX
  8
0
 10
92.61954689
 20
-1.91008396
  0
VERTEX
  8
0
 10
92.43579546
 20
-1.84283009
  0
VERTEX
  8
0
 10
92.26096695
 20
-1.75861080
  0
VERTEX
  8
0
 10
92.09606670
 20
-1.65843141
  0
VERTEX
  8
0
 10
91.94209999
 20
-1.54329723
  0
VERTEX
  8
0
 10
91.80007215
 20
-1.41421356
  0
VERTEX
  8
0
 10
91.67098849
 20
-1.27218572
  0
VERTEX
  8
0
 10
91.55585430
 20
-1.11821902
  0
VERTEX
  8
0
 10
91.45567491
 20
-0.95331876
  0
VERTEX
  8
0
 10
91.37145563
 20
-0.77849026
  0
VERTEX
  8
0
 10
91.30420176
 20
-0.59473882
  0
VERTEX
  8
0
 10
91.25491861
 20
-0.40306976
  0
VERTEX
  8
0
 10
91.22461149
 20
-0.20448838
  0
VERTEX
  8
0
 10
91.21428571
 20
0.00000000
  0
SEQEND
  0
POLYLINE
  8
По умолчанию
 66
   1
 39
0.000000
 70
    1
  0
VERTEX
  8
0
 10
-3.78571429
 20
-95.00000000
  0
VERTEX
  8
0
 10
-3.77538851
 20
-94.79551162
  0
VERTEX
  8
0
 10
-3.74508139
 20
-94.59693024
  0
VERTEX
  8
0
 10
-3.69579824
 20
-94.40526118
  0
VERTEX
  8
0
 10
-3.62854437
 20
-94.22150974
  0
VERTEX
  8
0
 10
-3.54432509
 20
-94.04668124
  0
VERTEX
  8
0
 10
-3.44414570
 20
-93.88178098
  0
VERTEX
  8
0
 10
-3.32901151
 20
-93.72781428
  0
VERTEX
  8
0
 10
-3.19992785
 20
-93.58578644
  0
VERTEX
  8
0
 10
-3.05790001
 20
-93.45670277
  0
VERTEX
  8
0
 10
-2.90393330
 20
-93.34156859
  0
VERTEX
  8
0
 10
-2.73903305
 20
-93.24138920
  0
VERTEX
  8
0
 10
-2.56420454
 20
-93.15716991
  0
VERTEX
  8
0
 10
-2.38045311
 20
-93.08991604
  0
VERTEX
  8
0
 10
-2.18878404
 20
-93.04063289
  0
VERTEX
  8
0
 10
-1.99020267
 20
-93.01032577
  0
VERTEX
  8
0
 10
-1.78571429
 20
-93.00000000
  0
VERTEX
  8
0
 10
-1.58122590
 20
-93.01032577
  0
VERTEX
  8
0
 10
-1.38264453
 20
-93.04063289
  0
VERTEX
  8
0
 10
-1.19097547
 20
-93.08991604
  0
VERTEX
  8
0
 10
-1.00722403
 20
-93.15716991
  0
VERTEX
  8
0
 10
-0.83239553
 20
-93.24138920
  0
VERTEX
  8
0
 10
-0.66749527
 20
-93.34156859
  0
VERTEX
  8
0
 10
-0.51352856
 20
-93.45670277
  0
VERTEX
  8
0
 10
-0.37150072
 20
-93.58578644
  0
VERTEX
  8
0
 10
-0.24241706
 20
-93.72781428
  0
VERTEX
  8
0
 10
-0.12728287
 20
-93.88178098
  0
VERTEX
  8
0
 10
-0.02710349
 20
-94.04668124
  0
VERTEX
  8
0
 10
0.05711580
 20
-94.22150974
  0
VERTEX
  8
0
 10
0.12436967
 20
-94.40526118
  0
VERTEX
  8
0
 10
0.17365282
 20
-94.59693024
  0
VERTEX
  8
0
 10
0.20395994
 20
-94.79551162
  0
VERTEX
  8
0
 10
0.21428571
 20
-95.00000000
  0
VERTEX
  8
0
 10
0.20395994
 20
-95.20448838
  0
VERTEX
  8
0
 10
0.17365282
 20
-95.40306976
  0
VERTEX
  8
0
 10
0.12436967
 20
-95.59473882
  0
VERTEX
  8
0
 10
0.05711580
 20
-95.77849026
  0
VERTEX
  8
0
 10
-0.02710349
 20
-95.95331876
  0
VERTEX
  8
0
 10
-0.12728287
 20
-96.11821902
  0
VERTEX
  8
0
 10
-0.24241706
 20
-96.27218572
  0
VERTEX
  8
0
 10
-0.37150072
 20
-96.41421356
  0
VERTEX
  8
0
 10
-0.51352856
 20
-96.54329723
  0
VERTEX
  8
0
 10
-0.66749527
 20
-96.65843141
  0
VERTEX
  8
0
 10
-0.83239553
 20
-96.75861080
  0
VERTEX
  8
0
 10
-1.00722403
 20
-96.84283009
  0
VERTEX
  8
0
 10
-1.19097547
 20
-96.91008396
  0
VERTEX
  8
0
 10
-1.38264453
 20
-96.95936711
  0
VERTEX
  8
0
 10
-1.58122590
 20
-96.98967423
  0
VERTEX
  8
0
 10
-1.78571429
 20
-97.00000000
  0
VERTEX
  8
0
 10
-1.99020267
 20
-96.98967423
  0
VERTEX
  8
0
 10
-2.18878404
 20
-96.95936711
  0
VERTEX
  8
0
 10
-2.38045311
 20
-96.91008396
  0
VERTEX
  8
0
 10
-2.56420454
 20
-96.84283009
  0
VERTEX
  8
0
 10
-2.73903305
 20
-96.75861080
  0
VERTEX
  8
0
 10
-2.90393330
 20
-96.65843141
  0
VERTEX
  8
0
 10
-3.05790001
 20
-96.54329723
  0
VERTEX
  8
0
 10
-3.19992785
 20
-96.41421356
  0
VERTEX
  8
0
 10
-3.32901151
 20
-96.27218572
  0
VERTEX
  8
0
 10
-3.44414570
 20
-96.11821902
  0
VERTEX
  8
0
 10
-3.54432509
 20
-95.95331876
  0
VERTEX
  8
0
 10
-3.62854437
 20
-95.77849026
  0
VERTEX
  8
0
 10
-3.69579824
 20
-95.59473882
  0
VERTEX
  8
0
 10
-3.74508139
 20
-95.40306976
  0
VERTEX
  8
0
 10
-3.77538851
 20
-95.20448838
  0
VERTEX
  8
0
 10
-3.78571429
 20
-95.00000000
  0
SEQEND
  0
POLYLINE
  8
По умолчанию
 66
   1
 39
0.000000
 70
    1
  0
VERTEX
  8
0
 10
-98.78571429
 20
0.00000000
  0
VERTEX
  8
0
 10
-98.77538851
 20
0.20448838
  0
VERTEX
  8
0
 10
-98.74508139
 20
0.40306976
  0
VERTEX
  8
0
 10
-98.69579824
 20
0.59473882
  0
VERTEX
  8
0
 10
-98.62854437
 20
0.77849026
  0
VERTEX
  8
0
 10
-98.54432509
 20
0.95331876
  0
VERTEX
  8
0
 10
-98.44414570
 20
1.11821902
  0
VERTEX
  8
0
 10
-98.32901151
 20
1.27218572
  0
VERTEX
  8
0
 10
-98.19992785
 20
1.41421356
  0
VERTEX
  8
0
 10
-98.05790001
 20
1.54329723
  0
VERTEX
  8
0
 10
-97.90393330
 20
1.65843141
  0
VERTEX
  8
0
 10
-97.73903305
 20
1.75861080
  0
VERTEX
  8
0
 10
-97.56420454
 20
1.84283009
  0
VERTEX
  8
0
 10
-97.38045311
 20
1.91008396
  0
VERTEX
  8
0
 10
-97.18878404
 20
1.95936711
  0
VERTEX
  8
0
 10
-96.99020267
 20
1.98967423
  0
VERTEX
  8
0
 10
-96.78571429
 20
2.00000000
  0
VERTEX
  8
0
 10
-96.58122590
 20
1.98967423
  0
VERTEX
  8
0
 10
-96.38264453
 20
1.95936711
  0
VERTEX
  8
0
 10
-96.19097547
 20
1.91008396
  0
VERTEX
  8
0
 10
-96.00722403
 20
1.84283009
  0
VERTEX
  8
0
 10
-95.83239553
 20
1.75861080
  0
VERTEX
  8
0
 10
-95.66749527
 20
1.65843141
  0
VERTEX
  8
0
 10
-95.51352856
 20
1.54329723
  0
VERTEX
  8
0
 10
-95.37150072
 20
1.41421356
  0
VERTEX
  8
0
 10
-95.24241706
 20
1.27218572
  0
VERTEX
  8
0
 10
-95.12728287
 20
1.11821902
  0
VERTEX
  8
0
 10
-95.02710349
 20
0.95331876
  0
VERTEX
  8
0
 10
-94.94288420
 20
0.77849026
  0
VERTEX
  8
0
 10
-94.87563033
 20
0.59473882
  0
VERTEX
  8
0
 10
-94.82634718
 20
0.40306976
  0
VERTEX
  8
0
 10
-94.79604006
 20
0.20448838
  0
VERTEX
  8
0
 10
-94.78571429
 20
0.00000000
  0
VERTEX
  8
0
 10
-94.79604006
 20
-0.20448838
  0
VERTEX
  8
0
 10
-94.82634718
 20
-0.40306976
  0
VERTEX
  8
0
 10
-94.87563033
 20
-0.59473882
  0
VERTEX
  8
0
 10
-94.94288420
 20
-0.77849026
  0
VERTEX
  8
0
 10
-95.02710349
 20
-0.95331876
  0
VERTEX
  8
0
 10
-95.12728287
 20
-1.11821902
  0
VERTEX
  8
0
 10
-95.24241706
 20
-1.27218572
  0
VERTEX
  8
0
 10
-95.37150072
 20
-1.41421356
  0
VERTEX
  8
0
 10
-95.51352856
 20
-1.54329723
  0
VERTEX
  8
0
 10
-95.66749527
 20
-1.65843141
  0
VERTEX
  8
0
 10
-95.83239553
 20
-1.75861080
  0
VERTEX
  8
0
 10
-96.00722403
 20
-1.84283009
  0
VERTEX
  8
0
 10
-96.19097547
 20
-1.91008396
  0
VERTEX
  8
0
 10
-96.38264453
 20
-1.95936711
  0
VERTEX
  8
0
 10
-96.58122590
 20
-1.98967423
  0
VERTEX
  8
0
 10
-96.78571429
 20
-2.00000000
  0
VERTEX
  8
0
 10
-96.99020267
 20
-1.98967423
  0
VERTEX
  8
0
 10
-97.18878404
 20
-1.95936711
  0
VERTEX
  8
0
 10
-97.38045311
 20
-1.91008396
  0
VERTEX
  8
0
 10
-97.56420454
 20
-1.84283009
  0
VERTEX
  8
0
 10
-97.73903305
 20
-1.75861080
  0
VERTEX
  8
0
 10
-97.90393330
 20
-1.65843141
  0
VERTEX
  8
0
 10
-98.05790001
 20
-1.54329723
  0
VERTEX
  8
0
 10
-98.19992785
 20
-1.41421356
  0
VERTEX
  8
0
 10
-98.32901151
 20
-1.27218572
  0
VERTEX
  8
0
 10
-98.44414570
 20
-1.11821902
  0
VERTEX
  8
0
 10
-98.54432509
 20
-0.95331876
  0
VERTEX
  8
0
 10
-98.62854437
 20
-0.77849026
  0
VERTEX
  8
0
 10
-98.69579824
 20
-0.59473882
  0
VERTEX
  8
0
 10
-98.74508139
 20
-0.40306976
  0
VERTEX
  8
0
 10
-98.77538851
 20
-0.20448838
  0
VERTEX
  8
0
 10
-98.78571429
 20
0.00000000
  0
SEQEND
  0
POLYLINE
  8
По умолчанию
 66
   1
 39
0.000000
 70
    1
  0
VERTEX
  8
0
 10
43.62528571
 20
82.32100000
  0
VERTEX
  8
0
 10
43.63561149
 20
82.52548838
  0
VERTEX
  8
0
 10
43.66591861
 20
82.72406976
  0
VERTEX
  8
0
 10
43.71520176
 20
82.91573882
  0
VERTEX
  8
0
 10
43.78245563
 20
83.09949026
  0
VERTEX
  8
0
 10
43.86667491
 20
83.27431876
  0
VERTEX
  8
0
 10
43.96685430
 20
83.43921902
  0
VERTEX
  8
0
 10
44.08198849
 20
83.59318572
  0
VERTEX
  8
0
 10
44.21107215
 20
83.73521356
  0
VERTEX
  8
0
 10
44.35309999
 20
83.86429723
  0
VERTEX
  8
0
 10
44.50706670
 20
83.97943141
  0
VERTEX
  8
0
 10
44.67196695
 20
84.07961080
  0
VERTEX
  8
0
 10
44.84679546
 20
84.16383009
  0
VERTEX
  8
0
 10
45.03054689
 20
84.23108396
  0
VERTEX
  8
0
 10
45.22221596
 20
84.28036711
  0
VERTEX
  8
0
 10
45.42079733
 20
84.31067423
  0
VERTEX
  8
0
 10
45.62528571
 20
84.32100000
  0
VERTEX
  8
0
 10
45.82977410
 20
84.31067423
  0
VERTEX
  8
0
 10
46.02835547
 20
84.28036711
  0
VERTEX
  8
0
 10
46.22002453
 20
84.23108396
  0
VERTEX
  8
0
 10
46.40377597
 20
84.16383009
  0
VERTEX
  8
0
 10
46.57860447
 20
84.07961080
  0
VERTEX
  8
0
 10
46.74350473
 20
83.97943141
  0
VERTEX
  8
0
 10
46.89747144
 20
83.86429723
  0
VERTEX
  8
0
 10
47.03949928
 20
83.73521356
  0
VERTEX
  8
0
 10
47.16858294
 20
83.59318572
  0
VERTEX
  8
0
 10
47.28371713
 20
83.43921902
  0
VERTEX
  8
0
 10
47.38389651
 20
83.27431876
  0
VERTEX
  8
0
 10
47.46811580
 20
83.09949026
  0
VERTEX
  8
0
 10
47.53536967
 20
82.91573882
  0
VERTEX
  8
0
 10
47.58465282
 20
82.72406976
  0
VERTEX
  8
0
 10
47.61495994
 20
82.52548838
  0
VERTEX
  8
0
 10
47.62528571
 20
82.32100000
  0
VERTEX
  8
0
 10
47.61495994
 20
82.11651162
  0
VERTEX
  8
0
 10
47.58465282
 20
81.91793024
  0
VERTEX
  8
0
 10
47.53536967
 20
81.72626118
  0
VERTEX
  8
0
 10
47.46811580
 20
81.54250974
  0
VERTEX
  8
0
 10
47.38389651
 20
81.36768124
  0
VERTEX
  8
0
 10
47.28371713
 20
81.20278098
  0
VERTEX
  8
0
 10
47.16858294
 20
81.04881428
  0
VERTEX
  8
0
 10
47.03949928
 20
80.90678644
  0
VERTEX
  8
0
 10
46.89747144
 20
80.77770277
  0
VERTEX
  8
0
 10
46.74350473
 20
80.66256859
  0
VERTEX
  8
0
 10
46.57860447
 20
80.56238920
  0
VERTEX
  8
0
 10
46.40377597
 20
80.47816991
  0
VERTEX
  8
0
 10
46.22002453
 20
80.41091604
  0
VERTEX
  8
0
 10
46.02835547
 20
80.36163289
  0
VERTEX
  8
0
 10
45.82977410
 20
80.33132577
  0
VERTEX
  8
0
 10
45.62528571
 20
80.32100000
  0
VERTEX
  8
0
 10
45.42079733
 20
80.33132577
  0
VERTEX
  8
0
 10
45.22221596
 20
80.36163289
  0
VERTEX
  8
0
 10
45.03054689
 20
80.41091604
  0
VERTEX
  8
0
 10
44.84679546
 20
80.47816991
  0
VERTEX
  8
0
 10
44.67196695
 20
80.56238920
  0
VERTEX
  8
0
 10
44.50706670
 20
80.66256859
  0
VERTEX
  8
0
 10
44.35309999
 20
80.77770277
  0
VERTEX
  8
0
 10
44.21107215
 20
80.90678644
  0
VERTEX
  8
0
 10
44.08198849
 20
81.04881428
  0
VERTEX
  8
0
 10
43.96685430
 20
81.20278098
  0
VERTEX
  8
0
 10
43.86667491
 20
81.36768124
  0
VERTEX
  8
0
 10
43.78245563
 20
81.54250974
  0
VERTEX
  8
0
 10
43.71520176
 20
81.72626118
  0
VERTEX
  8
0
 10
43.66591861
 20
81.91793024
  0
VERTEX
  8
0
 10
43.63561149
 20
82.11651162
  0
VERTEX
  8
0
 10
43.62528571
 20
82.32100000
  0
SEQEND
  0
POLYLINE
  8
По умолчанию
 66
   1
 39
0.000000
 70
    1
  0
VERTEX
  8
0
 10
78.53528571
 20
47.50000000
  0
VERTEX
  8
0
 10
78.54561149
 20
47.70448838
  0
VERTEX
  8
0
 10
78.57591861
 20
47.90306976
  0
VERTEX
  8
0
 10
78.62520176
 20
48.09473882
  0
VERTEX
  8
0
 10
78.69245563
 20
48.27849026
  0
VERTEX
  8
0
 10
78.77667491
 20
48.45331876
  0
VERTEX
  8
0
 10
78.87685430
 20
48.61821902
  0
VERTEX
  8
0
 10
78.99198849
 20
48.77218572
  0
VERTEX
  8
0
 10
79.12107215
 20
48.91421356
  0
VERTEX
  8
0
 10
79.26309999
 20
49.04329723
  0
VERTEX
  8
0
 10
79.41706670
 20
49.15843141
  0
VERTEX
  8
0
 10
79.58196695
 20
49.25861080
  0
VERTEX
  8
0
 10
79.75679546
 20
49.34283009
  0
VERTEX
  8
0
 10
79.94054689
 20
49.41008396
  0
VERTEX
  8
0
 10
80.13221596
 20
49.45936711
  0
VERTEX
  8
0
 10
80.33079733
 20
49.48967423
  0
VERTEX
  8
0
 10
80.53528571
 20
49.50000000
  0
VERTEX
  8
0
 10
80.73977410
 20
49.48967423
  0
VERTEX
  8
0
 10
80.93835547
 20
49.45936711
  0
VERTEX
  8
0
 10
81.13002453
 20
49.41008396
  0
VERTEX
  8
0
 10
81.31377597
 20
49.34283009
  0
VERTEX
  8
0
 10
81.48860447
 20
49.25861080
  0
VERTEX
  8
0
 10
81.65350473
 20
49.15843141
  0
VERTEX
  8
0
 10
81.80747144
 20
49.04329723
  0
VERTEX
  8
0
 10
81.94949928
 20
48.91421356
  0
VERTEX
  8
0
 10
82.07858294
 20
48.77218572
  0
VERTEX
  8
0
 10
82.19371713
 20
48.61821902
  0
VERTEX
  8
0
 10
82.29389651
 20
48.45331876
  0
VERTEX
  8
0
 10
82.37811580
 20
48.27849026
  0
VERTEX
  8
0
 10
82.44536967
 20
48.09473882
  0
VERTEX
  8
0
 10
82.49465282
 20
47.90306976
  0
VERTEX
  8
0
 10
82.52495994
 20
47.70448838
  0
VERTEX
  8
0
 10
82.53528571
 20
47.50000000
  0
VERTEX
  8
0
 10
82.52495994
 20
47.29551162
  0
VERTEX
  8
0
 10
82.49465282
 20
47.09693024
  0
VERTEX
  8
0
 10
82.44536967
 20
46.90526118
  0
VERTEX
  8
0
 10
82.37811580
 20
46.72150974
  0
VERTEX
  8
0
 10
82.29389651
 20
46.54668124
  0
VERTEX
  8
0
 10
82.19371713
 20
46.38178098
  0
VERTEX
  8
0
 10
82.07858294
 20
46.22781428
  0
VERTEX
  8
0
 10
81.94949928
 20
46.08578644
  0
VERTEX
  8
0
 10
81.80747144
 20
45.95670277
  0
VERTEX
  8
0
 10
81.65350473
 20
45.84156859
  0
VERTEX
  8
0
 10
81.48860447
 20
45.74138920
  0
VERTEX
  8
0
 10
81.31377597
 20
45.65716991
  0
VERTEX
  8
0
 10
81.13002453
 20
45.58991604
  0
VERTEX
  8
0
 10
80.93835547
 20
45.54063289
  0
VERTEX
  8
0
 10
80.73977410
 20
45.51032577
  0
VERTEX
  8
0
 10
80.53528571
 20
45.50000000
  0
VERTEX
  8
0
 10
80.33079733
 20
45.51032577
  0
VERTEX
  8
0
 10
80.13221596
 20
45.54063289
  0
VERTEX
  8
0
 10
79.94054689
 20
45.58991604
  0
VERTEX
  8
0
 10
79.75679546
 20
45.65716991
  0
VERTEX
  8
0
 10
79.58196695
 20
45.74138920
  0
VERTEX
  8
0
 10
79.41706670
 20
45.84156859
  0
VERTEX
  8
0
 10
79.26309999
 20
45.95670277
  0
VERTEX
  8
0
 10
79.12107215
 20
46.08578644
  0
VERTEX
  8
0
 10
78.99198849
 20
46.22781428
  0
VERTEX
  8
0
 10
78.87685430
 20
46.38178098
  0
VERTEX
  8
0
 10
78.77667491
 20
46.54668124
  0
VERTEX
  8
0
 10
78.69245563
 20
46.72150974
  0
VERTEX
  8
0
 10
78.62520176
 20
46.90526118
  0
VERTEX
  8
0
 10
78.57591861
 20
47.09693024
  0
VERTEX
  8
0
 10
78.54561149
 20
47.29551162
  0
VERTEX
  8
0
 10
78.53528571
 20
47.50000000
  0
SEQEND
  0
POLYLINE
  8
По умолчанию
 66
   1
 39
0.000000
 70
    1
  0
VERTEX
  8
0
 10
78.53528571
 20
-47.58900000
  0
VERTEX
  8
0
 10
78.54561149
 20
-47.38451162
  0
VERTEX
  8
0
 10
78.57591861
 20
-47.18593024
  0
VERTEX
  8
0
 10
78.62520176
 20
-46.99426118
  0
VERTEX
  8
0
 10
78.69245563
 20
-46.81050974
  0
VERTEX
  8
0
 10
78.77667491
 20
-46.63568124
  0
VERTEX
  8
0
 10
78.87685430
 20
-46.47078098
  0
VERTEX
  8
0
 10
78.99198849
 20
-46.31681428
  0
VERTEX
  8
0
 10
79.12107215
 20
-46.17478644
  0
VERTEX
  8
0
 10
79.26309999
 20
-46.04570277
  0
VERTEX
  8
0
 10
79.41706670
 20
-45.93056859
  0
VERTEX
  8
0
 10
79.58196695
 20
-45.83038920
  0
VERTEX
  8
0
 10
79.75679546
 20
-45.74616991
  0
VERTEX
  8
0
 10
79.94054689
 20
-45.67891604
  0
VERTEX
  8
0
 10
80.13221596
 20
-45.62963289
  0
VERTEX
  8
0
 10
80.33079733
 20
-45.59932577
  0
VERTEX
  8
0
 10
80.53528571
 20
-45.58900000
  0
VERTEX
  8
0
 10
80.73977410
 20
-45.59932577
  0
VERTEX
  8
0
 10
80.93835547
 20
-45.62963289
  0
VERTEX
  8
0
 10
81.13002453
 20
-45.67891604
  0
VERTEX
  8
0
 10
81.31377597
 20
-45.74616991
  0
VERTEX
  8
0
 10
81.48860447
 20
-45.83038920
  0
VERTEX
  8
0
 10
81.65350473
 20
-45.93056859
  0
VERTEX
  8
0
 10
81.80747144
 20
-46.04570277
  0
VERTEX
  8
0
 10
81.94949928
 20
-46.17478644
  0
VERTEX
  8
0
 10
82.07858294
 20
-46.31681428
  0
VERTEX
  8
0
 10
82.19371713
 20
-46.47078098
  0
VERTEX
  8
0
 10
82.29389651
 20
-46.63568124
  0
VERTEX
  8
0
 10
82.37811580
 20
-46.81050974
  0
VERTEX
  8
0
 10
82.44536967
 20
-46.99426118
  0
VERTEX
  8
0
 10
82.49465282
 20
-47.18593024
  0
VERTEX
  8
0
 10
82.52495994
 20
-47.38451162
  0
VERTEX
  8
0
 10
82.53528571
 20
-47.58900000
  0
VERTEX
  8
0
 10
82.52495994
 20
-47.79348838
  0
VERTEX
  8
0
 10
82.49465282
 20
-47.99206976
  0
VERTEX
  8
0
 10
82.44536967
 20
-48.18373882
  0
VERTEX
  8
0
 10
82.37811580
 20
-48.36749026
  0
VERTEX
  8
0
 10
82.29389651
 20
-48.54231876
  0
VERTEX
  8
0
 10
82.19371713
 20
-48.70721902
  0
VERTEX
  8
0
 10
82.07858294
 20
-48.86118572
  0
VERTEX
  8
0
 10
81.94949928
 20
-49.00321356
  0
VERTEX
  8
0
 10
81.80747144
 20
-49.13229723
  0
VERTEX
  8
0
 10
81.65350473
 20
-49.24743141
  0
VERTEX
  8
0
 10
81.48860447
 20
-49.34761080
  0
VERTEX
  8
0
 10
81.31377597
 20
-49.43183009
  0
VERTEX
  8
0
 10
81.13002453
 20
-49.49908396
  0
VERTEX
  8
0
 10
80.93835547
 20
-49.54836711
  0
VERTEX
  8
0
 10
80.73977410
 20
-49.57867423
  0
VERTEX
  8
0
 10
80.53528571
 20
-49.58900000
  0
VERTEX
  8
0
 10
80.33079733
 20
-49.57867423
  0
VERTEX
  8
0
 10
80.13221596
 20
-49.54836711
  0
VERTEX
  8
0
 10
79.94054689
 20
-49.49908396
  0
VERTEX
  8
0
 10
79.75679546
 20
-49.43183009
  0
VERTEX
  8
0
 10
79.58196695
 20
-49.34761080
  0
VERTEX
  8
0
 10
79.41706670
 20
-49.24743141
  0
VERTEX
  8
0
 10
79.26309999
 20
-49.13229723
  0
VERTEX
  8
0
 10
79.12107215
 20
-49.00321356
  0
VERTEX
  8
0
 10
78.99198849
 20
-48.86118572
  0
VERTEX
  8
0
 10
78.87685430
 20
-48.70721902
  0
VERTEX
  8
0
 10
78.77667491
 20
-48.54231876
  0
VERTEX
  8
0
 10
78.69245563
 20
-48.36749026
  0
VERTEX
  8
0
 10
78.62520176
 20
-48.18373882
  0
VERTEX
  8
0
 10
78.57591861
 20
-47.99206976
  0
VERTEX
  8
0
 10
78.54561149
 20
-47.79348838
  0
VERTEX
  8
0
 10
78.53528571
 20
-47.58900000
  0
SEQEND
  0
POLYLINE
  8
По умолчанию
 66
   1
 39
0.000000
 70
    1
  0
VERTEX
  8
0
 10
43.62528571
 20
-82.32100000
  0
VERTEX
  8
0
 10
43.63561149
 20
-82.11651162
  0
VERTEX
  8
0
 10
43.66591861
 20
-81.91793024
  0
VERTEX
  8
0
 10
43.71520176
 20
-81.72626118
  0
VERTEX
  8
0
 10
43.78245563
 20
-81.54250974
  0
VERTEX
  8
0
 10
43.86667491
 20
-81.36768124
  0
VERTEX
  8
0
 10
43.96685430
 20
-81.20278098
  0
VERTEX
  8
0
 10
44.08198849
 20
-81.04881428
  0
VERTEX
  8
0
 10
44.21107215
 20
-80.90678644
  0
VERTEX
  8
0
 10
44.35309999
 20
-80.77770277
  0
VERTEX
  8
0
 10
44.50706670
 20
-80.66256859
  0
VERTEX
  8
0
 10
44.67196695
 20
-80.56238920
  0
VERTEX
  8
0
 10
44.84679546
 20
-80.47816991
  0
VERTEX
  8
0
 10
45.03054689
 20
-80.41091604
  0
VERTEX
  8
0
 10
45.22221596
 20
-80.36163289
  0
VERTEX
  8
0
 10
45.42079733
 20
-80.33132577
  0
VERTEX
  8
0
 10
45.62528571
 20
-80.32100000
  0
VERTEX
  8
0
 10
45.82977410
 20
-80.33132577
  0
VERTEX
  8
0
 10
46.02835547
 20
-80.36163289
  0
VERTEX
  8
0
 10
46.22002453
 20
-80.41091604
  0
VERTEX
  8
0
 10
46.40377597
 20
-80.47816991
  0
VERTEX
  8
0
 10
46.57860447
 20
-80.56238920
  0
VERTEX
  8
0
 10
46.74350473
 20
-80.66256859
  0
VERTEX
  8
0
 10
46.89747144
 20
-80.77770277
  0
VERTEX
  8
0
 10
47.03949928
 20
-80.90678644
  0
VERTEX
  8
0
 10
47.16858294
 20
-81.04881428
  0
VERTEX
  8
0
 10
47.28371713
 20
-81.20278098
  0
VERTEX
  8
0
 10
47.38389651
 20
-81.36768124
  0
VERTEX
  8
0
 10
47.46811580
 20
-81.54250974
  0
VERTEX
  8
0
 10
47.53536967
 20
-81.72626118
  0
VERTEX
  8
0
 10
47.58465282
 20
-81.91793024
  0
VERTEX
  8
0
 10
47.61495994
 20
-82.11651162
  0
VERTEX
  8
0
 10
47.62528571
 20
-82.32100000
  0
VERTEX
  8
0
 10
47.61495994
 20
-82.52548838
  0
VERTEX
  8
0
 10
47.58465282
 20
-82.72406976
  0
VERTEX
  8
0
 10
47.53536967
 20
-82.91573882
  0
VERTEX
  8
0
 10
47.46811580
 20
-83.09949026
  0
VERTEX
  8
0
 10
47.38389651
 20
-83.27431876
  0
VERTEX
  8
0
 10
47.28371713
 20
-83.43921902
  0
VERTEX
  8
0
 10
47.16858294
 20
-83.59318572
  0
VERTEX
  8
0
 10
47.03949928
 20
-83.73521356
  0
VERTEX
  8
0
 10
46.89747144
 20
-83.86429723
  0
VERTEX
  8
0
 10
46.74350473
 20
-83.97943141
  0
VERTEX
  8
0
 10
46.57860447
 20
-84.07961080
  0
VERTEX
  8
0
 10
46.40377597
 20
-84.16383009
  0
VERTEX
  8
0
 10
46.22002453
 20
-84.23108396
  0
VERTEX
  8
0
 10
46.02835547
 20
-84.28036711
  0
VERTEX
  8
0
 10
45.82977410
 20
-84.31067423
  0
VERTEX
  8
0
 10
45.62528571
 20
-84.32100000
  0
VERTEX
  8
0
 10
45.42079733
 20
-84.31067423
  0
VERTEX
  8
0
 10
45.22221596
 20
-84.28036711
  0
VERTEX
  8
0
 10
45.03054689
 20
-84.23108396
  0
VERTEX
  8
0
 10
44.84679546
 20
-84.16383009
  0
VERTEX
  8
0
 10
44.67196695
 20
-84.07961080
  0
VERTEX
  8
0
 10
44.50706670
 20
-83.97943141
  0
VERTEX
  8
0
 10
44.35309999
 20
-83.86429723
  0
VERTEX
  8
0
 10
44.21107215
 20
-83.73521356
  0
VERTEX
  8
0
 10
44.08198849
 20
-83.59318572
  0
VERTEX
  8
0
 10
43.96685430
 20
-83.43921902
  0
VERTEX
  8
0
 10
43.86667491
 20
-83.27431876
  0
VERTEX
  8
0
 10
43.78245563
 20
-83.09949026
  0
VERTEX
  8
0
 10
43.71520176
 20
-82.91573882
  0
VERTEX
  8
0
 10
43.66591861
 20
-82.72406976
  0
VERTEX
  8
0
 10
43.63561149
 20
-82.52548838
  0
VERTEX
  8
0
 10
43.62528571
 20
-82.32100000
  0
SEQEND
  0
POLYLINE
  8
По умолчанию
 66
   1
 39
0.000000
 70
    1
  0
VERTEX
  8
0
 10
-51.28571429
 20
-82.32100000
  0
VERTEX
  8
0
 10
-51.27538851
 20
-82.11651162
  0
VERTEX
  8
0
 10
-51.24508139
 20
-81.91793024
  0
VERTEX
  8
0
 10
-51.19579824
 20
-81.72626118
  0
VERTEX
  8
0
 10
-51.12854437
 20
-81.54250974
  0
VERTEX
  8
0
 10
-51.04432509
 20
-81.36768124
  0
VERTEX
  8
0
 10
-50.94414570
 20
-81.20278098
  0
VERTEX
  8
0
 10
-50.82901151
 20
-81.04881428
  0
VERTEX
  8
0
 10
-50.69992785
 20
-80.90678644
  0
VERTEX
  8
0
 10
-50.55790001
 20
-80.77770277
  0
VERTEX
  8
0
 10
-50.40393330
 20
-80.66256859
  0
VERTEX
  8
0
 10
-50.23903305
 20
-80.56238920
  0
VERTEX
  8
0
 10
-50.06420454
 20
-80.47816991
  0
VERTEX
  8
0
 10
-49.88045311
 20
-80.41091604
  0
VERTEX
  8
0
 10
-49.68878404
 20
-80.36163289
  0
VERTEX
  8
0
 10
-49.49020267
 20
-80.33132577
  0
VERTEX
  8
0
 10
-49.28571429
 20
-80.32100000
  0
VERTEX
  8
0
 10
-49.08122590
 20
-80.33132577
  0
VERTEX
  8
0
 10
-48.88264453
 20
-80.36163289
  0
VERTEX
  8
0
 10
-48.69097547
 20
-80.41091604
  0
VERTEX
  8
0
 10
-48.50722403
 20
-80.47816991
  0
VERTEX
  8
0
 10
-48.33239553
 20
-80.56238920
  0
VERTEX
  8
0
 10
-48.16749527
 20
-80.66256859
  0
VERTEX
  8
0
 10
-48.01352856
 20
-80.77770277
  0
VERTEX
  8
0
 10
-47.87150072
 20
-80.90678644
  0
VERTEX
  8
0
 10
-47.74241706
 20
-81.04881428
  0
VERTEX
  8
0
 10
-47.62728287
 20
-81.20278098
  0
VERTEX
  8
0
 10
-47.52710349
 20
-81.36768124
  0
VERTEX
  8
0
 10
-47.44288420
 20
-81.54250974
  0
VERTEX
  8
0
 10
-47.37563033
 20
-81.72626118
  0
VERTEX
  8
0
 10
-47.32634718
 20
-81.91793024
  0
VERTEX
  8
0
 10
-47.29604006
 20
-82.11651162
  0
VERTEX
  8
0
 10
-47.28571429
 20
-82.32100000
  0
VERTEX
  8
0
 10
-47.29604006
 20
-82.52548838
  0
VERTEX
  8
0
 10
-47.32634718
 20
-82.72406976
  0
VERTEX
  8
0
 10
-47.37563033
 20
-82.91573882
  0
VERTEX
  8
0
 10
-47.44288420
 20
-83.09949026
  0
VERTEX
  8
0
 10
-47.52710349
 20
-83.27431876
  0
VERTEX
  8
0
 10
-47.62728287
 20
-83.43921902
  0
VERTEX
  8
0
 10
-47.74241706
 20
-83.59318572
  0
VERTEX
  8
0
 10
-47.87150072
 20
-83.73521356
  0
VERTEX
  8
0
 10
-48.01352856
 20
-83.86429723
  0
VERTEX
  8
0
 10
-48.16749527
 20
-83.97943141
  0
VERTEX
  8
0
 10
-48.33239553
 20
-84.07961080
  0
VERTEX
  8
0
 10
-48.50722403
 20
-84.16383009
  0
VERTEX
  8
0
 10
-48.69097547
 20
-84.23108396
  0
VERTEX
  8
0
 10
-48.88264453
 20
-84.28036711
  0
VERTEX
  8
0
 10
-49.08122590
 20
-84.31067423
  0
VERTEX
  8
0
 10
-49.28571429
 20
-84.32100000
  0
VERTEX
  8
0
 10
-49.49020267
 20
-84.31067423
  0
VERTEX
  8
0
 10
-49.68878404
 20
-84.28036711
  0
VERTEX
  8
0
 10
-49.88045311
 20
-84.23108396
  0
VERTEX
  8
0
 10
-50.06420454
 20
-84.16383009
  0
VERTEX
  8
0
 10
-50.23903305
 20
-84.07961080
  0
VERTEX
  8
0
 10
-50.40393330
 20
-83.97943141
  0
VERTEX
  8
0
 10
-50.55790001
 20
-83.86429723
  0
VERTEX
  8
0
 10
-50.69992785
 20
-83.73521356
  0
VERTEX
  8
0
 10
-50.82901151
 20
-83.59318572
  0
VERTEX
  8
0
 10
-50.94414570
 20
-83.43921902
  0
VERTEX
  8
0
 10
-51.04432509
 20
-83.27431876
  0
VERTEX
  8
0
 10
-51.12854437
 20
-83.09949026
  0
VERTEX
  8
0
 10
-51.19579824
 20
-82.91573882
  0
VERTEX
  8
0
 10
-51.24508139
 20
-82.72406976
  0
VERTEX
  8
0
 10
-51.27538851
 20
-82.52548838
  0
VERTEX
  8
0
 10
-51.28571429
 20
-82.32100000
  0
SEQEND
  0
POLYLINE
  8
По умолчанию
 66
   1
 39
0.000000
 70
    1
  0
VERTEX
  8
0
 10
-86.01771429
 20
-47.58900000
  0
VERTEX
  8
0
 10
-86.00738851
 20
-47.38451162
  0
VERTEX
  8
0
 10
-85.97708139
 20
-47.18593024
  0
VERTEX
  8
0
 10
-85.92779824
 20
-46.99426118
  0
VERTEX
  8
0
 10
-85.86054437
 20
-46.81050974
  0
VERTEX
  8
0
 10
-85.77632509
 20
-46.63568124
  0
VERTEX
  8
0
 10
-85.67614570
 20
-46.47078098
  0
VERTEX
  8
0
 10
-85.56101151
 20
-46.31681428
  0
VERTEX
  8
0
 10
-85.43192785
 20
-46.17478644
  0
VERTEX
  8
0
 10
-85.28990001
 20
-46.04570277
  0
VERTEX
  8
0
 10
-85.13593330
 20
-45.93056859
  0
VERTEX
  8
0
 10
-84.97103305
 20
-45.83038920
  0
VERTEX
  8
0
 10
-84.79620454
 20
-45.74616991
  0
VERTEX
  8
0
 10
-84.61245311
 20
-45.67891604
  0
VERTEX
  8
0
 10
-84.42078404
 20
-45.62963289
  0
VERTEX
  8
0
 10
-84.22220267
 20
-45.59932577
  0
VERTEX
  8
0
 10
-84.01771429
 20
-45.58900000
  0
VERTEX
  8
0
 10
-83.81322590
 20
-45.59932577
  0
VERTEX
  8
0
 10
-83.61464453
 20
-45.62963289
  0
VERTEX
  8
0
 10
-83.42297547
 20
-45.67891604
  0
VERTEX
  8
0
 10
-83.23922403
 20
-45.74616991
  0
VERTEX
  8
0
 10
-83.06439553
 20
-45.83038920
  0
VERTEX
  8
0
 10
-82.89949527
 20
-45.93056859
  0
VERTEX
  8
0
 10
-82.74552856
 20
-46.04570277
  0
VERTEX
  8
0
 10
-82.60350072
 20
-46.17478644
  0
VERTEX
  8
0
 10
-82.47441706
 20
-46.31681428
  0
VERTEX
  8
0
 10
-82.35928287
 20
-46.47078098
  0
VERTEX
  8
0
 10
-82.25910349
 20
-46.63568124
  0
VERTEX
  8
0
 10
-82.17488420
 20
-46.81050974
  0
VERTEX
  8
0
 10
-82.10763033
 20
-46.99426118
  0
VERTEX
  8
0
 10
-82.05834718
 20
-47.18593024
  0
VERTEX
  8
0
 10
-82.02804006
 20
-47.38451162
  0
VERTEX
  8
0
 10
-82.01771429
 20
-47.58900000
  0
VERTEX
  8
0
 10
-82.02804006
 20
-47.79348838
  0
VERTEX
  8
0
 10
-82.05834718
 20
-47.99206976
  0
VERTEX
  8
0
 10
-82.10763033
 20
-48.18373882
  0
VERTEX
  8
0
 10
-82.17488420
 20
-48.36749026
  0
VERTEX
  8
0
 10
-82.25910349
 20
-48.54231876
  0
VERTEX
  8
0
 10
-82.35928287
 20
-48.70721902
  0
VERTEX
  8
0
 10
-82.47441706
 20
-48.86118572
  0
VERTEX
  8
0
 10
-82.60350072
 20
-49.00321356
  0
VERTEX
  8
0
 10
-82.74552856
 20
-49.13229723
  0
VERTEX
  8
0
 10
-82.89949527
 20
-49.24743141
  0
VERTEX
  8
0
 10
-83.06439553
 20
-49.34761080
  0
VERTEX
  8
0
 10
-83.23922403
 20
-49.43183009
  0
VERTEX
  8
0
 10
-83.42297547
 20
-49.49908396
  0
VERTEX
  8
0
 10
-83.61464453
 20
-49.54836711
  0
VERTEX
  8
0
 10
-83.81322590
 20
-49.57867423
  0
VERTEX
  8
0
 10
-84.01771429
 20
-49.58900000
  0
VERTEX
  8
0
 10
-84.22220267
 20
-49.57867423
  0
VERTEX
  8
0
 10
-84.42078404
 20
-49.54836711
  0
VERTEX
  8
0
 10
-84.61245311
 20
-49.49908396
  0
VERTEX
  8
0
 10
-84.79620454
 20
-49.43183009
  0
VERTEX
  8
0
 10
-84.97103305
 20
-49.34761080
  0
VERTEX
  8
0
 10
-85.13593330
 20
-49.24743141
  0
VERTEX
  8
0
 10
-85.28990001
 20
-49.13229723
  0
VERTEX
  8
0
 10
-85.43192785
 20
-49.00321356
  0
VERTEX
  8
0
 10
-85.56101151
 20
-48.86118572
  0
VERTEX
  8
0
 10
-85.67614570
 20
-48.70721902
  0
VERTEX
  8
0
 10
-85.77632509
 20
-48.54231876
  0
VERTEX
  8
0
 10
-85.86054437
 20
-48.36749026
  0
VERTEX
  8
0
 10
-85.92779824
 20
-48.18373882
  0
VERTEX
  8
0
 10
-85.97708139
 20
-47.99206976
  0
VERTEX
  8
0
 10
-86.00738851
 20
-47.79348838
  0
VERTEX
  8
0
 10
-86.01771429
 20
-47.58900000
  0
SEQEND
  0
POLYLINE
  8
По умолчанию
 66
   1
 39
0.000000
 70
    1
  0
VERTEX
  8
0
 10
-51.01771429
 20
82.32100000
  0
VERTEX
  8
0
 10
-51.00738851
 20
82.52548838
  0
VERTEX
  8
0
 10
-50.97708139
 20
82.72406976
  0
VERTEX
  8
0
 10
-50.92779824
 20
82.91573882
  0
VERTEX
  8
0
 10
-50.86054437
 20
83.09949026
  0
VERTEX
  8
0
 10
-50.77632509
 20
83.27431876
  0
VERTEX
  8
0
 10
-50.67614570
 20
83.43921902
  0
VERTEX
  8
0
 10
-50.56101151
 20
83.59318572
  0
VERTEX
  8
0
 10
-50.43192785
 20
83.73521356
  0
VERTEX
  8
0
 10
-50.28990001
 20
83.86429723
  0
VERTEX
  8
0
 10
-50.13593330
 20
83.97943141
  0
VERTEX
  8
0
 10
-49.97103305
 20
84.07961080
  0
VERTEX
  8
0
 10
-49.79620454
 20
84.16383009
  0
VERTEX
  8
0
 10
-49.61245311
 20
84.23108396
  0
VERTEX
  8
0
 10
-49.42078404
 20
84.28036711
  0
VERTEX
  8
0
 10
-49.22220267
 20
84.31067423
  0
VERTEX
  8
0
 10
-49.01771429
 20
84.32100000
  0
VERTEX
  8
0
 10
-48.81322590
 20
84.31067423
  0
VERTEX
  8
0
 10
-48.61464453
 20
84.28036711
  0
VERTEX
  8
0
 10
-48.42297547
 20
84.23108396
  0
VERTEX
  8
0
 10
-48.23922403
 20
84.16383009
  0
VERTEX
  8
0
 10
-48.06439553
 20
84.07961080
  0
VERTEX
  8
0
 10
-47.89949527
 20
83.97943141
  0
VERTEX
  8
0
 10
-47.74552856
 20
83.86429723
  0
VERTEX
  8
0
 10
-47.60350072
 20
83.73521356
  0
VERTEX
  8
0
 10
-47.47441706
 20
83.59318572
  0
VERTEX
  8
0
 10
-47.35928287
 20
83.43921902
  0
VERTEX
  8
0
 10
-47.25910349
 20
83.27431876
  0
VERTEX
  8
0
 10
-47.17488420
 20
83.09949026
  0
VERTEX
  8
0
 10
-47.10763033
 20
82.91573882
  0
VERTEX
  8
0
 10
-47.05834718
 20
82.72406976
  0
VERTEX
  8
0
 10
-47.02804006
 20
82.52548838
  0
VERTEX
  8
0
 10
-47.01771429
 20
82.32100000
  0
VERTEX
  8
0
 10
-47.02804006
 20
82.11651162
  0
VERTEX
  8
0
 10
-47.05834718
 20
81.91793024
  0
VERTEX
  8
0
 10
-47.10763033
 20
81.72626118
  0
VERTEX
  8
0
 10
-47.17488420
 20
81.54250974
  0
VERTEX
  8
0
 10
-47.25910349
 20
81.36768124
  0
VERTEX
  8
0
 10
-47.35928287
 20
81.20278098
  0
VERTEX
  8
0
 10
-47.47441706
 20
81.04881428
  0
VERTEX
  8
0
 10
-47.60350072
 20
80.90678644
  0
VERTEX
  8
0
 10
-47.74552856
 20
80.77770277
  0
VERTEX
  8
0
 10
-47.89949527
 20
80.66256859
  0
VERTEX
  8
0
 10
-48.06439553
 20
80.56238920
  0
VERTEX
  8
0
 10
-48.23922403
 20
80.47816991
  0
VERTEX
  8
0
 10
-48.42297547
 20
80.41091604
  0
VERTEX
  8
0
 10
-48.61464453
 20
80.36163289
  0
VERTEX
  8
0
 10
-48.81322590
 20
80.33132577
  0
VERTEX
  8
0
 10
-49.01771429
 20
80.32100000
  0
VERTEX
  8
0
 10
-49.22220267
 20
80.33132577
  0
VERTEX
  8
0
 10
-49.42078404
 20
80.36163289
  0
VERTEX
  8
0
 10
-49.61245311
 20
80.41091604
  0
VERTEX
  8
0
 10
-49.79620454
 20
80.47816991
  0
VERTEX
  8
0
 10
-49.97103305
 20
80.56238920
  0
VERTEX
  8
0
 10
-50.13593330
 20
80.66256859
  0
VERTEX
  8
0
 10
-50.28990001
 20
80.77770277
  0
VERTEX
  8
0
 10
-50.43192785
 20
80.90678644
  0
VERTEX
  8
0
 10
-50.56101151
 20
81.04881428
  0
VERTEX
  8
0
 10
-50.67614570
 20
81.20278098
  0
VERTEX
  8
0
 10
-50.77632509
 20
81.36768124
  0
VERTEX
  8
0
 10
-50.86054437
 20
81.54250974
  0
VERTEX
  8
0
 10
-50.92779824
 20
81.72626118
  0
VERTEX
  8
0
 10
-50.97708139
 20
81.91793024
  0
VERTEX
  8
0
 10
-51.00738851
 20
82.11651162
  0
VERTEX
  8
0
 10
-51.01771429
 20
82.32100000
  0
SEQEND
  0
POLYLINE
  8
По умолчанию
 66
   1
 39
0.000000
 70
    1
  0
VERTEX
  8
0
 10
-86.01771429
 20
47.41100000
  0
VERTEX
  8
0
 10
-86.00738851
 20
47.61548838
  0
VERTEX
  8
0
 10
-85.97708139
 20
47.81406976
  0
VERTEX
  8
0
 10
-85.92779824
 20
48.00573882
  0
VERTEX
  8
0
 10
-85.86054437
 20
48.18949026
  0
VERTEX
  8
0
 10
-85.77632509
 20
48.36431876
  0
VERTEX
  8
0
 10
-85.67614570
 20
48.52921902
  0
VERTEX
  8
0
 10
-85.56101151
 20
48.68318572
  0
VERTEX
  8
0
 10
-85.43192785
 20
48.82521356
  0
VERTEX
  8
0
 10
-85.28990001
 20
48.95429723
  0
VERTEX
  8
0
 10
-85.13593330
 20
49.06943141
  0
VERTEX
  8
0
 10
-84.97103305
 20
49.16961080
  0
VERTEX
  8
0
 10
-84.79620454
 20
49.25383009
  0
VERTEX
  8
0
 10
-84.61245311
 20
49.32108396
  0
VERTEX
  8
0
 10
-84.42078404
 20
49.37036711
  0
VERTEX
  8
0
 10
-84.22220267
 20
49.40067423
  0
VERTEX
  8
0
 10
-84.01771429
 20
49.41100000
  0
VERTEX
  8
0
 10
-83.81322590
 20
49.40067423
  0
VERTEX
  8
0
 10
-83.61464453
 20
49.37036711
  0
VERTEX
  8
0
 10
-83.42297547
 20
49.32108396
  0
VERTEX
  8
0
 10
-83.23922403
 20
49.25383009
  0
VERTEX
  8
0
 10
-83.06439553
 20
49.16961080
  0
VERTEX
  8
0
 10
-82.89949527
 20
49.06943141
  0
VERTEX
  8
0
 10
-82.74552856
 20
48.95429723
  0
VERTEX
  8
0
 10
-82.60350072
 20
48.82521356
  0
VERTEX
  8
0
 10
-82.47441706
 20
48.68318572
  0
VERTEX
  8
0
 10
-82.35928287
 20
48.52921902
  0
VERTEX
  8
0
 10
-82.25910349
 20
48.36431876
  0
VERTEX
  8
0
 10
-82.17488420
 20
48.18949026
  0
VERTEX
  8
0
 10
-82.10763033
 20
48.00573882
  0
VERTEX
  8
0
 10
-82.05834718
 20
47.81406976
  0
VERTEX
  8
0
 10
-82.02804006
 20
47.61548838
  0
VERTEX
  8
0
 10
-82.01771429
 20
47.41100000
  0
VERTEX
  8
0
 10
-82.02804006
 20
47.20651162
  0
VERTEX
  8
0
 10
-82.05834718
 20
47.00793024
  0
VERTEX
  8
0
 10
-82.10763033
 20
46.81626118
  0
VERTEX
  8
0
 10
-82.17488420
 20
46.63250974
  0
VERTEX
  8
0
 10
-82.25910349
 20
46.45768124
  0
VERTEX
  8
0
 10
-82.35928287
 20
46.29278098
  0
VERTEX
  8
0
 10
-82.47441706
 20
46.13881428
  0
VERTEX
  8
0
 10
-82.60350072
 20
45.99678644
  0
VERTEX
  8
0
 10
-82.74552856
 20
45.86770277
  0
VERTEX
  8
0
 10
-82.89949527
 20
45.75256859
  0
VERTEX
  8
0
 10
-83.06439553
 20
45.65238920
  0
VERTEX
  8
0
 10
-83.23922403
 20
45.56816991
  0
VERTEX
  8
0
 10
-83.42297547
 20
45.50091604
  0
VERTEX
  8
0
 10
-83.61464453
 20
45.45163289
  0
VERTEX
  8
0
 10
-83.81322590
 20
45.42132577
  0
VERTEX
  8
0
 10
-84.01771429
 20
45.41100000
  0
VERTEX
  8
0
 10
-84.22220267
 20
45.42132577
  0
VERTEX
  8
0
 10
-84.42078404
 20
45.45163289
  0
VERTEX
  8
0
 10
-84.61245311
 20
45.50091604
  0
VERTEX
  8
0
 10
-84.79620454
 20
45.56816991
  0
VERTEX
  8
0
 10
-84.97103305
 20
45.65238920
  0
VERTEX
  8
0
 10
-85.13593330
 20
45.75256859
  0
VERTEX
  8
0
 10
-85.28990001
 20
45.86770277
  0
VERTEX
  8
0
 10
-85.43192785
 20
45.99678644
  0
VERTEX
  8
0
 10
-85.56101151
 20
46.13881428
  0
VERTEX
  8
0
 10
-85.67614570
 20
46.29278098
  0
VERTEX
  8
0
 10
-85.77632509
 20
46.45768124
  0
VERTEX
  8
0
 10
-85.86054437
 20
46.63250974
  0
VERTEX
  8
0
 10
-85.92779824
 20
46.81626118
  0
VERTEX
  8
0
 10
-85.97708139
 20
47.00793024
  0
VERTEX
  8
0
 10
-86.00738851
 20
47.20651162
  0
VERTEX
  8
0
 10
-86.01771429
 20
47.41100000
  0
SEQEND
  0
POLYLINE
  8
По умолчанию
 66
   1
 39
0.000000
 70
    1
  0
VERTEX
  8
0
 10
-30.79922820
 20
5.71428571
  0
VERTEX
  8
0
 10
27.00012455
 20
5.71428571
  0
VERTEX
  8
0
 10
38.39171031
 20
28.49745724
  0
VERTEX
  8
0
 10
29.20077180
 20
28.49745724
  0
VERTEX
  8
0
 10
21.56323135
 20
13.74017568
  0
VERTEX
  8
0
 10
-25.55650975
 20
13.74017568
  0
VERTEX
  8
0
 10
-32.99987545
 20
28.43273232
  0
VERTEX
  8
0
 10
-41.99663920
 20
28.43273232
  0
VERTEX
  8
0
 10
-30.79922820
 20
5.71428571
  0
SEQEND
  0
POLYLINE
  8
По умолчанию
 66
   1
 39
0.000000
 70
    1
  0
VERTEX
  8
0
 10
-26.70765320
 20
-4.90753583
  0
VERTEX
  8
0
 10
22.90623203
 20
-4.90753583
  0
VERTEX
  8
0
 10
-1.93191429
 20
-53.71012483
  0
VERTEX
  8
0
 10
-26.70765320
 20
-4.90753583
  0
SEQEND
  0
POLYLINE
  8
По умолчанию
 66
   1
 39
0.000000
 70
    1
  0
VERTEX
  8
0
 10
-3.35586251
 20
-32.73925104
  0
VERTEX
  8
0
 10
-13.49750557
 20
-12.73925104
  0
VERTEX
  8
0
 10
9.50525240
 20
-12.73925104
  0
VERTEX
  8
0
 10
8.55352261
 20
-14.61627369
  0
VERTEX
  8
0
 10
-1.88822333
 20
-35.55472212
  0
VERTEX
  8
0
 10
-3.35586251
 20
-32.73925104
  0
SEQEND
  0
POLYLINE
  8
По умолчанию
 66
   1
 39
0.000000
 70
    1
  0
VERTEX
  8
0
 10
-101.78571429
 20
0.00000000
  0
VERTEX
  8
0
 10
-101.77753274
 20
1.29248630
  0
VERTEX
  8
0
 10
-101.75305354
 20
2.58104497
  0
VERTEX
  8
0
 10
-101.71237487
 20
3.86557784
  0
VERTEX
  8
0
 10
-101.65559491
 20
5.14598674
  0
VERTEX
  8
0
 10
-101.58281182
 20
6.42217349
  0
VERTEX
  8
0
 10
-101.49412378
 20
7.69403991
  0
VERTEX
  8
0
 10
-101.38962897
 20
8.96148784
  0
VERTEX
  8
0
 10
-101.26942556
 20
10.22441910
  0
VERTEX
  8
0
 10
-101.13361173
 20
11.48273550
  0
VERTEX
  8
0
 10
-100.98228564
 20
12.73633889
  0
VERTEX
  8
0
 10
-100.81554549
 20
13.98513107
  0
VERTEX
  8
0
 10
-100.63348943
 20
15.22901389
  0
VERTEX
  8
0
 10
-100.43621565
 20
16.46788916
  0
VERTEX
  8
0
 10
-100.22382232
 20
17.70165871
  0
VERTEX
  8
0
 10
-99.99640761
 20
18.93022436
  0
VERTEX
  8
0
 10
-99.75406970
 20
20.15348793
  0
VERTEX
  8
0
 10
-99.49690677
 20
21.37135127
  0
VERTEX
  8
0
 10
-99.22501699
 20
22.58371618
  0
VERTEX
  8
0
 10
-98.93849853
 20
23.79048450
  0
VERTEX
  8
0
 10
-98.63744957
 20
24.99155804
  0
VERTEX
  8
0
 10
-98.32196828
 20
26.18683864
  0
VERTEX
  8
0
 10
-97.99215285
 20
27.37622812
  0
VERTEX
  8
0
 10
-97.64810143
 20
28.55962831
  0
VERTEX
  8
0
 10
-97.28991222
 20
29.73694103
  0
VERTEX
  8
0
 10
-96.91768337
 20
30.90806810
  0
VERTEX
  8
0
 10
-96.53151307
 20
32.07291135
  0
VERTEX
  8
0
 10
-96.13149950
 20
33.23137261
  0
VERTEX
  8
0
 10
-95.71774082
 20
34.38335370
  0
VERTEX
  8
0
 10
-95.29033522
 20
35.52875645
  0
VERTEX
  8
0
 10
-94.84938086
 20
36.66748268
  0
VERTEX
  8
0
 10
-93.92721858
 20
38.92451288
  0
VERTEX
  8
0
 10
-92.95203939
 20
41.15365892
  0
VERTEX
  8
0
 10
-91.92462867
 20
43.35413538
  0
VERTEX
  8
0
 10
-90.84577184
 20
45.52515688
  0
VERTEX
  8
0
 10
-89.71625429
 20
47.66593801
  0
VERTEX
  8
0
 10
-88.53686142
 20
49.77569338
  0
VERTEX
  8
0
 10
-87.30837862
 20
51.85363759
  0
VERTEX
  8
0
 10
-86.03159129
 20
53.89898523
  0
VERTEX
  8
0
 10
-84.70728484
 20
55.91095092
  0
VERTEX
  8
0
 10
-83.33624466
 20
57.88874925
  0
VERTEX
  8
0
 10
-81.91925614
 20
59.83159483
  0
VERTEX
  8
0
 10
-80.45710469
 20
61.73870225
  0
VERTEX
  8
0
 10
-78.95057571
 20
63.60928612
  0
VERTEX
  8
0
 10
-77.40045459
 20
65.44256104
  0
VERTEX
  8
0
 10
-75.80752674
 20
67.23774161
  0
VERTEX
  8
0
 10
-74.17257754
 20
68.99404244
  0
VERTEX
  8
0
 10
-72.49639240
 20
70.71067812
  0
VERTEX
  8
0
 10
-70.77975672
 20
72.38686326
  0
VERTEX
  8
0
 10
-69.02345590
 20
74.02181245
  0
VERTEX
  8
0
 10
-67.22827533
 20
75.61474031
  0
VERTEX
  8
0
 10
-65.39500041
 20
77.16486143
  0
VERTEX
  8
0
 10
-63.52441653
 20
78.67139041
  0
VERTEX
  8
0
 10
-61.61730911
 20
80.13354186
  0
VERTEX
  8
0
 10
-59.67446354
 20
81.55053037
  0
VERTEX
  8
0
 10
-57.69666521
 20
82.92157055
  0
VERTEX
  8
0
 10
-55.68469952
 20
84.24587701
  0
VERTEX
  8
0
 10
-53.63935187
 20
85.52266433
  0
VERTEX
  8
0
 10
-51.56140767
 20
86.75114713
  0
VERTEX
  8
0
 10
-49.45165230
 20
87.93054001
  0
VERTEX
  8
0
 10
-47.31087116
 20
89.06005756
  0
VERTEX
  8
0
 10
-45.13984967
 20
90.13891439
  0
VERTEX
  8
0
 10
-42.93937320
 20
91.16632510
  0
VERTEX
  8
0
 10
-40.71022717
 20
92.14150429
  0
VERTEX
  8
0
 10
-38.45319697
 20
93.06366657
  0
VERTEX
  8
0
 10
-37.31447074
 20
93.50462093
  0
VERTEX
  8
0
 10
-36.16906799
 20
93.93202654
  0
VERTEX
  8
0
 10
-35.01708690
 20
94.34578521
  0
VERTEX
  8
0
 10
-33.85862564
 20
94.74579879
  0
VERTEX
  8
0
 10
-32.69378239
 20
95.13196909
  0
VERTEX
  8
0
 10
-31.52265531
 20
95.50419793
  0
VERTEX
  8
0
 10
-30.34534260
 20
95.86238715
  0
VERTEX
  8
0
 10
-29.16194241
 20
96.20643856
  0
VERTEX
  8
0
 10
-27.97255293
 20
96.53625400
  0
VERTEX
  8
0
 10
-26.77727233
 20
96.85173529
  0
VERTEX
  8
0
 10
-25.57619878
 20
97.15278425
  0
VERTEX
  8
0
 10
-24.36943047
 20
97.43930270
  0
VERTEX
  8
0
 10
-23.15706555
 20
97.71119249
  0
VERTEX
  8
0
 10
-21.93920222
 20
97.96835542
  0
VERTEX
  8
0
 10
-20.71593864
 20
98.21069333
  0
VERTEX
  8
0
 10
-19.48737299
 20
98.43810803
  0
VERTEX
  8
0
 10
-18.25360344
 20
98.65050136
  0
VERTEX
  8
0
 10
-17.01472818
 20
98.84777514
  0
VERTEX
  8
0
 10
-15.77084536
 20
99.02983120
  0
VERTEX
  8
0
 10
-14.52205317
 20
99.19657136
  0
VERTEX
  8
0
 10
-13.26844979
 20
99.34789744
  0
VERTEX
  8
0
 10
-12.01013338
 20
99.48371127
  0
VERTEX
  8
0
 10
-10.74720213
 20
99.60391468
  0
VERTEX
  8
0
 10
-9.47975420
 20
99.70840949
  0
VERTEX
  8
0
 10
-8.20788777
 20
99.79709753
  0
VERTEX
  8
0
 10
-6.93170102
 20
99.86988062
  0
VERTEX
  8
0
 10
-5.65129212
 20
99.92666059
  0
VERTEX
  8
0
 10
-4.36675925
 20
99.96733926
  0
VERTEX
  8
0
 10
-3.07820058
 20
99.99181845
  0
VERTEX
  8
0
 10
-1.78571429
 20
100.00000000
  0
VERTEX
  8
0
 10
-0.49322799
 20
99.99181845
  0
VERTEX
  8
0
 10
0.79533068
 20
99.96733926
  0
VERTEX
  8
0
 10
2.07986355
 20
99.92666059
  0
VERTEX
  8
0
 10
3.36027245
 20
99.86988062
  0
VERTEX
  8
0
 10
4.63645920
 20
99.79709753
  0
VERTEX
  8
0
 10
5.90832563
 20
99.70840949
  0
VERTEX
  8
0
 10
7.17577355
 20
99.60391468
  0
VERTEX
  8
0
 10
8.43870481
 20
99.48371127
  0
VERTEX
  8
0
 10
9.69702122
 20
99.34789744
  0
VERTEX
  8
0
 10
10.95062460
 20
99.19657136
  0
VERTEX
  8
0
 10
12.19941679
 20
99.02983120
  0
VERTEX
  8
0
 10
13.44329960
 20
98.84777514
  0
VERTEX
  8
0
 10
14.68217487
 20
98.65050136
  0
VERTEX
  8
0
 10
15.91594442
 20
98.43810803
  0
VERTEX
  8
0
 10
17.14451007
 20
98.21069333
  0
VERTEX
  8
0
 10
18.36777365
 20
97.96835542
  0
VERTEX
  8
0
 10
19.58563698
 20
97.71119249
  0
VERTEX
  8
0
 10
20.79800189
 20
97.43930270
  0
VERTEX
  8
0
 10
22.00477021
 20
97.15278425
  0
VERTEX
  8
0
 10
23.20584376
 20
96.85173529
  0
VERTEX
  8
0
 10
24.40112436
 20
96.53625400
  0
VERTEX
  8
0
 10
25.59051384
 20
96.20643856
  0
VERTEX
  8
0
 10
26.77391403
 20
95.86238715
  0
VERTEX
  8
0
 10
27.95122674
 20
95.50419793
  0
VERTEX
  8
0
 10
29.12235381
 20
95.13196909
  0
VERTEX
  8
0
 10
30.28719707
 20
94.74579879
  0
VERTEX
  8
0
 10
31.44565833
 20
94.34578521
  0
VERTEX
  8
0
 10
32.59763942
 20
93.93202654
  0
VERTEX
  8
0
 10
33.74304216
 20
93.50462093
  0
VERTEX
  8
0
 10
34.88176839
 20
93.06366657
  0
VERTEX
  8
0
 10
37.13879860
 20
92.14150429
  0
VERTEX
  8
0
 10
39.36794463
 20
91.16632510
  0
VERTEX
  8
0
 10
41.56842110
 20
90.13891439
  0
VERTEX
  8
0
 10
43.73944259
 20
89.06005756
  0
VERTEX
  8
0
 10
45.88022373
 20
87.93054001
  0
VERTEX
  8
0
 10
47.98997909
 20
86.75114713
  0
VERTEX
  8
0
 10
50.06792330
 20
85.52266433
  0
VERTEX
  8
0
 10
52.11327095
 20
84.24587701
  0
VERTEX
  8
0
 10
54.12523663
 20
82.92157055
  0
VERTEX
  8
0
 10
56.10303497
 20
81.55053037
  0
VERTEX
  8
0
 10
58.04588054
 20
80.13354186
  0
VERTEX
  8
0
 10
59.95298796
 20
78.67139041
  0
VERTEX
  8
0
 10
61.82357183
 20
77.16486143
  0
VERTEX
  8
0
 10
63.65684675
 20
75.61474031
  0
VERTEX
  8
0
 10
65.45202733
 20
74.02181245
  0
VERTEX
  8
0
 10
67.20832815
 20
72.38686326
  0
VERTEX
  8
0
 10
68.92496383
 20
70.71067812
  0
VERTEX
  8
0
 10
70.60114897
 20
68.99404244
  0
VERTEX
  8
0
 10
72.23609817
 20
67.23774161
  0
VERTEX
  8
0
 10
73.82902602
 20
65.44256104
  0
VERTEX
  8
0
 10
75.37914714
 20
63.60928612
  0
VERTEX
  8
0
 10
76.88567612
 20
61.73870225
  0
VERTEX
  8
0
 10
78.34782757
 20
59.83159483
  0
VERTEX
  8
0
 10
79.76481608
 20
57.88874925
  0
VERTEX
  8
0
 10
81.13585627
 20
55.91095092
  0
VERTEX
  8
0
 10
82.46016272
 20
53.89898523
  0
VERTEX
  8
0
 10
83.73695005
 20
51.85363759
  0
VERTEX
  8
0
 10
84.96543284
 20
49.77569338
  0
VERTEX
  8
0
 10
86.14482572
 20
47.66593801
  0
VERTEX
  8
0
 10
87.27434327
 20
45.52515688
  0
VERTEX
  8
0
 10
88.35320010
 20
43.35413538
  0
VERTEX
  8
0
 10
89.38061081
 20
41.15365892
  0
VERTEX
  8
0
 10
90.35579001
 20
38.92451288
  0
VERTEX
  8
0
 10
91.27795229
 20
36.66748268
  0
VERTEX
  8
0
 10
91.71890665
 20
35.52875645
  0
VERTEX
  8
0
 10
92.14631225
 20
34.38335370
  0
VERTEX
  8
0
 10
92.56007093
 20
33.23137261
  0
VERTEX
  8
0
 10
92.96008450
 20
32.07291135
  0
VERTEX
  8
0
 10
93.34625480
 20
30.90806810
  0
VERTEX
  8
0
 10
93.71848364
 20
29.73694103
  0
VERTEX
  8
0
 10
94.07667286
 20
28.55962831
  0
VERTEX
  8
0
 10
94.42072428
 20
27.37622812
  0
VERTEX
  8
0
 10
94.75053971
 20
26.18683864
  0
VERTEX
  8
0
 10
95.06602100
 20
24.99155804
  0
VERTEX
  8
0
 10
95.36706996
 20
23.79048450
  0
VERTEX
  8
0
 10
95.65358842
 20
22.58371618
  0
VERTEX
  8
0
 10
95.92547820
 20
21.37135127
  0
VERTEX
  8
0
 10
96.18264113
 20
20.15348793
  0
VERTEX
  8
0
 10
96.42497904
 20
18.93022436
  0
VERTEX
  8
0
 10
96.65239375
 20
17.70165871
  0
VERTEX
  8
0
 10
96.86478708
 20
16.46788916
  0
VERTEX
  8
0
 10
97.06206086
 20
15.22901389
  0
VERTEX
  8
0
 10
97.24411691
 20
13.98513107
  0
VERTEX
  8
0
 10
97.41085707
 20
12.73633889
  0
VERTEX
  8
0
 10
97.56218315
 20
11.48273550
  0
VERTEX
  8
0
 10
97.69799699
 20
10.22441910
  0
VERTEX
  8
0
 10
97.81820040
 20
8.96148784
  0
VERTEX
  8
0
 10
97.92269521
 20
7.69403991
  0
VERTEX
  8
0
 10
98.01138325
 20
6.42217349
  0
VERTEX
  8
0
 10
98.08416633
 20
5.14598674
  0
VERTEX
  8
0
 10
98.14094630
 20
3.86557784
  0
VERTEX
  8
0
 10
98.18162497
 20
2.58104497
  0
VERTEX
  8
0
 10
98.20610417
 20
1.29248630
  0
VERTEX
  8
0
 10
98.21428571
 20
0.00000000
  0
VERTEX
  8
0
 10
98.20610417
 20
-1.29248630
  0
VERTEX
  8
0
 10
98.18162497
 20
-2.58104497
  0
VERTEX
  8
0
 10
98.14094630
 20
-3.86557784
  0
VERTEX
  8
0
 10
98.08416633
 20
-5.14598674
  0
VERTEX
  8
0
 10
98.01138325
 20
-6.42217349
  0
VERTEX
  8
0
 10
97.92269521
 20
-7.69403991
  0
VERTEX
  8
0
 10
97.81820040
 20
-8.96148784
  0
VERTEX
  8
0
 10
97.69799699
 20
-10.22441910
  0
VERTEX
  8
0
 10
97.56218315
 20
-11.48273550
  0
VERTEX
  8
0
 10
97.41085707
 20
-12.73633889
  0
VERTEX
  8
0
 10
97.24411691
 20
-13.98513107
  0
VERTEX
  8
0
 10
97.06206086
 20
-15.22901389
  0
VERTEX
  8
0
 10
96.86478708
 20
-16.46788916
  0
VERTEX
  8
0
 10
96.65239375
 20
-17.70165871
  0
VERTEX
  8
0
 10
96.42497904
 20
-18.93022436
  0
VERTEX
  8
0
 10
96.18264113
 20
-20.15348793
  0
VERTEX
  8
0
 10
95.92547820
 20
-21.37135127
  0
VERTEX
  8
0
 10
95.65358842
 20
-22.58371618
  0
VERTEX
  8
0
 10
95.36706996
 20
-23.79048450
  0
VERTEX
  8
0
 10
95.06602100
 20
-24.99155804
  0
VERTEX
  8
0
 10
94.75053971
 20
-26.18683864
  0
VERTEX
  8
0
 10
94.42072428
 20
-27.37622812
  0
VERTEX
  8
0
 10
94.07667286
 20
-28.55962831
  0
VERTEX
  8
0
 10
93.71848364
 20
-29.73694103
  0
VERTEX
  8
0
 10
93.34625480
 20
-30.90806810
  0
VERTEX
  8
0
 10
92.96008450
 20
-32.07291135
  0
VERTEX
  8
0
 10
92.56007093
 20
-33.23137261
  0
VERTEX
  8
0
 10
92.14631225
 20
-34.38335370
  0
VERTEX
  8
0
 10
91.71890665
 20
-35.52875645
  0
VERTEX
  8
0
 10
91.27795229
 20
-36.66748268
  0
VERTEX
  8
0
 10
90.35579001
 20
-38.92451288
  0
VERTEX
  8
0
 10
89.38061081
 20
-41.15365892
  0
VERTEX
  8
0
 10
88.35320010
 20
-43.35413538
  0
VERTEX
  8
0
 10
87.27434327
 20
-45.52515688
  0
VERTEX
  8
0
 10
86.14482572
 20
-47.66593801
  0
VERTEX
  8
0
 10
84.96543284
 20
-49.77569338
  0
VERTEX
  8
0
 10
83.73695005
 20
-51.85363759
  0
VERTEX
  8
0
 10
82.46016272
 20
-53.89898523
  0
VERTEX
  8
0
 10
81.13585627
 20
-55.91095092
  0
VERTEX
  8
0
 10
79.76481608
 20
-57.88874925
  0
VERTEX
  8
0
 10
78.34782757
 20
-59.83159483
  0
VERTEX
  8
0
 10
76.88567612
 20
-61.73870225
  0
VERTEX
  8
0
 10
75.37914714
 20
-63.60928612
  0
VERTEX
  8
0
 10
73.82902602
 20
-65.44256104
  0
VERTEX
  8
0
 10
72.23609817
 20
-67.23774161
  0
VERTEX
  8
0
 10
70.60114897
 20
-68.99404244
  0
VERTEX
  8
0
 10
68.92496383
 20
-70.71067812
  0
VERTEX
  8
0
 10
67.20832815
 20
-72.38686326
  0
VERTEX
  8
0
 10
65.45202733
 20
-74.02181245
  0
VERTEX
  8
0
 10
63.65684675
 20
-75.61474031
  0
VERTEX
  8
0
 10
61.82357183
 20
-77.16486143
  0
VERTEX
  8
0
 10
59.95298796
 20
-78.67139041
  0
VERTEX
  8
0
 10
58.04588054
 20
-80.13354186
  0
VERTEX
  8
0
 10
56.10303497
 20
-81.55053037
  0
VERTEX
  8
0
 10
54.12523663
 20
-82.92157055
  0
VERTEX
  8
0
 10
52.11327095
 20
-84.24587701
  0
VERTEX
  8
0
 10
50.06792330
 20
-85.52266433
  0
VERTEX
  8
0
 10
47.98997909
 20
-86.75114713
  0
VERTEX
  8
0
 10
45.88022373
 20
-87.93054001
  0
VERTEX
  8
0
 10
43.73944259
 20
-89.06005756
  0
VERTEX
  8
0
 10
41.56842110
 20
-90.13891439
  0
VERTEX
  8
0
 10
39.36794463
 20
-91.16632510
  0
VERTEX
  8
0
 10
37.13879860
 20
-92.14150429
  0
VERTEX
  8
0
 10
34.88176839
 20
-93.06366657
  0
VERTEX
  8
0
 10
33.74304216
 20
-93.50462093
  0
VERTEX
  8
0
 10
32.59763942
 20
-93.93202654
  0
VERTEX
  8
0
 10
31.44565833
 20
-94.34578521
  0
VERTEX
  8
0
 10
30.28719707
 20
-94.74579879
  0
VERTEX
  8
0
 10
29.12235381
 20
-95.13196909
  0
VERTEX
  8
0
 10
27.95122674
 20
-95.50419793
  0
VERTEX
  8
0
 10
26.77391403
 20
-95.86238715
  0
VERTEX
  8
0
 10
25.59051384
 20
-96.20643856
  0
VERTEX
  8
0
 10
24.40112436
 20
-96.53625400
  0
VERTEX
  8
0
 10
23.20584376
 20
-96.85173529
  0
VERTEX
  8
0
 10
22.00477021
 20
-97.15278425
  0
VERTEX
  8
0
 10
20.79800189
 20
-97.43930270
  0
VERTEX
  8
0
 10
19.58563698
 20
-97.71119249
  0
VERTEX
  8
0
 10
18.36777365
 20
-97.96835542
  0
VERTEX
  8
0
 10
17.14451007
 20
-98.21069333
  0
VERTEX
  8
0
 10
15.91594442
 20
-98.43810803
  0
VERTEX
  8
0
 10
14.68217487
 20
-98.65050136
  0
VERTEX
  8
0
 10
13.44329960
 20
-98.84777514
  0
VERTEX
  8
0
 10
12.19941679
 20
-99.02983120
  0
VERTEX
  8
0
 10
10.95062460
 20
-99.19657136
  0
VERTEX
  8
0
 10
9.69702122
 20
-99.34789744
  0
VERTEX
  8
0
 10
8.43870481
 20
-99.48371127
  0
VERTEX
  8
0
 10
7.17577355
 20
-99.60391468
  0
VERTEX
  8
0
 10
5.90832563
 20
-99.70840949
  0
VERTEX
  8
0
 10
4.63645920
 20
-99.79709753
  0
VERTEX
  8
0
 10
3.36027245
 20
-99.86988062
  0
VERTEX
  8
0
 10
2.07986355
 20
-99.92666059
  0
VERTEX
  8
0
 10
0.79533068
 20
-99.96733926
  0
VERTEX
  8
0
 10
-0.49322799
 20
-99.99181845
  0
VERTEX
  8
0
 10
-1.78571429
 20
-100.00000000
  0
VERTEX
  8
0
 10
-3.07820058
 20
-99.99181845
  0
VERTEX
  8
0
 10
-4.36675925
 20
-99.96733926
  0
VERTEX
  8
0
 10
-5.65129212
 20
-99.92666059
  0
VERTEX
  8
0
 10
-6.93170102
 20
-99.86988062
  0
VERTEX
  8
0
 10
-8.20788777
 20
-99.79709753
  0
VERTEX
  8
0
 10
-9.47975420
 20
-99.70840949
  0
VERTEX
  8
0
 10
-10.74720213
 20
-99.60391468
  0
VERTEX
  8
0
 10
-12.01013338
 20
-99.48371127
  0
VERTEX
  8
0
 10
-13.26844979
 20
-99.34789744
  0
VERTEX
  8
0
 10
-14.52205317
 20
-99.19657136
  0
VERTEX
  8
0
 10
-15.77084536
 20
-99.02983120
  0
VERTEX
  8
0
 10
-17.01472818
 20
-98.84777514
  0
VERTEX
  8
0
 10
-18.25360344
 20
-98.65050136
  0
VERTEX
  8
0
 10
-19.48737299
 20
-98.43810803
  0
VERTEX
  8
0
 10
-20.71593864
 20
-98.21069333
  0
VERTEX
  8
0
 10
-21.93920222
 20
-97.96835542
  0
VERTEX
  8
0
 10
-23.15706555
 20
-97.71119249
  0
VERTEX
  8
0
 10
-24.36943047
 20
-97.43930270
  0
VERTEX
  8
0
 10
-25.57619878
 20
-97.15278425
  0
VERTEX
  8
0
 10
-26.77727233
 20
-96.85173529
  0
VERTEX
  8
0
 10
-27.97255293
 20
-96.53625400
  0
VERTEX
  8
0
 10
-29.16194241
 20
-96.20643856
  0
VERTEX
  8
0
 10
-30.34534260
 20
-95.86238715
  0
VERTEX
  8
0
 10
-31.52265531
 20
-95.50419793
  0
VERTEX
  8
0
 10
-32.69378239
 20
-95.13196909
  0
VERTEX
  8
0
 10
-33.85862564
 20
-94.74579879
  0
VERTEX
  8
0
 10
-35.01708690
 20
-94.34578521
  0
VERTEX
  8
0
 10
-36.16906799
 20
-93.93202654
  0
VERTEX
  8
0
 10
-37.31447074
 20
-93.50462093
  0
VERTEX
  8
0
 10
-38.45319697
 20
-93.06366657
  0
VERTEX
  8
0
 10
-40.71022717
 20
-92.14150429
  0
VERTEX
  8
0
 10
-42.93937320
 20
-91.16632510
  0
VERTEX
  8
0
 10
-45.13984967
 20
-90.13891439
  0
VERTEX
  8
0
 10
-47.31087116
 20
-89.06005756
  0
VERTEX
  8
0
 10
-49.45165230
 20
-87.93054001
  0
VERTEX
  8
0
 10
-51.56140767
 20
-86.75114713
  0
VERTEX
  8
0
 10
-53.63935187
 20
-85.52266433
  0
VERTEX
  8
0
 10
-55.68469952
 20
-84.24587701
  0
VERTEX
  8
0
 10
-57.69666521
 20
-82.92157055
  0
VERTEX
  8
0
 10
-59.67446354
 20
-81.55053037
  0
VERTEX
  8
0
 10
-61.61730911
 20
-80.13354186
  0
VERTEX
  8
0
 10
-63.52441653
 20
-78.67139041
  0
VERTEX
  8
0
 10
-65.39500041
 20
-77.16486143
  0
VERTEX
  8
0
 10
-67.22827533
 20
-75.61474031
  0
VERTEX
  8
0
 10
-69.02345590
 20
-74.02181245
  0
VERTEX
  8
0
 10
-70.77975672
 20
-72.38686326
  0
VERTEX
  8
0
 10
-72.49639240
 20
-70.71067812
  0
VERTEX
  8
0
 10
-74.17257754
 20
-68.99404244
  0
VERTEX
  8
0
 10
-75.80752674
 20
-67.23774161
  0
VERTEX
  8
0
 10
-77.40045459
 20
-65.44256104
  0
VERTEX
  8
0
 10
-78.95057571
 20
-63.60928612
  0
VERTEX
  8
0
 10
-80.45710469
 20
-61.73870225
  0
VERTEX
  8
0
 10
-81.91925614
 20
-59.83159483
  0
VERTEX
  8
0
 10
-83.33624466
 20
-57.88874925
  0
VERTEX
  8
0
 10
-84.70728484
 20
-55.91095092
  0
VERTEX
  8
0
 10
-86.03159129
 20
-53.89898523
  0
VERTEX
  8
0
 10
-87.30837862
 20
-51.85363759
  0
VERTEX
  8
0
 10
-88.53686142
 20
-49.77569338
  0
VERTEX
  8
0
 10
-89.71625429
 20
-47.66593801
  0
VERTEX
  8
0
 10
-90.84577184
 20
-45.52515688
  0
VERTEX
  8
0
 10
-91.92462867
 20
-43.35413538
  0
VERTEX
  8
0
 10
-92.95203939
 20
-41.15365892
  0
VERTEX
  8
0
 10
-93.92721858
 20
-38.92451288
  0
VERTEX
  8
0
 10
-94.84938086
 20
-36.66748268
  0
VERTEX
  8
0
 10
-95.29033522
 20
-35.52875645
  0
VERTEX
  8
0
 10
-95.71774082
 20
-34.38335370
  0
VERTEX
  8
0
 10
-96.13149950
 20
-33.23137261
  0
VERTEX
  8
0
 10
-96.53151307
 20
-32.07291135
  0
VERTEX
  8
0
 10
-96.91768337
 20
-30.90806810
  0
VERTEX
  8
0
 10
-97.28991222
 20
-29.73694103
  0
VERTEX
  8
0
 10
-97.64810143
 20
-28.55962831
  0
VERTEX
  8
0
 10
-97.99215285
 20
-27.37622812
  0
VERTEX
  8
0
 10
-98.32196828
 20
-26.18683864
  0
VERTEX
  8
0
 10
-98.63744957
 20
-24.99155804
  0
VERTEX
  8
0
 10
-98.93849853
 20
-23.79048450
  0
VERTEX
  8
0
 10
-99.22501699
 20
-22.58371618
  0
VERTEX
  8
0
 10
-99.49690677
 20
-21.37135127
  0
VERTEX
  8
0
 10
-99.75406970
 20
-20.15348793
  0
VERTEX
  8
0
 10
-99.99640761
 20
-18.93022436
  0
VERTEX
  8
0
 10
-100.22382232
 20
-17.70165871
  0
VERTEX
  8
0
 10
-100.43621565
 20
-16.46788916
  0
VERTEX
  8
0
 10
-100.63348943
 20
-15.22901389
  0
VERTEX
  8
0
 10
-100.81554549
 20
-13.98513107
  0
VERTEX
  8
0
 10
-100.98228564
 20
-12.73633889
  0
VERTEX
  8
0
 10
-101.13361173
 20
-11.48273550
  0
VERTEX
  8
0
 10
-101.26942556
 20
-10.22441910
  0
VERTEX
  8
0
 10
-101.38962897
 20
-8.96148784
  0
VERTEX
  8
0
 10
-101.49412378
 20
-7.69403991
  0
VERTEX
  8
0
 10
-101.58281182
 20
-6.42217349
  0
VERTEX
  8
0
 10
-101.65559491
 20
-5.14598674
  0
VERTEX
  8
0
 10
-101.71237487
 20
-3.86557784
  0
VERTEX
  8
0
 10
-101.75305354
 20
-2.58104497
  0
VERTEX
  8
0
 10
-101.77753274
 20
-1.29248630
  0
VERTEX
  8
0
 10
-101.78571429
 20
0.00000000
  0
SEQEND
  0
POLYLINE
  8
По умолчанию
 66
   1
 39
0.000000
 70
    1
  0
VERTEX
  8
0
 10
-102.78571429
 20
0.00000000
  0
VERTEX
  8
0
 10
-102.77745092
 20
1.30541116
  0
VERTEX
  8
0
 10
-102.75272693
 20
2.60685542
  0
VERTEX
  8
0
 10
-102.71164148
 20
3.90423362
  0
VERTEX
  8
0
 10
-102.65429371
 20
5.19744660
  0
VERTEX
  8
0
 10
-102.58078279
 20
6.48639522
  0
VERTEX
  8
0
 10
-102.49120787
 20
7.77098031
  0
VERTEX
  8
0
 10
-102.38566812
 20
9.05110272
  0
VERTEX
  8
0
 10
-102.26426267
 20
10.32666329
  0
VERTEX
  8
0
 10
-102.12709070
 20
11.59756286
  0
VERTEX
  8
0
 10
-101.97425136
 20
12.86370228
  0
VERTEX
  8
0
 10
-101.80584380
 20
14.12498239
  0
VERTEX
  8
0
 10
-101.62196718
 20
15.38130403
  0
VERTEX
  8
0
 10
-101.42272066
 20
16.63256805
  0
VERTEX
  8
0
 10
-101.20820340
 20
17.87867529
  0
VERTEX
  8
0
 10
-100.97851454
 20
19.11952660
  0
VERTEX
  8
0
 10
-100.73375326
 20
20.35502281
  0
VERTEX
  8
0
 10
-100.47401870
 20
21.58506478
  0
VERTEX
  8
0
 10
-100.19941002
 20
22.80955334
  0
VERTEX
  8
0
 10
-99.91002637
 20
24.02838934
  0
VERTEX
  8
0
 10
-99.60596692
 20
25.24147362
  0
VERTEX
  8
0
 10
-99.28733082
 20
26.44870703
  0
VERTEX
  8
0
 10
-98.95421723
 20
27.64999041
  0
VERTEX
  8
0
 10
-98.60672530
 20
28.84522459
  0
VERTEX
  8
0
 10
-98.24495419
 20
30.03431044
  0
VERTEX
  8
0
 10
-97.86900306
 20
31.21714878
  0
VERTEX
  8
0
 10
-97.47897106
 20
32.39364047
  0
VERTEX
  8
0
 10
-97.07495735
 20
33.56368634
  0
VERTEX
  8
0
 10
-96.65706109
 20
34.72718724
  0
VERTEX
  8
0
 10
-96.22538143
 20
35.88404402
  0
VERTEX
  8
0
 10
-95.78001752
 20
37.03415751
  0
VERTEX
  8
0
 10
-95.32106854
 20
38.17742856
  0
VERTEX
  8
0
 10
-94.84863362
 20
39.31375801
  0
VERTEX
  8
0
 10
-94.36281194
 20
40.44304671
  0
VERTEX
  8
0
 10
-93.86370264
 20
41.56519551
  0
VERTEX
  8
0
 10
-92.82601782
 20
43.78767674
  0
VERTEX
  8
0
 10
-91.73637242
 20
45.98040845
  0
VERTEX
  8
0
 10
-90.59555969
 20
48.14259739
  0
VERTEX
  8
0
 10
-89.40437289
 20
50.27345031
  0
VERTEX
  8
0
 10
-88.16360526
 20
52.37217396
  0
VERTEX
  8
0
 10
-86.87405006
 20
54.43797508
  0
VERTEX
  8
0
 10
-85.53650054
 20
56.47006043
  0
VERTEX
  8
0
 10
-84.15174996
 20
58.46763674
  0
VERTEX
  8
0
 10
-82.72059156
 20
60.42991078
  0
VERTEX
  8
0
 10
-81.24381860
 20
62.35608927
  0
VERTEX
  8
0
 10
-79.72222433
 20
64.24537898
  0
VERTEX
  8
0
 10
-78.15660200
 20
66.09698665
  0
VERTEX
  8
0
 10
-76.54774486
 20
67.91011903
  0
VERTEX
  8
0
 10
-74.89644617
 20
69.68398286
  0
VERTEX
  8
0
 10
-73.20349919
 20
71.41778490
  0
VERTEX
  8
0
 10
-71.46969715
 20
73.11073189
  0
VERTEX
  8
0
 10
-69.69583331
 20
74.76203058
  0
VERTEX
  8
0
 10
-67.88270094
 20
76.37088771
  0
VERTEX
  8
0
 10
-66.03109327
 20
77.93651004
  0
VERTEX
  8
0
 10
-64.14180356
 20
79.45810431
  0
VERTEX
  8
0
 10
-62.21562506
 20
80.93487727
  0
VERTEX
  8
0
 10
-60.25335103
 20
82.36603567
  0
VERTEX
  8
0
 10
-58.25577472
 20
83.75078626
  0
VERTEX
  8
0
 10
-56.22368937
 20
85.08833578
  0
VERTEX
  8
0
 10
-54.15788825
 20
86.37789097
  0
VERTEX
  8
0
 10
-52.05916460
 20
87.61865860
  0
VERTEX
  8
0
 10
-49.92831168
 20
88.80984541
  0
VERTEX
  8
0
 10
-47.76612273
 20
89.95065813
  0
VERTEX
  8
0
 10
-45.57339102
 20
91.04030353
  0
VERTEX
  8
0
 10
-43.35090979
 20
92.07798835
  0
VERTEX
  8
0
 10
-42.22876100
 20
92.57709765
  0
VERTEX
  8
0
 10
-41.09947230
 20
93.06291934
  0
VERTEX
  8
0
 10
-39.96314284
 20
93.53535425
  0
VERTEX
  8
0
 10
-38.81987179
 20
93.99430324
  0
VERTEX
  8
0
 10
-37.66975830
 20
94.43966714
  0
VERTEX
  8
0
 10
-36.51290153
 20
94.87134680
  0
VERTEX
  8
0
 10
-35.34940062
 20
95.28924307
  0
VERTEX
  8
0
 10
-34.17935475
 20
95.69325678
  0
VERTEX
  8
0
 10
-33.00286307
 20
96.08328878
  0
VERTEX
  8
0
 10
-31.82002472
 20
96.45923991
  0
VERTEX
  8
0
 10
-30.63093888
 20
96.82101102
  0
VERTEX
  8
0
 10
-29.43570469
 20
97.16850295
  0
VERTEX
  8
0
 10
-28.23442132
 20
97.50161654
  0
VERTEX
  8
0
 10
-27.02718791
 20
97.82025264
  0
VERTEX
  8
0
 10
-25.81410363
 20
98.12431209
  0
VERTEX
  8
0
 10
-24.59526763
 20
98.41369573
  0
VERTEX
  8
0
 10
-23.37077907
 20
98.68830441
  0
VERTEX
  8
0
 10
-22.14073710
 20
98.94803897
  0
VERTEX
  8
0
 10
-20.90524088
 20
99.19280026
  0
VERTEX
  8
0
 10
-19.66438958
 20
99.42248911
  0
VERTEX
  8
0
 10
-18.41828234
 20
99.63700638
  0
VERTEX
  8
0
 10
-17.16701831
 20
99.83625290
  0
VERTEX
  8
0
 10
-15.91069667
 20
100.02012951
  0
VERTEX
  8
0
 10
-14.64941656
 20
100.18853707
  0
VERTEX
  8
0
 10
-13.38327714
 20
100.34137641
  0
VERTEX
  8
0
 10
-12.11237757
 20
100.47854839
  0
VERTEX
  8
0
 10
-10.83681700
 20
100.59995383
  0
VERTEX
  8
0
 10
-9.55669460
 20
100.70549359
  0
VERTEX
  8
0
 10
-8.27210951
 20
100.79506851
  0
VERTEX
  8
0
 10
-6.98316089
 20
100.86857943
  0
VERTEX
  8
0
 10
-5.68994790
 20
100.92592719
  0
VERTEX
  8
0
 10
-4.39256970
 20
100.96701265
  0
VERTEX
  8
0
 10
-3.09112544
 20
100.99173664
  0
VERTEX
  8
0
 10
-1.78571429
 20
101.00000000
  0
VERTEX
  8
0
 10
-0.48030313
 20
100.99173664
  0
VERTEX
  8
0
 10
0.82114113
 20
100.96701265
  0
VERTEX
  8
0
 10
2.11851933
 20
100.92592719
  0
VERTEX
  8
0
 10
3.41173232
 20
100.86857943
  0
VERTEX
  8
0
 10
4.70068094
 20
100.79506851
  0
VERTEX
  8
0
 10
5.98526603
 20
100.70549359
  0
VERTEX
  8
0
 10
7.26538843
 20
100.59995383
  0
VERTEX
  8
0
 10
8.54094900
 20
100.47854839
  0
VERTEX
  8
0
 10
9.81184857
 20
100.34137641
  0
VERTEX
  8
0
 10
11.07798799
 20
100.18853707
  0
VERTEX
  8
0
 10
12.33926810
 20
100.02012951
  0
VERTEX
  8
0
 10
13.59558974
 20
99.83625290
  0
VERTEX
  8
0
 10
14.84685376
 20
99.63700638
  0
VERTEX
  8
0
 10
16.09296101
 20
99.42248911
  0
VERTEX
  8
0
 10
17.33381231
 20
99.19280026
  0
VERTEX
  8
0
 10
18.56930853
 20
98.94803897
  0
VERTEX
  8
0
 10
19.79935049
 20
98.68830441
  0
VERTEX
  8
0
 10
21.02383906
 20
98.41369573
  0
VERTEX
  8
0
 10
22.24267506
 20
98.12431209
  0
VERTEX
  8
0
 10
23.45575934
 20
97.82025264
  0
VERTEX
  8
0
 10
24.66299274
 20
97.50161654
  0
VERTEX
  8
0
 10
25.86427612
 20
97.16850295
  0
VERTEX
  8
0
 10
27.05951031
 20
96.82101102
  0
VERTEX
  8
0
 10
28.24859615
 20
96.45923991
  0
VERTEX
  8
0
 10
29.43143450
 20
96.08328878
  0
VERTEX
  8
0
 10
30.60792618
 20
95.69325678
  0
VERTEX
  8
0
 10
31.77797205
 20
95.28924307
  0
VERTEX
  8
0
 10
32.94147295
 20
94.87134680
  0
VERTEX
  8
0
 10
34.09832973
 20
94.43966714
  0
VERTEX
  8
0
 10
35.24844322
 20
93.99430324
  0
VERTEX
  8
0
 10
36.39171427
 20
93.53535425
  0
VERTEX
  8
0
 10
37.52804373
 20
93.06291934
  0
VERTEX
  8
0
 10
38.65733243
 20
92.57709765
  0
VERTEX
  8
0
 10
39.77948122
 20
92.07798835
  0
VERTEX
  8
0
 10
42.00196245
 20
91.04030353
  0
VERTEX
  8
0
 10
44.19469416
 20
89.95065813
  0
VERTEX
  8
0
 10
46.35688311
 20
88.80984541
  0
VERTEX
  8
0
 10
48.48773603
 20
87.61865860
  0
VERTEX
  8
0
 10
50.58645968
 20
86.37789097
  0
VERTEX
  8
0
 10
52.65226080
 20
85.08833578
  0
VERTEX
  8
0
 10
54.68434614
 20
83.75078626
  0
VERTEX
  8
0
 10
56.68192246
 20
82.36603567
  0
VERTEX
  8
0
 10
58.64419649
 20
80.93487727
  0
VERTEX
  8
0
 10
60.57037499
 20
79.45810431
  0
VERTEX
  8
0
 10
62.45966470
 20
77.93651004
  0
VERTEX
  8
0
 10
64.31127236
 20
76.37088771
  0
VERTEX
  8
0
 10
66.12440474
 20
74.76203058
  0
VERTEX
  8
0
 10
67.89826858
 20
73.11073189
  0
VERTEX
  8
0
 10
69.63207061
 20
71.41778490
  0
VERTEX
  8
0
 10
71.32501760
 20
69.68398286
  0
VERTEX
  8
0
 10
72.97631629
 20
67.91011903
  0
VERTEX
  8
0
 10
74.58517343
 20
66.09698665
  0
VERTEX
  8
0
 10
76.15079575
 20
64.24537898
  0
VERTEX
  8
0
 10
77.67239003
 20
62.35608927
  0
VERTEX
  8
0
 10
79.14916299
 20
60.42991078
  0
VERTEX
  8
0
 10
80.58032139
 20
58.46763674
  0
VERTEX
  8
0
 10
81.96507197
 20
56.47006043
  0
VERTEX
  8
0
 10
83.30262149
 20
54.43797508
  0
VERTEX
  8
0
 10
84.59217669
 20
52.37217396
  0
VERTEX
  8
0
 10
85.83294432
 20
50.27345031
  0
VERTEX
  8
0
 10
87.02413112
 20
48.14259739
  0
VERTEX
  8
0
 10
88.16494385
 20
45.98040845
  0
VERTEX
  8
0
 10
89.25458925
 20
43.78767674
  0
VERTEX
  8
0
 10
90.29227407
 20
41.56519551
  0
VERTEX
  8
0
 10
90.79138337
 20
40.44304671
  0
VERTEX
  8
0
 10
91.27720505
 20
39.31375801
  0
VERTEX
  8
0
 10
91.74963997
 20
38.17742856
  0
VERTEX
  8
0
 10
92.20858895
 20
37.03415751
  0
VERTEX
  8
0
 10
92.65395286
 20
35.88404402
  0
VERTEX
  8
0
 10
93.08563252
 20
34.72718724
  0
VERTEX
  8
0
 10
93.50352878
 20
33.56368634
  0
VERTEX
  8
0
 10
93.90754249
 20
32.39364047
  0
VERTEX
  8
0
 10
94.29757449
 20
31.21714878
  0
VERTEX
  8
0
 10
94.67352562
 20
30.03431044
  0
VERTEX
  8
0
 10
95.03529673
 20
28.84522459
  0
VERTEX
  8
0
 10
95.38278866
 20
27.64999041
  0
VERTEX
  8
0
 10
95.71590225
 20
26.44870703
  0
VERTEX
  8
0
 10
96.03453835
 20
25.24147362
  0
VERTEX
  8
0
 10
96.33859780
 20
24.02838934
  0
VERTEX
  8
0
 10
96.62798145
 20
22.80955334
  0
VERTEX
  8
0
 10
96.90259013
 20
21.58506478
  0
VERTEX
  8
0
 10
97.16232469
 20
20.35502281
  0
VERTEX
  8
0
 10
97.40708597
 20
19.11952660
  0
VERTEX
  8
0
 10
97.63677483
 20
17.87867529
  0
VERTEX
  8
0
 10
97.85129209
 20
16.63256805
  0
VERTEX
  8
0
 10
98.05053861
 20
15.38130403
  0
VERTEX
  8
0
 10
98.23441523
 20
14.12498239
  0
VERTEX
  8
0
 10
98.40282278
 20
12.86370228
  0
VERTEX
  8
0
 10
98.55566213
 20
11.59756286
  0
VERTEX
  8
0
 10
98.69283410
 20
10.32666329
  0
VERTEX
  8
0
 10
98.81423954
 20
9.05110272
  0
VERTEX
  8
0
 10
98.91977930
 20
7.77098031
  0
VERTEX
  8
0
 10
99.00935422
 20
6.48639522
  0
VERTEX
  8
0
 10
99.08286514
 20
5.19744660
  0
VERTEX
  8
0
 10
99.14021291
 20
3.90423362
  0
VERTEX
  8
0
 10
99.18129836
 20
2.60685542
  0
VERTEX
  8
0
 10
99.20602235
 20
1.30541116
  0
VERTEX
  8
0
 10
99.21428571
 20
0.00000000
  0
VERTEX
  8
0
 10
99.20602235
 20
-1.30541116
  0
VERTEX
  8
0
 10
99.18129836
 20
-2.60685542
  0
VERTEX
  8
0
 10
99.14021291
 20
-3.90423362
  0
VERTEX
  8
0
 10
99.08286514
 20
-5.19744660
  0
VERTEX
  8
0
 10
99.00935422
 20
-6.48639522
  0
VERTEX
  8
0
 10
98.91977930
 20
-7.77098031
  0
VERTEX
  8
0
 10
98.81423954
 20
-9.05110272
  0
VERTEX
  8
0
 10
98.69283410
 20
-10.32666329
  0
VERTEX
  8
0
 10
98.55566213
 20
-11.59756286
  0
VERTEX
  8
0
 10
98.40282278
 20
-12.86370228
  0
VERTEX
  8
0
 10
98.23441523
 20
-14.12498239
  0
VERTEX
  8
0
 10
98.05053861
 20
-15.38130403
  0
VERTEX
  8
0
 10
97.85129209
 20
-16.63256805
  0
VERTEX
  8
0
 10
97.63677483
 20
-17.87867529
  0
VERTEX
  8
0
 10
97.40708597
 20
-19.11952660
  0
VERTEX
  8
0
 10
97.16232469
 20
-20.35502281
  0
VERTEX
  8
0
 10
96.90259013
 20
-21.58506478
  0
VERTEX
  8
0
 10
96.62798145
 20
-22.80955334
  0
VERTEX
  8
0
 10
96.33859780
 20
-24.02838934
  0
VERTEX
  8
0
 10
96.03453835
 20
-25.24147362
  0
VERTEX
  8
0
 10
95.71590225
 20
-26.44870703
  0
VERTEX
  8
0
 10
95.38278866
 20
-27.64999041
  0
VERTEX
  8
0
 10
95.03529673
 20
-28.84522459
  0
VERTEX
  8
0
 10
94.67352562
 20
-30.03431044
  0
VERTEX
  8
0
 10
94.29757449
 20
-31.21714878
  0
VERTEX
  8
0
 10
93.90754249
 20
-32.39364047
  0
VERTEX
  8
0
 10
93.50352878
 20
-33.56368634
  0
VERTEX
  8
0
 10
93.08563252
 20
-34.72718724
  0
VERTEX
  8
0
 10
92.65395286
 20
-35.88404402
  0
VERTEX
  8
0
 10
92.20858895
 20
-37.03415751
  0
VERTEX
  8
0
 10
91.74963997
 20
-38.17742856
  0
VERTEX
  8
0
 10
91.27720505
 20
-39.31375801
  0
VERTEX
  8
0
 10
90.79138337
 20
-40.44304671
  0
VERTEX
  8
0
 10
90.29227407
 20
-41.56519551
  0
VERTEX
  8
0
 10
89.25458925
 20
-43.78767674
  0
VERTEX
  8
0
 10
88.16494385
 20
-45.98040845
  0
VERTEX
  8
0
 10
87.02413112
 20
-48.14259739
  0
VERTEX
  8
0
 10
85.83294432
 20
-50.27345031
  0
VERTEX
  8
0
 10
84.59217669
 20
-52.37217396
  0
VERTEX
  8
0
 10
83.30262149
 20
-54.43797508
  0
VERTEX
  8
0
 10
81.96507197
 20
-56.47006043
  0
VERTEX
  8
0
 10
80.58032139
 20
-58.46763674
  0
VERTEX
  8
0
 10
79.14916299
 20
-60.42991078
  0
VERTEX
  8
0
 10
77.67239003
 20
-62.35608927
  0
VERTEX
  8
0
 10
76.15079575
 20
-64.24537898
  0
VERTEX
  8
0
 10
74.58517343
 20
-66.09698665
  0
VERTEX
  8
0
 10
72.97631629
 20
-67.91011903
  0
VERTEX
  8
0
 10
71.32501760
 20
-69.68398286
  0
VERTEX
  8
0
 10
69.63207061
 20
-71.41778490
  0
VERTEX
  8
0
 10
67.89826858
 20
-73.11073189
  0
VERTEX
  8
0
 10
66.12440474
 20
-74.76203058
  0
VERTEX
  8
0
 10
64.31127236
 20
-76.37088771
  0
VERTEX
  8
0
 10
62.45966470
 20
-77.93651004
  0
VERTEX
  8
0
 10
60.57037499
 20
-79.45810431
  0
VERTEX
  8
0
 10
58.64419649
 20
-80.93487727
  0
VERTEX
  8
0
 10
56.68192246
 20
-82.36603567
  0
VERTEX
  8
0
 10
54.68434614
 20
-83.75078626
  0
VERTEX
  8
0
 10
52.65226080
 20
-85.08833578
  0
VERTEX
  8
0
 10
50.58645968
 20
-86.37789097
  0
VERTEX
  8
0
 10
48.48773603
 20
-87.61865860
  0
VERTEX
  8
0
 10
46.35688311
 20
-88.80984541
  0
VERTEX
  8
0
 10
44.19469416
 20
-89.95065813
  0
VERTEX
  8
0
 10
42.00196245
 20
-91.04030353
  0
VERTEX
  8
0
 10
39.77948122
 20
-92.07798835
  0
VERTEX
  8
0
 10
38.65733243
 20
-92.57709765
  0
VERTEX
  8
0
 10
37.52804373
 20
-93.06291934
  0
VERTEX
  8
0
 10
36.39171427
 20
-93.53535425
  0
VERTEX
  8
0
 10
35.24844322
 20
-93.99430324
  0
VERTEX
  8
0
 10
34.09832973
 20
-94.43966714
  0
VERTEX
  8
0
 10
32.94147295
 20
-94.87134680
  0
VERTEX
  8
0
 10
31.77797205
 20
-95.28924307
  0
VERTEX
  8
0
 10
30.60792618
 20
-95.69325678
  0
VERTEX
  8
0
 10
29.43143450
 20
-96.08328878
  0
VERTEX
  8
0
 10
28.24859615
 20
-96.45923991
  0
VERTEX
  8
0
 10
27.05951031
 20
-96.82101102
  0
VERTEX
  8
0
 10
25.86427612
 20
-97.16850295
  0
VERTEX
  8
0
 10
24.66299274
 20
-97.50161654
  0
VERTEX
  8
0
 10
23.45575934
 20
-97.82025264
  0
VERTEX
  8
0
 10
22.24267506
 20
-98.12431209
  0
VERTEX
  8
0
 10
21.02383906
 20
-98.41369573
  0
VERTEX
  8
0
 10
19.79935049
 20
-98.68830441
  0
VERTEX
  8
0
 10
18.56930853
 20
-98.94803897
  0
VERTEX
  8
0
 10
17.33381231
 20
-99.19280026
  0
VERTEX
  8
0
 10
16.09296101
 20
-99.42248911
  0
VERTEX
  8
0
 10
14.84685376
 20
-99.63700638
  0
VERTEX
  8
0
 10
13.59558974
 20
-99.83625290
  0
VERTEX
  8
0
 10
12.33926810
 20
-100.02012951
  0
VERTEX
  8
0
 10
11.07798799
 20
-100.18853707
  0
VERTEX
  8
0
 10
9.81184857
 20
-100.34137641
  0
VERTEX
  8
0
 10
8.54094900
 20
-100.47854839
  0
VERTEX
  8
0
 10
7.26538843
 20
-100.59995383
  0
VERTEX
  8
0
 10
5.98526603
 20
-100.70549359
  0
VERTEX
  8
0
 10
4.70068094
 20
-100.79506851
  0
VERTEX
  8
0
 10
3.41173232
 20
-100.86857943
  0
VERTEX
  8
0
 10
2.11851933
 20
-100.92592719
  0
VERTEX
  8
0
 10
0.82114113
 20
-100.96701265
  0
VERTEX
  8
0
 10
-0.48030313
 20
-100.99173664
  0
VERTEX
  8
0
 10
-1.78571429
 20
-101.00000000
  0
VERTEX
  8
0
 10
-3.09112544
 20
-100.99173664
  0
VERTEX
  8
0
 10
-4.39256970
 20
-100.96701265
  0
VERTEX
  8
0
 10
-5.68994790
 20
-100.92592719
  0
VERTEX
  8
0
 10
-6.98316089
 20
-100.86857943
  0
VERTEX
  8
0
 10
-8.27210951
 20
-100.79506851
  0
VERTEX
  8
0
 10
-9.55669460
 20
-100.70549359
  0
VERTEX
  8
0
 10
-10.83681700
 20
-100.59995383
  0
VERTEX
  8
0
 10
-12.11237757
 20
-100.47854839
  0
VERTEX
  8
0
 10
-13.38327714
 20
-100.34137641
  0
VERTEX
  8
0
 10
-14.64941656
 20
-100.18853707
  0
VERTEX
  8
0
 10
-15.91069667
 20
-100.02012951
  0
VERTEX
  8
0
 10
-17.16701831
 20
-99.83625290
  0
VERTEX
  8
0
 10
-18.41828234
 20
-99.63700638
  0
VERTEX
  8
0
 10
-19.66438958
 20
-99.42248911
  0
VERTEX
  8
0
 10
-20.90524088
 20
-99.19280026
  0
VERTEX
  8
0
 10
-22.14073710
 20
-98.94803897
  0
VERTEX
  8
0
 10
-23.37077907
 20
-98.68830441
  0
VERTEX
  8
0
 10
-24.59526763
 20
-98.41369573
  0
VERTEX
  8
0
 10
-25.81410363
 20
-98.12431209
  0
VERTEX
  8
0
 10
-27.02718791
 20
-97.82025264
  0
VERTEX
  8
0
 10
-28.23442132
 20
-97.50161654
  0
VERTEX
  8
0
 10
-29.43570469
 20
-97.16850295
  0
VERTEX
  8
0
 10
-30.63093888
 20
-96.82101102
  0
VERTEX
  8
0
 10
-31.82002472
 20
-96.45923991
  0
VERTEX
  8
0
 10
-33.00286307
 20
-96.08328878
  0
VERTEX
  8
0
 10
-34.17935475
 20
-95.69325678
  0
VERTEX
  8
0
 10
-35.34940062
 20
-95.28924307
  0
VERTEX
  8
0
 10
-36.51290153
 20
-94.87134680
  0
VERTEX
  8
0
 10
-37.66975830
 20
-94.43966714
  0
VERTEX
  8
0
 10
-38.81987179
 20
-93.99430324
  0
VERTEX
  8
0
 10
-39.96314284
 20
-93.53535425
  0
VERTEX
  8
0
 10
-41.09947230
 20
-93.06291934
  0
VERTEX
  8
0
 10
-42.22876100
 20
-92.57709765
  0
VERTEX
  8
0
 10
-43.35090979
 20
-92.07798835
  0
VERTEX
  8
0
 10
-45.57339102
 20
-91.04030353
  0
VERTEX
  8
0
 10
-47.76612273
 20
-89.95065813
  0
VERTEX
  8
0
 10
-49.92831168
 20
-88.80984541
  0
VERTEX
  8
0
 10
-52.05916460
 20
-87.61865860
  0
VERTEX
  8
0
 10
-54.15788825
 20
-86.37789097
  0
VERTEX
  8
0
 10
-56.22368937
 20
-85.08833578
  0
VERTEX
  8
0
 10
-58.25577472
 20
-83.75078626
  0
VERTEX
  8
0
 10
-60.25335103
 20
-82.36603567
  0
VERTEX
  8
0
 10
-62.21562506
 20
-80.93487727
  0
VERTEX
  8
0
 10
-64.14180356
 20
-79.45810431
  0
VERTEX
  8
0
 10
-66.03109327
 20
-77.93651004
  0
VERTEX
  8
0
 10
-67.88270094
 20
-76.37088771
  0
VERTEX
  8
0
 10
-69.69583331
 20
-74.76203058
  0
VERTEX
  8
0
 10
-71.46969715
 20
-73.11073189
  0
VERTEX
  8
0
 10
-73.20349919
 20
-71.41778490
  0
VERTEX
  8
0
 10
-74.89644617
 20
-69.68398286
  0
VERTEX
  8
0
 10
-76.54774486
 20
-67.91011903
  0
VERTEX
  8
0
 10
-78.15660200
 20
-66.09698665
  0
VERTEX
  8
0
 10
-79.72222433
 20
-64.24537898
  0
VERTEX
  8
0
 10
-81.24381860
 20
-62.35608927
  0
VERTEX
  8
0
 10
-82.72059156
 20
-60.42991078
  0
VERTEX
  8
0
 10
-84.15174996
 20
-58.46763674
  0
VERTEX
  8
0
 10
-85.53650054
 20
-56.47006043
  0
VERTEX
  8
0
 10
-86.87405006
 20
-54.43797508
  0
VERTEX
  8
0
 10
-88.16360526
 20
-52.37217396
  0
VERTEX
  8
0
 10
-89.40437289
 20
-50.27345031
  0
VERTEX
  8
0
 10
-90.59555969
 20
-48.14259739
  0
VERTEX
  8
0
 10
-91.73637242
 20
-45.98040845
  0
VERTEX
  8
0
 10
-92.82601782
 20
-43.78767674
  0
VERTEX
  8
0
 10
-93.86370264
 20
-41.56519551
  0
VERTEX
  8
0
 10
-94.36281194
 20
-40.44304671
  0
VERTEX
  8
0
 10
-94.84863362
 20
-39.31375801
  0
VERTEX
  8
0
 10
-95.32106854
 20
-38.17742856
  0
VERTEX
  8
0
 10
-95.78001752
 20
-37.03415751
  0
VERTEX
  8
0
 10
-96.22538143
 20
-35.88404402
  0
VERTEX
  8
0
 10
-96.65706109
 20
-34.72718724
  0
VERTEX
  8
0
 10
-97.07495735
 20
-33.56368634
  0
VERTEX
  8
0
 10
-97.47897106
 20
-32.39364047
  0
VERTEX
  8
0
 10
-97.86900306
 20
-31.21714878
  0
VERTEX
  8
0
 10
-98.24495419
 20
-30.03431044
  0
VERTEX
  8
0
 10
-98.60672530
 20
-28.84522459
  0
VERTEX
  8
0
 10
-98.95421723
 20
-27.64999041
  0
VERTEX
  8
0
 10
-99.28733082
 20
-26.44870703
  0
VERTEX
  8
0
 10
-99.60596692
 20
-25.24147362
  0
VERTEX
  8
0
 10
-99.91002637
 20
-24.02838934
  0
VERTEX
  8
0
 10
-100.19941002
 20
-22.80955334
  0
VERTEX
  8
0
 10
-100.47401870
 20
-21.58506478
  0
VERTEX
  8
0
 10
-100.73375326
 20
-20.35502281
  0
VERTEX
  8
0
 10
-100.97851454
 20
-19.11952660
  0
VERTEX
  8
0
 10
-101.20820340
 20
-17.87867529
  0
VERTEX
  8
0
 10
-101.42272066
 20
-16.63256805
  0
VERTEX
  8
0
 10
-101.62196718
 20
-15.38130403
  0
VERTEX
  8
0
 10
-101.80584380
 20
-14.12498239
  0
VERTEX
  8
0
 10
-101.97425136
 20
-12.86370228
  0
VERTEX
  8
0
 10
-102.12709070
 20
-11.59756286
  0
VERTEX
  8
0
 10
-102.26426267
 20
-10.32666329
  0
VERTEX
  8
0
 10
-102.38566812
 20
-9.05110272
  0
VERTEX
  8
0
 10
-102.49120787
 20
-7.77098031
  0
VERTEX
  8
0
 10
-102.58078279
 20
-6.48639522
  0
VERTEX
  8
0
 10
-102.65429371
 20
-5.19744660
  0
VERTEX
  8
0
 10
-102.71164148
 20
-3.90423362
  0
VERTEX
  8
0
 10
-102.75272693
 20
-2.60685542
  0
VERTEX
  8
0
 10
-102.77745092
 20
-1.30541116
  0
VERTEX
  8
0
 10
-102.78571429
 20
0.00000000
  0
SEQEND
  0
ENDSEC
  0
EOF
