  0
SECTION
  2
HEADER
  9
$ACADVER
  1
AC1006
  0
ENDSEC
  0
SECTION
  2
TABLES
  0
TABLE
  2
LTYPE
 70
    25
  0
LTYPE
  2
CONTINUOUS
 70
    64
  3
Solid line
 72
    64
 73
     0
 40
0.000000
  0
LTYPE
  2
DASHDOT
 70
    64
  3
__ . __ . __ . __ . __ . __ . __ . __ . __ . __
 72
    65
 73
     4
 40
1.000000
 49
0.500000
 49
-0.250000
 49
0.000000
 49
-0.250000
  0
LTYPE
  2
DASHED
 70
    64
  3
__ __ __ __ __ __ __ __ __ __ __ __ __ __ __ __
 72
    65
 73
     2
 40
0.750000
 49
0.500000
 49
-0.250000
  0
LTYPE
  2
DIVIDE
 70
    64
  3
____ . . ____ . . ____ . . ____ . . ____ . . __
 72
    65
 73
     6
 40
1.250000
 49
0.500000
 49
-0.250000
 49
0.000000
 49
-0.250000
 49
0.000000
 49
-0.250000
  0
LTYPE
  2
DOT
 70
    64
  3
. . . . . . . . . . . . . . . . . . . . . . . . 
 72
    65
 73
     2
 40
0.250000
 49
0.000000
 49
-0.250000
  0
ENDTAB
  0
ENDSEC
  0
SECTION
  2
ENTITIES
  0
LINE
  8
Layer 1
 62
     7
  6
CONTINUOUS
 10
9.479437
 20
0.152327
 30
0.000000
 11
9.461247
 21
0.279342
 31
0.000000
  0
LINE
  8
Layer 1
 62
     7
  6
CONTINUOUS
 10
9.461247
 20
0.279342
 30
0.000000
 11
9.454377
 21
0.336265
 31
0.000000
  0
LINE
  8
Layer 1
 62
     7
  6
CONTINUOUS
 10
9.454377
 20
0.336265
 30
0.000000
 11
9.434506
 21
0.402606
 31
0.000000
  0
LINE
  8
Layer 1
 62
     7
  6
CONTINUOUS
 10
9.434506
 20
0.402606
 30
0.000000
 11
9.360204
 21
0.555920
 31
0.000000
  0
LINE
  8
Layer 1
 62
     7
  6
CONTINUOUS
 10
9.360204
 20
0.555920
 30
0.000000
 11
9.247224
 21
0.724039
 31
0.000000
  0
LINE
  8
Layer 1
 62
     7
  6
CONTINUOUS
 10
9.247224
 20
0.724039
 30
0.000000
 11
9.104447
 21
0.891718
 31
0.000000
  0
LINE
  8
Layer 1
 62
     7
  6
CONTINUOUS
 10
9.104447
 20
0.891718
 30
0.000000
 11
8.975948
 21
1.041230
 31
0.000000
  0
LINE
  8
Layer 1
 62
     7
  6
CONTINUOUS
 10
8.975948
 20
1.041230
 30
0.000000
 11
8.881742
 21
1.190102
 31
0.000000
  0
LINE
  8
Layer 1
 62
     7
  6
CONTINUOUS
 10
8.881742
 20
1.190102
 30
0.000000
 11
8.811489
 21
1.358270
 31
0.000000
  0
LINE
  8
Layer 1
 62
     7
  6
CONTINUOUS
 10
8.811489
 20
1.358270
 30
0.000000
 11
8.754846
 21
1.565671
 31
0.000000
  0
LINE
  8
Layer 1
 62
     7
  6
CONTINUOUS
 10
8.754846
 20
1.565671
 30
0.000000
 11
8.751729
 21
1.604929
 31
0.000000
  0
LINE
  8
Layer 1
 62
     7
  6
CONTINUOUS
 10
8.751729
 20
1.604929
 30
0.000000
 11
8.760458
 21
1.639076
 31
0.000000
  0
LINE
  8
Layer 1
 62
     7
  6
CONTINUOUS
 10
8.760458
 20
1.639076
 30
0.000000
 11
8.779715
 21
1.667379
 31
0.000000
  0
LINE
  8
Layer 1
 62
     7
  6
CONTINUOUS
 10
8.779715
 20
1.667379
 30
0.000000
 11
8.808183
 21
1.689103
 31
0.000000
  0
LINE
  8
Layer 1
 62
     7
  6
CONTINUOUS
 10
8.808183
 20
1.689103
 30
0.000000
 11
8.844543
 21
1.703515
 31
0.000000
  0
LINE
  8
Layer 1
 62
     7
  6
CONTINUOUS
 10
8.844543
 20
1.703515
 30
0.000000
 11
8.887478
 21
1.709878
 31
0.000000
  0
LINE
  8
Layer 1
 62
     7
  6
CONTINUOUS
 10
8.887478
 20
1.709878
 30
0.000000
 11
8.987803
 21
1.695524
 31
0.000000
  0
LINE
  8
Layer 1
 62
     7
  6
CONTINUOUS
 10
8.987803
 20
1.695524
 30
0.000000
 11
9.043038
 21
1.673326
 31
0.000000
  0
LINE
  8
Layer 1
 62
     7
  6
CONTINUOUS
 10
9.043038
 20
1.673326
 30
0.000000
 11
9.075879
 21
1.636343
 31
0.000000
  0
LINE
  8
Layer 1
 62
     7
  6
CONTINUOUS
 10
9.075879
 20
1.636343
 30
0.000000
 11
9.096986
 21
1.562718
 31
0.000000
  0
LINE
  8
Layer 1
 62
     7
  6
CONTINUOUS
 10
9.096986
 20
1.562718
 30
0.000000
 11
9.117019
 21
1.430595
 31
0.000000
  0
LINE
  8
Layer 1
 62
     7
  6
CONTINUOUS
 10
9.117019
 20
1.430595
 30
0.000000
 11
9.138373
 21
1.302649
 31
0.000000
  0
LINE
  8
Layer 1
 62
     7
  6
CONTINUOUS
 10
9.138373
 20
1.302649
 30
0.000000
 11
9.167207
 21
1.204711
 31
0.000000
  0
LINE
  8
Layer 1
 62
     7
  6
CONTINUOUS
 10
9.167207
 20
1.204711
 30
0.000000
 11
9.212358
 21
1.114279
 31
0.000000
  0
LINE
  8
Layer 1
 62
     7
  6
CONTINUOUS
 10
9.212358
 20
1.114279
 30
0.000000
 11
9.282664
 21
1.008853
 31
0.000000
  0
LINE
  8
Layer 1
 62
     7
  6
CONTINUOUS
 10
9.282664
 20
1.008853
 30
0.000000
 11
9.481990
 21
0.722563
 31
0.000000
  0
LINE
  8
Layer 1
 62
     7
  6
CONTINUOUS
 10
9.481990
 20
0.722563
 30
0.000000
 11
9.537602
 21
0.605173
 31
0.000000
  0
LINE
  8
Layer 1
 62
     7
  6
CONTINUOUS
 10
9.537602
 20
0.605173
 30
0.000000
 11
9.580656
 21
0.454198
 31
0.000000
  0
LINE
  8
Layer 1
 62
     7
  6
CONTINUOUS
 10
9.580656
 20
0.454198
 30
0.000000
 11
9.603775
 21
0.303299
 31
0.000000
  0
LINE
  8
Layer 1
 62
     7
  6
CONTINUOUS
 10
9.603775
 20
0.303299
 30
0.000000
 11
9.599579
 21
0.186135
 31
0.000000
  0
LINE
  8
Layer 1
 62
     7
  6
CONTINUOUS
 10
9.599579
 20
0.186135
 30
0.000000
 11
9.575623
 21
0.129258
 31
0.000000
  0
LINE
  8
Layer 1
 62
     7
  6
CONTINUOUS
 10
9.575623
 20
0.129258
 30
0.000000
 11
9.541975
 21
0.103077
 31
0.000000
  0
LINE
  8
Layer 1
 62
     7
  6
CONTINUOUS
 10
9.541975
 20
0.103077
 30
0.000000
 11
9.507094
 21
0.109974
 31
0.000000
  0
LINE
  8
Layer 1
 62
     7
  6
CONTINUOUS
 10
9.507094
 20
0.109974
 30
0.000000
 11
9.479437
 21
0.152327
 31
0.000000
  0
LINE
  8
Layer 1
 62
     7
  6
CONTINUOUS
 10
12.305019
 20
0.748494
 30
0.000000
 11
12.243653
 21
0.789719
 31
0.000000
  0
LINE
  8
Layer 1
 62
     7
  6
CONTINUOUS
 10
12.243653
 20
0.789719
 30
0.000000
 11
12.193063
 21
0.809518
 31
0.000000
  0
LINE
  8
Layer 1
 62
     7
  6
CONTINUOUS
 10
12.193063
 20
0.809518
 30
0.000000
 11
12.138518
 21
0.810854
 31
0.000000
  0
LINE
  8
Layer 1
 62
     7
  6
CONTINUOUS
 10
12.138518
 20
0.810854
 30
0.000000
 11
12.065286
 21
0.796686
 31
0.000000
  0
LINE
  8
Layer 1
 62
     7
  6
CONTINUOUS
 10
12.065286
 20
0.796686
 30
0.000000
 11
11.859118
 21
0.776845
 31
0.000000
  0
LINE
  8
Layer 1
 62
     7
  6
CONTINUOUS
 10
11.859118
 20
0.776845
 30
0.000000
 11
11.553073
 21
0.772468
 31
0.000000
  0
LINE
  8
Layer 1
 62
     7
  6
CONTINUOUS
 10
11.553073
 20
0.772468
 30
0.000000
 11
11.265452
 21
0.782440
 31
0.000000
  0
LINE
  8
Layer 1
 62
     7
  6
CONTINUOUS
 10
11.265452
 20
0.782440
 30
0.000000
 11
11.165519
 21
0.792458
 31
0.000000
  0
LINE
  8
Layer 1
 62
     7
  6
CONTINUOUS
 10
11.165519
 20
0.792458
 30
0.000000
 11
11.114555
 21
0.805646
 31
0.000000
  0
LINE
  8
Layer 1
 62
     7
  6
CONTINUOUS
 10
11.114555
 20
0.805646
 30
0.000000
 11
11.023309
 21
0.827959
 31
0.000000
  0
LINE
  8
Layer 1
 62
     7
  6
CONTINUOUS
 10
11.023309
 20
0.827959
 30
0.000000
 11
10.859838
 21
0.843403
 31
0.000000
  0
LINE
  8
Layer 1
 62
     7
  6
CONTINUOUS
 10
10.859838
 20
0.843403
 30
0.000000
 11
10.745428
 21
0.854461
 31
0.000000
  0
LINE
  8
Layer 1
 62
     7
  6
CONTINUOUS
 10
10.745428
 20
0.854461
 30
0.000000
 11
10.632384
 21
0.877597
 31
0.000000
  0
LINE
  8
Layer 1
 62
     7
  6
CONTINUOUS
 10
10.632384
 20
0.877597
 30
0.000000
 11
10.511686
 21
0.915152
 31
0.000000
  0
LINE
  8
Layer 1
 62
     7
  6
CONTINUOUS
 10
10.511686
 20
0.915152
 30
0.000000
 11
10.374312
 21
0.969470
 31
0.000000
  0
LINE
  8
Layer 1
 62
     7
  6
CONTINUOUS
 10
10.374312
 20
0.969470
 30
0.000000
 11
10.074068
 21
1.081370
 31
0.000000
  0
LINE
  8
Layer 1
 62
     7
  6
CONTINUOUS
 10
10.074068
 20
1.081370
 30
0.000000
 11
9.732224
 21
1.188198
 31
0.000000
  0
LINE
  8
Layer 1
 62
     7
  6
CONTINUOUS
 10
9.732224
 20
1.188198
 30
0.000000
 11
9.455003
 21
1.269855
 31
0.000000
  0
LINE
  8
Layer 1
 62
     7
  6
CONTINUOUS
 10
9.455003
 20
1.269855
 30
0.000000
 11
9.310124
 21
1.321239
 31
0.000000
  0
LINE
  8
Layer 1
 62
     7
  6
CONTINUOUS
 10
9.310124
 20
1.321239
 30
0.000000
 11
9.287078
 21
1.345456
 31
0.000000
  0
LINE
  8
Layer 1
 62
     7
  6
CONTINUOUS
 10
9.287078
 20
1.345456
 30
0.000000
 11
9.267148
 21
1.388430
 31
0.000000
  0
LINE
  8
Layer 1
 62
     7
  6
CONTINUOUS
 10
9.267148
 20
1.388430
 30
0.000000
 11
9.238476
 21
1.525416
 31
0.000000
  0
LINE
  8
Layer 1
 62
     7
  6
CONTINUOUS
 10
9.238476
 20
1.525416
 30
0.000000
 11
9.214127
 21
1.716260
 31
0.000000
  0
LINE
  8
Layer 1
 62
     7
  6
CONTINUOUS
 10
9.214127
 20
1.716260
 30
0.000000
 11
9.216552
 21
1.731631
 31
0.000000
  0
LINE
  8
Layer 1
 62
     7
  6
CONTINUOUS
 10
9.216552
 20
1.731631
 30
0.000000
 11
9.230430
 21
1.740446
 31
0.000000
  0
LINE
  8
Layer 1
 62
     7
  6
CONTINUOUS
 10
9.230430
 20
1.740446
 30
0.000000
 11
9.286692
 21
1.739453
 31
0.000000
  0
LINE
  8
Layer 1
 62
     7
  6
CONTINUOUS
 10
9.286692
 20
1.739453
 30
0.000000
 11
9.371211
 21
1.715366
 31
0.000000
  0
LINE
  8
Layer 1
 62
     7
  6
CONTINUOUS
 10
9.371211
 20
1.715366
 30
0.000000
 11
9.472288
 21
1.670269
 31
0.000000
  0
LINE
  8
Layer 1
 62
     7
  6
CONTINUOUS
 10
9.472288
 20
1.670269
 30
0.000000
 11
9.718470
 21
1.558850
 31
0.000000
  0
LINE
  8
Layer 1
 62
     7
  6
CONTINUOUS
 10
9.718470
 20
1.558850
 30
0.000000
 11
10.030615
 21
1.454516
 31
0.000000
  0
LINE
  8
Layer 1
 62
     7
  6
CONTINUOUS
 10
10.030615
 20
1.454516
 30
0.000000
 11
10.165465
 21
1.403551
 31
0.000000
  0
LINE
  8
Layer 1
 62
     7
  6
CONTINUOUS
 10
10.165465
 20
1.403551
 30
0.000000
 11
10.300316
 21
1.337729
 31
0.000000
  0
LINE
  8
Layer 1
 62
     7
  6
CONTINUOUS
 10
10.300316
 20
1.337729
 30
0.000000
 11
10.446271
 21
1.280860
 31
0.000000
  0
LINE
  8
Layer 1
 62
     7
  6
CONTINUOUS
 10
10.446271
 20
1.280860
 30
0.000000
 11
10.663614
 21
1.221399
 31
0.000000
  0
LINE
  8
Layer 1
 62
     7
  6
CONTINUOUS
 10
10.663614
 20
1.221399
 30
0.000000
 11
10.888973
 21
1.174564
 31
0.000000
  0
LINE
  8
Layer 1
 62
     7
  6
CONTINUOUS
 10
10.888973
 20
1.174564
 30
0.000000
 11
11.058974
 21
1.155571
 31
0.000000
  0
LINE
  8
Layer 1
 62
     7
  6
CONTINUOUS
 10
11.058974
 20
1.155571
 30
0.000000
 11
11.136721
 21
1.137200
 31
0.000000
  0
LINE
  8
Layer 1
 62
     7
  6
CONTINUOUS
 10
11.136721
 20
1.137200
 30
0.000000
 11
11.240985
 21
1.093032
 31
0.000000
  0
LINE
  8
Layer 1
 62
     7
  6
CONTINUOUS
 10
11.240985
 20
1.093032
 30
0.000000
 11
11.313860
 21
1.065343
 31
0.000000
  0
LINE
  8
Layer 1
 62
     7
  6
CONTINUOUS
 10
11.313860
 20
1.065343
 30
0.000000
 11
11.418242
 21
1.038264
 31
0.000000
  0
LINE
  8
Layer 1
 62
     7
  6
CONTINUOUS
 10
11.418242
 20
1.038264
 30
0.000000
 11
11.678785
 21
0.995458
 31
0.000000
  0
LINE
  8
Layer 1
 62
     7
  6
CONTINUOUS
 10
11.678785
 20
0.995458
 30
0.000000
 11
11.916787
 21
0.960810
 31
0.000000
  0
LINE
  8
Layer 1
 62
     7
  6
CONTINUOUS
 10
11.916787
 20
0.960810
 30
0.000000
 11
12.101321
 21
0.914390
 31
0.000000
  0
LINE
  8
Layer 1
 62
     7
  6
CONTINUOUS
 10
12.101321
 20
0.914390
 30
0.000000
 11
12.242142
 21
0.852963
 31
0.000000
  0
LINE
  8
Layer 1
 62
     7
  6
CONTINUOUS
 10
12.242142
 20
0.852963
 30
0.000000
 11
12.349003
 21
0.773297
 31
0.000000
  0
LINE
  8
Layer 1
 62
     7
  6
CONTINUOUS
 10
12.349003
 20
0.773297
 30
0.000000
 11
12.409278
 21
0.708906
 31
0.000000
  0
LINE
  8
Layer 1
 62
     7
  6
CONTINUOUS
 10
12.409278
 20
0.708906
 30
0.000000
 11
12.420270
 21
0.682311
 31
0.000000
  0
LINE
  8
Layer 1
 62
     7
  6
CONTINUOUS
 10
12.420270
 20
0.682311
 30
0.000000
 11
12.384633
 21
0.695008
 31
0.000000
  0
LINE
  8
Layer 1
 62
     7
  6
CONTINUOUS
 10
12.384633
 20
0.695008
 30
0.000000
 11
12.305019
 21
0.748494
 31
0.000000
  0
LINE
  8
Layer 1
 62
     7
  6
CONTINUOUS
 10
12.301362
 20
1.296027
 30
0.000000
 11
12.179459
 21
1.560597
 31
0.000000
  0
LINE
  8
Layer 1
 62
     7
  6
CONTINUOUS
 10
12.179459
 20
1.560597
 30
0.000000
 11
12.134428
 21
1.660223
 31
0.000000
  0
LINE
  8
Layer 1
 62
     7
  6
CONTINUOUS
 10
12.134428
 20
1.660223
 30
0.000000
 11
12.091518
 21
1.727744
 31
0.000000
  0
LINE
  8
Layer 1
 62
     7
  6
CONTINUOUS
 10
12.091518
 20
1.727744
 30
0.000000
 11
12.040764
 21
1.775412
 31
0.000000
  0
LINE
  8
Layer 1
 62
     7
  6
CONTINUOUS
 10
12.040764
 20
1.775412
 30
0.000000
 11
11.972202
 21
1.815481
 31
0.000000
  0
LINE
  8
Layer 1
 62
     7
  6
CONTINUOUS
 10
11.972202
 20
1.815481
 30
0.000000
 11
11.843388
 21
1.861062
 31
0.000000
  0
LINE
  8
Layer 1
 62
     7
  6
CONTINUOUS
 10
11.843388
 20
1.861062
 30
0.000000
 11
11.714274
 21
1.880444
 31
0.000000
  0
LINE
  8
Layer 1
 62
     7
  6
CONTINUOUS
 10
11.714274
 20
1.880444
 30
0.000000
 11
11.613780
 21
1.889242
 31
0.000000
  0
LINE
  8
Layer 1
 62
     7
  6
CONTINUOUS
 10
11.613780
 20
1.889242
 30
0.000000
 11
11.536381
 21
1.912968
 31
0.000000
  0
LINE
  8
Layer 1
 62
     7
  6
CONTINUOUS
 10
11.536381
 20
1.912968
 30
0.000000
 11
11.486615
 21
1.949471
 31
0.000000
  0
LINE
  8
Layer 1
 62
     7
  6
CONTINUOUS
 10
11.486615
 20
1.949471
 30
0.000000
 11
11.469018
 21
1.996604
 31
0.000000
  0
LINE
  8
Layer 1
 62
     7
  6
CONTINUOUS
 10
11.469018
 20
1.996604
 30
0.000000
 11
11.484720
 21
2.045382
 31
0.000000
  0
LINE
  8
Layer 1
 62
     7
  6
CONTINUOUS
 10
11.484720
 20
2.045382
 30
0.000000
 11
11.528023
 21
2.079326
 31
0.000000
  0
LINE
  8
Layer 1
 62
     7
  6
CONTINUOUS
 10
11.528023
 20
2.079326
 30
0.000000
 11
11.593224
 21
2.098595
 31
0.000000
  0
LINE
  8
Layer 1
 62
     7
  6
CONTINUOUS
 10
11.593224
 20
2.098595
 30
0.000000
 11
11.674623
 21
2.103348
 31
0.000000
  0
LINE
  8
Layer 1
 62
     7
  6
CONTINUOUS
 10
11.674623
 20
2.103348
 30
0.000000
 11
11.766515
 21
2.093746
 31
0.000000
  0
LINE
  8
Layer 1
 62
     7
  6
CONTINUOUS
 10
11.766515
 20
2.093746
 30
0.000000
 11
11.863199
 21
2.069948
 31
0.000000
  0
LINE
  8
Layer 1
 62
     7
  6
CONTINUOUS
 10
11.863199
 20
2.069948
 30
0.000000
 11
11.958972
 21
2.032112
 31
0.000000
  0
LINE
  8
Layer 1
 62
     7
  6
CONTINUOUS
 10
11.958972
 20
2.032112
 30
0.000000
 11
12.048132
 21
1.980400
 31
0.000000
  0
LINE
  8
Layer 1
 62
     7
  6
CONTINUOUS
 10
12.048132
 20
1.980400
 30
0.000000
 11
12.116830
 21
1.925309
 31
0.000000
  0
LINE
  8
Layer 1
 62
     7
  6
CONTINUOUS
 10
12.116830
 20
1.925309
 30
0.000000
 11
12.181652
 21
1.859695
 31
0.000000
  0
LINE
  8
Layer 1
 62
     7
  6
CONTINUOUS
 10
12.181652
 20
1.859695
 30
0.000000
 11
12.293153
 21
1.707758
 31
0.000000
  0
LINE
  8
Layer 1
 62
     7
  6
CONTINUOUS
 10
12.293153
 20
1.707758
 30
0.000000
 11
12.369607
 21
1.546311
 31
0.000000
  0
LINE
  8
Layer 1
 62
     7
  6
CONTINUOUS
 10
12.369607
 20
1.546311
 30
0.000000
 11
12.390621
 21
1.468809
 31
0.000000
  0
LINE
  8
Layer 1
 62
     7
  6
CONTINUOUS
 10
12.390621
 20
1.468809
 30
0.000000
 11
12.397987
 21
1.397075
 31
0.000000
  0
LINE
  8
Layer 1
 62
     7
  6
CONTINUOUS
 10
12.397987
 20
1.397075
 30
0.000000
 11
12.391289
 21
1.297502
 31
0.000000
  0
LINE
  8
Layer 1
 62
     7
  6
CONTINUOUS
 10
12.391289
 20
1.297502
 30
0.000000
 11
12.372073
 21
1.246550
 31
0.000000
  0
LINE
  8
Layer 1
 62
     7
  6
CONTINUOUS
 10
12.372073
 20
1.246550
 30
0.000000
 11
12.358183
 21
1.239738
 31
0.000000
  0
LINE
  8
Layer 1
 62
     7
  6
CONTINUOUS
 10
12.358183
 20
1.239738
 30
0.000000
 11
12.341658
 21
1.245599
 31
0.000000
  0
LINE
  8
Layer 1
 62
     7
  6
CONTINUOUS
 10
12.341658
 20
1.245599
 30
0.000000
 11
12.301362
 21
1.296027
 31
0.000000
  0
LINE
  8
Layer 1
 62
     7
  6
CONTINUOUS
 10
14.840275
 20
1.371394
 30
0.000000
 11
14.667592
 21
1.426044
 31
0.000000
  0
LINE
  8
Layer 1
 62
     7
  6
CONTINUOUS
 10
14.667592
 20
1.426044
 30
0.000000
 11
14.420741
 21
1.487969
 31
0.000000
  0
LINE
  8
Layer 1
 62
     7
  6
CONTINUOUS
 10
14.420741
 20
1.487969
 30
0.000000
 11
13.972800
 21
1.602847
 31
0.000000
  0
LINE
  8
Layer 1
 62
     7
  6
CONTINUOUS
 10
13.972800
 20
1.602847
 30
0.000000
 11
13.784186
 21
1.651444
 31
0.000000
  0
LINE
  8
Layer 1
 62
     7
  6
CONTINUOUS
 10
13.784186
 20
1.651444
 30
0.000000
 11
13.538925
 21
1.701200
 31
0.000000
  0
LINE
  8
Layer 1
 62
     7
  6
CONTINUOUS
 10
13.538925
 20
1.701200
 30
0.000000
 11
13.290128
 21
1.751990
 31
0.000000
  0
LINE
  8
Layer 1
 62
     7
  6
CONTINUOUS
 10
13.290128
 20
1.751990
 30
0.000000
 11
13.093016
 21
1.803073
 31
0.000000
  0
LINE
  8
Layer 1
 62
     7
  6
CONTINUOUS
 10
13.093016
 20
1.803073
 30
0.000000
 11
13.007946
 21
1.825507
 31
0.000000
  0
LINE
  8
Layer 1
 62
     7
  6
CONTINUOUS
 10
13.007946
 20
1.825507
 30
0.000000
 11
12.922769
 21
1.837475
 31
0.000000
  0
LINE
  8
Layer 1
 62
     7
  6
CONTINUOUS
 10
12.922769
 20
1.837475
 30
0.000000
 11
12.831702
 21
1.839435
 31
0.000000
  0
LINE
  8
Layer 1
 62
     7
  6
CONTINUOUS
 10
12.831702
 20
1.839435
 30
0.000000
 11
12.728960
 21
1.831844
 31
0.000000
  0
LINE
  8
Layer 1
 62
     7
  6
CONTINUOUS
 10
12.728960
 20
1.831844
 30
0.000000
 11
12.586691
 21
1.823807
 31
0.000000
  0
LINE
  8
Layer 1
 62
     7
  6
CONTINUOUS
 10
12.586691
 20
1.823807
 30
0.000000
 11
12.476718
 21
1.843359
 31
0.000000
  0
LINE
  8
Layer 1
 62
     7
  6
CONTINUOUS
 10
12.476718
 20
1.843359
 30
0.000000
 11
12.371222
 21
1.900385
 31
0.000000
  0
LINE
  8
Layer 1
 62
     7
  6
CONTINUOUS
 10
12.371222
 20
1.900385
 30
0.000000
 11
12.242385
 21
2.004771
 31
0.000000
  0
LINE
  8
Layer 1
 62
     7
  6
CONTINUOUS
 10
12.242385
 20
2.004771
 30
0.000000
 11
12.114136
 21
2.090654
 31
0.000000
  0
LINE
  8
Layer 1
 62
     7
  6
CONTINUOUS
 10
12.114136
 20
2.090654
 30
0.000000
 11
11.961176
 21
2.160861
 31
0.000000
  0
LINE
  8
Layer 1
 62
     7
  6
CONTINUOUS
 10
11.961176
 20
2.160861
 30
0.000000
 11
11.835409
 21
2.214173
 31
0.000000
  0
LINE
  8
Layer 1
 62
     7
  6
CONTINUOUS
 10
11.835409
 20
2.214173
 30
0.000000
 11
11.823775
 21
2.232961
 31
0.000000
  0
LINE
  8
Layer 1
 62
     7
  6
CONTINUOUS
 10
11.823775
 20
2.232961
 30
0.000000
 11
11.840648
 21
2.250720
 31
0.000000
  0
LINE
  8
Layer 1
 62
     7
  6
CONTINUOUS
 10
11.840648
 20
2.250720
 30
0.000000
 11
11.877857
 21
2.259154
 31
0.000000
  0
LINE
  8
Layer 1
 62
     7
  6
CONTINUOUS
 10
11.877857
 20
2.259154
 30
0.000000
 11
11.945272
 21
2.260959
 31
0.000000
  0
LINE
  8
Layer 1
 62
     7
  6
CONTINUOUS
 10
11.945272
 20
2.260959
 30
0.000000
 11
12.139558
 21
2.247904
 31
0.000000
  0
LINE
  8
Layer 1
 62
     7
  6
CONTINUOUS
 10
12.139558
 20
2.247904
 30
0.000000
 11
12.361182
 21
2.217994
 31
0.000000
  0
LINE
  8
Layer 1
 62
     7
  6
CONTINUOUS
 10
12.361182
 20
2.217994
 30
0.000000
 11
12.547820
 21
2.177667
 31
0.000000
  0
LINE
  8
Layer 1
 62
     7
  6
CONTINUOUS
 10
12.547820
 20
2.177667
 30
0.000000
 11
12.945353
 21
2.082755
 31
0.000000
  0
LINE
  8
Layer 1
 62
     7
  6
CONTINUOUS
 10
12.945353
 20
2.082755
 30
0.000000
 11
13.416856
 21
1.996349
 31
0.000000
  0
LINE
  8
Layer 1
 62
     7
  6
CONTINUOUS
 10
13.416856
 20
1.996349
 30
0.000000
 11
13.714744
 21
1.931769
 31
0.000000
  0
LINE
  8
Layer 1
 62
     7
  6
CONTINUOUS
 10
13.714744
 20
1.931769
 30
0.000000
 11
14.031174
 21
1.837839
 31
0.000000
  0
LINE
  8
Layer 1
 62
     7
  6
CONTINUOUS
 10
14.031174
 20
1.837839
 30
0.000000
 11
14.555591
 21
1.670612
 31
0.000000
  0
LINE
  8
Layer 1
 62
     7
  6
CONTINUOUS
 10
14.555591
 20
1.670612
 30
0.000000
 11
14.888884
 21
1.572573
 31
0.000000
  0
LINE
  8
Layer 1
 62
     7
  6
CONTINUOUS
 10
14.888884
 20
1.572573
 30
0.000000
 11
15.191613
 21
1.469703
 31
0.000000
  0
LINE
  8
Layer 1
 62
     7
  6
CONTINUOUS
 10
15.191613
 20
1.469703
 30
0.000000
 11
15.406508
 21
1.382978
 31
0.000000
  0
LINE
  8
Layer 1
 62
     7
  6
CONTINUOUS
 10
15.406508
 20
1.382978
 30
0.000000
 11
15.463121
 21
1.352225
 31
0.000000
  0
LINE
  8
Layer 1
 62
     7
  6
CONTINUOUS
 10
15.463121
 20
1.352225
 30
0.000000
 11
15.476299
 21
1.333375
 31
0.000000
  0
LINE
  8
Layer 1
 62
     7
  6
CONTINUOUS
 10
15.476299
 20
1.333375
 30
0.000000
 11
15.445062
 21
1.331998
 31
0.000000
  0
LINE
  8
Layer 1
 62
     7
  6
CONTINUOUS
 10
15.445062
 20
1.331998
 30
0.000000
 11
15.393233
 21
1.354302
 31
0.000000
  0
LINE
  8
Layer 1
 62
     7
  6
CONTINUOUS
 10
15.393233
 20
1.354302
 30
0.000000
 11
15.338248
 21
1.373261
 31
0.000000
  0
LINE
  8
Layer 1
 62
     7
  6
CONTINUOUS
 10
15.338248
 20
1.373261
 30
0.000000
 11
15.260747
 21
1.376696
 31
0.000000
  0
LINE
  8
Layer 1
 62
     7
  6
CONTINUOUS
 10
15.260747
 20
1.376696
 30
0.000000
 11
15.156201
 21
1.364388
 31
0.000000
  0
LINE
  8
Layer 1
 62
     7
  6
CONTINUOUS
 10
15.156201
 20
1.364388
 30
0.000000
 11
15.020076
 21
1.336116
 31
0.000000
  0
LINE
  8
Layer 1
 62
     7
  6
CONTINUOUS
 10
15.020076
 20
1.336116
 30
0.000000
 11
14.942537
 21
1.340625
 31
0.000000
  0
LINE
  8
Layer 1
 62
     7
  6
CONTINUOUS
 10
14.942537
 20
1.340625
 30
0.000000
 11
14.840275
 21
1.371394
 31
0.000000
  0
LINE
  8
Layer 1
 62
     7
  6
CONTINUOUS
 10
10.373516
 20
1.499182
 30
0.000000
 11
10.335348
 21
1.542022
 31
0.000000
  0
LINE
  8
Layer 1
 62
     7
  6
CONTINUOUS
 10
10.335348
 20
1.542022
 30
0.000000
 11
10.335986
 21
1.558756
 31
0.000000
  0
LINE
  8
Layer 1
 62
     7
  6
CONTINUOUS
 10
10.335986
 20
1.558756
 30
0.000000
 11
10.351105
 21
1.573156
 31
0.000000
  0
LINE
  8
Layer 1
 62
     7
  6
CONTINUOUS
 10
10.351105
 20
1.573156
 30
0.000000
 11
10.428784
 21
1.597317
 31
0.000000
  0
LINE
  8
Layer 1
 62
     7
  6
CONTINUOUS
 10
10.428784
 20
1.597317
 30
0.000000
 11
10.576384
 21
1.619239
 31
0.000000
  0
LINE
  8
Layer 1
 62
     7
  6
CONTINUOUS
 10
10.576384
 20
1.619239
 30
0.000000
 11
10.773829
 21
1.653093
 31
0.000000
  0
LINE
  8
Layer 1
 62
     7
  6
CONTINUOUS
 10
10.773829
 20
1.653093
 30
0.000000
 11
10.941871
 21
1.697434
 31
0.000000
  0
LINE
  8
Layer 1
 62
     7
  6
CONTINUOUS
 10
10.941871
 20
1.697434
 30
0.000000
 11
11.029842
 21
1.720832
 31
0.000000
  0
LINE
  8
Layer 1
 62
     7
  6
CONTINUOUS
 10
11.029842
 20
1.720832
 30
0.000000
 11
11.134183
 21
1.736947
 31
0.000000
  0
LINE
  8
Layer 1
 62
     7
  6
CONTINUOUS
 10
11.134183
 20
1.736947
 30
0.000000
 11
11.357317
 21
1.747826
 31
0.000000
  0
LINE
  8
Layer 1
 62
     7
  6
CONTINUOUS
 10
11.357317
 20
1.747826
 30
0.000000
 11
11.541957
 21
1.731069
 31
0.000000
  0
LINE
  8
Layer 1
 62
     7
  6
CONTINUOUS
 10
11.541957
 20
1.731069
 30
0.000000
 11
11.598179
 21
1.712640
 31
0.000000
  0
LINE
  8
Layer 1
 62
     7
  6
CONTINUOUS
 10
11.598179
 20
1.712640
 30
0.000000
 11
11.618783
 21
1.687677
 31
0.000000
  0
LINE
  8
Layer 1
 62
     7
  6
CONTINUOUS
 10
11.618783
 20
1.687677
 30
0.000000
 11
11.554934
 21
1.672876
 31
0.000000
  0
LINE
  8
Layer 1
 62
     7
  6
CONTINUOUS
 10
11.554934
 20
1.672876
 30
0.000000
 11
11.401524
 21
1.666625
 31
0.000000
  0
LINE
  8
Layer 1
 62
     7
  6
CONTINUOUS
 10
11.401524
 20
1.666625
 30
0.000000
 11
11.283403
 21
1.661892
 31
0.000000
  0
LINE
  8
Layer 1
 62
     7
  6
CONTINUOUS
 10
11.283403
 20
1.661892
 30
0.000000
 11
11.178541
 21
1.645167
 31
0.000000
  0
LINE
  8
Layer 1
 62
     7
  6
CONTINUOUS
 10
11.178541
 20
1.645167
 30
0.000000
 11
11.069309
 21
1.612374
 31
0.000000
  0
LINE
  8
Layer 1
 62
     7
  6
CONTINUOUS
 10
11.069309
 20
1.612374
 30
0.000000
 11
10.938075
 21
1.559435
 31
0.000000
  0
LINE
  8
Layer 1
 62
     7
  6
CONTINUOUS
 10
10.938075
 20
1.559435
 30
0.000000
 11
10.751256
 21
1.490513
 31
0.000000
  0
LINE
  8
Layer 1
 62
     7
  6
CONTINUOUS
 10
10.751256
 20
1.490513
 30
0.000000
 11
10.592029
 21
1.457191
 31
0.000000
  0
LINE
  8
Layer 1
 62
     7
  6
CONTINUOUS
 10
10.592029
 20
1.457191
 30
0.000000
 11
10.464685
 21
1.459929
 31
0.000000
  0
LINE
  8
Layer 1
 62
     7
  6
CONTINUOUS
 10
10.464685
 20
1.459929
 30
0.000000
 11
10.414310
 21
1.474962
 31
0.000000
  0
LINE
  8
Layer 1
 62
     7
  6
CONTINUOUS
 10
10.414310
 20
1.474962
 30
0.000000
 11
10.373516
 21
1.499182
 31
0.000000
  0
LINE
  8
Layer 1
 62
     7
  6
CONTINUOUS
 10
8.652146
 20
1.795964
 30
0.000000
 11
8.732235
 21
1.989455
 31
0.000000
  0
LINE
  8
Layer 1
 62
     7
  6
CONTINUOUS
 10
8.732235
 20
1.989455
 30
0.000000
 11
8.778137
 21
2.103382
 31
0.000000
  0
LINE
  8
Layer 1
 62
     7
  6
CONTINUOUS
 10
8.778137
 20
2.103382
 30
0.000000
 11
8.805267
 21
2.252404
 31
0.000000
  0
LINE
  8
Layer 1
 62
     7
  6
CONTINUOUS
 10
8.805267
 20
2.252404
 30
0.000000
 11
8.822906
 21
2.523649
 31
0.000000
  0
LINE
  8
Layer 1
 62
     7
  6
CONTINUOUS
 10
8.822906
 20
2.523649
 30
0.000000
 11
8.840335
 21
3.004245
 31
0.000000
  0
LINE
  8
Layer 1
 62
     7
  6
CONTINUOUS
 10
8.840335
 20
3.004245
 30
0.000000
 11
8.868346
 21
3.846977
 31
0.000000
  0
LINE
  8
Layer 1
 62
     7
  6
CONTINUOUS
 10
8.868346
 20
3.846977
 30
0.000000
 11
8.775229
 21
4.268322
 31
0.000000
  0
LINE
  8
Layer 1
 62
     7
  6
CONTINUOUS
 10
8.775229
 20
4.268322
 30
0.000000
 11
8.709465
 21
4.583920
 31
0.000000
  0
LINE
  8
Layer 1
 62
     7
  6
CONTINUOUS
 10
8.709465
 20
4.583920
 30
0.000000
 11
8.682112
 21
4.751023
 31
0.000000
  0
LINE
  8
Layer 1
 62
     7
  6
CONTINUOUS
 10
8.682112
 20
4.751023
 30
0.000000
 11
8.732728
 21
4.903961
 31
0.000000
  0
LINE
  8
Layer 1
 62
     7
  6
CONTINUOUS
 10
8.732728
 20
4.903961
 30
0.000000
 11
8.854421
 21
5.185503
 31
0.000000
  0
LINE
  8
Layer 1
 62
     7
  6
CONTINUOUS
 10
8.854421
 20
5.185503
 30
0.000000
 11
9.011325
 21
5.553945
 31
0.000000
  0
LINE
  8
Layer 1
 62
     7
  6
CONTINUOUS
 10
9.011325
 20
5.553945
 30
0.000000
 11
9.146597
 21
5.915815
 31
0.000000
  0
LINE
  8
Layer 1
 62
     7
  6
CONTINUOUS
 10
9.146597
 20
5.915815
 30
0.000000
 11
9.266464
 21
6.273004
 31
0.000000
  0
LINE
  8
Layer 1
 62
     7
  6
CONTINUOUS
 10
9.266464
 20
6.273004
 30
0.000000
 11
9.395303
 21
6.257745
 31
0.000000
  0
LINE
  8
Layer 1
 62
     7
  6
CONTINUOUS
 10
9.395303
 20
6.257745
 30
0.000000
 11
9.491975
 21
6.240717
 31
0.000000
  0
LINE
  8
Layer 1
 62
     7
  6
CONTINUOUS
 10
9.491975
 20
6.240717
 30
0.000000
 11
9.543476
 21
6.221206
 31
0.000000
  0
LINE
  8
Layer 1
 62
     7
  6
CONTINUOUS
 10
9.543476
 20
6.221206
 30
0.000000
 11
9.541300
 21
6.180131
 31
0.000000
  0
LINE
  8
Layer 1
 62
     7
  6
CONTINUOUS
 10
9.541300
 20
6.180131
 30
0.000000
 11
9.504264
 21
6.081856
 31
0.000000
  0
LINE
  8
Layer 1
 62
     7
  6
CONTINUOUS
 10
9.504264
 20
6.081856
 30
0.000000
 11
9.310515
 21
5.678541
 31
0.000000
  0
LINE
  8
Layer 1
 62
     7
  6
CONTINUOUS
 10
9.310515
 20
5.678541
 30
0.000000
 11
9.253411
 21
5.537297
 31
0.000000
  0
LINE
  8
Layer 1
 62
     7
  6
CONTINUOUS
 10
9.253411
 20
5.537297
 30
0.000000
 11
9.225138
 21
5.393013
 31
0.000000
  0
LINE
  8
Layer 1
 62
     7
  6
CONTINUOUS
 10
9.225138
 20
5.393013
 30
0.000000
 11
9.224838
 21
5.236646
 31
0.000000
  0
LINE
  8
Layer 1
 62
     7
  6
CONTINUOUS
 10
9.224838
 20
5.236646
 30
0.000000
 11
9.251650
 21
5.059155
 31
0.000000
  0
LINE
  8
Layer 1
 62
     7
  6
CONTINUOUS
 10
9.251650
 20
5.059155
 30
0.000000
 11
9.264082
 21
4.978936
 31
0.000000
  0
LINE
  8
Layer 1
 62
     7
  6
CONTINUOUS
 10
9.264082
 20
4.978936
 30
0.000000
 11
9.258631
 21
4.908279
 31
0.000000
  0
LINE
  8
Layer 1
 62
     7
  6
CONTINUOUS
 10
9.258631
 20
4.908279
 30
0.000000
 11
9.229872
 21
4.822360
 31
0.000000
  0
LINE
  8
Layer 1
 62
     7
  6
CONTINUOUS
 10
9.229872
 20
4.822360
 30
0.000000
 11
9.172383
 21
4.696356
 31
0.000000
  0
LINE
  8
Layer 1
 62
     7
  6
CONTINUOUS
 10
9.172383
 20
4.696356
 30
0.000000
 11
9.064445
 21
4.470231
 31
0.000000
  0
LINE
  8
Layer 1
 62
     7
  6
CONTINUOUS
 10
9.064445
 20
4.470231
 30
0.000000
 11
9.083971
 21
3.893051
 31
0.000000
  0
LINE
  8
Layer 1
 62
     7
  6
CONTINUOUS
 10
9.083971
 20
3.893051
 30
0.000000
 11
9.116530
 21
3.200436
 31
0.000000
  0
LINE
  8
Layer 1
 62
     7
  6
CONTINUOUS
 10
9.116530
 20
3.200436
 30
0.000000
 11
9.145448
 21
2.623256
 31
0.000000
  0
LINE
  8
Layer 1
 62
     7
  6
CONTINUOUS
 10
9.145448
 20
2.623256
 30
0.000000
 11
9.165190
 21
2.264513
 31
0.000000
  0
LINE
  8
Layer 1
 62
     7
  6
CONTINUOUS
 10
9.165190
 20
2.264513
 30
0.000000
 11
9.190351
 21
2.050408
 31
0.000000
  0
LINE
  8
Layer 1
 62
     7
  6
CONTINUOUS
 10
9.190351
 20
2.050408
 30
0.000000
 11
9.199505
 21
1.996363
 31
0.000000
  0
LINE
  8
Layer 1
 62
     7
  6
CONTINUOUS
 10
9.199505
 20
1.996363
 30
0.000000
 11
9.196931
 21
1.949328
 31
0.000000
  0
LINE
  8
Layer 1
 62
     7
  6
CONTINUOUS
 10
9.196931
 20
1.949328
 30
0.000000
 11
9.182657
 21
1.909329
 31
0.000000
  0
LINE
  8
Layer 1
 62
     7
  6
CONTINUOUS
 10
9.182657
 20
1.909329
 30
0.000000
 11
9.156713
 21
1.876396
 31
0.000000
  0
LINE
  8
Layer 1
 62
     7
  6
CONTINUOUS
 10
9.156713
 20
1.876396
 30
0.000000
 11
9.119129
 21
1.850554
 31
0.000000
  0
LINE
  8
Layer 1
 62
     7
  6
CONTINUOUS
 10
9.119129
 20
1.850554
 30
0.000000
 11
9.069934
 21
1.831831
 31
0.000000
  0
LINE
  8
Layer 1
 62
     7
  6
CONTINUOUS
 10
9.069934
 20
1.831831
 30
0.000000
 11
8.936830
 21
1.815852
 31
0.000000
  0
LINE
  8
Layer 1
 62
     7
  6
CONTINUOUS
 10
8.936830
 20
1.815852
 30
0.000000
 11
8.811203
 21
1.808917
 31
0.000000
  0
LINE
  8
Layer 1
 62
     7
  6
CONTINUOUS
 10
8.811203
 20
1.808917
 30
0.000000
 11
8.719571
 21
1.794417
 31
0.000000
  0
LINE
  8
Layer 1
 62
     7
  6
CONTINUOUS
 10
8.719571
 20
1.794417
 30
0.000000
 11
8.671952
 21
1.786668
 31
0.000000
  0
LINE
  8
Layer 1
 62
     7
  6
CONTINUOUS
 10
8.671952
 20
1.786668
 30
0.000000
 11
8.652146
 21
1.795964
 31
0.000000
  0
LINE
  8
Layer 1
 62
     7
  6
CONTINUOUS
 10
13.311972
 20
2.217878
 30
0.000000
 11
12.832504
 21
2.265877
 31
0.000000
  0
LINE
  8
Layer 1
 62
     7
  6
CONTINUOUS
 10
12.832504
 20
2.265877
 30
0.000000
 11
12.592771
 21
2.289957
 31
0.000000
  0
LINE
  8
Layer 1
 62
     7
  6
CONTINUOUS
 10
12.592771
 20
2.289957
 30
0.000000
 11
12.907421
 21
2.322184
 31
0.000000
  0
LINE
  8
Layer 1
 62
     7
  6
CONTINUOUS
 10
12.907421
 20
2.322184
 30
0.000000
 11
13.336894
 21
2.345678
 31
0.000000
  0
LINE
  8
Layer 1
 62
     7
  6
CONTINUOUS
 10
13.336894
 20
2.345678
 30
0.000000
 11
13.927608
 21
2.356907
 31
0.000000
  0
LINE
  8
Layer 1
 62
     7
  6
CONTINUOUS
 10
13.927608
 20
2.356907
 30
0.000000
 11
14.308438
 21
2.356460
 31
0.000000
  0
LINE
  8
Layer 1
 62
     7
  6
CONTINUOUS
 10
14.308438
 20
2.356460
 30
0.000000
 11
14.532275
 21
2.349208
 31
0.000000
  0
LINE
  8
Layer 1
 62
     7
  6
CONTINUOUS
 10
14.532275
 20
2.349208
 30
0.000000
 11
14.651086
 21
2.331341
 31
0.000000
  0
LINE
  8
Layer 1
 62
     7
  6
CONTINUOUS
 10
14.651086
 20
2.331341
 30
0.000000
 11
14.716835
 21
2.299049
 31
0.000000
  0
LINE
  8
Layer 1
 62
     7
  6
CONTINUOUS
 10
14.716835
 20
2.299049
 30
0.000000
 11
14.771540
 21
2.251581
 31
0.000000
  0
LINE
  8
Layer 1
 62
     7
  6
CONTINUOUS
 10
14.771540
 20
2.251581
 30
0.000000
 11
14.785542
 21
2.222205
 31
0.000000
  0
LINE
  8
Layer 1
 62
     7
  6
CONTINUOUS
 10
14.785542
 20
2.222205
 30
0.000000
 11
14.754390
 21
2.225125
 31
0.000000
  0
LINE
  8
Layer 1
 62
     7
  6
CONTINUOUS
 10
14.754390
 20
2.225125
 30
0.000000
 11
14.700533
 21
2.255302
 31
0.000000
  0
LINE
  8
Layer 1
 62
     7
  6
CONTINUOUS
 10
14.700533
 20
2.255302
 30
0.000000
 11
14.654758
 21
2.279810
 31
0.000000
  0
LINE
  8
Layer 1
 62
     7
  6
CONTINUOUS
 10
14.654758
 20
2.279810
 30
0.000000
 11
14.595923
 21
2.288743
 31
0.000000
  0
LINE
  8
Layer 1
 62
     7
  6
CONTINUOUS
 10
14.595923
 20
2.288743
 30
0.000000
 11
14.504461
 21
2.282442
 31
0.000000
  0
LINE
  8
Layer 1
 62
     7
  6
CONTINUOUS
 10
14.504461
 20
2.282442
 30
0.000000
 11
14.360808
 21
2.261252
 31
0.000000
  0
LINE
  8
Layer 1
 62
     7
  6
CONTINUOUS
 10
14.360808
 20
2.261252
 30
0.000000
 11
14.091006
 21
2.226321
 31
0.000000
  0
LINE
  8
Layer 1
 62
     7
  6
CONTINUOUS
 10
14.091006
 20
2.226321
 30
0.000000
 11
13.817109
 21
2.207069
 31
0.000000
  0
LINE
  8
Layer 1
 62
     7
  6
CONTINUOUS
 10
13.817109
 20
2.207069
 30
0.000000
 11
13.552851
 21
2.204066
 31
0.000000
  0
LINE
  8
Layer 1
 62
     7
  6
CONTINUOUS
 10
13.552851
 20
2.204066
 30
0.000000
 11
13.311972
 21
2.217878
 31
0.000000
  0
LINE
  8
Layer 1
 62
     7
  6
CONTINUOUS
 10
11.469018
 20
2.424067
 30
0.000000
 11
11.460876
 21
2.601609
 31
0.000000
  0
LINE
  8
Layer 1
 62
     7
  6
CONTINUOUS
 10
11.460876
 20
2.601609
 30
0.000000
 11
11.436009
 21
2.790071
 31
0.000000
  0
LINE
  8
Layer 1
 62
     7
  6
CONTINUOUS
 10
11.436009
 20
2.790071
 30
0.000000
 11
11.393753
 21
2.991596
 31
0.000000
  0
LINE
  8
Layer 1
 62
     7
  6
CONTINUOUS
 10
11.393753
 20
2.991596
 30
0.000000
 11
11.333448
 21
3.208326
 31
0.000000
  0
LINE
  8
Layer 1
 62
     7
  6
CONTINUOUS
 10
11.333448
 20
3.208326
 30
0.000000
 11
11.254430
 21
3.442404
 31
0.000000
  0
LINE
  8
Layer 1
 62
     7
  6
CONTINUOUS
 10
11.254430
 20
3.442404
 30
0.000000
 11
11.156038
 21
3.695973
 31
0.000000
  0
LINE
  8
Layer 1
 62
     7
  6
CONTINUOUS
 10
11.156038
 20
3.695973
 30
0.000000
 11
10.898480
 21
4.270157
 31
0.000000
  0
LINE
  8
Layer 1
 62
     7
  6
CONTINUOUS
 10
10.898480
 20
4.270157
 30
0.000000
 11
10.765071
 21
4.570684
 31
0.000000
  0
LINE
  8
Layer 1
 62
     7
  6
CONTINUOUS
 10
10.765071
 20
4.570684
 30
0.000000
 11
10.624363
 21
4.922015
 31
0.000000
  0
LINE
  8
Layer 1
 62
     7
  6
CONTINUOUS
 10
10.624363
 20
4.922015
 30
0.000000
 11
10.504992
 21
5.249420
 31
0.000000
  0
LINE
  8
Layer 1
 62
     7
  6
CONTINUOUS
 10
10.504992
 20
5.249420
 30
0.000000
 11
10.435594
 21
5.478166
 31
0.000000
  0
LINE
  8
Layer 1
 62
     7
  6
CONTINUOUS
 10
10.435594
 20
5.478166
 30
0.000000
 11
10.433240
 21
5.531388
 31
0.000000
  0
LINE
  8
Layer 1
 62
     7
  6
CONTINUOUS
 10
10.433240
 20
5.531388
 30
0.000000
 11
10.448895
 21
5.601975
 31
0.000000
  0
LINE
  8
Layer 1
 62
     7
  6
CONTINUOUS
 10
10.448895
 20
5.601975
 30
0.000000
 11
10.543325
 21
5.824473
 31
0.000000
  0
LINE
  8
Layer 1
 62
     7
  6
CONTINUOUS
 10
10.543325
 20
5.824473
 30
0.000000
 11
10.658194
 21
6.054357
 31
0.000000
  0
LINE
  8
Layer 1
 62
     7
  6
CONTINUOUS
 10
10.658194
 20
6.054357
 30
0.000000
 11
10.738096
 21
6.187397
 31
0.000000
  0
LINE
  8
Layer 1
 62
     7
  6
CONTINUOUS
 10
10.738096
 20
6.187397
 30
0.000000
 11
10.803968
 21
6.251977
 31
0.000000
  0
LINE
  8
Layer 1
 62
     7
  6
CONTINUOUS
 10
10.803968
 20
6.251977
 30
0.000000
 11
10.876749
 21
6.276484
 31
0.000000
  0
LINE
  8
Layer 1
 62
     7
  6
CONTINUOUS
 10
10.876749
 20
6.276484
 30
0.000000
 11
10.951846
 21
6.284188
 31
0.000000
  0
LINE
  8
Layer 1
 62
     7
  6
CONTINUOUS
 10
10.951846
 20
6.284188
 30
0.000000
 11
10.995035
 21
6.279715
 31
0.000000
  0
LINE
  8
Layer 1
 62
     7
  6
CONTINUOUS
 10
10.995035
 20
6.279715
 30
0.000000
 11
10.986558
 21
6.202069
 31
0.000000
  0
LINE
  8
Layer 1
 62
     7
  6
CONTINUOUS
 10
10.986558
 20
6.202069
 30
0.000000
 11
10.937435
 21
6.033846
 31
0.000000
  0
LINE
  8
Layer 1
 62
     7
  6
CONTINUOUS
 10
10.937435
 20
6.033846
 30
0.000000
 11
10.859367
 21
5.801122
 31
0.000000
  0
LINE
  8
Layer 1
 62
     7
  6
CONTINUOUS
 10
10.859367
 20
5.801122
 30
0.000000
 11
10.939442
 21
5.621425
 31
0.000000
  0
LINE
  8
Layer 1
 62
     7
  6
CONTINUOUS
 10
10.939442
 20
5.621425
 30
0.000000
 11
10.981338
 21
5.516814
 31
0.000000
  0
LINE
  8
Layer 1
 62
     7
  6
CONTINUOUS
 10
10.981338
 20
5.516814
 30
0.000000
 11
11.005599
 21
5.418697
 31
0.000000
  0
LINE
  8
Layer 1
 62
     7
  6
CONTINUOUS
 10
11.005599
 20
5.418697
 30
0.000000
 11
11.016800
 21
5.298970
 31
0.000000
  0
LINE
  8
Layer 1
 62
     7
  6
CONTINUOUS
 10
11.016800
 20
5.298970
 30
0.000000
 11
11.019517
 21
5.129528
 31
0.000000
  0
LINE
  8
Layer 1
 62
     7
  6
CONTINUOUS
 10
11.019517
 20
5.129528
 30
0.000000
 11
11.023224
 21
4.958719
 31
0.000000
  0
LINE
  8
Layer 1
 62
     7
  6
CONTINUOUS
 10
11.023224
 20
4.958719
 30
0.000000
 11
11.037209
 21
4.815483
 31
0.000000
  0
LINE
  8
Layer 1
 62
     7
  6
CONTINUOUS
 10
11.037209
 20
4.815483
 30
0.000000
 11
11.065772
 21
4.670728
 31
0.000000
  0
LINE
  8
Layer 1
 62
     7
  6
CONTINUOUS
 10
11.065772
 20
4.670728
 30
0.000000
 11
11.113208
 21
4.495361
 31
0.000000
  0
LINE
  8
Layer 1
 62
     7
  6
CONTINUOUS
 10
11.113208
 20
4.495361
 30
0.000000
 11
11.179929
 21
4.291356
 31
0.000000
  0
LINE
  8
Layer 1
 62
     7
  6
CONTINUOUS
 10
11.179929
 20
4.291356
 30
0.000000
 11
11.275224
 21
4.033179
 31
0.000000
  0
LINE
  8
Layer 1
 62
     7
  6
CONTINUOUS
 10
11.275224
 20
4.033179
 30
0.000000
 11
11.515083
 21
3.440363
 31
0.000000
  0
LINE
  8
Layer 1
 62
     7
  6
CONTINUOUS
 10
11.515083
 20
3.440363
 30
0.000000
 11
11.759884
 21
2.889018
 31
0.000000
  0
LINE
  8
Layer 1
 62
     7
  6
CONTINUOUS
 10
11.759884
 20
2.889018
 30
0.000000
 11
11.861355
 21
2.682680
 31
0.000000
  0
LINE
  8
Layer 1
 62
     7
  6
CONTINUOUS
 10
11.861355
 20
2.682680
 30
0.000000
 11
11.936724
 21
2.551248
 31
0.000000
  0
LINE
  8
Layer 1
 62
     7
  6
CONTINUOUS
 10
11.936724
 20
2.551248
 30
0.000000
 11
12.008419
 21
2.432815
 31
0.000000
  0
LINE
  8
Layer 1
 62
     7
  6
CONTINUOUS
 10
12.008419
 20
2.432815
 30
0.000000
 11
11.957804
 21
2.411083
 31
0.000000
  0
LINE
  8
Layer 1
 62
     7
  6
CONTINUOUS
 10
11.957804
 20
2.411083
 30
0.000000
 11
11.836111
 21
2.377710
 31
0.000000
  0
LINE
  8
Layer 1
 62
     7
  6
CONTINUOUS
 10
11.836111
 20
2.377710
 30
0.000000
 11
11.685809
 21
2.329128
 31
0.000000
  0
LINE
  8
Layer 1
 62
     7
  6
CONTINUOUS
 10
11.685809
 20
2.329128
 30
0.000000
 11
11.566410
 21
2.270827
 31
0.000000
  0
LINE
  8
Layer 1
 62
     7
  6
CONTINUOUS
 10
11.566410
 20
2.270827
 30
0.000000
 11
11.469018
 21
2.205605
 31
0.000000
  0
LINE
  8
Layer 1
 62
     7
  6
CONTINUOUS
 10
11.469018
 20
2.205605
 30
0.000000
 11
11.469018
 21
2.424067
 31
0.000000
  0
LINE
  8
Layer 1
 62
     7
  6
CONTINUOUS
 10
9.583501
 20
6.371451
 30
0.000000
 11
9.428193
 21
6.432802
 31
0.000000
  0
LINE
  8
Layer 1
 62
     7
  6
CONTINUOUS
 10
9.428193
 20
6.432802
 30
0.000000
 11
9.324969
 21
6.486176
 31
0.000000
  0
LINE
  8
Layer 1
 62
     7
  6
CONTINUOUS
 10
9.324969
 20
6.486176
 30
0.000000
 11
9.255769
 21
6.526706
 31
0.000000
  0
LINE
  8
Layer 1
 62
     7
  6
CONTINUOUS
 10
9.255769
 20
6.526706
 30
0.000000
 11
9.159442
 21
6.564588
 31
0.000000
  0
LINE
  8
Layer 1
 62
     7
  6
CONTINUOUS
 10
9.159442
 20
6.564588
 30
0.000000
 11
8.831946
 21
6.650199
 31
0.000000
  0
LINE
  8
Layer 1
 62
     7
  6
CONTINUOUS
 10
8.831946
 20
6.650199
 30
0.000000
 11
8.602275
 21
6.728579
 31
0.000000
  0
LINE
  8
Layer 1
 62
     7
  6
CONTINUOUS
 10
8.602275
 20
6.728579
 30
0.000000
 11
8.313976
 21
6.855812
 31
0.000000
  0
LINE
  8
Layer 1
 62
     7
  6
CONTINUOUS
 10
8.313976
 20
6.855812
 30
0.000000
 11
8.067403
 21
6.983978
 31
0.000000
  0
LINE
  8
Layer 1
 62
     7
  6
CONTINUOUS
 10
8.067403
 20
6.983978
 30
0.000000
 11
7.991124
 21
7.033437
 31
0.000000
  0
LINE
  8
Layer 1
 62
     7
  6
CONTINUOUS
 10
7.991124
 20
7.033437
 30
0.000000
 11
7.962911
 21
7.065159
 31
0.000000
  0
LINE
  8
Layer 1
 62
     7
  6
CONTINUOUS
 10
7.962911
 20
7.065159
 30
0.000000
 11
7.968540
 21
7.082268
 31
0.000000
  0
LINE
  8
Layer 1
 62
     7
  6
CONTINUOUS
 10
7.968540
 20
7.082268
 30
0.000000
 11
7.985516
 21
7.098836
 31
0.000000
  0
LINE
  8
Layer 1
 62
     7
  6
CONTINUOUS
 10
7.985516
 20
7.098836
 30
0.000000
 11
8.054044
 21
7.130530
 31
0.000000
  0
LINE
  8
Layer 1
 62
     7
  6
CONTINUOUS
 10
8.054044
 20
7.130530
 30
0.000000
 11
8.169564
 21
7.160599
 31
0.000000
  0
LINE
  8
Layer 1
 62
     7
  6
CONTINUOUS
 10
8.169564
 20
7.160599
 30
0.000000
 11
8.333142
 21
7.189403
 31
0.000000
  0
LINE
  8
Layer 1
 62
     7
  6
CONTINUOUS
 10
8.333142
 20
7.189403
 30
0.000000
 11
8.451222
 21
7.212231
 31
0.000000
  0
LINE
  8
Layer 1
 62
     7
  6
CONTINUOUS
 10
8.451222
 20
7.212231
 30
0.000000
 11
8.563406
 21
7.244685
 31
0.000000
  0
LINE
  8
Layer 1
 62
     7
  6
CONTINUOUS
 10
8.563406
 20
7.244685
 30
0.000000
 11
8.672834
 21
7.287836
 31
0.000000
  0
LINE
  8
Layer 1
 62
     7
  6
CONTINUOUS
 10
8.672834
 20
7.287836
 30
0.000000
 11
8.782643
 21
7.342753
 31
0.000000
  0
LINE
  8
Layer 1
 62
     7
  6
CONTINUOUS
 10
8.782643
 20
7.342753
 30
0.000000
 11
8.994578
 21
7.445020
 31
0.000000
  0
LINE
  8
Layer 1
 62
     7
  6
CONTINUOUS
 10
8.994578
 20
7.445020
 30
0.000000
 11
9.203444
 21
7.525298
 31
0.000000
  0
LINE
  8
Layer 1
 62
     7
  6
CONTINUOUS
 10
9.203444
 20
7.525298
 30
0.000000
 11
9.430334
 21
7.618950
 31
0.000000
  0
LINE
  8
Layer 1
 62
     7
  6
CONTINUOUS
 10
9.430334
 20
7.618950
 30
0.000000
 11
9.685606
 21
7.753368
 31
0.000000
  0
LINE
  8
Layer 1
 62
     7
  6
CONTINUOUS
 10
9.685606
 20
7.753368
 30
0.000000
 11
9.980465
 21
7.916817
 31
0.000000
  0
LINE
  8
Layer 1
 62
     7
  6
CONTINUOUS
 10
9.980465
 20
7.916817
 30
0.000000
 11
10.007810
 21
7.880840
 31
0.000000
  0
LINE
  8
Layer 1
 62
     7
  6
CONTINUOUS
 10
10.007810
 20
7.880840
 30
0.000000
 11
10.046339
 21
7.794343
 31
0.000000
  0
LINE
  8
Layer 1
 62
     7
  6
CONTINUOUS
 10
10.046339
 20
7.794343
 30
0.000000
 11
10.084105
 21
7.707166
 31
0.000000
  0
LINE
  8
Layer 1
 62
     7
  6
CONTINUOUS
 10
10.084105
 20
7.707166
 30
0.000000
 11
10.125180
 21
7.635825
 31
0.000000
  0
LINE
  8
Layer 1
 62
     7
  6
CONTINUOUS
 10
10.125180
 20
7.635825
 30
0.000000
 11
10.169526
 21
7.580344
 31
0.000000
  0
LINE
  8
Layer 1
 62
     7
  6
CONTINUOUS
 10
10.169526
 20
7.580344
 30
0.000000
 11
10.217104
 21
7.540750
 31
0.000000
  0
LINE
  8
Layer 1
 62
     7
  6
CONTINUOUS
 10
10.217104
 20
7.540750
 30
0.000000
 11
10.267876
 21
7.517065
 31
0.000000
  0
LINE
  8
Layer 1
 62
     7
  6
CONTINUOUS
 10
10.267876
 20
7.517065
 30
0.000000
 11
10.321802
 21
7.509316
 31
0.000000
  0
LINE
  8
Layer 1
 62
     7
  6
CONTINUOUS
 10
10.321802
 20
7.509316
 30
0.000000
 11
10.378845
 21
7.517527
 31
0.000000
  0
LINE
  8
Layer 1
 62
     7
  6
CONTINUOUS
 10
10.378845
 20
7.517527
 30
0.000000
 11
10.438966
 21
7.541723
 31
0.000000
  0
LINE
  8
Layer 1
 62
     7
  6
CONTINUOUS
 10
10.438966
 20
7.541723
 30
0.000000
 11
10.498539
 21
7.570116
 31
0.000000
  0
LINE
  8
Layer 1
 62
     7
  6
CONTINUOUS
 10
10.498539
 20
7.570116
 30
0.000000
 11
10.541948
 21
7.579045
 31
0.000000
  0
LINE
  8
Layer 1
 62
     7
  6
CONTINUOUS
 10
10.541948
 20
7.579045
 30
0.000000
 11
10.584560
 21
7.568160
 31
0.000000
  0
LINE
  8
Layer 1
 62
     7
  6
CONTINUOUS
 10
10.584560
 20
7.568160
 30
0.000000
 11
10.641741
 21
7.537113
 31
0.000000
  0
LINE
  8
Layer 1
 62
     7
  6
CONTINUOUS
 10
10.641741
 20
7.537113
 30
0.000000
 11
10.694617
 21
7.512611
 31
0.000000
  0
LINE
  8
Layer 1
 62
     7
  6
CONTINUOUS
 10
10.694617
 20
7.512611
 30
0.000000
 11
10.753143
 21
7.497727
 31
0.000000
  0
LINE
  8
Layer 1
 62
     7
  6
CONTINUOUS
 10
10.753143
 20
7.497727
 30
0.000000
 11
10.881209
 21
7.496064
 31
0.000000
  0
LINE
  8
Layer 1
 62
     7
  6
CONTINUOUS
 10
10.881209
 20
7.496064
 30
0.000000
 11
11.014070
 21
7.530628
 31
0.000000
  0
LINE
  8
Layer 1
 62
     7
  6
CONTINUOUS
 10
11.014070
 20
7.530628
 30
0.000000
 11
11.139858
 21
7.599921
 31
0.000000
  0
LINE
  8
Layer 1
 62
     7
  6
CONTINUOUS
 10
11.139858
 20
7.599921
 30
0.000000
 11
11.268549
 21
7.723460
 31
0.000000
  0
LINE
  8
Layer 1
 62
     7
  6
CONTINUOUS
 10
11.268549
 20
7.723460
 30
0.000000
 11
11.430915
 21
7.917977
 31
0.000000
  0
LINE
  8
Layer 1
 62
     7
  6
CONTINUOUS
 10
11.430915
 20
7.917977
 30
0.000000
 11
11.591396
 21
8.137833
 31
0.000000
  0
LINE
  8
Layer 1
 62
     7
  6
CONTINUOUS
 10
11.591396
 20
8.137833
 30
0.000000
 11
11.714435
 21
8.337390
 31
0.000000
  0
LINE
  8
Layer 1
 62
     7
  6
CONTINUOUS
 10
11.714435
 20
8.337390
 30
0.000000
 11
11.781258
 21
8.509225
 31
0.000000
  0
LINE
  8
Layer 1
 62
     7
  6
CONTINUOUS
 10
11.781258
 20
8.509225
 30
0.000000
 11
11.828735
 21
8.709136
 31
0.000000
  0
LINE
  8
Layer 1
 62
     7
  6
CONTINUOUS
 10
11.828735
 20
8.709136
 30
0.000000
 11
11.844886
 21
8.832740
 31
0.000000
  0
LINE
  8
Layer 1
 62
     7
  6
CONTINUOUS
 10
11.844886
 20
8.832740
 30
0.000000
 11
11.846548
 21
8.924947
 31
0.000000
  0
LINE
  8
Layer 1
 62
     7
  6
CONTINUOUS
 10
11.846548
 20
8.924947
 30
0.000000
 11
11.831738
 21
9.012913
 31
0.000000
  0
LINE
  8
Layer 1
 62
     7
  6
CONTINUOUS
 10
11.831738
 20
9.012913
 30
0.000000
 11
11.798476
 21
9.123789
 31
0.000000
  0
LINE
  8
Layer 1
 62
     7
  6
CONTINUOUS
 10
11.798476
 20
9.123789
 30
0.000000
 11
11.711818
 21
9.400709
 31
0.000000
  0
LINE
  8
Layer 1
 62
     7
  6
CONTINUOUS
 10
11.711818
 20
9.400709
 30
0.000000
 11
11.691852
 21
9.502813
 31
0.000000
  0
LINE
  8
Layer 1
 62
     7
  6
CONTINUOUS
 10
11.691852
 20
9.502813
 30
0.000000
 11
11.688452
 21
9.599873
 31
0.000000
  0
LINE
  8
Layer 1
 62
     7
  6
CONTINUOUS
 10
11.688452
 20
9.599873
 30
0.000000
 11
11.702363
 21
9.706281
 31
0.000000
  0
LINE
  8
Layer 1
 62
     7
  6
CONTINUOUS
 10
11.702363
 20
9.706281
 30
0.000000
 11
11.734327
 21
9.836432
 31
0.000000
  0
LINE
  8
Layer 1
 62
     7
  6
CONTINUOUS
 10
11.734327
 20
9.836432
 30
0.000000
 11
11.855389
 21
10.225535
 31
0.000000
  0
LINE
  8
Layer 1
 62
     7
  6
CONTINUOUS
 10
11.855389
 20
10.225535
 30
0.000000
 11
11.950731
 21
10.566071
 31
0.000000
  0
LINE
  8
Layer 1
 62
     7
  6
CONTINUOUS
 10
11.950731
 20
10.566071
 30
0.000000
 11
12.010114
 21
10.852187
 31
0.000000
  0
LINE
  8
Layer 1
 62
     7
  6
CONTINUOUS
 10
12.010114
 20
10.852187
 30
0.000000
 11
12.054071
 21
11.091524
 31
0.000000
  0
LINE
  8
Layer 1
 62
     7
  6
CONTINUOUS
 10
12.054071
 20
11.091524
 30
0.000000
 11
12.083896
 21
11.189900
 31
0.000000
  0
LINE
  8
Layer 1
 62
     7
  6
CONTINUOUS
 10
12.083896
 20
11.189900
 30
0.000000
 11
12.121783
 21
11.279873
 31
0.000000
  0
LINE
  8
Layer 1
 62
     7
  6
CONTINUOUS
 10
12.121783
 20
11.279873
 30
0.000000
 11
12.169856
 21
11.365789
 31
0.000000
  0
LINE
  8
Layer 1
 62
     7
  6
CONTINUOUS
 10
12.169856
 20
11.365789
 30
0.000000
 11
12.230237
 21
11.451991
 31
0.000000
  0
LINE
  8
Layer 1
 62
     7
  6
CONTINUOUS
 10
12.230237
 20
11.451991
 30
0.000000
 11
12.396419
 21
11.642637
 31
0.000000
  0
LINE
  8
Layer 1
 62
     7
  6
CONTINUOUS
 10
12.396419
 20
11.642637
 30
0.000000
 11
12.521325
 21
11.778936
 31
0.000000
  0
LINE
  8
Layer 1
 62
     7
  6
CONTINUOUS
 10
12.521325
 20
11.778936
 30
0.000000
 11
12.599768
 21
11.880814
 31
0.000000
  0
LINE
  8
Layer 1
 62
     7
  6
CONTINUOUS
 10
12.599768
 20
11.880814
 30
0.000000
 11
12.647931
 21
11.973084
 31
0.000000
  0
LINE
  8
Layer 1
 62
     7
  6
CONTINUOUS
 10
12.647931
 20
11.973084
 30
0.000000
 11
12.681996
 21
12.080561
 31
0.000000
  0
LINE
  8
Layer 1
 62
     7
  6
CONTINUOUS
 10
12.681996
 20
12.080561
 30
0.000000
 11
12.711842
 21
12.232766
 31
0.000000
  0
LINE
  8
Layer 1
 62
     7
  6
CONTINUOUS
 10
12.711842
 20
12.232766
 30
0.000000
 11
12.713703
 21
12.332668
 31
0.000000
  0
LINE
  8
Layer 1
 62
     7
  6
CONTINUOUS
 10
12.713703
 20
12.332668
 30
0.000000
 11
12.689753
 21
12.366790
 31
0.000000
  0
LINE
  8
Layer 1
 62
     7
  6
CONTINUOUS
 10
12.689753
 20
12.366790
 30
0.000000
 11
12.637900
 21
12.413379
 31
0.000000
  0
LINE
  8
Layer 1
 62
     7
  6
CONTINUOUS
 10
12.637900
 20
12.413379
 30
0.000000
 11
12.481022
 21
12.519446
 31
0.000000
  0
LINE
  8
Layer 1
 62
     7
  6
CONTINUOUS
 10
12.481022
 20
12.519446
 30
0.000000
 11
12.268744
 21
12.663207
 31
0.000000
  0
LINE
  8
Layer 1
 62
     7
  6
CONTINUOUS
 10
12.268744
 20
12.663207
 30
0.000000
 11
12.059748
 21
12.834546
 31
0.000000
  0
LINE
  8
Layer 1
 62
     7
  6
CONTINUOUS
 10
12.059748
 20
12.834546
 30
0.000000
 11
11.956020
 21
12.924781
 31
0.000000
  0
LINE
  8
Layer 1
 62
     7
  6
CONTINUOUS
 10
11.956020
 20
12.924781
 30
0.000000
 11
11.854476
 21
13.000300
 31
0.000000
  0
LINE
  8
Layer 1
 62
     7
  6
CONTINUOUS
 10
11.854476
 20
13.000300
 30
0.000000
 11
11.750924
 21
13.062794
 31
0.000000
  0
LINE
  8
Layer 1
 62
     7
  6
CONTINUOUS
 10
11.750924
 20
13.062794
 30
0.000000
 11
11.641177
 21
13.113951
 31
0.000000
  0
LINE
  8
Layer 1
 62
     7
  6
CONTINUOUS
 10
11.641177
 20
13.113951
 30
0.000000
 11
11.521044
 21
13.155459
 31
0.000000
  0
LINE
  8
Layer 1
 62
     7
  6
CONTINUOUS
 10
11.521044
 20
13.155459
 30
0.000000
 11
11.386336
 21
13.189008
 31
0.000000
  0
LINE
  8
Layer 1
 62
     7
  6
CONTINUOUS
 10
11.386336
 20
13.189008
 30
0.000000
 11
11.056438
 21
13.238982
 31
0.000000
  0
LINE
  8
Layer 1
 62
     7
  6
CONTINUOUS
 10
11.056438
 20
13.238982
 30
0.000000
 11
10.769446
 21
13.276897
 31
0.000000
  0
LINE
  8
Layer 1
 62
     7
  6
CONTINUOUS
 10
10.769446
 20
13.276897
 30
0.000000
 11
10.637771
 21
13.306211
 31
0.000000
  0
LINE
  8
Layer 1
 62
     7
  6
CONTINUOUS
 10
10.637771
 20
13.306211
 30
0.000000
 11
10.630795
 21
13.320102
 31
0.000000
  0
LINE
  8
Layer 1
 62
     7
  6
CONTINUOUS
 10
10.630795
 20
13.320102
 30
0.000000
 11
10.636261
 21
13.335285
 31
0.000000
  0
LINE
  8
Layer 1
 62
     7
  6
CONTINUOUS
 10
10.636261
 20
13.335285
 30
0.000000
 11
10.694101
 21
13.374348
 31
0.000000
  0
LINE
  8
Layer 1
 62
     7
  6
CONTINUOUS
 10
10.694101
 20
13.374348
 30
0.000000
 11
10.830451
 21
13.433045
 31
0.000000
  0
LINE
  8
Layer 1
 62
     7
  6
CONTINUOUS
 10
10.830451
 20
13.433045
 30
0.000000
 11
11.064467
 21
13.521021
 31
0.000000
  0
LINE
  8
Layer 1
 62
     7
  6
CONTINUOUS
 10
11.064467
 20
13.521021
 30
0.000000
 11
11.261886
 21
13.588250
 31
0.000000
  0
LINE
  8
Layer 1
 62
     7
  6
CONTINUOUS
 10
11.261886
 20
13.588250
 30
0.000000
 11
11.451722
 21
13.642820
 31
0.000000
  0
LINE
  8
Layer 1
 62
     7
  6
CONTINUOUS
 10
11.451722
 20
13.642820
 30
0.000000
 11
11.633169
 21
13.684621
 31
0.000000
  0
LINE
  8
Layer 1
 62
     7
  6
CONTINUOUS
 10
11.633169
 20
13.684621
 30
0.000000
 11
11.805420
 21
13.713546
 31
0.000000
  0
LINE
  8
Layer 1
 62
     7
  6
CONTINUOUS
 10
11.805420
 20
13.713546
 30
0.000000
 11
11.967667
 21
13.729486
 31
0.000000
  0
LINE
  8
Layer 1
 62
     7
  6
CONTINUOUS
 10
11.967667
 20
13.729486
 30
0.000000
 11
12.119102
 21
13.732334
 31
0.000000
  0
LINE
  8
Layer 1
 62
     7
  6
CONTINUOUS
 10
12.119102
 20
13.732334
 30
0.000000
 11
12.258919
 21
13.721980
 31
0.000000
  0
LINE
  8
Layer 1
 62
     7
  6
CONTINUOUS
 10
12.258919
 20
13.721980
 30
0.000000
 11
12.386310
 21
13.698316
 31
0.000000
  0
LINE
  8
Layer 1
 62
     7
  6
CONTINUOUS
 10
12.386310
 20
13.698316
 30
0.000000
 11
12.574276
 21
13.651127
 31
0.000000
  0
LINE
  8
Layer 1
 62
     7
  6
CONTINUOUS
 10
12.574276
 20
13.651127
 30
0.000000
 11
12.763324
 21
13.861405
 31
0.000000
  0
LINE
  8
Layer 1
 62
     7
  6
CONTINUOUS
 10
12.763324
 20
13.861405
 30
0.000000
 11
12.926967
 21
14.023217
 31
0.000000
  0
LINE
  8
Layer 1
 62
     7
  6
CONTINUOUS
 10
12.926967
 20
14.023217
 30
0.000000
 11
13.008879
 21
14.087672
 31
0.000000
  0
LINE
  8
Layer 1
 62
     7
  6
CONTINUOUS
 10
13.008879
 20
14.087672
 30
0.000000
 11
13.092017
 21
14.141219
 31
0.000000
  0
LINE
  8
Layer 1
 62
     7
  6
CONTINUOUS
 10
13.092017
 20
14.141219
 30
0.000000
 11
13.177257
 21
14.183901
 31
0.000000
  0
LINE
  8
Layer 1
 62
     7
  6
CONTINUOUS
 10
13.177257
 20
14.183901
 30
0.000000
 11
13.265474
 21
14.215762
 31
0.000000
  0
LINE
  8
Layer 1
 62
     7
  6
CONTINUOUS
 10
13.265474
 20
14.215762
 30
0.000000
 11
13.357543
 21
14.236846
 31
0.000000
  0
LINE
  8
Layer 1
 62
     7
  6
CONTINUOUS
 10
13.357543
 20
14.236846
 30
0.000000
 11
13.454340
 21
14.247198
 31
0.000000
  0
LINE
  8
Layer 1
 62
     7
  6
CONTINUOUS
 10
13.454340
 20
14.247198
 30
0.000000
 11
13.556740
 21
14.246861
 31
0.000000
  0
LINE
  8
Layer 1
 62
     7
  6
CONTINUOUS
 10
13.556740
 20
14.246861
 30
0.000000
 11
13.665618
 21
14.235879
 31
0.000000
  0
LINE
  8
Layer 1
 62
     7
  6
CONTINUOUS
 10
13.665618
 20
14.235879
 30
0.000000
 11
13.906308
 21
14.182158
 31
0.000000
  0
LINE
  8
Layer 1
 62
     7
  6
CONTINUOUS
 10
13.906308
 20
14.182158
 30
0.000000
 11
14.183413
 21
14.086386
 31
0.000000
  0
LINE
  8
Layer 1
 62
     7
  6
CONTINUOUS
 10
14.183413
 20
14.086386
 30
0.000000
 11
14.503933
 21
13.948916
 31
0.000000
  0
LINE
  8
Layer 1
 62
     7
  6
CONTINUOUS
 10
14.503933
 20
13.948916
 30
0.000000
 11
14.681752
 21
13.862894
 31
0.000000
  0
LINE
  8
Layer 1
 62
     7
  6
CONTINUOUS
 10
14.681752
 20
13.862894
 30
0.000000
 11
14.822774
 21
13.784139
 31
0.000000
  0
LINE
  8
Layer 1
 62
     7
  6
CONTINUOUS
 10
14.822774
 20
13.784139
 30
0.000000
 11
14.935546
 21
13.707413
 31
0.000000
  0
LINE
  8
Layer 1
 62
     7
  6
CONTINUOUS
 10
14.935546
 20
13.707413
 30
0.000000
 11
15.028615
 21
13.627480
 31
0.000000
  0
LINE
  8
Layer 1
 62
     7
  6
CONTINUOUS
 10
15.028615
 20
13.627480
 30
0.000000
 11
15.244847
 21
13.432361
 31
0.000000
  0
LINE
  8
Layer 1
 62
     7
  6
CONTINUOUS
 10
15.244847
 20
13.432361
 30
0.000000
 11
15.329761
 21
13.373787
 31
0.000000
  0
LINE
  8
Layer 1
 62
     7
  6
CONTINUOUS
 10
15.329761
 20
13.373787
 30
0.000000
 11
15.407336
 21
13.338624
 31
0.000000
  0
LINE
  8
Layer 1
 62
     7
  6
CONTINUOUS
 10
15.407336
 20
13.338624
 30
0.000000
 11
15.483667
 21
13.324936
 31
0.000000
  0
LINE
  8
Layer 1
 62
     7
  6
CONTINUOUS
 10
15.483667
 20
13.324936
 30
0.000000
 11
15.564852
 21
13.330787
 31
0.000000
  0
LINE
  8
Layer 1
 62
     7
  6
CONTINUOUS
 10
15.564852
 20
13.330787
 30
0.000000
 11
15.656985
 21
13.354244
 31
0.000000
  0
LINE
  8
Layer 1
 62
     7
  6
CONTINUOUS
 10
15.656985
 20
13.354244
 30
0.000000
 11
15.766165
 21
13.393372
 31
0.000000
  0
LINE
  8
Layer 1
 62
     7
  6
CONTINUOUS
 10
15.766165
 20
13.393372
 30
0.000000
 11
15.935445
 21
13.440865
 31
0.000000
  0
LINE
  8
Layer 1
 62
     7
  6
CONTINUOUS
 10
15.935445
 20
13.440865
 30
0.000000
 11
16.017487
 21
13.450836
 31
0.000000
  0
LINE
  8
Layer 1
 62
     7
  6
CONTINUOUS
 10
16.017487
 20
13.450836
 30
0.000000
 11
16.094761
 21
13.451090
 31
0.000000
  0
LINE
  8
Layer 1
 62
     7
  6
CONTINUOUS
 10
16.094761
 20
13.451090
 30
0.000000
 11
16.177762
 21
13.443396
 31
0.000000
  0
LINE
  8
Layer 1
 62
     7
  6
CONTINUOUS
 10
16.177762
 20
13.443396
 30
0.000000
 11
16.225289
 21
13.429552
 31
0.000000
  0
LINE
  8
Layer 1
 62
     7
  6
CONTINUOUS
 10
16.225289
 20
13.429552
 30
0.000000
 11
16.248175
 21
13.403403
 31
0.000000
  0
LINE
  8
Layer 1
 62
     7
  6
CONTINUOUS
 10
16.248175
 20
13.403403
 30
0.000000
 11
16.257258
 21
13.358795
 31
0.000000
  0
LINE
  8
Layer 1
 62
     7
  6
CONTINUOUS
 10
16.257258
 20
13.358795
 30
0.000000
 11
16.256096
 21
13.313925
 31
0.000000
  0
LINE
  8
Layer 1
 62
     7
  6
CONTINUOUS
 10
16.256096
 20
13.313925
 30
0.000000
 11
16.238077
 21
13.276824
 31
0.000000
  0
LINE
  8
Layer 1
 62
     7
  6
CONTINUOUS
 10
16.238077
 20
13.276824
 30
0.000000
 11
16.197333
 21
13.240118
 31
0.000000
  0
LINE
  8
Layer 1
 62
     7
  6
CONTINUOUS
 10
16.197333
 20
13.240118
 30
0.000000
 11
16.127993
 21
13.196435
 31
0.000000
  0
LINE
  8
Layer 1
 62
     7
  6
CONTINUOUS
 10
16.127993
 20
13.196435
 30
0.000000
 11
16.041163
 21
13.132973
 31
0.000000
  0
LINE
  8
Layer 1
 62
     7
  6
CONTINUOUS
 10
16.041163
 20
13.132973
 30
0.000000
 11
15.969959
 21
13.056000
 31
0.000000
  0
LINE
  8
Layer 1
 62
     7
  6
CONTINUOUS
 10
15.969959
 20
13.056000
 30
0.000000
 11
15.921797
 21
12.975314
 31
0.000000
  0
LINE
  8
Layer 1
 62
     7
  6
CONTINUOUS
 10
15.921797
 20
12.975314
 30
0.000000
 11
15.904094
 21
12.900710
 31
0.000000
  0
LINE
  8
Layer 1
 62
     7
  6
CONTINUOUS
 10
15.904094
 20
12.900710
 30
0.000000
 11
15.914735
 21
12.886297
 31
0.000000
  0
LINE
  8
Layer 1
 62
     7
  6
CONTINUOUS
 10
15.914735
 20
12.886297
 30
0.000000
 11
15.943707
 21
12.871149
 31
0.000000
  0
LINE
  8
Layer 1
 62
     7
  6
CONTINUOUS
 10
15.943707
 20
12.871149
 30
0.000000
 11
16.038945
 21
12.845855
 31
0.000000
  0
LINE
  8
Layer 1
 62
     7
  6
CONTINUOUS
 10
16.038945
 20
12.845855
 30
0.000000
 11
16.116858
 21
12.825565
 31
0.000000
  0
LINE
  8
Layer 1
 62
     7
  6
CONTINUOUS
 10
16.116858
 20
12.825565
 30
0.000000
 11
16.161708
 21
12.795703
 31
0.000000
  0
LINE
  8
Layer 1
 62
     7
  6
CONTINUOUS
 10
16.161708
 20
12.795703
 30
0.000000
 11
16.173334
 21
12.756041
 31
0.000000
  0
LINE
  8
Layer 1
 62
     7
  6
CONTINUOUS
 10
16.173334
 20
12.756041
 30
0.000000
 11
16.151578
 21
12.706353
 31
0.000000
  0
LINE
  8
Layer 1
 62
     7
  6
CONTINUOUS
 10
16.151578
 20
12.706353
 30
0.000000
 11
16.096279
 21
12.646412
 31
0.000000
  0
LINE
  8
Layer 1
 62
     7
  6
CONTINUOUS
 10
16.096279
 20
12.646412
 30
0.000000
 11
16.007279
 21
12.575991
 31
0.000000
  0
LINE
  8
Layer 1
 62
     7
  6
CONTINUOUS
 10
16.007279
 20
12.575991
 30
0.000000
 11
15.727536
 21
12.402800
 31
0.000000
  0
LINE
  8
Layer 1
 62
     7
  6
CONTINUOUS
 10
15.727536
 20
12.402800
 30
0.000000
 11
15.461049
 21
12.242224
 31
0.000000
  0
LINE
  8
Layer 1
 62
     7
  6
CONTINUOUS
 10
15.461049
 20
12.242224
 30
0.000000
 11
15.316877
 21
12.134776
 31
0.000000
  0
LINE
  8
Layer 1
 62
     7
  6
CONTINUOUS
 10
15.316877
 20
12.134776
 30
0.000000
 11
15.285512
 21
12.073607
 31
0.000000
  0
LINE
  8
Layer 1
 62
     7
  6
CONTINUOUS
 10
15.285512
 20
12.073607
 30
0.000000
 11
15.268390
 21
11.938576
 31
0.000000
  0
LINE
  8
Layer 1
 62
     7
  6
CONTINUOUS
 10
15.268390
 20
11.938576
 30
0.000000
 11
15.259810
 21
11.153594
 31
0.000000
  0
LINE
  8
Layer 1
 62
     7
  6
CONTINUOUS
 10
15.259810
 20
11.153594
 30
0.000000
 11
15.257576
 21
10.587534
 31
0.000000
  0
LINE
  8
Layer 1
 62
     7
  6
CONTINUOUS
 10
15.257576
 20
10.587534
 30
0.000000
 11
15.239643
 21
10.255440
 31
0.000000
  0
LINE
  8
Layer 1
 62
     7
  6
CONTINUOUS
 10
15.239643
 20
10.255440
 30
0.000000
 11
15.219523
 21
10.133197
 31
0.000000
  0
LINE
  8
Layer 1
 62
     7
  6
CONTINUOUS
 10
15.219523
 20
10.133197
 30
0.000000
 11
15.189160
 21
10.016727
 31
0.000000
  0
LINE
  8
Layer 1
 62
     7
  6
CONTINUOUS
 10
15.189160
 20
10.016727
 30
0.000000
 11
15.089275
 21
9.730810
 31
0.000000
  0
LINE
  8
Layer 1
 62
     7
  6
CONTINUOUS
 10
15.089275
 20
9.730810
 30
0.000000
 11
14.992282
 21
9.486998
 31
0.000000
  0
LINE
  8
Layer 1
 62
     7
  6
CONTINUOUS
 10
14.992282
 20
9.486998
 30
0.000000
 11
14.884955
 21
9.269667
 31
0.000000
  0
LINE
  8
Layer 1
 62
     7
  6
CONTINUOUS
 10
14.884955
 20
9.269667
 30
0.000000
 11
14.748730
 21
9.045136
 31
0.000000
  0
LINE
  8
Layer 1
 62
     7
  6
CONTINUOUS
 10
14.748730
 20
9.045136
 30
0.000000
 11
14.565042
 21
8.779726
 31
0.000000
  0
LINE
  8
Layer 1
 62
     7
  6
CONTINUOUS
 10
14.565042
 20
8.779726
 30
0.000000
 11
14.365417
 21
8.519140
 31
0.000000
  0
LINE
  8
Layer 1
 62
     7
  6
CONTINUOUS
 10
14.365417
 20
8.519140
 30
0.000000
 11
14.142471
 21
8.258386
 31
0.000000
  0
LINE
  8
Layer 1
 62
     7
  6
CONTINUOUS
 10
14.142471
 20
8.258386
 30
0.000000
 11
13.902126
 21
8.002964
 31
0.000000
  0
LINE
  8
Layer 1
 62
     7
  6
CONTINUOUS
 10
13.902126
 20
8.002964
 30
0.000000
 11
13.650305
 21
7.758374
 31
0.000000
  0
LINE
  8
Layer 1
 62
     7
  6
CONTINUOUS
 10
13.650305
 20
7.758374
 30
0.000000
 11
13.392931
 21
7.530115
 31
0.000000
  0
LINE
  8
Layer 1
 62
     7
  6
CONTINUOUS
 10
13.392931
 20
7.530115
 30
0.000000
 11
13.135925
 21
7.323687
 31
0.000000
  0
LINE
  8
Layer 1
 62
     7
  6
CONTINUOUS
 10
13.135925
 20
7.323687
 30
0.000000
 11
12.885211
 21
7.144591
 31
0.000000
  0
LINE
  8
Layer 1
 62
     7
  6
CONTINUOUS
 10
12.885211
 20
7.144591
 30
0.000000
 11
12.646711
 21
6.998324
 31
0.000000
  0
LINE
  8
Layer 1
 62
     7
  6
CONTINUOUS
 10
12.646711
 20
6.998324
 30
0.000000
 11
12.409197
 21
6.890692
 31
0.000000
  0
LINE
  8
Layer 1
 62
     7
  6
CONTINUOUS
 10
12.409197
 20
6.890692
 30
0.000000
 11
12.076860
 21
6.768891
 31
0.000000
  0
LINE
  8
Layer 1
 62
     7
  6
CONTINUOUS
 10
12.076860
 20
6.768891
 30
0.000000
 11
11.720042
 21
6.656798
 31
0.000000
  0
LINE
  8
Layer 1
 62
     7
  6
CONTINUOUS
 10
11.720042
 20
6.656798
 30
0.000000
 11
11.409085
 21
6.578283
 31
0.000000
  0
LINE
  8
Layer 1
 62
     7
  6
CONTINUOUS
 10
11.409085
 20
6.578283
 30
0.000000
 11
11.004534
 21
6.482317
 31
0.000000
  0
LINE
  8
Layer 1
 62
     7
  6
CONTINUOUS
 10
11.004534
 20
6.482317
 30
0.000000
 11
10.801738
 21
6.445072
 31
0.000000
  0
LINE
  8
Layer 1
 62
     7
  6
CONTINUOUS
 10
10.801738
 20
6.445072
 30
0.000000
 11
10.524571
 21
6.417601
 31
0.000000
  0
LINE
  8
Layer 1
 62
     7
  6
CONTINUOUS
 10
10.524571
 20
6.417601
 30
0.000000
 11
10.229946
 21
6.388960
 31
0.000000
  0
LINE
  8
Layer 1
 62
     7
  6
CONTINUOUS
 10
10.229946
 20
6.388960
 30
0.000000
 11
9.985181
 21
6.348902
 31
0.000000
  0
LINE
  8
Layer 1
 62
     7
  6
CONTINUOUS
 10
9.985181
 20
6.348902
 30
0.000000
 11
9.775909
 21
6.302567
 31
0.000000
  0
LINE
  8
Layer 1
 62
     7
  6
CONTINUOUS
 10
9.775909
 20
6.302567
 30
0.000000
 11
9.583501
 21
6.371451
 31
0.000000
  0
LINE
  8
Layer 1
 62
     7
  6
CONTINUOUS
 10
4.426559
 20
6.498910
 30
0.000000
 11
4.379068
 21
6.574798
 31
0.000000
  0
LINE
  8
Layer 1
 62
     7
  6
CONTINUOUS
 10
4.379068
 20
6.574798
 30
0.000000
 11
4.343088
 21
6.676451
 31
0.000000
  0
LINE
  8
Layer 1
 62
     7
  6
CONTINUOUS
 10
4.343088
 20
6.676451
 30
0.000000
 11
4.323529
 21
6.785261
 31
0.000000
  0
LINE
  8
Layer 1
 62
     7
  6
CONTINUOUS
 10
4.323529
 20
6.785261
 30
0.000000
 11
4.325302
 21
6.882621
 31
0.000000
  0
LINE
  8
Layer 1
 62
     7
  6
CONTINUOUS
 10
4.325302
 20
6.882621
 30
0.000000
 11
4.361925
 21
7.009012
 31
0.000000
  0
LINE
  8
Layer 1
 62
     7
  6
CONTINUOUS
 10
4.361925
 20
7.009012
 30
0.000000
 11
4.432272
 21
7.160018
 31
0.000000
  0
LINE
  8
Layer 1
 62
     7
  6
CONTINUOUS
 10
4.432272
 20
7.160018
 30
0.000000
 11
4.532161
 21
7.327806
 31
0.000000
  0
LINE
  8
Layer 1
 62
     7
  6
CONTINUOUS
 10
4.532161
 20
7.327806
 30
0.000000
 11
4.657411
 21
7.504546
 31
0.000000
  0
LINE
  8
Layer 1
 62
     7
  6
CONTINUOUS
 10
4.657411
 20
7.504546
 30
0.000000
 11
4.833902
 21
7.735417
 31
0.000000
  0
LINE
  8
Layer 1
 62
     7
  6
CONTINUOUS
 10
4.833902
 20
7.735417
 30
0.000000
 11
5.117329
 21
7.752361
 31
0.000000
  0
LINE
  8
Layer 1
 62
     7
  6
CONTINUOUS
 10
5.117329
 20
7.752361
 30
0.000000
 11
5.268758
 21
7.765010
 31
0.000000
  0
LINE
  8
Layer 1
 62
     7
  6
CONTINUOUS
 10
5.268758
 20
7.765010
 30
0.000000
 11
5.384741
 21
7.785537
 31
0.000000
  0
LINE
  8
Layer 1
 62
     7
  6
CONTINUOUS
 10
5.384741
 20
7.785537
 30
0.000000
 11
5.487494
 21
7.819475
 31
0.000000
  0
LINE
  8
Layer 1
 62
     7
  6
CONTINUOUS
 10
5.487494
 20
7.819475
 30
0.000000
 11
5.599236
 21
7.872355
 31
0.000000
  0
LINE
  8
Layer 1
 62
     7
  6
CONTINUOUS
 10
5.599236
 20
7.872355
 30
0.000000
 11
5.773538
 21
7.978415
 31
0.000000
  0
LINE
  8
Layer 1
 62
     7
  6
CONTINUOUS
 10
5.773538
 20
7.978415
 30
0.000000
 11
5.913887
 21
8.088702
 31
0.000000
  0
LINE
  8
Layer 1
 62
     7
  6
CONTINUOUS
 10
5.913887
 20
8.088702
 30
0.000000
 11
6.101571
 21
8.254193
 31
0.000000
  0
LINE
  8
Layer 1
 62
     7
  6
CONTINUOUS
 10
6.101571
 20
8.254193
 30
0.000000
 11
6.167827
 21
8.297692
 31
0.000000
  0
LINE
  8
Layer 1
 62
     7
  6
CONTINUOUS
 10
6.167827
 20
8.297692
 30
0.000000
 11
6.212449
 21
8.312597
 31
0.000000
  0
LINE
  8
Layer 1
 62
     7
  6
CONTINUOUS
 10
6.212449
 20
8.312597
 30
0.000000
 11
6.259812
 21
8.275745
 31
0.000000
  0
LINE
  8
Layer 1
 62
     7
  6
CONTINUOUS
 10
6.259812
 20
8.275745
 30
0.000000
 11
6.325649
 21
8.187143
 31
0.000000
  0
LINE
  8
Layer 1
 62
     7
  6
CONTINUOUS
 10
6.325649
 20
8.187143
 30
0.000000
 11
6.364337
 21
8.117344
 31
0.000000
  0
LINE
  8
Layer 1
 62
     7
  6
CONTINUOUS
 10
6.364337
 20
8.117344
 30
0.000000
 11
6.388564
 21
8.049502
 31
0.000000
  0
LINE
  8
Layer 1
 62
     7
  6
CONTINUOUS
 10
6.388564
 20
8.049502
 30
0.000000
 11
6.401080
 21
7.972782
 31
0.000000
  0
LINE
  8
Layer 1
 62
     7
  6
CONTINUOUS
 10
6.401080
 20
7.972782
 30
0.000000
 11
6.404641
 21
7.876354
 31
0.000000
  0
LINE
  8
Layer 1
 62
     7
  6
CONTINUOUS
 10
6.404641
 20
7.876354
 30
0.000000
 11
6.401636
 21
7.775313
 31
0.000000
  0
LINE
  8
Layer 1
 62
     7
  6
CONTINUOUS
 10
6.401636
 20
7.775313
 30
0.000000
 11
6.388936
 21
7.705268
 31
0.000000
  0
LINE
  8
Layer 1
 62
     7
  6
CONTINUOUS
 10
6.388936
 20
7.705268
 30
0.000000
 11
6.361013
 21
7.649036
 31
0.000000
  0
LINE
  8
Layer 1
 62
     7
  6
CONTINUOUS
 10
6.361013
 20
7.649036
 30
0.000000
 11
6.312339
 21
7.589431
 31
0.000000
  0
LINE
  8
Layer 1
 62
     7
  6
CONTINUOUS
 10
6.312339
 20
7.589431
 30
0.000000
 11
6.181423
 21
7.459118
 31
0.000000
  0
LINE
  8
Layer 1
 62
     7
  6
CONTINUOUS
 10
6.181423
 20
7.459118
 30
0.000000
 11
6.016838
 21
7.316894
 31
0.000000
  0
LINE
  8
Layer 1
 62
     7
  6
CONTINUOUS
 10
6.016838
 20
7.316894
 30
0.000000
 11
5.827409
 21
7.168859
 31
0.000000
  0
LINE
  8
Layer 1
 62
     7
  6
CONTINUOUS
 10
5.827409
 20
7.168859
 30
0.000000
 11
5.621958
 21
7.021114
 31
0.000000
  0
LINE
  8
Layer 1
 62
     7
  6
CONTINUOUS
 10
5.621958
 20
7.021114
 30
0.000000
 11
5.409308
 21
6.879760
 31
0.000000
  0
LINE
  8
Layer 1
 62
     7
  6
CONTINUOUS
 10
5.409308
 20
6.879760
 30
0.000000
 11
5.198284
 21
6.750898
 31
0.000000
  0
LINE
  8
Layer 1
 62
     7
  6
CONTINUOUS
 10
5.198284
 20
6.750898
 30
0.000000
 11
4.997708
 21
6.640629
 31
0.000000
  0
LINE
  8
Layer 1
 62
     7
  6
CONTINUOUS
 10
4.997708
 20
6.640629
 30
0.000000
 11
4.816404
 21
6.555054
 31
0.000000
  0
LINE
  8
Layer 1
 62
     7
  6
CONTINUOUS
 10
4.816404
 20
6.555054
 30
0.000000
 11
4.644119
 21
6.485651
 31
0.000000
  0
LINE
  8
Layer 1
 62
     7
  6
CONTINUOUS
 10
4.644119
 20
6.485651
 30
0.000000
 11
4.538408
 21
6.455564
 31
0.000000
  0
LINE
  8
Layer 1
 62
     7
  6
CONTINUOUS
 10
4.538408
 20
6.455564
 30
0.000000
 11
4.474233
 21
6.461185
 31
0.000000
  0
LINE
  8
Layer 1
 62
     7
  6
CONTINUOUS
 10
4.474233
 20
6.461185
 30
0.000000
 11
4.426559
 21
6.498910
 31
0.000000
  0
LINE
  8
Layer 1
 62
     7
  6
CONTINUOUS
 10
3.422951
 20
6.678637
 30
0.000000
 11
3.169101
 21
6.738244
 31
0.000000
  0
LINE
  8
Layer 1
 62
     7
  6
CONTINUOUS
 10
3.169101
 20
6.738244
 30
0.000000
 11
2.988359
 21
6.793430
 31
0.000000
  0
LINE
  8
Layer 1
 62
     7
  6
CONTINUOUS
 10
2.988359
 20
6.793430
 30
0.000000
 11
2.893809
 21
6.839390
 31
0.000000
  0
LINE
  8
Layer 1
 62
     7
  6
CONTINUOUS
 10
2.893809
 20
6.839390
 30
0.000000
 11
2.882944
 21
6.857407
 31
0.000000
  0
LINE
  8
Layer 1
 62
     7
  6
CONTINUOUS
 10
2.882944
 20
6.857407
 30
0.000000
 11
2.898533
 21
6.871315
 31
0.000000
  0
LINE
  8
Layer 1
 62
     7
  6
CONTINUOUS
 10
2.898533
 20
6.871315
 30
0.000000
 11
3.333147
 21
6.972539
 31
0.000000
  0
LINE
  8
Layer 1
 62
     7
  6
CONTINUOUS
 10
3.333147
 20
6.972539
 30
0.000000
 11
3.673888
 21
7.055834
 31
0.000000
  0
LINE
  8
Layer 1
 62
     7
  6
CONTINUOUS
 10
3.673888
 20
7.055834
 30
0.000000
 11
3.945929
 21
7.139004
 31
0.000000
  0
LINE
  8
Layer 1
 62
     7
  6
CONTINUOUS
 10
3.945929
 20
7.139004
 30
0.000000
 11
4.106737
 21
7.194125
 31
0.000000
  0
LINE
  8
Layer 1
 62
     7
  6
CONTINUOUS
 10
4.106737
 20
7.194125
 30
0.000000
 11
4.180045
 21
7.209982
 31
0.000000
  0
LINE
  8
Layer 1
 62
     7
  6
CONTINUOUS
 10
4.180045
 20
7.209982
 30
0.000000
 11
4.178115
 21
7.161801
 31
0.000000
  0
LINE
  8
Layer 1
 62
     7
  6
CONTINUOUS
 10
4.178115
 20
7.161801
 30
0.000000
 11
4.158033
 21
7.062959
 31
0.000000
  0
LINE
  8
Layer 1
 62
     7
  6
CONTINUOUS
 10
4.158033
 20
7.062959
 30
0.000000
 11
4.140344
 21
6.919261
 31
0.000000
  0
LINE
  8
Layer 1
 62
     7
  6
CONTINUOUS
 10
4.140344
 20
6.919261
 30
0.000000
 11
4.144941
 21
6.762794
 31
0.000000
  0
LINE
  8
Layer 1
 62
     7
  6
CONTINUOUS
 10
4.144941
 20
6.762794
 30
0.000000
 11
4.164857
 21
6.597549
 31
0.000000
  0
LINE
  8
Layer 1
 62
     7
  6
CONTINUOUS
 10
4.164857
 20
6.597549
 30
0.000000
 11
3.973705
 21
6.600244
 31
0.000000
  0
LINE
  8
Layer 1
 62
     7
  6
CONTINUOUS
 10
3.973705
 20
6.600244
 30
0.000000
 11
3.733070
 21
6.624384
 31
0.000000
  0
LINE
  8
Layer 1
 62
     7
  6
CONTINUOUS
 10
3.733070
 20
6.624384
 30
0.000000
 11
3.422951
 21
6.678637
 31
0.000000
  0
LINE
  8
Layer 1
 62
     7
  6
CONTINUOUS
 10
5.594826
 20
6.755942
 30
0.000000
 11
6.095654
 21
7.153789
 31
0.000000
  0
LINE
  8
Layer 1
 62
     7
  6
CONTINUOUS
 10
6.095654
 20
7.153789
 30
0.000000
 11
6.454083
 21
7.461597
 31
0.000000
  0
LINE
  8
Layer 1
 62
     7
  6
CONTINUOUS
 10
6.454083
 20
7.461597
 30
0.000000
 11
6.501032
 21
7.506103
 31
0.000000
  0
LINE
  8
Layer 1
 62
     7
  6
CONTINUOUS
 10
6.501032
 20
7.506103
 30
0.000000
 11
6.541065
 21
7.532994
 31
0.000000
  0
LINE
  8
Layer 1
 62
     7
  6
CONTINUOUS
 10
6.541065
 20
7.532994
 30
0.000000
 11
6.576696
 21
7.543517
 31
0.000000
  0
LINE
  8
Layer 1
 62
     7
  6
CONTINUOUS
 10
6.576696
 20
7.543517
 30
0.000000
 11
6.610441
 21
7.538913
 31
0.000000
  0
LINE
  8
Layer 1
 62
     7
  6
CONTINUOUS
 10
6.610441
 20
7.538913
 30
0.000000
 11
6.673151
 21
7.484915
 31
0.000000
  0
LINE
  8
Layer 1
 62
     7
  6
CONTINUOUS
 10
6.673151
 20
7.484915
 30
0.000000
 11
6.754186
 21
7.381301
 31
0.000000
  0
LINE
  8
Layer 1
 62
     7
  6
CONTINUOUS
 10
6.754186
 20
7.381301
 30
0.000000
 11
6.824274
 21
7.269748
 31
0.000000
  0
LINE
  8
Layer 1
 62
     7
  6
CONTINUOUS
 10
6.824274
 20
7.269748
 30
0.000000
 11
6.854142
 21
7.191936
 31
0.000000
  0
LINE
  8
Layer 1
 62
     7
  6
CONTINUOUS
 10
6.854142
 20
7.191936
 30
0.000000
 11
6.845832
 21
7.177018
 31
0.000000
  0
LINE
  8
Layer 1
 62
     7
  6
CONTINUOUS
 10
6.845832
 20
7.177018
 30
0.000000
 11
6.818649
 21
7.157517
 31
0.000000
  0
LINE
  8
Layer 1
 62
     7
  6
CONTINUOUS
 10
6.818649
 20
7.157517
 30
0.000000
 11
6.694139
 21
7.099142
 31
0.000000
  0
LINE
  8
Layer 1
 62
     7
  6
CONTINUOUS
 10
6.694139
 20
7.099142
 30
0.000000
 11
6.069862
 21
6.865481
 31
0.000000
  0
LINE
  8
Layer 1
 62
     7
  6
CONTINUOUS
 10
6.069862
 20
6.865481
 30
0.000000
 11
5.769920
 21
6.760377
 31
0.000000
  0
LINE
  8
Layer 1
 62
     7
  6
CONTINUOUS
 10
5.769920
 20
6.760377
 30
0.000000
 11
5.601218
 21
6.709496
 31
0.000000
  0
LINE
  8
Layer 1
 62
     7
  6
CONTINUOUS
 10
5.601218
 20
6.709496
 30
0.000000
 11
5.561183
 21
6.703259
 31
0.000000
  0
LINE
  8
Layer 1
 62
     7
  6
CONTINUOUS
 10
5.561183
 20
6.703259
 30
0.000000
 11
5.548079
 21
6.709223
 31
0.000000
  0
LINE
  8
Layer 1
 62
     7
  6
CONTINUOUS
 10
5.548079
 20
6.709223
 30
0.000000
 11
5.594826
 21
6.755942
 31
0.000000
  0
LINE
  8
Layer 1
 62
     7
  6
CONTINUOUS
 10
0.176225
 20
6.842802
 30
0.000000
 11
0.330851
 21
6.917547
 31
0.000000
  0
LINE
  8
Layer 1
 62
     7
  6
CONTINUOUS
 10
0.330851
 20
6.917547
 30
0.000000
 11
0.605476
 21
7.029902
 31
0.000000
  0
LINE
  8
Layer 1
 62
     7
  6
CONTINUOUS
 10
0.605476
 20
7.029902
 30
0.000000
 11
1.315123
 21
7.289201
 31
0.000000
  0
LINE
  8
Layer 1
 62
     7
  6
CONTINUOUS
 10
1.315123
 20
7.289201
 30
0.000000
 11
1.629724
 21
7.383842
 31
0.000000
  0
LINE
  8
Layer 1
 62
     7
  6
CONTINUOUS
 10
1.629724
 20
7.383842
 30
0.000000
 11
1.720063
 21
7.397504
 31
0.000000
  0
LINE
  8
Layer 1
 62
     7
  6
CONTINUOUS
 10
1.720063
 20
7.397504
 30
0.000000
 11
1.779608
 21
7.391783
 31
0.000000
  0
LINE
  8
Layer 1
 62
     7
  6
CONTINUOUS
 10
1.779608
 20
7.391783
 30
0.000000
 11
1.801159
 21
7.382985
 31
0.000000
  0
LINE
  8
Layer 1
 62
     7
  6
CONTINUOUS
 10
1.801159
 20
7.382985
 30
0.000000
 11
1.808700
 21
7.372768
 31
0.000000
  0
LINE
  8
Layer 1
 62
     7
  6
CONTINUOUS
 10
1.808700
 20
7.372768
 30
0.000000
 11
1.771426
 21
7.342912
 31
0.000000
  0
LINE
  8
Layer 1
 62
     7
  6
CONTINUOUS
 10
1.771426
 20
7.342912
 30
0.000000
 11
1.415180
 21
7.209316
 31
0.000000
  0
LINE
  8
Layer 1
 62
     7
  6
CONTINUOUS
 10
1.415180
 20
7.209316
 30
0.000000
 11
0.651029
 21
6.943486
 31
0.000000
  0
LINE
  8
Layer 1
 62
     7
  6
CONTINUOUS
 10
0.651029
 20
6.943486
 30
0.000000
 11
0.393596
 21
6.860019
 31
0.000000
  0
LINE
  8
Layer 1
 62
     7
  6
CONTINUOUS
 10
0.393596
 20
6.860019
 30
0.000000
 11
0.216511
 21
6.813161
 31
0.000000
  0
LINE
  8
Layer 1
 62
     7
  6
CONTINUOUS
 10
0.216511
 20
6.813161
 30
0.000000
 11
0.121822
 21
6.801364
 31
0.000000
  0
LINE
  8
Layer 1
 62
     7
  6
CONTINUOUS
 10
0.121822
 20
6.801364
 30
0.000000
 11
0.132257
 21
6.814053
 31
0.000000
  0
LINE
  8
Layer 1
 62
     7
  6
CONTINUOUS
 10
0.132257
 20
6.814053
 30
0.000000
 11
0.176225
 21
6.842802
 31
0.000000
  0
LINE
  8
Layer 1
 62
     7
  6
CONTINUOUS
 10
1.040596
 20
6.906351
 30
0.000000
 11
1.104416
 21
6.941049
 31
0.000000
  0
LINE
  8
Layer 1
 62
     7
  6
CONTINUOUS
 10
1.104416
 20
6.941049
 30
0.000000
 11
1.257855
 21
6.997627
 31
0.000000
  0
LINE
  8
Layer 1
 62
     7
  6
CONTINUOUS
 10
1.257855
 20
6.997627
 30
0.000000
 11
1.499642
 21
7.089180
 31
0.000000
  0
LINE
  8
Layer 1
 62
     7
  6
CONTINUOUS
 10
1.499642
 20
7.089180
 30
0.000000
 11
1.775874
 21
7.207965
 31
0.000000
  0
LINE
  8
Layer 1
 62
     7
  6
CONTINUOUS
 10
1.775874
 20
7.207965
 30
0.000000
 11
2.020975
 21
7.312304
 31
0.000000
  0
LINE
  8
Layer 1
 62
     7
  6
CONTINUOUS
 10
2.020975
 20
7.312304
 30
0.000000
 11
2.187916
 21
7.369122
 31
0.000000
  0
LINE
  8
Layer 1
 62
     7
  6
CONTINUOUS
 10
2.187916
 20
7.369122
 30
0.000000
 11
2.249343
 21
7.379790
 31
0.000000
  0
LINE
  8
Layer 1
 62
     7
  6
CONTINUOUS
 10
2.249343
 20
7.379790
 30
0.000000
 11
2.282703
 21
7.376421
 31
0.000000
  0
LINE
  8
Layer 1
 62
     7
  6
CONTINUOUS
 10
2.282703
 20
7.376421
 30
0.000000
 11
2.296490
 21
7.354449
 31
0.000000
  0
LINE
  8
Layer 1
 62
     7
  6
CONTINUOUS
 10
2.296490
 20
7.354449
 30
0.000000
 11
2.299199
 21
7.309311
 31
0.000000
  0
LINE
  8
Layer 1
 62
     7
  6
CONTINUOUS
 10
2.299199
 20
7.309311
 30
0.000000
 11
2.295625
 21
7.269573
 31
0.000000
  0
LINE
  8
Layer 1
 62
     7
  6
CONTINUOUS
 10
2.295625
 20
7.269573
 30
0.000000
 11
2.281498
 21
7.236133
 31
0.000000
  0
LINE
  8
Layer 1
 62
     7
  6
CONTINUOUS
 10
2.281498
 20
7.236133
 30
0.000000
 11
2.251714
 21
7.206763
 31
0.000000
  0
LINE
  8
Layer 1
 62
     7
  6
CONTINUOUS
 10
2.251714
 20
7.206763
 30
0.000000
 11
2.201167
 21
7.179232
 31
0.000000
  0
LINE
  8
Layer 1
 62
     7
  6
CONTINUOUS
 10
2.201167
 20
7.179232
 30
0.000000
 11
2.017357
 21
7.120765
 31
0.000000
  0
LINE
  8
Layer 1
 62
     7
  6
CONTINUOUS
 10
2.017357
 20
7.120765
 30
0.000000
 11
1.689224
 21
7.042894
 31
0.000000
  0
LINE
  8
Layer 1
 62
     7
  6
CONTINUOUS
 10
1.689224
 20
7.042894
 30
0.000000
 11
1.123005
 21
6.910407
 31
0.000000
  0
LINE
  8
Layer 1
 62
     7
  6
CONTINUOUS
 10
1.123005
 20
6.910407
 30
0.000000
 11
1.064804
 21
6.899656
 31
0.000000
  0
LINE
  8
Layer 1
 62
     7
  6
CONTINUOUS
 10
1.064804
 20
6.899656
 30
0.000000
 11
1.040596
 21
6.906351
 31
0.000000
  0
LINE
  8
Layer 1
 62
     7
  6
CONTINUOUS
 10
2.561408
 20
7.115154
 30
0.000000
 11
2.503207
 21
7.172179
 31
0.000000
  0
LINE
  8
Layer 1
 62
     7
  6
CONTINUOUS
 10
2.503207
 20
7.172179
 30
0.000000
 11
2.478999
 21
7.227327
 31
0.000000
  0
LINE
  8
Layer 1
 62
     7
  6
CONTINUOUS
 10
2.478999
 20
7.227327
 30
0.000000
 11
2.491412
 21
7.270378
 31
0.000000
  0
LINE
  8
Layer 1
 62
     7
  6
CONTINUOUS
 10
2.491412
 20
7.270378
 30
0.000000
 11
2.526375
 21
7.323892
 31
0.000000
  0
LINE
  8
Layer 1
 62
     7
  6
CONTINUOUS
 10
2.526375
 20
7.323892
 30
0.000000
 11
2.650284
 21
7.450393
 31
0.000000
  0
LINE
  8
Layer 1
 62
     7
  6
CONTINUOUS
 10
2.650284
 20
7.450393
 30
0.000000
 11
2.823401
 21
7.582991
 31
0.000000
  0
LINE
  8
Layer 1
 62
     7
  6
CONTINUOUS
 10
2.823401
 20
7.582991
 30
0.000000
 11
3.018400
 21
7.697852
 31
0.000000
  0
LINE
  8
Layer 1
 62
     7
  6
CONTINUOUS
 10
3.018400
 20
7.697852
 30
0.000000
 11
3.572785
 21
7.983532
 31
0.000000
  0
LINE
  8
Layer 1
 62
     7
  6
CONTINUOUS
 10
3.572785
 20
7.983532
 30
0.000000
 11
3.761672
 21
8.076327
 31
0.000000
  0
LINE
  8
Layer 1
 62
     7
  6
CONTINUOUS
 10
3.761672
 20
8.076327
 30
0.000000
 11
3.980080
 21
8.172147
 31
0.000000
  0
LINE
  8
Layer 1
 62
     7
  6
CONTINUOUS
 10
3.980080
 20
8.172147
 30
0.000000
 11
4.438017
 21
8.349001
 31
0.000000
  0
LINE
  8
Layer 1
 62
     7
  6
CONTINUOUS
 10
4.438017
 20
8.349001
 30
0.000000
 11
4.811700
 21
8.466369
 31
0.000000
  0
LINE
  8
Layer 1
 62
     7
  6
CONTINUOUS
 10
4.811700
 20
8.466369
 30
0.000000
 11
4.924793
 21
8.487832
 31
0.000000
  0
LINE
  8
Layer 1
 62
     7
  6
CONTINUOUS
 10
4.924793
 20
8.487832
 30
0.000000
 11
4.955525
 21
8.486648
 31
0.000000
  0
LINE
  8
Layer 1
 62
     7
  6
CONTINUOUS
 10
4.955525
 20
8.486648
 30
0.000000
 11
4.966238
 21
8.476527
 31
0.000000
  0
LINE
  8
Layer 1
 62
     7
  6
CONTINUOUS
 10
4.966238
 20
8.476527
 30
0.000000
 11
4.957801
 21
8.450935
 31
0.000000
  0
LINE
  8
Layer 1
 62
     7
  6
CONTINUOUS
 10
4.957801
 20
8.450935
 30
0.000000
 11
4.937517
 21
8.428880
 31
0.000000
  0
LINE
  8
Layer 1
 62
     7
  6
CONTINUOUS
 10
4.937517
 20
8.428880
 30
0.000000
 11
4.897861
 21
8.356609
 31
0.000000
  0
LINE
  8
Layer 1
 62
     7
  6
CONTINUOUS
 10
4.897861
 20
8.356609
 30
0.000000
 11
4.842850
 21
8.210285
 31
0.000000
  0
LINE
  8
Layer 1
 62
     7
  6
CONTINUOUS
 10
4.842850
 20
8.210285
 30
0.000000
 11
4.789334
 21
8.079589
 31
0.000000
  0
LINE
  8
Layer 1
 62
     7
  6
CONTINUOUS
 10
4.789334
 20
8.079589
 30
0.000000
 11
4.717381
 21
7.953330
 31
0.000000
  0
LINE
  8
Layer 1
 62
     7
  6
CONTINUOUS
 10
4.717381
 20
7.953330
 30
0.000000
 11
4.628162
 21
7.832649
 31
0.000000
  0
LINE
  8
Layer 1
 62
     7
  6
CONTINUOUS
 10
4.628162
 20
7.832649
 30
0.000000
 11
4.522845
 21
7.718688
 31
0.000000
  0
LINE
  8
Layer 1
 62
     7
  6
CONTINUOUS
 10
4.522845
 20
7.718688
 30
0.000000
 11
4.402602
 21
7.612590
 31
0.000000
  0
LINE
  8
Layer 1
 62
     7
  6
CONTINUOUS
 10
4.402602
 20
7.612590
 30
0.000000
 11
4.268604
 21
7.515495
 31
0.000000
  0
LINE
  8
Layer 1
 62
     7
  6
CONTINUOUS
 10
4.268604
 20
7.515495
 30
0.000000
 11
4.122020
 21
7.428547
 31
0.000000
  0
LINE
  8
Layer 1
 62
     7
  6
CONTINUOUS
 10
4.122020
 20
7.428547
 30
0.000000
 11
3.964022
 21
7.352886
 31
0.000000
  0
LINE
  8
Layer 1
 62
     7
  6
CONTINUOUS
 10
3.964022
 20
7.352886
 30
0.000000
 11
3.729377
 21
7.271120
 31
0.000000
  0
LINE
  8
Layer 1
 62
     7
  6
CONTINUOUS
 10
3.729377
 20
7.271120
 30
0.000000
 11
3.422407
 21
7.187665
 31
0.000000
  0
LINE
  8
Layer 1
 62
     7
  6
CONTINUOUS
 10
3.422407
 20
7.187665
 30
0.000000
 11
3.104704
 21
7.117652
 31
0.000000
  0
LINE
  8
Layer 1
 62
     7
  6
CONTINUOUS
 10
3.104704
 20
7.117652
 30
0.000000
 11
2.837860
 21
7.076213
 31
0.000000
  0
LINE
  8
Layer 1
 62
     7
  6
CONTINUOUS
 10
2.837860
 20
7.076213
 30
0.000000
 11
2.738244
 21
7.069130
 31
0.000000
  0
LINE
  8
Layer 1
 62
     7
  6
CONTINUOUS
 10
2.738244
 20
7.069130
 30
0.000000
 11
2.666023
 21
7.072264
 31
0.000000
  0
LINE
  8
Layer 1
 62
     7
  6
CONTINUOUS
 10
2.666023
 20
7.072264
 30
0.000000
 11
2.610608
 21
7.087109
 31
0.000000
  0
LINE
  8
Layer 1
 62
     7
  6
CONTINUOUS
 10
2.610608
 20
7.087109
 30
0.000000
 11
2.561408
 21
7.115154
 31
0.000000
  0
LINE
  8
Layer 1
 62
     7
  6
CONTINUOUS
 10
7.114121
 20
7.272079
 30
0.000000
 11
7.039869
 21
7.301810
 31
0.000000
  0
LINE
  8
Layer 1
 62
     7
  6
CONTINUOUS
 10
7.039869
 20
7.301810
 30
0.000000
 11
6.999509
 21
7.324902
 31
0.000000
  0
LINE
  8
Layer 1
 62
     7
  6
CONTINUOUS
 10
6.999509
 20
7.324902
 30
0.000000
 11
6.974824
 21
7.356743
 31
0.000000
  0
LINE
  8
Layer 1
 62
     7
  6
CONTINUOUS
 10
6.974824
 20
7.356743
 30
0.000000
 11
6.947594
 21
7.412720
 31
0.000000
  0
LINE
  8
Layer 1
 62
     7
  6
CONTINUOUS
 10
6.947594
 20
7.412720
 30
0.000000
 11
6.932150
 21
7.452627
 31
0.000000
  0
LINE
  8
Layer 1
 62
     7
  6
CONTINUOUS
 10
6.932150
 20
7.452627
 30
0.000000
 11
6.932034
 21
7.482255
 31
0.000000
  0
LINE
  8
Layer 1
 62
     7
  6
CONTINUOUS
 10
6.932034
 20
7.482255
 30
0.000000
 11
6.949405
 21
7.508613
 31
0.000000
  0
LINE
  8
Layer 1
 62
     7
  6
CONTINUOUS
 10
6.949405
 20
7.508613
 30
0.000000
 11
6.986424
 21
7.538708
 31
0.000000
  0
LINE
  8
Layer 1
 62
     7
  6
CONTINUOUS
 10
6.986424
 20
7.538708
 30
0.000000
 11
7.086905
 21
7.597849
 31
0.000000
  0
LINE
  8
Layer 1
 62
     7
  6
CONTINUOUS
 10
7.086905
 20
7.597849
 30
0.000000
 11
7.219794
 21
7.656689
 31
0.000000
  0
LINE
  8
Layer 1
 62
     7
  6
CONTINUOUS
 10
7.219794
 20
7.656689
 30
0.000000
 11
7.371490
 21
7.709873
 31
0.000000
  0
LINE
  8
Layer 1
 62
     7
  6
CONTINUOUS
 10
7.371490
 20
7.709873
 30
0.000000
 11
7.528393
 21
7.752049
 31
0.000000
  0
LINE
  8
Layer 1
 62
     7
  6
CONTINUOUS
 10
7.528393
 20
7.752049
 30
0.000000
 11
7.675122
 21
7.794034
 31
0.000000
  0
LINE
  8
Layer 1
 62
     7
  6
CONTINUOUS
 10
7.675122
 20
7.794034
 30
0.000000
 11
7.810352
 21
7.852068
 31
0.000000
  0
LINE
  8
Layer 1
 62
     7
  6
CONTINUOUS
 10
7.810352
 20
7.852068
 30
0.000000
 11
7.937925
 21
7.928112
 31
0.000000
  0
LINE
  8
Layer 1
 62
     7
  6
CONTINUOUS
 10
7.937925
 20
7.928112
 30
0.000000
 11
8.061684
 21
8.024127
 31
0.000000
  0
LINE
  8
Layer 1
 62
     7
  6
CONTINUOUS
 10
8.061684
 20
8.024127
 30
0.000000
 11
8.140509
 21
8.086326
 31
0.000000
  0
LINE
  8
Layer 1
 62
     7
  6
CONTINUOUS
 10
8.140509
 20
8.086326
 30
0.000000
 11
8.182999
 21
8.102795
 31
0.000000
  0
LINE
  8
Layer 1
 62
     7
  6
CONTINUOUS
 10
8.182999
 20
8.102795
 30
0.000000
 11
8.191494
 21
8.093651
 31
0.000000
  0
LINE
  8
Layer 1
 62
     7
  6
CONTINUOUS
 10
8.191494
 20
8.093651
 30
0.000000
 11
8.191956
 21
8.072798
 31
0.000000
  0
LINE
  8
Layer 1
 62
     7
  6
CONTINUOUS
 10
8.191956
 20
8.072798
 30
0.000000
 11
8.170180
 21
7.995600
 31
0.000000
  0
LINE
  8
Layer 1
 62
     7
  6
CONTINUOUS
 10
8.170180
 20
7.995600
 30
0.000000
 11
8.146932
 21
7.859941
 31
0.000000
  0
LINE
  8
Layer 1
 62
     7
  6
CONTINUOUS
 10
8.146932
 20
7.859941
 30
0.000000
 11
8.138982
 21
7.667571
 31
0.000000
  0
LINE
  8
Layer 1
 62
     7
  6
CONTINUOUS
 10
8.138982
 20
7.667571
 30
0.000000
 11
8.141927
 21
7.434816
 31
0.000000
  0
LINE
  8
Layer 1
 62
     7
  6
CONTINUOUS
 10
8.141927
 20
7.434816
 30
0.000000
 11
8.005983
 21
7.362125
 31
0.000000
  0
LINE
  8
Layer 1
 62
     7
  6
CONTINUOUS
 10
8.005983
 20
7.362125
 30
0.000000
 11
7.908275
 21
7.318594
 31
0.000000
  0
LINE
  8
Layer 1
 62
     7
  6
CONTINUOUS
 10
7.908275
 20
7.318594
 30
0.000000
 11
7.796077
 21
7.283219
 31
0.000000
  0
LINE
  8
Layer 1
 62
     7
  6
CONTINUOUS
 10
7.796077
 20
7.283219
 30
0.000000
 11
7.674666
 21
7.256532
 31
0.000000
  0
LINE
  8
Layer 1
 62
     7
  6
CONTINUOUS
 10
7.674666
 20
7.256532
 30
0.000000
 11
7.549319
 21
7.239067
 31
0.000000
  0
LINE
  8
Layer 1
 62
     7
  6
CONTINUOUS
 10
7.549319
 20
7.239067
 30
0.000000
 11
7.425314
 21
7.231357
 31
0.000000
  0
LINE
  8
Layer 1
 62
     7
  6
CONTINUOUS
 10
7.425314
 20
7.231357
 30
0.000000
 11
7.307927
 21
7.233933
 31
0.000000
  0
LINE
  8
Layer 1
 62
     7
  6
CONTINUOUS
 10
7.307927
 20
7.233933
 30
0.000000
 11
7.202437
 21
7.247330
 31
0.000000
  0
LINE
  8
Layer 1
 62
     7
  6
CONTINUOUS
 10
7.202437
 20
7.247330
 30
0.000000
 11
7.114121
 21
7.272079
 31
0.000000
  0
LINE
  8
Layer 1
 62
     7
  6
CONTINUOUS
 10
8.381467
 20
7.540790
 30
0.000000
 11
8.359787
 21
7.681349
 31
0.000000
  0
LINE
  8
Layer 1
 62
     7
  6
CONTINUOUS
 10
8.359787
 20
7.681349
 30
0.000000
 11
8.359351
 21
7.857612
 31
0.000000
  0
LINE
  8
Layer 1
 62
     7
  6
CONTINUOUS
 10
8.359351
 20
7.857612
 30
0.000000
 11
8.378150
 21
8.031311
 31
0.000000
  0
LINE
  8
Layer 1
 62
     7
  6
CONTINUOUS
 10
8.378150
 20
8.031311
 30
0.000000
 11
8.414176
 21
8.164180
 31
0.000000
  0
LINE
  8
Layer 1
 62
     7
  6
CONTINUOUS
 10
8.414176
 20
8.164180
 30
0.000000
 11
8.441643
 21
8.212827
 31
0.000000
  0
LINE
  8
Layer 1
 62
     7
  6
CONTINUOUS
 10
8.441643
 20
8.212827
 30
0.000000
 11
8.478037
 21
8.250823
 31
0.000000
  0
LINE
  8
Layer 1
 62
     7
  6
CONTINUOUS
 10
8.478037
 20
8.250823
 30
0.000000
 11
8.527066
 21
8.281133
 31
0.000000
  0
LINE
  8
Layer 1
 62
     7
  6
CONTINUOUS
 10
8.527066
 20
8.281133
 30
0.000000
 11
8.592438
 21
8.306722
 31
0.000000
  0
LINE
  8
Layer 1
 62
     7
  6
CONTINUOUS
 10
8.592438
 20
8.306722
 30
0.000000
 11
8.857881
 21
8.410389
 31
0.000000
  0
LINE
  8
Layer 1
 62
     7
  6
CONTINUOUS
 10
8.857881
 20
8.410389
 30
0.000000
 11
8.974612
 21
8.470078
 31
0.000000
  0
LINE
  8
Layer 1
 62
     7
  6
CONTINUOUS
 10
8.974612
 20
8.470078
 30
0.000000
 11
9.079172
 21
8.534299
 31
0.000000
  0
LINE
  8
Layer 1
 62
     7
  6
CONTINUOUS
 10
9.079172
 20
8.534299
 30
0.000000
 11
9.151602
 21
8.578834
 31
0.000000
  0
LINE
  8
Layer 1
 62
     7
  6
CONTINUOUS
 10
9.151602
 20
8.578834
 30
0.000000
 11
9.172471
 21
8.585200
 31
0.000000
  0
LINE
  8
Layer 1
 62
     7
  6
CONTINUOUS
 10
9.172471
 20
8.585200
 30
0.000000
 11
9.183928
 21
8.579551
 31
0.000000
  0
LINE
  8
Layer 1
 62
     7
  6
CONTINUOUS
 10
9.183928
 20
8.579551
 30
0.000000
 11
9.181060
 21
8.527971
 31
0.000000
  0
LINE
  8
Layer 1
 62
     7
  6
CONTINUOUS
 10
9.181060
 20
8.527971
 30
0.000000
 11
9.147904
 21
8.415621
 31
0.000000
  0
LINE
  8
Layer 1
 62
     7
  6
CONTINUOUS
 10
9.147904
 20
8.415621
 30
0.000000
 11
9.107158
 21
8.258938
 31
0.000000
  0
LINE
  8
Layer 1
 62
     7
  6
CONTINUOUS
 10
9.107158
 20
8.258938
 30
0.000000
 11
9.070479
 21
8.073412
 31
0.000000
  0
LINE
  8
Layer 1
 62
     7
  6
CONTINUOUS
 10
9.070479
 20
8.073412
 30
0.000000
 11
9.027912
 21
7.891117
 31
0.000000
  0
LINE
  8
Layer 1
 62
     7
  6
CONTINUOUS
 10
9.027912
 20
7.891117
 30
0.000000
 11
8.973009
 21
7.742206
 31
0.000000
  0
LINE
  8
Layer 1
 62
     7
  6
CONTINUOUS
 10
8.973009
 20
7.742206
 30
0.000000
 11
8.935597
 21
7.680618
 31
0.000000
  0
LINE
  8
Layer 1
 62
     7
  6
CONTINUOUS
 10
8.935597
 20
7.680618
 30
0.000000
 11
8.888473
 21
7.621903
 31
0.000000
  0
LINE
  8
Layer 1
 62
     7
  6
CONTINUOUS
 10
8.888473
 20
7.621903
 30
0.000000
 11
8.774210
 21
7.519673
 31
0.000000
  0
LINE
  8
Layer 1
 62
     7
  6
CONTINUOUS
 10
8.774210
 20
7.519673
 30
0.000000
 11
8.648460
 21
7.448681
 31
0.000000
  0
LINE
  8
Layer 1
 62
     7
  6
CONTINUOUS
 10
8.648460
 20
7.448681
 30
0.000000
 11
8.586978
 21
7.429013
 31
0.000000
  0
LINE
  8
Layer 1
 62
     7
  6
CONTINUOUS
 10
8.586978
 20
7.429013
 30
0.000000
 11
8.529465
 21
7.422092
 31
0.000000
  0
LINE
  8
Layer 1
 62
     7
  6
CONTINUOUS
 10
8.529465
 20
7.422092
 30
0.000000
 11
8.467670
 21
7.425420
 31
0.000000
  0
LINE
  8
Layer 1
 62
     7
  6
CONTINUOUS
 10
8.467670
 20
7.425420
 30
0.000000
 11
8.429205
 21
7.440859
 31
0.000000
  0
LINE
  8
Layer 1
 62
     7
  6
CONTINUOUS
 10
8.429205
 20
7.440859
 30
0.000000
 11
8.403870
 21
7.476589
 31
0.000000
  0
LINE
  8
Layer 1
 62
     7
  6
CONTINUOUS
 10
8.403870
 20
7.476589
 30
0.000000
 11
8.381467
 21
7.540790
 31
0.000000
  0
LINE
  8
Layer 1
 62
     7
  6
CONTINUOUS
 10
1.924615
 20
7.622665
 30
0.000000
 11
1.724488
 21
7.675658
 31
0.000000
  0
LINE
  8
Layer 1
 62
     7
  6
CONTINUOUS
 10
1.724488
 20
7.675658
 30
0.000000
 11
1.551417
 21
7.731658
 31
0.000000
  0
LINE
  8
Layer 1
 62
     7
  6
CONTINUOUS
 10
1.551417
 20
7.731658
 30
0.000000
 11
1.415316
 21
7.787091
 31
0.000000
  0
LINE
  8
Layer 1
 62
     7
  6
CONTINUOUS
 10
1.415316
 20
7.787091
 30
0.000000
 11
1.326104
 21
7.838383
 31
0.000000
  0
LINE
  8
Layer 1
 62
     7
  6
CONTINUOUS
 10
1.326104
 20
7.838383
 30
0.000000
 11
1.293338
 21
7.872540
 31
0.000000
  0
LINE
  8
Layer 1
 62
     7
  6
CONTINUOUS
 10
1.293338
 20
7.872540
 30
0.000000
 11
1.296981
 21
7.880656
 31
0.000000
  0
LINE
  8
Layer 1
 62
     7
  6
CONTINUOUS
 10
1.296981
 20
7.880656
 30
0.000000
 11
1.313628
 21
7.882810
 31
0.000000
  0
LINE
  8
Layer 1
 62
     7
  6
CONTINUOUS
 10
1.313628
 20
7.882810
 30
0.000000
 11
1.384900
 21
7.869267
 31
0.000000
  0
LINE
  8
Layer 1
 62
     7
  6
CONTINUOUS
 10
1.384900
 20
7.869267
 30
0.000000
 11
1.505080
 21
7.831985
 31
0.000000
  0
LINE
  8
Layer 1
 62
     7
  6
CONTINUOUS
 10
1.505080
 20
7.831985
 30
0.000000
 11
1.705209
 21
7.772976
 31
0.000000
  0
LINE
  8
Layer 1
 62
     7
  6
CONTINUOUS
 10
1.705209
 20
7.772976
 30
0.000000
 11
1.891025
 21
7.741913
 31
0.000000
  0
LINE
  8
Layer 1
 62
     7
  6
CONTINUOUS
 10
1.891025
 20
7.741913
 30
0.000000
 11
2.089890
 21
7.736180
 31
0.000000
  0
LINE
  8
Layer 1
 62
     7
  6
CONTINUOUS
 10
2.089890
 20
7.736180
 30
0.000000
 11
2.329165
 21
7.753160
 31
0.000000
  0
LINE
  8
Layer 1
 62
     7
  6
CONTINUOUS
 10
2.329165
 20
7.753160
 30
0.000000
 11
2.726225
 21
7.805357
 31
0.000000
  0
LINE
  8
Layer 1
 62
     7
  6
CONTINUOUS
 10
2.726225
 20
7.805357
 30
0.000000
 11
2.778416
 21
7.812134
 31
0.000000
  0
LINE
  8
Layer 1
 62
     7
  6
CONTINUOUS
 10
2.778416
 20
7.812134
 30
0.000000
 11
2.781940
 21
7.802239
 31
0.000000
  0
LINE
  8
Layer 1
 62
     7
  6
CONTINUOUS
 10
2.781940
 20
7.802239
 30
0.000000
 11
2.771999
 21
7.785413
 31
0.000000
  0
LINE
  8
Layer 1
 62
     7
  6
CONTINUOUS
 10
2.771999
 20
7.785413
 30
0.000000
 11
2.716474
 21
7.736755
 31
0.000000
  0
LINE
  8
Layer 1
 62
     7
  6
CONTINUOUS
 10
2.716474
 20
7.736755
 30
0.000000
 11
2.621341
 21
7.677720
 31
0.000000
  0
LINE
  8
Layer 1
 62
     7
  6
CONTINUOUS
 10
2.621341
 20
7.677720
 30
0.000000
 11
2.467927
 21
7.612606
 31
0.000000
  0
LINE
  8
Layer 1
 62
     7
  6
CONTINUOUS
 10
2.467927
 20
7.612606
 30
0.000000
 11
2.307408
 21
7.582259
 31
0.000000
  0
LINE
  8
Layer 1
 62
     7
  6
CONTINUOUS
 10
2.307408
 20
7.582259
 30
0.000000
 11
2.129673
 21
7.585878
 31
0.000000
  0
LINE
  8
Layer 1
 62
     7
  6
CONTINUOUS
 10
2.129673
 20
7.585878
 30
0.000000
 11
1.924615
 21
7.622665
 31
0.000000
  0
LINE
  8
Layer 1
 62
     7
  6
CONTINUOUS
 10
10.843646
 20
7.664243
 30
0.000000
 11
10.824346
 21
7.700204
 31
0.000000
  0
LINE
  8
Layer 1
 62
     7
  6
CONTINUOUS
 10
10.824346
 20
7.700204
 30
0.000000
 11
10.824812
 21
7.724509
 31
0.000000
  0
LINE
  8
Layer 1
 62
     7
  6
CONTINUOUS
 10
10.824812
 20
7.724509
 30
0.000000
 11
10.971582
 21
8.381109
 31
0.000000
  0
LINE
  8
Layer 1
 62
     7
  6
CONTINUOUS
 10
10.971582
 20
8.381109
 30
0.000000
 11
11.093021
 21
8.926619
 31
0.000000
  0
LINE
  8
Layer 1
 62
     7
  6
CONTINUOUS
 10
11.093021
 20
8.926619
 30
0.000000
 11
11.145451
 21
9.121252
 31
0.000000
  0
LINE
  8
Layer 1
 62
     7
  6
CONTINUOUS
 10
11.145451
 20
9.121252
 30
0.000000
 11
11.194712
 21
9.270028
 31
0.000000
  0
LINE
  8
Layer 1
 62
     7
  6
CONTINUOUS
 10
11.194712
 20
9.270028
 30
0.000000
 11
11.242573
 21
9.377616
 31
0.000000
  0
LINE
  8
Layer 1
 62
     7
  6
CONTINUOUS
 10
11.242573
 20
9.377616
 30
0.000000
 11
11.290804
 21
9.448685
 31
0.000000
  0
LINE
  8
Layer 1
 62
     7
  6
CONTINUOUS
 10
11.290804
 20
9.448685
 30
0.000000
 11
11.341172
 21
9.487903
 31
0.000000
  0
LINE
  8
Layer 1
 62
     7
  6
CONTINUOUS
 10
11.341172
 20
9.487903
 30
0.000000
 11
11.395446
 21
9.499938
 31
0.000000
  0
LINE
  8
Layer 1
 62
     7
  6
CONTINUOUS
 10
11.395446
 20
9.499938
 30
0.000000
 11
11.429947
 21
9.492317
 31
0.000000
  0
LINE
  8
Layer 1
 62
     7
  6
CONTINUOUS
 10
11.429947
 20
9.492317
 30
0.000000
 11
11.462108
 21
9.467934
 31
0.000000
  0
LINE
  8
Layer 1
 62
     7
  6
CONTINUOUS
 10
11.462108
 20
9.467934
 30
0.000000
 11
11.494086
 21
9.424510
 31
0.000000
  0
LINE
  8
Layer 1
 62
     7
  6
CONTINUOUS
 10
11.494086
 20
9.424510
 30
0.000000
 11
11.528035
 21
9.359766
 31
0.000000
  0
LINE
  8
Layer 1
 62
     7
  6
CONTINUOUS
 10
11.528035
 20
9.359766
 30
0.000000
 11
11.653076
 21
9.104158
 31
0.000000
  0
LINE
  8
Layer 1
 62
     7
  6
CONTINUOUS
 10
11.653076
 20
9.104158
 30
0.000000
 11
11.693780
 21
8.983898
 31
0.000000
  0
LINE
  8
Layer 1
 62
     7
  6
CONTINUOUS
 10
11.693780
 20
8.983898
 30
0.000000
 11
11.703001
 21
8.845911
 31
0.000000
  0
LINE
  8
Layer 1
 62
     7
  6
CONTINUOUS
 10
11.703001
 20
8.845911
 30
0.000000
 11
11.681893
 21
8.693217
 31
0.000000
  0
LINE
  8
Layer 1
 62
     7
  6
CONTINUOUS
 10
11.681893
 20
8.693217
 30
0.000000
 11
11.631605
 21
8.528836
 31
0.000000
  0
LINE
  8
Layer 1
 62
     7
  6
CONTINUOUS
 10
11.631605
 20
8.528836
 30
0.000000
 11
11.553289
 21
8.355789
 31
0.000000
  0
LINE
  8
Layer 1
 62
     7
  6
CONTINUOUS
 10
11.553289
 20
8.355789
 30
0.000000
 11
11.448096
 21
8.177096
 31
0.000000
  0
LINE
  8
Layer 1
 62
     7
  6
CONTINUOUS
 10
11.448096
 20
8.177096
 30
0.000000
 11
11.317177
 21
7.995777
 31
0.000000
  0
LINE
  8
Layer 1
 62
     7
  6
CONTINUOUS
 10
11.317177
 20
7.995777
 30
0.000000
 11
11.161684
 21
7.814853
 31
0.000000
  0
LINE
  8
Layer 1
 62
     7
  6
CONTINUOUS
 10
11.161684
 20
7.814853
 30
0.000000
 11
11.043309
 21
7.696973
 31
0.000000
  0
LINE
  8
Layer 1
 62
     7
  6
CONTINUOUS
 10
11.043309
 20
7.696973
 30
0.000000
 11
10.956882
 21
7.635437
 31
0.000000
  0
LINE
  8
Layer 1
 62
     7
  6
CONTINUOUS
 10
10.956882
 20
7.635437
 30
0.000000
 11
10.922818
 21
7.624459
 31
0.000000
  0
LINE
  8
Layer 1
 62
     7
  6
CONTINUOUS
 10
10.922818
 20
7.624459
 30
0.000000
 11
10.893346
 21
7.625957
 31
0.000000
  0
LINE
  8
Layer 1
 62
     7
  6
CONTINUOUS
 10
10.893346
 20
7.625957
 30
0.000000
 11
10.867333
 21
7.639398
 31
0.000000
  0
LINE
  8
Layer 1
 62
     7
  6
CONTINUOUS
 10
10.867333
 20
7.639398
 30
0.000000
 11
10.843646
 21
7.664243
 31
0.000000
  0
LINE
  8
Layer 1
 62
     7
  6
CONTINUOUS
 10
10.340805
 20
7.958044
 30
0.000000
 11
10.362150
 21
8.182191
 31
0.000000
  0
LINE
  8
Layer 1
 62
     7
  6
CONTINUOUS
 10
10.362150
 20
8.182191
 30
0.000000
 11
10.399124
 21
8.372937
 31
0.000000
  0
LINE
  8
Layer 1
 62
     7
  6
CONTINUOUS
 10
10.399124
 20
8.372937
 30
0.000000
 11
10.466693
 21
8.588447
 31
0.000000
  0
LINE
  8
Layer 1
 62
     7
  6
CONTINUOUS
 10
10.466693
 20
8.588447
 30
0.000000
 11
10.579826
 21
8.886884
 31
0.000000
  0
LINE
  8
Layer 1
 62
     7
  6
CONTINUOUS
 10
10.579826
 20
8.886884
 30
0.000000
 11
10.668588
 21
9.095113
 31
0.000000
  0
LINE
  8
Layer 1
 62
     7
  6
CONTINUOUS
 10
10.668588
 20
9.095113
 30
0.000000
 11
10.756644
 21
9.269857
 31
0.000000
  0
LINE
  8
Layer 1
 62
     7
  6
CONTINUOUS
 10
10.756644
 20
9.269857
 30
0.000000
 11
10.839451
 21
9.406326
 31
0.000000
  0
LINE
  8
Layer 1
 62
     7
  6
CONTINUOUS
 10
10.839451
 20
9.406326
 30
0.000000
 11
10.912466
 21
9.499726
 31
0.000000
  0
LINE
  8
Layer 1
 62
     7
  6
CONTINUOUS
 10
10.912466
 20
9.499726
 30
0.000000
 11
10.971146
 21
9.545264
 31
0.000000
  0
LINE
  8
Layer 1
 62
     7
  6
CONTINUOUS
 10
10.971146
 20
9.545264
 30
0.000000
 11
10.993691
 21
9.548587
 31
0.000000
  0
LINE
  8
Layer 1
 62
     7
  6
CONTINUOUS
 10
10.993691
 20
9.548587
 30
0.000000
 11
11.010948
 21
9.538147
 31
0.000000
  0
LINE
  8
Layer 1
 62
     7
  6
CONTINUOUS
 10
11.010948
 20
9.538147
 30
0.000000
 11
11.022351
 21
9.513346
 31
0.000000
  0
LINE
  8
Layer 1
 62
     7
  6
CONTINUOUS
 10
11.022351
 20
9.513346
 30
0.000000
 11
11.027330
 21
9.473584
 31
0.000000
  0
LINE
  8
Layer 1
 62
     7
  6
CONTINUOUS
 10
11.027330
 20
9.473584
 30
0.000000
 11
11.015749
 21
9.346781
 31
0.000000
  0
LINE
  8
Layer 1
 62
     7
  6
CONTINUOUS
 10
11.015749
 20
9.346781
 30
0.000000
 11
10.976775
 21
9.174053
 31
0.000000
  0
LINE
  8
Layer 1
 62
     7
  6
CONTINUOUS
 10
10.976775
 20
9.174053
 30
0.000000
 11
10.884547
 21
8.706268
 31
0.000000
  0
LINE
  8
Layer 1
 62
     7
  6
CONTINUOUS
 10
10.884547
 20
8.706268
 30
0.000000
 11
10.813836
 21
8.361284
 31
0.000000
  0
LINE
  8
Layer 1
 62
     7
  6
CONTINUOUS
 10
10.813836
 20
8.361284
 30
0.000000
 11
10.736938
 21
8.114603
 31
0.000000
  0
LINE
  8
Layer 1
 62
     7
  6
CONTINUOUS
 10
10.736938
 20
8.114603
 30
0.000000
 11
10.692667
 21
8.019478
 31
0.000000
  0
LINE
  8
Layer 1
 62
     7
  6
CONTINUOUS
 10
10.692667
 20
8.019478
 30
0.000000
 11
10.642647
 21
7.938552
 31
0.000000
  0
LINE
  8
Layer 1
 62
     7
  6
CONTINUOUS
 10
10.642647
 20
7.938552
 30
0.000000
 11
10.585477
 21
7.868364
 31
0.000000
  0
LINE
  8
Layer 1
 62
     7
  6
CONTINUOUS
 10
10.585477
 20
7.868364
 30
0.000000
 11
10.519756
 21
7.805457
 31
0.000000
  0
LINE
  8
Layer 1
 62
     7
  6
CONTINUOUS
 10
10.519756
 20
7.805457
 30
0.000000
 11
10.412665
 21
7.721052
 31
0.000000
  0
LINE
  8
Layer 1
 62
     7
  6
CONTINUOUS
 10
10.412665
 20
7.721052
 30
0.000000
 11
10.350910
 21
7.685945
 31
0.000000
  0
LINE
  8
Layer 1
 62
     7
  6
CONTINUOUS
 10
10.350910
 20
7.685945
 30
0.000000
 11
10.339818
 21
7.704442
 31
0.000000
  0
LINE
  8
Layer 1
 62
     7
  6
CONTINUOUS
 10
10.339818
 20
7.704442
 30
0.000000
 11
10.334363
 21
7.757944
 31
0.000000
  0
LINE
  8
Layer 1
 62
     7
  6
CONTINUOUS
 10
10.334363
 20
7.757944
 30
0.000000
 11
10.340805
 21
7.958044
 31
0.000000
  0
LINE
  8
Layer 1
 62
     7
  6
CONTINUOUS
 10
6.670867
 20
7.842608
 30
0.000000
 11
6.649816
 21
7.930225
 31
0.000000
  0
LINE
  8
Layer 1
 62
     7
  6
CONTINUOUS
 10
6.649816
 20
7.930225
 30
0.000000
 11
6.645115
 21
8.024583
 31
0.000000
  0
LINE
  8
Layer 1
 62
     7
  6
CONTINUOUS
 10
6.645115
 20
8.024583
 30
0.000000
 11
6.655840
 21
8.124422
 31
0.000000
  0
LINE
  8
Layer 1
 62
     7
  6
CONTINUOUS
 10
6.655840
 20
8.124422
 30
0.000000
 11
6.681063
 21
8.228480
 31
0.000000
  0
LINE
  8
Layer 1
 62
     7
  6
CONTINUOUS
 10
6.681063
 20
8.228480
 30
0.000000
 11
6.719858
 21
8.335499
 31
0.000000
  0
LINE
  8
Layer 1
 62
     7
  6
CONTINUOUS
 10
6.719858
 20
8.335499
 30
0.000000
 11
6.771299
 21
8.444218
 31
0.000000
  0
LINE
  8
Layer 1
 62
     7
  6
CONTINUOUS
 10
6.771299
 20
8.444218
 30
0.000000
 11
6.834458
 21
8.553377
 31
0.000000
  0
LINE
  8
Layer 1
 62
     7
  6
CONTINUOUS
 10
6.834458
 20
8.553377
 30
0.000000
 11
6.908411
 21
8.661716
 31
0.000000
  0
LINE
  8
Layer 1
 62
     7
  6
CONTINUOUS
 10
6.908411
 20
8.661716
 30
0.000000
 11
7.084989
 21
8.870893
 31
0.000000
  0
LINE
  8
Layer 1
 62
     7
  6
CONTINUOUS
 10
7.084989
 20
8.870893
 30
0.000000
 11
7.293622
 21
9.061670
 31
0.000000
  0
LINE
  8
Layer 1
 62
     7
  6
CONTINUOUS
 10
7.293622
 20
9.061670
 30
0.000000
 11
7.407642
 21
9.147007
 31
0.000000
  0
LINE
  8
Layer 1
 62
     7
  6
CONTINUOUS
 10
7.407642
 20
9.147007
 30
0.000000
 11
7.526897
 21
9.223964
 31
0.000000
  0
LINE
  8
Layer 1
 62
     7
  6
CONTINUOUS
 10
7.526897
 20
9.223964
 30
0.000000
 11
7.650460
 21
9.291281
 31
0.000000
  0
LINE
  8
Layer 1
 62
     7
  6
CONTINUOUS
 10
7.650460
 20
9.291281
 30
0.000000
 11
7.777405
 21
9.347697
 31
0.000000
  0
LINE
  8
Layer 1
 62
     7
  6
CONTINUOUS
 10
7.777405
 20
9.347697
 30
0.000000
 11
8.006441
 21
9.433974
 31
0.000000
  0
LINE
  8
Layer 1
 62
     7
  6
CONTINUOUS
 10
8.006441
 20
9.433974
 30
0.000000
 11
7.928010
 21
9.183344
 31
0.000000
  0
LINE
  8
Layer 1
 62
     7
  6
CONTINUOUS
 10
7.928010
 20
9.183344
 30
0.000000
 11
7.865189
 21
8.969442
 31
0.000000
  0
LINE
  8
Layer 1
 62
     7
  6
CONTINUOUS
 10
7.865189
 20
8.969442
 30
0.000000
 11
7.855252
 21
8.894418
 31
0.000000
  0
LINE
  8
Layer 1
 62
     7
  6
CONTINUOUS
 10
7.855252
 20
8.894418
 30
0.000000
 11
7.858791
 21
8.836476
 31
0.000000
  0
LINE
  8
Layer 1
 62
     7
  6
CONTINUOUS
 10
7.858791
 20
8.836476
 30
0.000000
 11
7.893639
 21
8.750874
 31
0.000000
  0
LINE
  8
Layer 1
 62
     7
  6
CONTINUOUS
 10
7.893639
 20
8.750874
 30
0.000000
 11
7.959581
 21
8.652295
 31
0.000000
  0
LINE
  8
Layer 1
 62
     7
  6
CONTINUOUS
 10
7.959581
 20
8.652295
 30
0.000000
 11
8.042422
 21
8.559038
 31
0.000000
  0
LINE
  8
Layer 1
 62
     7
  6
CONTINUOUS
 10
8.042422
 20
8.559038
 30
0.000000
 11
8.127969
 21
8.489406
 31
0.000000
  0
LINE
  8
Layer 1
 62
     7
  6
CONTINUOUS
 10
8.127969
 20
8.489406
 30
0.000000
 11
8.159909
 21
8.466074
 31
0.000000
  0
LINE
  8
Layer 1
 62
     7
  6
CONTINUOUS
 10
8.159909
 20
8.466074
 30
0.000000
 11
8.167234
 21
8.442606
 31
0.000000
  0
LINE
  8
Layer 1
 62
     7
  6
CONTINUOUS
 10
8.167234
 20
8.442606
 30
0.000000
 11
8.147375
 21
8.406859
 31
0.000000
  0
LINE
  8
Layer 1
 62
     7
  6
CONTINUOUS
 10
8.147375
 20
8.406859
 30
0.000000
 11
8.097761
 21
8.346688
 31
0.000000
  0
LINE
  8
Layer 1
 62
     7
  6
CONTINUOUS
 10
8.097761
 20
8.346688
 30
0.000000
 11
7.964552
 21
8.216505
 31
0.000000
  0
LINE
  8
Layer 1
 62
     7
  6
CONTINUOUS
 10
7.964552
 20
8.216505
 30
0.000000
 11
7.803125
 21
8.096840
 31
0.000000
  0
LINE
  8
Layer 1
 62
     7
  6
CONTINUOUS
 10
7.803125
 20
8.096840
 30
0.000000
 11
7.635806
 21
8.002245
 31
0.000000
  0
LINE
  8
Layer 1
 62
     7
  6
CONTINUOUS
 10
7.635806
 20
8.002245
 30
0.000000
 11
7.484923
 21
7.947273
 31
0.000000
  0
LINE
  8
Layer 1
 62
     7
  6
CONTINUOUS
 10
7.484923
 20
7.947273
 30
0.000000
 11
7.317960
 21
7.897727
 31
0.000000
  0
LINE
  8
Layer 1
 62
     7
  6
CONTINUOUS
 10
7.317960
 20
7.897727
 30
0.000000
 11
7.150062
 21
7.830952
 31
0.000000
  0
LINE
  8
Layer 1
 62
     7
  6
CONTINUOUS
 10
7.150062
 20
7.830952
 30
0.000000
 11
6.989806
 21
7.774379
 31
0.000000
  0
LINE
  8
Layer 1
 62
     7
  6
CONTINUOUS
 10
6.989806
 20
7.774379
 30
0.000000
 11
6.842161
 21
7.751908
 31
0.000000
  0
LINE
  8
Layer 1
 62
     7
  6
CONTINUOUS
 10
6.842161
 20
7.751908
 30
0.000000
 11
6.766975
 21
7.754704
 31
0.000000
  0
LINE
  8
Layer 1
 62
     7
  6
CONTINUOUS
 10
6.766975
 20
7.754704
 30
0.000000
 11
6.720599
 21
7.766922
 31
0.000000
  0
LINE
  8
Layer 1
 62
     7
  6
CONTINUOUS
 10
6.720599
 20
7.766922
 30
0.000000
 11
6.692180
 21
7.794307
 31
0.000000
  0
LINE
  8
Layer 1
 62
     7
  6
CONTINUOUS
 10
6.692180
 20
7.794307
 30
0.000000
 11
6.670867
 21
7.842608
 31
0.000000
  0
LINE
  8
Layer 1
 62
     7
  6
CONTINUOUS
 10
9.238051
 20
7.815104
 30
0.000000
 11
9.235756
 21
7.863899
 31
0.000000
  0
LINE
  8
Layer 1
 62
     7
  6
CONTINUOUS
 10
9.235756
 20
7.863899
 30
0.000000
 11
9.254062
 21
7.938785
 31
0.000000
  0
LINE
  8
Layer 1
 62
     7
  6
CONTINUOUS
 10
9.254062
 20
7.938785
 30
0.000000
 11
9.345776
 21
8.276358
 31
0.000000
  0
LINE
  8
Layer 1
 62
     7
  6
CONTINUOUS
 10
9.345776
 20
8.276358
 30
0.000000
 11
9.416423
 21
8.536440
 31
0.000000
  0
LINE
  8
Layer 1
 62
     7
  6
CONTINUOUS
 10
9.416423
 20
8.536440
 30
0.000000
 11
9.493735
 21
8.750628
 31
0.000000
  0
LINE
  8
Layer 1
 62
     7
  6
CONTINUOUS
 10
9.493735
 20
8.750628
 30
0.000000
 11
9.583232
 21
8.932005
 31
0.000000
  0
LINE
  8
Layer 1
 62
     7
  6
CONTINUOUS
 10
9.583232
 20
8.932005
 30
0.000000
 11
9.690430
 21
9.093653
 31
0.000000
  0
LINE
  8
Layer 1
 62
     7
  6
CONTINUOUS
 10
9.690430
 20
9.093653
 30
0.000000
 11
9.822611
 21
9.280373
 31
0.000000
  0
LINE
  8
Layer 1
 62
     7
  6
CONTINUOUS
 10
9.822611
 20
9.280373
 30
0.000000
 11
9.936229
 21
9.458851
 31
0.000000
  0
LINE
  8
Layer 1
 62
     7
  6
CONTINUOUS
 10
9.936229
 20
9.458851
 30
0.000000
 11
10.000881
 21
9.561751
 31
0.000000
  0
LINE
  8
Layer 1
 62
     7
  6
CONTINUOUS
 10
10.000881
 20
9.561751
 30
0.000000
 11
10.027939
 21
9.591950
 31
0.000000
  0
LINE
  8
Layer 1
 62
     7
  6
CONTINUOUS
 10
10.027939
 20
9.591950
 30
0.000000
 11
10.055563
 21
9.609656
 31
0.000000
  0
LINE
  8
Layer 1
 62
     7
  6
CONTINUOUS
 10
10.055563
 20
9.609656
 30
0.000000
 11
10.086811
 21
9.616125
 31
0.000000
  0
LINE
  8
Layer 1
 62
     7
  6
CONTINUOUS
 10
10.086811
 20
9.616125
 30
0.000000
 11
10.124743
 21
9.612614
 31
0.000000
  0
LINE
  8
Layer 1
 62
     7
  6
CONTINUOUS
 10
10.124743
 20
9.612614
 30
0.000000
 11
10.232891
 21
9.580672
 31
0.000000
  0
LINE
  8
Layer 1
 62
     7
  6
CONTINUOUS
 10
10.232891
 20
9.580672
 30
0.000000
 11
10.255805
 21
9.564247
 31
0.000000
  0
LINE
  8
Layer 1
 62
     7
  6
CONTINUOUS
 10
10.255805
 20
9.564247
 30
0.000000
 11
10.267207
 21
9.533647
 31
0.000000
  0
LINE
  8
Layer 1
 62
     7
  6
CONTINUOUS
 10
10.267207
 20
9.533647
 30
0.000000
 11
10.266815
 21
9.487813
 31
0.000000
  0
LINE
  8
Layer 1
 62
     7
  6
CONTINUOUS
 10
10.266815
 20
9.487813
 30
0.000000
 11
10.254353
 21
9.425688
 31
0.000000
  0
LINE
  8
Layer 1
 62
     7
  6
CONTINUOUS
 10
10.254353
 20
9.425688
 30
0.000000
 11
10.192102
 21
9.248331
 31
0.000000
  0
LINE
  8
Layer 1
 62
     7
  6
CONTINUOUS
 10
10.192102
 20
9.248331
 30
0.000000
 11
10.078225
 21
8.993111
 31
0.000000
  0
LINE
  8
Layer 1
 62
     7
  6
CONTINUOUS
 10
10.078225
 20
8.993111
 30
0.000000
 11
9.923804
 21
8.639252
 31
0.000000
  0
LINE
  8
Layer 1
 62
     7
  6
CONTINUOUS
 10
9.923804
 20
8.639252
 30
0.000000
 11
9.822326
 21
8.359012
 31
0.000000
  0
LINE
  8
Layer 1
 62
     7
  6
CONTINUOUS
 10
9.822326
 20
8.359012
 30
0.000000
 11
9.753064
 21
8.148138
 31
0.000000
  0
LINE
  8
Layer 1
 62
     7
  6
CONTINUOUS
 10
9.753064
 20
8.148138
 30
0.000000
 11
9.677447
 21
7.999579
 31
0.000000
  0
LINE
  8
Layer 1
 62
     7
  6
CONTINUOUS
 10
9.677447
 20
7.999579
 30
0.000000
 11
9.634568
 21
7.944665
 31
0.000000
  0
LINE
  8
Layer 1
 62
     7
  6
CONTINUOUS
 10
9.634568
 20
7.944665
 30
0.000000
 11
9.586875
 21
7.900524
 31
0.000000
  0
LINE
  8
Layer 1
 62
     7
  6
CONTINUOUS
 10
9.586875
 20
7.900524
 30
0.000000
 11
9.533295
 21
7.865557
 31
0.000000
  0
LINE
  8
Layer 1
 62
     7
  6
CONTINUOUS
 10
9.533295
 20
7.865557
 30
0.000000
 11
9.472750
 21
7.838160
 31
0.000000
  0
LINE
  8
Layer 1
 62
     7
  6
CONTINUOUS
 10
9.472750
 20
7.838160
 30
0.000000
 11
9.370876
 21
7.802847
 31
0.000000
  0
LINE
  8
Layer 1
 62
     7
  6
CONTINUOUS
 10
9.370876
 20
7.802847
 30
0.000000
 11
9.303428
 21
7.787787
 31
0.000000
  0
LINE
  8
Layer 1
 62
     7
  6
CONTINUOUS
 10
9.303428
 20
7.787787
 30
0.000000
 11
9.261966
 21
7.792149
 31
0.000000
  0
LINE
  8
Layer 1
 62
     7
  6
CONTINUOUS
 10
9.261966
 20
7.792149
 30
0.000000
 11
9.238051
 21
7.815104
 31
0.000000
  0
LINE
  8
Layer 1
 62
     7
  6
CONTINUOUS
 10
1.563560
 20
8.006083
 30
0.000000
 11
1.375286
 21
8.084805
 31
0.000000
  0
LINE
  8
Layer 1
 62
     7
  6
CONTINUOUS
 10
1.375286
 20
8.084805
 30
0.000000
 11
1.248426
 21
8.153337
 31
0.000000
  0
LINE
  8
Layer 1
 62
     7
  6
CONTINUOUS
 10
1.248426
 20
8.153337
 30
0.000000
 11
1.184775
 21
8.210496
 31
0.000000
  0
LINE
  8
Layer 1
 62
     7
  6
CONTINUOUS
 10
1.184775
 20
8.210496
 30
0.000000
 11
1.177215
 21
8.234440
 31
0.000000
  0
LINE
  8
Layer 1
 62
     7
  6
CONTINUOUS
 10
1.177215
 20
8.234440
 30
0.000000
 11
1.186131
 21
8.255095
 31
0.000000
  0
LINE
  8
Layer 1
 62
     7
  6
CONTINUOUS
 10
1.186131
 20
8.255095
 30
0.000000
 11
1.215591
 21
8.267744
 31
0.000000
  0
LINE
  8
Layer 1
 62
     7
  6
CONTINUOUS
 10
1.215591
 20
8.267744
 30
0.000000
 11
1.272214
 21
8.267854
 31
0.000000
  0
LINE
  8
Layer 1
 62
     7
  6
CONTINUOUS
 10
1.272214
 20
8.267854
 30
0.000000
 11
1.481510
 21
8.229184
 31
0.000000
  0
LINE
  8
Layer 1
 62
     7
  6
CONTINUOUS
 10
1.481510
 20
8.229184
 30
0.000000
 11
1.674492
 21
8.189147
 31
0.000000
  0
LINE
  8
Layer 1
 62
     7
  6
CONTINUOUS
 10
1.674492
 20
8.189147
 30
0.000000
 11
1.850447
 21
8.164412
 31
0.000000
  0
LINE
  8
Layer 1
 62
     7
  6
CONTINUOUS
 10
1.850447
 20
8.164412
 30
0.000000
 11
2.016962
 21
8.155747
 31
0.000000
  0
LINE
  8
Layer 1
 62
     7
  6
CONTINUOUS
 10
2.016962
 20
8.155747
 30
0.000000
 11
2.181622
 21
8.163922
 31
0.000000
  0
LINE
  8
Layer 1
 62
     7
  6
CONTINUOUS
 10
2.181622
 20
8.163922
 30
0.000000
 11
2.352014
 21
8.189704
 31
0.000000
  0
LINE
  8
Layer 1
 62
     7
  6
CONTINUOUS
 10
2.352014
 20
8.189704
 30
0.000000
 11
2.535725
 21
8.233864
 31
0.000000
  0
LINE
  8
Layer 1
 62
     7
  6
CONTINUOUS
 10
2.535725
 20
8.233864
 30
0.000000
 11
2.740342
 21
8.297170
 31
0.000000
  0
LINE
  8
Layer 1
 62
     7
  6
CONTINUOUS
 10
2.740342
 20
8.297170
 30
0.000000
 11
2.973450
 21
8.380390
 31
0.000000
  0
LINE
  8
Layer 1
 62
     7
  6
CONTINUOUS
 10
2.973450
 20
8.380390
 30
0.000000
 11
3.439152
 21
8.547714
 31
0.000000
  0
LINE
  8
Layer 1
 62
     7
  6
CONTINUOUS
 10
3.439152
 20
8.547714
 30
0.000000
 11
3.860885
 21
8.686609
 31
0.000000
  0
LINE
  8
Layer 1
 62
     7
  6
CONTINUOUS
 10
3.860885
 20
8.686609
 30
0.000000
 11
4.199290
 21
8.784800
 31
0.000000
  0
LINE
  8
Layer 1
 62
     7
  6
CONTINUOUS
 10
4.199290
 20
8.784800
 30
0.000000
 11
4.415002
 21
8.830008
 31
0.000000
  0
LINE
  8
Layer 1
 62
     7
  6
CONTINUOUS
 10
4.415002
 20
8.830008
 30
0.000000
 11
4.613706
 21
8.836044
 31
0.000000
  0
LINE
  8
Layer 1
 62
     7
  6
CONTINUOUS
 10
4.613706
 20
8.836044
 30
0.000000
 11
4.834536
 21
8.823958
 31
0.000000
  0
LINE
  8
Layer 1
 62
     7
  6
CONTINUOUS
 10
4.834536
 20
8.823958
 30
0.000000
 11
5.071121
 21
8.798967
 31
0.000000
  0
LINE
  8
Layer 1
 62
     7
  6
CONTINUOUS
 10
5.071121
 20
8.798967
 30
0.000000
 11
4.561687
 21
8.610349
 31
0.000000
  0
LINE
  8
Layer 1
 62
     7
  6
CONTINUOUS
 10
4.561687
 20
8.610349
 30
0.000000
 11
4.096266
 21
8.431429
 31
0.000000
  0
LINE
  8
Layer 1
 62
     7
  6
CONTINUOUS
 10
4.096266
 20
8.431429
 30
0.000000
 11
3.692652
 21
8.266125
 31
0.000000
  0
LINE
  8
Layer 1
 62
     7
  6
CONTINUOUS
 10
3.692652
 20
8.266125
 30
0.000000
 11
3.295914
 21
8.105552
 31
0.000000
  0
LINE
  8
Layer 1
 62
     7
  6
CONTINUOUS
 10
3.295914
 20
8.105552
 30
0.000000
 11
3.127714
 21
8.048847
 31
0.000000
  0
LINE
  8
Layer 1
 62
     7
  6
CONTINUOUS
 10
3.127714
 20
8.048847
 30
0.000000
 11
2.969488
 21
8.005430
 31
0.000000
  0
LINE
  8
Layer 1
 62
     7
  6
CONTINUOUS
 10
2.969488
 20
8.005430
 30
0.000000
 11
2.813630
 21
7.973475
 31
0.000000
  0
LINE
  8
Layer 1
 62
     7
  6
CONTINUOUS
 10
2.813630
 20
7.973475
 30
0.000000
 11
2.652535
 21
7.951159
 31
0.000000
  0
LINE
  8
Layer 1
 62
     7
  6
CONTINUOUS
 10
2.652535
 20
7.951159
 30
0.000000
 11
2.284215
 21
7.928139
 31
0.000000
  0
LINE
  8
Layer 1
 62
     7
  6
CONTINUOUS
 10
2.284215
 20
7.928139
 30
0.000000
 11
2.008691
 21
7.921987
 31
0.000000
  0
LINE
  8
Layer 1
 62
     7
  6
CONTINUOUS
 10
2.008691
 20
7.921987
 30
0.000000
 11
1.837418
 21
7.928528
 31
0.000000
  0
LINE
  8
Layer 1
 62
     7
  6
CONTINUOUS
 10
1.837418
 20
7.928528
 30
0.000000
 11
1.709380
 21
7.954360
 31
0.000000
  0
LINE
  8
Layer 1
 62
     7
  6
CONTINUOUS
 10
1.709380
 20
7.954360
 30
0.000000
 11
1.563560
 21
8.006083
 31
0.000000
  0
LINE
  8
Layer 1
 62
     7
  6
CONTINUOUS
 10
5.128617
 20
8.004018
 30
0.000000
 11
5.080508
 21
8.134952
 31
0.000000
  0
LINE
  8
Layer 1
 62
     7
  6
CONTINUOUS
 10
5.080508
 20
8.134952
 30
0.000000
 11
5.068937
 21
8.172717
 31
0.000000
  0
LINE
  8
Layer 1
 62
     7
  6
CONTINUOUS
 10
5.068937
 20
8.172717
 30
0.000000
 11
5.067635
 21
8.211345
 31
0.000000
  0
LINE
  8
Layer 1
 62
     7
  6
CONTINUOUS
 10
5.067635
 20
8.211345
 30
0.000000
 11
5.097104
 21
8.304118
 31
0.000000
  0
LINE
  8
Layer 1
 62
     7
  6
CONTINUOUS
 10
5.097104
 20
8.304118
 30
0.000000
 11
5.182502
 21
8.441972
 31
0.000000
  0
LINE
  8
Layer 1
 62
     7
  6
CONTINUOUS
 10
5.182502
 20
8.441972
 30
0.000000
 11
5.311841
 21
8.603116
 31
0.000000
  0
LINE
  8
Layer 1
 62
     7
  6
CONTINUOUS
 10
5.311841
 20
8.603116
 30
0.000000
 11
5.458409
 21
8.757045
 31
0.000000
  0
LINE
  8
Layer 1
 62
     7
  6
CONTINUOUS
 10
5.458409
 20
8.757045
 30
0.000000
 11
5.595491
 21
8.873252
 31
0.000000
  0
LINE
  8
Layer 1
 62
     7
  6
CONTINUOUS
 10
5.595491
 20
8.873252
 30
0.000000
 11
5.744542
 21
8.978520
 31
0.000000
  0
LINE
  8
Layer 1
 62
     7
  6
CONTINUOUS
 10
5.744542
 20
8.978520
 30
0.000000
 11
5.893622
 21
8.858075
 31
0.000000
  0
LINE
  8
Layer 1
 62
     7
  6
CONTINUOUS
 10
5.893622
 20
8.858075
 30
0.000000
 11
6.030063
 21
8.767446
 31
0.000000
  0
LINE
  8
Layer 1
 62
     7
  6
CONTINUOUS
 10
6.030063
 20
8.767446
 30
0.000000
 11
6.095813
 21
8.735546
 31
0.000000
  0
LINE
  8
Layer 1
 62
     7
  6
CONTINUOUS
 10
6.095813
 20
8.735546
 30
0.000000
 11
6.148755
 21
8.718688
 31
0.000000
  0
LINE
  8
Layer 1
 62
     7
  6
CONTINUOUS
 10
6.148755
 20
8.718688
 30
0.000000
 11
6.223654
 21
8.692860
 31
0.000000
  0
LINE
  8
Layer 1
 62
     7
  6
CONTINUOUS
 10
6.223654
 20
8.692860
 30
0.000000
 11
6.246439
 21
8.675313
 31
0.000000
  0
LINE
  8
Layer 1
 62
     7
  6
CONTINUOUS
 10
6.246439
 20
8.675313
 30
0.000000
 11
6.254807
 21
8.657361
 31
0.000000
  0
LINE
  8
Layer 1
 62
     7
  6
CONTINUOUS
 10
6.254807
 20
8.657361
 30
0.000000
 11
6.238810
 21
8.619784
 31
0.000000
  0
LINE
  8
Layer 1
 62
     7
  6
CONTINUOUS
 10
6.238810
 20
8.619784
 30
0.000000
 11
6.193402
 21
8.567316
 31
0.000000
  0
LINE
  8
Layer 1
 62
     7
  6
CONTINUOUS
 10
6.193402
 20
8.567316
 30
0.000000
 11
6.029847
 21
8.429392
 31
0.000000
  0
LINE
  8
Layer 1
 62
     7
  6
CONTINUOUS
 10
6.029847
 20
8.429392
 30
0.000000
 11
5.795137
 21
8.266960
 31
0.000000
  0
LINE
  8
Layer 1
 62
     7
  6
CONTINUOUS
 10
5.795137
 20
8.266960
 30
0.000000
 11
5.520263
 21
8.103396
 31
0.000000
  0
LINE
  8
Layer 1
 62
     7
  6
CONTINUOUS
 10
5.520263
 20
8.103396
 30
0.000000
 11
5.342025
 21
8.010772
 31
0.000000
  0
LINE
  8
Layer 1
 62
     7
  6
CONTINUOUS
 10
5.342025
 20
8.010772
 30
0.000000
 11
5.226160
 21
7.965573
 31
0.000000
  0
LINE
  8
Layer 1
 62
     7
  6
CONTINUOUS
 10
5.226160
 20
7.965573
 30
0.000000
 11
5.187481
 21
7.959708
 31
0.000000
  0
LINE
  8
Layer 1
 62
     7
  6
CONTINUOUS
 10
5.187481
 20
7.959708
 30
0.000000
 11
5.159434
 21
7.964441
 31
0.000000
  0
LINE
  8
Layer 1
 62
     7
  6
CONTINUOUS
 10
5.159434
 20
7.964441
 30
0.000000
 11
5.140364
 21
7.979350
 31
0.000000
  0
LINE
  8
Layer 1
 62
     7
  6
CONTINUOUS
 10
5.140364
 20
7.979350
 30
0.000000
 11
5.128617
 21
8.004018
 31
0.000000
  0
LINE
  8
Layer 1
 62
     7
  6
CONTINUOUS
 10
9.920866
 20
8.162116
 30
0.000000
 11
9.969911
 21
8.342428
 31
0.000000
  0
LINE
  8
Layer 1
 62
     7
  6
CONTINUOUS
 10
9.969911
 20
8.342428
 30
0.000000
 11
10.054991
 21
8.577025
 31
0.000000
  0
LINE
  8
Layer 1
 62
     7
  6
CONTINUOUS
 10
10.054991
 20
8.577025
 30
0.000000
 11
10.213884
 21
8.954428
 31
0.000000
  0
LINE
  8
Layer 1
 62
     7
  6
CONTINUOUS
 10
10.213884
 20
8.954428
 30
0.000000
 11
10.396434
 21
9.336866
 31
0.000000
  0
LINE
  8
Layer 1
 62
     7
  6
CONTINUOUS
 10
10.396434
 20
9.336866
 30
0.000000
 11
10.461925
 21
9.444238
 31
0.000000
  0
LINE
  8
Layer 1
 62
     7
  6
CONTINUOUS
 10
10.461925
 20
9.444238
 30
0.000000
 11
10.514388
 21
9.503312
 31
0.000000
  0
LINE
  8
Layer 1
 62
     7
  6
CONTINUOUS
 10
10.514388
 20
9.503312
 30
0.000000
 11
10.580263
 21
9.549119
 31
0.000000
  0
LINE
  8
Layer 1
 62
     7
  6
CONTINUOUS
 10
10.580263
 20
9.549119
 30
0.000000
 11
10.613601
 21
9.561254
 31
0.000000
  0
LINE
  8
Layer 1
 62
     7
  6
CONTINUOUS
 10
10.613601
 20
9.561254
 30
0.000000
 11
10.604194
 21
9.480227
 31
0.000000
  0
LINE
  8
Layer 1
 62
     7
  6
CONTINUOUS
 10
10.604194
 20
9.480227
 30
0.000000
 11
10.567298
 21
9.302048
 31
0.000000
  0
LINE
  8
Layer 1
 62
     7
  6
CONTINUOUS
 10
10.567298
 20
9.302048
 30
0.000000
 11
10.486873
 21
9.032655
 31
0.000000
  0
LINE
  8
Layer 1
 62
     7
  6
CONTINUOUS
 10
10.486873
 20
9.032655
 30
0.000000
 11
10.370838
 21
8.747034
 31
0.000000
  0
LINE
  8
Layer 1
 62
     7
  6
CONTINUOUS
 10
10.370838
 20
8.747034
 30
0.000000
 11
10.237068
 21
8.484412
 31
0.000000
  0
LINE
  8
Layer 1
 62
     7
  6
CONTINUOUS
 10
10.237068
 20
8.484412
 30
0.000000
 11
10.169117
 21
8.373984
 31
0.000000
  0
LINE
  8
Layer 1
 62
     7
  6
CONTINUOUS
 10
10.169117
 20
8.373984
 30
0.000000
 11
10.103436
 21
8.284016
 31
0.000000
  0
LINE
  8
Layer 1
 62
     7
  6
CONTINUOUS
 10
10.103436
 20
8.284016
 30
0.000000
 11
10.013617
 21
8.182105
 31
0.000000
  0
LINE
  8
Layer 1
 62
     7
  6
CONTINUOUS
 10
10.013617
 20
8.182105
 30
0.000000
 11
9.949198
 21
8.125114
 31
0.000000
  0
LINE
  8
Layer 1
 62
     7
  6
CONTINUOUS
 10
9.949198
 20
8.125114
 30
0.000000
 11
9.928412
 21
8.114730
 31
0.000000
  0
LINE
  8
Layer 1
 62
     7
  6
CONTINUOUS
 10
9.928412
 20
8.114730
 30
0.000000
 11
9.916255
 21
8.117098
 31
0.000000
  0
LINE
  8
Layer 1
 62
     7
  6
CONTINUOUS
 10
9.916255
 20
8.117098
 30
0.000000
 11
9.920866
 21
8.162116
 31
0.000000
  0
LINE
  8
Layer 1
 62
     7
  6
CONTINUOUS
 10
1.699864
 20
8.367186
 30
0.000000
 11
1.519759
 21
8.405504
 31
0.000000
  0
LINE
  8
Layer 1
 62
     7
  6
CONTINUOUS
 10
1.519759
 20
8.405504
 30
0.000000
 11
1.360266
 21
8.427905
 31
0.000000
  0
LINE
  8
Layer 1
 62
     7
  6
CONTINUOUS
 10
1.360266
 20
8.427905
 30
0.000000
 11
1.253801
 21
8.440333
 31
0.000000
  0
LINE
  8
Layer 1
 62
     7
  6
CONTINUOUS
 10
1.253801
 20
8.440333
 30
0.000000
 11
1.201186
 21
8.454674
 31
0.000000
  0
LINE
  8
Layer 1
 62
     7
  6
CONTINUOUS
 10
1.201186
 20
8.454674
 30
0.000000
 11
1.196022
 21
8.474757
 31
0.000000
  0
LINE
  8
Layer 1
 62
     7
  6
CONTINUOUS
 10
1.196022
 20
8.474757
 30
0.000000
 11
1.201952
 21
8.507927
 31
0.000000
  0
LINE
  8
Layer 1
 62
     7
  6
CONTINUOUS
 10
1.201952
 20
8.507927
 30
0.000000
 11
1.240211
 21
8.600056
 31
0.000000
  0
LINE
  8
Layer 1
 62
     7
  6
CONTINUOUS
 10
1.240211
 20
8.600056
 30
0.000000
 11
1.302197
 21
8.704123
 31
0.000000
  0
LINE
  8
Layer 1
 62
     7
  6
CONTINUOUS
 10
1.302197
 20
8.704123
 30
0.000000
 11
1.374149
 21
8.793191
 31
0.000000
  0
LINE
  8
Layer 1
 62
     7
  6
CONTINUOUS
 10
1.374149
 20
8.793191
 30
0.000000
 11
1.436871
 21
8.845143
 31
0.000000
  0
LINE
  8
Layer 1
 62
     7
  6
CONTINUOUS
 10
1.436871
 20
8.845143
 30
0.000000
 11
1.518869
 21
8.891845
 31
0.000000
  0
LINE
  8
Layer 1
 62
     7
  6
CONTINUOUS
 10
1.518869
 20
8.891845
 30
0.000000
 11
1.627676
 21
8.936923
 31
0.000000
  0
LINE
  8
Layer 1
 62
     7
  6
CONTINUOUS
 10
1.627676
 20
8.936923
 30
0.000000
 11
1.770829
 21
8.984001
 31
0.000000
  0
LINE
  8
Layer 1
 62
     7
  6
CONTINUOUS
 10
1.770829
 20
8.984001
 30
0.000000
 11
2.010382
 21
9.051605
 31
0.000000
  0
LINE
  8
Layer 1
 62
     7
  6
CONTINUOUS
 10
2.010382
 20
9.051605
 30
0.000000
 11
2.185386
 21
9.090152
 31
0.000000
  0
LINE
  8
Layer 1
 62
     7
  6
CONTINUOUS
 10
2.185386
 20
9.090152
 30
0.000000
 11
2.292696
 21
9.099111
 31
0.000000
  0
LINE
  8
Layer 1
 62
     7
  6
CONTINUOUS
 10
2.292696
 20
9.099111
 30
0.000000
 11
2.319983
 21
9.092329
 31
0.000000
  0
LINE
  8
Layer 1
 62
     7
  6
CONTINUOUS
 10
2.319983
 20
9.092329
 30
0.000000
 11
2.329165
 21
9.077953
 31
0.000000
  0
LINE
  8
Layer 1
 62
     7
  6
CONTINUOUS
 10
2.329165
 20
9.077953
 30
0.000000
 11
2.309359
 21
9.050017
 31
0.000000
  0
LINE
  8
Layer 1
 62
     7
  6
CONTINUOUS
 10
2.309359
 20
9.050017
 30
0.000000
 11
2.261740
 21
9.032243
 31
0.000000
  0
LINE
  8
Layer 1
 62
     7
  6
CONTINUOUS
 10
2.261740
 20
9.032243
 30
0.000000
 11
2.229135
 21
9.022613
 31
0.000000
  0
LINE
  8
Layer 1
 62
     7
  6
CONTINUOUS
 10
2.229135
 20
9.022613
 30
0.000000
 11
2.208410
 21
9.003806
 31
0.000000
  0
LINE
  8
Layer 1
 62
     7
  6
CONTINUOUS
 10
2.208410
 20
9.003806
 30
0.000000
 11
2.197494
 21
8.972543
 31
0.000000
  0
LINE
  8
Layer 1
 62
     7
  6
CONTINUOUS
 10
2.197494
 20
8.972543
 30
0.000000
 11
2.194315
 21
8.925547
 31
0.000000
  0
LINE
  8
Layer 1
 62
     7
  6
CONTINUOUS
 10
2.194315
 20
8.925547
 30
0.000000
 11
2.200233
 21
8.872824
 31
0.000000
  0
LINE
  8
Layer 1
 62
     7
  6
CONTINUOUS
 10
2.200233
 20
8.872824
 30
0.000000
 11
2.222581
 21
8.828339
 31
0.000000
  0
LINE
  8
Layer 1
 62
     7
  6
CONTINUOUS
 10
2.222581
 20
8.828339
 30
0.000000
 11
2.268255
 21
8.782985
 31
0.000000
  0
LINE
  8
Layer 1
 62
     7
  6
CONTINUOUS
 10
2.268255
 20
8.782985
 30
0.000000
 11
2.344149
 21
8.727657
 31
0.000000
  0
LINE
  8
Layer 1
 62
     7
  6
CONTINUOUS
 10
2.344149
 20
8.727657
 30
0.000000
 11
2.433503
 21
8.671688
 31
0.000000
  0
LINE
  8
Layer 1
 62
     7
  6
CONTINUOUS
 10
2.433503
 20
8.671688
 30
0.000000
 11
2.512798
 21
8.641523
 31
0.000000
  0
LINE
  8
Layer 1
 62
     7
  6
CONTINUOUS
 10
2.512798
 20
8.641523
 30
0.000000
 11
2.614201
 21
8.629687
 31
0.000000
  0
LINE
  8
Layer 1
 62
     7
  6
CONTINUOUS
 10
2.614201
 20
8.629687
 30
0.000000
 11
2.769874
 21
8.628703
 31
0.000000
  0
LINE
  8
Layer 1
 62
     7
  6
CONTINUOUS
 10
2.769874
 20
8.628703
 30
0.000000
 11
2.960614
 21
8.623349
 31
0.000000
  0
LINE
  8
Layer 1
 62
     7
  6
CONTINUOUS
 10
2.960614
 20
8.623349
 30
0.000000
 11
3.015440
 21
8.616026
 31
0.000000
  0
LINE
  8
Layer 1
 62
     7
  6
CONTINUOUS
 10
3.015440
 20
8.616026
 30
0.000000
 11
3.031779
 21
8.606574
 31
0.000000
  0
LINE
  8
Layer 1
 62
     7
  6
CONTINUOUS
 10
3.031779
 20
8.606574
 30
0.000000
 11
2.999447
 21
8.583387
 31
0.000000
  0
LINE
  8
Layer 1
 62
     7
  6
CONTINUOUS
 10
2.999447
 20
8.583387
 30
0.000000
 11
2.929106
 21
8.551344
 31
0.000000
  0
LINE
  8
Layer 1
 62
     7
  6
CONTINUOUS
 10
2.929106
 20
8.551344
 30
0.000000
 11
2.715494
 21
8.474153
 31
0.000000
  0
LINE
  8
Layer 1
 62
     7
  6
CONTINUOUS
 10
2.715494
 20
8.474153
 30
0.000000
 11
2.473134
 21
8.401934
 31
0.000000
  0
LINE
  8
Layer 1
 62
     7
  6
CONTINUOUS
 10
2.473134
 20
8.401934
 30
0.000000
 11
2.284215
 21
8.361618
 31
0.000000
  0
LINE
  8
Layer 1
 62
     7
  6
CONTINUOUS
 10
2.284215
 20
8.361618
 30
0.000000
 11
1.999531
 21
8.329314
 31
0.000000
  0
LINE
  8
Layer 1
 62
     7
  6
CONTINUOUS
 10
1.999531
 20
8.329314
 30
0.000000
 11
1.868240
 21
8.335579
 31
0.000000
  0
LINE
  8
Layer 1
 62
     7
  6
CONTINUOUS
 10
1.868240
 20
8.335579
 30
0.000000
 11
1.699864
 21
8.367186
 31
0.000000
  0
LINE
  8
Layer 1
 62
     7
  6
CONTINUOUS
 10
6.467546
 20
8.386806
 30
0.000000
 11
6.452355
 21
8.448904
 31
0.000000
  0
LINE
  8
Layer 1
 62
     7
  6
CONTINUOUS
 10
6.452355
 20
8.448904
 30
0.000000
 11
6.451026
 21
8.493996
 31
0.000000
  0
LINE
  8
Layer 1
 62
     7
  6
CONTINUOUS
 10
6.451026
 20
8.493996
 30
0.000000
 11
6.477027
 21
8.615050
 31
0.000000
  0
LINE
  8
Layer 1
 62
     7
  6
CONTINUOUS
 10
6.477027
 20
8.615050
 30
0.000000
 11
6.490032
 21
8.657329
 31
0.000000
  0
LINE
  8
Layer 1
 62
     7
  6
CONTINUOUS
 10
6.490032
 20
8.657329
 30
0.000000
 11
6.511201
 21
8.688377
 31
0.000000
  0
LINE
  8
Layer 1
 62
     7
  6
CONTINUOUS
 10
6.511201
 20
8.688377
 30
0.000000
 11
6.542664
 21
8.710345
 31
0.000000
  0
LINE
  8
Layer 1
 62
     7
  6
CONTINUOUS
 10
6.542664
 20
8.710345
 30
0.000000
 11
6.586556
 21
8.725379
 31
0.000000
  0
LINE
  8
Layer 1
 62
     7
  6
CONTINUOUS
 10
6.586556
 20
8.725379
 30
0.000000
 11
6.655335
 21
8.736967
 31
0.000000
  0
LINE
  8
Layer 1
 62
     7
  6
CONTINUOUS
 10
6.655335
 20
8.736967
 30
0.000000
 11
6.691406
 21
8.733571
 31
0.000000
  0
LINE
  8
Layer 1
 62
     7
  6
CONTINUOUS
 10
6.691406
 20
8.733571
 30
0.000000
 11
6.676966
 21
8.658481
 31
0.000000
  0
LINE
  8
Layer 1
 62
     7
  6
CONTINUOUS
 10
6.676966
 20
8.658481
 30
0.000000
 11
6.623461
 21
8.514806
 31
0.000000
  0
LINE
  8
Layer 1
 62
     7
  6
CONTINUOUS
 10
6.623461
 20
8.514806
 30
0.000000
 11
6.560735
 21
8.375270
 31
0.000000
  0
LINE
  8
Layer 1
 62
     7
  6
CONTINUOUS
 10
6.560735
 20
8.375270
 30
0.000000
 11
6.518636
 21
8.312597
 31
0.000000
  0
LINE
  8
Layer 1
 62
     7
  6
CONTINUOUS
 10
6.518636
 20
8.312597
 30
0.000000
 11
6.492892
 21
8.334396
 31
0.000000
  0
LINE
  8
Layer 1
 62
     7
  6
CONTINUOUS
 10
6.492892
 20
8.334396
 30
0.000000
 11
6.467546
 21
8.386806
 31
0.000000
  0
LINE
  8
Layer 1
 62
     7
  6
CONTINUOUS
 10
8.382445
 20
8.578472
 30
0.000000
 11
8.413794
 21
8.702257
 31
0.000000
  0
LINE
  8
Layer 1
 62
     7
  6
CONTINUOUS
 10
8.413794
 20
8.702257
 30
0.000000
 11
8.487396
 21
8.901203
 31
0.000000
  0
LINE
  8
Layer 1
 62
     7
  6
CONTINUOUS
 10
8.487396
 20
8.901203
 30
0.000000
 11
8.572584
 21
9.098739
 31
0.000000
  0
LINE
  8
Layer 1
 62
     7
  6
CONTINUOUS
 10
8.572584
 20
9.098739
 30
0.000000
 11
8.638691
 21
9.218292
 31
0.000000
  0
LINE
  8
Layer 1
 62
     7
  6
CONTINUOUS
 10
8.638691
 20
9.218292
 30
0.000000
 11
8.677957
 21
9.254202
 31
0.000000
  0
LINE
  8
Layer 1
 62
     7
  6
CONTINUOUS
 10
8.677957
 20
9.254202
 30
0.000000
 11
8.730179
 21
9.280560
 31
0.000000
  0
LINE
  8
Layer 1
 62
     7
  6
CONTINUOUS
 10
8.730179
 20
9.280560
 30
0.000000
 11
8.801751
 21
9.299717
 31
0.000000
  0
LINE
  8
Layer 1
 62
     7
  6
CONTINUOUS
 10
8.801751
 20
9.299717
 30
0.000000
 11
8.899068
 21
9.314024
 31
0.000000
  0
LINE
  8
Layer 1
 62
     7
  6
CONTINUOUS
 10
8.899068
 20
9.314024
 30
0.000000
 11
9.075703
 21
9.343959
 31
0.000000
  0
LINE
  8
Layer 1
 62
     7
  6
CONTINUOUS
 10
9.075703
 20
9.343959
 30
0.000000
 11
9.221454
 21
9.384479
 31
0.000000
  0
LINE
  8
Layer 1
 62
     7
  6
CONTINUOUS
 10
9.221454
 20
9.384479
 30
0.000000
 11
9.344908
 21
9.445194
 31
0.000000
  0
LINE
  8
Layer 1
 62
     7
  6
CONTINUOUS
 10
9.344908
 20
9.445194
 30
0.000000
 11
9.503764
 21
9.538943
 31
0.000000
  0
LINE
  8
Layer 1
 62
     7
  6
CONTINUOUS
 10
9.503764
 20
9.538943
 30
0.000000
 11
9.658249
 21
9.640887
 31
0.000000
  0
LINE
  8
Layer 1
 62
     7
  6
CONTINUOUS
 10
9.658249
 20
9.640887
 30
0.000000
 11
9.768590
 21
9.726186
 31
0.000000
  0
LINE
  8
Layer 1
 62
     7
  6
CONTINUOUS
 10
9.768590
 20
9.726186
 30
0.000000
 11
9.819890
 21
9.760755
 31
0.000000
  0
LINE
  8
Layer 1
 62
     7
  6
CONTINUOUS
 10
9.819890
 20
9.760755
 30
0.000000
 11
9.833140
 21
9.758376
 31
0.000000
  0
LINE
  8
Layer 1
 62
     7
  6
CONTINUOUS
 10
9.833140
 20
9.758376
 30
0.000000
 11
9.838092
 21
9.743749
 31
0.000000
  0
LINE
  8
Layer 1
 62
     7
  6
CONTINUOUS
 10
9.838092
 20
9.743749
 30
0.000000
 11
9.822997
 21
9.680324
 31
0.000000
  0
LINE
  8
Layer 1
 62
     7
  6
CONTINUOUS
 10
9.822997
 20
9.680324
 30
0.000000
 11
9.774407
 21
9.575636
 31
0.000000
  0
LINE
  8
Layer 1
 62
     7
  6
CONTINUOUS
 10
9.774407
 20
9.575636
 30
0.000000
 11
9.707787
 21
9.468954
 31
0.000000
  0
LINE
  8
Layer 1
 62
     7
  6
CONTINUOUS
 10
9.707787
 20
9.468954
 30
0.000000
 11
9.612754
 21
9.342429
 31
0.000000
  0
LINE
  8
Layer 1
 62
     7
  6
CONTINUOUS
 10
9.612754
 20
9.342429
 30
0.000000
 11
9.370559
 21
9.064965
 31
0.000000
  0
LINE
  8
Layer 1
 62
     7
  6
CONTINUOUS
 10
9.370559
 20
9.064965
 30
0.000000
 11
9.114038
 21
8.813476
 31
0.000000
  0
LINE
  8
Layer 1
 62
     7
  6
CONTINUOUS
 10
9.114038
 20
8.813476
 30
0.000000
 11
9.001097
 21
8.719419
 31
0.000000
  0
LINE
  8
Layer 1
 62
     7
  6
CONTINUOUS
 10
9.001097
 20
8.719419
 30
0.000000
 11
8.909407
 21
8.658192
 31
0.000000
  0
LINE
  8
Layer 1
 62
     7
  6
CONTINUOUS
 10
8.909407
 20
8.658192
 30
0.000000
 11
8.743193
 21
8.590148
 31
0.000000
  0
LINE
  8
Layer 1
 62
     7
  6
CONTINUOUS
 10
8.743193
 20
8.590148
 30
0.000000
 11
8.571370
 21
8.549854
 31
0.000000
  0
LINE
  8
Layer 1
 62
     7
  6
CONTINUOUS
 10
8.571370
 20
8.549854
 30
0.000000
 11
8.436824
 21
8.543799
 31
0.000000
  0
LINE
  8
Layer 1
 62
     7
  6
CONTINUOUS
 10
8.436824
 20
8.543799
 30
0.000000
 11
8.396933
 21
8.555639
 31
0.000000
  0
LINE
  8
Layer 1
 62
     7
  6
CONTINUOUS
 10
8.396933
 20
8.555639
 30
0.000000
 11
8.382445
 21
8.578472
 31
0.000000
  0
LINE
  8
Layer 1
 62
     7
  6
CONTINUOUS
 10
8.101644
 20
8.709313
 30
0.000000
 11
8.057667
 21
8.780597
 31
0.000000
  0
LINE
  8
Layer 1
 62
     7
  6
CONTINUOUS
 10
8.057667
 20
8.780597
 30
0.000000
 11
8.033034
 21
8.855502
 31
0.000000
  0
LINE
  8
Layer 1
 62
     7
  6
CONTINUOUS
 10
8.033034
 20
8.855502
 30
0.000000
 11
8.028180
 21
8.935563
 31
0.000000
  0
LINE
  8
Layer 1
 62
     7
  6
CONTINUOUS
 10
8.028180
 20
8.935563
 30
0.000000
 11
8.043539
 21
9.022316
 31
0.000000
  0
LINE
  8
Layer 1
 62
     7
  6
CONTINUOUS
 10
8.043539
 20
9.022316
 30
0.000000
 11
8.079545
 21
9.117297
 31
0.000000
  0
LINE
  8
Layer 1
 62
     7
  6
CONTINUOUS
 10
8.079545
 20
9.117297
 30
0.000000
 11
8.136632
 21
9.222040
 31
0.000000
  0
LINE
  8
Layer 1
 62
     7
  6
CONTINUOUS
 10
8.136632
 20
9.222040
 30
0.000000
 11
8.215233
 21
9.338081
 31
0.000000
  0
LINE
  8
Layer 1
 62
     7
  6
CONTINUOUS
 10
8.215233
 20
9.338081
 30
0.000000
 11
8.315783
 21
9.466956
 31
0.000000
  0
LINE
  8
Layer 1
 62
     7
  6
CONTINUOUS
 10
8.315783
 20
9.466956
 30
0.000000
 11
8.385930
 21
9.549920
 31
0.000000
  0
LINE
  8
Layer 1
 62
     7
  6
CONTINUOUS
 10
8.385930
 20
9.549920
 30
0.000000
 11
8.427639
 21
9.586553
 31
0.000000
  0
LINE
  8
Layer 1
 62
     7
  6
CONTINUOUS
 10
8.427639
 20
9.586553
 30
0.000000
 11
8.455499
 21
9.584001
 31
0.000000
  0
LINE
  8
Layer 1
 62
     7
  6
CONTINUOUS
 10
8.455499
 20
9.584001
 30
0.000000
 11
8.484099
 21
9.549410
 31
0.000000
  0
LINE
  8
Layer 1
 62
     7
  6
CONTINUOUS
 10
8.484099
 20
9.549410
 30
0.000000
 11
8.516697
 21
9.483447
 31
0.000000
  0
LINE
  8
Layer 1
 62
     7
  6
CONTINUOUS
 10
8.516697
 20
9.483447
 30
0.000000
 11
8.530090
 21
9.417484
 31
0.000000
  0
LINE
  8
Layer 1
 62
     7
  6
CONTINUOUS
 10
8.530090
 20
9.417484
 30
0.000000
 11
8.518768
 21
9.350583
 31
0.000000
  0
LINE
  8
Layer 1
 62
     7
  6
CONTINUOUS
 10
8.518768
 20
9.350583
 30
0.000000
 11
8.488824
 21
9.245398
 31
0.000000
  0
LINE
  8
Layer 1
 62
     7
  6
CONTINUOUS
 10
8.488824
 20
9.245398
 30
0.000000
 11
8.394986
 21
8.977729
 31
0.000000
  0
LINE
  8
Layer 1
 62
     7
  6
CONTINUOUS
 10
8.394986
 20
8.977729
 30
0.000000
 11
8.292408
 21
8.729587
 31
0.000000
  0
LINE
  8
Layer 1
 62
     7
  6
CONTINUOUS
 10
8.292408
 20
8.729587
 30
0.000000
 11
8.251540
 21
8.648811
 31
0.000000
  0
LINE
  8
Layer 1
 62
     7
  6
CONTINUOUS
 10
8.251540
 20
8.648811
 30
0.000000
 11
8.224924
 21
8.616082
 31
0.000000
  0
LINE
  8
Layer 1
 62
     7
  6
CONTINUOUS
 10
8.224924
 20
8.616082
 30
0.000000
 11
8.201436
 21
8.620394
 31
0.000000
  0
LINE
  8
Layer 1
 62
     7
  6
CONTINUOUS
 10
8.201436
 20
8.620394
 30
0.000000
 11
8.170363
 21
8.639410
 31
0.000000
  0
LINE
  8
Layer 1
 62
     7
  6
CONTINUOUS
 10
8.170363
 20
8.639410
 30
0.000000
 11
8.101644
 21
8.709313
 31
0.000000
  0
LINE
  8
Layer 1
 62
     7
  6
CONTINUOUS
 10
2.530956
 20
8.819494
 30
0.000000
 11
2.434045
 21
8.851823
 31
0.000000
  0
LINE
  8
Layer 1
 62
     7
  6
CONTINUOUS
 10
2.434045
 20
8.851823
 30
0.000000
 11
2.380734
 21
8.878223
 31
0.000000
  0
LINE
  8
Layer 1
 62
     7
  6
CONTINUOUS
 10
2.380734
 20
8.878223
 30
0.000000
 11
2.363016
 21
8.904648
 31
0.000000
  0
LINE
  8
Layer 1
 62
     7
  6
CONTINUOUS
 10
2.363016
 20
8.904648
 30
0.000000
 11
2.372883
 21
8.937055
 31
0.000000
  0
LINE
  8
Layer 1
 62
     7
  6
CONTINUOUS
 10
2.372883
 20
8.937055
 30
0.000000
 11
2.404860
 21
8.951649
 31
0.000000
  0
LINE
  8
Layer 1
 62
     7
  6
CONTINUOUS
 10
2.404860
 20
8.951649
 30
0.000000
 11
2.479012
 21
8.962730
 31
0.000000
  0
LINE
  8
Layer 1
 62
     7
  6
CONTINUOUS
 10
2.479012
 20
8.962730
 30
0.000000
 11
2.732175
 21
8.972231
 31
0.000000
  0
LINE
  8
Layer 1
 62
     7
  6
CONTINUOUS
 10
2.732175
 20
8.972231
 30
0.000000
 11
3.001198
 21
8.983182
 31
0.000000
  0
LINE
  8
Layer 1
 62
     7
  6
CONTINUOUS
 10
3.001198
 20
8.983182
 30
0.000000
 11
3.265400
 21
9.015383
 31
0.000000
  0
LINE
  8
Layer 1
 62
     7
  6
CONTINUOUS
 10
3.265400
 20
9.015383
 30
0.000000
 11
3.518812
 21
9.067859
 31
0.000000
  0
LINE
  8
Layer 1
 62
     7
  6
CONTINUOUS
 10
3.518812
 20
9.067859
 30
0.000000
 11
3.755465
 21
9.139632
 31
0.000000
  0
LINE
  8
Layer 1
 62
     7
  6
CONTINUOUS
 10
3.755465
 20
9.139632
 30
0.000000
 11
3.938146
 21
9.205103
 31
0.000000
  0
LINE
  8
Layer 1
 62
     7
  6
CONTINUOUS
 10
3.938146
 20
9.205103
 30
0.000000
 11
4.125382
 21
9.107645
 31
0.000000
  0
LINE
  8
Layer 1
 62
     7
  6
CONTINUOUS
 10
4.125382
 20
9.107645
 30
0.000000
 11
4.312619
 21
9.010187
 31
0.000000
  0
LINE
  8
Layer 1
 62
     7
  6
CONTINUOUS
 10
4.312619
 20
9.010187
 30
0.000000
 11
4.167452
 21
8.989414
 31
0.000000
  0
LINE
  8
Layer 1
 62
     7
  6
CONTINUOUS
 10
4.167452
 20
8.989414
 30
0.000000
 11
3.812519
 21
8.923293
 31
0.000000
  0
LINE
  8
Layer 1
 62
     7
  6
CONTINUOUS
 10
3.812519
 20
8.923293
 30
0.000000
 11
3.406898
 21
8.848556
 31
0.000000
  0
LINE
  8
Layer 1
 62
     7
  6
CONTINUOUS
 10
3.406898
 20
8.848556
 30
0.000000
 11
3.037142
 21
8.804647
 31
0.000000
  0
LINE
  8
Layer 1
 62
     7
  6
CONTINUOUS
 10
3.037142
 20
8.804647
 30
0.000000
 11
2.734683
 21
8.794111
 31
0.000000
  0
LINE
  8
Layer 1
 62
     7
  6
CONTINUOUS
 10
2.734683
 20
8.794111
 30
0.000000
 11
2.618514
 21
8.802153
 31
0.000000
  0
LINE
  8
Layer 1
 62
     7
  6
CONTINUOUS
 10
2.618514
 20
8.802153
 30
0.000000
 11
2.530956
 21
8.819494
 31
0.000000
  0
LINE
  8
Layer 1
 62
     7
  6
CONTINUOUS
 10
6.134940
 20
8.949356
 30
0.000000
 11
6.085200
 21
8.972123
 31
0.000000
  0
LINE
  8
Layer 1
 62
     7
  6
CONTINUOUS
 10
6.085200
 20
8.972123
 30
0.000000
 11
6.051494
 21
8.998233
 31
0.000000
  0
LINE
  8
Layer 1
 62
     7
  6
CONTINUOUS
 10
6.051494
 20
8.998233
 30
0.000000
 11
6.031350
 21
9.030359
 31
0.000000
  0
LINE
  8
Layer 1
 62
     7
  6
CONTINUOUS
 10
6.031350
 20
9.030359
 30
0.000000
 11
6.022294
 21
9.071176
 31
0.000000
  0
LINE
  8
Layer 1
 62
     7
  6
CONTINUOUS
 10
6.022294
 20
9.071176
 30
0.000000
 11
6.023233
 21
9.161552
 31
0.000000
  0
LINE
  8
Layer 1
 62
     7
  6
CONTINUOUS
 10
6.023233
 20
9.161552
 30
0.000000
 11
6.037110
 21
9.188770
 31
0.000000
  0
LINE
  8
Layer 1
 62
     7
  6
CONTINUOUS
 10
6.037110
 20
9.188770
 30
0.000000
 11
6.063914
 21
9.205360
 31
0.000000
  0
LINE
  8
Layer 1
 62
     7
  6
CONTINUOUS
 10
6.063914
 20
9.205360
 30
0.000000
 11
6.106636
 21
9.212337
 31
0.000000
  0
LINE
  8
Layer 1
 62
     7
  6
CONTINUOUS
 10
6.106636
 20
9.212337
 30
0.000000
 11
6.168269
 21
9.210713
 31
0.000000
  0
LINE
  8
Layer 1
 62
     7
  6
CONTINUOUS
 10
6.168269
 20
9.210713
 30
0.000000
 11
6.360227
 21
9.185720
 31
0.000000
  0
LINE
  8
Layer 1
 62
     7
  6
CONTINUOUS
 10
6.360227
 20
9.185720
 30
0.000000
 11
6.625973
 21
9.140571
 31
0.000000
  0
LINE
  8
Layer 1
 62
     7
  6
CONTINUOUS
 10
6.625973
 20
9.140571
 30
0.000000
 11
6.807511
 21
9.099728
 31
0.000000
  0
LINE
  8
Layer 1
 62
     7
  6
CONTINUOUS
 10
6.807511
 20
9.099728
 30
0.000000
 11
6.905145
 21
9.063106
 31
0.000000
  0
LINE
  8
Layer 1
 62
     7
  6
CONTINUOUS
 10
6.905145
 20
9.063106
 30
0.000000
 11
6.922594
 21
9.046352
 31
0.000000
  0
LINE
  8
Layer 1
 62
     7
  6
CONTINUOUS
 10
6.922594
 20
9.046352
 30
0.000000
 11
6.919181
 21
9.030621
 31
0.000000
  0
LINE
  8
Layer 1
 62
     7
  6
CONTINUOUS
 10
6.919181
 20
9.030621
 30
0.000000
 11
6.840548
 21
8.990042
 31
0.000000
  0
LINE
  8
Layer 1
 62
     7
  6
CONTINUOUS
 10
6.840548
 20
8.990042
 30
0.000000
 11
6.699787
 21
8.950129
 31
0.000000
  0
LINE
  8
Layer 1
 62
     7
  6
CONTINUOUS
 10
6.699787
 20
8.950129
 30
0.000000
 11
6.536341
 21
8.919967
 31
0.000000
  0
LINE
  8
Layer 1
 62
     7
  6
CONTINUOUS
 10
6.536341
 20
8.919967
 30
0.000000
 11
6.389657
 21
8.908644
 31
0.000000
  0
LINE
  8
Layer 1
 62
     7
  6
CONTINUOUS
 10
6.389657
 20
8.908644
 30
0.000000
 11
6.253028
 21
8.921159
 31
0.000000
  0
LINE
  8
Layer 1
 62
     7
  6
CONTINUOUS
 10
6.253028
 20
8.921159
 30
0.000000
 11
6.134940
 21
8.949356
 31
0.000000
  0
LINE
  8
Layer 1
 62
     7
  6
CONTINUOUS
 10
4.903887
 20
9.041788
 30
0.000000
 11
4.731118
 21
9.064631
 31
0.000000
  0
LINE
  8
Layer 1
 62
     7
  6
CONTINUOUS
 10
4.731118
 20
9.064631
 30
0.000000
 11
4.588868
 21
9.097031
 31
0.000000
  0
LINE
  8
Layer 1
 62
     7
  6
CONTINUOUS
 10
4.588868
 20
9.097031
 30
0.000000
 11
4.492356
 21
9.134532
 31
0.000000
  0
LINE
  8
Layer 1
 62
     7
  6
CONTINUOUS
 10
4.492356
 20
9.134532
 30
0.000000
 11
4.466009
 21
9.153803
 31
0.000000
  0
LINE
  8
Layer 1
 62
     7
  6
CONTINUOUS
 10
4.466009
 20
9.153803
 30
0.000000
 11
4.456803
 21
9.172679
 31
0.000000
  0
LINE
  8
Layer 1
 62
     7
  6
CONTINUOUS
 10
4.456803
 20
9.172679
 30
0.000000
 11
4.473946
 21
9.184526
 31
0.000000
  0
LINE
  8
Layer 1
 62
     7
  6
CONTINUOUS
 10
4.473946
 20
9.184526
 30
0.000000
 11
4.520623
 21
9.194293
 31
0.000000
  0
LINE
  8
Layer 1
 62
     7
  6
CONTINUOUS
 10
4.520623
 20
9.194293
 30
0.000000
 11
4.674062
 21
9.203536
 31
0.000000
  0
LINE
  8
Layer 1
 62
     7
  6
CONTINUOUS
 10
4.674062
 20
9.203536
 30
0.000000
 11
4.909487
 21
9.221393
 31
0.000000
  0
LINE
  8
Layer 1
 62
     7
  6
CONTINUOUS
 10
4.909487
 20
9.221393
 30
0.000000
 11
5.167082
 21
9.269710
 31
0.000000
  0
LINE
  8
Layer 1
 62
     7
  6
CONTINUOUS
 10
5.167082
 20
9.269710
 30
0.000000
 11
5.418979
 21
9.341898
 31
0.000000
  0
LINE
  8
Layer 1
 62
     7
  6
CONTINUOUS
 10
5.418979
 20
9.341898
 30
0.000000
 11
5.637310
 21
9.431364
 31
0.000000
  0
LINE
  8
Layer 1
 62
     7
  6
CONTINUOUS
 10
5.637310
 20
9.431364
 30
0.000000
 11
5.787022
 21
9.499955
 31
0.000000
  0
LINE
  8
Layer 1
 62
     7
  6
CONTINUOUS
 10
5.787022
 20
9.499955
 30
0.000000
 11
5.856866
 21
9.520148
 31
0.000000
  0
LINE
  8
Layer 1
 62
     7
  6
CONTINUOUS
 10
5.856866
 20
9.520148
 30
0.000000
 11
5.858662
 21
9.468020
 31
0.000000
  0
LINE
  8
Layer 1
 62
     7
  6
CONTINUOUS
 10
5.858662
 20
9.468020
 30
0.000000
 11
5.844772
 21
9.362735
 31
0.000000
  0
LINE
  8
Layer 1
 62
     7
  6
CONTINUOUS
 10
5.844772
 20
9.362735
 30
0.000000
 11
5.826759
 21
9.282295
 31
0.000000
  0
LINE
  8
Layer 1
 62
     7
  6
CONTINUOUS
 10
5.826759
 20
9.282295
 30
0.000000
 11
5.798307
 21
9.228315
 31
0.000000
  0
LINE
  8
Layer 1
 62
     7
  6
CONTINUOUS
 10
5.798307
 20
9.228315
 30
0.000000
 11
5.745691
 21
9.184182
 31
0.000000
  0
LINE
  8
Layer 1
 62
     7
  6
CONTINUOUS
 10
5.745691
 20
9.184182
 30
0.000000
 11
5.655183
 21
9.133282
 31
0.000000
  0
LINE
  8
Layer 1
 62
     7
  6
CONTINUOUS
 10
5.655183
 20
9.133282
 30
0.000000
 11
5.509074
 21
9.073554
 31
0.000000
  0
LINE
  8
Layer 1
 62
     7
  6
CONTINUOUS
 10
5.509074
 20
9.073554
 30
0.000000
 11
5.341755
 21
9.039200
 31
0.000000
  0
LINE
  8
Layer 1
 62
     7
  6
CONTINUOUS
 10
5.341755
 20
9.039200
 30
0.000000
 11
5.143326
 21
9.029013
 31
0.000000
  0
LINE
  8
Layer 1
 62
     7
  6
CONTINUOUS
 10
5.143326
 20
9.029013
 30
0.000000
 11
4.903887
 21
9.041788
 31
0.000000
  0
LINE
  8
Layer 1
 62
     7
  6
CONTINUOUS
 10
2.601233
 20
9.177139
 30
0.000000
 11
2.543759
 21
9.215053
 31
0.000000
  0
LINE
  8
Layer 1
 62
     7
  6
CONTINUOUS
 10
2.543759
 20
9.215053
 30
0.000000
 11
2.514903
 21
9.246471
 31
0.000000
  0
LINE
  8
Layer 1
 62
     7
  6
CONTINUOUS
 10
2.514903
 20
9.246471
 30
0.000000
 11
2.517353
 21
9.272351
 31
0.000000
  0
LINE
  8
Layer 1
 62
     7
  6
CONTINUOUS
 10
2.517353
 20
9.272351
 30
0.000000
 11
2.553798
 21
9.293648
 31
0.000000
  0
LINE
  8
Layer 1
 62
     7
  6
CONTINUOUS
 10
2.553798
 20
9.293648
 30
0.000000
 11
2.626928
 21
9.311320
 31
0.000000
  0
LINE
  8
Layer 1
 62
     7
  6
CONTINUOUS
 10
2.626928
 20
9.311320
 30
0.000000
 11
2.739431
 21
9.326322
 31
0.000000
  0
LINE
  8
Layer 1
 62
     7
  6
CONTINUOUS
 10
2.739431
 20
9.326322
 30
0.000000
 11
3.093317
 21
9.352143
 31
0.000000
  0
LINE
  8
Layer 1
 62
     7
  6
CONTINUOUS
 10
3.093317
 20
9.352143
 30
0.000000
 11
3.544888
 21
9.391715
 31
0.000000
  0
LINE
  8
Layer 1
 62
     7
  6
CONTINUOUS
 10
3.544888
 20
9.391715
 30
0.000000
 11
3.909910
 21
9.452801
 31
0.000000
  0
LINE
  8
Layer 1
 62
     7
  6
CONTINUOUS
 10
3.909910
 20
9.452801
 30
0.000000
 11
3.957529
 21
9.454223
 31
0.000000
  0
LINE
  8
Layer 1
 62
     7
  6
CONTINUOUS
 10
3.957529
 20
9.454223
 30
0.000000
 11
3.972015
 21
9.447291
 31
0.000000
  0
LINE
  8
Layer 1
 62
     7
  6
CONTINUOUS
 10
3.972015
 20
9.447291
 30
0.000000
 11
3.977336
 21
9.436000
 31
0.000000
  0
LINE
  8
Layer 1
 62
     7
  6
CONTINUOUS
 10
3.977336
 20
9.436000
 30
0.000000
 11
3.960654
 21
9.418024
 31
0.000000
  0
LINE
  8
Layer 1
 62
     7
  6
CONTINUOUS
 10
3.960654
 20
9.418024
 30
0.000000
 11
3.915234
 21
9.392893
 31
0.000000
  0
LINE
  8
Layer 1
 62
     7
  6
CONTINUOUS
 10
3.915234
 20
9.392893
 30
0.000000
 11
3.765926
 21
9.334491
 31
0.000000
  0
LINE
  8
Layer 1
 62
     7
  6
CONTINUOUS
 10
3.765926
 20
9.334491
 30
0.000000
 11
3.406850
 21
9.236030
 31
0.000000
  0
LINE
  8
Layer 1
 62
     7
  6
CONTINUOUS
 10
3.406850
 20
9.236030
 30
0.000000
 11
3.056984
 21
9.172113
 31
0.000000
  0
LINE
  8
Layer 1
 62
     7
  6
CONTINUOUS
 10
3.056984
 20
9.172113
 30
0.000000
 11
2.902408
 21
9.155392
 31
0.000000
  0
LINE
  8
Layer 1
 62
     7
  6
CONTINUOUS
 10
2.902408
 20
9.155392
 30
0.000000
 11
2.770416
 21
9.150047
 31
0.000000
  0
LINE
  8
Layer 1
 62
     7
  6
CONTINUOUS
 10
2.770416
 20
9.150047
 30
0.000000
 11
2.667771
 21
9.156992
 31
0.000000
  0
LINE
  8
Layer 1
 62
     7
  6
CONTINUOUS
 10
2.667771
 20
9.156992
 30
0.000000
 11
2.601233
 21
9.177139
 31
0.000000
  0
LINE
  8
Layer 1
 62
     7
  6
CONTINUOUS
 10
6.933709
 20
9.251211
 30
0.000000
 11
6.856894
 21
9.288963
 31
0.000000
  0
LINE
  8
Layer 1
 62
     7
  6
CONTINUOUS
 10
6.856894
 20
9.288963
 30
0.000000
 11
6.786582
 21
9.338939
 31
0.000000
  0
LINE
  8
Layer 1
 62
     7
  6
CONTINUOUS
 10
6.786582
 20
9.338939
 30
0.000000
 11
6.723374
 21
9.400243
 31
0.000000
  0
LINE
  8
Layer 1
 62
     7
  6
CONTINUOUS
 10
6.723374
 20
9.400243
 30
0.000000
 11
6.667873
 21
9.471978
 31
0.000000
  0
LINE
  8
Layer 1
 62
     7
  6
CONTINUOUS
 10
6.667873
 20
9.471978
 30
0.000000
 11
6.620679
 21
9.553247
 31
0.000000
  0
LINE
  8
Layer 1
 62
     7
  6
CONTINUOUS
 10
6.620679
 20
9.553247
 30
0.000000
 11
6.582395
 21
9.643154
 31
0.000000
  0
LINE
  8
Layer 1
 62
     7
  6
CONTINUOUS
 10
6.582395
 20
9.643154
 30
0.000000
 11
6.553622
 21
9.740803
 31
0.000000
  0
LINE
  8
Layer 1
 62
     7
  6
CONTINUOUS
 10
6.553622
 20
9.740803
 30
0.000000
 11
6.534963
 21
9.845296
 31
0.000000
  0
LINE
  8
Layer 1
 62
     7
  6
CONTINUOUS
 10
6.534963
 20
9.845296
 30
0.000000
 11
6.526736
 21
9.928235
 31
0.000000
  0
LINE
  8
Layer 1
 62
     7
  6
CONTINUOUS
 10
6.526736
 20
9.928235
 30
0.000000
 11
6.531751
 21
9.977019
 31
0.000000
  0
LINE
  8
Layer 1
 62
     7
  6
CONTINUOUS
 10
6.531751
 20
9.977019
 30
0.000000
 11
6.555369
 21
10.006250
 31
0.000000
  0
LINE
  8
Layer 1
 62
     7
  6
CONTINUOUS
 10
6.555369
 20
10.006250
 30
0.000000
 11
6.602948
 21
10.030532
 31
0.000000
  0
LINE
  8
Layer 1
 62
     7
  6
CONTINUOUS
 10
6.602948
 20
10.030532
 30
0.000000
 11
6.700934
 21
10.062011
 31
0.000000
  0
LINE
  8
Layer 1
 62
     7
  6
CONTINUOUS
 10
6.700934
 20
10.062011
 30
0.000000
 11
6.815222
 21
10.084956
 31
0.000000
  0
LINE
  8
Layer 1
 62
     7
  6
CONTINUOUS
 10
6.815222
 20
10.084956
 30
0.000000
 11
6.941120
 21
10.101825
 31
0.000000
  0
LINE
  8
Layer 1
 62
     7
  6
CONTINUOUS
 10
6.941120
 20
10.101825
 30
0.000000
 11
6.882648
 21
9.932454
 31
0.000000
  0
LINE
  8
Layer 1
 62
     7
  6
CONTINUOUS
 10
6.882648
 20
9.932454
 30
0.000000
 11
6.848527
 21
9.820316
 31
0.000000
  0
LINE
  8
Layer 1
 62
     7
  6
CONTINUOUS
 10
6.848527
 20
9.820316
 30
0.000000
 11
6.829006
 21
9.722216
 31
0.000000
  0
LINE
  8
Layer 1
 62
     7
  6
CONTINUOUS
 10
6.829006
 20
9.722216
 30
0.000000
 11
6.824454
 21
9.636772
 31
0.000000
  0
LINE
  8
Layer 1
 62
     7
  6
CONTINUOUS
 10
6.824454
 20
9.636772
 30
0.000000
 11
6.835245
 21
9.562606
 31
0.000000
  0
LINE
  8
Layer 1
 62
     7
  6
CONTINUOUS
 10
6.835245
 20
9.562606
 30
0.000000
 11
6.861749
 21
9.498338
 31
0.000000
  0
LINE
  8
Layer 1
 62
     7
  6
CONTINUOUS
 10
6.861749
 20
9.498338
 30
0.000000
 11
6.904338
 21
9.442589
 31
0.000000
  0
LINE
  8
Layer 1
 62
     7
  6
CONTINUOUS
 10
6.904338
 20
9.442589
 30
0.000000
 11
6.963384
 21
9.393978
 31
0.000000
  0
LINE
  8
Layer 1
 62
     7
  6
CONTINUOUS
 10
6.963384
 20
9.393978
 30
0.000000
 11
7.039258
 21
9.351128
 31
0.000000
  0
LINE
  8
Layer 1
 62
     7
  6
CONTINUOUS
 10
7.039258
 20
9.351128
 30
0.000000
 11
7.177780
 21
9.276918
 31
0.000000
  0
LINE
  8
Layer 1
 62
     7
  6
CONTINUOUS
 10
7.177780
 20
9.276918
 30
0.000000
 11
7.180539
 21
9.257210
 31
0.000000
  0
LINE
  8
Layer 1
 62
     7
  6
CONTINUOUS
 10
7.180539
 20
9.257210
 30
0.000000
 11
7.152941
 21
9.234796
 31
0.000000
  0
LINE
  8
Layer 1
 62
     7
  6
CONTINUOUS
 10
7.152941
 20
9.234796
 30
0.000000
 11
7.114094
 21
9.212958
 31
0.000000
  0
LINE
  8
Layer 1
 62
     7
  6
CONTINUOUS
 10
7.114094
 20
9.212958
 30
0.000000
 11
7.073879
 21
9.207720
 31
0.000000
  0
LINE
  8
Layer 1
 62
     7
  6
CONTINUOUS
 10
7.073879
 20
9.207720
 30
0.000000
 11
7.018387
 21
9.220124
 31
0.000000
  0
LINE
  8
Layer 1
 62
     7
  6
CONTINUOUS
 10
7.018387
 20
9.220124
 30
0.000000
 11
6.933709
 21
9.251211
 31
0.000000
  0
LINE
  8
Layer 1
 62
     7
  6
CONTINUOUS
 10
4.292611
 20
9.379258
 30
0.000000
 11
4.260007
 21
9.408121
 31
0.000000
  0
LINE
  8
Layer 1
 62
     7
  6
CONTINUOUS
 10
4.260007
 20
9.408121
 30
0.000000
 11
4.250742
 21
9.430089
 31
0.000000
  0
LINE
  8
Layer 1
 62
     7
  6
CONTINUOUS
 10
4.250742
 20
9.430089
 30
0.000000
 11
4.266156
 21
9.455507
 31
0.000000
  0
LINE
  8
Layer 1
 62
     7
  6
CONTINUOUS
 10
4.266156
 20
9.455507
 30
0.000000
 11
4.307594
 21
9.494721
 31
0.000000
  0
LINE
  8
Layer 1
 62
     7
  6
CONTINUOUS
 10
4.307594
 20
9.494721
 30
0.000000
 11
4.417281
 21
9.568328
 31
0.000000
  0
LINE
  8
Layer 1
 62
     7
  6
CONTINUOUS
 10
4.417281
 20
9.568328
 30
0.000000
 11
4.576670
 21
9.651115
 31
0.000000
  0
LINE
  8
Layer 1
 62
     7
  6
CONTINUOUS
 10
4.576670
 20
9.651115
 30
0.000000
 11
5.347197
 21
10.016727
 31
0.000000
  0
LINE
  8
Layer 1
 62
     7
  6
CONTINUOUS
 10
5.347197
 20
10.016727
 30
0.000000
 11
5.594713
 21
10.149786
 31
0.000000
  0
LINE
  8
Layer 1
 62
     7
  6
CONTINUOUS
 10
5.594713
 20
10.149786
 30
0.000000
 11
5.823502
 21
10.286962
 31
0.000000
  0
LINE
  8
Layer 1
 62
     7
  6
CONTINUOUS
 10
5.823502
 20
10.286962
 30
0.000000
 11
6.263234
 21
10.569970
 31
0.000000
  0
LINE
  8
Layer 1
 62
     7
  6
CONTINUOUS
 10
6.263234
 20
10.569970
 30
0.000000
 11
6.326337
 21
10.607875
 31
0.000000
  0
LINE
  8
Layer 1
 62
     7
  6
CONTINUOUS
 10
6.326337
 20
10.607875
 30
0.000000
 11
6.361016
 21
10.614359
 31
0.000000
  0
LINE
  8
Layer 1
 62
     7
  6
CONTINUOUS
 10
6.361016
 20
10.614359
 30
0.000000
 11
6.362394
 21
10.586324
 31
0.000000
  0
LINE
  8
Layer 1
 62
     7
  6
CONTINUOUS
 10
6.362394
 20
10.586324
 30
0.000000
 11
6.349392
 21
10.529010
 31
0.000000
  0
LINE
  8
Layer 1
 62
     7
  6
CONTINUOUS
 10
6.349392
 20
10.529010
 30
0.000000
 11
6.292879
 21
10.360223
 31
0.000000
  0
LINE
  8
Layer 1
 62
     7
  6
CONTINUOUS
 10
6.292879
 20
10.360223
 30
0.000000
 11
6.216742
 21
10.175353
 31
0.000000
  0
LINE
  8
Layer 1
 62
     7
  6
CONTINUOUS
 10
6.216742
 20
10.175353
 30
0.000000
 11
6.146244
 21
10.041758
 31
0.000000
  0
LINE
  8
Layer 1
 62
     7
  6
CONTINUOUS
 10
6.146244
 20
10.041758
 30
0.000000
 11
6.065742
 21
9.947828
 31
0.000000
  0
LINE
  8
Layer 1
 62
     7
  6
CONTINUOUS
 10
6.065742
 20
9.947828
 30
0.000000
 11
5.955573
 21
9.852041
 31
0.000000
  0
LINE
  8
Layer 1
 62
     7
  6
CONTINUOUS
 10
5.955573
 20
9.852041
 30
0.000000
 11
5.821604
 21
9.757592
 31
0.000000
  0
LINE
  8
Layer 1
 62
     7
  6
CONTINUOUS
 10
5.821604
 20
9.757592
 30
0.000000
 11
5.669701
 21
9.667678
 31
0.000000
  0
LINE
  8
Layer 1
 62
     7
  6
CONTINUOUS
 10
5.669701
 20
9.667678
 30
0.000000
 11
5.505732
 21
9.585495
 31
0.000000
  0
LINE
  8
Layer 1
 62
     7
  6
CONTINUOUS
 10
5.505732
 20
9.585495
 30
0.000000
 11
5.335564
 21
9.514241
 31
0.000000
  0
LINE
  8
Layer 1
 62
     7
  6
CONTINUOUS
 10
5.335564
 20
9.514241
 30
0.000000
 11
5.165065
 21
9.457112
 31
0.000000
  0
LINE
  8
Layer 1
 62
     7
  6
CONTINUOUS
 10
5.165065
 20
9.457112
 30
0.000000
 11
5.000101
 21
9.417305
 31
0.000000
  0
LINE
  8
Layer 1
 62
     7
  6
CONTINUOUS
 10
5.000101
 20
9.417305
 30
0.000000
 11
4.719705
 21
9.370250
 31
0.000000
  0
LINE
  8
Layer 1
 62
     7
  6
CONTINUOUS
 10
4.719705
 20
9.370250
 30
0.000000
 11
4.511717
 21
9.348406
 31
0.000000
  0
LINE
  8
Layer 1
 62
     7
  6
CONTINUOUS
 10
4.511717
 20
9.348406
 30
0.000000
 11
4.371049
 21
9.351500
 31
0.000000
  0
LINE
  8
Layer 1
 62
     7
  6
CONTINUOUS
 10
4.371049
 20
9.351500
 30
0.000000
 11
4.324369
 21
9.362313
 31
0.000000
  0
LINE
  8
Layer 1
 62
     7
  6
CONTINUOUS
 10
4.324369
 20
9.362313
 30
0.000000
 11
4.292611
 21
9.379258
 31
0.000000
  0
LINE
  8
Layer 1
 62
     7
  6
CONTINUOUS
 10
6.194874
 20
9.410550
 30
0.000000
 11
6.135092
 21
9.461563
 31
0.000000
  0
LINE
  8
Layer 1
 62
     7
  6
CONTINUOUS
 10
6.135092
 20
9.461563
 30
0.000000
 11
6.120225
 21
9.492368
 31
0.000000
  0
LINE
  8
Layer 1
 62
     7
  6
CONTINUOUS
 10
6.120225
 20
9.492368
 30
0.000000
 11
6.115375
 21
9.526928
 31
0.000000
  0
LINE
  8
Layer 1
 62
     7
  6
CONTINUOUS
 10
6.115375
 20
9.526928
 30
0.000000
 11
6.135730
 21
9.607985
 31
0.000000
  0
LINE
  8
Layer 1
 62
     7
  6
CONTINUOUS
 10
6.135730
 20
9.607985
 30
0.000000
 11
6.196162
 21
9.706073
 31
0.000000
  0
LINE
  8
Layer 1
 62
     7
  6
CONTINUOUS
 10
6.196162
 20
9.706073
 30
0.000000
 11
6.262492
 21
9.786321
 31
0.000000
  0
LINE
  8
Layer 1
 62
     7
  6
CONTINUOUS
 10
6.262492
 20
9.786321
 30
0.000000
 11
6.308764
 21
9.823367
 31
0.000000
  0
LINE
  8
Layer 1
 62
     7
  6
CONTINUOUS
 10
6.308764
 20
9.823367
 30
0.000000
 11
6.324657
 21
9.825809
 31
0.000000
  0
LINE
  8
Layer 1
 62
     7
  6
CONTINUOUS
 10
6.324657
 20
9.825809
 30
0.000000
 11
6.335871
 21
9.817594
 31
0.000000
  0
LINE
  8
Layer 1
 62
     7
  6
CONTINUOUS
 10
6.335871
 20
9.817594
 30
0.000000
 11
6.344707
 21
9.769381
 31
0.000000
  0
LINE
  8
Layer 1
 62
     7
  6
CONTINUOUS
 10
6.344707
 20
9.769381
 30
0.000000
 11
6.366677
 21
9.679080
 31
0.000000
  0
LINE
  8
Layer 1
 62
     7
  6
CONTINUOUS
 10
6.366677
 20
9.679080
 30
0.000000
 11
6.419499
 21
9.546755
 31
0.000000
  0
LINE
  8
Layer 1
 62
     7
  6
CONTINUOUS
 10
6.419499
 20
9.546755
 30
0.000000
 11
6.494415
 21
9.376256
 31
0.000000
  0
LINE
  8
Layer 1
 62
     7
  6
CONTINUOUS
 10
6.494415
 20
9.376256
 30
0.000000
 11
6.484216
 21
9.368435
 31
0.000000
  0
LINE
  8
Layer 1
 62
     7
  6
CONTINUOUS
 10
6.484216
 20
9.368435
 30
0.000000
 11
6.456537
 21
9.365183
 31
0.000000
  0
LINE
  8
Layer 1
 62
     7
  6
CONTINUOUS
 10
6.456537
 20
9.365183
 30
0.000000
 11
6.368131
 21
9.370168
 31
0.000000
  0
LINE
  8
Layer 1
 62
     7
  6
CONTINUOUS
 10
6.368131
 20
9.370168
 30
0.000000
 11
6.267982
 21
9.386770
 31
0.000000
  0
LINE
  8
Layer 1
 62
     7
  6
CONTINUOUS
 10
6.267982
 20
9.386770
 30
0.000000
 11
6.194874
 21
9.410550
 31
0.000000
  0
LINE
  8
Layer 1
 62
     7
  6
CONTINUOUS
 10
8.772013
 20
9.493818
 30
0.000000
 11
8.736029
 21
9.513568
 31
0.000000
  0
LINE
  8
Layer 1
 62
     7
  6
CONTINUOUS
 10
8.736029
 20
9.513568
 30
0.000000
 11
8.709092
 21
9.542305
 31
0.000000
  0
LINE
  8
Layer 1
 62
     7
  6
CONTINUOUS
 10
8.709092
 20
9.542305
 30
0.000000
 11
8.691417
 21
9.577470
 31
0.000000
  0
LINE
  8
Layer 1
 62
     7
  6
CONTINUOUS
 10
8.691417
 20
9.577470
 30
0.000000
 11
8.683220
 21
9.616501
 31
0.000000
  0
LINE
  8
Layer 1
 62
     7
  6
CONTINUOUS
 10
8.683220
 20
9.616501
 30
0.000000
 11
8.684717
 21
9.656837
 31
0.000000
  0
LINE
  8
Layer 1
 62
     7
  6
CONTINUOUS
 10
8.684717
 20
9.656837
 30
0.000000
 11
8.696125
 21
9.695918
 31
0.000000
  0
LINE
  8
Layer 1
 62
     7
  6
CONTINUOUS
 10
8.696125
 20
9.695918
 30
0.000000
 11
8.717660
 21
9.731182
 31
0.000000
  0
LINE
  8
Layer 1
 62
     7
  6
CONTINUOUS
 10
8.717660
 20
9.731182
 30
0.000000
 11
8.749537
 21
9.760069
 31
0.000000
  0
LINE
  8
Layer 1
 62
     7
  6
CONTINUOUS
 10
8.749537
 20
9.760069
 30
0.000000
 11
8.911404
 21
9.882846
 31
0.000000
  0
LINE
  8
Layer 1
 62
     7
  6
CONTINUOUS
 10
8.911404
 20
9.882846
 30
0.000000
 11
9.104092
 21
10.051010
 31
0.000000
  0
LINE
  8
Layer 1
 62
     7
  6
CONTINUOUS
 10
9.104092
 20
10.051010
 30
0.000000
 11
9.302665
 21
10.241695
 31
0.000000
  0
LINE
  8
Layer 1
 62
     7
  6
CONTINUOUS
 10
9.302665
 20
10.241695
 30
0.000000
 11
9.482191
 21
10.432031
 31
0.000000
  0
LINE
  8
Layer 1
 62
     7
  6
CONTINUOUS
 10
9.482191
 20
10.432031
 30
0.000000
 11
9.638519
 21
10.623063
 31
0.000000
  0
LINE
  8
Layer 1
 62
     7
  6
CONTINUOUS
 10
9.638519
 20
10.623063
 30
0.000000
 11
9.761711
 21
10.810549
 31
0.000000
  0
LINE
  8
Layer 1
 62
     7
  6
CONTINUOUS
 10
9.761711
 20
10.810549
 30
0.000000
 11
9.863440
 21
11.014821
 31
0.000000
  0
LINE
  8
Layer 1
 62
     7
  6
CONTINUOUS
 10
9.863440
 20
11.014821
 30
0.000000
 11
9.955379
 21
11.256213
 31
0.000000
  0
LINE
  8
Layer 1
 62
     7
  6
CONTINUOUS
 10
9.955379
 20
11.256213
 30
0.000000
 11
10.008791
 21
11.412876
 31
0.000000
  0
LINE
  8
Layer 1
 62
     7
  6
CONTINUOUS
 10
10.008791
 20
11.412876
 30
0.000000
 11
10.195758
 21
11.412876
 31
0.000000
  0
LINE
  8
Layer 1
 62
     7
  6
CONTINUOUS
 10
10.195758
 20
11.412876
 30
0.000000
 11
10.355311
 21
11.418931
 31
0.000000
  0
LINE
  8
Layer 1
 62
     7
  6
CONTINUOUS
 10
10.355311
 20
11.418931
 30
0.000000
 11
10.476370
 21
11.433489
 31
0.000000
  0
LINE
  8
Layer 1
 62
     7
  6
CONTINUOUS
 10
10.476370
 20
11.433489
 30
0.000000
 11
10.525356
 21
11.441886
 31
0.000000
  0
LINE
  8
Layer 1
 62
     7
  6
CONTINUOUS
 10
10.525356
 20
11.441886
 30
0.000000
 11
10.553730
 21
11.438302
 31
0.000000
  0
LINE
  8
Layer 1
 62
     7
  6
CONTINUOUS
 10
10.553730
 20
11.438302
 30
0.000000
 11
10.566835
 21
11.419905
 31
0.000000
  0
LINE
  8
Layer 1
 62
     7
  6
CONTINUOUS
 10
10.566835
 20
11.419905
 30
0.000000
 11
10.570016
 21
11.383864
 31
0.000000
  0
LINE
  8
Layer 1
 62
     7
  6
CONTINUOUS
 10
10.570016
 20
11.383864
 30
0.000000
 11
10.556884
 21
11.325837
 31
0.000000
  0
LINE
  8
Layer 1
 62
     7
  6
CONTINUOUS
 10
10.556884
 20
11.325837
 30
0.000000
 11
10.521002
 21
11.228769
 31
0.000000
  0
LINE
  8
Layer 1
 62
     7
  6
CONTINUOUS
 10
10.521002
 20
11.228769
 30
0.000000
 11
10.402094
 21
10.961796
 31
0.000000
  0
LINE
  8
Layer 1
 62
     7
  6
CONTINUOUS
 10
10.402094
 20
10.961796
 30
0.000000
 11
10.255492
 21
10.671517
 31
0.000000
  0
LINE
  8
Layer 1
 62
     7
  6
CONTINUOUS
 10
10.255492
 20
10.671517
 30
0.000000
 11
10.123398
 21
10.446501
 31
0.000000
  0
LINE
  8
Layer 1
 62
     7
  6
CONTINUOUS
 10
10.123398
 20
10.446501
 30
0.000000
 11
10.009720
 21
10.295530
 31
0.000000
  0
LINE
  8
Layer 1
 62
     7
  6
CONTINUOUS
 10
10.009720
 20
10.295530
 30
0.000000
 11
9.868604
 21
10.132876
 31
0.000000
  0
LINE
  8
Layer 1
 62
     7
  6
CONTINUOUS
 10
9.868604
 20
10.132876
 30
0.000000
 11
9.714424
 21
9.974181
 31
0.000000
  0
LINE
  8
Layer 1
 62
     7
  6
CONTINUOUS
 10
9.714424
 20
9.974181
 30
0.000000
 11
9.561551
 21
9.835085
 31
0.000000
  0
LINE
  8
Layer 1
 62
     7
  6
CONTINUOUS
 10
9.561551
 20
9.835085
 30
0.000000
 11
9.467062
 21
9.763634
 31
0.000000
  0
LINE
  8
Layer 1
 62
     7
  6
CONTINUOUS
 10
9.467062
 20
9.763634
 30
0.000000
 11
9.358702
 21
9.694934
 31
0.000000
  0
LINE
  8
Layer 1
 62
     7
  6
CONTINUOUS
 10
9.358702
 20
9.694934
 30
0.000000
 11
9.125709
 21
9.576735
 31
0.000000
  0
LINE
  8
Layer 1
 62
     7
  6
CONTINUOUS
 10
9.125709
 20
9.576735
 30
0.000000
 11
8.913253
 21
9.502395
 31
0.000000
  0
LINE
  8
Layer 1
 62
     7
  6
CONTINUOUS
 10
8.913253
 20
9.502395
 30
0.000000
 11
8.830563
 21
9.488517
 31
0.000000
  0
LINE
  8
Layer 1
 62
     7
  6
CONTINUOUS
 10
8.830563
 20
9.488517
 30
0.000000
 11
8.772013
 21
9.493818
 31
0.000000
  0
LINE
  8
Layer 1
 62
     7
  6
CONTINUOUS
 10
7.161301
 20
9.567602
 30
0.000000
 11
7.088492
 21
9.640173
 31
0.000000
  0
LINE
  8
Layer 1
 62
     7
  6
CONTINUOUS
 10
7.088492
 20
9.640173
 30
0.000000
 11
7.070084
 21
9.677940
 31
0.000000
  0
LINE
  8
Layer 1
 62
     7
  6
CONTINUOUS
 10
7.070084
 20
9.677940
 30
0.000000
 11
7.063909
 21
9.716337
 31
0.000000
  0
LINE
  8
Layer 1
 62
     7
  6
CONTINUOUS
 10
7.063909
 20
9.716337
 30
0.000000
 11
7.083279
 21
9.833415
 31
0.000000
  0
LINE
  8
Layer 1
 62
     7
  6
CONTINUOUS
 10
7.083279
 20
9.833415
 30
0.000000
 11
7.136081
 21
9.991873
 31
0.000000
  0
LINE
  8
Layer 1
 62
     7
  6
CONTINUOUS
 10
7.136081
 20
9.991873
 30
0.000000
 11
7.214357
 21
10.171199
 31
0.000000
  0
LINE
  8
Layer 1
 62
     7
  6
CONTINUOUS
 10
7.214357
 20
10.171199
 30
0.000000
 11
7.310146
 21
10.350880
 31
0.000000
  0
LINE
  8
Layer 1
 62
     7
  6
CONTINUOUS
 10
7.310146
 20
10.350880
 30
0.000000
 11
7.432520
 21
10.558680
 31
0.000000
  0
LINE
  8
Layer 1
 62
     7
  6
CONTINUOUS
 10
7.432520
 20
10.558680
 30
0.000000
 11
7.534576
 21
10.449826
 31
0.000000
  0
LINE
  8
Layer 1
 62
     7
  6
CONTINUOUS
 10
7.534576
 20
10.449826
 30
0.000000
 11
7.591811
 21
10.394277
 31
0.000000
  0
LINE
  8
Layer 1
 62
     7
  6
CONTINUOUS
 10
7.591811
 20
10.394277
 30
0.000000
 11
7.642368
 21
10.361617
 31
0.000000
  0
LINE
  8
Layer 1
 62
     7
  6
CONTINUOUS
 10
7.642368
 20
10.361617
 30
0.000000
 11
7.697836
 21
10.346638
 31
0.000000
  0
LINE
  8
Layer 1
 62
     7
  6
CONTINUOUS
 10
7.697836
 20
10.346638
 30
0.000000
 11
7.769805
 21
10.344133
 31
0.000000
  0
LINE
  8
Layer 1
 62
     7
  6
CONTINUOUS
 10
7.769805
 20
10.344133
 30
0.000000
 11
7.863858
 21
10.338644
 31
0.000000
  0
LINE
  8
Layer 1
 62
     7
  6
CONTINUOUS
 10
7.863858
 20
10.338644
 30
0.000000
 11
7.892469
 21
10.330964
 31
0.000000
  0
LINE
  8
Layer 1
 62
     7
  6
CONTINUOUS
 10
7.892469
 20
10.330964
 30
0.000000
 11
7.902977
 21
10.321006
 31
0.000000
  0
LINE
  8
Layer 1
 62
     7
  6
CONTINUOUS
 10
7.902977
 20
10.321006
 30
0.000000
 11
7.858027
 21
10.104779
 31
0.000000
  0
LINE
  8
Layer 1
 62
     7
  6
CONTINUOUS
 10
7.858027
 20
10.104779
 30
0.000000
 11
7.826281
 21
9.935848
 31
0.000000
  0
LINE
  8
Layer 1
 62
     7
  6
CONTINUOUS
 10
7.826281
 20
9.935848
 30
0.000000
 11
7.813077
 21
9.796416
 31
0.000000
  0
LINE
  8
Layer 1
 62
     7
  6
CONTINUOUS
 10
7.813077
 20
9.796416
 30
0.000000
 11
7.809213
 21
9.730156
 31
0.000000
  0
LINE
  8
Layer 1
 62
     7
  6
CONTINUOUS
 10
7.809213
 20
9.730156
 30
0.000000
 11
7.791128
 21
9.684853
 31
0.000000
  0
LINE
  8
Layer 1
 62
     7
  6
CONTINUOUS
 10
7.791128
 20
9.684853
 30
0.000000
 11
7.749078
 21
9.647043
 31
0.000000
  0
LINE
  8
Layer 1
 62
     7
  6
CONTINUOUS
 10
7.749078
 20
9.647043
 30
0.000000
 11
7.673324
 21
9.603262
 31
0.000000
  0
LINE
  8
Layer 1
 62
     7
  6
CONTINUOUS
 10
7.673324
 20
9.603262
 30
0.000000
 11
7.523242
 21
9.538844
 31
0.000000
  0
LINE
  8
Layer 1
 62
     7
  6
CONTINUOUS
 10
7.523242
 20
9.538844
 30
0.000000
 11
7.385152
 21
9.511238
 31
0.000000
  0
LINE
  8
Layer 1
 62
     7
  6
CONTINUOUS
 10
7.385152
 20
9.511238
 30
0.000000
 11
7.321882
 21
9.511329
 31
0.000000
  0
LINE
  8
Layer 1
 62
     7
  6
CONTINUOUS
 10
7.321882
 20
9.511329
 30
0.000000
 11
7.263142
 21
9.520729
 31
0.000000
  0
LINE
  8
Layer 1
 62
     7
  6
CONTINUOUS
 10
7.263142
 20
9.520729
 30
0.000000
 11
7.209445
 21
9.539475
 31
0.000000
  0
LINE
  8
Layer 1
 62
     7
  6
CONTINUOUS
 10
7.209445
 20
9.539475
 30
0.000000
 11
7.161301
 21
9.567602
 31
0.000000
  0
LINE
  8
Layer 1
 62
     7
  6
CONTINUOUS
 10
10.720904
 20
9.761623
 30
0.000000
 11
10.699749
 21
9.823031
 31
0.000000
  0
LINE
  8
Layer 1
 62
     7
  6
CONTINUOUS
 10
10.699749
 20
9.823031
 30
0.000000
 11
10.690926
 21
9.887063
 31
0.000000
  0
LINE
  8
Layer 1
 62
     7
  6
CONTINUOUS
 10
10.690926
 20
9.887063
 30
0.000000
 11
10.694956
 21
9.940927
 31
0.000000
  0
LINE
  8
Layer 1
 62
     7
  6
CONTINUOUS
 10
10.694956
 20
9.940927
 30
0.000000
 11
10.712358
 21
9.971830
 31
0.000000
  0
LINE
  8
Layer 1
 62
     7
  6
CONTINUOUS
 10
10.712358
 20
9.971830
 30
0.000000
 11
10.771230
 21
9.965621
 31
0.000000
  0
LINE
  8
Layer 1
 62
     7
  6
CONTINUOUS
 10
10.771230
 20
9.965621
 30
0.000000
 11
10.881212
 21
9.930974
 31
0.000000
  0
LINE
  8
Layer 1
 62
     7
  6
CONTINUOUS
 10
10.881212
 20
9.930974
 30
0.000000
 11
11.027591
 21
9.876077
 31
0.000000
  0
LINE
  8
Layer 1
 62
     7
  6
CONTINUOUS
 10
11.027591
 20
9.876077
 30
0.000000
 11
10.931355
 21
9.786953
 31
0.000000
  0
LINE
  8
Layer 1
 62
     7
  6
CONTINUOUS
 10
10.931355
 20
9.786953
 30
0.000000
 11
10.856332
 21
9.726279
 31
0.000000
  0
LINE
  8
Layer 1
 62
     7
  6
CONTINUOUS
 10
10.856332
 20
9.726279
 30
0.000000
 11
10.799216
 21
9.702190
 31
0.000000
  0
LINE
  8
Layer 1
 62
     7
  6
CONTINUOUS
 10
10.799216
 20
9.702190
 30
0.000000
 11
10.775982
 21
9.703697
 31
0.000000
  0
LINE
  8
Layer 1
 62
     7
  6
CONTINUOUS
 10
10.775982
 20
9.703697
 30
0.000000
 11
10.755557
 21
9.714150
 31
0.000000
  0
LINE
  8
Layer 1
 62
     7
  6
CONTINUOUS
 10
10.755557
 20
9.714150
 30
0.000000
 11
10.720904
 21
9.761623
 31
0.000000
  0
LINE
  8
Layer 1
 62
     7
  6
CONTINUOUS
 10
8.018091
 20
9.746711
 30
0.000000
 11
8.011274
 21
9.780921
 31
0.000000
  0
LINE
  8
Layer 1
 62
     7
  6
CONTINUOUS
 10
8.011274
 20
9.780921
 30
0.000000
 11
8.020542
 21
9.844312
 31
0.000000
  0
LINE
  8
Layer 1
 62
     7
  6
CONTINUOUS
 10
8.020542
 20
9.844312
 30
0.000000
 11
8.077971
 21
10.032839
 31
0.000000
  0
LINE
  8
Layer 1
 62
     7
  6
CONTINUOUS
 10
8.077971
 20
10.032839
 30
0.000000
 11
8.171657
 21
10.260702
 31
0.000000
  0
LINE
  8
Layer 1
 62
     7
  6
CONTINUOUS
 10
8.171657
 20
10.260702
 30
0.000000
 11
8.282876
 21
10.476311
 31
0.000000
  0
LINE
  8
Layer 1
 62
     7
  6
CONTINUOUS
 10
8.282876
 20
10.476311
 30
0.000000
 11
8.353196
 21
10.605356
 31
0.000000
  0
LINE
  8
Layer 1
 62
     7
  6
CONTINUOUS
 10
8.353196
 20
10.605356
 30
0.000000
 11
8.382445
 21
10.679245
 31
0.000000
  0
LINE
  8
Layer 1
 62
     7
  6
CONTINUOUS
 10
8.382445
 20
10.679245
 30
0.000000
 11
8.365764
 21
10.684970
 31
0.000000
  0
LINE
  8
Layer 1
 62
     7
  6
CONTINUOUS
 10
8.365764
 20
10.684970
 30
0.000000
 11
8.320344
 21
10.674972
 31
0.000000
  0
LINE
  8
Layer 1
 62
     7
  6
CONTINUOUS
 10
8.320344
 20
10.674972
 30
0.000000
 11
8.171039
 21
10.616096
 31
0.000000
  0
LINE
  8
Layer 1
 62
     7
  6
CONTINUOUS
 10
8.171039
 20
10.616096
 30
0.000000
 11
8.019776
 21
10.555720
 31
0.000000
  0
LINE
  8
Layer 1
 62
     7
  6
CONTINUOUS
 10
8.019776
 20
10.555720
 30
0.000000
 11
7.905237
 21
10.532520
 31
0.000000
  0
LINE
  8
Layer 1
 62
     7
  6
CONTINUOUS
 10
7.905237
 20
10.532520
 30
0.000000
 11
7.860554
 21
10.534805
 31
0.000000
  0
LINE
  8
Layer 1
 62
     7
  6
CONTINUOUS
 10
7.860554
 20
10.534805
 30
0.000000
 11
7.823627
 21
10.546315
 31
0.000000
  0
LINE
  8
Layer 1
 62
     7
  6
CONTINUOUS
 10
7.823627
 20
10.546315
 30
0.000000
 11
7.793984
 21
10.567028
 31
0.000000
  0
LINE
  8
Layer 1
 62
     7
  6
CONTINUOUS
 10
7.793984
 20
10.567028
 30
0.000000
 11
7.771150
 21
10.596922
 31
0.000000
  0
LINE
  8
Layer 1
 62
     7
  6
CONTINUOUS
 10
7.771150
 20
10.596922
 30
0.000000
 11
7.758771
 21
10.633296
 31
0.000000
  0
LINE
  8
Layer 1
 62
     7
  6
CONTINUOUS
 10
7.758771
 20
10.633296
 30
0.000000
 11
7.761923
 21
10.679015
 31
0.000000
  0
LINE
  8
Layer 1
 62
     7
  6
CONTINUOUS
 10
7.761923
 20
10.679015
 30
0.000000
 11
7.821882
 21
10.831077
 31
0.000000
  0
LINE
  8
Layer 1
 62
     7
  6
CONTINUOUS
 10
7.821882
 20
10.831077
 30
0.000000
 11
7.901335
 21
10.977606
 31
0.000000
  0
LINE
  8
Layer 1
 62
     7
  6
CONTINUOUS
 10
7.901335
 20
10.977606
 30
0.000000
 11
7.996890
 21
11.117005
 31
0.000000
  0
LINE
  8
Layer 1
 62
     7
  6
CONTINUOUS
 10
7.996890
 20
11.117005
 30
0.000000
 11
8.108337
 21
11.249082
 31
0.000000
  0
LINE
  8
Layer 1
 62
     7
  6
CONTINUOUS
 10
8.108337
 20
11.249082
 30
0.000000
 11
8.235464
 21
11.373650
 31
0.000000
  0
LINE
  8
Layer 1
 62
     7
  6
CONTINUOUS
 10
8.235464
 20
11.373650
 30
0.000000
 11
8.378059
 21
11.490518
 31
0.000000
  0
LINE
  8
Layer 1
 62
     7
  6
CONTINUOUS
 10
8.378059
 20
11.490518
 30
0.000000
 11
8.535911
 21
11.599497
 31
0.000000
  0
LINE
  8
Layer 1
 62
     7
  6
CONTINUOUS
 10
8.535911
 20
11.599497
 30
0.000000
 11
8.708807
 21
11.700398
 31
0.000000
  0
LINE
  8
Layer 1
 62
     7
  6
CONTINUOUS
 10
8.708807
 20
11.700398
 30
0.000000
 11
8.896537
 21
11.793031
 31
0.000000
  0
LINE
  8
Layer 1
 62
     7
  6
CONTINUOUS
 10
8.896537
 20
11.793031
 30
0.000000
 11
9.077345
 21
11.868052
 31
0.000000
  0
LINE
  8
Layer 1
 62
     7
  6
CONTINUOUS
 10
9.077345
 20
11.868052
 30
0.000000
 11
9.204685
 21
11.900639
 31
0.000000
  0
LINE
  8
Layer 1
 62
     7
  6
CONTINUOUS
 10
9.204685
 20
11.900639
 30
0.000000
 11
9.254229
 21
11.901689
 31
0.000000
  0
LINE
  8
Layer 1
 62
     7
  6
CONTINUOUS
 10
9.254229
 20
11.901689
 30
0.000000
 11
9.297516
 21
11.892933
 31
0.000000
  0
LINE
  8
Layer 1
 62
     7
  6
CONTINUOUS
 10
9.297516
 20
11.892933
 30
0.000000
 11
9.374798
 21
11.847078
 31
0.000000
  0
LINE
  8
Layer 1
 62
     7
  6
CONTINUOUS
 10
9.374798
 20
11.847078
 30
0.000000
 11
9.611081
 21
11.690416
 31
0.000000
  0
LINE
  8
Layer 1
 62
     7
  6
CONTINUOUS
 10
9.611081
 20
11.690416
 30
0.000000
 11
9.786792
 21
11.587782
 31
0.000000
  0
LINE
  8
Layer 1
 62
     7
  6
CONTINUOUS
 10
9.786792
 20
11.587782
 30
0.000000
 11
9.789428
 21
11.561614
 31
0.000000
  0
LINE
  8
Layer 1
 62
     7
  6
CONTINUOUS
 10
9.789428
 20
11.561614
 30
0.000000
 11
9.777279
 21
11.501671
 31
0.000000
  0
LINE
  8
Layer 1
 62
     7
  6
CONTINUOUS
 10
9.777279
 20
11.501671
 30
0.000000
 11
9.719832
 21
11.313414
 31
0.000000
  0
LINE
  8
Layer 1
 62
     7
  6
CONTINUOUS
 10
9.719832
 20
11.313414
 30
0.000000
 11
9.636871
 21
11.088913
 31
0.000000
  0
LINE
  8
Layer 1
 62
     7
  6
CONTINUOUS
 10
9.636871
 20
11.088913
 30
0.000000
 11
9.550814
 21
10.894072
 31
0.000000
  0
LINE
  8
Layer 1
 62
     7
  6
CONTINUOUS
 10
9.550814
 20
10.894072
 30
0.000000
 11
9.425529
 21
10.684631
 31
0.000000
  0
LINE
  8
Layer 1
 62
     7
  6
CONTINUOUS
 10
9.425529
 20
10.684631
 30
0.000000
 11
9.266481
 21
10.484238
 31
0.000000
  0
LINE
  8
Layer 1
 62
     7
  6
CONTINUOUS
 10
9.266481
 20
10.484238
 30
0.000000
 11
9.073087
 21
10.292246
 31
0.000000
  0
LINE
  8
Layer 1
 62
     7
  6
CONTINUOUS
 10
9.073087
 20
10.292246
 30
0.000000
 11
8.844763
 21
10.108003
 31
0.000000
  0
LINE
  8
Layer 1
 62
     7
  6
CONTINUOUS
 10
8.844763
 20
10.108003
 30
0.000000
 11
8.568789
 21
9.925280
 31
0.000000
  0
LINE
  8
Layer 1
 62
     7
  6
CONTINUOUS
 10
8.568789
 20
9.925280
 30
0.000000
 11
8.318695
 21
9.795275
 31
0.000000
  0
LINE
  8
Layer 1
 62
     7
  6
CONTINUOUS
 10
8.318695
 20
9.795275
 30
0.000000
 11
8.212880
 21
9.754205
 31
0.000000
  0
LINE
  8
Layer 1
 62
     7
  6
CONTINUOUS
 10
8.212880
 20
9.754205
 30
0.000000
 11
8.124968
 21
9.731311
 31
0.000000
  0
LINE
  8
Layer 1
 62
     7
  6
CONTINUOUS
 10
8.124968
 20
9.731311
 30
0.000000
 11
8.058768
 21
9.728258
 31
0.000000
  0
LINE
  8
Layer 1
 62
     7
  6
CONTINUOUS
 10
8.058768
 20
9.728258
 30
0.000000
 11
8.018091
 21
9.746711
 31
0.000000
  0
LINE
  8
Layer 1
 62
     7
  6
CONTINUOUS
 10
10.220145
 20
9.816941
 30
0.000000
 11
10.107276
 21
9.887739
 31
0.000000
  0
LINE
  8
Layer 1
 62
     7
  6
CONTINUOUS
 10
10.107276
 20
9.887739
 30
0.000000
 11
10.077771
 21
9.920301
 31
0.000000
  0
LINE
  8
Layer 1
 62
     7
  6
CONTINUOUS
 10
10.077771
 20
9.920301
 30
0.000000
 11
10.065845
 21
9.955291
 31
0.000000
  0
LINE
  8
Layer 1
 62
     7
  6
CONTINUOUS
 10
10.065845
 20
9.955291
 30
0.000000
 11
10.071218
 21
9.995948
 31
0.000000
  0
LINE
  8
Layer 1
 62
     7
  6
CONTINUOUS
 10
10.071218
 20
9.995948
 30
0.000000
 11
10.093609
 21
10.045510
 31
0.000000
  0
LINE
  8
Layer 1
 62
     7
  6
CONTINUOUS
 10
10.093609
 20
10.045510
 30
0.000000
 11
10.188322
 21
10.184308
 31
0.000000
  0
LINE
  8
Layer 1
 62
     7
  6
CONTINUOUS
 10
10.188322
 20
10.184308
 30
0.000000
 11
10.306049
 21
10.329891
 31
0.000000
  0
LINE
  8
Layer 1
 62
     7
  6
CONTINUOUS
 10
10.306049
 20
10.329891
 30
0.000000
 11
10.374279
 21
10.390443
 31
0.000000
  0
LINE
  8
Layer 1
 62
     7
  6
CONTINUOUS
 10
10.374279
 20
10.390443
 30
0.000000
 11
10.397681
 21
10.381986
 31
0.000000
  0
LINE
  8
Layer 1
 62
     7
  6
CONTINUOUS
 10
10.397681
 20
10.381986
 30
0.000000
 11
10.421310
 21
10.358365
 31
0.000000
  0
LINE
  8
Layer 1
 62
     7
  6
CONTINUOUS
 10
10.421310
 20
10.358365
 30
0.000000
 11
10.465125
 21
10.276124
 31
0.000000
  0
LINE
  8
Layer 1
 62
     7
  6
CONTINUOUS
 10
10.465125
 20
10.276124
 30
0.000000
 11
10.497467
 21
10.164713
 31
0.000000
  0
LINE
  8
Layer 1
 62
     7
  6
CONTINUOUS
 10
10.497467
 20
10.164713
 30
0.000000
 11
10.510083
 21
10.045124
 31
0.000000
  0
LINE
  8
Layer 1
 62
     7
  6
CONTINUOUS
 10
10.510083
 20
10.045124
 30
0.000000
 11
10.506067
 21
9.952152
 31
0.000000
  0
LINE
  8
Layer 1
 62
     7
  6
CONTINUOUS
 10
10.506067
 20
9.952152
 30
0.000000
 11
10.493725
 21
9.878288
 31
0.000000
  0
LINE
  8
Layer 1
 62
     7
  6
CONTINUOUS
 10
10.493725
 20
9.878288
 30
0.000000
 11
10.472616
 21
9.823185
 31
0.000000
  0
LINE
  8
Layer 1
 62
     7
  6
CONTINUOUS
 10
10.472616
 20
9.823185
 30
0.000000
 11
10.442300
 21
9.786496
 31
0.000000
  0
LINE
  8
Layer 1
 62
     7
  6
CONTINUOUS
 10
10.442300
 20
9.786496
 30
0.000000
 11
10.402336
 21
9.767874
 31
0.000000
  0
LINE
  8
Layer 1
 62
     7
  6
CONTINUOUS
 10
10.402336
 20
9.767874
 30
0.000000
 11
10.352282
 21
9.766972
 31
0.000000
  0
LINE
  8
Layer 1
 62
     7
  6
CONTINUOUS
 10
10.352282
 20
9.766972
 30
0.000000
 11
10.291699
 21
9.783443
 31
0.000000
  0
LINE
  8
Layer 1
 62
     7
  6
CONTINUOUS
 10
10.291699
 20
9.783443
 30
0.000000
 11
10.220145
 21
9.816941
 31
0.000000
  0
LINE
  8
Layer 1
 62
     7
  6
CONTINUOUS
 10
10.914634
 20
10.111254
 30
0.000000
 11
10.835156
 21
10.169667
 31
0.000000
  0
LINE
  8
Layer 1
 62
     7
  6
CONTINUOUS
 10
10.835156
 20
10.169667
 30
0.000000
 11
10.762934
 21
10.246317
 31
0.000000
  0
LINE
  8
Layer 1
 62
     7
  6
CONTINUOUS
 10
10.762934
 20
10.246317
 30
0.000000
 11
10.710411
 21
10.325644
 31
0.000000
  0
LINE
  8
Layer 1
 62
     7
  6
CONTINUOUS
 10
10.710411
 20
10.325644
 30
0.000000
 11
10.690032
 21
10.392090
 31
0.000000
  0
LINE
  8
Layer 1
 62
     7
  6
CONTINUOUS
 10
10.690032
 20
10.392090
 30
0.000000
 11
10.699975
 21
10.417442
 31
0.000000
  0
LINE
  8
Layer 1
 62
     7
  6
CONTINUOUS
 10
10.699975
 20
10.417442
 30
0.000000
 11
10.731032
 21
10.440408
 31
0.000000
  0
LINE
  8
Layer 1
 62
     7
  6
CONTINUOUS
 10
10.731032
 20
10.440408
 30
0.000000
 11
10.862906
 21
10.482542
 31
0.000000
  0
LINE
  8
Layer 1
 62
     7
  6
CONTINUOUS
 10
10.862906
 20
10.482542
 30
0.000000
 11
11.015703
 21
10.528557
 31
0.000000
  0
LINE
  8
Layer 1
 62
     7
  6
CONTINUOUS
 10
11.015703
 20
10.528557
 30
0.000000
 11
11.140098
 21
10.583957
 31
0.000000
  0
LINE
  8
Layer 1
 62
     7
  6
CONTINUOUS
 10
11.140098
 20
10.583957
 30
0.000000
 11
11.422631
 21
10.751547
 31
0.000000
  0
LINE
  8
Layer 1
 62
     7
  6
CONTINUOUS
 10
11.422631
 20
10.751547
 30
0.000000
 11
11.579832
 21
10.856335
 31
0.000000
  0
LINE
  8
Layer 1
 62
     7
  6
CONTINUOUS
 10
11.579832
 20
10.856335
 30
0.000000
 11
11.707315
 21
10.960110
 31
0.000000
  0
LINE
  8
Layer 1
 62
     7
  6
CONTINUOUS
 10
11.707315
 20
10.960110
 30
0.000000
 11
11.813636
 21
11.063164
 31
0.000000
  0
LINE
  8
Layer 1
 62
     7
  6
CONTINUOUS
 10
11.813636
 20
11.063164
 30
0.000000
 11
11.823122
 21
10.937761
 31
0.000000
  0
LINE
  8
Layer 1
 62
     7
  6
CONTINUOUS
 10
11.823122
 20
10.937761
 30
0.000000
 11
11.816492
 21
10.834289
 31
0.000000
  0
LINE
  8
Layer 1
 62
     7
  6
CONTINUOUS
 10
11.816492
 20
10.834289
 30
0.000000
 11
11.785011
 21
10.717631
 31
0.000000
  0
LINE
  8
Layer 1
 62
     7
  6
CONTINUOUS
 10
11.785011
 20
10.717631
 30
0.000000
 11
11.732780
 21
10.594341
 31
0.000000
  0
LINE
  8
Layer 1
 62
     7
  6
CONTINUOUS
 10
11.732780
 20
10.594341
 30
0.000000
 11
11.663899
 21
10.470975
 31
0.000000
  0
LINE
  8
Layer 1
 62
     7
  6
CONTINUOUS
 10
11.663899
 20
10.470975
 30
0.000000
 11
11.582468
 21
10.354086
 31
0.000000
  0
LINE
  8
Layer 1
 62
     7
  6
CONTINUOUS
 10
11.582468
 20
10.354086
 30
0.000000
 11
11.492590
 21
10.250229
 31
0.000000
  0
LINE
  8
Layer 1
 62
     7
  6
CONTINUOUS
 10
11.492590
 20
10.250229
 30
0.000000
 11
11.398364
 21
10.165959
 31
0.000000
  0
LINE
  8
Layer 1
 62
     7
  6
CONTINUOUS
 10
11.398364
 20
10.165959
 30
0.000000
 11
11.303892
 21
10.107831
 31
0.000000
  0
LINE
  8
Layer 1
 62
     7
  6
CONTINUOUS
 10
11.303892
 20
10.107831
 30
0.000000
 11
11.203041
 21
10.073778
 31
0.000000
  0
LINE
  8
Layer 1
 62
     7
  6
CONTINUOUS
 10
11.203041
 20
10.073778
 30
0.000000
 11
11.101924
 21
10.063020
 31
0.000000
  0
LINE
  8
Layer 1
 62
     7
  6
CONTINUOUS
 10
11.101924
 20
10.063020
 30
0.000000
 11
11.004476
 21
10.075524
 31
0.000000
  0
LINE
  8
Layer 1
 62
     7
  6
CONTINUOUS
 10
11.004476
 20
10.075524
 30
0.000000
 11
10.914634
 21
10.111254
 31
0.000000
  0
LINE
  8
Layer 1
 62
     7
  6
CONTINUOUS
 10
6.704308
 20
10.314947
 30
0.000000
 11
6.737615
 21
10.378689
 31
0.000000
  0
LINE
  8
Layer 1
 62
     7
  6
CONTINUOUS
 10
6.737615
 20
10.378689
 30
0.000000
 11
6.824135
 21
10.501270
 31
0.000000
  0
LINE
  8
Layer 1
 62
     7
  6
CONTINUOUS
 10
6.824135
 20
10.501270
 30
0.000000
 11
7.076402
 21
10.814909
 31
0.000000
  0
LINE
  8
Layer 1
 62
     7
  6
CONTINUOUS
 10
7.076402
 20
10.814909
 30
0.000000
 11
7.224592
 21
10.967764
 31
0.000000
  0
LINE
  8
Layer 1
 62
     7
  6
CONTINUOUS
 10
7.224592
 20
10.967764
 30
0.000000
 11
7.394905
 21
11.119072
 31
0.000000
  0
LINE
  8
Layer 1
 62
     7
  6
CONTINUOUS
 10
7.394905
 20
11.119072
 30
0.000000
 11
7.546348
 21
11.234809
 31
0.000000
  0
LINE
  8
Layer 1
 62
     7
  6
CONTINUOUS
 10
7.546348
 20
11.234809
 30
0.000000
 11
7.602181
 21
11.268705
 31
0.000000
  0
LINE
  8
Layer 1
 62
     7
  6
CONTINUOUS
 10
7.602181
 20
11.268705
 30
0.000000
 11
7.637923
 21
11.280949
 31
0.000000
  0
LINE
  8
Layer 1
 62
     7
  6
CONTINUOUS
 10
7.637923
 20
11.280949
 30
0.000000
 11
7.652604
 21
11.276849
 31
0.000000
  0
LINE
  8
Layer 1
 62
     7
  6
CONTINUOUS
 10
7.652604
 20
11.276849
 30
0.000000
 11
7.660788
 21
11.264894
 31
0.000000
  0
LINE
  8
Layer 1
 62
     7
  6
CONTINUOUS
 10
7.660788
 20
11.264894
 30
0.000000
 11
7.658189
 21
11.219492
 31
0.000000
  0
LINE
  8
Layer 1
 62
     7
  6
CONTINUOUS
 10
7.658189
 20
11.219492
 30
0.000000
 11
7.631186
 21
11.148888
 31
0.000000
  0
LINE
  8
Layer 1
 62
     7
  6
CONTINUOUS
 10
7.631186
 20
11.148888
 30
0.000000
 11
7.580835
 21
11.057227
 31
0.000000
  0
LINE
  8
Layer 1
 62
     7
  6
CONTINUOUS
 10
7.580835
 20
11.057227
 30
0.000000
 11
7.463967
 21
10.881640
 31
0.000000
  0
LINE
  8
Layer 1
 62
     7
  6
CONTINUOUS
 10
7.463967
 20
10.881640
 30
0.000000
 11
7.324110
 21
10.691539
 31
0.000000
  0
LINE
  8
Layer 1
 62
     7
  6
CONTINUOUS
 10
7.324110
 20
10.691539
 30
0.000000
 11
7.196744
 21
10.533190
 31
0.000000
  0
LINE
  8
Layer 1
 62
     7
  6
CONTINUOUS
 10
7.196744
 20
10.533190
 30
0.000000
 11
7.117348
 21
10.452856
 31
0.000000
  0
LINE
  8
Layer 1
 62
     7
  6
CONTINUOUS
 10
7.117348
 20
10.452856
 30
0.000000
 11
7.021268
 21
10.409821
 31
0.000000
  0
LINE
  8
Layer 1
 62
     7
  6
CONTINUOUS
 10
7.021268
 20
10.409821
 30
0.000000
 11
6.882790
 21
10.359933
 31
0.000000
  0
LINE
  8
Layer 1
 62
     7
  6
CONTINUOUS
 10
6.882790
 20
10.359933
 30
0.000000
 11
6.758331
 21
10.322030
 31
0.000000
  0
LINE
  8
Layer 1
 62
     7
  6
CONTINUOUS
 10
6.758331
 20
10.322030
 30
0.000000
 11
6.704308
 21
10.314947
 31
0.000000
  0
LINE
  8
Layer 1
 62
     7
  6
CONTINUOUS
 10
6.514097
 20
10.530616
 30
0.000000
 11
6.546881
 21
10.665060
 31
0.000000
  0
LINE
  8
Layer 1
 62
     7
  6
CONTINUOUS
 10
6.546881
 20
10.665060
 30
0.000000
 11
6.599545
 21
10.779932
 31
0.000000
  0
LINE
  8
Layer 1
 62
     7
  6
CONTINUOUS
 10
6.599545
 20
10.779932
 30
0.000000
 11
6.678165
 21
10.885430
 31
0.000000
  0
LINE
  8
Layer 1
 62
     7
  6
CONTINUOUS
 10
6.678165
 20
10.885430
 30
0.000000
 11
6.788816
 21
10.991754
 31
0.000000
  0
LINE
  8
Layer 1
 62
     7
  6
CONTINUOUS
 10
6.788816
 20
10.991754
 30
0.000000
 11
7.003348
 21
11.155979
 31
0.000000
  0
LINE
  8
Layer 1
 62
     7
  6
CONTINUOUS
 10
7.003348
 20
11.155979
 30
0.000000
 11
7.285690
 21
11.351965
 31
0.000000
  0
LINE
  8
Layer 1
 62
     7
  6
CONTINUOUS
 10
7.285690
 20
11.351965
 30
0.000000
 11
7.535127
 21
11.512240
 31
0.000000
  0
LINE
  8
Layer 1
 62
     7
  6
CONTINUOUS
 10
7.535127
 20
11.512240
 30
0.000000
 11
7.616033
 21
11.557901
 31
0.000000
  0
LINE
  8
Layer 1
 62
     7
  6
CONTINUOUS
 10
7.616033
 20
11.557901
 30
0.000000
 11
7.650946
 21
11.569331
 31
0.000000
  0
LINE
  8
Layer 1
 62
     7
  6
CONTINUOUS
 10
7.650946
 20
11.569331
 30
0.000000
 11
7.609868
 21
11.516400
 31
0.000000
  0
LINE
  8
Layer 1
 62
     7
  6
CONTINUOUS
 10
7.609868
 20
11.516400
 30
0.000000
 11
7.491697
 21
11.410500
 31
0.000000
  0
LINE
  8
Layer 1
 62
     7
  6
CONTINUOUS
 10
7.491697
 20
11.410500
 30
0.000000
 11
7.234740
 21
11.188916
 31
0.000000
  0
LINE
  8
Layer 1
 62
     7
  6
CONTINUOUS
 10
7.234740
 20
11.188916
 30
0.000000
 11
7.009488
 21
10.977873
 31
0.000000
  0
LINE
  8
Layer 1
 62
     7
  6
CONTINUOUS
 10
7.009488
 20
10.977873
 30
0.000000
 11
6.825207
 21
10.786479
 31
0.000000
  0
LINE
  8
Layer 1
 62
     7
  6
CONTINUOUS
 10
6.825207
 20
10.786479
 30
0.000000
 11
6.691165
 21
10.623841
 31
0.000000
  0
LINE
  8
Layer 1
 62
     7
  6
CONTINUOUS
 10
6.691165
 20
10.623841
 30
0.000000
 11
6.580808
 21
10.482297
 31
0.000000
  0
LINE
  8
Layer 1
 62
     7
  6
CONTINUOUS
 10
6.580808
 20
10.482297
 30
0.000000
 11
6.520576
 21
10.423425
 31
0.000000
  0
LINE
  8
Layer 1
 62
     7
  6
CONTINUOUS
 10
6.520576
 20
10.423425
 30
0.000000
 11
6.512473
 21
10.431883
 31
0.000000
  0
LINE
  8
Layer 1
 62
     7
  6
CONTINUOUS
 10
6.512473
 20
10.431883
 30
0.000000
 11
6.508551
 21
10.454912
 31
0.000000
  0
LINE
  8
Layer 1
 62
     7
  6
CONTINUOUS
 10
6.508551
 20
10.454912
 30
0.000000
 11
6.514097
 21
10.530616
 31
0.000000
  0
LINE
  8
Layer 1
 62
     7
  6
CONTINUOUS
 10
10.519527
 20
10.712015
 30
0.000000
 11
10.662083
 21
11.130633
 31
0.000000
  0
LINE
  8
Layer 1
 62
     7
  6
CONTINUOUS
 10
10.662083
 20
11.130633
 30
0.000000
 11
10.737753
 21
11.328830
 31
0.000000
  0
LINE
  8
Layer 1
 62
     7
  6
CONTINUOUS
 10
10.737753
 20
11.328830
 30
0.000000
 11
10.777025
 21
11.412622
 31
0.000000
  0
LINE
  8
Layer 1
 62
     7
  6
CONTINUOUS
 10
10.777025
 20
11.412622
 30
0.000000
 11
10.810362
 21
11.372352
 31
0.000000
  0
LINE
  8
Layer 1
 62
     7
  6
CONTINUOUS
 10
10.810362
 20
11.372352
 30
0.000000
 11
10.865600
 21
11.275889
 31
0.000000
  0
LINE
  8
Layer 1
 62
     7
  6
CONTINUOUS
 10
10.865600
 20
11.275889
 30
0.000000
 11
10.949761
 21
11.138742
 31
0.000000
  0
LINE
  8
Layer 1
 62
     7
  6
CONTINUOUS
 10
10.949761
 20
11.138742
 30
0.000000
 11
11.052639
 21
11.000658
 31
0.000000
  0
LINE
  8
Layer 1
 62
     7
  6
CONTINUOUS
 10
11.052639
 20
11.000658
 30
0.000000
 11
11.115340
 21
10.923029
 31
0.000000
  0
LINE
  8
Layer 1
 62
     7
  6
CONTINUOUS
 10
11.115340
 20
10.923029
 30
0.000000
 11
11.143689
 21
10.875281
 31
0.000000
  0
LINE
  8
Layer 1
 62
     7
  6
CONTINUOUS
 10
11.143689
 20
10.875281
 30
0.000000
 11
11.142518
 21
10.843230
 31
0.000000
  0
LINE
  8
Layer 1
 62
     7
  6
CONTINUOUS
 10
11.142518
 20
10.843230
 30
0.000000
 11
11.116656
 21
10.812690
 31
0.000000
  0
LINE
  8
Layer 1
 62
     7
  6
CONTINUOUS
 10
11.116656
 20
10.812690
 30
0.000000
 11
11.028620
 21
10.751843
 31
0.000000
  0
LINE
  8
Layer 1
 62
     7
  6
CONTINUOUS
 10
11.028620
 20
10.751843
 30
0.000000
 11
10.911542
 21
10.701406
 31
0.000000
  0
LINE
  8
Layer 1
 62
     7
  6
CONTINUOUS
 10
10.911542
 20
10.701406
 30
0.000000
 11
10.781810
 21
10.667013
 31
0.000000
  0
LINE
  8
Layer 1
 62
     7
  6
CONTINUOUS
 10
10.781810
 20
10.667013
 30
0.000000
 11
10.655815
 21
10.654297
 31
0.000000
  0
LINE
  8
Layer 1
 62
     7
  6
CONTINUOUS
 10
10.655815
 20
10.654297
 30
0.000000
 11
10.576952
 21
10.656314
 31
0.000000
  0
LINE
  8
Layer 1
 62
     7
  6
CONTINUOUS
 10
10.576952
 20
10.656314
 30
0.000000
 11
10.532955
 21
10.664486
 31
0.000000
  0
LINE
  8
Layer 1
 62
     7
  6
CONTINUOUS
 10
10.532955
 20
10.664486
 30
0.000000
 11
10.516317
 21
10.681993
 31
0.000000
  0
LINE
  8
Layer 1
 62
     7
  6
CONTINUOUS
 10
10.516317
 20
10.681993
 30
0.000000
 11
10.519527
 21
10.712015
 31
0.000000
  0
LINE
  8
Layer 1
 62
     7
  6
CONTINUOUS
 10
11.223805
 20
11.137807
 30
0.000000
 11
11.142972
 21
11.251771
 31
0.000000
  0
LINE
  8
Layer 1
 62
     7
  6
CONTINUOUS
 10
11.142972
 20
11.251771
 30
0.000000
 11
11.045719
 21
11.412183
 31
0.000000
  0
LINE
  8
Layer 1
 62
     7
  6
CONTINUOUS
 10
11.045719
 20
11.412183
 30
0.000000
 11
10.963962
 21
11.563468
 31
0.000000
  0
LINE
  8
Layer 1
 62
     7
  6
CONTINUOUS
 10
10.963962
 20
11.563468
 30
0.000000
 11
10.929617
 21
11.650052
 31
0.000000
  0
LINE
  8
Layer 1
 62
     7
  6
CONTINUOUS
 10
10.929617
 20
11.650052
 30
0.000000
 11
10.959642
 21
11.668893
 31
0.000000
  0
LINE
  8
Layer 1
 62
     7
  6
CONTINUOUS
 10
10.959642
 20
11.668893
 30
0.000000
 11
11.031831
 21
11.676729
 31
0.000000
  0
LINE
  8
Layer 1
 62
     7
  6
CONTINUOUS
 10
11.031831
 20
11.676729
 30
0.000000
 11
11.158930
 21
11.695539
 31
0.000000
  0
LINE
  8
Layer 1
 62
     7
  6
CONTINUOUS
 10
11.158930
 20
11.695539
 30
0.000000
 11
11.320974
 21
11.740761
 31
0.000000
  0
LINE
  8
Layer 1
 62
     7
  6
CONTINUOUS
 10
11.320974
 20
11.740761
 30
0.000000
 11
11.507902
 21
11.804794
 31
0.000000
  0
LINE
  8
Layer 1
 62
     7
  6
CONTINUOUS
 10
11.507902
 20
11.804794
 30
0.000000
 11
11.652281
 21
11.724271
 31
0.000000
  0
LINE
  8
Layer 1
 62
     7
  6
CONTINUOUS
 10
11.652281
 20
11.724271
 30
0.000000
 11
11.790618
 21
11.666569
 31
0.000000
  0
LINE
  8
Layer 1
 62
     7
  6
CONTINUOUS
 10
11.790618
 20
11.666569
 30
0.000000
 11
11.919720
 21
11.643747
 31
0.000000
  0
LINE
  8
Layer 1
 62
     7
  6
CONTINUOUS
 10
11.919720
 20
11.643747
 30
0.000000
 11
11.975640
 21
11.640598
 31
0.000000
  0
LINE
  8
Layer 1
 62
     7
  6
CONTINUOUS
 10
11.975640
 20
11.640598
 30
0.000000
 11
12.012406
 21
11.629930
 31
0.000000
  0
LINE
  8
Layer 1
 62
     7
  6
CONTINUOUS
 10
12.012406
 20
11.629930
 30
0.000000
 11
12.029329
 21
11.609912
 31
0.000000
  0
LINE
  8
Layer 1
 62
     7
  6
CONTINUOUS
 10
12.029329
 20
11.609912
 30
0.000000
 11
12.025718
 21
11.578713
 31
0.000000
  0
LINE
  8
Layer 1
 62
     7
  6
CONTINUOUS
 10
12.025718
 20
11.578713
 30
0.000000
 11
12.000881
 21
11.534504
 31
0.000000
  0
LINE
  8
Layer 1
 62
     7
  6
CONTINUOUS
 10
12.000881
 20
11.534504
 30
0.000000
 11
11.954129
 21
11.475452
 31
0.000000
  0
LINE
  8
Layer 1
 62
     7
  6
CONTINUOUS
 10
11.954129
 20
11.475452
 30
0.000000
 11
11.792116
 21
11.305498
 31
0.000000
  0
LINE
  8
Layer 1
 62
     7
  6
CONTINUOUS
 10
11.792116
 20
11.305498
 30
0.000000
 11
11.669157
 21
11.187347
 31
0.000000
  0
LINE
  8
Layer 1
 62
     7
  6
CONTINUOUS
 10
11.669157
 20
11.187347
 30
0.000000
 11
11.579896
 21
11.114961
 31
0.000000
  0
LINE
  8
Layer 1
 62
     7
  6
CONTINUOUS
 10
11.579896
 20
11.114961
 30
0.000000
 11
11.506844
 21
11.076385
 31
0.000000
  0
LINE
  8
Layer 1
 62
     7
  6
CONTINUOUS
 10
11.506844
 20
11.076385
 30
0.000000
 11
11.432515
 21
11.059665
 31
0.000000
  0
LINE
  8
Layer 1
 62
     7
  6
CONTINUOUS
 10
11.432515
 20
11.059665
 30
0.000000
 11
11.362654
 21
11.054720
 31
0.000000
  0
LINE
  8
Layer 1
 62
     7
  6
CONTINUOUS
 10
11.362654
 20
11.054720
 30
0.000000
 11
11.312531
 21
11.063119
 31
0.000000
  0
LINE
  8
Layer 1
 62
     7
  6
CONTINUOUS
 10
11.312531
 20
11.063119
 30
0.000000
 11
11.270222
 21
11.089327
 31
0.000000
  0
LINE
  8
Layer 1
 62
     7
  6
CONTINUOUS
 10
11.270222
 20
11.089327
 30
0.000000
 11
11.223805
 21
11.137807
 31
0.000000
  0
LINE
  8
Layer 1
 62
     7
  6
CONTINUOUS
 10
7.813077
 20
11.275359
 30
0.000000
 11
7.816923
 21
11.343616
 31
0.000000
  0
LINE
  8
Layer 1
 62
     7
  6
CONTINUOUS
 10
7.816923
 20
11.343616
 30
0.000000
 11
7.830529
 21
11.396570
 31
0.000000
  0
LINE
  8
Layer 1
 62
     7
  6
CONTINUOUS
 10
7.830529
 20
11.396570
 30
0.000000
 11
7.857000
 21
11.441827
 31
0.000000
  0
LINE
  8
Layer 1
 62
     7
  6
CONTINUOUS
 10
7.857000
 20
11.441827
 30
0.000000
 11
7.899440
 21
11.486993
 31
0.000000
  0
LINE
  8
Layer 1
 62
     7
  6
CONTINUOUS
 10
7.899440
 20
11.486993
 30
0.000000
 11
8.053072
 21
11.609565
 31
0.000000
  0
LINE
  8
Layer 1
 62
     7
  6
CONTINUOUS
 10
8.053072
 20
11.609565
 30
0.000000
 11
8.266669
 21
11.761354
 31
0.000000
  0
LINE
  8
Layer 1
 62
     7
  6
CONTINUOUS
 10
8.266669
 20
11.761354
 30
0.000000
 11
8.459385
 21
11.887130
 31
0.000000
  0
LINE
  8
Layer 1
 62
     7
  6
CONTINUOUS
 10
8.459385
 20
11.887130
 30
0.000000
 11
8.522647
 21
11.923004
 31
0.000000
  0
LINE
  8
Layer 1
 62
     7
  6
CONTINUOUS
 10
8.522647
 20
11.923004
 30
0.000000
 11
8.550371
 21
11.931664
 31
0.000000
  0
LINE
  8
Layer 1
 62
     7
  6
CONTINUOUS
 10
8.550371
 20
11.931664
 30
0.000000
 11
8.496074
 21
11.861288
 31
0.000000
  0
LINE
  8
Layer 1
 62
     7
  6
CONTINUOUS
 10
8.496074
 20
11.861288
 30
0.000000
 11
8.344112
 21
11.715662
 31
0.000000
  0
LINE
  8
Layer 1
 62
     7
  6
CONTINUOUS
 10
8.344112
 20
11.715662
 30
0.000000
 11
8.142208
 21
11.520220
 31
0.000000
  0
LINE
  8
Layer 1
 62
     7
  6
CONTINUOUS
 10
8.142208
 20
11.520220
 30
0.000000
 11
7.967838
 21
11.330077
 31
0.000000
  0
LINE
  8
Layer 1
 62
     7
  6
CONTINUOUS
 10
7.967838
 20
11.330077
 30
0.000000
 11
7.813077
 21
11.143706
 31
0.000000
  0
LINE
  8
Layer 1
 62
     7
  6
CONTINUOUS
 10
7.813077
 20
11.143706
 30
0.000000
 11
7.813077
 21
11.275359
 31
0.000000
  0
LINE
  8
Layer 1
 62
     7
  6
CONTINUOUS
 10
19.215418
 20
11.274420
 30
0.000000
 11
18.885784
 21
11.500229
 31
0.000000
  0
LINE
  8
Layer 1
 62
     7
  6
CONTINUOUS
 10
18.885784
 20
11.500229
 30
0.000000
 11
18.531199
 21
11.756543
 31
0.000000
  0
LINE
  8
Layer 1
 62
     7
  6
CONTINUOUS
 10
18.531199
 20
11.756543
 30
0.000000
 11
18.195004
 21
11.980670
 31
0.000000
  0
LINE
  8
Layer 1
 62
     7
  6
CONTINUOUS
 10
18.195004
 20
11.980670
 30
0.000000
 11
17.875984
 21
12.173212
 31
0.000000
  0
LINE
  8
Layer 1
 62
     7
  6
CONTINUOUS
 10
17.875984
 20
12.173212
 30
0.000000
 11
17.572923
 21
12.334771
 31
0.000000
  0
LINE
  8
Layer 1
 62
     7
  6
CONTINUOUS
 10
17.572923
 20
12.334771
 30
0.000000
 11
17.284603
 21
12.465950
 31
0.000000
  0
LINE
  8
Layer 1
 62
     7
  6
CONTINUOUS
 10
17.284603
 20
12.465950
 30
0.000000
 11
17.009810
 21
12.567350
 31
0.000000
  0
LINE
  8
Layer 1
 62
     7
  6
CONTINUOUS
 10
17.009810
 20
12.567350
 30
0.000000
 11
16.747327
 21
12.639573
 31
0.000000
  0
LINE
  8
Layer 1
 62
     7
  6
CONTINUOUS
 10
16.747327
 20
12.639573
 30
0.000000
 11
16.495937
 21
12.683222
 31
0.000000
  0
LINE
  8
Layer 1
 62
     7
  6
CONTINUOUS
 10
16.495937
 20
12.683222
 30
0.000000
 11
16.405265
 21
12.696473
 31
0.000000
  0
LINE
  8
Layer 1
 62
     7
  6
CONTINUOUS
 10
16.405265
 20
12.696473
 30
0.000000
 11
16.353052
 21
12.712666
 31
0.000000
  0
LINE
  8
Layer 1
 62
     7
  6
CONTINUOUS
 10
16.353052
 20
12.712666
 30
0.000000
 11
16.329090
 21
12.737267
 31
0.000000
  0
LINE
  8
Layer 1
 62
     7
  6
CONTINUOUS
 10
16.329090
 20
12.737267
 30
0.000000
 11
16.323170
 21
12.775743
 31
0.000000
  0
LINE
  8
Layer 1
 62
     7
  6
CONTINUOUS
 10
16.323170
 20
12.775743
 30
0.000000
 11
16.316378
 21
12.837137
 31
0.000000
  0
LINE
  8
Layer 1
 62
     7
  6
CONTINUOUS
 10
16.316378
 20
12.837137
 30
0.000000
 11
16.300695
 21
12.883869
 31
0.000000
  0
LINE
  8
Layer 1
 62
     7
  6
CONTINUOUS
 10
16.300695
 20
12.883869
 30
0.000000
 11
16.260879
 21
12.926955
 31
0.000000
  0
LINE
  8
Layer 1
 62
     7
  6
CONTINUOUS
 10
16.260879
 20
12.926955
 30
0.000000
 11
16.205660
 21
12.960645
 31
0.000000
  0
LINE
  8
Layer 1
 62
     7
  6
CONTINUOUS
 10
16.205660
 20
12.960645
 30
0.000000
 11
16.148046
 21
12.978944
 31
0.000000
  0
LINE
  8
Layer 1
 62
     7
  6
CONTINUOUS
 10
16.148046
 20
12.978944
 30
0.000000
 11
16.101049
 21
12.975859
 31
0.000000
  0
LINE
  8
Layer 1
 62
     7
  6
CONTINUOUS
 10
16.101049
 20
12.975859
 30
0.000000
 11
16.067770
 21
12.972235
 31
0.000000
  0
LINE
  8
Layer 1
 62
     7
  6
CONTINUOUS
 10
16.067770
 20
12.972235
 30
0.000000
 11
16.053928
 21
12.991470
 31
0.000000
  0
LINE
  8
Layer 1
 62
     7
  6
CONTINUOUS
 10
16.053928
 20
12.991470
 30
0.000000
 11
16.065160
 21
13.008842
 31
0.000000
  0
LINE
  8
Layer 1
 62
     7
  6
CONTINUOUS
 10
16.065160
 20
13.008842
 30
0.000000
 11
16.095741
 21
13.029891
 31
0.000000
  0
LINE
  8
Layer 1
 62
     7
  6
CONTINUOUS
 10
16.095741
 20
13.029891
 30
0.000000
 11
16.196270
 21
13.072396
 31
0.000000
  0
LINE
  8
Layer 1
 62
     7
  6
CONTINUOUS
 10
16.196270
 20
13.072396
 30
0.000000
 11
16.294409
 21
13.116397
 31
0.000000
  0
LINE
  8
Layer 1
 62
     7
  6
CONTINUOUS
 10
16.294409
 20
13.116397
 30
0.000000
 11
16.361603
 21
13.177612
 31
0.000000
  0
LINE
  8
Layer 1
 62
     7
  6
CONTINUOUS
 10
16.361603
 20
13.177612
 30
0.000000
 11
16.400334
 21
13.259393
 31
0.000000
  0
LINE
  8
Layer 1
 62
     7
  6
CONTINUOUS
 10
16.400334
 20
13.259393
 30
0.000000
 11
16.413087
 21
13.365094
 31
0.000000
  0
LINE
  8
Layer 1
 62
     7
  6
CONTINUOUS
 10
16.413087
 20
13.365094
 30
0.000000
 11
16.420789
 21
13.432803
 31
0.000000
  0
LINE
  8
Layer 1
 62
     7
  6
CONTINUOUS
 10
16.420789
 20
13.432803
 30
0.000000
 11
16.438686
 21
13.470960
 31
0.000000
  0
LINE
  8
Layer 1
 62
     7
  6
CONTINUOUS
 10
16.438686
 20
13.470960
 30
0.000000
 11
16.465977
 21
13.466465
 31
0.000000
  0
LINE
  8
Layer 1
 62
     7
  6
CONTINUOUS
 10
16.465977
 20
13.466465
 30
0.000000
 11
16.521687
 21
13.441578
 31
0.000000
  0
LINE
  8
Layer 1
 62
     7
  6
CONTINUOUS
 10
16.521687
 20
13.441578
 30
0.000000
 11
16.685912
 21
13.346905
 31
0.000000
  0
LINE
  8
Layer 1
 62
     7
  6
CONTINUOUS
 10
16.685912
 20
13.346905
 30
0.000000
 11
17.447381
 21
12.869416
 31
0.000000
  0
LINE
  8
Layer 1
 62
     7
  6
CONTINUOUS
 10
17.447381
 20
12.869416
 30
0.000000
 11
17.706653
 21
12.702027
 31
0.000000
  0
LINE
  8
Layer 1
 62
     7
  6
CONTINUOUS
 10
17.706653
 20
12.702027
 30
0.000000
 11
17.964210
 21
12.524498
 31
0.000000
  0
LINE
  8
Layer 1
 62
     7
  6
CONTINUOUS
 10
17.964210
 20
12.524498
 30
0.000000
 11
18.465726
 21
12.145793
 31
0.000000
  0
LINE
  8
Layer 1
 62
     7
  6
CONTINUOUS
 10
18.465726
 20
12.145793
 30
0.000000
 11
18.935018
 21
11.746845
 31
0.000000
  0
LINE
  8
Layer 1
 62
     7
  6
CONTINUOUS
 10
18.935018
 20
11.746845
 30
0.000000
 11
19.152294
 21
11.544015
 31
0.000000
  0
LINE
  8
Layer 1
 62
     7
  6
CONTINUOUS
 10
19.152294
 20
11.544015
 30
0.000000
 11
19.355172
 21
11.341204
 31
0.000000
  0
LINE
  8
Layer 1
 62
     7
  6
CONTINUOUS
 10
19.355172
 20
11.341204
 30
0.000000
 11
19.436137
 21
11.238113
 31
0.000000
  0
LINE
  8
Layer 1
 62
     7
  6
CONTINUOUS
 10
19.436137
 20
11.238113
 30
0.000000
 11
19.445219
 21
11.207008
 31
0.000000
  0
LINE
  8
Layer 1
 62
     7
  6
CONTINUOUS
 10
19.445219
 20
11.207008
 30
0.000000
 11
19.434661
 21
11.190147
 31
0.000000
  0
LINE
  8
Layer 1
 62
     7
  6
CONTINUOUS
 10
19.434661
 20
11.190147
 30
0.000000
 11
19.405432
 21
11.187995
 31
0.000000
  0
LINE
  8
Layer 1
 62
     7
  6
CONTINUOUS
 10
19.405432
 20
11.187995
 30
0.000000
 11
19.358503
 21
11.201014
 31
0.000000
  0
LINE
  8
Layer 1
 62
     7
  6
CONTINUOUS
 10
19.358503
 20
11.201014
 30
0.000000
 11
19.215418
 21
11.274420
 31
0.000000
  0
LINE
  8
Layer 1
 62
     7
  6
CONTINUOUS
 10
10.053090
 20
11.694607
 30
0.000000
 11
9.952561
 21
11.736426
 31
0.000000
  0
LINE
  8
Layer 1
 62
     7
  6
CONTINUOUS
 10
9.952561
 20
11.736426
 30
0.000000
 11
9.910748
 21
11.766642
 31
0.000000
  0
LINE
  8
Layer 1
 62
     7
  6
CONTINUOUS
 10
9.910748
 20
11.766642
 30
0.000000
 11
9.952298
 21
11.822387
 31
0.000000
  0
LINE
  8
Layer 1
 62
     7
  6
CONTINUOUS
 10
9.952298
 20
11.822387
 30
0.000000
 11
10.052192
 21
11.925583
 31
0.000000
  0
LINE
  8
Layer 1
 62
     7
  6
CONTINUOUS
 10
10.052192
 20
11.925583
 30
0.000000
 11
10.193637
 21
12.062570
 31
0.000000
  0
LINE
  8
Layer 1
 62
     7
  6
CONTINUOUS
 10
10.193637
 20
12.062570
 30
0.000000
 11
10.335462
 21
11.943858
 31
0.000000
  0
LINE
  8
Layer 1
 62
     7
  6
CONTINUOUS
 10
10.335462
 20
11.943858
 30
0.000000
 11
10.546127
 21
11.770771
 31
0.000000
  0
LINE
  8
Layer 1
 62
     7
  6
CONTINUOUS
 10
10.546127
 20
11.770771
 30
0.000000
 11
10.590050
 21
11.727027
 31
0.000000
  0
LINE
  8
Layer 1
 62
     7
  6
CONTINUOUS
 10
10.590050
 20
11.727027
 30
0.000000
 11
10.598986
 21
11.698213
 31
0.000000
  0
LINE
  8
Layer 1
 62
     7
  6
CONTINUOUS
 10
10.598986
 20
11.698213
 30
0.000000
 11
10.568826
 21
11.682234
 31
0.000000
  0
LINE
  8
Layer 1
 62
     7
  6
CONTINUOUS
 10
10.568826
 20
11.682234
 30
0.000000
 11
10.514621
 21
11.670605
 31
0.000000
  0
LINE
  8
Layer 1
 62
     7
  6
CONTINUOUS
 10
10.514621
 20
11.670605
 30
0.000000
 11
10.360406
 21
11.660570
 31
0.000000
  0
LINE
  8
Layer 1
 62
     7
  6
CONTINUOUS
 10
10.360406
 20
11.660570
 30
0.000000
 11
10.189007
 21
11.668454
 31
0.000000
  0
LINE
  8
Layer 1
 62
     7
  6
CONTINUOUS
 10
10.189007
 20
11.668454
 30
0.000000
 11
10.053090
 21
11.694607
 31
0.000000
  0
LINE
  8
Layer 1
 62
     7
  6
CONTINUOUS
 10
11.840462
 20
11.855029
 30
0.000000
 11
11.783768
 21
11.896454
 31
0.000000
  0
LINE
  8
Layer 1
 62
     7
  6
CONTINUOUS
 10
11.783768
 20
11.896454
 30
0.000000
 11
11.740342
 21
11.952125
 31
0.000000
  0
LINE
  8
Layer 1
 62
     7
  6
CONTINUOUS
 10
11.740342
 20
11.952125
 30
0.000000
 11
11.718618
 21
12.007653
 31
0.000000
  0
LINE
  8
Layer 1
 62
     7
  6
CONTINUOUS
 10
11.718618
 20
12.007653
 30
0.000000
 11
11.718528
 21
12.030865
 31
0.000000
  0
LINE
  8
Layer 1
 62
     7
  6
CONTINUOUS
 10
11.718528
 20
12.030865
 30
0.000000
 11
11.727025
 21
12.048645
 31
0.000000
  0
LINE
  8
Layer 1
 62
     7
  6
CONTINUOUS
 10
11.727025
 20
12.048645
 30
0.000000
 11
11.788968
 21
12.049708
 31
0.000000
  0
LINE
  8
Layer 1
 62
     7
  6
CONTINUOUS
 10
11.788968
 20
12.049708
 30
0.000000
 11
11.921389
 21
12.034097
 31
0.000000
  0
LINE
  8
Layer 1
 62
     7
  6
CONTINUOUS
 10
11.921389
 20
12.034097
 30
0.000000
 11
12.100185
 21
12.023168
 31
0.000000
  0
LINE
  8
Layer 1
 62
     7
  6
CONTINUOUS
 10
12.100185
 20
12.023168
 30
0.000000
 11
12.273467
 21
12.036182
 31
0.000000
  0
LINE
  8
Layer 1
 62
     7
  6
CONTINUOUS
 10
12.273467
 20
12.036182
 30
0.000000
 11
12.396858
 21
12.053177
 31
0.000000
  0
LINE
  8
Layer 1
 62
     7
  6
CONTINUOUS
 10
12.396858
 20
12.053177
 30
0.000000
 11
12.455541
 21
12.052511
 31
0.000000
  0
LINE
  8
Layer 1
 62
     7
  6
CONTINUOUS
 10
12.455541
 20
12.052511
 30
0.000000
 11
12.457640
 21
12.036742
 31
0.000000
  0
LINE
  8
Layer 1
 62
     7
  6
CONTINUOUS
 10
12.457640
 20
12.036742
 30
0.000000
 11
12.445625
 21
12.012811
 31
0.000000
  0
LINE
  8
Layer 1
 62
     7
  6
CONTINUOUS
 10
12.445625
 20
12.012811
 30
0.000000
 11
12.391734
 21
11.952161
 31
0.000000
  0
LINE
  8
Layer 1
 62
     7
  6
CONTINUOUS
 10
12.391734
 20
11.952161
 30
0.000000
 11
12.318833
 21
11.893959
 31
0.000000
  0
LINE
  8
Layer 1
 62
     7
  6
CONTINUOUS
 10
12.318833
 20
11.893959
 30
0.000000
 11
12.251882
 21
11.861605
 31
0.000000
  0
LINE
  8
Layer 1
 62
     7
  6
CONTINUOUS
 10
12.251882
 20
11.861605
 30
0.000000
 11
12.104742
 21
11.834807
 31
0.000000
  0
LINE
  8
Layer 1
 62
     7
  6
CONTINUOUS
 10
12.104742
 20
11.834807
 30
0.000000
 11
11.994102
 21
11.824890
 31
0.000000
  0
LINE
  8
Layer 1
 62
     7
  6
CONTINUOUS
 10
11.994102
 20
11.824890
 30
0.000000
 11
11.909496
 21
11.831687
 31
0.000000
  0
LINE
  8
Layer 1
 62
     7
  6
CONTINUOUS
 10
11.909496
 20
11.831687
 30
0.000000
 11
11.840462
 21
11.855029
 31
0.000000
  0
LINE
  8
Layer 1
 62
     7
  6
CONTINUOUS
 10
8.082778
 20
11.871606
 30
0.000000
 11
8.135085
 21
11.925557
 31
0.000000
  0
LINE
  8
Layer 1
 62
     7
  6
CONTINUOUS
 10
8.135085
 20
11.925557
 30
0.000000
 11
8.282843
 21
12.029744
 31
0.000000
  0
LINE
  8
Layer 1
 62
     7
  6
CONTINUOUS
 10
8.282843
 20
12.029744
 30
0.000000
 11
8.809729
 21
12.352461
 31
0.000000
  0
LINE
  8
Layer 1
 62
     7
  6
CONTINUOUS
 10
8.809729
 20
12.352461
 30
0.000000
 11
9.025121
 21
12.469029
 31
0.000000
  0
LINE
  8
Layer 1
 62
     7
  6
CONTINUOUS
 10
9.025121
 20
12.469029
 30
0.000000
 11
9.152997
 21
12.521932
 31
0.000000
  0
LINE
  8
Layer 1
 62
     7
  6
CONTINUOUS
 10
9.152997
 20
12.521932
 30
0.000000
 11
9.176889
 21
12.522699
 31
0.000000
  0
LINE
  8
Layer 1
 62
     7
  6
CONTINUOUS
 10
9.176889
 20
12.522699
 30
0.000000
 11
9.170228
 21
12.505377
 31
0.000000
  0
LINE
  8
Layer 1
 62
     7
  6
CONTINUOUS
 10
9.170228
 20
12.505377
 30
0.000000
 11
9.053684
 21
12.413570
 31
0.000000
  0
LINE
  8
Layer 1
 62
     7
  6
CONTINUOUS
 10
9.053684
 20
12.413570
 30
0.000000
 11
8.801079
 21
12.255201
 31
0.000000
  0
LINE
  8
Layer 1
 62
     7
  6
CONTINUOUS
 10
8.801079
 20
12.255201
 30
0.000000
 11
8.478541
 21
12.069371
 31
0.000000
  0
LINE
  8
Layer 1
 62
     7
  6
CONTINUOUS
 10
8.478541
 20
12.069371
 30
0.000000
 11
8.200848
 21
11.920150
 31
0.000000
  0
LINE
  8
Layer 1
 62
     7
  6
CONTINUOUS
 10
8.200848
 20
11.920150
 30
0.000000
 11
8.114686
 21
11.879289
 31
0.000000
  0
LINE
  8
Layer 1
 62
     7
  6
CONTINUOUS
 10
8.114686
 20
11.879289
 30
0.000000
 11
8.082778
 21
11.871606
 31
0.000000
  0
LINE
  8
Layer 1
 62
     7
  6
CONTINUOUS
 10
9.513689
 20
11.943224
 30
0.000000
 11
9.476652
 21
11.985111
 31
0.000000
  0
LINE
  8
Layer 1
 62
     7
  6
CONTINUOUS
 10
9.476652
 20
11.985111
 30
0.000000
 11
9.461247
 21
12.038609
 31
0.000000
  0
LINE
  8
Layer 1
 62
     7
  6
CONTINUOUS
 10
9.461247
 20
12.038609
 30
0.000000
 11
9.473721
 21
12.072868
 31
0.000000
  0
LINE
  8
Layer 1
 62
     7
  6
CONTINUOUS
 10
9.473721
 20
12.072868
 30
0.000000
 11
9.507138
 21
12.122815
 31
0.000000
  0
LINE
  8
Layer 1
 62
     7
  6
CONTINUOUS
 10
9.507138
 20
12.122815
 30
0.000000
 11
9.612780
 21
12.244802
 31
0.000000
  0
LINE
  8
Layer 1
 62
     7
  6
CONTINUOUS
 10
9.612780
 20
12.244802
 30
0.000000
 11
9.730125
 21
12.354621
 31
0.000000
  0
LINE
  8
Layer 1
 62
     7
  6
CONTINUOUS
 10
9.730125
 20
12.354621
 30
0.000000
 11
9.778173
 21
12.389359
 31
0.000000
  0
LINE
  8
Layer 1
 62
     7
  6
CONTINUOUS
 10
9.778173
 20
12.389359
 30
0.000000
 11
9.811129
 21
12.402326
 31
0.000000
  0
LINE
  8
Layer 1
 62
     7
  6
CONTINUOUS
 10
9.811129
 20
12.402326
 30
0.000000
 11
9.875352
 21
12.380496
 31
0.000000
  0
LINE
  8
Layer 1
 62
     7
  6
CONTINUOUS
 10
9.875352
 20
12.380496
 30
0.000000
 11
9.958296
 21
12.329262
 31
0.000000
  0
LINE
  8
Layer 1
 62
     7
  6
CONTINUOUS
 10
9.958296
 20
12.329262
 30
0.000000
 11
10.030020
 21
12.270014
 31
0.000000
  0
LINE
  8
Layer 1
 62
     7
  6
CONTINUOUS
 10
10.030020
 20
12.270014
 30
0.000000
 11
10.060582
 21
12.224139
 31
0.000000
  0
LINE
  8
Layer 1
 62
     7
  6
CONTINUOUS
 10
10.060582
 20
12.224139
 30
0.000000
 11
10.031973
 21
12.165698
 31
0.000000
  0
LINE
  8
Layer 1
 62
     7
  6
CONTINUOUS
 10
10.031973
 20
12.165698
 30
0.000000
 11
9.963190
 21
12.081002
 31
0.000000
  0
LINE
  8
Layer 1
 62
     7
  6
CONTINUOUS
 10
9.963190
 20
12.081002
 30
0.000000
 11
9.846452
 21
11.981467
 31
0.000000
  0
LINE
  8
Layer 1
 62
     7
  6
CONTINUOUS
 10
9.846452
 20
11.981467
 30
0.000000
 11
9.786542
 21
11.947165
 31
0.000000
  0
LINE
  8
Layer 1
 62
     7
  6
CONTINUOUS
 10
9.786542
 20
11.947165
 30
0.000000
 11
9.727007
 21
11.923604
 31
0.000000
  0
LINE
  8
Layer 1
 62
     7
  6
CONTINUOUS
 10
9.727007
 20
11.923604
 30
0.000000
 11
9.668901
 21
11.911106
 31
0.000000
  0
LINE
  8
Layer 1
 62
     7
  6
CONTINUOUS
 10
9.668901
 20
11.911106
 30
0.000000
 11
9.613277
 21
11.909995
 31
0.000000
  0
LINE
  8
Layer 1
 62
     7
  6
CONTINUOUS
 10
9.613277
 20
11.909995
 30
0.000000
 11
9.561189
 21
11.920594
 31
0.000000
  0
LINE
  8
Layer 1
 62
     7
  6
CONTINUOUS
 10
9.561189
 20
11.920594
 30
0.000000
 11
9.513689
 21
11.943224
 31
0.000000
  0
LINE
  8
Layer 1
 62
     7
  6
CONTINUOUS
 10
10.659917
 20
11.951507
 30
0.000000
 11
10.498309
 21
12.055684
 31
0.000000
  0
LINE
  8
Layer 1
 62
     7
  6
CONTINUOUS
 10
10.498309
 20
12.055684
 30
0.000000
 11
10.441988
 21
12.105435
 31
0.000000
  0
LINE
  8
Layer 1
 62
     7
  6
CONTINUOUS
 10
10.441988
 20
12.105435
 30
0.000000
 11
10.420183
 21
12.139370
 31
0.000000
  0
LINE
  8
Layer 1
 62
     7
  6
CONTINUOUS
 10
10.420183
 20
12.139370
 30
0.000000
 11
10.438508
 21
12.149946
 31
0.000000
  0
LINE
  8
Layer 1
 62
     7
  6
CONTINUOUS
 10
10.438508
 20
12.149946
 30
0.000000
 11
10.488404
 21
12.159305
 31
0.000000
  0
LINE
  8
Layer 1
 62
     7
  6
CONTINUOUS
 10
10.488404
 20
12.159305
 30
0.000000
 11
10.652425
 21
12.170311
 31
0.000000
  0
LINE
  8
Layer 1
 62
     7
  6
CONTINUOUS
 10
10.652425
 20
12.170311
 30
0.000000
 11
10.974567
 21
12.178345
 31
0.000000
  0
LINE
  8
Layer 1
 62
     7
  6
CONTINUOUS
 10
10.974567
 20
12.178345
 30
0.000000
 11
11.107595
 21
12.168146
 31
0.000000
  0
LINE
  8
Layer 1
 62
     7
  6
CONTINUOUS
 10
11.107595
 20
12.168146
 30
0.000000
 11
11.301186
 21
12.138869
 31
0.000000
  0
LINE
  8
Layer 1
 62
     7
  6
CONTINUOUS
 10
11.301186
 20
12.138869
 30
0.000000
 11
11.436627
 21
12.113320
 31
0.000000
  0
LINE
  8
Layer 1
 62
     7
  6
CONTINUOUS
 10
11.436627
 20
12.113320
 30
0.000000
 11
11.497476
 21
12.095154
 31
0.000000
  0
LINE
  8
Layer 1
 62
     7
  6
CONTINUOUS
 10
11.497476
 20
12.095154
 30
0.000000
 11
11.504332
 21
12.086133
 31
0.000000
  0
LINE
  8
Layer 1
 62
     7
  6
CONTINUOUS
 10
11.504332
 20
12.086133
 30
0.000000
 11
11.497824
 21
12.075711
 31
0.000000
  0
LINE
  8
Layer 1
 62
     7
  6
CONTINUOUS
 10
11.497824
 20
12.075711
 30
0.000000
 11
11.451765
 21
12.046332
 31
0.000000
  0
LINE
  8
Layer 1
 62
     7
  6
CONTINUOUS
 10
11.451765
 20
12.046332
 30
0.000000
 11
11.360611
 21
12.002162
 31
0.000000
  0
LINE
  8
Layer 1
 62
     7
  6
CONTINUOUS
 10
11.360611
 20
12.002162
 30
0.000000
 11
11.256933
 21
11.965993
 31
0.000000
  0
LINE
  8
Layer 1
 62
     7
  6
CONTINUOUS
 10
11.256933
 20
11.965993
 30
0.000000
 11
11.145875
 21
11.938442
 31
0.000000
  0
LINE
  8
Layer 1
 62
     7
  6
CONTINUOUS
 10
11.145875
 20
11.938442
 30
0.000000
 11
11.032580
 21
11.920124
 31
0.000000
  0
LINE
  8
Layer 1
 62
     7
  6
CONTINUOUS
 10
11.032580
 20
11.920124
 30
0.000000
 11
10.922193
 21
11.911656
 31
0.000000
  0
LINE
  8
Layer 1
 62
     7
  6
CONTINUOUS
 10
10.922193
 20
11.911656
 30
0.000000
 11
10.819857
 21
11.913653
 31
0.000000
  0
LINE
  8
Layer 1
 62
     7
  6
CONTINUOUS
 10
10.819857
 20
11.913653
 30
0.000000
 11
10.730717
 21
11.926731
 31
0.000000
  0
LINE
  8
Layer 1
 62
     7
  6
CONTINUOUS
 10
10.730717
 20
11.926731
 30
0.000000
 11
10.659917
 21
11.951507
 31
0.000000
  0
LINE
  8
Layer 1
 62
     7
  6
CONTINUOUS
 10
8.906863
 20
12.092243
 30
0.000000
 11
9.081236
 21
12.234867
 31
0.000000
  0
LINE
  8
Layer 1
 62
     7
  6
CONTINUOUS
 10
9.081236
 20
12.234867
 30
0.000000
 11
9.323234
 21
12.414365
 31
0.000000
  0
LINE
  8
Layer 1
 62
     7
  6
CONTINUOUS
 10
9.323234
 20
12.414365
 30
0.000000
 11
9.545494
 21
12.568040
 31
0.000000
  0
LINE
  8
Layer 1
 62
     7
  6
CONTINUOUS
 10
9.545494
 20
12.568040
 30
0.000000
 11
9.660652
 21
12.633198
 31
0.000000
  0
LINE
  8
Layer 1
 62
     7
  6
CONTINUOUS
 10
9.660652
 20
12.633198
 30
0.000000
 11
9.684574
 21
12.630229
 31
0.000000
  0
LINE
  8
Layer 1
 62
     7
  6
CONTINUOUS
 10
9.684574
 20
12.630229
 30
0.000000
 11
9.696459
 21
12.620699
 31
0.000000
  0
LINE
  8
Layer 1
 62
     7
  6
CONTINUOUS
 10
9.696459
 20
12.620699
 30
0.000000
 11
9.695649
 21
12.603670
 31
0.000000
  0
LINE
  8
Layer 1
 62
     7
  6
CONTINUOUS
 10
9.695649
 20
12.603670
 30
0.000000
 11
9.681486
 21
12.578204
 31
0.000000
  0
LINE
  8
Layer 1
 62
     7
  6
CONTINUOUS
 10
9.681486
 20
12.578204
 30
0.000000
 11
9.610469
 21
12.498217
 31
0.000000
  0
LINE
  8
Layer 1
 62
     7
  6
CONTINUOUS
 10
9.610469
 20
12.498217
 30
0.000000
 11
9.478146
 21
12.373241
 31
0.000000
  0
LINE
  8
Layer 1
 62
     7
  6
CONTINUOUS
 10
9.478146
 20
12.373241
 30
0.000000
 11
9.304569
 21
12.229401
 31
0.000000
  0
LINE
  8
Layer 1
 62
     7
  6
CONTINUOUS
 10
9.304569
 20
12.229401
 30
0.000000
 11
9.134194
 21
12.113114
 31
0.000000
  0
LINE
  8
Layer 1
 62
     7
  6
CONTINUOUS
 10
9.134194
 20
12.113114
 30
0.000000
 11
8.985482
 21
12.035594
 31
0.000000
  0
LINE
  8
Layer 1
 62
     7
  6
CONTINUOUS
 10
8.985482
 20
12.035594
 30
0.000000
 11
8.925020
 21
12.014876
 31
0.000000
  0
LINE
  8
Layer 1
 62
     7
  6
CONTINUOUS
 10
8.925020
 20
12.014876
 30
0.000000
 11
8.876896
 21
12.008054
 31
0.000000
  0
LINE
  8
Layer 1
 62
     7
  6
CONTINUOUS
 10
8.876896
 20
12.008054
 30
0.000000
 11
8.848515
 21
12.011311
 31
0.000000
  0
LINE
  8
Layer 1
 62
     7
  6
CONTINUOUS
 10
8.848515
 20
12.011311
 30
0.000000
 11
8.842896
 21
12.023191
 31
0.000000
  0
LINE
  8
Layer 1
 62
     7
  6
CONTINUOUS
 10
8.842896
 20
12.023191
 30
0.000000
 11
8.906863
 21
12.092243
 31
0.000000
  0
LINE
  8
Layer 1
 62
     7
  6
CONTINUOUS
 10
11.934020
 20
12.207821
 30
0.000000
 11
11.842701
 21
12.237984
 31
0.000000
  0
LINE
  8
Layer 1
 62
     7
  6
CONTINUOUS
 10
11.842701
 20
12.237984
 30
0.000000
 11
11.790745
 21
12.265910
 31
0.000000
  0
LINE
  8
Layer 1
 62
     7
  6
CONTINUOUS
 10
11.790745
 20
12.265910
 30
0.000000
 11
11.793450
 21
12.284342
 31
0.000000
  0
LINE
  8
Layer 1
 62
     7
  6
CONTINUOUS
 10
11.793450
 20
12.284342
 30
0.000000
 11
11.818504
 21
12.315062
 31
0.000000
  0
LINE
  8
Layer 1
 62
     7
  6
CONTINUOUS
 10
11.818504
 20
12.315062
 30
0.000000
 11
11.918845
 21
12.396257
 31
0.000000
  0
LINE
  8
Layer 1
 62
     7
  6
CONTINUOUS
 10
11.918845
 20
12.396257
 30
0.000000
 11
12.070872
 21
12.500270
 31
0.000000
  0
LINE
  8
Layer 1
 62
     7
  6
CONTINUOUS
 10
12.070872
 20
12.500270
 30
0.000000
 11
12.229361
 21
12.401826
 31
0.000000
  0
LINE
  8
Layer 1
 62
     7
  6
CONTINUOUS
 10
12.229361
 20
12.401826
 30
0.000000
 11
12.355986
 21
12.332299
 31
0.000000
  0
LINE
  8
Layer 1
 62
     7
  6
CONTINUOUS
 10
12.355986
 20
12.332299
 30
0.000000
 11
12.437868
 21
12.303381
 31
0.000000
  0
LINE
  8
Layer 1
 62
     7
  6
CONTINUOUS
 10
12.437868
 20
12.303381
 30
0.000000
 11
12.486429
 21
12.293529
 31
0.000000
  0
LINE
  8
Layer 1
 62
     7
  6
CONTINUOUS
 10
12.486429
 20
12.293529
 30
0.000000
 11
12.490930
 21
12.282992
 31
0.000000
  0
LINE
  8
Layer 1
 62
     7
  6
CONTINUOUS
 10
12.490930
 20
12.282992
 30
0.000000
 11
12.483741
 21
12.270297
 31
0.000000
  0
LINE
  8
Layer 1
 62
     7
  6
CONTINUOUS
 10
12.483741
 20
12.270297
 30
0.000000
 11
12.438781
 21
12.243173
 31
0.000000
  0
LINE
  8
Layer 1
 62
     7
  6
CONTINUOUS
 10
12.438781
 20
12.243173
 30
0.000000
 11
12.360528
 21
12.221647
 31
0.000000
  0
LINE
  8
Layer 1
 62
     7
  6
CONTINUOUS
 10
12.360528
 20
12.221647
 30
0.000000
 11
12.095442
 21
12.186825
 31
0.000000
  0
LINE
  8
Layer 1
 62
     7
  6
CONTINUOUS
 10
12.095442
 20
12.186825
 30
0.000000
 11
12.014177
 21
12.190748
 31
0.000000
  0
LINE
  8
Layer 1
 62
     7
  6
CONTINUOUS
 10
12.014177
 20
12.190748
 30
0.000000
 11
11.934020
 21
12.207821
 31
0.000000
  0
LINE
  8
Layer 1
 62
     7
  6
CONTINUOUS
 10
10.420183
 20
12.334367
 30
0.000000
 11
10.312356
 21
12.369934
 31
0.000000
  0
LINE
  8
Layer 1
 62
     7
  6
CONTINUOUS
 10
10.312356
 20
12.369934
 30
0.000000
 11
10.198336
 21
12.425669
 31
0.000000
  0
LINE
  8
Layer 1
 62
     7
  6
CONTINUOUS
 10
10.198336
 20
12.425669
 30
0.000000
 11
10.096878
 21
12.491031
 31
0.000000
  0
LINE
  8
Layer 1
 62
     7
  6
CONTINUOUS
 10
10.096878
 20
12.491031
 30
0.000000
 11
10.026737
 21
12.555480
 31
0.000000
  0
LINE
  8
Layer 1
 62
     7
  6
CONTINUOUS
 10
10.026737
 20
12.555480
 30
0.000000
 11
9.973714
 21
12.635582
 31
0.000000
  0
LINE
  8
Layer 1
 62
     7
  6
CONTINUOUS
 10
9.973714
 20
12.635582
 30
0.000000
 11
9.926900
 21
12.729983
 31
0.000000
  0
LINE
  8
Layer 1
 62
     7
  6
CONTINUOUS
 10
9.926900
 20
12.729983
 30
0.000000
 11
9.893515
 21
12.821904
 31
0.000000
  0
LINE
  8
Layer 1
 62
     7
  6
CONTINUOUS
 10
9.893515
 20
12.821904
 30
0.000000
 11
9.880781
 21
12.894567
 31
0.000000
  0
LINE
  8
Layer 1
 62
     7
  6
CONTINUOUS
 10
9.880781
 20
12.894567
 30
0.000000
 11
9.888376
 21
12.936482
 31
0.000000
  0
LINE
  8
Layer 1
 62
     7
  6
CONTINUOUS
 10
9.888376
 20
12.936482
 30
0.000000
 11
9.911569
 21
12.972898
 31
0.000000
  0
LINE
  8
Layer 1
 62
     7
  6
CONTINUOUS
 10
9.911569
 20
12.972898
 30
0.000000
 11
9.950975
 21
13.004039
 31
0.000000
  0
LINE
  8
Layer 1
 62
     7
  6
CONTINUOUS
 10
9.950975
 20
13.004039
 30
0.000000
 11
10.007208
 21
13.030129
 31
0.000000
  0
LINE
  8
Layer 1
 62
     7
  6
CONTINUOUS
 10
10.007208
 20
13.030129
 30
0.000000
 11
10.172610
 21
13.068050
 31
0.000000
  0
LINE
  8
Layer 1
 62
     7
  6
CONTINUOUS
 10
10.172610
 20
13.068050
 30
0.000000
 11
10.412691
 21
13.088454
 31
0.000000
  0
LINE
  8
Layer 1
 62
     7
  6
CONTINUOUS
 10
10.412691
 20
13.088454
 30
0.000000
 11
10.650786
 21
13.091908
 31
0.000000
  0
LINE
  8
Layer 1
 62
     7
  6
CONTINUOUS
 10
10.650786
 20
13.091908
 30
0.000000
 11
10.723215
 21
13.087519
 31
0.000000
  0
LINE
  8
Layer 1
 62
     7
  6
CONTINUOUS
 10
10.723215
 20
13.087519
 30
0.000000
 11
10.749817
 21
13.079447
 31
0.000000
  0
LINE
  8
Layer 1
 62
     7
  6
CONTINUOUS
 10
10.749817
 20
13.079447
 30
0.000000
 11
10.686818
 21
12.958277
 31
0.000000
  0
LINE
  8
Layer 1
 62
     7
  6
CONTINUOUS
 10
10.686818
 20
12.958277
 30
0.000000
 11
10.658140
 21
12.904240
 31
0.000000
  0
LINE
  8
Layer 1
 62
     7
  6
CONTINUOUS
 10
10.658140
 20
12.904240
 30
0.000000
 11
10.641457
 21
12.849145
 31
0.000000
  0
LINE
  8
Layer 1
 62
     7
  6
CONTINUOUS
 10
10.641457
 20
12.849145
 30
0.000000
 11
10.636813
 21
12.792796
 31
0.000000
  0
LINE
  8
Layer 1
 62
     7
  6
CONTINUOUS
 10
10.636813
 20
12.792796
 30
0.000000
 11
10.644255
 21
12.734999
 31
0.000000
  0
LINE
  8
Layer 1
 62
     7
  6
CONTINUOUS
 10
10.644255
 20
12.734999
 30
0.000000
 11
10.663826
 21
12.675559
 31
0.000000
  0
LINE
  8
Layer 1
 62
     7
  6
CONTINUOUS
 10
10.663826
 20
12.675559
 30
0.000000
 11
10.695572
 21
12.614279
 31
0.000000
  0
LINE
  8
Layer 1
 62
     7
  6
CONTINUOUS
 10
10.695572
 20
12.614279
 30
0.000000
 11
10.795768
 21
12.485421
 31
0.000000
  0
LINE
  8
Layer 1
 62
     7
  6
CONTINUOUS
 10
10.795768
 20
12.485421
 30
0.000000
 11
10.927786
 21
12.344205
 31
0.000000
  0
LINE
  8
Layer 1
 62
     7
  6
CONTINUOUS
 10
10.927786
 20
12.344205
 30
0.000000
 11
10.835056
 21
12.323793
 31
0.000000
  0
LINE
  8
Layer 1
 62
     7
  6
CONTINUOUS
 10
10.835056
 20
12.323793
 30
0.000000
 11
10.742310
 21
12.310546
 31
0.000000
  0
LINE
  8
Layer 1
 62
     7
  6
CONTINUOUS
 10
10.742310
 20
12.310546
 30
0.000000
 11
10.637910
 21
12.308002
 31
0.000000
  0
LINE
  8
Layer 1
 62
     7
  6
CONTINUOUS
 10
10.637910
 20
12.308002
 30
0.000000
 11
10.528365
 21
12.315998
 31
0.000000
  0
LINE
  8
Layer 1
 62
     7
  6
CONTINUOUS
 10
10.528365
 20
12.315998
 30
0.000000
 11
10.420183
 21
12.334367
 31
0.000000
  0
LINE
  8
Layer 1
 62
     7
  6
CONTINUOUS
 10
11.169351
 20
12.353953
 30
0.000000
 11
11.097754
 21
12.397496
 31
0.000000
  0
LINE
  8
Layer 1
 62
     7
  6
CONTINUOUS
 10
11.097754
 20
12.397496
 30
0.000000
 11
11.025486
 21
12.455626
 31
0.000000
  0
LINE
  8
Layer 1
 62
     7
  6
CONTINUOUS
 10
11.025486
 20
12.455626
 30
0.000000
 11
10.894485
 21
12.595757
 31
0.000000
  0
LINE
  8
Layer 1
 62
     7
  6
CONTINUOUS
 10
10.894485
 20
12.595757
 30
0.000000
 11
10.843525
 21
12.667815
 31
0.000000
  0
LINE
  8
Layer 1
 62
     7
  6
CONTINUOUS
 10
10.843525
 20
12.667815
 30
0.000000
 11
10.807440
 21
12.734571
 31
0.000000
  0
LINE
  8
Layer 1
 62
     7
  6
CONTINUOUS
 10
10.807440
 20
12.734571
 30
0.000000
 11
10.790117
 21
12.791054
 31
0.000000
  0
LINE
  8
Layer 1
 62
     7
  6
CONTINUOUS
 10
10.790117
 20
12.791054
 30
0.000000
 11
10.795442
 21
12.832291
 31
0.000000
  0
LINE
  8
Layer 1
 62
     7
  6
CONTINUOUS
 10
10.795442
 20
12.832291
 30
0.000000
 11
10.818014
 21
12.860927
 31
0.000000
  0
LINE
  8
Layer 1
 62
     7
  6
CONTINUOUS
 10
10.818014
 20
12.860927
 30
0.000000
 11
10.851914
 21
12.887285
 31
0.000000
  0
LINE
  8
Layer 1
 62
     7
  6
CONTINUOUS
 10
10.851914
 20
12.887285
 30
0.000000
 11
10.950923
 21
12.932246
 31
0.000000
  0
LINE
  8
Layer 1
 62
     7
  6
CONTINUOUS
 10
10.950923
 20
12.932246
 30
0.000000
 11
11.086922
 21
12.965333
 31
0.000000
  0
LINE
  8
Layer 1
 62
     7
  6
CONTINUOUS
 10
11.086922
 20
12.965333
 30
0.000000
 11
11.254360
 21
12.984702
 31
0.000000
  0
LINE
  8
Layer 1
 62
     7
  6
CONTINUOUS
 10
11.254360
 20
12.984702
 30
0.000000
 11
11.405072
 21
12.992330
 31
0.000000
  0
LINE
  8
Layer 1
 62
     7
  6
CONTINUOUS
 10
11.405072
 20
12.992330
 30
0.000000
 11
11.501010
 21
12.984798
 31
0.000000
  0
LINE
  8
Layer 1
 62
     7
  6
CONTINUOUS
 10
11.501010
 20
12.984798
 30
0.000000
 11
11.579119
 21
12.953961
 31
0.000000
  0
LINE
  8
Layer 1
 62
     7
  6
CONTINUOUS
 10
11.579119
 20
12.953961
 30
0.000000
 11
11.676343
 21
12.891676
 31
0.000000
  0
LINE
  8
Layer 1
 62
     7
  6
CONTINUOUS
 10
11.676343
 20
12.891676
 30
0.000000
 11
11.808558
 21
12.787750
 31
0.000000
  0
LINE
  8
Layer 1
 62
     7
  6
CONTINUOUS
 10
11.808558
 20
12.787750
 30
0.000000
 11
11.898419
 21
12.692439
 31
0.000000
  0
LINE
  8
Layer 1
 62
     7
  6
CONTINUOUS
 10
11.898419
 20
12.692439
 30
0.000000
 11
11.933868
 21
12.619180
 31
0.000000
  0
LINE
  8
Layer 1
 62
     7
  6
CONTINUOUS
 10
11.933868
 20
12.619180
 30
0.000000
 11
11.934580
 21
12.587905
 31
0.000000
  0
LINE
  8
Layer 1
 62
     7
  6
CONTINUOUS
 10
11.934580
 20
12.587905
 30
0.000000
 11
11.922560
 21
12.557989
 31
0.000000
  0
LINE
  8
Layer 1
 62
     7
  6
CONTINUOUS
 10
11.922560
 20
12.557989
 30
0.000000
 11
11.856156
 21
12.495604
 31
0.000000
  0
LINE
  8
Layer 1
 62
     7
  6
CONTINUOUS
 10
11.856156
 20
12.495604
 30
0.000000
 11
11.726313
 21
12.418761
 31
0.000000
  0
LINE
  8
Layer 1
 62
     7
  6
CONTINUOUS
 10
11.726313
 20
12.418761
 30
0.000000
 11
11.574015
 21
12.353306
 31
0.000000
  0
LINE
  8
Layer 1
 62
     7
  6
CONTINUOUS
 10
11.574015
 20
12.353306
 30
0.000000
 11
11.424546
 21
12.320002
 31
0.000000
  0
LINE
  8
Layer 1
 62
     7
  6
CONTINUOUS
 10
11.424546
 20
12.320002
 30
0.000000
 11
11.286720
 21
12.319876
 31
0.000000
  0
LINE
  8
Layer 1
 62
     7
  6
CONTINUOUS
 10
11.286720
 20
12.319876
 30
0.000000
 11
11.224928
 21
12.332575
 31
0.000000
  0
LINE
  8
Layer 1
 62
     7
  6
CONTINUOUS
 10
11.224928
 20
12.332575
 30
0.000000
 11
11.169351
 21
12.353953
 31
0.000000
  0
LINE
  8
Layer 1
 62
     7
  6
CONTINUOUS
 10
15.318381
 20
13.571677
 30
0.000000
 11
15.271017
 21
13.640832
 31
0.000000
  0
LINE
  8
Layer 1
 62
     7
  6
CONTINUOUS
 10
15.271017
 20
13.640832
 30
0.000000
 11
15.249372
 21
13.711354
 31
0.000000
  0
LINE
  8
Layer 1
 62
     7
  6
CONTINUOUS
 10
15.249372
 20
13.711354
 30
0.000000
 11
15.251127
 21
13.779223
 31
0.000000
  0
LINE
  8
Layer 1
 62
     7
  6
CONTINUOUS
 10
15.251127
 20
13.779223
 30
0.000000
 11
15.273963
 21
13.840420
 31
0.000000
  0
LINE
  8
Layer 1
 62
     7
  6
CONTINUOUS
 10
15.273963
 20
13.840420
 30
0.000000
 11
15.315561
 21
13.890925
 31
0.000000
  0
LINE
  8
Layer 1
 62
     7
  6
CONTINUOUS
 10
15.315561
 20
13.890925
 30
0.000000
 11
15.373605
 21
13.926720
 31
0.000000
  0
LINE
  8
Layer 1
 62
     7
  6
CONTINUOUS
 10
15.373605
 20
13.926720
 30
0.000000
 11
15.445774
 21
13.943785
 31
0.000000
  0
LINE
  8
Layer 1
 62
     7
  6
CONTINUOUS
 10
15.445774
 20
13.943785
 30
0.000000
 11
15.529750
 21
13.938101
 31
0.000000
  0
LINE
  8
Layer 1
 62
     7
  6
CONTINUOUS
 10
15.529750
 20
13.938101
 30
0.000000
 11
15.600707
 21
13.910150
 31
0.000000
  0
LINE
  8
Layer 1
 62
     7
  6
CONTINUOUS
 10
15.600707
 20
13.910150
 30
0.000000
 11
15.658458
 21
13.858269
 31
0.000000
  0
LINE
  8
Layer 1
 62
     7
  6
CONTINUOUS
 10
15.658458
 20
13.858269
 30
0.000000
 11
15.703083
 21
13.782362
 31
0.000000
  0
LINE
  8
Layer 1
 62
     7
  6
CONTINUOUS
 10
15.703083
 20
13.782362
 30
0.000000
 11
15.734660
 21
13.682331
 31
0.000000
  0
LINE
  8
Layer 1
 62
     7
  6
CONTINUOUS
 10
15.734660
 20
13.682331
 30
0.000000
 11
15.741210
 21
13.636829
 31
0.000000
  0
LINE
  8
Layer 1
 62
     7
  6
CONTINUOUS
 10
15.741210
 20
13.636829
 30
0.000000
 11
15.736589
 21
13.601316
 31
0.000000
  0
LINE
  8
Layer 1
 62
     7
  6
CONTINUOUS
 10
15.736589
 20
13.601316
 30
0.000000
 11
15.719285
 21
13.571267
 31
0.000000
  0
LINE
  8
Layer 1
 62
     7
  6
CONTINUOUS
 10
15.719285
 20
13.571267
 30
0.000000
 11
15.687782
 21
13.542159
 31
0.000000
  0
LINE
  8
Layer 1
 62
     7
  6
CONTINUOUS
 10
15.687782
 20
13.542159
 30
0.000000
 11
15.645546
 21
13.516435
 31
0.000000
  0
LINE
  8
Layer 1
 62
     7
  6
CONTINUOUS
 10
15.645546
 20
13.516435
 30
0.000000
 11
15.598307
 21
13.499425
 31
0.000000
  0
LINE
  8
Layer 1
 62
     7
  6
CONTINUOUS
 10
15.598307
 20
13.499425
 30
0.000000
 11
15.496575
 21
13.490925
 31
0.000000
  0
LINE
  8
Layer 1
 62
     7
  6
CONTINUOUS
 10
15.496575
 20
13.490925
 30
0.000000
 11
15.398096
 21
13.515423
 31
0.000000
  0
LINE
  8
Layer 1
 62
     7
  6
CONTINUOUS
 10
15.398096
 20
13.515423
 30
0.000000
 11
15.354924
 21
13.539658
 31
0.000000
  0
LINE
  8
Layer 1
 62
     7
  6
CONTINUOUS
 10
15.354924
 20
13.539658
 30
0.000000
 11
15.318381
 21
13.571677
 31
0.000000
  0
LINE
  8
Layer 1
 62
     7
  6
CONTINUOUS
 10
16.102728
 20
13.956838
 30
0.000000
 11
15.912155
 21
13.995157
 31
0.000000
  0
LINE
  8
Layer 1
 62
     7
  6
CONTINUOUS
 10
15.912155
 20
13.995157
 30
0.000000
 11
15.743128
 21
14.053675
 31
0.000000
  0
LINE
  8
Layer 1
 62
     7
  6
CONTINUOUS
 10
15.743128
 20
14.053675
 30
0.000000
 11
15.654585
 21
14.088223
 31
0.000000
  0
LINE
  8
Layer 1
 62
     7
  6
CONTINUOUS
 10
15.654585
 20
14.088223
 30
0.000000
 11
15.547970
 21
14.115504
 31
0.000000
  0
LINE
  8
Layer 1
 62
     7
  6
CONTINUOUS
 10
15.547970
 20
14.115504
 30
0.000000
 11
15.259810
 21
14.152499
 31
0.000000
  0
LINE
  8
Layer 1
 62
     7
  6
CONTINUOUS
 10
15.259810
 20
14.152499
 30
0.000000
 11
14.990647
 21
14.185221
 31
0.000000
  0
LINE
  8
Layer 1
 62
     7
  6
CONTINUOUS
 10
14.990647
 20
14.185221
 30
0.000000
 11
14.806403
 21
14.227496
 31
0.000000
  0
LINE
  8
Layer 1
 62
     7
  6
CONTINUOUS
 10
14.806403
 20
14.227496
 30
0.000000
 11
14.649713
 21
14.273296
 31
0.000000
  0
LINE
  8
Layer 1
 62
     7
  6
CONTINUOUS
 10
14.649713
 20
14.273296
 30
0.000000
 11
14.446802
 21
14.314496
 31
0.000000
  0
LINE
  8
Layer 1
 62
     7
  6
CONTINUOUS
 10
14.446802
 20
14.314496
 30
0.000000
 11
14.215454
 21
14.360851
 31
0.000000
  0
LINE
  8
Layer 1
 62
     7
  6
CONTINUOUS
 10
14.215454
 20
14.360851
 30
0.000000
 11
13.990396
 21
14.419045
 31
0.000000
  0
LINE
  8
Layer 1
 62
     7
  6
CONTINUOUS
 10
13.990396
 20
14.419045
 30
0.000000
 11
13.866843
 21
14.451357
 31
0.000000
  0
LINE
  8
Layer 1
 62
     7
  6
CONTINUOUS
 10
13.866843
 20
14.451357
 30
0.000000
 11
13.746125
 21
14.470045
 31
0.000000
  0
LINE
  8
Layer 1
 62
     7
  6
CONTINUOUS
 10
13.746125
 20
14.470045
 30
0.000000
 11
13.607827
 21
14.477140
 31
0.000000
  0
LINE
  8
Layer 1
 62
     7
  6
CONTINUOUS
 10
13.607827
 20
14.477140
 30
0.000000
 11
13.431533
 21
14.474675
 31
0.000000
  0
LINE
  8
Layer 1
 62
     7
  6
CONTINUOUS
 10
13.431533
 20
14.474675
 30
0.000000
 11
13.093248
 21
14.463682
 31
0.000000
  0
LINE
  8
Layer 1
 62
     7
  6
CONTINUOUS
 10
13.093248
 20
14.463682
 30
0.000000
 11
13.213784
 21
14.612099
 31
0.000000
  0
LINE
  8
Layer 1
 62
     7
  6
CONTINUOUS
 10
13.213784
 20
14.612099
 30
0.000000
 11
13.412260
 21
14.834697
 31
0.000000
  0
LINE
  8
Layer 1
 62
     7
  6
CONTINUOUS
 10
13.412260
 20
14.834697
 30
0.000000
 11
13.505709
 21
14.918584
 31
0.000000
  0
LINE
  8
Layer 1
 62
     7
  6
CONTINUOUS
 10
13.505709
 20
14.918584
 30
0.000000
 11
13.608988
 21
14.997549
 31
0.000000
  0
LINE
  8
Layer 1
 62
     7
  6
CONTINUOUS
 10
13.608988
 20
14.997549
 30
0.000000
 11
13.741801
 21
15.078177
 31
0.000000
  0
LINE
  8
Layer 1
 62
     7
  6
CONTINUOUS
 10
13.741801
 20
15.078177
 30
0.000000
 11
13.893812
 21
15.145440
 31
0.000000
  0
LINE
  8
Layer 1
 62
     7
  6
CONTINUOUS
 10
13.893812
 20
15.145440
 30
0.000000
 11
14.060478
 21
15.198568
 31
0.000000
  0
LINE
  8
Layer 1
 62
     7
  6
CONTINUOUS
 10
14.060478
 20
15.198568
 30
0.000000
 11
14.237257
 21
15.236794
 31
0.000000
  0
LINE
  8
Layer 1
 62
     7
  6
CONTINUOUS
 10
14.237257
 20
15.236794
 30
0.000000
 11
14.419607
 21
15.259347
 31
0.000000
  0
LINE
  8
Layer 1
 62
     7
  6
CONTINUOUS
 10
14.419607
 20
15.259347
 30
0.000000
 11
14.602985
 21
15.265460
 31
0.000000
  0
LINE
  8
Layer 1
 62
     7
  6
CONTINUOUS
 10
14.602985
 20
15.265460
 30
0.000000
 11
14.782848
 21
15.254364
 31
0.000000
  0
LINE
  8
Layer 1
 62
     7
  6
CONTINUOUS
 10
14.782848
 20
15.254364
 30
0.000000
 11
14.954654
 21
15.225290
 31
0.000000
  0
LINE
  8
Layer 1
 62
     7
  6
CONTINUOUS
 10
14.954654
 20
15.225290
 30
0.000000
 11
15.158878
 21
15.169072
 31
0.000000
  0
LINE
  8
Layer 1
 62
     7
  6
CONTINUOUS
 10
15.158878
 20
15.169072
 30
0.000000
 11
15.393015
 21
15.091789
 31
0.000000
  0
LINE
  8
Layer 1
 62
     7
  6
CONTINUOUS
 10
15.393015
 20
15.091789
 30
0.000000
 11
15.606303
 21
15.011339
 31
0.000000
  0
LINE
  8
Layer 1
 62
     7
  6
CONTINUOUS
 10
15.606303
 20
15.011339
 30
0.000000
 11
15.747981
 21
14.945615
 31
0.000000
  0
LINE
  8
Layer 1
 62
     7
  6
CONTINUOUS
 10
15.747981
 20
14.945615
 30
0.000000
 11
15.837464
 21
14.866475
 31
0.000000
  0
LINE
  8
Layer 1
 62
     7
  6
CONTINUOUS
 10
15.837464
 20
14.866475
 30
0.000000
 11
15.948684
 21
14.731420
 31
0.000000
  0
LINE
  8
Layer 1
 62
     7
  6
CONTINUOUS
 10
15.948684
 20
14.731420
 30
0.000000
 11
16.062037
 21
14.566623
 31
0.000000
  0
LINE
  8
Layer 1
 62
     7
  6
CONTINUOUS
 10
16.062037
 20
14.566623
 30
0.000000
 11
16.157922
 21
14.398259
 31
0.000000
  0
LINE
  8
Layer 1
 62
     7
  6
CONTINUOUS
 10
16.157922
 20
14.398259
 30
0.000000
 11
16.226154
 21
14.249063
 31
0.000000
  0
LINE
  8
Layer 1
 62
     7
  6
CONTINUOUS
 10
16.226154
 20
14.249063
 30
0.000000
 11
16.282345
 21
14.104347
 31
0.000000
  0
LINE
  8
Layer 1
 62
     7
  6
CONTINUOUS
 10
16.282345
 20
14.104347
 30
0.000000
 11
16.316625
 21
13.992141
 31
0.000000
  0
LINE
  8
Layer 1
 62
     7
  6
CONTINUOUS
 10
16.316625
 20
13.992141
 30
0.000000
 11
16.319123
 21
13.940475
 31
0.000000
  0
LINE
  8
Layer 1
 62
     7
  6
CONTINUOUS
 10
16.319123
 20
13.940475
 30
0.000000
 11
16.102728
 21
13.956838
 31
0.000000
  0
ENDSEC
  0
EOF
