  0
SECTION
  2
HEADER
  9
$ACADVER
  1
AC1018
  9
$ACADMAINTVER
 70
     0
  9
$DWGCODEPAGE
  3
ANSI_1252
  9
$INSBASE
 10
0.0
 20
0.0
 30
0.0
  9
$EXTMIN
 10
1.000000000000000E+20
 20
1.000000000000000E+20
 30
1.000000000000000E+20
  9
$EXTMAX
 10
-1.000000000000000E+20
 20
-1.000000000000000E+20
 30
-1.000000000000000E+20
  9
$LIMMIN
 10
0.0
 20
0.0
  9
$LIMMAX
 10
12.0
 20
9.0
  9
$ORTHOMODE
 70
     0
  9
$REGENMODE
 70
     1
  9
$FILLMODE
 70
     1
  9
$QTEXTMODE
 70
     0
  9
$MIRRTEXT
 70
     1
  9
$LTSCALE
 40
1.0
  9
$ATTMODE
 70
     1
  9
$TEXTSIZE
 40
0.2
  9
$TRACEWID
 40
0.05
  9
$TEXTSTYLE
  7
Standard
  9
$CLAYER
  8
0
  9
$CELTYPE
  6
ByLayer
  9
$CECOLOR
 62
   256
  9
$CELTSCALE
 40
1.0
  9
$DISPSILH
 70
     0
  9
$DIMSCALE
 40
1.0
  9
$DIMASZ
 40
0.18
  9
$DIMEXO
 40
0.0625
  9
$DIMDLI
 40
0.38
  9
$DIMRND
 40
0.0
  9
$DIMDLE
 40
0.0
  9
$DIMEXE
 40
0.18
  9
$DIMTP
 40
0.0
  9
$DIMTM
 40
0.0
  9
$DIMTXT
 40
0.18
  9
$DIMCEN
 40
0.09
  9
$DIMTSZ
 40
0.0
  9
$DIMTOL
 70
     0
  9
$DIMLIM
 70
     0
  9
$DIMTIH
 70
     1
  9
$DIMTOH
 70
     1
  9
$DIMSE1
 70
     0
  9
$DIMSE2
 70
     0
  9
$DIMTAD
 70
     0
  9
$DIMZIN
 70
     0
  9
$DIMBLK
  1

  9
$DIMASO
 70
     1
  9
$DIMSHO
 70
     1
  9
$DIMPOST
  1

  9
$DIMAPOST
  1

  9
$DIMALT
 70
     0
  9
$DIMALTD
 70
     2
  9
$DIMALTF
 40
25.4
  9
$DIMLFAC
 40
1.0
  9
$DIMTOFL
 70
     0
  9
$DIMTVP
 40
0.0
  9
$DIMTIX
 70
     0
  9
$DIMSOXD
 70
     0
  9
$DIMSAH
 70
     0
  9
$DIMBLK1
  1

  9
$DIMBLK2
  1

  9
$DIMSTYLE
  2
Standard
  9
$DIMCLRD
 70
     0
  9
$DIMCLRE
 70
     0
  9
$DIMCLRT
 70
     0
  9
$DIMTFAC
 40
1.0
  9
$DIMGAP
 40
0.09
  9
$DIMJUST
 70
     0
  9
$DIMSD1
 70
     0
  9
$DIMSD2
 70
     0
  9
$DIMTOLJ
 70
     1
  9
$DIMTZIN
 70
     0
  9
$DIMALTZ
 70
     0
  9
$DIMALTTZ
 70
     0
  9
$DIMUPT
 70
     0
  9
$DIMDEC
 70
     4
  9
$DIMTDEC
 70
     4
  9
$DIMALTU
 70
     2
  9
$DIMALTTD
 70
     2
  9
$DIMTXSTY
  7
Standard
  9
$DIMAUNIT
 70
     0
  9
$DIMADEC
 70
     0
  9
$DIMALTRND
 40
0.0
  9
$DIMAZIN
 70
     0
  9
$DIMDSEP
 70
    46
  9
$DIMATFIT
 70
     3
  9
$DIMFRAC
 70
     0
  9
$DIMLDRBLK
  1

  9
$DIMLUNIT
 70
     2
  9
$DIMLWD
 70
    -2
  9
$DIMLWE
 70
    -2
  9
$DIMTMOVE
 70
     0
  9
$LUNITS
 70
     2
  9
$LUPREC
 70
     4
  9
$SKETCHINC
 40
0.1
  9
$FILLETRAD
 40
0.5
  9
$AUNITS
 70
     0
  9
$AUPREC
 70
     0
  9
$MENU
  1
.
  9
$ELEVATION
 40
0.0
  9
$PELEVATION
 40
0.0
  9
$THICKNESS
 40
0.0
  9
$LIMCHECK
 70
     0
  9
$CHAMFERA
 40
0.5
  9
$CHAMFERB
 40
0.5
  9
$CHAMFERC
 40
1.0
  9
$CHAMFERD
 40
0.0
  9
$SKPOLY
 70
     0
  9
$TDCREATE
 40
2456304.728114687
  9
$TDUCREATE
 40
2456304.728114687
  9
$TDUPDATE
 40
2456304.728114699
  9
$TDUUPDATE
 40
2456304.728114699
  9
$TDINDWG
 40
0.0000000116
  9
$TDUSRTIMER
 40
0.0000000116
  9
$USRTIMER
 70
     1
  9
$ANGBASE
 50
0.0
  9
$ANGDIR
 70
     0
  9
$PDMODE
 70
     0
  9
$PDSIZE
 40
0.0
  9
$PLINEWID
 40
0.0
  9
$SPLFRAME
 70
     0
  9
$SPLINETYPE
 70
     6
  9
$SPLINESEGS
 70
     8
  9
$HANDSEED
  5
5B
  9
$SURFTAB1
 70
     6
  9
$SURFTAB2
 70
     6
  9
$SURFTYPE
 70
     6
  9
$SURFU
 70
     6
  9
$SURFV
 70
     6
  9
$UCSBASE
  2

  9
$UCSNAME
  2

  9
$UCSORG
 10
0.0
 20
0.0
 30
0.0
  9
$UCSXDIR
 10
1.0
 20
0.0
 30
0.0
  9
$UCSYDIR
 10
0.0
 20
1.0
 30
0.0
  9
$UCSORTHOREF
  2

  9
$UCSORTHOVIEW
 70
     0
  9
$UCSORGTOP
 10
0.0
 20
0.0
 30
0.0
  9
$UCSORGBOTTOM
 10
0.0
 20
0.0
 30
0.0
  9
$UCSORGLEFT
 10
0.0
 20
0.0
 30
0.0
  9
$UCSORGRIGHT
 10
0.0
 20
0.0
 30
0.0
  9
$UCSORGFRONT
 10
0.0
 20
0.0
 30
0.0
  9
$UCSORGBACK
 10
0.0
 20
0.0
 30
0.0
  9
$PUCSBASE
  2

  9
$PUCSNAME
  2

  9
$PUCSORG
 10
0.0
 20
0.0
 30
0.0
  9
$PUCSXDIR
 10
1.0
 20
0.0
 30
0.0
  9
$PUCSYDIR
 10
0.0
 20
1.0
 30
0.0
  9
$PUCSORTHOREF
  2

  9
$PUCSORTHOVIEW
 70
     0
  9
$PUCSORGTOP
 10
0.0
 20
0.0
 30
0.0
  9
$PUCSORGBOTTOM
 10
0.0
 20
0.0
 30
0.0
  9
$PUCSORGLEFT
 10
0.0
 20
0.0
 30
0.0
  9
$PUCSORGRIGHT
 10
0.0
 20
0.0
 30
0.0
  9
$PUCSORGFRONT
 10
0.0
 20
0.0
 30
0.0
  9
$PUCSORGBACK
 10
0.0
 20
0.0
 30
0.0
  9
$USERI1
 70
     0
  9
$USERI2
 70
     0
  9
$USERI3
 70
     0
  9
$USERI4
 70
     0
  9
$USERI5
 70
     0
  9
$USERR1
 40
0.0
  9
$USERR2
 40
0.0
  9
$USERR3
 40
0.0
  9
$USERR4
 40
0.0
  9
$USERR5
 40
0.0
  9
$WORLDVIEW
 70
     1
  9
$SHADEDGE
 70
     3
  9
$SHADEDIF
 70
    70
  9
$TILEMODE
 70
     1
  9
$MAXACTVP
 70
    64
  9
$PINSBASE
 10
0.0
 20
0.0
 30
0.0
  9
$PLIMCHECK
 70
     0
  9
$PEXTMIN
 10
1.000000000000000E+20
 20
1.000000000000000E+20
 30
1.000000000000000E+20
  9
$PEXTMAX
 10
-1.000000000000000E+20
 20
-1.000000000000000E+20
 30
-1.000000000000000E+20
  9
$PLIMMIN
 10
0.0
 20
0.0
  9
$PLIMMAX
 10
12.0
 20
9.0
  9
$UNITMODE
 70
     0
  9
$VISRETAIN
 70
     1
  9
$PLINEGEN
 70
     0
  9
$PSLTSCALE
 70
     1
  9
$TREEDEPTH
 70
  3020
  9
$CMLSTYLE
  2
Standard
  9
$CMLJUST
 70
     0
  9
$CMLSCALE
 40
1.0
  9
$PROXYGRAPHICS
 70
     1
  9
$MEASUREMENT
 70
     0
  9
$CELWEIGHT
370
    -1
  9
$ENDCAPS
280
     0
  9
$JOINSTYLE
280
     0
  9
$LWDISPLAY
290
     1
  9
$INSUNITS
 70
     1
  9
$HYPERLINKBASE
  1

  9
$STYLESHEET
  1

  9
$XEDIT
290
     1
  9
$CEPSNTYPE
380
     0
  9
$PSTYLEMODE
290
     1
  9
$FINGERPRINTGUID
  2
{40E616C8-6657-4722-AF12-84D2AD3B01B1}
  9
$VERSIONGUID
  2
{FAEB1C32-E019-11D5-929B-00C0DF256EC4}
  9
$EXTNAMES
290
     1
  9
$PSVPSCALE
 40
0.0
  9
$OLESTARTUP
290
     0
  9
$SORTENTS
280
   127
  9
$INDEXCTL
280
     0
  9
$HIDETEXT
280
     1
  9
$XCLIPFRAME
290
     0
  9
$HALOGAP
280
     0
  9
$OBSCOLOR
 70
   257
  9
$OBSLTYPE
280
     0
  9
$INTERSECTIONDISPLAY
280
     0
  9
$INTERSECTIONCOLOR
 70
   257
  9
$DIMASSOC
280
     2
  9
$PROJECTNAME
  1

  0
ENDSEC
  0
SECTION
  2
CLASSES
  0
CLASS
  1
ACDBDICTIONARYWDFLT
  2
AcDbDictionaryWithDefault
  3
ObjectDBX Classes
 90
        0
 91
        3
280
     0
281
     0
  0
CLASS
  1
VISUALSTYLE
  2
AcDbVisualStyle
  3
ObjectDBX Classes
 90
     4095
 91
        3
280
     0
281
     0
  0
ENDSEC
  0
SECTION
  2
TABLES
  0
TABLE
  2
VPORT
  5
8
330
0
100
AcDbSymbolTable
 70
     1
  0
VPORT
  5
29
330
8
100
AcDbSymbolTableRecord
100
AcDbViewportTableRecord
  2
*Active
 70
     0
 10
0.0
 20
0.0
 11
1.0
 21
1.0
 12
0.0
 22
0.0
 13
0.0
 23
0.0
 14
0.5
 24
0.5
 15
0.5
 25
0.5
 16
0.0
 26
0.0
 36
1.0
 17
431.999755859375
 27
-360.0
 37
0.0
 40
750.0
 41
0.837208984375
 42
50.0
 43
0.0
 44
0.0
 50
0.0
 51
0.0
 71
     0
 72
   100
 73
     1
 74
     3
 75
     0
 76
     0
 77
     0
 78
     0
281
     0
 65
     1
110
0.0
120
0.0
130
0.0
111
1.0
121
0.0
131
0.0
112
0.0
122
1.0
132
0.0
 79
     0
146
0.0
  0
ENDTAB
  0
TABLE
  2
LTYPE
  5
5
330
0
100
AcDbSymbolTable
 70
     1
  0
LTYPE
  5
14
330
5
100
AcDbSymbolTableRecord
100
AcDbLinetypeTableRecord
  2
ByBlock
 70
     0
  3

 72
    65
 73
     0
 40
0.0
  0
LTYPE
  5
15
330
5
100
AcDbSymbolTableRecord
100
AcDbLinetypeTableRecord
  2
ByLayer
 70
     0
  3

 72
    65
 73
     0
 40
0.0
  0
LTYPE
  5
16
330
5
100
AcDbSymbolTableRecord
100
AcDbLinetypeTableRecord
  2
Continuous
 70
     0
  3
Solid line
 72
    65
 73
     0
 40
0.0
  0
ENDTAB
  0
TABLE
  2
LAYER
  5
2
330
0
100
AcDbSymbolTable
 70
     2
  0
LAYER
  5
10
330
2
100
AcDbSymbolTableRecord
100
AcDbLayerTableRecord
  2
0
 70
     0
 62
     7
  6
Continuous
370
    -3
390
F
  0
LAYER
  5
3B
330
2
100
AcDbSymbolTableRecord
100
AcDbLayerTableRecord
  2
Layer 1
 70
     0
 62
     7
  6
Continuous
370
    -3
390
F
  0
ENDTAB
  0
TABLE
  2
STYLE
  5
3
330
0
100
AcDbSymbolTable
 70
     1
  0
STYLE
  5
11
330
3
100
AcDbSymbolTableRecord
100
AcDbTextStyleTableRecord
  2
Standard
 70
     0
 40
0.0
 41
1.0
 50
0.0
 71
     0
 42
0.2
  3
txt
  4

  0
ENDTAB
  0
TABLE
  2
VIEW
  5
6
330
0
100
AcDbSymbolTable
 70
     0
  0
ENDTAB
  0
TABLE
  2
UCS
  5
7
330
0
100
AcDbSymbolTable
 70
     0
  0
ENDTAB
  0
TABLE
  2
APPID
  5
9
330
0
100
AcDbSymbolTable
 70
     1
  0
APPID
  5
12
330
9
100
AcDbSymbolTableRecord
100
AcDbRegAppTableRecord
  2
ACAD
 70
     0
  0
ENDTAB
  0
TABLE
  2
DIMSTYLE
  5
A
330
0
100
AcDbSymbolTable
 70
     1
100
AcDbDimStyleTable
  0
DIMSTYLE
105
27
330
A
100
AcDbSymbolTableRecord
100
AcDbDimStyleTableRecord
  2
Standard
 70
     0
340
11
  0
ENDTAB
  0
TABLE
  2
BLOCK_RECORD
  5
1
330
0
100
AcDbSymbolTable
 70
     1
  0
BLOCK_RECORD
  5
1F
330
1
100
AcDbSymbolTableRecord
100
AcDbBlockTableRecord
  2
*Model_Space
340
22
  0
BLOCK_RECORD
  5
1B
330
1
100
AcDbSymbolTableRecord
100
AcDbBlockTableRecord
  2
*Paper_Space
340
1E
  0
BLOCK_RECORD
  5
23
330
1
100
AcDbSymbolTableRecord
100
AcDbBlockTableRecord
  2
*Paper_Space0
340
26
  0
ENDTAB
  0
ENDSEC
  0
SECTION
  2
BLOCKS
  0
BLOCK
  5
20
330
1F
100
AcDbEntity
  8
0
100
AcDbBlockBegin
  2
*Model_Space
 70
     0
 71
     0
 10
0.0
 20
0.0
 30
0.0
  3
*Model_Space
  1

  0
ENDBLK
  5
21
330
1F
100
AcDbEntity
  8
0
100
AcDbBlockEnd
  0
BLOCK
  5
1C
330
1B
100
AcDbEntity
 67
     1
  8
0
100
AcDbBlockBegin
  2
*Paper_Space
 70
     0
 71
     0
 10
0.0
 20
0.0
 30
0.0
  3
*Paper_Space
  1

  0
ENDBLK
  5
1D
330
1B
100
AcDbEntity
 67
     1
  8
0
100
AcDbBlockEnd
  0
BLOCK
  5
24
330
23
100
AcDbEntity
  8
0
100
AcDbBlockBegin
  2
*Paper_Space0
 70
     0
 71
     0
 10
0.0
 20
0.0
 30
0.0
  3
*Paper_Space0
  1

  0
ENDBLK
  5
25
330
23
100
AcDbEntity
  8
0
100
AcDbBlockEnd
  0
ENDSEC
  0
SECTION
  2
ENTITIES
  0
SPLINE
  5
3C
330
1F
100
AcDbEntity
  8
Layer 1
 62
   250
420
  2301728
370
    35
100
AcDbSpline
210
0.0
220
0.0
230
1.0
 70
    11
 71
     3
 72
  1109
 73
  1105
 74
     0
 42
0.0000000001
 43
0.0000000001
 40
0.0
 40
0.0
 40
0.0
 40
0.0
 40
1.0
 40
1.0
 40
1.0
 40
2.0
 40
2.0
 40
2.0
 40
3.0
 40
3.0
 40
3.0
 40
4.0
 40
4.0
 40
4.0
 40
5.0
 40
5.0
 40
5.0
 40
6.0
 40
6.0
 40
6.0
 40
7.0
 40
7.0
 40
7.0
 40
8.0
 40
8.0
 40
8.0
 40
9.0
 40
9.0
 40
9.0
 40
10.0
 40
10.0
 40
10.0
 40
11.0
 40
11.0
 40
11.0
 40
12.0
 40
12.0
 40
12.0
 40
13.0
 40
13.0
 40
13.0
 40
14.0
 40
14.0
 40
14.0
 40
15.0
 40
15.0
 40
15.0
 40
16.0
 40
16.0
 40
16.0
 40
17.0
 40
17.0
 40
17.0
 40
18.0
 40
18.0
 40
18.0
 40
19.0
 40
19.0
 40
19.0
 40
20.0
 40
20.0
 40
20.0
 40
21.0
 40
21.0
 40
21.0
 40
22.0
 40
22.0
 40
22.0
 40
23.0
 40
23.0
 40
23.0
 40
24.0
 40
24.0
 40
24.0
 40
25.0
 40
25.0
 40
25.0
 40
26.0
 40
26.0
 40
26.0
 40
27.0
 40
27.0
 40
27.0
 40
28.0
 40
28.0
 40
28.0
 40
29.0
 40
29.0
 40
29.0
 40
30.0
 40
30.0
 40
30.0
 40
31.0
 40
31.0
 40
31.0
 40
32.0
 40
32.0
 40
32.0
 40
33.0
 40
33.0
 40
33.0
 40
34.0
 40
34.0
 40
34.0
 40
35.0
 40
35.0
 40
35.0
 40
36.0
 40
36.0
 40
36.0
 40
37.0
 40
37.0
 40
37.0
 40
38.0
 40
38.0
 40
38.0
 40
39.0
 40
39.0
 40
39.0
 40
40.0
 40
40.0
 40
40.0
 40
41.0
 40
41.0
 40
41.0
 40
42.0
 40
42.0
 40
42.0
 40
43.0
 40
43.0
 40
43.0
 40
44.0
 40
44.0
 40
44.0
 40
45.0
 40
45.0
 40
45.0
 40
46.0
 40
46.0
 40
46.0
 40
47.0
 40
47.0
 40
47.0
 40
48.0
 40
48.0
 40
48.0
 40
49.0
 40
49.0
 40
49.0
 40
50.0
 40
50.0
 40
50.0
 40
51.0
 40
51.0
 40
51.0
 40
52.0
 40
52.0
 40
52.0
 40
53.0
 40
53.0
 40
53.0
 40
54.0
 40
54.0
 40
54.0
 40
55.0
 40
55.0
 40
55.0
 40
56.0
 40
56.0
 40
56.0
 40
57.0
 40
57.0
 40
57.0
 40
58.0
 40
58.0
 40
58.0
 40
59.0
 40
59.0
 40
59.0
 40
60.0
 40
60.0
 40
60.0
 40
61.0
 40
61.0
 40
61.0
 40
62.0
 40
62.0
 40
62.0
 40
63.0
 40
63.0
 40
63.0
 40
64.0
 40
64.0
 40
64.0
 40
65.0
 40
65.0
 40
65.0
 40
66.0
 40
66.0
 40
66.0
 40
67.0
 40
67.0
 40
67.0
 40
68.0
 40
68.0
 40
68.0
 40
69.0
 40
69.0
 40
69.0
 40
70.0
 40
70.0
 40
70.0
 40
71.0
 40
71.0
 40
71.0
 40
72.0
 40
72.0
 40
72.0
 40
73.0
 40
73.0
 40
73.0
 40
74.0
 40
74.0
 40
74.0
 40
75.0
 40
75.0
 40
75.0
 40
76.0
 40
76.0
 40
76.0
 40
77.0
 40
77.0
 40
77.0
 40
78.0
 40
78.0
 40
78.0
 40
79.0
 40
79.0
 40
79.0
 40
80.0
 40
80.0
 40
80.0
 40
81.0
 40
81.0
 40
81.0
 40
82.0
 40
82.0
 40
82.0
 40
83.0
 40
83.0
 40
83.0
 40
84.0
 40
84.0
 40
84.0
 40
85.0
 40
85.0
 40
85.0
 40
86.0
 40
86.0
 40
86.0
 40
87.0
 40
87.0
 40
87.0
 40
88.0
 40
88.0
 40
88.0
 40
89.0
 40
89.0
 40
89.0
 40
90.0
 40
90.0
 40
90.0
 40
91.0
 40
91.0
 40
91.0
 40
92.0
 40
92.0
 40
92.0
 40
93.0
 40
93.0
 40
93.0
 40
94.0
 40
94.0
 40
94.0
 40
95.0
 40
95.0
 40
95.0
 40
96.0
 40
96.0
 40
96.0
 40
97.0
 40
97.0
 40
97.0
 40
98.0
 40
98.0
 40
98.0
 40
99.0
 40
99.0
 40
99.0
 40
100.0
 40
100.0
 40
100.0
 40
101.0
 40
101.0
 40
101.0
 40
102.0
 40
102.0
 40
102.0
 40
103.0
 40
103.0
 40
103.0
 40
104.0
 40
104.0
 40
104.0
 40
105.0
 40
105.0
 40
105.0
 40
106.0
 40
106.0
 40
106.0
 40
107.0
 40
107.0
 40
107.0
 40
108.0
 40
108.0
 40
108.0
 40
109.0
 40
109.0
 40
109.0
 40
110.0
 40
110.0
 40
110.0
 40
111.0
 40
111.0
 40
111.0
 40
112.0
 40
112.0
 40
112.0
 40
113.0
 40
113.0
 40
113.0
 40
114.0
 40
114.0
 40
114.0
 40
115.0
 40
115.0
 40
115.0
 40
116.0
 40
116.0
 40
116.0
 40
117.0
 40
117.0
 40
117.0
 40
118.0
 40
118.0
 40
118.0
 40
119.0
 40
119.0
 40
119.0
 40
120.0
 40
120.0
 40
120.0
 40
121.0
 40
121.0
 40
121.0
 40
122.0
 40
122.0
 40
122.0
 40
123.0
 40
123.0
 40
123.0
 40
124.0
 40
124.0
 40
124.0
 40
125.0
 40
125.0
 40
125.0
 40
126.0
 40
126.0
 40
126.0
 40
127.0
 40
127.0
 40
127.0
 40
128.0
 40
128.0
 40
128.0
 40
129.0
 40
129.0
 40
129.0
 40
130.0
 40
130.0
 40
130.0
 40
131.0
 40
131.0
 40
131.0
 40
132.0
 40
132.0
 40
132.0
 40
133.0
 40
133.0
 40
133.0
 40
134.0
 40
134.0
 40
134.0
 40
135.0
 40
135.0
 40
135.0
 40
136.0
 40
136.0
 40
136.0
 40
137.0
 40
137.0
 40
137.0
 40
138.0
 40
138.0
 40
138.0
 40
139.0
 40
139.0
 40
139.0
 40
140.0
 40
140.0
 40
140.0
 40
141.0
 40
141.0
 40
141.0
 40
142.0
 40
142.0
 40
142.0
 40
143.0
 40
143.0
 40
143.0
 40
144.0
 40
144.0
 40
144.0
 40
145.0
 40
145.0
 40
145.0
 40
146.0
 40
146.0
 40
146.0
 40
147.0
 40
147.0
 40
147.0
 40
148.0
 40
148.0
 40
148.0
 40
149.0
 40
149.0
 40
149.0
 40
150.0
 40
150.0
 40
150.0
 40
151.0
 40
151.0
 40
151.0
 40
152.0
 40
152.0
 40
152.0
 40
153.0
 40
153.0
 40
153.0
 40
154.0
 40
154.0
 40
154.0
 40
155.0
 40
155.0
 40
155.0
 40
156.0
 40
156.0
 40
156.0
 40
157.0
 40
157.0
 40
157.0
 40
158.0
 40
158.0
 40
158.0
 40
159.0
 40
159.0
 40
159.0
 40
160.0
 40
160.0
 40
160.0
 40
161.0
 40
161.0
 40
161.0
 40
162.0
 40
162.0
 40
162.0
 40
163.0
 40
163.0
 40
163.0
 40
164.0
 40
164.0
 40
164.0
 40
165.0
 40
165.0
 40
165.0
 40
166.0
 40
166.0
 40
166.0
 40
167.0
 40
167.0
 40
167.0
 40
168.0
 40
168.0
 40
168.0
 40
169.0
 40
169.0
 40
169.0
 40
170.0
 40
170.0
 40
170.0
 40
171.0
 40
171.0
 40
171.0
 40
172.0
 40
172.0
 40
172.0
 40
173.0
 40
173.0
 40
173.0
 40
174.0
 40
174.0
 40
174.0
 40
175.0
 40
175.0
 40
175.0
 40
176.0
 40
176.0
 40
176.0
 40
177.0
 40
177.0
 40
177.0
 40
178.0
 40
178.0
 40
178.0
 40
179.0
 40
179.0
 40
179.0
 40
180.0
 40
180.0
 40
180.0
 40
181.0
 40
181.0
 40
181.0
 40
182.0
 40
182.0
 40
182.0
 40
183.0
 40
183.0
 40
183.0
 40
184.0
 40
184.0
 40
184.0
 40
185.0
 40
185.0
 40
185.0
 40
186.0
 40
186.0
 40
186.0
 40
187.0
 40
187.0
 40
187.0
 40
188.0
 40
188.0
 40
188.0
 40
189.0
 40
189.0
 40
189.0
 40
190.0
 40
190.0
 40
190.0
 40
191.0
 40
191.0
 40
191.0
 40
192.0
 40
192.0
 40
192.0
 40
193.0
 40
193.0
 40
193.0
 40
194.0
 40
194.0
 40
194.0
 40
195.0
 40
195.0
 40
195.0
 40
196.0
 40
196.0
 40
196.0
 40
197.0
 40
197.0
 40
197.0
 40
198.0
 40
198.0
 40
198.0
 40
199.0
 40
199.0
 40
199.0
 40
200.0
 40
200.0
 40
200.0
 40
201.0
 40
201.0
 40
201.0
 40
202.0
 40
202.0
 40
202.0
 40
203.0
 40
203.0
 40
203.0
 40
204.0
 40
204.0
 40
204.0
 40
205.0
 40
205.0
 40
205.0
 40
206.0
 40
206.0
 40
206.0
 40
207.0
 40
207.0
 40
207.0
 40
208.0
 40
208.0
 40
208.0
 40
209.0
 40
209.0
 40
209.0
 40
210.0
 40
210.0
 40
210.0
 40
211.0
 40
211.0
 40
211.0
 40
212.0
 40
212.0
 40
212.0
 40
213.0
 40
213.0
 40
213.0
 40
214.0
 40
214.0
 40
214.0
 40
215.0
 40
215.0
 40
215.0
 40
216.0
 40
216.0
 40
216.0
 40
217.0
 40
217.0
 40
217.0
 40
218.0
 40
218.0
 40
218.0
 40
219.0
 40
219.0
 40
219.0
 40
220.0
 40
220.0
 40
220.0
 40
221.0
 40
221.0
 40
221.0
 40
222.0
 40
222.0
 40
222.0
 40
223.0
 40
223.0
 40
223.0
 40
224.0
 40
224.0
 40
224.0
 40
225.0
 40
225.0
 40
225.0
 40
226.0
 40
226.0
 40
226.0
 40
227.0
 40
227.0
 40
227.0
 40
228.0
 40
228.0
 40
228.0
 40
229.0
 40
229.0
 40
229.0
 40
230.0
 40
230.0
 40
230.0
 40
231.0
 40
231.0
 40
231.0
 40
232.0
 40
232.0
 40
232.0
 40
233.0
 40
233.0
 40
233.0
 40
234.0
 40
234.0
 40
234.0
 40
235.0
 40
235.0
 40
235.0
 40
236.0
 40
236.0
 40
236.0
 40
237.0
 40
237.0
 40
237.0
 40
238.0
 40
238.0
 40
238.0
 40
239.0
 40
239.0
 40
239.0
 40
240.0
 40
240.0
 40
240.0
 40
241.0
 40
241.0
 40
241.0
 40
242.0
 40
242.0
 40
242.0
 40
243.0
 40
243.0
 40
243.0
 40
244.0
 40
244.0
 40
244.0
 40
245.0
 40
245.0
 40
245.0
 40
246.0
 40
246.0
 40
246.0
 40
247.0
 40
247.0
 40
247.0
 40
248.0
 40
248.0
 40
248.0
 40
249.0
 40
249.0
 40
249.0
 40
250.0
 40
250.0
 40
250.0
 40
251.0
 40
251.0
 40
251.0
 40
252.0
 40
252.0
 40
252.0
 40
253.0
 40
253.0
 40
253.0
 40
254.0
 40
254.0
 40
254.0
 40
255.0
 40
255.0
 40
255.0
 40
256.0
 40
256.0
 40
256.0
 40
257.0
 40
257.0
 40
257.0
 40
258.0
 40
258.0
 40
258.0
 40
259.0
 40
259.0
 40
259.0
 40
260.0
 40
260.0
 40
260.0
 40
261.0
 40
261.0
 40
261.0
 40
262.0
 40
262.0
 40
262.0
 40
263.0
 40
263.0
 40
263.0
 40
264.0
 40
264.0
 40
264.0
 40
265.0
 40
265.0
 40
265.0
 40
266.0
 40
266.0
 40
266.0
 40
267.0
 40
267.0
 40
267.0
 40
268.0
 40
268.0
 40
268.0
 40
269.0
 40
269.0
 40
269.0
 40
270.0
 40
270.0
 40
270.0
 40
271.0
 40
271.0
 40
271.0
 40
272.0
 40
272.0
 40
272.0
 40
273.0
 40
273.0
 40
273.0
 40
274.0
 40
274.0
 40
274.0
 40
275.0
 40
275.0
 40
275.0
 40
276.0
 40
276.0
 40
276.0
 40
277.0
 40
277.0
 40
277.0
 40
278.0
 40
278.0
 40
278.0
 40
279.0
 40
279.0
 40
279.0
 40
280.0
 40
280.0
 40
280.0
 40
281.0
 40
281.0
 40
281.0
 40
282.0
 40
282.0
 40
282.0
 40
283.0
 40
283.0
 40
283.0
 40
284.0
 40
284.0
 40
284.0
 40
285.0
 40
285.0
 40
285.0
 40
286.0
 40
286.0
 40
286.0
 40
287.0
 40
287.0
 40
287.0
 40
288.0
 40
288.0
 40
288.0
 40
289.0
 40
289.0
 40
289.0
 40
290.0
 40
290.0
 40
290.0
 40
291.0
 40
291.0
 40
291.0
 40
292.0
 40
292.0
 40
292.0
 40
293.0
 40
293.0
 40
293.0
 40
294.0
 40
294.0
 40
294.0
 40
295.0
 40
295.0
 40
295.0
 40
296.0
 40
296.0
 40
296.0
 40
297.0
 40
297.0
 40
297.0
 40
298.0
 40
298.0
 40
298.0
 40
299.0
 40
299.0
 40
299.0
 40
300.0
 40
300.0
 40
300.0
 40
301.0
 40
301.0
 40
301.0
 40
302.0
 40
302.0
 40
302.0
 40
303.0
 40
303.0
 40
303.0
 40
304.0
 40
304.0
 40
304.0
 40
305.0
 40
305.0
 40
305.0
 40
306.0
 40
306.0
 40
306.0
 40
307.0
 40
307.0
 40
307.0
 40
308.0
 40
308.0
 40
308.0
 40
309.0
 40
309.0
 40
309.0
 40
310.0
 40
310.0
 40
310.0
 40
311.0
 40
311.0
 40
311.0
 40
312.0
 40
312.0
 40
312.0
 40
313.0
 40
313.0
 40
313.0
 40
314.0
 40
314.0
 40
314.0
 40
315.0
 40
315.0
 40
315.0
 40
316.0
 40
316.0
 40
316.0
 40
317.0
 40
317.0
 40
317.0
 40
318.0
 40
318.0
 40
318.0
 40
319.0
 40
319.0
 40
319.0
 40
320.0
 40
320.0
 40
320.0
 40
321.0
 40
321.0
 40
321.0
 40
322.0
 40
322.0
 40
322.0
 40
323.0
 40
323.0
 40
323.0
 40
324.0
 40
324.0
 40
324.0
 40
325.0
 40
325.0
 40
325.0
 40
326.0
 40
326.0
 40
326.0
 40
327.0
 40
327.0
 40
327.0
 40
328.0
 40
328.0
 40
328.0
 40
329.0
 40
329.0
 40
329.0
 40
330.0
 40
330.0
 40
330.0
 40
331.0
 40
331.0
 40
331.0
 40
332.0
 40
332.0
 40
332.0
 40
333.0
 40
333.0
 40
333.0
 40
334.0
 40
334.0
 40
334.0
 40
335.0
 40
335.0
 40
335.0
 40
336.0
 40
336.0
 40
336.0
 40
337.0
 40
337.0
 40
337.0
 40
338.0
 40
338.0
 40
338.0
 40
339.0
 40
339.0
 40
339.0
 40
340.0
 40
340.0
 40
340.0
 40
341.0
 40
341.0
 40
341.0
 40
342.0
 40
342.0
 40
342.0
 40
343.0
 40
343.0
 40
343.0
 40
344.0
 40
344.0
 40
344.0
 40
345.0
 40
345.0
 40
345.0
 40
346.0
 40
346.0
 40
346.0
 40
347.0
 40
347.0
 40
347.0
 40
348.0
 40
348.0
 40
348.0
 40
349.0
 40
349.0
 40
349.0
 40
350.0
 40
350.0
 40
350.0
 40
351.0
 40
351.0
 40
351.0
 40
352.0
 40
352.0
 40
352.0
 40
353.0
 40
353.0
 40
353.0
 40
354.0
 40
354.0
 40
354.0
 40
355.0
 40
355.0
 40
355.0
 40
356.0
 40
356.0
 40
356.0
 40
357.0
 40
357.0
 40
357.0
 40
358.0
 40
358.0
 40
358.0
 40
359.0
 40
359.0
 40
359.0
 40
360.0
 40
360.0
 40
360.0
 40
361.0
 40
361.0
 40
361.0
 40
362.0
 40
362.0
 40
362.0
 40
363.0
 40
363.0
 40
363.0
 40
364.0
 40
364.0
 40
364.0
 40
365.0
 40
365.0
 40
365.0
 40
366.0
 40
366.0
 40
366.0
 40
367.0
 40
367.0
 40
367.0
 40
368.0
 40
368.0
 40
368.0
 40
368.0
 10
708.6845703125
 20
-483.4599609375
 30
0.0
 10
702.6025390625
 20
-484.8818359375
 30
0.0
 10
698.353515625
 20
-489.201171875
 30
0.0
 10
697.5966796875
 20
-494.732421875
 30
0.0
 10
697.1923828125
 20
-497.6650390625
 30
0.0
 10
699.2470703125
 20
-500.3681640625
 30
0.0
 10
702.1787109375
 20
-500.7705078125
 30
0.0
 10
705.1123046875
 20
-501.171875
 30
0.0
 10
707.8154296875
 20
-499.1201171875
 30
0.0
 10
708.216796875
 20
-496.1875
 30
0.0
 10
708.4150390625
 20
-494.7412109375
 30
0.0
 10
710.123046875
 20
-494.1337890625
 30
0.0
 10
711.125
 20
-493.8994140625
 30
0.0
 10
713.8798828125
 20
-493.255859375
 30
0.0
 10
717.0478515625
 20
-494.0966796875
 30
0.0
 10
718.18359375
 20
-495.775390625
 30
0.0
 10
719.908203125
 20
-498.3203125
 30
0.0
 10
720.3193359375
 20
-501.025390625
 30
0.0
 10
719.40625
 20
-503.814453125
 30
0.0
 10
718.326171875
 20
-507.1142578125
 30
0.0
 10
715.447265625
 20
-510.099609375
 30
0.0
 10
712.2451171875
 20
-511.23828125
 30
0.0
 10
705.466796875
 20
-513.650390625
 30
0.0
 10
696.908203125
 20
-511.3994140625
 30
0.0
 10
691.4326171875
 20
-505.7626953125
 30
0.0
 10
687.7939453125
 20
-502.017578125
 30
0.0
 10
682.54296875
 20
-493.6787109375
 30
0.0
 10
687.7626953125
 20
-479.65234375
 30
0.0
 10
699.74609375
 20
-464.7978515625
 30
0.0
 10
710.4189453125
 20
-450.5185546875
 30
0.0
 10
714.220703125
 20
-435.5439453125
 30
0.0
 10
717.3662109375
 20
-423.1591796875
 30
0.0
 10
717.7275390625
 20
-411.5732421875
 30
0.0
 10
715.2939453125
 20
-401.1005859375
 30
0.0
 10
712.4853515625
 20
-389.005859375
 30
0.0
 10
705.9482421875
 20
-378.3251953125
 30
0.0
 10
695.8330078125
 20
-369.3251953125
 30
0.0
 10
690.0947265625
 20
-364.30078125
 30
0.0
 10
684.1103515625
 20
-361.2490234375
 30
0.0
 10
678.3056640625
 20
-359.6533203125
 30
0.0
 10
684.1103515625
 20
-358.0595703125
 30
0.0
 10
690.0947265625
 20
-355.0068359375
 30
0.0
 10
695.8330078125
 20
-349.982421875
 30
0.0
 10
705.9482421875
 20
-340.9833984375
 30
0.0
 10
712.4853515625
 20
-330.3017578125
 30
0.0
 10
715.2939453125
 20
-318.20703125
 30
0.0
 10
717.7275390625
 20
-307.7353515625
 30
0.0
 10
717.3662109375
 20
-296.14794921875
 30
0.0
 10
714.220703125
 20
-283.7646484375
 30
0.0
 10
710.4189453125
 20
-268.7900390625
 30
0.0
 10
699.74609375
 20
-254.509765625
 30
0.0
 10
687.7626953125
 20
-239.65576171875
 30
0.0
 10
682.54296875
 20
-225.6298828125
 30
0.0
 10
687.7939453125
 20
-217.28955078125
 30
0.0
 10
691.4326171875
 20
-213.54541015625
 30
0.0
 10
696.908203125
 20
-207.90869140625
 30
0.0
 10
705.466796875
 20
-205.65771484375
 30
0.0
 10
712.2451171875
 20
-208.0693359375
 30
0.0
 10
715.447265625
 20
-209.208984375
 30
0.0
 10
718.326171875
 20
-212.19287109375
 30
0.0
 10
719.40625
 20
-215.4921875
 30
0.0
 10
720.3193359375
 20
-218.28271484375
 30
0.0
 10
719.908203125
 20
-220.98828125
 30
0.0
 10
718.18359375
 20
-223.53271484375
 30
0.0
 10
717.0478515625
 20
-225.21142578125
 30
0.0
 10
713.8798828125
 20
-226.0517578125
 30
0.0
 10
711.125
 20
-225.408203125
 30
0.0
 10
710.123046875
 20
-225.17431640625
 30
0.0
 10
708.4150390625
 20
-224.56640625
 30
0.0
 10
708.216796875
 20
-223.1201171875
 30
0.0
 10
707.8154296875
 20
-220.18701171875
 30
0.0
 10
705.1123046875
 20
-218.13525390625
 30
0.0
 10
702.1787109375
 20
-218.53759765625
 30
0.0
 10
699.2470703125
 20
-218.93896484375
 30
0.0
 10
697.1923828125
 20
-221.6435546875
 30
0.0
 10
697.5966796875
 20
-224.5751953125
 30
0.0
 10
698.353515625
 20
-230.10693359375
 30
0.0
 10
702.6025390625
 20
-234.42578125
 30
0.0
 10
708.6845703125
 20
-235.84765625
 30
0.0
 10
715.853515625
 20
-237.52392578125
 30
0.0
 10
723.41015625
 20
-234.93212890625
 30
0.0
 10
727.060546875
 20
-229.5458984375
 30
0.0
 10
730.6376953125
 20
-224.26611328125
 30
0.0
 10
731.5400390625
 20
-218.0908203125
 30
0.0
 10
729.59375
 20
-212.15478515625
 30
0.0
 10
727.46875
 20
-205.66943359375
 30
0.0
 10
722.19921875
 20
-200.23388671875
 30
0.0
 10
715.8388671875
 20
-197.97021484375
 30
0.0
 10
705.07421875
 20
-194.138671875
 30
0.0
 10
692.1767578125
 20
-197.39599609375
 30
0.0
 10
683.7431640625
 20
-206.07470703125
 30
0.0
 10
678.888671875
 20
-211.072265625
 30
0.0
 10
675.9970703125
 20
-217.2294921875
 30
0.0
 10
675.1357421875
 20
-224.0390625
 30
0.0
 10
660.951171875
 20
-206.15380859375
 30
0.0
 10
648.25
 20
-187.59814453125
 30
0.0
 10
647.267578125
 20
-167.4853515625
 30
0.0
 10
647.2978515625
 20
-154.291015625
 30
0.0
 10
652.220703125
 20
-145.19287109375
 30
0.0
 10
661.13671875
 20
-141.8564453125
 30
0.0
 10
668.4697265625
 20
-139.1123046875
 30
0.0
 10
677.2099609375
 20
-141.0458984375
 30
0.0
 10
681.9169921875
 20
-146.455078125
 30
0.0
 10
684.392578125
 20
-149.3017578125
 30
0.0
 10
685.6357421875
 20
-153.34033203125
 30
0.0
 10
685.0068359375
 20
-156.4951171875
 30
0.0
 10
684.5322265625
 20
-158.88037109375
 30
0.0
 10
683.0634765625
 20
-160.65673828125
 30
0.0
 10
680.5185546875
 20
-161.92529296875
 30
0.0
 10
678.703125
 20
-162.83056640625
 30
0.0
 10
675.53125
 20
-162.00927734375
 30
0.0
 10
673.4443359375
 20
-160.09521484375
 30
0.0
 10
672.6875
 20
-159.3994140625
 30
0.0
 10
671.49609375
 20
-158.03125
 30
0.0
 10
672.03515625
 20
-156.67578125
 30
0.0
 10
673.1220703125
 20
-153.9267578125
 30
0.0
 10
671.7763671875
 20
-150.8095703125
 30
0.0
 10
669.0224609375
 20
-149.7197265625
 30
0.0
 10
666.26953125
 20
-148.63037109375
 30
0.0
 10
663.15625
 20
-149.97900390625
 30
0.0
 10
662.0654296875
 20
-152.732421875
 30
0.0
 10
660.013671875
 20
-157.92333984375
 30
0.0
 10
661.5966796875
 20
-163.77099609375
 30
0.0
 10
666.197265625
 20
-167.99365234375
 30
0.0
 10
671.62109375
 20
-172.97216796875
 30
0.0
 10
679.478515625
 20
-174.4228515625
 30
0.0
 10
685.30078125
 20
-171.5205078125
 30
0.0
 10
690.775390625
 20
-168.79150390625
 30
0.0
 10
694.40625
 20
-164.197265625
 30
0.0
 10
695.521484375
 20
-158.5859375
 30
0.0
 10
696.802734375
 20
-152.14306640625
 30
0.0
 10
694.6875
 20
-144.8017578125
 30
0.0
 10
690.00390625
 20
-139.41748046875
 30
0.0
 10
683.3740234375
 20
-131.79931640625
 30
0.0
 10
672.4287109375
 20
-128.44482421875
 30
0.0
 10
662.1123046875
 20
-130.48486328125
 30
0.0
 10
664.41796875
 20
-119.97119140625
 30
0.0
 10
661.076171875
 20
-108.697265625
 30
0.0
 10
653.291015625
 20
-101.9228515625
 30
0.0
 10
647.8974609375
 20
-97.23095703125
 30
0.0
 10
640.54296875
 20
-95.1123046875
 30
0.0
 10
634.0888671875
 20
-96.3955078125
 30
0.0
 10
628.466796875
 20
-97.5126953125
 30
0.0
 10
623.8662109375
 20
-101.1494140625
 30
0.0
 10
621.1318359375
 20
-106.63427734375
 30
0.0
 10
618.2236328125
 20
-112.46728515625
 30
0.0
 10
619.677734375
 20
-120.337890625
 30
0.0
 10
624.6630859375
 20
-125.7724609375
 30
0.0
 10
628.8955078125
 20
-130.38134765625
 30
0.0
 10
634.751953125
 20
-131.9658203125
 30
0.0
 10
639.953125
 20
-129.91015625
 30
0.0
 10
642.7109375
 20
-128.8193359375
 30
0.0
 10
644.0625
 20
-125.69921875
 30
0.0
 10
642.970703125
 20
-122.94189453125
 30
0.0
 10
641.87890625
 20
-120.18359375
 30
0.0
 10
638.755859375
 20
-118.83447265625
 30
0.0
 10
636.001953125
 20
-119.92333984375
 30
0.0
 10
634.6455078125
 20
-120.46240234375
 30
0.0
 10
633.2734375
 20
-119.26953125
 30
0.0
 10
632.578125
 20
-118.51123046875
 30
0.0
 10
630.658203125
 20
-116.42138671875
 30
0.0
 10
629.8359375
 20
-113.2431640625
 30
0.0
 10
630.7431640625
 20
-111.42578125
 30
0.0
 10
632.0146484375
 20
-108.875
 30
0.0
 10
633.7939453125
 20
-107.40380859375
 30
0.0
 10
636.18359375
 20
-106.9287109375
 30
0.0
 10
639.345703125
 20
-106.29931640625
 30
0.0
 10
643.388671875
 20
-107.5439453125
 30
0.0
 10
646.2412109375
 20
-110.0244140625
 30
0.0
 10
651.6591796875
 20
-114.73974609375
 30
0.0
 10
653.59765625
 20
-123.49609375
 30
0.0
 10
650.84765625
 20
-130.84228515625
 30
0.0
 10
647.5048828125
 20
-139.77294921875
 30
0.0
 10
638.390625
 20
-144.70361328125
 30
0.0
 10
625.173828125
 20
-144.73486328125
 30
0.0
 10
605.0244140625
 20
-143.75048828125
 30
0.0
 10
586.435546875
 20
-131.02734375
 30
0.0
 10
568.5185546875
 20
-116.81689453125
 30
0.0
 10
575.3408203125
 20
-115.955078125
 30
0.0
 10
581.5087890625
 20
-113.05810546875
 30
0.0
 10
586.5146484375
 20
-108.1943359375
 30
0.0
 10
595.2099609375
 20
-99.74658203125
 30
0.0
 10
598.47265625
 20
-86.8251953125
 30
0.0
 10
594.634765625
 20
-76.041015625
 30
0.0
 10
592.3671875
 20
-69.669921875
 30
0.0
 10
586.921875
 20
-64.390625
 30
0.0
 10
580.4248046875
 20
-62.26171875
 30
0.0
 10
574.4765625
 20
-60.31298828125
 30
0.0
 10
568.291015625
 20
-61.21630859375
 30
0.0
 10
563.0009765625
 20
-64.80078125
 30
0.0
 10
557.60546875
 20
-68.45703125
 30
0.0
 10
555.0107421875
 20
-76.0263671875
 30
0.0
 10
556.6884765625
 20
-83.2099609375
 30
0.0
 10
558.115234375
 20
-89.3017578125
 30
0.0
 10
562.4404296875
 20
-93.55810546875
 30
0.0
 10
567.982421875
 20
-94.3173828125
 30
0.0
 10
570.9189453125
 20
-94.72119140625
 30
0.0
 10
573.6279296875
 20
-92.6640625
 30
0.0
 10
574.0302734375
 20
-89.7265625
 30
0.0
 10
574.43359375
 20
-86.78857421875
 30
0.0
 10
572.376953125
 20
-84.080078125
 30
0.0
 10
569.4384765625
 20
-83.67724609375
 30
0.0
 10
567.9912109375
 20
-83.47802734375
 30
0.0
 10
567.3818359375
 20
-81.76708984375
 30
0.0
 10
567.146484375
 20
-80.76416015625
 30
0.0
 10
566.5009765625
 20
-78.00390625
 30
0.0
 10
567.3447265625
 20
-74.8310546875
 30
0.0
 10
569.02734375
 20
-73.69189453125
 30
0.0
 10
571.5751953125
 20
-71.96435546875
 30
0.0
 10
574.2861328125
 20
-71.55224609375
 30
0.0
 10
577.0810546875
 20
-72.46728515625
 30
0.0
 10
580.38671875
 20
-73.55078125
 30
0.0
 10
583.375
 20
-76.4345703125
 30
0.0
 10
584.5166015625
 20
-79.642578125
 30
0.0
 10
586.93359375
 20
-86.43212890625
 30
0.0
 10
584.677734375
 20
-95.005859375
 30
0.0
 10
579.03125
 20
-100.49169921875
 30
0.0
 10
575.2802734375
 20
-104.13623046875
 30
0.0
 10
566.92578125
 20
-109.39697265625
 30
0.0
 10
552.873046875
 20
-104.16748046875
 30
0.0
 10
542.732421875
 20
-95.9853515625
 30
0.0
 10
532.857421875
 20
-88.4169921875
 30
0.0
 10
522.849609375
 20
-83.2177734375
 30
0.0
 10
537.673828125
 20
-77.25244140625
 30
0.0
 10
541.876953125
 20
-66.0419921875
 30
0.0
 10
543.0458984375
 20
-60.751953125
 30
0.0
 10
545.71875
 20
-48.68701171875
 30
0.0
 10
540.7392578125
 20
-35.81640625
 30
0.0
 10
530.9404296875
 20
-29.4521484375
 30
0.0
 10
524.943359375
 20
-25.5595703125
 30
0.0
 10
517.365234375
 20
-24.4892578125
 30
0.0
 10
511.1533203125
 20
-26.662109375
 30
0.0
 10
505.7431640625
 20
-28.55419921875
 30
0.0
 10
501.693359375
 20
-32.798828125
 30
0.0
 10
499.75390625
 20
-38.61181640625
 30
0.0
 10
497.689453125
 20
-44.7939453125
 30
0.0
 10
500.2275390625
 20
-52.38427734375
 30
0.0
 10
505.9267578125
 20
-57.0693359375
 30
0.0
 10
510.7578125
 20
-61.04150390625
 30
0.0
 10
516.78125
 20
-61.7919921875
 30
0.0
 10
521.642578125
 20
-59.02978515625
 30
0.0
 10
524.2216796875
 20
-57.56298828125
 30
0.0
 10
525.123046875
 20
-54.2861328125
 30
0.0
 10
523.6572265625
 20
-51.70703125
 30
0.0
 10
522.19140625
 20
-49.12841796875
 30
0.0
 10
518.9091796875
 20
-48.228515625
 30
0.0
 10
516.3359375
 20
-49.69287109375
 30
0.0
 10
515.06640625
 20
-50.416015625
 30
0.0
 10
513.541015625
 20
-49.4267578125
 30
0.0
 10
512.74609375
 20
-48.7724609375
 30
0.0
 10
510.5556640625
 20
-46.97265625
 30
0.0
 10
509.296875
 20
-43.939453125
 30
0.0
 10
509.94140625
 20
-42.01318359375
 30
0.0
 10
510.84375
 20
-39.3095703125
 30
0.0
 10
512.3984375
 20
-37.603515625
 30
0.0
 10
514.6982421875
 20
-36.80029296875
 30
0.0
 10
517.740234375
 20
-35.73583984375
 30
0.0
 10
521.9189453125
 20
-36.4013671875
 30
0.0
 10
525.091796875
 20
-38.458984375
 30
0.0
 10
531.115234375
 20
-42.3720703125
 30
0.0
 10
534.255859375
 20
-50.77099609375
 30
0.0
 10
532.5615234375
 20
-58.43017578125
 30
0.0
 10
530.5
 20
-67.73974609375
 30
0.0
 10
522.1640625
 20
-73.8955078125
 30
0.0
 10
509.080078125
 20
-75.7734375
 30
0.0
 10
505.6123046875
 20
-76.09130859375
 30
0.0
 10
468.3330078125
 20
-78.2392578125
 30
0.0
 10
449.9111328125
 20
-57.6533203125
 30
0.0
 10
441.4140625
 20
-48.158203125
 30
0.0
 10
439.1650390625
 20
-36.37548828125
 30
0.0
 10
443.642578125
 20
-26.4140625
 30
0.0
 10
446.705078125
 20
-19.6025390625
 30
0.0
 10
452.5634765625
 20
-15.17626953125
 30
0.0
 10
458.56640625
 20
-15.13623046875
 30
0.0
 10
458.58984375
 20
-15.13623046875
 30
0.0
 10
458.6142578125
 20
-15.13525390625
 30
0.0
 10
458.6376953125
 20
-15.13525390625
 30
0.0
 10
462.271484375
 20
-15.13525390625
 30
0.0
 10
466.0625
 20
-16.86474609375
 30
0.0
 10
468.091796875
 20
-19.45263671875
 30
0.0
 10
469.67578125
 20
-21.47216796875
 30
0.0
 10
470.1201171875
 20
-23.92041015625
 30
0.0
 10
469.41015625
 20
-26.728515625
 30
0.0
 10
468.9140625
 20
-28.69775390625
 30
0.0
 10
466.220703125
 20
-30.57275390625
 30
0.0
 10
463.404296875
 20
-30.9091796875
 30
0.0
 10
462.380859375
 20
-31.0302734375
 30
0.0
 10
460.5654296875
 20
-31.0419921875
 30
0.0
 10
459.8837890625
 20
-29.7490234375
 30
0.0
 10
458.50390625
 20
-27.1240234375
 30
0.0
 10
455.2548828125
 20
-26.1181640625
 30
0.0
 10
452.6328125
 20
-27.4990234375
 30
0.0
 10
450.0078125
 20
-28.88037109375
 30
0.0
 10
449.0009765625
 20
-32.12744140625
 30
0.0
 10
450.3818359375
 20
-34.751953125
 30
0.0
 10
452.9873046875
 20
-39.7001953125
 30
0.0
 10
458.4609375
 20
-42.32080078125
 30
0.0
 10
464.677734375
 20
-41.57275390625
 30
0.0
 10
472.0009765625
 20
-40.69970703125
 30
0.0
 10
478.2294921875
 20
-35.67578125
 30
0.0
 10
479.82421875
 20
-29.35546875
 30
0.0
 10
481.34375
 20
-23.33251953125
 30
0.0
 10
480.177734375
 20
-17.4619140625
 30
0.0
 10
476.54296875
 20
-12.82568359375
 30
0.0
 10
472.458984375
 20
-7.61767578125
 30
0.0
 10
465.609375
 20
-4.396484375
 30
0.0
 10
458.6396484375
 20
-4.3955078125
 30
0.0
 10
458.5908203125
 20
-4.3955078125
 30
0.0
 10
458.5439453125
 20
-4.396484375
 30
0.0
 10
458.4951171875
 20
-4.396484375
 30
0.0
 10
448.14453125
 20
-4.46533203125
 30
0.0
 10
438.701171875
 20
-11.21435546875
 30
0.0
 10
433.84765625
 20
-22.009765625
 30
0.0
 10
433.2001953125
 20
-23.44873046875
 30
0.0
 10
432.6357421875
 20
-25.0009765625
 30
0.0
 10
432.1689453125
 20
-26.642578125
 30
0.0
 10
431.703125
 20
-25.0009765625
 30
0.0
 10
431.138671875
 20
-23.44873046875
 30
0.0
 10
430.4912109375
 20
-22.009765625
 30
0.0
 10
425.6376953125
 20
-11.21435546875
 30
0.0
 10
416.1943359375
 20
-4.46533203125
 30
0.0
 10
405.84375
 20
-4.396484375
 30
0.0
 10
405.7958984375
 20
-4.396484375
 30
0.0
 10
405.74853515625
 20
-4.3955078125
 30
0.0
 10
405.70068359375
 20
-4.3955078125
 30
0.0
 10
398.7294921875
 20
-4.396484375
 30
0.0
 10
391.880859375
 20
-7.61767578125
 30
0.0
 10
387.79736328125
 20
-12.82568359375
 30
0.0
 10
384.16162109375
 20
-17.4619140625
 30
0.0
 10
382.99609375
 20
-23.33251953125
 30
0.0
 10
384.515625
 20
-29.35546875
 30
0.0
 10
386.109375
 20
-35.67578125
 30
0.0
 10
392.3388671875
 20
-40.69970703125
 30
0.0
 10
399.662109375
 20
-41.57275390625
 30
0.0
 10
405.87841796875
 20
-42.32080078125
 30
0.0
 10
411.35205078125
 20
-39.7001953125
 30
0.0
 10
413.9580078125
 20
-34.751953125
 30
0.0
 10
415.3388671875
 20
-32.12744140625
 30
0.0
 10
414.33203125
 20
-28.88037109375
 30
0.0
 10
411.70751953125
 20
-27.4990234375
 30
0.0
 10
409.0859375
 20
-26.1181640625
 30
0.0
 10
405.83740234375
 20
-27.1240234375
 30
0.0
 10
404.4541015625
 20
-29.7490234375
 30
0.0
 10
403.7744140625
 20
-31.0419921875
 30
0.0
 10
401.96044921875
 20
-31.0302734375
 30
0.0
 10
400.93505859375
 20
-30.9091796875
 30
0.0
 10
398.1201171875
 20
-30.57275390625
 30
0.0
 10
395.42529296875
 20
-28.69775390625
 30
0.0
 10
394.9287109375
 20
-26.728515625
 30
0.0
 10
394.22021484375
 20
-23.92041015625
 30
0.0
 10
394.66455078125
 20
-21.47216796875
 30
0.0
 10
396.24853515625
 20
-19.45263671875
 30
0.0
 10
398.27734375
 20
-16.86474609375
 30
0.0
 10
402.0693359375
 20
-15.13525390625
 30
0.0
 10
405.701171875
 20
-15.13525390625
 30
0.0
 10
405.72607421875
 20
-15.13525390625
 30
0.0
 10
405.75
 20
-15.13623046875
 30
0.0
 10
405.77392578125
 20
-15.13623046875
 30
0.0
 10
411.77685546875
 20
-15.17626953125
 30
0.0
 10
417.634765625
 20
-19.6025390625
 30
0.0
 10
420.69677734375
 20
-26.4140625
 30
0.0
 10
425.17578125
 20
-36.37548828125
 30
0.0
 10
422.96875
 20
-48.19482421875
 30
0.0
 10
414.4287109375
 20
-57.6533203125
 30
0.0
 10
395.841796875
 20
-78.2392578125
 30
0.0
 10
359.7119140625
 20
-76.09130859375
 30
0.0
 10
356.24365234375
 20
-75.7734375
 30
0.0
 10
343.15966796875
 20
-73.8955078125
 30
0.0
 10
334.82421875
 20
-67.73974609375
 30
0.0
 10
332.76220703125
 20
-58.43017578125
 30
0.0
 10
331.06689453125
 20
-50.77099609375
 30
0.0
 10
334.208984375
 20
-42.3720703125
 30
0.0
 10
340.232421875
 20
-38.458984375
 30
0.0
 10
343.40478515625
 20
-36.4013671875
 30
0.0
 10
347.583984375
 20
-35.73583984375
 30
0.0
 10
350.625
 20
-36.80029296875
 30
0.0
 10
352.923828125
 20
-37.603515625
 30
0.0
 10
354.48046875
 20
-39.3095703125
 30
0.0
 10
355.38232421875
 20
-42.01318359375
 30
0.0
 10
356.02685546875
 20
-43.939453125
 30
0.0
 10
354.76806640625
 20
-46.97265625
 30
0.0
 10
352.578125
 20
-48.7724609375
 30
0.0
 10
351.78173828125
 20
-49.4267578125
 30
0.0
 10
350.25830078125
 20
-50.416015625
 30
0.0
 10
348.98828125
 20
-49.69287109375
 30
0.0
 10
346.41455078125
 20
-48.228515625
 30
0.0
 10
343.1328125
 20
-49.12841796875
 30
0.0
 10
341.66650390625
 20
-51.70703125
 30
0.0
 10
340.2001953125
 20
-54.2861328125
 30
0.0
 10
341.1025390625
 20
-57.56298828125
 30
0.0
 10
343.68115234375
 20
-59.02978515625
 30
0.0
 10
348.54296875
 20
-61.7919921875
 30
0.0
 10
354.56591796875
 20
-61.04150390625
 30
0.0
 10
359.39794921875
 20
-57.0693359375
 30
0.0
 10
365.0966796875
 20
-52.38427734375
 30
0.0
 10
367.63427734375
 20
-44.7939453125
 30
0.0
 10
365.5703125
 20
-38.61181640625
 30
0.0
 10
363.6298828125
 20
-32.798828125
 30
0.0
 10
359.5810546875
 20
-28.55419921875
 30
0.0
 10
354.1708984375
 20
-26.662109375
 30
0.0
 10
347.9599609375
 20
-24.4892578125
 30
0.0
 10
340.380859375
 20
-25.5595703125
 30
0.0
 10
334.3837890625
 20
-29.4521484375
 30
0.0
 10
324.5849609375
 20
-35.81640625
 30
0.0
 10
319.607421875
 20
-48.68701171875
 30
0.0
 10
322.27734375
 20
-60.751953125
 30
0.0
 10
323.44775390625
 20
-66.0419921875
 30
0.0
 10
327.65087890625
 20
-77.25244140625
 30
0.0
 10
342.4755859375
 20
-83.2177734375
 30
0.0
 10
332.4658203125
 20
-88.4169921875
 30
0.0
 10
322.59130859375
 20
-95.9853515625
 30
0.0
 10
312.4501953125
 20
-104.16748046875
 30
0.0
 10
298.3994140625
 20
-109.39697265625
 30
0.0
 10
290.0439453125
 20
-104.13623046875
 30
0.0
 10
286.29296875
 20
-100.49169921875
 30
0.0
 10
280.64697265625
 20
-95.005859375
 30
0.0
 10
278.390625
 20
-86.43212890625
 30
0.0
 10
280.8076171875
 20
-79.642578125
 30
0.0
 10
281.94970703125
 20
-76.4345703125
 30
0.0
 10
284.9384765625
 20
-73.55078125
 30
0.0
 10
288.24365234375
 20
-72.46728515625
 30
0.0
 10
291.03857421875
 20
-71.55224609375
 30
0.0
 10
293.74951171875
 20
-71.96435546875
 30
0.0
 10
296.2978515625
 20
-73.69189453125
 30
0.0
 10
297.97998046875
 20
-74.8310546875
 30
0.0
 10
298.822265625
 20
-78.00390625
 30
0.0
 10
298.17724609375
 20
-80.76416015625
 30
0.0
 10
297.94287109375
 20
-81.76708984375
 30
0.0
 10
297.333984375
 20
-83.47802734375
 30
0.0
 10
295.884765625
 20
-83.67724609375
 30
0.0
 10
292.94677734375
 20
-84.080078125
 30
0.0
 10
290.8916015625
 20
-86.78857421875
 30
0.0
 10
291.29345703125
 20
-89.7265625
 30
0.0
 10
291.6962890625
 20
-92.6640625
 30
0.0
 10
294.40576171875
 20
-94.72119140625
 30
0.0
 10
297.3427734375
 20
-94.3173828125
 30
0.0
 10
302.8837890625
 20
-93.55810546875
 30
0.0
 10
307.2109375
 20
-89.3017578125
 30
0.0
 10
308.634765625
 20
-83.2099609375
 30
0.0
 10
310.3134765625
 20
-76.0263671875
 30
0.0
 10
307.71826171875
 20
-68.45703125
 30
0.0
 10
302.3232421875
 20
-64.80078125
 30
0.0
 10
297.033203125
 20
-61.21630859375
 30
0.0
 10
290.8466796875
 20
-60.31298828125
 30
0.0
 10
284.89990234375
 20
-62.26171875
 30
0.0
 10
278.4033203125
 20
-64.390625
 30
0.0
 10
272.95751953125
 20
-69.669921875
 30
0.0
 10
270.6904296875
 20
-76.041015625
 30
0.0
 10
266.85205078125
 20
-86.8251953125
 30
0.0
 10
270.11474609375
 20
-99.74658203125
 30
0.0
 10
278.80908203125
 20
-108.1943359375
 30
0.0
 10
283.81494140625
 20
-113.05810546875
 30
0.0
 10
289.98291015625
 20
-115.955078125
 30
0.0
 10
296.8056640625
 20
-116.81689453125
 30
0.0
 10
278.88818359375
 20
-131.02734375
 30
0.0
 10
260.29931640625
 20
-143.75048828125
 30
0.0
 10
240.15087890625
 20
-144.73486328125
 30
0.0
 10
226.93310546875
 20
-144.70361328125
 30
0.0
 10
217.81884765625
 20
-139.77294921875
 30
0.0
 10
214.47607421875
 20
-130.84228515625
 30
0.0
 10
211.7275390625
 20
-123.49609375
 30
0.0
 10
213.66455078125
 20
-114.73974609375
 30
0.0
 10
219.08349609375
 20
-110.0244140625
 30
0.0
 10
221.93505859375
 20
-107.5439453125
 30
0.0
 10
225.98046875
 20
-106.29931640625
 30
0.0
 10
229.14111328125
 20
-106.9287109375
 30
0.0
 10
231.52978515625
 20
-107.40380859375
 30
0.0
 10
233.31005859375
 20
-108.875
 30
0.0
 10
234.5810546875
 20
-111.42578125
 30
0.0
 10
235.48779296875
 20
-113.2431640625
 30
0.0
 10
234.66552734375
 20
-116.42138671875
 30
0.0
 10
232.74755859375
 20
-118.51123046875
 30
0.0
 10
232.05078125
 20
-119.26953125
 30
0.0
 10
230.6796875
 20
-120.46240234375
 30
0.0
 10
229.322265625
 20
-119.92333984375
 30
0.0
 10
226.568359375
 20
-118.83447265625
 30
0.0
 10
223.4453125
 20
-120.18359375
 30
0.0
 10
222.3525390625
 20
-122.94189453125
 30
0.0
 10
221.2626953125
 20
-125.69921875
 30
0.0
 10
222.61328125
 20
-128.8193359375
 30
0.0
 10
225.3720703125
 20
-129.91015625
 30
0.0
 10
230.572265625
 20
-131.9658203125
 30
0.0
 10
236.4296875
 20
-130.38134765625
 30
0.0
 10
240.66015625
 20
-125.7724609375
 30
0.0
 10
245.64794921875
 20
-120.337890625
 30
0.0
 10
247.10107421875
 20
-112.46728515625
 30
0.0
 10
244.193359375
 20
-106.63427734375
 30
0.0
 10
241.458984375
 20
-101.1494140625
 30
0.0
 10
236.85693359375
 20
-97.5126953125
 30
0.0
 10
231.2353515625
 20
-96.3955078125
 30
0.0
 10
224.78076171875
 20
-95.1123046875
 30
0.0
 10
217.42626953125
 20
-97.23095703125
 30
0.0
 10
212.03369140625
 20
-101.9228515625
 30
0.0
 10
204.16259765625
 20
-108.77197265625
 30
0.0
 10
200.84033203125
 20
-120.2197265625
 30
0.0
 10
203.29931640625
 20
-130.83203125
 30
0.0
 10
192.5576171875
 20
-128.1376953125
 30
0.0
 10
180.8603515625
 20
-131.4287109375
 30
0.0
 10
173.90673828125
 20
-139.41748046875
 30
0.0
 10
169.2236328125
 20
-144.8017578125
 30
0.0
 10
167.1083984375
 20
-152.14306640625
 30
0.0
 10
168.3896484375
 20
-158.5859375
 30
0.0
 10
169.5048828125
 20
-164.197265625
 30
0.0
 10
173.134765625
 20
-168.79150390625
 30
0.0
 10
178.60986328125
 20
-171.5205078125
 30
0.0
 10
184.43310546875
 20
-174.4228515625
 30
0.0
 10
192.28955078125
 20
-172.97216796875
 30
0.0
 10
197.71435546875
 20
-167.99365234375
 30
0.0
 10
202.3154296875
 20
-163.77099609375
 30
0.0
 10
203.89697265625
 20
-157.92333984375
 30
0.0
 10
201.8447265625
 20
-152.732421875
 30
0.0
 10
200.755859375
 20
-149.97900390625
 30
0.0
 10
197.6416015625
 20
-148.63037109375
 30
0.0
 10
194.88818359375
 20
-149.7197265625
 30
0.0
 10
192.13525390625
 20
-150.8095703125
 30
0.0
 10
190.78857421875
 20
-153.9267578125
 30
0.0
 10
191.87548828125
 20
-156.67578125
 30
0.0
 10
192.4140625
 20
-158.03125
 30
0.0
 10
191.2236328125
 20
-159.3994140625
 30
0.0
 10
190.46630859375
 20
-160.09521484375
 30
0.0
 10
188.3798828125
 20
-162.00927734375
 30
0.0
 10
185.20751953125
 20
-162.83056640625
 30
0.0
 10
183.392578125
 20
-161.92529296875
 30
0.0
 10
180.84716796875
 20
-160.65673828125
 30
0.0
 10
179.37841796875
 20
-158.88037109375
 30
0.0
 10
178.904296875
 20
-156.4951171875
 30
0.0
 10
178.27587890625
 20
-153.34033203125
 30
0.0
 10
179.51904296875
 20
-149.3017578125
 30
0.0
 10
181.99462890625
 20
-146.455078125
 30
0.0
 10
186.70166015625
 20
-141.0458984375
 30
0.0
 10
195.44140625
 20
-139.1123046875
 30
0.0
 10
202.775390625
 20
-141.8564453125
 30
0.0
 10
211.68994140625
 20
-145.19287109375
 30
0.0
 10
216.61279296875
 20
-154.291015625
 30
0.0
 10
216.64306640625
 20
-167.4853515625
 30
0.0
 10
215.66064453125
 20
-187.59814453125
 30
0.0
 10
202.95947265625
 20
-206.15380859375
 30
0.0
 10
188.775390625
 20
-224.0390625
 30
0.0
 10
187.91455078125
 20
-217.2294921875
 30
0.0
 10
185.0224609375
 20
-211.072265625
 30
0.0
 10
180.16748046875
 20
-206.07470703125
 30
0.0
 10
171.734375
 20
-197.39599609375
 30
0.0
 10
158.83642578125
 20
-194.138671875
 30
0.0
 10
148.072265625
 20
-197.97021484375
 30
0.0
 10
141.7119140625
 20
-200.23388671875
 30
0.0
 10
136.44189453125
 20
-205.66943359375
 30
0.0
 10
134.31689453125
 20
-212.15478515625
 30
0.0
 10
132.37158203125
 20
-218.0908203125
 30
0.0
 10
133.27294921875
 20
-224.26611328125
 30
0.0
 10
136.8515625
 20
-229.5458984375
 30
0.0
 10
140.5009765625
 20
-234.93212890625
 30
0.0
 10
148.0576171875
 20
-237.52392578125
 30
0.0
 10
155.22705078125
 20
-235.84765625
 30
0.0
 10
161.30859375
 20
-234.42578125
 30
0.0
 10
165.5576171875
 20
-230.10693359375
 30
0.0
 10
166.31494140625
 20
-224.5751953125
 30
0.0
 10
166.71875
 20
-221.6435546875
 30
0.0
 10
164.66455078125
 20
-218.93896484375
 30
0.0
 10
161.732421875
 20
-218.53759765625
 30
0.0
 10
158.7998046875
 20
-218.13525390625
 30
0.0
 10
156.095703125
 20
-220.18701171875
 30
0.0
 10
155.6943359375
 20
-223.1201171875
 30
0.0
 10
155.49560546875
 20
-224.56640625
 30
0.0
 10
153.78759765625
 20
-225.17431640625
 30
0.0
 10
152.78662109375
 20
-225.408203125
 30
0.0
 10
150.03076171875
 20
-226.0517578125
 30
0.0
 10
146.86376953125
 20
-225.21142578125
 30
0.0
 10
145.7265625
 20
-223.53271484375
 30
0.0
 10
144.00244140625
 20
-220.98828125
 30
0.0
 10
143.59130859375
 20
-218.28271484375
 30
0.0
 10
144.50439453125
 20
-215.4921875
 30
0.0
 10
145.58544921875
 20
-212.19287109375
 30
0.0
 10
148.46435546875
 20
-209.208984375
 30
0.0
 10
151.66650390625
 20
-208.0693359375
 30
0.0
 10
158.4443359375
 20
-205.65771484375
 30
0.0
 10
167.00244140625
 20
-207.90869140625
 30
0.0
 10
172.47900390625
 20
-213.54541015625
 30
0.0
 10
176.1171875
 20
-217.28955078125
 30
0.0
 10
181.36767578125
 20
-225.6298828125
 30
0.0
 10
176.1484375
 20
-239.65576171875
 30
0.0
 10
164.16455078125
 20
-254.509765625
 30
0.0
 10
153.49267578125
 20
-268.7900390625
 30
0.0
 10
149.689453125
 20
-283.7646484375
 30
0.0
 10
146.54443359375
 20
-296.14794921875
 30
0.0
 10
146.18359375
 20
-307.7353515625
 30
0.0
 10
148.6171875
 20
-318.20703125
 30
0.0
 10
151.42626953125
 20
-330.3017578125
 30
0.0
 10
157.962890625
 20
-340.9833984375
 30
0.0
 10
168.07763671875
 20
-349.982421875
 30
0.0
 10
173.81689453125
 20
-355.0068359375
 30
0.0
 10
179.80126953125
 20
-358.0595703125
 30
0.0
 10
185.60498046875
 20
-359.6533203125
 30
0.0
 10
179.80126953125
 20
-361.2490234375
 30
0.0
 10
173.81689453125
 20
-364.30078125
 30
0.0
 10
168.07763671875
 20
-369.3251953125
 30
0.0
 10
157.962890625
 20
-378.3251953125
 30
0.0
 10
151.42626953125
 20
-389.005859375
 30
0.0
 10
148.6171875
 20
-401.1005859375
 30
0.0
 10
146.18359375
 20
-411.5732421875
 30
0.0
 10
146.54443359375
 20
-423.1591796875
 30
0.0
 10
149.689453125
 20
-435.5439453125
 30
0.0
 10
153.49267578125
 20
-450.5185546875
 30
0.0
 10
164.16455078125
 20
-464.7978515625
 30
0.0
 10
176.1484375
 20
-479.65234375
 30
0.0
 10
181.36767578125
 20
-493.6787109375
 30
0.0
 10
176.1171875
 20
-502.017578125
 30
0.0
 10
172.47900390625
 20
-505.7626953125
 30
0.0
 10
167.00244140625
 20
-511.3994140625
 30
0.0
 10
158.4443359375
 20
-513.650390625
 30
0.0
 10
151.66650390625
 20
-511.23828125
 30
0.0
 10
148.46435546875
 20
-510.099609375
 30
0.0
 10
145.58544921875
 20
-507.1142578125
 30
0.0
 10
144.50439453125
 20
-503.814453125
 30
0.0
 10
143.59130859375
 20
-501.025390625
 30
0.0
 10
144.00244140625
 20
-498.3203125
 30
0.0
 10
145.7265625
 20
-495.775390625
 30
0.0
 10
146.86376953125
 20
-494.0966796875
 30
0.0
 10
150.03076171875
 20
-493.255859375
 30
0.0
 10
152.78662109375
 20
-493.8994140625
 30
0.0
 10
153.78759765625
 20
-494.1337890625
 30
0.0
 10
155.49560546875
 20
-494.7412109375
 30
0.0
 10
155.6943359375
 20
-496.1875
 30
0.0
 10
156.095703125
 20
-499.1201171875
 30
0.0
 10
158.7998046875
 20
-501.171875
 30
0.0
 10
161.732421875
 20
-500.7705078125
 30
0.0
 10
164.66455078125
 20
-500.3681640625
 30
0.0
 10
166.71875
 20
-497.6650390625
 30
0.0
 10
166.31494140625
 20
-494.732421875
 30
0.0
 10
165.5576171875
 20
-489.201171875
 30
0.0
 10
161.30859375
 20
-484.8818359375
 30
0.0
 10
155.22705078125
 20
-483.4599609375
 30
0.0
 10
148.0576171875
 20
-481.7841796875
 30
0.0
 10
140.5009765625
 20
-484.3759765625
 30
0.0
 10
136.8515625
 20
-489.76171875
 30
0.0
 10
133.27294921875
 20
-495.041015625
 30
0.0
 10
132.37158203125
 20
-501.216796875
 30
0.0
 10
134.31689453125
 20
-507.15234375
 30
0.0
 10
136.44189453125
 20
-513.6396484375
 30
0.0
 10
141.7119140625
 20
-519.07421875
 30
0.0
 10
148.072265625
 20
-521.337890625
 30
0.0
 10
158.83642578125
 20
-525.1689453125
 30
0.0
 10
171.734375
 20
-521.912109375
 30
0.0
 10
180.16748046875
 20
-513.2333984375
 30
0.0
 10
185.0224609375
 20
-508.236328125
 30
0.0
 10
187.91455078125
 20
-502.078125
 30
0.0
 10
188.775390625
 20
-495.2685546875
 30
0.0
 10
202.95947265625
 20
-513.1533203125
 30
0.0
 10
215.66064453125
 20
-531.7099609375
 30
0.0
 10
216.64306640625
 20
-551.822265625
 30
0.0
 10
216.61279296875
 20
-565.0166015625
 30
0.0
 10
211.68994140625
 20
-574.115234375
 30
0.0
 10
202.775390625
 20
-577.4521484375
 30
0.0
 10
195.44140625
 20
-580.1962890625
 30
0.0
 10
186.70166015625
 20
-578.26171875
 30
0.0
 10
181.99462890625
 20
-572.8525390625
 30
0.0
 10
179.51904296875
 20
-570.005859375
 30
0.0
 10
178.27587890625
 20
-565.96875
 30
0.0
 10
178.904296875
 20
-562.8125
 30
0.0
 10
179.37841796875
 20
-560.427734375
 30
0.0
 10
180.84716796875
 20
-558.6513671875
 30
0.0
 10
183.392578125
 20
-557.3828125
 30
0.0
 10
185.20751953125
 20
-556.4775390625
 30
0.0
 10
188.3798828125
 20
-557.298828125
 30
0.0
 10
190.46630859375
 20
-559.2119140625
 30
0.0
 10
191.2236328125
 20
-559.908203125
 30
0.0
 10
192.4140625
 20
-561.27734375
 30
0.0
 10
191.87548828125
 20
-562.6318359375
 30
0.0
 10
190.78857421875
 20
-565.380859375
 30
0.0
 10
192.13525390625
 20
-568.498046875
 30
0.0
 10
194.88818359375
 20
-569.5888671875
 30
0.0
 10
197.6416015625
 20
-570.677734375
 30
0.0
 10
200.755859375
 20
-569.328125
 30
0.0
 10
201.8447265625
 20
-566.5751953125
 30
0.0
 10
203.89697265625
 20
-561.384765625
 30
0.0
 10
202.3154296875
 20
-555.537109375
 30
0.0
 10
197.71435546875
 20
-551.314453125
 30
0.0
 10
192.28955078125
 20
-546.3349609375
 30
0.0
 10
184.43310546875
 20
-544.884765625
 30
0.0
 10
178.60986328125
 20
-547.7880859375
 30
0.0
 10
173.134765625
 20
-550.5166015625
 30
0.0
 10
169.5048828125
 20
-555.111328125
 30
0.0
 10
168.3896484375
 20
-560.72265625
 30
0.0
 10
167.1083984375
 20
-567.1650390625
 30
0.0
 10
169.2236328125
 20
-574.5068359375
 30
0.0
 10
173.90673828125
 20
-579.890625
 30
0.0
 10
180.8994140625
 20
-587.9248046875
 30
0.0
 10
192.69091796875
 20
-591.208984375
 30
0.0
 10
203.482421875
 20
-588.4306640625
 30
0.0
 10
200.69091796875
 20
-599.2451171875
 30
0.0
 10
203.9794921875
 20
-611.068359375
 30
0.0
 10
212.03369140625
 20
-618.076171875
 30
0.0
 10
217.42626953125
 20
-622.76953125
 30
0.0
 10
224.78076171875
 20
-624.8876953125
 30
0.0
 10
231.2353515625
 20
-623.6044921875
 30
0.0
 10
236.85693359375
 20
-622.4873046875
 30
0.0
 10
241.458984375
 20
-618.8505859375
 30
0.0
 10
244.193359375
 20
-613.3662109375
 30
0.0
 10
247.10107421875
 20
-607.533203125
 30
0.0
 10
245.64794921875
 20
-599.6630859375
 30
0.0
 10
240.66015625
 20
-594.2265625
 30
0.0
 10
236.4296875
 20
-589.6181640625
 30
0.0
 10
230.572265625
 20
-588.0341796875
 30
0.0
 10
225.3720703125
 20
-590.08984375
 30
0.0
 10
222.61328125
 20
-591.1806640625
 30
0.0
 10
221.2626953125
 20
-594.2998046875
 30
0.0
 10
222.3525390625
 20
-597.05859375
 30
0.0
 10
223.4453125
 20
-599.81640625
 30
0.0
 10
226.568359375
 20
-601.1640625
 30
0.0
 10
229.322265625
 20
-600.076171875
 30
0.0
 10
230.6796875
 20
-599.5380859375
 30
0.0
 10
232.05078125
 20
-600.73046875
 30
0.0
 10
232.74755859375
 20
-601.4892578125
 30
0.0
 10
234.66552734375
 20
-603.578125
 30
0.0
 10
235.48779296875
 20
-606.7568359375
 30
0.0
 10
234.5810546875
 20
-608.5751953125
 30
0.0
 10
233.31005859375
 20
-611.1259765625
 30
0.0
 10
231.52978515625
 20
-612.5966796875
 30
0.0
 10
229.14111328125
 20
-613.0703125
 30
0.0
 10
225.98046875
 20
-613.701171875
 30
0.0
 10
221.93505859375
 20
-612.45703125
 30
0.0
 10
219.08349609375
 20
-609.9765625
 30
0.0
 10
213.66455078125
 20
-605.259765625
 30
0.0
 10
211.7275390625
 20
-596.50390625
 30
0.0
 10
214.47607421875
 20
-589.158203125
 30
0.0
 10
217.81884765625
 20
-580.2275390625
 30
0.0
 10
226.93310546875
 20
-575.2958984375
 30
0.0
 10
240.15087890625
 20
-575.2646484375
 30
0.0
 10
260.29931640625
 20
-576.25
 30
0.0
 10
278.88818359375
 20
-588.97265625
 30
0.0
 10
296.8056640625
 20
-603.1826171875
 30
0.0
 10
289.98291015625
 20
-604.044921875
 30
0.0
 10
283.81494140625
 20
-606.9423828125
 30
0.0
 10
278.80908203125
 20
-611.8056640625
 30
0.0
 10
270.11474609375
 20
-620.25390625
 30
0.0
 10
266.85205078125
 20
-633.1748046875
 30
0.0
 10
270.6904296875
 20
-643.958984375
 30
0.0
 10
272.95751953125
 20
-650.330078125
 30
0.0
 10
278.4033203125
 20
-655.609375
 30
0.0
 10
284.89990234375
 20
-657.7392578125
 30
0.0
 10
290.8466796875
 20
-659.6875
 30
0.0
 10
297.033203125
 20
-658.783203125
 30
0.0
 10
302.3232421875
 20
-655.19921875
 30
0.0
 10
307.71826171875
 20
-651.54296875
 30
0.0
 10
310.3134765625
 20
-643.9736328125
 30
0.0
 10
308.634765625
 20
-636.7900390625
 30
0.0
 10
307.2109375
 20
-630.6982421875
 30
0.0
 10
302.8837890625
 20
-626.4423828125
 30
0.0
 10
297.3427734375
 20
-625.6826171875
 30
0.0
 10
294.40576171875
 20
-625.2783203125
 30
0.0
 10
291.6962890625
 20
-627.3359375
 30
0.0
 10
291.29345703125
 20
-630.2744140625
 30
0.0
 10
290.8916015625
 20
-633.2109375
 30
0.0
 10
292.94677734375
 20
-635.9208984375
 30
0.0
 10
295.884765625
 20
-636.322265625
 30
0.0
 10
297.333984375
 20
-636.521484375
 30
0.0
 10
297.94287109375
 20
-638.232421875
 30
0.0
 10
298.17724609375
 20
-639.236328125
 30
0.0
 10
298.822265625
 20
-641.9970703125
 30
0.0
 10
297.97998046875
 20
-645.1689453125
 30
0.0
 10
296.2978515625
 20
-646.30859375
 30
0.0
 10
293.74951171875
 20
-648.0361328125
 30
0.0
 10
291.03857421875
 20
-648.447265625
 30
0.0
 10
288.24365234375
 20
-647.5322265625
 30
0.0
 10
284.9384765625
 20
-646.44921875
 30
0.0
 10
281.94970703125
 20
-643.5654296875
 30
0.0
 10
280.8076171875
 20
-640.357421875
 30
0.0
 10
278.390625
 20
-633.5673828125
 30
0.0
 10
280.64697265625
 20
-624.9951171875
 30
0.0
 10
286.29296875
 20
-619.5078125
 30
0.0
 10
290.0439453125
 20
-615.8642578125
 30
0.0
 10
298.3994140625
 20
-610.603515625
 30
0.0
 10
312.4501953125
 20
-615.8330078125
 30
0.0
 10
322.59130859375
 20
-624.0146484375
 30
0.0
 10
332.4658203125
 20
-631.583984375
 30
0.0
 10
342.4755859375
 20
-636.78125
 30
0.0
 10
327.65087890625
 20
-642.748046875
 30
0.0
 10
323.44775390625
 20
-653.9580078125
 30
0.0
 10
322.27734375
 20
-659.248046875
 30
0.0
 10
319.607421875
 20
-671.3134765625
 30
0.0
 10
324.5849609375
 20
-684.18359375
 30
0.0
 10
334.3837890625
 20
-690.548828125
 30
0.0
 10
340.380859375
 20
-694.4404296875
 30
0.0
 10
347.9599609375
 20
-695.5107421875
 30
0.0
 10
354.1708984375
 20
-693.337890625
 30
0.0
 10
359.5810546875
 20
-691.4453125
 30
0.0
 10
363.6298828125
 20
-687.201171875
 30
0.0
 10
365.5703125
 20
-681.3896484375
 30
0.0
 10
367.63427734375
 20
-675.205078125
 30
0.0
 10
365.0966796875
 20
-667.6162109375
 30
0.0
 10
359.39794921875
 20
-662.931640625
 30
0.0
 10
354.56591796875
 20
-658.9580078125
 30
0.0
 10
348.54296875
 20
-658.20703125
 30
0.0
 10
343.68115234375
 20
-660.9697265625
 30
0.0
 10
341.1025390625
 20
-662.4375
 30
0.0
 10
340.2001953125
 20
-665.712890625
 30
0.0
 10
341.66650390625
 20
-668.2939453125
 30
0.0
 10
343.1328125
 20
-670.87109375
 30
0.0
 10
346.41455078125
 20
-671.771484375
 30
0.0
 10
348.98828125
 20
-670.306640625
 30
0.0
 10
350.25830078125
 20
-669.5849609375
 30
0.0
 10
351.78173828125
 20
-670.57421875
 30
0.0
 10
352.578125
 20
-671.2275390625
 30
0.0
 10
354.76806640625
 20
-673.0283203125
 30
0.0
 10
356.02685546875
 20
-676.0595703125
 30
0.0
 10
355.38232421875
 20
-677.986328125
 30
0.0
 10
354.48046875
 20
-680.69140625
 30
0.0
 10
352.923828125
 20
-682.396484375
 30
0.0
 10
350.625
 20
-683.19921875
 30
0.0
 10
347.583984375
 20
-684.263671875
 30
0.0
 10
343.40478515625
 20
-683.59765625
 30
0.0
 10
340.232421875
 20
-681.541015625
 30
0.0
 10
334.208984375
 20
-677.62890625
 30
0.0
 10
331.06689453125
 20
-669.228515625
 30
0.0
 10
332.76220703125
 20
-661.5703125
 30
0.0
 10
334.82421875
 20
-652.259765625
 30
0.0
 10
343.15966796875
 20
-646.1044921875
 30
0.0
 10
356.24365234375
 20
-644.2265625
 30
0.0
 10
359.7119140625
 20
-643.908203125
 30
0.0
 10
395.841796875
 20
-641.759765625
 30
0.0
 10
414.4287109375
 20
-662.34765625
 30
0.0
 10
422.96875
 20
-671.8046875
 30
0.0
 10
425.17578125
 20
-683.625
 30
0.0
 10
420.69677734375
 20
-693.5859375
 30
0.0
 10
417.634765625
 20
-700.3974609375
 30
0.0
 10
411.77685546875
 20
-704.82421875
 30
0.0
 10
405.77392578125
 20
-704.865234375
 30
0.0
 10
405.75
 20
-704.865234375
 30
0.0
 10
405.72607421875
 20
-704.865234375
 30
0.0
 10
405.701171875
 20
-704.865234375
 30
0.0
 10
402.0693359375
 20
-704.865234375
 30
0.0
 10
398.27734375
 20
-703.134765625
 30
0.0
 10
396.24853515625
 20
-700.5478515625
 30
0.0
 10
394.66455078125
 20
-698.52734375
 30
0.0
 10
394.22021484375
 20
-696.0791015625
 30
0.0
 10
394.9287109375
 20
-693.271484375
 30
0.0
 10
395.42529296875
 20
-691.3017578125
 30
0.0
 10
398.1201171875
 20
-689.4267578125
 30
0.0
 10
400.93505859375
 20
-689.0908203125
 30
0.0
 10
401.96044921875
 20
-688.96875
 30
0.0
 10
403.7744140625
 20
-688.958984375
 30
0.0
 10
404.4541015625
 20
-690.2509765625
 30
0.0
 10
405.83740234375
 20
-692.875
 30
0.0
 10
409.0859375
 20
-693.880859375
 30
0.0
 10
411.70751953125
 20
-692.501953125
 30
0.0
 10
414.33203125
 20
-691.119140625
 30
0.0
 10
415.3388671875
 20
-687.8720703125
 30
0.0
 10
413.9580078125
 20
-685.2470703125
 30
0.0
 10
411.35205078125
 20
-680.2998046875
 30
0.0
 10
405.87841796875
 20
-677.6787109375
 30
0.0
 10
399.662109375
 20
-678.427734375
 30
0.0
 10
392.3388671875
 20
-679.2998046875
 30
0.0
 10
386.109375
 20
-684.32421875
 30
0.0
 10
384.515625
 20
-690.64453125
 30
0.0
 10
382.99609375
 20
-696.66796875
 30
0.0
 10
384.16162109375
 20
-702.5390625
 30
0.0
 10
387.79736328125
 20
-707.1748046875
 30
0.0
 10
391.880859375
 20
-712.3818359375
 30
0.0
 10
398.7294921875
 20
-715.6044921875
 30
0.0
 10
405.70068359375
 20
-715.60546875
 30
0.0
 10
405.74853515625
 20
-715.60546875
 30
0.0
 10
405.7958984375
 20
-715.6044921875
 30
0.0
 10
405.84375
 20
-715.6044921875
 30
0.0
 10
416.1943359375
 20
-715.5341796875
 30
0.0
 10
425.6376953125
 20
-708.78515625
 30
0.0
 10
430.4912109375
 20
-697.9912109375
 30
0.0
 10
431.138671875
 20
-696.5517578125
 30
0.0
 10
431.703125
 20
-694.9990234375
 30
0.0
 10
432.1689453125
 20
-693.357421875
 30
0.0
 10
432.6357421875
 20
-694.9990234375
 30
0.0
 10
433.2001953125
 20
-696.5517578125
 30
0.0
 10
433.84765625
 20
-697.9912109375
 30
0.0
 10
438.701171875
 20
-708.78515625
 30
0.0
 10
448.14453125
 20
-715.5341796875
 30
0.0
 10
458.4951171875
 20
-715.6044921875
 30
0.0
 10
458.5439453125
 20
-715.6044921875
 30
0.0
 10
458.5908203125
 20
-715.60546875
 30
0.0
 10
458.6396484375
 20
-715.60546875
 30
0.0
 10
465.609375
 20
-715.6044921875
 30
0.0
 10
472.458984375
 20
-712.3818359375
 30
0.0
 10
476.54296875
 20
-707.1748046875
 30
0.0
 10
480.177734375
 20
-702.5390625
 30
0.0
 10
481.34375
 20
-696.66796875
 30
0.0
 10
479.82421875
 20
-690.64453125
 30
0.0
 10
478.2294921875
 20
-684.32421875
 30
0.0
 10
472.0009765625
 20
-679.2998046875
 30
0.0
 10
464.677734375
 20
-678.427734375
 30
0.0
 10
458.4609375
 20
-677.6787109375
 30
0.0
 10
452.9873046875
 20
-680.2998046875
 30
0.0
 10
450.3818359375
 20
-685.2470703125
 30
0.0
 10
449.0009765625
 20
-687.8720703125
 30
0.0
 10
450.0078125
 20
-691.119140625
 30
0.0
 10
452.6328125
 20
-692.501953125
 30
0.0
 10
455.2548828125
 20
-693.880859375
 30
0.0
 10
458.50390625
 20
-692.875
 30
0.0
 10
459.8837890625
 20
-690.2509765625
 30
0.0
 10
460.5654296875
 20
-688.958984375
 30
0.0
 10
462.380859375
 20
-688.96875
 30
0.0
 10
463.404296875
 20
-689.0908203125
 30
0.0
 10
466.220703125
 20
-689.4267578125
 30
0.0
 10
468.9140625
 20
-691.3017578125
 30
0.0
 10
469.41015625
 20
-693.271484375
 30
0.0
 10
470.1201171875
 20
-696.0791015625
 30
0.0
 10
469.67578125
 20
-698.52734375
 30
0.0
 10
468.091796875
 20
-700.5478515625
 30
0.0
 10
466.0625
 20
-703.134765625
 30
0.0
 10
462.271484375
 20
-704.865234375
 30
0.0
 10
458.6376953125
 20
-704.865234375
 30
0.0
 10
458.6142578125
 20
-704.865234375
 30
0.0
 10
458.58984375
 20
-704.865234375
 30
0.0
 10
458.56640625
 20
-704.865234375
 30
0.0
 10
452.5634765625
 20
-704.82421875
 30
0.0
 10
446.705078125
 20
-700.3974609375
 30
0.0
 10
443.642578125
 20
-693.5859375
 30
0.0
 10
439.1650390625
 20
-683.625
 30
0.0
 10
441.4140625
 20
-671.841796875
 30
0.0
 10
449.9111328125
 20
-662.34765625
 30
0.0
 10
468.3330078125
 20
-641.759765625
 30
0.0
 10
505.6123046875
 20
-643.908203125
 30
0.0
 10
509.080078125
 20
-644.2265625
 30
0.0
 10
522.1640625
 20
-646.1044921875
 30
0.0
 10
530.5
 20
-652.259765625
 30
0.0
 10
532.5615234375
 20
-661.5703125
 30
0.0
 10
534.255859375
 20
-669.228515625
 30
0.0
 10
531.115234375
 20
-677.62890625
 30
0.0
 10
525.091796875
 20
-681.541015625
 30
0.0
 10
521.9189453125
 20
-683.59765625
 30
0.0
 10
517.740234375
 20
-684.263671875
 30
0.0
 10
514.6982421875
 20
-683.19921875
 30
0.0
 10
512.3984375
 20
-682.396484375
 30
0.0
 10
510.84375
 20
-680.69140625
 30
0.0
 10
509.94140625
 20
-677.986328125
 30
0.0
 10
509.296875
 20
-676.0595703125
 30
0.0
 10
510.5556640625
 20
-673.0283203125
 30
0.0
 10
512.74609375
 20
-671.2275390625
 30
0.0
 10
513.541015625
 20
-670.57421875
 30
0.0
 10
515.06640625
 20
-669.5849609375
 30
0.0
 10
516.3359375
 20
-670.306640625
 30
0.0
 10
518.9091796875
 20
-671.771484375
 30
0.0
 10
522.19140625
 20
-670.87109375
 30
0.0
 10
523.6572265625
 20
-668.2939453125
 30
0.0
 10
525.123046875
 20
-665.712890625
 30
0.0
 10
524.2216796875
 20
-662.4375
 30
0.0
 10
521.642578125
 20
-660.9697265625
 30
0.0
 10
516.78125
 20
-658.20703125
 30
0.0
 10
510.7578125
 20
-658.9580078125
 30
0.0
 10
505.9267578125
 20
-662.931640625
 30
0.0
 10
500.2275390625
 20
-667.6162109375
 30
0.0
 10
497.689453125
 20
-675.205078125
 30
0.0
 10
499.75390625
 20
-681.3896484375
 30
0.0
 10
501.693359375
 20
-687.201171875
 30
0.0
 10
505.7431640625
 20
-691.4453125
 30
0.0
 10
511.1533203125
 20
-693.337890625
 30
0.0
 10
517.365234375
 20
-695.5107421875
 30
0.0
 10
524.943359375
 20
-694.4404296875
 30
0.0
 10
530.9404296875
 20
-690.548828125
 30
0.0
 10
540.7392578125
 20
-684.18359375
 30
0.0
 10
545.71875
 20
-671.3134765625
 30
0.0
 10
543.0458984375
 20
-659.248046875
 30
0.0
 10
541.876953125
 20
-653.9580078125
 30
0.0
 10
537.673828125
 20
-642.748046875
 30
0.0
 10
522.849609375
 20
-636.78125
 30
0.0
 10
532.857421875
 20
-631.583984375
 30
0.0
 10
542.732421875
 20
-624.0146484375
 30
0.0
 10
552.873046875
 20
-615.8330078125
 30
0.0
 10
566.92578125
 20
-610.603515625
 30
0.0
 10
575.2802734375
 20
-615.8642578125
 30
0.0
 10
579.03125
 20
-619.5078125
 30
0.0
 10
584.677734375
 20
-624.9951171875
 30
0.0
 10
586.93359375
 20
-633.5673828125
 30
0.0
 10
584.5166015625
 20
-640.357421875
 30
0.0
 10
583.375
 20
-643.5654296875
 30
0.0
 10
580.38671875
 20
-646.44921875
 30
0.0
 10
577.0810546875
 20
-647.5322265625
 30
0.0
 10
574.2861328125
 20
-648.447265625
 30
0.0
 10
571.5751953125
 20
-648.0361328125
 30
0.0
 10
569.02734375
 20
-646.30859375
 30
0.0
 10
567.3447265625
 20
-645.1689453125
 30
0.0
 10
566.5009765625
 20
-641.9970703125
 30
0.0
 10
567.146484375
 20
-639.236328125
 30
0.0
 10
567.3818359375
 20
-638.232421875
 30
0.0
 10
567.9912109375
 20
-636.521484375
 30
0.0
 10
569.4384765625
 20
-636.322265625
 30
0.0
 10
572.376953125
 20
-635.9208984375
 30
0.0
 10
574.43359375
 20
-633.2109375
 30
0.0
 10
574.0302734375
 20
-630.2744140625
 30
0.0
 10
573.6279296875
 20
-627.3359375
 30
0.0
 10
570.9189453125
 20
-625.2783203125
 30
0.0
 10
567.982421875
 20
-625.6826171875
 30
0.0
 10
562.4404296875
 20
-626.4423828125
 30
0.0
 10
558.115234375
 20
-630.6982421875
 30
0.0
 10
556.6884765625
 20
-636.7900390625
 30
0.0
 10
555.0107421875
 20
-643.9736328125
 30
0.0
 10
557.60546875
 20
-651.54296875
 30
0.0
 10
563.0009765625
 20
-655.19921875
 30
0.0
 10
568.291015625
 20
-658.783203125
 30
0.0
 10
574.4765625
 20
-659.6875
 30
0.0
 10
580.4248046875
 20
-657.7392578125
 30
0.0
 10
586.921875
 20
-655.609375
 30
0.0
 10
592.3671875
 20
-650.330078125
 30
0.0
 10
594.634765625
 20
-643.958984375
 30
0.0
 10
598.47265625
 20
-633.1748046875
 30
0.0
 10
595.2099609375
 20
-620.25390625
 30
0.0
 10
586.5146484375
 20
-611.8056640625
 30
0.0
 10
581.5087890625
 20
-606.9423828125
 30
0.0
 10
575.3408203125
 20
-604.044921875
 30
0.0
 10
568.5185546875
 20
-603.1826171875
 30
0.0
 10
586.435546875
 20
-588.97265625
 30
0.0
 10
605.0244140625
 20
-576.25
 30
0.0
 10
625.173828125
 20
-575.2646484375
 30
0.0
 10
638.390625
 20
-575.2958984375
 30
0.0
 10
647.5048828125
 20
-580.2275390625
 30
0.0
 10
650.84765625
 20
-589.158203125
 30
0.0
 10
653.59765625
 20
-596.50390625
 30
0.0
 10
651.6591796875
 20
-605.259765625
 30
0.0
 10
646.2412109375
 20
-609.9765625
 30
0.0
 10
643.388671875
 20
-612.45703125
 30
0.0
 10
639.345703125
 20
-613.701171875
 30
0.0
 10
636.18359375
 20
-613.0703125
 30
0.0
 10
633.7939453125
 20
-612.5966796875
 30
0.0
 10
632.0146484375
 20
-611.1259765625
 30
0.0
 10
630.7431640625
 20
-608.5751953125
 30
0.0
 10
629.8359375
 20
-606.7568359375
 30
0.0
 10
630.658203125
 20
-603.578125
 30
0.0
 10
632.578125
 20
-601.4892578125
 30
0.0
 10
633.2734375
 20
-600.73046875
 30
0.0
 10
634.6455078125
 20
-599.5380859375
 30
0.0
 10
636.001953125
 20
-600.076171875
 30
0.0
 10
638.755859375
 20
-601.1640625
 30
0.0
 10
641.87890625
 20
-599.81640625
 30
0.0
 10
642.970703125
 20
-597.05859375
 30
0.0
 10
644.0625
 20
-594.2998046875
 30
0.0
 10
642.7109375
 20
-591.1806640625
 30
0.0
 10
639.953125
 20
-590.08984375
 30
0.0
 10
634.751953125
 20
-588.0341796875
 30
0.0
 10
628.8955078125
 20
-589.6181640625
 30
0.0
 10
624.6630859375
 20
-594.2265625
 30
0.0
 10
619.677734375
 20
-599.6630859375
 30
0.0
 10
618.2236328125
 20
-607.533203125
 30
0.0
 10
621.1318359375
 20
-613.3662109375
 30
0.0
 10
623.8662109375
 20
-618.8505859375
 30
0.0
 10
628.466796875
 20
-622.4873046875
 30
0.0
 10
634.0888671875
 20
-623.6044921875
 30
0.0
 10
640.54296875
 20
-624.8876953125
 30
0.0
 10
647.8974609375
 20
-622.76953125
 30
0.0
 10
653.291015625
 20
-618.076171875
 30
0.0
 10
661.2548828125
 20
-611.1455078125
 30
0.0
 10
664.55859375
 20
-599.5087890625
 30
0.0
 10
661.9326171875
 20
-588.79296875
 30
0.0
 10
672.30078125
 20
-590.908203125
 30
0.0
 10
683.3349609375
 20
-587.552734375
 30
0.0
 10
690.00390625
 20
-579.890625
 30
0.0
 10
694.6875
 20
-574.5068359375
 30
0.0
 10
696.802734375
 20
-567.1650390625
 30
0.0
 10
695.521484375
 20
-560.72265625
 30
0.0
 10
694.40625
 20
-555.111328125
 30
0.0
 10
690.775390625
 20
-550.5166015625
 30
0.0
 10
685.30078125
 20
-547.7880859375
 30
0.0
 10
679.478515625
 20
-544.884765625
 30
0.0
 10
671.62109375
 20
-546.3349609375
 30
0.0
 10
666.197265625
 20
-551.314453125
 30
0.0
 10
661.5966796875
 20
-555.537109375
 30
0.0
 10
660.013671875
 20
-561.384765625
 30
0.0
 10
662.0654296875
 20
-566.5751953125
 30
0.0
 10
663.15625
 20
-569.328125
 30
0.0
 10
666.26953125
 20
-570.677734375
 30
0.0
 10
669.0224609375
 20
-569.5888671875
 30
0.0
 10
671.7763671875
 20
-568.498046875
 30
0.0
 10
673.1220703125
 20
-565.380859375
 30
0.0
 10
672.03515625
 20
-562.6318359375
 30
0.0
 10
671.49609375
 20
-561.27734375
 30
0.0
 10
672.6875
 20
-559.908203125
 30
0.0
 10
673.4443359375
 20
-559.2119140625
 30
0.0
 10
675.53125
 20
-557.298828125
 30
0.0
 10
678.703125
 20
-556.4775390625
 30
0.0
 10
680.5185546875
 20
-557.3828125
 30
0.0
 10
683.0634765625
 20
-558.6513671875
 30
0.0
 10
684.5322265625
 20
-560.427734375
 30
0.0
 10
685.0068359375
 20
-562.8125
 30
0.0
 10
685.6357421875
 20
-565.96875
 30
0.0
 10
684.392578125
 20
-570.005859375
 30
0.0
 10
681.9169921875
 20
-572.8525390625
 30
0.0
 10
677.2099609375
 20
-578.26171875
 30
0.0
 10
668.4697265625
 20
-580.1962890625
 30
0.0
 10
661.13671875
 20
-577.4521484375
 30
0.0
 10
652.220703125
 20
-574.115234375
 30
0.0
 10
647.2978515625
 20
-565.0166015625
 30
0.0
 10
647.267578125
 20
-551.822265625
 30
0.0
 10
648.25
 20
-531.7099609375
 30
0.0
 10
660.951171875
 20
-513.1533203125
 30
0.0
 10
675.1357421875
 20
-495.2685546875
 30
0.0
 10
675.9970703125
 20
-502.078125
 30
0.0
 10
678.888671875
 20
-508.236328125
 30
0.0
 10
683.7431640625
 20
-513.2333984375
 30
0.0
 10
692.1767578125
 20
-521.912109375
 30
0.0
 10
705.07421875
 20
-525.1689453125
 30
0.0
 10
715.8388671875
 20
-521.337890625
 30
0.0
 10
722.19921875
 20
-519.07421875
 30
0.0
 10
727.46875
 20
-513.6396484375
 30
0.0
 10
729.59375
 20
-507.15234375
 30
0.0
 10
731.5400390625
 20
-501.216796875
 30
0.0
 10
730.6376953125
 20
-495.041015625
 30
0.0
 10
727.060546875
 20
-489.76171875
 30
0.0
 10
723.41015625
 20
-484.3759765625
 30
0.0
 10
715.853515625
 20
-481.7841796875
 30
0.0
 10
708.6845703125
 20
-483.4599609375
 30
0.0
  0
SPLINE
  5
3D
330
1F
100
AcDbEntity
  8
Layer 1
 62
   250
420
  2301728
370
    35
100
AcDbSpline
210
0.0
220
0.0
230
1.0
 70
    11
 71
     3
 72
    89
 73
    85
 74
     0
 42
0.0000000001
 43
0.0000000001
 40
0.0
 40
0.0
 40
0.0
 40
0.0
 40
1.0
 40
1.0
 40
1.0
 40
2.0
 40
2.0
 40
2.0
 40
3.0
 40
3.0
 40
3.0
 40
4.0
 40
4.0
 40
4.0
 40
5.0
 40
5.0
 40
5.0
 40
6.0
 40
6.0
 40
6.0
 40
7.0
 40
7.0
 40
7.0
 40
8.0
 40
8.0
 40
8.0
 40
9.0
 40
9.0
 40
9.0
 40
10.0
 40
10.0
 40
10.0
 40
11.0
 40
11.0
 40
11.0
 40
12.0
 40
12.0
 40
12.0
 40
13.0
 40
13.0
 40
13.0
 40
14.0
 40
14.0
 40
14.0
 40
15.0
 40
15.0
 40
15.0
 40
16.0
 40
16.0
 40
16.0
 40
17.0
 40
17.0
 40
17.0
 40
18.0
 40
18.0
 40
18.0
 40
19.0
 40
19.0
 40
19.0
 40
20.0
 40
20.0
 40
20.0
 40
21.0
 40
21.0
 40
21.0
 40
22.0
 40
22.0
 40
22.0
 40
23.0
 40
23.0
 40
23.0
 40
24.0
 40
24.0
 40
24.0
 40
25.0
 40
25.0
 40
25.0
 40
26.0
 40
26.0
 40
26.0
 40
27.0
 40
27.0
 40
27.0
 40
28.0
 40
28.0
 40
28.0
 40
28.0
 10
679.4755859375
 20
-246.45703125
 30
0.0
 10
690.6708984375
 20
-260.3388671875
 30
0.0
 10
700.5712890625
 20
-273.57080078125
 30
0.0
 10
703.8310546875
 20
-286.40380859375
 30
0.0
 10
709.6220703125
 20
-309.2001953125
 30
0.0
 10
704.5419921875
 20
-327.884765625
 30
0.0
 10
688.7392578125
 20
-341.9443359375
 30
0.0
 10
679.169921875
 20
-350.322265625
 30
0.0
 10
667.5
 20
-352.6708984375
 30
0.0
 10
657.556640625
 20
-348.201171875
 30
0.0
 10
650.7578125
 20
-345.14453125
 30
0.0
 10
646.3388671875
 20
-339.296875
 30
0.0
 10
646.298828125
 20
-333.3046875
 30
0.0
 10
646.298828125
 20
-333.28125
 30
0.0
 10
646.298828125
 20
-333.2568359375
 30
0.0
 10
646.298828125
 20
-333.232421875
 30
0.0
 10
646.298828125
 20
-329.6064453125
 30
0.0
 10
648.0244140625
 20
-325.822265625
 30
0.0
 10
650.607421875
 20
-323.794921875
 30
0.0
 10
652.6240234375
 20
-322.21484375
 30
0.0
 10
655.0673828125
 20
-321.771484375
 30
0.0
 10
657.87109375
 20
-322.478515625
 30
0.0
 10
659.8359375
 20
-322.974609375
 30
0.0
 10
661.7080078125
 20
-325.6640625
 30
0.0
 10
662.0439453125
 20
-328.474609375
 30
0.0
 10
662.1650390625
 20
-329.498046875
 30
0.0
 10
662.1767578125
 20
-331.3076171875
 30
0.0
 10
660.8857421875
 20
-331.98828125
 30
0.0
 10
658.265625
 20
-333.3681640625
 30
0.0
 10
657.26171875
 20
-336.6103515625
 30
0.0
 10
658.6396484375
 20
-339.228515625
 30
0.0
 10
660.017578125
 20
-341.84765625
 30
0.0
 10
663.259765625
 20
-342.8525390625
 30
0.0
 10
665.8798828125
 20
-341.4736328125
 30
0.0
 10
670.818359375
 20
-338.873046875
 30
0.0
 10
673.4345703125
 20
-333.4091796875
 30
0.0
 10
672.6884765625
 20
-327.2041015625
 30
0.0
 10
671.81640625
 20
-319.8935546875
 30
0.0
 10
666.80078125
 20
-313.6748046875
 30
0.0
 10
660.4931640625
 20
-312.083984375
 30
0.0
 10
654.48046875
 20
-310.5673828125
 30
0.0
 10
648.6201171875
 20
-311.7314453125
 30
0.0
 10
643.9921875
 20
-315.3603515625
 30
0.0
 10
643.0244140625
 20
-316.119140625
 30
0.0
 10
642.1259765625
 20
-316.9755859375
 30
0.0
 10
641.302734375
 20
-317.908203125
 30
0.0
 10
641.302734375
 20
-317.908203125
 30
0.0
 10
641.302734375
 20
-280.68310546875
 30
0.0
 10
641.302734375
 20
-280.68310546875
 30
0.0
 10
643.513671875
 20
-283.09716796875
 30
0.0
 10
646.2333984375
 20
-285.0556640625
 30
0.0
 10
649.2548828125
 20
-286.30322265625
 30
0.0
 10
655.03515625
 20
-288.689453125
 30
0.0
 10
661.2783203125
 20
-288.24853515625
 30
0.0
 10
666.8369140625
 20
-285.0625
 30
0.0
 10
672.48046875
 20
-281.8251953125
 30
0.0
 10
675.6298828125
 20
-274.482421875
 30
0.0
 10
674.4951171875
 20
-267.208984375
 30
0.0
 10
673.5322265625
 20
-261.03857421875
 30
0.0
 10
669.5439453125
 20
-256.47802734375
 30
0.0
 10
664.0869140625
 20
-255.30859375
 30
0.0
 10
661.19140625
 20
-254.6884765625
 30
0.0
 10
658.3408203125
 20
-256.53173828125
 30
0.0
 10
657.7216796875
 20
-259.42626953125
 30
0.0
 10
657.0986328125
 20
-262.322265625
 30
0.0
 10
658.9453125
 20
-265.17138671875
 30
0.0
 10
661.8388671875
 20
-265.791015625
 30
0.0
 10
663.265625
 20
-266.09619140625
 30
0.0
 10
663.744140625
 20
-267.84521484375
 30
0.0
 10
663.9033203125
 20
-268.861328125
 30
0.0
 10
664.3388671875
 20
-271.65966796875
 30
0.0
 10
663.263671875
 20
-274.75341796875
 30
0.0
 10
661.5048828125
 20
-275.76220703125
 30
0.0
 10
658.8125
 20
-277.3056640625
 30
0.0
 10
656.068359375
 20
-277.517578125
 30
0.0
 10
653.345703125
 20
-276.3935546875
 30
0.0
 10
650.1728515625
 20
-275.0830078125
 30
0.0
 10
647.4443359375
 20
-272.0234375
 30
0.0
 10
646.556640625
 20
-268.77783203125
 30
0.0
 10
644.6484375
 20
-261.80859375
 30
0.0
 10
647.55078125
 20
-253.40771484375
 30
0.0
 10
653.609375
 20
-248.3447265625
 30
0.0
 10
657.572265625
 20
-245.03369140625
 30
0.0
 10
666.140625
 20
-240.48095703125
 30
0.0
 10
679.4755859375
 20
-246.45703125
 30
0.0
  0
POLYLINE
  5
3E
330
1F
100
AcDbEntity
  8
Layer 1
 62
   250
420
  2301728
370
    35
100
AcDb2dPolyline
 66
     1
 10
0.0
 20
0.0
 30
0.0
  0
VERTEX
  5
3F
330
3E
100
AcDbEntity
  8
Layer 1
 62
   250
420
  2301728
370
    35
100
AcDbVertex
100
AcDb2dVertex
 10
240.1396484375
 20
-551.8603515625
 30
0.0
  0
VERTEX
  5
40
330
3E
100
AcDbEntity
  8
Layer 1
 62
   250
420
  2301728
370
    35
100
AcDbVertex
100
AcDb2dVertex
 10
240.1396484375
 20
-168.1396484375
 30
0.0
  0
VERTEX
  5
41
330
3E
100
AcDbEntity
  8
Layer 1
 62
   250
420
  2301728
370
    35
100
AcDbVertex
100
AcDb2dVertex
 10
623.8603515625
 20
-168.1396484375
 30
0.0
  0
VERTEX
  5
42
330
3E
100
AcDbEntity
  8
Layer 1
 62
   250
420
  2301728
370
    35
100
AcDbVertex
100
AcDb2dVertex
 10
623.8603515625
 20
-551.8603515625
 30
0.0
  0
VERTEX
  5
43
330
3E
100
AcDbEntity
  8
Layer 1
 62
   250
420
  2301728
370
    35
100
AcDbVertex
100
AcDb2dVertex
 10
240.1396484375
 20
-551.8603515625
 30
0.0
  0
SEQEND
  5
44
330
3E
100
AcDbEntity
  8
Layer 1
370
    35
  0
SPLINE
  5
45
330
1F
100
AcDbEntity
  8
Layer 1
 62
   250
420
  2301728
370
    35
100
AcDbSpline
210
0.0
220
0.0
230
1.0
 70
    11
 71
     3
 72
    20
 73
    16
 74
     0
 42
0.0000000001
 43
0.0000000001
 40
0.0
 40
0.0
 40
0.0
 40
0.0
 40
1.0
 40
1.0
 40
1.0
 40
2.0
 40
2.0
 40
2.0
 40
3.0
 40
3.0
 40
3.0
 40
4.0
 40
4.0
 40
4.0
 40
5.0
 40
5.0
 40
5.0
 40
5.0
 10
443.3515625
 20
-569.302734375
 30
0.0
 10
439.6435546875
 20
-572.28125
 30
0.0
 10
436.5244140625
 20
-576.3095703125
 30
0.0
 10
434.33984375
 20
-581.16796875
 30
0.0
 10
433.693359375
 20
-582.607421875
 30
0.0
 10
433.1279296875
 20
-584.1591796875
 30
0.0
 10
432.662109375
 20
-585.80078125
 30
0.0
 10
432.197265625
 20
-584.1591796875
 30
0.0
 10
431.630859375
 20
-582.607421875
 30
0.0
 10
430.984375
 20
-581.16796875
 30
0.0
 10
428.7998046875
 20
-576.3095703125
 30
0.0
 10
425.6806640625
 20
-572.28125
 30
0.0
 10
421.9736328125
 20
-569.302734375
 30
0.0
 10
421.9736328125
 20
-569.302734375
 30
0.0
 10
443.3515625
 20
-569.302734375
 30
0.0
 10
443.3515625
 20
-569.302734375
 30
0.0
  0
SPLINE
  5
46
330
1F
100
AcDbEntity
  8
Layer 1
 62
   250
420
  2301728
370
    35
100
AcDbSpline
210
0.0
220
0.0
230
1.0
 70
    11
 71
     3
 72
    20
 73
    16
 74
     0
 42
0.0000000001
 43
0.0000000001
 40
0.0
 40
0.0
 40
0.0
 40
0.0
 40
1.0
 40
1.0
 40
1.0
 40
2.0
 40
2.0
 40
2.0
 40
3.0
 40
3.0
 40
3.0
 40
4.0
 40
4.0
 40
4.0
 40
5.0
 40
5.0
 40
5.0
 40
5.0
 10
222.69775390625
 20
-370.4560546875
 30
0.0
 10
219.7138671875
 20
-366.6982421875
 30
0.0
 10
215.6572265625
 20
-363.53515625
 30
0.0
 10
210.7509765625
 20
-361.3291015625
 30
0.0
 10
209.314453125
 20
-360.68359375
 30
0.0
 10
207.7646484375
 20
-360.119140625
 30
0.0
 10
206.1259765625
 20
-359.6533203125
 30
0.0
 10
207.7646484375
 20
-359.1884765625
 30
0.0
 10
209.314453125
 20
-358.625
 30
0.0
 10
210.7509765625
 20
-357.978515625
 30
0.0
 10
215.6572265625
 20
-355.7734375
 30
0.0
 10
219.7138671875
 20
-352.609375
 30
0.0
 10
222.69775390625
 20
-348.8505859375
 30
0.0
 10
222.69775390625
 20
-348.8505859375
 30
0.0
 10
222.69775390625
 20
-370.4560546875
 30
0.0
 10
222.69775390625
 20
-370.4560546875
 30
0.0
  0
SPLINE
  5
47
330
1F
100
AcDbEntity
  8
Layer 1
 62
   250
420
  2301728
370
    35
100
AcDbSpline
210
0.0
220
0.0
230
1.0
 70
    11
 71
     3
 72
    20
 73
    16
 74
     0
 42
0.0000000001
 43
0.0000000001
 40
0.0
 40
0.0
 40
0.0
 40
0.0
 40
1.0
 40
1.0
 40
1.0
 40
2.0
 40
2.0
 40
2.0
 40
3.0
 40
3.0
 40
3.0
 40
4.0
 40
4.0
 40
4.0
 40
5.0
 40
5.0
 40
5.0
 40
5.0
 10
421.9736328125
 20
-150.69775390625
 30
0.0
 10
425.6806640625
 20
-147.71826171875
 30
0.0
 10
428.80078125
 20
-143.689453125
 30
0.0
 10
430.984375
 20
-138.83203125
 30
0.0
 10
431.630859375
 20
-137.39306640625
 30
0.0
 10
432.197265625
 20
-135.8408203125
 30
0.0
 10
432.662109375
 20
-134.19921875
 30
0.0
 10
433.1279296875
 20
-135.8408203125
 30
0.0
 10
433.693359375
 20
-137.39306640625
 30
0.0
 10
434.33984375
 20
-138.83203125
 30
0.0
 10
436.5244140625
 20
-143.689453125
 30
0.0
 10
439.6435546875
 20
-147.71826171875
 30
0.0
 10
443.3505859375
 20
-150.69775390625
 30
0.0
 10
443.3505859375
 20
-150.69775390625
 30
0.0
 10
421.9736328125
 20
-150.69775390625
 30
0.0
 10
421.9736328125
 20
-150.69775390625
 30
0.0
  0
SPLINE
  5
48
330
1F
100
AcDbEntity
  8
Layer 1
 62
   250
420
  2301728
370
    35
100
AcDbSpline
210
0.0
220
0.0
230
1.0
 70
    11
 71
     3
 72
    20
 73
    16
 74
     0
 42
0.0000000001
 43
0.0000000001
 40
0.0
 40
0.0
 40
0.0
 40
0.0
 40
1.0
 40
1.0
 40
1.0
 40
2.0
 40
2.0
 40
2.0
 40
3.0
 40
3.0
 40
3.0
 40
4.0
 40
4.0
 40
4.0
 40
5.0
 40
5.0
 40
5.0
 40
5.0
 10
641.302734375
 20
-348.966796875
 30
0.0
 10
644.27734375
 20
-352.6748046875
 30
0.0
 10
648.302734375
 20
-355.794921875
 30
0.0
 10
653.16015625
 20
-357.978515625
 30
0.0
 10
654.5966796875
 20
-358.625
 30
0.0
 10
656.1455078125
 20
-359.1884765625
 30
0.0
 10
657.78515625
 20
-359.6533203125
 30
0.0
 10
656.1455078125
 20
-360.119140625
 30
0.0
 10
654.5966796875
 20
-360.68359375
 30
0.0
 10
653.16015625
 20
-361.3291015625
 30
0.0
 10
648.302734375
 20
-363.5126953125
 30
0.0
 10
644.27734375
 20
-366.6328125
 30
0.0
 10
641.302734375
 20
-370.3408203125
 30
0.0
 10
641.302734375
 20
-370.3408203125
 30
0.0
 10
641.302734375
 20
-348.966796875
 30
0.0
 10
641.302734375
 20
-348.966796875
 30
0.0
  0
SPLINE
  5
49
330
1F
100
AcDbEntity
  8
Layer 1
 62
   250
420
  2301728
370
    35
100
AcDbSpline
210
0.0
220
0.0
230
1.0
 70
    11
 71
     3
 72
    17
 73
    13
 74
     0
 42
0.0000000001
 43
0.0000000001
 40
0.0
 40
0.0
 40
0.0
 40
0.0
 40
1.0
 40
1.0
 40
1.0
 40
2.0
 40
2.0
 40
2.0
 40
3.0
 40
3.0
 40
3.0
 40
4.0
 40
4.0
 40
4.0
 40
4.0
 10
668.462890625
 20
-232.8671875
 30
0.0
 10
660.4013671875
 20
-232.533203125
 30
0.0
 10
652.8994140625
 20
-234.96728515625
 30
0.0
 10
646.736328125
 20
-240.11767578125
 30
0.0
 10
644.6611328125
 20
-241.8515625
 30
0.0
 10
642.8486328125
 20
-243.8330078125
 30
0.0
 10
641.302734375
 20
-245.9794921875
 30
0.0
 10
641.302734375
 20
-245.9794921875
 30
0.0
 10
641.302734375
 20
-189.82958984375
 30
0.0
 10
641.302734375
 20
-189.82958984375
 30
0.0
 10
647.1279296875
 20
-205.13427734375
 30
0.0
 10
657.521484375
 20
-219.2158203125
 30
0.0
 10
668.462890625
 20
-232.8671875
 30
0.0
  0
SPLINE
  5
4A
330
1F
100
AcDbEntity
  8
Layer 1
 62
   250
420
  2301728
370
    35
100
AcDbSpline
210
0.0
220
0.0
230
1.0
 70
    11
 71
     3
 72
    17
 73
    13
 74
     0
 42
0.0000000001
 43
0.0000000001
 40
0.0
 40
0.0
 40
0.0
 40
0.0
 40
1.0
 40
1.0
 40
1.0
 40
2.0
 40
2.0
 40
2.0
 40
3.0
 40
3.0
 40
3.0
 40
4.0
 40
4.0
 40
4.0
 40
4.0
 10
552.41015625
 20
-145.26806640625
 30
0.0
 10
557.5703125
 20
-139.09326171875
 30
0.0
 10
560.0087890625
 20
-131.578125
 30
0.0
 10
559.673828125
 20
-123.50244140625
 30
0.0
 10
573.3408203125
 20
-134.45458984375
 30
0.0
 10
587.4375
 20
-144.859375
 30
0.0
 10
602.7568359375
 20
-150.69775390625
 30
0.0
 10
602.7568359375
 20
-150.69775390625
 30
0.0
 10
546.55859375
 20
-150.69775390625
 30
0.0
 10
546.55859375
 20
-150.69775390625
 30
0.0
 10
548.701171875
 20
-149.1513671875
 30
0.0
 10
550.6787109375
 20
-147.34033203125
 30
0.0
 10
552.41015625
 20
-145.26806640625
 30
0.0
  0
SPLINE
  5
4B
330
1F
100
AcDbEntity
  8
Layer 1
 62
   250
420
  2301728
370
    35
100
AcDbSpline
210
0.0
220
0.0
230
1.0
 70
    11
 71
     3
 72
    98
 73
    94
 74
     0
 42
0.0000000001
 43
0.0000000001
 40
0.0
 40
0.0
 40
0.0
 40
0.0
 40
1.0
 40
1.0
 40
1.0
 40
2.0
 40
2.0
 40
2.0
 40
3.0
 40
3.0
 40
3.0
 40
4.0
 40
4.0
 40
4.0
 40
5.0
 40
5.0
 40
5.0
 40
6.0
 40
6.0
 40
6.0
 40
7.0
 40
7.0
 40
7.0
 40
8.0
 40
8.0
 40
8.0
 40
9.0
 40
9.0
 40
9.0
 40
10.0
 40
10.0
 40
10.0
 40
11.0
 40
11.0
 40
11.0
 40
12.0
 40
12.0
 40
12.0
 40
13.0
 40
13.0
 40
13.0
 40
14.0
 40
14.0
 40
14.0
 40
15.0
 40
15.0
 40
15.0
 40
16.0
 40
16.0
 40
16.0
 40
17.0
 40
17.0
 40
17.0
 40
18.0
 40
18.0
 40
18.0
 40
19.0
 40
19.0
 40
19.0
 40
20.0
 40
20.0
 40
20.0
 40
21.0
 40
21.0
 40
21.0
 40
22.0
 40
22.0
 40
22.0
 40
23.0
 40
23.0
 40
23.0
 40
24.0
 40
24.0
 40
24.0
 40
25.0
 40
25.0
 40
25.0
 40
26.0
 40
26.0
 40
26.0
 40
27.0
 40
27.0
 40
27.0
 40
28.0
 40
28.0
 40
28.0
 40
29.0
 40
29.0
 40
29.0
 40
30.0
 40
30.0
 40
30.0
 40
31.0
 40
31.0
 40
31.0
 40
31.0
 10
496.498046875
 20
-86.25732421875
 30
0.0
 10
496.4970703125
 20
-86.2734375
 30
0.0
 10
496.49609375
 20
-86.29052734375
 30
0.0
 10
496.494140625
 20
-86.306640625
 30
0.0
 10
496.9912109375
 20
-86.36181640625
 30
0.0
 10
497.4912109375
 20
-86.41015625
 30
0.0
 10
497.9912109375
 20
-86.45556640625
 30
0.0
 10
500.6162109375
 20
-86.83837890625
 30
0.0
 10
503.298828125
 20
-87.37353515625
 30
0.0
 10
506.04296875
 20
-88.0703125
 30
0.0
 10
518.8984375
 20
-91.3359375
 30
0.0
 10
532.15234375
 20
-101.2548828125
 30
0.0
 10
546.060546875
 20
-112.47021484375
 30
0.0
 10
552.0478515625
 20
-125.82958984375
 30
0.0
 10
547.4873046875
 20
-134.41259765625
 30
0.0
 10
544.169921875
 20
-138.38232421875
 30
0.0
 10
539.0986328125
 20
-144.451171875
 30
0.0
 10
530.6806640625
 20
-147.35986328125
 30
0.0
 10
523.7001953125
 20
-145.447265625
 30
0.0
 10
520.44921875
 20
-144.5576171875
 30
0.0
 10
517.3837890625
 20
-141.82421875
 30
0.0
 10
516.0703125
 20
-138.64599609375
 30
0.0
 10
514.9453125
 20
-135.9189453125
 30
0.0
 10
515.158203125
 20
-133.169921875
 30
0.0
 10
516.7041015625
 20
-130.47314453125
 30
0.0
 10
517.712890625
 20
-128.7109375
 30
0.0
 10
520.8125
 20
-127.63427734375
 30
0.0
 10
523.615234375
 20
-128.0703125
 30
0.0
 10
524.6337890625
 20
-128.228515625
 30
0.0
 10
526.3857421875
 20
-128.70849609375
 30
0.0
 10
526.6923828125
 20
-130.1376953125
 30
0.0
 10
527.3134765625
 20
-133.03759765625
 30
0.0
 10
530.1669921875
 20
-134.88623046875
 30
0.0
 10
533.0673828125
 20
-134.26318359375
 30
0.0
 10
535.96875
 20
-133.64208984375
 30
0.0
 10
537.8154296875
 20
-130.78662109375
 30
0.0
 10
537.193359375
 20
-127.88720703125
 30
0.0
 10
536.0205078125
 20
-122.41845703125
 30
0.0
 10
531.453125
 20
-118.42333984375
 30
0.0
 10
525.2734375
 20
-117.45947265625
 30
0.0
 10
517.9853515625
 20
-116.322265625
 30
0.0
 10
510.62890625
 20
-119.4775390625
 30
0.0
 10
507.38671875
 20
-125.13134765625
 30
0.0
 10
504.1943359375
 20
-130.6982421875
 30
0.0
 10
503.75390625
 20
-136.95458984375
 30
0.0
 10
506.1435546875
 20
-142.74462890625
 30
0.0
 10
507.3916015625
 20
-145.76513671875
 30
0.0
 10
509.34765625
 20
-148.48486328125
 30
0.0
 10
511.7587890625
 20
-150.69775390625
 30
0.0
 10
511.7587890625
 20
-150.69775390625
 30
0.0
 10
474.49609375
 20
-150.69775390625
 30
0.0
 10
474.49609375
 20
-150.69775390625
 30
0.0
 10
475.42578125
 20
-149.87744140625
 30
0.0
 10
476.2783203125
 20
-148.9814453125
 30
0.0
 10
477.0341796875
 20
-148.01708984375
 30
0.0
 10
480.6708984375
 20
-143.38037109375
 30
0.0
 10
481.8369140625
 20
-137.50927734375
 30
0.0
 10
480.3173828125
 20
-131.486328125
 30
0.0
 10
478.72265625
 20
-125.16650390625
 30
0.0
 10
472.4931640625
 20
-120.142578125
 30
0.0
 10
465.169921875
 20
-119.26904296875
 30
0.0
 10
458.953125
 20
-118.521484375
 30
0.0
 10
453.478515625
 20
-121.14208984375
 30
0.0
 10
450.875
 20
-126.09033203125
 30
0.0
 10
449.4931640625
 20
-128.71435546875
 30
0.0
 10
450.5
 20
-131.96142578125
 30
0.0
 10
453.125
 20
-133.34326171875
 30
0.0
 10
455.74609375
 20
-134.7236328125
 30
0.0
 10
458.994140625
 20
-133.7177734375
 30
0.0
 10
460.3779296875
 20
-131.0927734375
 30
0.0
 10
461.0595703125
 20
-129.80029296875
 30
0.0
 10
462.87109375
 20
-129.8115234375
 30
0.0
 10
463.8974609375
 20
-129.93310546875
 30
0.0
 10
466.7119140625
 20
-130.2685546875
 30
0.0
 10
469.40625
 20
-132.14453125
 30
0.0
 10
469.904296875
 20
-134.11376953125
 30
0.0
 10
470.6123046875
 20
-136.92138671875
 30
0.0
 10
470.1669921875
 20
-139.36962890625
 30
0.0
 10
468.583984375
 20
-141.3896484375
 30
0.0
 10
466.5556640625
 20
-143.97705078125
 30
0.0
 10
462.7626953125
 20
-145.70654296875
 30
0.0
 10
459.1298828125
 20
-145.70654296875
 30
0.0
 10
459.10546875
 20
-145.70654296875
 30
0.0
 10
459.08203125
 20
-145.7060546875
 30
0.0
 10
459.0576171875
 20
-145.7060546875
 30
0.0
 10
453.0546875
 20
-145.666015625
 30
0.0
 10
447.197265625
 20
-141.23974609375
 30
0.0
 10
444.134765625
 20
-134.42822265625
 30
0.0
 10
439.65625
 20
-124.46630859375
 30
0.0
 10
442.009765625
 20
-112.77587890625
 30
0.0
 10
450.40234375
 20
-103.18896484375
 30
0.0
 10
462.47265625
 20
-89.6220703125
 30
0.0
 10
477.94921875
 20
-83.95361328125
 30
0.0
 10
496.498046875
 20
-86.25732421875
 30
0.0
  0
SPLINE
  5
4C
330
1F
100
AcDbEntity
  8
Layer 1
 62
   250
420
  2301728
370
    35
100
AcDbSpline
210
0.0
220
0.0
230
1.0
 70
    11
 71
     3
 72
    29
 73
    25
 74
     0
 42
0.0000000001
 43
0.0000000001
 40
0.0
 40
0.0
 40
0.0
 40
0.0
 40
1.0
 40
1.0
 40
1.0
 40
2.0
 40
2.0
 40
2.0
 40
3.0
 40
3.0
 40
3.0
 40
4.0
 40
4.0
 40
4.0
 40
5.0
 40
5.0
 40
5.0
 40
6.0
 40
6.0
 40
6.0
 40
7.0
 40
7.0
 40
7.0
 40
8.0
 40
8.0
 40
8.0
 40
8.0
 10
422.4814453125
 20
-64.759765625
 30
0.0
 10
427.5146484375
 20
-59.009765625
 30
0.0
 10
430.5712890625
 20
-53.0146484375
 30
0.0
 10
432.1689453125
 20
-47.201171875
 30
0.0
 10
433.767578125
 20
-53.0146484375
 30
0.0
 10
436.8251953125
 20
-59.009765625
 30
0.0
 10
441.8583984375
 20
-64.759765625
 30
0.0
 10
448.064453125
 20
-71.73486328125
 30
0.0
 10
455.0673828125
 20
-77.009765625
 30
0.0
 10
462.7822265625
 20
-80.53857421875
 30
0.0
 10
455.263671875
 20
-84.06640625
 30
0.0
 10
448.423828125
 20
-89.25732421875
 30
0.0
 10
442.3505859375
 20
-96.08251953125
 30
0.0
 10
437.318359375
 20
-101.83251953125
 30
0.0
 10
434.2607421875
 20
-107.8271484375
 30
0.0
 10
432.662109375
 20
-113.64111328125
 30
0.0
 10
431.0634765625
 20
-107.8271484375
 30
0.0
 10
428.005859375
 20
-101.83251953125
 30
0.0
 10
422.974609375
 20
-96.08251953125
 30
0.0
 10
416.76806640625
 20
-89.1083984375
 30
0.0
 10
409.76416015625
 20
-83.83203125
 30
0.0
 10
402.05126953125
 20
-80.302734375
 30
0.0
 10
409.5693359375
 20
-76.775390625
 30
0.0
 10
416.40966796875
 20
-71.58447265625
 30
0.0
 10
422.4814453125
 20
-64.759765625
 30
0.0
  0
SPLINE
  5
4D
330
1F
100
AcDbEntity
  8
Layer 1
 62
   250
420
  2301728
370
    35
100
AcDbSpline
210
0.0
220
0.0
230
1.0
 70
    11
 71
     3
 72
    98
 73
    94
 74
     0
 42
0.0000000001
 43
0.0000000001
 40
0.0
 40
0.0
 40
0.0
 40
0.0
 40
1.0
 40
1.0
 40
1.0
 40
2.0
 40
2.0
 40
2.0
 40
3.0
 40
3.0
 40
3.0
 40
4.0
 40
4.0
 40
4.0
 40
5.0
 40
5.0
 40
5.0
 40
6.0
 40
6.0
 40
6.0
 40
7.0
 40
7.0
 40
7.0
 40
8.0
 40
8.0
 40
8.0
 40
9.0
 40
9.0
 40
9.0
 40
10.0
 40
10.0
 40
10.0
 40
11.0
 40
11.0
 40
11.0
 40
12.0
 40
12.0
 40
12.0
 40
13.0
 40
13.0
 40
13.0
 40
14.0
 40
14.0
 40
14.0
 40
15.0
 40
15.0
 40
15.0
 40
16.0
 40
16.0
 40
16.0
 40
17.0
 40
17.0
 40
17.0
 40
18.0
 40
18.0
 40
18.0
 40
19.0
 40
19.0
 40
19.0
 40
20.0
 40
20.0
 40
20.0
 40
21.0
 40
21.0
 40
21.0
 40
22.0
 40
22.0
 40
22.0
 40
23.0
 40
23.0
 40
23.0
 40
24.0
 40
24.0
 40
24.0
 40
25.0
 40
25.0
 40
25.0
 40
26.0
 40
26.0
 40
26.0
 40
27.0
 40
27.0
 40
27.0
 40
28.0
 40
28.0
 40
28.0
 40
29.0
 40
29.0
 40
29.0
 40
30.0
 40
30.0
 40
30.0
 40
31.0
 40
31.0
 40
31.0
 40
31.0
 10
319.26318359375
 20
-112.47021484375
 30
0.0
 10
333.17041015625
 20
-101.2548828125
 30
0.0
 10
346.42578125
 20
-91.3359375
 30
0.0
 10
359.28173828125
 20
-88.0703125
 30
0.0
 10
362.025390625
 20
-87.37353515625
 30
0.0
 10
364.70849609375
 20
-86.83837890625
 30
0.0
 10
367.3330078125
 20
-86.45556640625
 30
0.0
 10
367.83251953125
 20
-86.41015625
 30
0.0
 10
368.33203125
 20
-86.36181640625
 30
0.0
 10
368.8310546875
 20
-86.306640625
 30
0.0
 10
368.82861328125
 20
-86.29052734375
 30
0.0
 10
368.8271484375
 20
-86.2734375
 30
0.0
 10
368.82568359375
 20
-86.25732421875
 30
0.0
 10
387.3759765625
 20
-83.95361328125
 30
0.0
 10
402.8515625
 20
-89.6220703125
 30
0.0
 10
414.9208984375
 20
-103.18896484375
 30
0.0
 10
423.314453125
 20
-112.77587890625
 30
0.0
 10
425.66796875
 20
-124.46630859375
 30
0.0
 10
421.189453125
 20
-134.42822265625
 30
0.0
 10
418.12646484375
 20
-141.23974609375
 30
0.0
 10
412.26904296875
 20
-145.666015625
 30
0.0
 10
406.265625
 20
-145.7060546875
 30
0.0
 10
406.2421875
 20
-145.7060546875
 30
0.0
 10
406.21875
 20
-145.70654296875
 30
0.0
 10
406.19384765625
 20
-145.70654296875
 30
0.0
 10
402.560546875
 20
-145.70654296875
 30
0.0
 10
398.7705078125
 20
-143.97705078125
 30
0.0
 10
396.740234375
 20
-141.3896484375
 30
0.0
 10
395.1572265625
 20
-139.36962890625
 30
0.0
 10
394.712890625
 20
-136.92138671875
 30
0.0
 10
395.4208984375
 20
-134.11376953125
 30
0.0
 10
395.91796875
 20
-132.14453125
 30
0.0
 10
398.6123046875
 20
-130.2685546875
 30
0.0
 10
401.427734375
 20
-129.93310546875
 30
0.0
 10
402.4521484375
 20
-129.8115234375
 30
0.0
 10
404.2666015625
 20
-129.80029296875
 30
0.0
 10
404.94677734375
 20
-131.0927734375
 30
0.0
 10
406.32861328125
 20
-133.7177734375
 30
0.0
 10
409.578125
 20
-134.7236328125
 30
0.0
 10
412.2001953125
 20
-133.34326171875
 30
0.0
 10
414.82421875
 20
-131.96142578125
 30
0.0
 10
415.8310546875
 20
-128.71435546875
 30
0.0
 10
414.44970703125
 20
-126.09033203125
 30
0.0
 10
411.84423828125
 20
-121.14208984375
 30
0.0
 10
406.37158203125
 20
-118.521484375
 30
0.0
 10
400.1552734375
 20
-119.26904296875
 30
0.0
 10
392.8310546875
 20
-120.142578125
 30
0.0
 10
386.6015625
 20
-125.16650390625
 30
0.0
 10
385.0078125
 20
-131.486328125
 30
0.0
 10
383.48828125
 20
-137.50927734375
 30
0.0
 10
384.65380859375
 20
-143.38037109375
 30
0.0
 10
388.29052734375
 20
-148.01708984375
 30
0.0
 10
389.04638671875
 20
-148.9814453125
 30
0.0
 10
389.89892578125
 20
-149.87744140625
 30
0.0
 10
390.828125
 20
-150.69775390625
 30
0.0
 10
390.828125
 20
-150.69775390625
 30
0.0
 10
353.56494140625
 20
-150.69775390625
 30
0.0
 10
353.56494140625
 20
-150.69775390625
 30
0.0
 10
355.9765625
 20
-148.48486328125
 30
0.0
 10
357.93359375
 20
-145.76513671875
 30
0.0
 10
359.1806640625
 20
-142.74462890625
 30
0.0
 10
361.5712890625
 20
-136.95458984375
 30
0.0
 10
361.13037109375
 20
-130.6982421875
 30
0.0
 10
357.93798828125
 20
-125.13134765625
 30
0.0
 10
354.6943359375
 20
-119.4775390625
 30
0.0
 10
347.3388671875
 20
-116.322265625
 30
0.0
 10
340.05224609375
 20
-117.45947265625
 30
0.0
 10
333.87109375
 20
-118.42333984375
 30
0.0
 10
329.30224609375
 20
-122.41845703125
 30
0.0
 10
328.130859375
 20
-127.88720703125
 30
0.0
 10
327.509765625
 20
-130.78662109375
 30
0.0
 10
329.35595703125
 20
-133.64208984375
 30
0.0
 10
332.255859375
 20
-134.26318359375
 30
0.0
 10
335.1572265625
 20
-134.88623046875
 30
0.0
 10
338.0107421875
 20
-133.03759765625
 30
0.0
 10
338.63232421875
 20
-130.1376953125
 30
0.0
 10
338.93798828125
 20
-128.70849609375
 30
0.0
 10
340.68994140625
 20
-128.228515625
 30
0.0
 10
341.70751953125
 20
-128.0703125
 30
0.0
 10
344.5107421875
 20
-127.63427734375
 30
0.0
 10
347.6103515625
 20
-128.7109375
 30
0.0
 10
348.6201171875
 20
-130.47314453125
 30
0.0
 10
350.1669921875
 20
-133.169921875
 30
0.0
 10
350.37890625
 20
-135.9189453125
 30
0.0
 10
349.25341796875
 20
-138.64599609375
 30
0.0
 10
347.9404296875
 20
-141.82421875
 30
0.0
 10
344.87451171875
 20
-144.5576171875
 30
0.0
 10
341.625
 20
-145.447265625
 30
0.0
 10
334.64208984375
 20
-147.35986328125
 30
0.0
 10
326.22607421875
 20
-144.451171875
 30
0.0
 10
321.154296875
 20
-138.38232421875
 30
0.0
 10
317.837890625
 20
-134.41259765625
 30
0.0
 10
313.27685546875
 20
-125.82958984375
 30
0.0
 10
319.26318359375
 20
-112.47021484375
 30
0.0
  0
SPLINE
  5
4E
330
1F
100
AcDbEntity
  8
Layer 1
 62
   250
420
  2301728
370
    35
100
AcDbSpline
210
0.0
220
0.0
230
1.0
 70
    11
 71
     3
 72
    17
 73
    13
 74
     0
 42
0.0000000001
 43
0.0000000001
 40
0.0
 40
0.0
 40
0.0
 40
0.0
 40
1.0
 40
1.0
 40
1.0
 40
2.0
 40
2.0
 40
2.0
 40
3.0
 40
3.0
 40
3.0
 40
4.0
 40
4.0
 40
4.0
 40
4.0
 10
305.6494140625
 20
-123.50244140625
 30
0.0
 10
305.314453125
 20
-131.578125
 30
0.0
 10
307.75341796875
 20
-139.09326171875
 30
0.0
 10
312.9130859375
 20
-145.26806640625
 30
0.0
 10
314.64453125
 20
-147.34033203125
 30
0.0
 10
316.62353515625
 20
-149.1513671875
 30
0.0
 10
318.76611328125
 20
-150.69775390625
 30
0.0
 10
318.76611328125
 20
-150.69775390625
 30
0.0
 10
262.568359375
 20
-150.69775390625
 30
0.0
 10
262.568359375
 20
-150.69775390625
 30
0.0
 10
277.8876953125
 20
-144.859375
 30
0.0
 10
291.98388671875
 20
-134.45458984375
 30
0.0
 10
305.6494140625
 20
-123.50244140625
 30
0.0
  0
SPLINE
  5
4F
330
1F
100
AcDbEntity
  8
Layer 1
 62
   250
420
  2301728
370
    35
100
AcDbSpline
210
0.0
220
0.0
230
1.0
 70
    11
 71
     3
 72
    17
 73
    13
 74
     0
 42
0.0000000001
 43
0.0000000001
 40
0.0
 40
0.0
 40
0.0
 40
0.0
 40
1.0
 40
1.0
 40
1.0
 40
2.0
 40
2.0
 40
2.0
 40
3.0
 40
3.0
 40
3.0
 40
4.0
 40
4.0
 40
4.0
 40
4.0
 10
222.69775390625
 20
-189.59814453125
 30
0.0
 10
222.69775390625
 20
-189.59814453125
 30
0.0
 10
222.69775390625
 20
-246.1015625
 30
0.0
 10
222.69775390625
 20
-246.1015625
 30
0.0
 10
221.1328125
 20
-243.908203125
 30
0.0
 10
219.2900390625
 20
-241.88427734375
 30
0.0
 10
217.17578125
 20
-240.11767578125
 30
0.0
 10
211.01220703125
 20
-234.96728515625
 30
0.0
 10
203.509765625
 20
-232.533203125
 30
0.0
 10
195.44921875
 20
-232.8671875
 30
0.0
 10
206.4443359375
 20
-219.1474609375
 30
0.0
 10
216.888671875
 20
-204.99267578125
 30
0.0
 10
222.69775390625
 20
-189.59814453125
 30
0.0
  0
SPLINE
  5
50
330
1F
100
AcDbEntity
  8
Layer 1
 62
   250
420
  2301728
370
    35
100
AcDbSpline
210
0.0
220
0.0
230
1.0
 70
    11
 71
     3
 72
    89
 73
    85
 74
     0
 42
0.0000000001
 43
0.0000000001
 40
0.0
 40
0.0
 40
0.0
 40
0.0
 40
1.0
 40
1.0
 40
1.0
 40
2.0
 40
2.0
 40
2.0
 40
3.0
 40
3.0
 40
3.0
 40
4.0
 40
4.0
 40
4.0
 40
5.0
 40
5.0
 40
5.0
 40
6.0
 40
6.0
 40
6.0
 40
7.0
 40
7.0
 40
7.0
 40
8.0
 40
8.0
 40
8.0
 40
9.0
 40
9.0
 40
9.0
 40
10.0
 40
10.0
 40
10.0
 40
11.0
 40
11.0
 40
11.0
 40
12.0
 40
12.0
 40
12.0
 40
13.0
 40
13.0
 40
13.0
 40
14.0
 40
14.0
 40
14.0
 40
15.0
 40
15.0
 40
15.0
 40
16.0
 40
16.0
 40
16.0
 40
17.0
 40
17.0
 40
17.0
 40
18.0
 40
18.0
 40
18.0
 40
19.0
 40
19.0
 40
19.0
 40
20.0
 40
20.0
 40
20.0
 40
21.0
 40
21.0
 40
21.0
 40
22.0
 40
22.0
 40
22.0
 40
23.0
 40
23.0
 40
23.0
 40
24.0
 40
24.0
 40
24.0
 40
25.0
 40
25.0
 40
25.0
 40
26.0
 40
26.0
 40
26.0
 40
27.0
 40
27.0
 40
27.0
 40
28.0
 40
28.0
 40
28.0
 40
28.0
 10
175.17138671875
 20
-341.9443359375
 30
0.0
 10
159.3681640625
 20
-327.884765625
 30
0.0
 10
154.28955078125
 20
-309.2001953125
 30
0.0
 10
160.08056640625
 20
-286.40380859375
 30
0.0
 10
163.33935546875
 20
-273.57080078125
 30
0.0
 10
173.240234375
 20
-260.3388671875
 30
0.0
 10
184.435546875
 20
-246.45703125
 30
0.0
 10
197.77099609375
 20
-240.48095703125
 30
0.0
 10
206.3388671875
 20
-245.03369140625
 30
0.0
 10
210.30126953125
 20
-248.3447265625
 30
0.0
 10
216.3603515625
 20
-253.40771484375
 30
0.0
 10
219.26318359375
 20
-261.80859375
 30
0.0
 10
217.35400390625
 20
-268.77783203125
 30
0.0
 10
216.46630859375
 20
-272.0234375
 30
0.0
 10
213.73779296875
 20
-275.0830078125
 30
0.0
 10
210.5654296875
 20
-276.3935546875
 30
0.0
 10
207.8427734375
 20
-277.517578125
 30
0.0
 10
205.09814453125
 20
-277.3056640625
 30
0.0
 10
202.40673828125
 20
-275.76220703125
 30
0.0
 10
200.6474609375
 20
-274.75341796875
 30
0.0
 10
199.57275390625
 20
-271.65966796875
 30
0.0
 10
200.00830078125
 20
-268.861328125
 30
0.0
 10
200.16650390625
 20
-267.84521484375
 30
0.0
 10
200.6455078125
 20
-266.09619140625
 30
0.0
 10
202.072265625
 20
-265.791015625
 30
0.0
 10
204.966796875
 20
-265.17138671875
 30
0.0
 10
206.8125
 20
-262.322265625
 30
0.0
 10
206.18994140625
 20
-259.42626953125
 30
0.0
 10
205.5693359375
 20
-256.53173828125
 30
0.0
 10
202.72021484375
 20
-254.6884765625
 30
0.0
 10
199.82470703125
 20
-255.30859375
 30
0.0
 10
194.3671875
 20
-256.47802734375
 30
0.0
 10
190.37841796875
 20
-261.03857421875
 30
0.0
 10
189.416015625
 20
-267.208984375
 30
0.0
 10
188.28076171875
 20
-274.482421875
 30
0.0
 10
191.4306640625
 20
-281.8251953125
 30
0.0
 10
197.07373046875
 20
-285.0625
 30
0.0
 10
202.63232421875
 20
-288.24853515625
 30
0.0
 10
208.87646484375
 20
-288.689453125
 30
0.0
 10
214.65673828125
 20
-286.30322265625
 30
0.0
 10
217.71728515625
 20
-285.0390625
 30
0.0
 10
220.47119140625
 20
-283.04638671875
 30
0.0
 10
222.69775390625
 20
-280.58837890625
 30
0.0
 10
222.69775390625
 20
-280.58837890625
 30
0.0
 10
222.69775390625
 20
-318.013671875
 30
0.0
 10
222.69775390625
 20
-318.013671875
 30
0.0
 10
221.85009765625
 20
-317.0400390625
 30
0.0
 10
220.92236328125
 20
-316.1474609375
 30
0.0
 10
219.91845703125
 20
-315.3603515625
 30
0.0
 10
215.291015625
 20
-311.7314453125
 30
0.0
 10
209.4306640625
 20
-310.5673828125
 30
0.0
 10
203.41796875
 20
-312.083984375
 30
0.0
 10
197.10986328125
 20
-313.6748046875
 30
0.0
 10
192.0947265625
 20
-319.8935546875
 30
0.0
 10
191.22314453125
 20
-327.2041015625
 30
0.0
 10
190.4765625
 20
-333.4091796875
 30
0.0
 10
193.09228515625
 20
-338.873046875
 30
0.0
 10
198.03076171875
 20
-341.4736328125
 30
0.0
 10
200.65087890625
 20
-342.8525390625
 30
0.0
 10
203.892578125
 20
-341.84765625
 30
0.0
 10
205.271484375
 20
-339.228515625
 30
0.0
 10
206.64990234375
 20
-336.6103515625
 30
0.0
 10
205.64501953125
 20
-333.3681640625
 30
0.0
 10
203.025390625
 20
-331.98828125
 30
0.0
 10
201.73486328125
 20
-331.3076171875
 30
0.0
 10
201.74609375
 20
-329.498046875
 30
0.0
 10
201.8671875
 20
-328.474609375
 30
0.0
 10
202.203125
 20
-325.6640625
 30
0.0
 10
204.07470703125
 20
-322.974609375
 30
0.0
 10
206.0400390625
 20
-322.478515625
 30
0.0
 10
208.84375
 20
-321.771484375
 30
0.0
 10
211.28759765625
 20
-322.21484375
 30
0.0
 10
213.3037109375
 20
-323.794921875
 30
0.0
 10
215.88671875
 20
-325.822265625
 30
0.0
 10
217.61279296875
 20
-329.6064453125
 30
0.0
 10
217.61279296875
 20
-333.232421875
 30
0.0
 10
217.61279296875
 20
-333.2568359375
 30
0.0
 10
217.6123046875
 20
-333.28125
 30
0.0
 10
217.6123046875
 20
-333.3046875
 30
0.0
 10
217.57275390625
 20
-339.296875
 30
0.0
 10
213.1533203125
 20
-345.14453125
 30
0.0
 10
206.3544921875
 20
-348.201171875
 30
0.0
 10
196.4111328125
 20
-352.6708984375
 30
0.0
 10
184.7412109375
 20
-350.322265625
 30
0.0
 10
175.17138671875
 20
-341.9443359375
 30
0.0
  0
SPLINE
  5
51
330
1F
100
AcDbEntity
  8
Layer 1
 62
   250
420
  2301728
370
    35
100
AcDbSpline
210
0.0
220
0.0
230
1.0
 70
    11
 71
     3
 72
    89
 73
    85
 74
     0
 42
0.0000000001
 43
0.0000000001
 40
0.0
 40
0.0
 40
0.0
 40
0.0
 40
1.0
 40
1.0
 40
1.0
 40
2.0
 40
2.0
 40
2.0
 40
3.0
 40
3.0
 40
3.0
 40
4.0
 40
4.0
 40
4.0
 40
5.0
 40
5.0
 40
5.0
 40
6.0
 40
6.0
 40
6.0
 40
7.0
 40
7.0
 40
7.0
 40
8.0
 40
8.0
 40
8.0
 40
9.0
 40
9.0
 40
9.0
 40
10.0
 40
10.0
 40
10.0
 40
11.0
 40
11.0
 40
11.0
 40
12.0
 40
12.0
 40
12.0
 40
13.0
 40
13.0
 40
13.0
 40
14.0
 40
14.0
 40
14.0
 40
15.0
 40
15.0
 40
15.0
 40
16.0
 40
16.0
 40
16.0
 40
17.0
 40
17.0
 40
17.0
 40
18.0
 40
18.0
 40
18.0
 40
19.0
 40
19.0
 40
19.0
 40
20.0
 40
20.0
 40
20.0
 40
21.0
 40
21.0
 40
21.0
 40
22.0
 40
22.0
 40
22.0
 40
23.0
 40
23.0
 40
23.0
 40
24.0
 40
24.0
 40
24.0
 40
25.0
 40
25.0
 40
25.0
 40
26.0
 40
26.0
 40
26.0
 40
27.0
 40
27.0
 40
27.0
 40
28.0
 40
28.0
 40
28.0
 40
28.0
 10
184.435546875
 20
-472.8505859375
 30
0.0
 10
173.240234375
 20
-458.96875
 30
0.0
 10
163.33935546875
 20
-445.73828125
 30
0.0
 10
160.08056640625
 20
-432.904296875
 30
0.0
 10
154.28955078125
 20
-410.107421875
 30
0.0
 10
159.3681640625
 20
-391.4228515625
 30
0.0
 10
175.17138671875
 20
-377.36328125
 30
0.0
 10
184.7412109375
 20
-368.9853515625
 30
0.0
 10
196.4111328125
 20
-366.63671875
 30
0.0
 10
206.3544921875
 20
-371.1064453125
 30
0.0
 10
213.1533203125
 20
-374.1630859375
 30
0.0
 10
217.57275390625
 20
-380.0107421875
 30
0.0
 10
217.6123046875
 20
-386.00390625
 30
0.0
 10
217.6123046875
 20
-386.02734375
 30
0.0
 10
217.61279296875
 20
-386.05078125
 30
0.0
 10
217.61279296875
 20
-386.0751953125
 30
0.0
 10
217.61279296875
 20
-389.7021484375
 30
0.0
 10
215.88671875
 20
-393.486328125
 30
0.0
 10
213.3037109375
 20
-395.51171875
 30
0.0
 10
211.28759765625
 20
-397.0927734375
 30
0.0
 10
208.84375
 20
-397.5361328125
 30
0.0
 10
206.0400390625
 20
-396.8291015625
 30
0.0
 10
204.07470703125
 20
-396.3330078125
 30
0.0
 10
202.203125
 20
-393.6435546875
 30
0.0
 10
201.8671875
 20
-390.833984375
 30
0.0
 10
201.74609375
 20
-389.810546875
 30
0.0
 10
201.73486328125
 20
-388.0
 30
0.0
 10
203.025390625
 20
-387.3203125
 30
0.0
 10
205.64501953125
 20
-385.9404296875
 30
0.0
 10
206.64990234375
 20
-382.697265625
 30
0.0
 10
205.271484375
 20
-380.080078125
 30
0.0
 10
203.892578125
 20
-377.4609375
 30
0.0
 10
200.65087890625
 20
-376.455078125
 30
0.0
 10
198.03076171875
 20
-377.8349609375
 30
0.0
 10
193.09228515625
 20
-380.4345703125
 30
0.0
 10
190.4765625
 20
-385.8984375
 30
0.0
 10
191.22314453125
 20
-392.103515625
 30
0.0
 10
192.0947265625
 20
-399.4140625
 30
0.0
 10
197.10986328125
 20
-405.6328125
 30
0.0
 10
203.41796875
 20
-407.224609375
 30
0.0
 10
209.4306640625
 20
-408.740234375
 30
0.0
 10
215.291015625
 20
-407.5771484375
 30
0.0
 10
219.91845703125
 20
-403.9482421875
 30
0.0
 10
220.92236328125
 20
-403.1611328125
 30
0.0
 10
221.85009765625
 20
-402.2685546875
 30
0.0
 10
222.69775390625
 20
-401.2939453125
 30
0.0
 10
222.69775390625
 20
-401.2939453125
 30
0.0
 10
222.69775390625
 20
-438.71875
 30
0.0
 10
222.69775390625
 20
-438.71875
 30
0.0
 10
220.47119140625
 20
-436.26171875
 30
0.0
 10
217.71728515625
 20
-434.26953125
 30
0.0
 10
214.65673828125
 20
-433.005859375
 30
0.0
 10
208.87646484375
 20
-430.6181640625
 30
0.0
 10
202.63232421875
 20
-431.05859375
 30
0.0
 10
197.07373046875
 20
-434.2451171875
 30
0.0
 10
191.4306640625
 20
-437.482421875
 30
0.0
 10
188.28076171875
 20
-444.8251953125
 30
0.0
 10
189.416015625
 20
-452.0986328125
 30
0.0
 10
190.37841796875
 20
-458.2685546875
 30
0.0
 10
194.3671875
 20
-462.828125
 30
0.0
 10
199.82470703125
 20
-463.9990234375
 30
0.0
 10
202.72021484375
 20
-464.6201171875
 30
0.0
 10
205.5693359375
 20
-462.7763671875
 30
0.0
 10
206.18994140625
 20
-459.8818359375
 30
0.0
 10
206.8125
 20
-456.986328125
 30
0.0
 10
204.966796875
 20
-454.1376953125
 30
0.0
 10
202.072265625
 20
-453.5166015625
 30
0.0
 10
200.6455078125
 20
-453.2119140625
 30
0.0
 10
200.16650390625
 20
-451.462890625
 30
0.0
 10
200.00830078125
 20
-450.4462890625
 30
0.0
 10
199.57275390625
 20
-447.6484375
 30
0.0
 10
200.6474609375
 20
-444.5537109375
 30
0.0
 10
202.40673828125
 20
-443.5458984375
 30
0.0
 10
205.09814453125
 20
-442.0029296875
 30
0.0
 10
207.8427734375
 20
-441.791015625
 30
0.0
 10
210.5654296875
 20
-442.9140625
 30
0.0
 10
213.73779296875
 20
-444.224609375
 30
0.0
 10
216.46630859375
 20
-447.2861328125
 30
0.0
 10
217.35400390625
 20
-450.529296875
 30
0.0
 10
219.26318359375
 20
-457.4990234375
 30
0.0
 10
216.3603515625
 20
-465.9013671875
 30
0.0
 10
210.30126953125
 20
-470.962890625
 30
0.0
 10
206.3388671875
 20
-474.2744140625
 30
0.0
 10
197.77099609375
 20
-478.8271484375
 30
0.0
 10
184.435546875
 20
-472.8505859375
 30
0.0
  0
SPLINE
  5
52
330
1F
100
AcDbEntity
  8
Layer 1
 62
   250
420
  2301728
370
    35
100
AcDbSpline
210
0.0
220
0.0
230
1.0
 70
    11
 71
     3
 72
    17
 73
    13
 74
     0
 42
0.0000000001
 43
0.0000000001
 40
0.0
 40
0.0
 40
0.0
 40
0.0
 40
1.0
 40
1.0
 40
1.0
 40
2.0
 40
2.0
 40
2.0
 40
3.0
 40
3.0
 40
3.0
 40
4.0
 40
4.0
 40
4.0
 40
4.0
 10
195.44921875
 20
-486.44140625
 30
0.0
 10
203.509765625
 20
-486.7744140625
 30
0.0
 10
211.01220703125
 20
-484.3408203125
 30
0.0
 10
217.17578125
 20
-479.189453125
 30
0.0
 10
219.2900390625
 20
-477.4228515625
 30
0.0
 10
221.1328125
 20
-475.3994140625
 30
0.0
 10
222.69775390625
 20
-473.205078125
 30
0.0
 10
222.69775390625
 20
-473.205078125
 30
0.0
 10
222.69775390625
 20
-529.7099609375
 30
0.0
 10
222.69775390625
 20
-529.7099609375
 30
0.0
 10
216.888671875
 20
-514.314453125
 30
0.0
 10
206.4443359375
 20
-500.16015625
 30
0.0
 10
195.44921875
 20
-486.44140625
 30
0.0
  0
SPLINE
  5
53
330
1F
100
AcDbEntity
  8
Layer 1
 62
   250
420
  2301728
370
    35
100
AcDbSpline
210
0.0
220
0.0
230
1.0
 70
    11
 71
     3
 72
    17
 73
    13
 74
     0
 42
0.0000000001
 43
0.0000000001
 40
0.0
 40
0.0
 40
0.0
 40
0.0
 40
1.0
 40
1.0
 40
1.0
 40
2.0
 40
2.0
 40
2.0
 40
3.0
 40
3.0
 40
3.0
 40
4.0
 40
4.0
 40
4.0
 40
4.0
 10
312.9130859375
 20
-574.732421875
 30
0.0
 10
307.75341796875
 20
-580.9052734375
 30
0.0
 10
305.314453125
 20
-588.421875
 30
0.0
 10
305.6494140625
 20
-596.4970703125
 30
0.0
 10
291.9833984375
 20
-585.544921875
 30
0.0
 10
277.88671875
 20
-575.140625
 30
0.0
 10
262.5673828125
 20
-569.302734375
 30
0.0
 10
262.5673828125
 20
-569.302734375
 30
0.0
 10
318.765625
 20
-569.302734375
 30
0.0
 10
318.765625
 20
-569.302734375
 30
0.0
 10
316.623046875
 20
-570.8486328125
 30
0.0
 10
314.64453125
 20
-572.66015625
 30
0.0
 10
312.9130859375
 20
-574.732421875
 30
0.0
  0
SPLINE
  5
54
330
1F
100
AcDbEntity
  8
Layer 1
 62
   250
420
  2301728
370
    35
100
AcDbSpline
210
0.0
220
0.0
230
1.0
 70
    11
 71
     3
 72
    98
 73
    94
 74
     0
 42
0.0000000001
 43
0.0000000001
 40
0.0
 40
0.0
 40
0.0
 40
0.0
 40
1.0
 40
1.0
 40
1.0
 40
2.0
 40
2.0
 40
2.0
 40
3.0
 40
3.0
 40
3.0
 40
4.0
 40
4.0
 40
4.0
 40
5.0
 40
5.0
 40
5.0
 40
6.0
 40
6.0
 40
6.0
 40
7.0
 40
7.0
 40
7.0
 40
8.0
 40
8.0
 40
8.0
 40
9.0
 40
9.0
 40
9.0
 40
10.0
 40
10.0
 40
10.0
 40
11.0
 40
11.0
 40
11.0
 40
12.0
 40
12.0
 40
12.0
 40
13.0
 40
13.0
 40
13.0
 40
14.0
 40
14.0
 40
14.0
 40
15.0
 40
15.0
 40
15.0
 40
16.0
 40
16.0
 40
16.0
 40
17.0
 40
17.0
 40
17.0
 40
18.0
 40
18.0
 40
18.0
 40
19.0
 40
19.0
 40
19.0
 40
20.0
 40
20.0
 40
20.0
 40
21.0
 40
21.0
 40
21.0
 40
22.0
 40
22.0
 40
22.0
 40
23.0
 40
23.0
 40
23.0
 40
24.0
 40
24.0
 40
24.0
 40
25.0
 40
25.0
 40
25.0
 40
26.0
 40
26.0
 40
26.0
 40
27.0
 40
27.0
 40
27.0
 40
28.0
 40
28.0
 40
28.0
 40
29.0
 40
29.0
 40
29.0
 40
30.0
 40
30.0
 40
30.0
 40
31.0
 40
31.0
 40
31.0
 40
31.0
 10
368.82568359375
 20
-633.7431640625
 30
0.0
 10
368.8271484375
 20
-633.7265625
 30
0.0
 10
368.82861328125
 20
-633.7099609375
 30
0.0
 10
368.8310546875
 20
-633.693359375
 30
0.0
 10
368.33203125
 20
-633.6376953125
 30
0.0
 10
367.83251953125
 20
-633.58984375
 30
0.0
 10
367.3330078125
 20
-633.544921875
 30
0.0
 10
364.70849609375
 20
-633.1611328125
 30
0.0
 10
362.025390625
 20
-632.626953125
 30
0.0
 10
359.28173828125
 20
-631.9287109375
 30
0.0
 10
346.42578125
 20
-628.6630859375
 30
0.0
 10
333.17041015625
 20
-618.744140625
 30
0.0
 10
319.26318359375
 20
-607.529296875
 30
0.0
 10
313.27685546875
 20
-594.1708984375
 30
0.0
 10
317.837890625
 20
-585.587890625
 30
0.0
 10
321.154296875
 20
-581.6181640625
 30
0.0
 10
326.22607421875
 20
-575.5498046875
 30
0.0
 10
334.64208984375
 20
-572.6396484375
 30
0.0
 10
341.625
 20
-574.552734375
 30
0.0
 10
344.87451171875
 20
-575.44140625
 30
0.0
 10
347.9404296875
 20
-578.1748046875
 30
0.0
 10
349.25341796875
 20
-581.3544921875
 30
0.0
 10
350.37890625
 20
-584.080078125
 30
0.0
 10
350.1669921875
 20
-586.830078125
 30
0.0
 10
348.6201171875
 20
-589.52734375
 30
0.0
 10
347.6103515625
 20
-591.2890625
 30
0.0
 10
344.5107421875
 20
-592.365234375
 30
0.0
 10
341.70751953125
 20
-591.9296875
 30
0.0
 10
340.68994140625
 20
-591.7705078125
 30
0.0
 10
338.93798828125
 20
-591.291015625
 30
0.0
 10
338.63232421875
 20
-589.86328125
 30
0.0
 10
338.0107421875
 20
-586.9619140625
 30
0.0
 10
335.1572265625
 20
-585.11328125
 30
0.0
 10
332.255859375
 20
-585.7373046875
 30
0.0
 10
329.35595703125
 20
-586.359375
 30
0.0
 10
327.509765625
 20
-589.212890625
 30
0.0
 10
328.130859375
 20
-592.11328125
 30
0.0
 10
329.30224609375
 20
-597.58203125
 30
0.0
 10
333.87109375
 20
-601.576171875
 30
0.0
 10
340.05224609375
 20
-602.5400390625
 30
0.0
 10
347.3388671875
 20
-603.677734375
 30
0.0
 10
354.6943359375
 20
-600.5234375
 30
0.0
 10
357.93798828125
 20
-594.869140625
 30
0.0
 10
361.13037109375
 20
-589.3017578125
 30
0.0
 10
361.5712890625
 20
-583.044921875
 30
0.0
 10
359.1806640625
 20
-577.2548828125
 30
0.0
 10
357.93359375
 20
-574.234375
 30
0.0
 10
355.9765625
 20
-571.5146484375
 30
0.0
 10
353.56494140625
 20
-569.302734375
 30
0.0
 10
353.56494140625
 20
-569.302734375
 30
0.0
 10
390.828125
 20
-569.302734375
 30
0.0
 10
390.828125
 20
-569.302734375
 30
0.0
 10
389.89892578125
 20
-570.123046875
 30
0.0
 10
389.04638671875
 20
-571.0185546875
 30
0.0
 10
388.29052734375
 20
-571.9833984375
 30
0.0
 10
384.65380859375
 20
-576.6201171875
 30
0.0
 10
383.48828125
 20
-582.490234375
 30
0.0
 10
385.0078125
 20
-588.513671875
 30
0.0
 10
386.6015625
 20
-594.833984375
 30
0.0
 10
392.8310546875
 20
-599.8564453125
 30
0.0
 10
400.1552734375
 20
-600.7314453125
 30
0.0
 10
406.37158203125
 20
-601.478515625
 30
0.0
 10
411.84423828125
 20
-598.8583984375
 30
0.0
 10
414.44970703125
 20
-593.9091796875
 30
0.0
 10
415.8310546875
 20
-591.28515625
 30
0.0
 10
414.82421875
 20
-588.0390625
 30
0.0
 10
412.2001953125
 20
-586.6572265625
 30
0.0
 10
409.578125
 20
-585.2763671875
 30
0.0
 10
406.32861328125
 20
-586.283203125
 30
0.0
 10
404.94677734375
 20
-588.9072265625
 30
0.0
 10
404.2666015625
 20
-590.2001953125
 30
0.0
 10
402.4521484375
 20
-590.1884765625
 30
0.0
 10
401.427734375
 20
-590.0673828125
 30
0.0
 10
398.6123046875
 20
-589.7314453125
 30
0.0
 10
395.91796875
 20
-587.85546875
 30
0.0
 10
395.4208984375
 20
-585.8857421875
 30
0.0
 10
394.712890625
 20
-583.0791015625
 30
0.0
 10
395.1572265625
 20
-580.6298828125
 30
0.0
 10
396.740234375
 20
-578.611328125
 30
0.0
 10
398.7705078125
 20
-576.0234375
 30
0.0
 10
402.560546875
 20
-574.2939453125
 30
0.0
 10
406.19384765625
 20
-574.2939453125
 30
0.0
 10
406.21875
 20
-574.2939453125
 30
0.0
 10
406.2421875
 20
-574.294921875
 30
0.0
 10
406.265625
 20
-574.294921875
 30
0.0
 10
412.26904296875
 20
-574.3349609375
 30
0.0
 10
418.12646484375
 20
-578.7607421875
 30
0.0
 10
421.189453125
 20
-585.5712890625
 30
0.0
 10
425.66796875
 20
-595.533203125
 30
0.0
 10
423.314453125
 20
-607.2236328125
 30
0.0
 10
414.9208984375
 20
-616.8115234375
 30
0.0
 10
402.8515625
 20
-630.376953125
 30
0.0
 10
387.3759765625
 20
-636.0458984375
 30
0.0
 10
368.82568359375
 20
-633.7431640625
 30
0.0
  0
SPLINE
  5
55
330
1F
100
AcDbEntity
  8
Layer 1
 62
   250
420
  2301728
370
    35
100
AcDbSpline
210
0.0
220
0.0
230
1.0
 70
    11
 71
     3
 72
    29
 73
    25
 74
     0
 42
0.0000000001
 43
0.0000000001
 40
0.0
 40
0.0
 40
0.0
 40
0.0
 40
1.0
 40
1.0
 40
1.0
 40
2.0
 40
2.0
 40
2.0
 40
3.0
 40
3.0
 40
3.0
 40
4.0
 40
4.0
 40
4.0
 40
5.0
 40
5.0
 40
5.0
 40
6.0
 40
6.0
 40
6.0
 40
7.0
 40
7.0
 40
7.0
 40
8.0
 40
8.0
 40
8.0
 40
8.0
 10
441.8583984375
 20
-655.240234375
 30
0.0
 10
436.8251953125
 20
-660.9892578125
 30
0.0
 10
433.767578125
 20
-666.9853515625
 30
0.0
 10
432.1689453125
 20
-672.798828125
 30
0.0
 10
430.5712890625
 20
-666.9853515625
 30
0.0
 10
427.5146484375
 20
-660.9892578125
 30
0.0
 10
422.4814453125
 20
-655.240234375
 30
0.0
 10
416.40966796875
 20
-648.416015625
 30
0.0
 10
409.5693359375
 20
-643.2236328125
 30
0.0
 10
402.05126953125
 20
-639.697265625
 30
0.0
 10
409.76416015625
 20
-636.16796875
 30
0.0
 10
416.76806640625
 20
-630.8916015625
 30
0.0
 10
422.974609375
 20
-623.9169921875
 30
0.0
 10
428.005859375
 20
-618.1669921875
 30
0.0
 10
431.0634765625
 20
-612.1728515625
 30
0.0
 10
432.662109375
 20
-606.359375
 30
0.0
 10
434.2607421875
 20
-612.1728515625
 30
0.0
 10
437.318359375
 20
-618.1669921875
 30
0.0
 10
442.3505859375
 20
-623.9169921875
 30
0.0
 10
448.423828125
 20
-630.7421875
 30
0.0
 10
455.263671875
 20
-635.9326171875
 30
0.0
 10
462.7822265625
 20
-639.4619140625
 30
0.0
 10
455.0673828125
 20
-642.990234375
 30
0.0
 10
448.064453125
 20
-648.2646484375
 30
0.0
 10
441.8583984375
 20
-655.240234375
 30
0.0
  0
SPLINE
  5
56
330
1F
100
AcDbEntity
  8
Layer 1
 62
   250
420
  2301728
370
    35
100
AcDbSpline
210
0.0
220
0.0
230
1.0
 70
    11
 71
     3
 72
    98
 73
    94
 74
     0
 42
0.0000000001
 43
0.0000000001
 40
0.0
 40
0.0
 40
0.0
 40
0.0
 40
1.0
 40
1.0
 40
1.0
 40
2.0
 40
2.0
 40
2.0
 40
3.0
 40
3.0
 40
3.0
 40
4.0
 40
4.0
 40
4.0
 40
5.0
 40
5.0
 40
5.0
 40
6.0
 40
6.0
 40
6.0
 40
7.0
 40
7.0
 40
7.0
 40
8.0
 40
8.0
 40
8.0
 40
9.0
 40
9.0
 40
9.0
 40
10.0
 40
10.0
 40
10.0
 40
11.0
 40
11.0
 40
11.0
 40
12.0
 40
12.0
 40
12.0
 40
13.0
 40
13.0
 40
13.0
 40
14.0
 40
14.0
 40
14.0
 40
15.0
 40
15.0
 40
15.0
 40
16.0
 40
16.0
 40
16.0
 40
17.0
 40
17.0
 40
17.0
 40
18.0
 40
18.0
 40
18.0
 40
19.0
 40
19.0
 40
19.0
 40
20.0
 40
20.0
 40
20.0
 40
21.0
 40
21.0
 40
21.0
 40
22.0
 40
22.0
 40
22.0
 40
23.0
 40
23.0
 40
23.0
 40
24.0
 40
24.0
 40
24.0
 40
25.0
 40
25.0
 40
25.0
 40
26.0
 40
26.0
 40
26.0
 40
27.0
 40
27.0
 40
27.0
 40
28.0
 40
28.0
 40
28.0
 40
29.0
 40
29.0
 40
29.0
 40
30.0
 40
30.0
 40
30.0
 40
31.0
 40
31.0
 40
31.0
 40
31.0
 10
546.060546875
 20
-607.529296875
 30
0.0
 10
532.15234375
 20
-618.744140625
 30
0.0
 10
518.8984375
 20
-628.6630859375
 30
0.0
 10
506.04296875
 20
-631.9287109375
 30
0.0
 10
503.298828125
 20
-632.626953125
 30
0.0
 10
500.6162109375
 20
-633.1611328125
 30
0.0
 10
497.9912109375
 20
-633.544921875
 30
0.0
 10
497.4912109375
 20
-633.58984375
 30
0.0
 10
496.9912109375
 20
-633.6376953125
 30
0.0
 10
496.494140625
 20
-633.693359375
 30
0.0
 10
496.49609375
 20
-633.7099609375
 30
0.0
 10
496.4970703125
 20
-633.7265625
 30
0.0
 10
496.498046875
 20
-633.7431640625
 30
0.0
 10
477.94921875
 20
-636.0458984375
 30
0.0
 10
462.47265625
 20
-630.376953125
 30
0.0
 10
450.40234375
 20
-616.8115234375
 30
0.0
 10
442.009765625
 20
-607.2236328125
 30
0.0
 10
439.65625
 20
-595.533203125
 30
0.0
 10
444.134765625
 20
-585.5712890625
 30
0.0
 10
447.197265625
 20
-578.7607421875
 30
0.0
 10
453.0546875
 20
-574.3349609375
 30
0.0
 10
459.0576171875
 20
-574.294921875
 30
0.0
 10
459.08203125
 20
-574.294921875
 30
0.0
 10
459.10546875
 20
-574.2939453125
 30
0.0
 10
459.1298828125
 20
-574.2939453125
 30
0.0
 10
462.7626953125
 20
-574.2939453125
 30
0.0
 10
466.5556640625
 20
-576.0234375
 30
0.0
 10
468.583984375
 20
-578.611328125
 30
0.0
 10
470.1669921875
 20
-580.6298828125
 30
0.0
 10
470.6123046875
 20
-583.0791015625
 30
0.0
 10
469.904296875
 20
-585.8857421875
 30
0.0
 10
469.40625
 20
-587.85546875
 30
0.0
 10
466.7119140625
 20
-589.7314453125
 30
0.0
 10
463.8974609375
 20
-590.0673828125
 30
0.0
 10
462.87109375
 20
-590.1884765625
 30
0.0
 10
461.0595703125
 20
-590.2001953125
 30
0.0
 10
460.3779296875
 20
-588.9072265625
 30
0.0
 10
458.994140625
 20
-586.283203125
 30
0.0
 10
455.74609375
 20
-585.2763671875
 30
0.0
 10
453.125
 20
-586.6572265625
 30
0.0
 10
450.5
 20
-588.0390625
 30
0.0
 10
449.4931640625
 20
-591.28515625
 30
0.0
 10
450.875
 20
-593.9091796875
 30
0.0
 10
453.478515625
 20
-598.8583984375
 30
0.0
 10
458.953125
 20
-601.478515625
 30
0.0
 10
465.169921875
 20
-600.7314453125
 30
0.0
 10
472.4931640625
 20
-599.8564453125
 30
0.0
 10
478.72265625
 20
-594.833984375
 30
0.0
 10
480.3173828125
 20
-588.513671875
 30
0.0
 10
481.8369140625
 20
-582.490234375
 30
0.0
 10
480.6708984375
 20
-576.6201171875
 30
0.0
 10
477.0341796875
 20
-571.9833984375
 30
0.0
 10
476.2783203125
 20
-571.0185546875
 30
0.0
 10
475.42578125
 20
-570.123046875
 30
0.0
 10
474.49609375
 20
-569.302734375
 30
0.0
 10
474.49609375
 20
-569.302734375
 30
0.0
 10
511.7587890625
 20
-569.302734375
 30
0.0
 10
511.7587890625
 20
-569.302734375
 30
0.0
 10
509.34765625
 20
-571.5146484375
 30
0.0
 10
507.3916015625
 20
-574.234375
 30
0.0
 10
506.1435546875
 20
-577.2548828125
 30
0.0
 10
503.75390625
 20
-583.044921875
 30
0.0
 10
504.1943359375
 20
-589.3017578125
 30
0.0
 10
507.38671875
 20
-594.869140625
 30
0.0
 10
510.62890625
 20
-600.5234375
 30
0.0
 10
517.9853515625
 20
-603.677734375
 30
0.0
 10
525.2734375
 20
-602.5400390625
 30
0.0
 10
531.453125
 20
-601.576171875
 30
0.0
 10
536.0205078125
 20
-597.58203125
 30
0.0
 10
537.193359375
 20
-592.11328125
 30
0.0
 10
537.8154296875
 20
-589.212890625
 30
0.0
 10
535.96875
 20
-586.359375
 30
0.0
 10
533.0673828125
 20
-585.7373046875
 30
0.0
 10
530.1669921875
 20
-585.11328125
 30
0.0
 10
527.3134765625
 20
-586.9619140625
 30
0.0
 10
526.6923828125
 20
-589.86328125
 30
0.0
 10
526.3857421875
 20
-591.291015625
 30
0.0
 10
524.6337890625
 20
-591.7705078125
 30
0.0
 10
523.615234375
 20
-591.9296875
 30
0.0
 10
520.8125
 20
-592.365234375
 30
0.0
 10
517.712890625
 20
-591.2890625
 30
0.0
 10
516.7041015625
 20
-589.52734375
 30
0.0
 10
515.158203125
 20
-586.830078125
 30
0.0
 10
514.9453125
 20
-584.080078125
 30
0.0
 10
516.0703125
 20
-581.3544921875
 30
0.0
 10
517.3837890625
 20
-578.1748046875
 30
0.0
 10
520.44921875
 20
-575.44140625
 30
0.0
 10
523.7001953125
 20
-574.552734375
 30
0.0
 10
530.6806640625
 20
-572.6396484375
 30
0.0
 10
539.0986328125
 20
-575.5498046875
 30
0.0
 10
544.169921875
 20
-581.6181640625
 30
0.0
 10
547.4873046875
 20
-585.587890625
 30
0.0
 10
552.0478515625
 20
-594.1708984375
 30
0.0
 10
546.060546875
 20
-607.529296875
 30
0.0
  0
SPLINE
  5
57
330
1F
100
AcDbEntity
  8
Layer 1
 62
   250
420
  2301728
370
    35
100
AcDbSpline
210
0.0
220
0.0
230
1.0
 70
    11
 71
     3
 72
    17
 73
    13
 74
     0
 42
0.0000000001
 43
0.0000000001
 40
0.0
 40
0.0
 40
0.0
 40
0.0
 40
1.0
 40
1.0
 40
1.0
 40
2.0
 40
2.0
 40
2.0
 40
3.0
 40
3.0
 40
3.0
 40
4.0
 40
4.0
 40
4.0
 40
4.0
 10
559.673828125
 20
-596.4970703125
 30
0.0
 10
560.0087890625
 20
-588.421875
 30
0.0
 10
557.5703125
 20
-580.9052734375
 30
0.0
 10
552.41015625
 20
-574.732421875
 30
0.0
 10
550.6787109375
 20
-572.66015625
 30
0.0
 10
548.701171875
 20
-570.8486328125
 30
0.0
 10
546.55859375
 20
-569.302734375
 30
0.0
 10
546.55859375
 20
-569.302734375
 30
0.0
 10
602.7578125
 20
-569.302734375
 30
0.0
 10
602.7578125
 20
-569.302734375
 30
0.0
 10
587.4384765625
 20
-575.140625
 30
0.0
 10
573.3408203125
 20
-585.544921875
 30
0.0
 10
559.673828125
 20
-596.4970703125
 30
0.0
  0
SPLINE
  5
58
330
1F
100
AcDbEntity
  8
Layer 1
 62
   250
420
  2301728
370
    35
100
AcDbSpline
210
0.0
220
0.0
230
1.0
 70
    11
 71
     3
 72
    17
 73
    13
 74
     0
 42
0.0000000001
 43
0.0000000001
 40
0.0
 40
0.0
 40
0.0
 40
0.0
 40
1.0
 40
1.0
 40
1.0
 40
2.0
 40
2.0
 40
2.0
 40
3.0
 40
3.0
 40
3.0
 40
4.0
 40
4.0
 40
4.0
 40
4.0
 10
641.302734375
 20
-529.478515625
 30
0.0
 10
641.302734375
 20
-529.478515625
 30
0.0
 10
641.302734375
 20
-473.328125
 30
0.0
 10
641.302734375
 20
-473.328125
 30
0.0
 10
642.8486328125
 20
-475.474609375
 30
0.0
 10
644.6611328125
 20
-477.4560546875
 30
0.0
 10
646.736328125
 20
-479.189453125
 30
0.0
 10
652.8994140625
 20
-484.3408203125
 30
0.0
 10
660.4013671875
 20
-486.7744140625
 30
0.0
 10
668.462890625
 20
-486.44140625
 30
0.0
 10
657.521484375
 20
-500.091796875
 30
0.0
 10
647.1279296875
 20
-514.1728515625
 30
0.0
 10
641.302734375
 20
-529.478515625
 30
0.0
  0
SPLINE
  5
59
330
1F
100
AcDbEntity
  8
Layer 1
 62
   250
420
  2301728
370
    35
100
AcDbSpline
210
0.0
220
0.0
230
1.0
 70
    11
 71
     3
 72
    89
 73
    85
 74
     0
 42
0.0000000001
 43
0.0000000001
 40
0.0
 40
0.0
 40
0.0
 40
0.0
 40
1.0
 40
1.0
 40
1.0
 40
2.0
 40
2.0
 40
2.0
 40
3.0
 40
3.0
 40
3.0
 40
4.0
 40
4.0
 40
4.0
 40
5.0
 40
5.0
 40
5.0
 40
6.0
 40
6.0
 40
6.0
 40
7.0
 40
7.0
 40
7.0
 40
8.0
 40
8.0
 40
8.0
 40
9.0
 40
9.0
 40
9.0
 40
10.0
 40
10.0
 40
10.0
 40
11.0
 40
11.0
 40
11.0
 40
12.0
 40
12.0
 40
12.0
 40
13.0
 40
13.0
 40
13.0
 40
14.0
 40
14.0
 40
14.0
 40
15.0
 40
15.0
 40
15.0
 40
16.0
 40
16.0
 40
16.0
 40
17.0
 40
17.0
 40
17.0
 40
18.0
 40
18.0
 40
18.0
 40
19.0
 40
19.0
 40
19.0
 40
20.0
 40
20.0
 40
20.0
 40
21.0
 40
21.0
 40
21.0
 40
22.0
 40
22.0
 40
22.0
 40
23.0
 40
23.0
 40
23.0
 40
24.0
 40
24.0
 40
24.0
 40
25.0
 40
25.0
 40
25.0
 40
26.0
 40
26.0
 40
26.0
 40
27.0
 40
27.0
 40
27.0
 40
28.0
 40
28.0
 40
28.0
 40
28.0
 10
679.4755859375
 20
-472.8505859375
 30
0.0
 10
666.140625
 20
-478.8271484375
 30
0.0
 10
657.572265625
 20
-474.2744140625
 30
0.0
 10
653.609375
 20
-470.962890625
 30
0.0
 10
647.55078125
 20
-465.9013671875
 30
0.0
 10
644.6484375
 20
-457.4990234375
 30
0.0
 10
646.556640625
 20
-450.529296875
 30
0.0
 10
647.4443359375
 20
-447.2861328125
 30
0.0
 10
650.1728515625
 20
-444.224609375
 30
0.0
 10
653.345703125
 20
-442.9140625
 30
0.0
 10
656.068359375
 20
-441.791015625
 30
0.0
 10
658.8125
 20
-442.0029296875
 30
0.0
 10
661.5048828125
 20
-443.5458984375
 30
0.0
 10
663.263671875
 20
-444.5537109375
 30
0.0
 10
664.3388671875
 20
-447.6484375
 30
0.0
 10
663.9033203125
 20
-450.4462890625
 30
0.0
 10
663.744140625
 20
-451.462890625
 30
0.0
 10
663.265625
 20
-453.2119140625
 30
0.0
 10
661.8388671875
 20
-453.5166015625
 30
0.0
 10
658.9453125
 20
-454.1376953125
 30
0.0
 10
657.0986328125
 20
-456.986328125
 30
0.0
 10
657.7216796875
 20
-459.8818359375
 30
0.0
 10
658.3408203125
 20
-462.7763671875
 30
0.0
 10
661.19140625
 20
-464.6201171875
 30
0.0
 10
664.0869140625
 20
-463.9990234375
 30
0.0
 10
669.5439453125
 20
-462.828125
 30
0.0
 10
673.5322265625
 20
-458.2685546875
 30
0.0
 10
674.4951171875
 20
-452.0986328125
 30
0.0
 10
675.6298828125
 20
-444.8251953125
 30
0.0
 10
672.48046875
 20
-437.482421875
 30
0.0
 10
666.8369140625
 20
-434.2451171875
 30
0.0
 10
661.2783203125
 20
-431.05859375
 30
0.0
 10
655.03515625
 20
-430.6181640625
 30
0.0
 10
649.2548828125
 20
-433.005859375
 30
0.0
 10
646.2333984375
 20
-434.2529296875
 30
0.0
 10
643.513671875
 20
-436.2119140625
 30
0.0
 10
641.302734375
 20
-438.625
 30
0.0
 10
641.302734375
 20
-438.625
 30
0.0
 10
641.302734375
 20
-401.3984375
 30
0.0
 10
641.302734375
 20
-401.3984375
 30
0.0
 10
642.1259765625
 20
-402.3330078125
 30
0.0
 10
643.0244140625
 20
-403.189453125
 30
0.0
 10
643.9921875
 20
-403.9482421875
 30
0.0
 10
648.6201171875
 20
-407.5771484375
 30
0.0
 10
654.48046875
 20
-408.740234375
 30
0.0
 10
660.4931640625
 20
-407.224609375
 30
0.0
 10
666.80078125
 20
-405.6328125
 30
0.0
 10
671.81640625
 20
-399.4140625
 30
0.0
 10
672.6884765625
 20
-392.103515625
 30
0.0
 10
673.4345703125
 20
-385.8984375
 30
0.0
 10
670.818359375
 20
-380.4345703125
 30
0.0
 10
665.8798828125
 20
-377.8349609375
 30
0.0
 10
663.259765625
 20
-376.455078125
 30
0.0
 10
660.017578125
 20
-377.4609375
 30
0.0
 10
658.6396484375
 20
-380.080078125
 30
0.0
 10
657.26171875
 20
-382.697265625
 30
0.0
 10
658.265625
 20
-385.9404296875
 30
0.0
 10
660.8857421875
 20
-387.3203125
 30
0.0
 10
662.1767578125
 20
-388.0
 30
0.0
 10
662.1650390625
 20
-389.810546875
 30
0.0
 10
662.0439453125
 20
-390.833984375
 30
0.0
 10
661.7080078125
 20
-393.6435546875
 30
0.0
 10
659.8359375
 20
-396.3330078125
 30
0.0
 10
657.87109375
 20
-396.8291015625
 30
0.0
 10
655.0673828125
 20
-397.5361328125
 30
0.0
 10
652.6240234375
 20
-397.0927734375
 30
0.0
 10
650.607421875
 20
-395.51171875
 30
0.0
 10
648.0244140625
 20
-393.486328125
 30
0.0
 10
646.298828125
 20
-389.7021484375
 30
0.0
 10
646.298828125
 20
-386.0751953125
 30
0.0
 10
646.298828125
 20
-386.05078125
 30
0.0
 10
646.298828125
 20
-386.02734375
 30
0.0
 10
646.298828125
 20
-386.00390625
 30
0.0
 10
646.3388671875
 20
-380.0107421875
 30
0.0
 10
650.7578125
 20
-374.1630859375
 30
0.0
 10
657.556640625
 20
-371.1064453125
 30
0.0
 10
667.5
 20
-366.63671875
 30
0.0
 10
679.169921875
 20
-368.9853515625
 30
0.0
 10
688.7392578125
 20
-377.36328125
 30
0.0
 10
704.5419921875
 20
-391.4228515625
 30
0.0
 10
709.6220703125
 20
-410.107421875
 30
0.0
 10
703.8310546875
 20
-432.904296875
 30
0.0
 10
700.5712890625
 20
-445.73828125
 30
0.0
 10
690.6708984375
 20
-458.96875
 30
0.0
 10
679.4755859375
 20
-472.8505859375
 30
0.0
  0
ENDSEC
  0
SECTION
  2
OBJECTS
  0
DICTIONARY
  5
C
330
0
100
AcDbDictionary
281
     1
  3
ACAD_GROUP
350
D
  3
ACAD_LAYOUT
350
1A
  3
ACAD_MLINESTYLE
350
17
  3
ACAD_PLOTSETTINGS
350
19
  3
ACAD_PLOTSTYLENAME
350
E
  3
ACAD_TABLESTYLE
350
5A
  3
ACAD_VISUALSTYLE
350
2A
  0
DICTIONARY
  5
D
102
{ACAD_REACTORS
330
C
102
}
330
C
100
AcDbDictionary
281
     1
  0
DICTIONARY
  5
1A
102
{ACAD_REACTORS
330
C
102
}
330
C
100
AcDbDictionary
281
     1
  3
Layout1
350
1E
  3
Layout2
350
26
  3
Model
350
22
  0
DICTIONARY
  5
17
102
{ACAD_REACTORS
330
C
102
}
330
C
100
AcDbDictionary
281
     1
  3
Standard
350
18
  0
DICTIONARY
  5
19
102
{ACAD_REACTORS
330
C
102
}
330
C
100
AcDbDictionary
281
     1
  0
ACDBDICTIONARYWDFLT
  5
E
102
{ACAD_REACTORS
330
C
102
}
330
C
100
AcDbDictionary
281
     1
  3
Normal
350
F
100
AcDbDictionaryWithDefault
340
F
  0
DICTIONARY
  5
5A
102
{ACAD_REACTORS
330
C
102
}
330
C
100
AcDbDictionary
281
     1
  0
DICTIONARY
  5
2A
102
{ACAD_REACTORS
330
C
102
}
330
C
100
AcDbDictionary
281
     1
  3
2dWireframe
350
2F
  3
3D Hidden
350
31
  3
3dWireframe
350
30
  3
Basic
350
32
  3
Brighten
350
36
  3
ColorChange
350
3A
  3
Conceptual
350
34
  3
Dim
350
35
  3
Facepattern
350
39
  3
Flat
350
2B
  3
FlatWithEdges
350
2C
  3
Gouraud
350
2D
  3
GouraudWithEdges
350
2E
  3
Linepattern
350
38
  3
Realistic
350
33
  3
Thicken
350
37
  0
LAYOUT
  5
1E
102
{ACAD_REACTORS
330
1A
102
}
330
1A
100
AcDbPlotSettings
  1

  2
none_device
  4

  6

 40
0.0
 41
0.0
 42
0.0
 43
0.0
 44
0.0
 45
0.0
 46
0.0
 47
0.0
 48
0.0
 49
0.0
140
0.0
141
0.0
142
1.0
143
1.0
 70
   688
 72
     0
 73
     0
 74
     5
  7

 75
    16
 76
     0
 77
     2
 78
   300
147
1.0
148
0.0
149
0.0
100
AcDbLayout
  1
Layout1
 70
     1
 71
     1
 10
0.0
 20
0.0
 11
12.0
 21
9.0
 12
0.0
 22
0.0
 32
0.0
 14
1.000000000000000E+20
 24
1.000000000000000E+20
 34
1.000000000000000E+20
 15
-1.000000000000000E+20
 25
-1.000000000000000E+20
 35
-1.000000000000000E+20
146
0.0
 13
0.0
 23
0.0
 33
0.0
 16
1.0
 26
0.0
 36
0.0
 17
0.0
 27
1.0
 37
0.0
 76
     0
330
1B
  0
LAYOUT
  5
26
102
{ACAD_REACTORS
330
1A
102
}
330
1A
100
AcDbPlotSettings
  1

  2
none_device
  4

  6

 40
0.0
 41
0.0
 42
0.0
 43
0.0
 44
0.0
 45
0.0
 46
0.0
 47
0.0
 48
0.0
 49
0.0
140
0.0
141
0.0
142
1.0
143
1.0
 70
   688
 72
     0
 73
     0
 74
     5
  7

 75
    16
 76
     0
 77
     2
 78
   300
147
1.0
148
0.0
149
0.0
100
AcDbLayout
  1
Layout2
 70
     1
 71
     2
 10
0.0
 20
0.0
 11
0.0
 21
0.0
 12
0.0
 22
0.0
 32
0.0
 14
0.0
 24
0.0
 34
0.0
 15
0.0
 25
0.0
 35
0.0
146
0.0
 13
0.0
 23
0.0
 33
0.0
 16
1.0
 26
0.0
 36
0.0
 17
0.0
 27
1.0
 37
0.0
 76
     0
330
23
  0
LAYOUT
  5
22
102
{ACAD_REACTORS
330
1A
102
}
330
1A
100
AcDbPlotSettings
  1

  2
none_device
  4

  6

 40
0.0
 41
0.0
 42
0.0
 43
0.0
 44
0.0
 45
0.0
 46
0.0
 47
0.0
 48
0.0
 49
0.0
140
0.0
141
0.0
142
1.0
143
1.0
 70
  1712
 72
     0
 73
     0
 74
     0
  7

 75
     0
 76
     0
 77
     2
 78
   300
147
1.0
148
0.0
149
0.0
100
AcDbLayout
  1
Model
 70
     1
 71
     0
 10
0.0
 20
0.0
 11
12.0
 21
9.0
 12
0.0
 22
0.0
 32
0.0
 14
1.000000000000000E+20
 24
1.000000000000000E+20
 34
1.000000000000000E+20
 15
-1.000000000000000E+20
 25
-1.000000000000000E+20
 35
-1.000000000000000E+20
146
0.0
 13
0.0
 23
0.0
 33
0.0
 16
1.0
 26
0.0
 36
0.0
 17
0.0
 27
1.0
 37
0.0
 76
     0
330
1F
331
29
  0
MLINESTYLE
  5
18
102
{ACAD_REACTORS
330
17
102
}
330
17
100
AcDbMlineStyle
  2
Standard
 70
     0
  3

 62
   256
 51
90.0
 52
90.0
 71
     2
 49
0.5
 62
   256
  6
BYLAYER
 49
-0.5
 62
   256
  6
BYLAYER
  0
ACDBPLACEHOLDER
  5
F
102
{ACAD_REACTORS
330
E
102
}
330
E
  0
VISUALSTYLE
  5
2F
102
{ACAD_REACTORS
330
2A
102
}
330
2A
100
AcDbVisualStyle
  2
2dWireframe
 70
     4
 71
     0
 72
     2
 73
     0
 90
        0
 40
-0.6
 41
-30.0
 62
     5
 63
     7
421
 16777215
 74
     1
 91
        4
 64
     7
 65
   257
 75
     1
175
     1
 42
1.0
 92
        0
 66
   257
 43
1.0
 76
     1
 77
     6
 78
     2
 67
     7
 79
     5
170
     0
171
     0
290
     0
174
     0
 93
        1
 44
0.0
173
     0
291
     0
 45
0.0
1001
ACAD
1000
AcDbSavedByObjectVersion
1070
     0
  0
VISUALSTYLE
  5
31
102
{ACAD_REACTORS
330
2A
102
}
330
2A
100
AcDbVisualStyle
  2
3D Hidden
 70
     6
 71
     1
 72
     2
 73
     2
 90
        0
 40
-0.6
 41
-30.0
 62
     5
 63
     7
421
 16777215
 74
     2
 91
        2
 64
     7
 65
   257
 75
     2
175
     1
 42
40.0
 92
        0
 66
   257
 43
1.0
 76
     1
 77
     6
 78
     2
 67
     7
 79
     3
170
     0
171
     0
290
     0
174
     0
 93
        1
 44
0.0
173
     0
291
     0
 45
0.0
1001
ACAD
1000
AcDbSavedByObjectVersion
1070
     0
  0
VISUALSTYLE
  5
30
102
{ACAD_REACTORS
330
2A
102
}
330
2A
100
AcDbVisualStyle
  2
3dWireframe
 70
     5
 71
     0
 72
     2
 73
     0
 90
        0
 40
-0.6
 41
-30.0
 62
     5
 63
     7
421
 16777215
 74
     1
 91
        4
 64
     7
 65
   257
 75
     1
175
     1
 42
1.0
 92
        0
 66
   257
 43
1.0
 76
     1
 77
     6
 78
     2
 67
     7
 79
     5
170
     0
171
     0
290
     0
174
     0
 93
        1
 44
0.0
173
     0
291
     0
 45
0.0
1001
ACAD
1000
AcDbSavedByObjectVersion
1070
     0
  0
VISUALSTYLE
  5
32
102
{ACAD_REACTORS
330
2A
102
}
330
2A
100
AcDbVisualStyle
  2
Basic
 70
     7
 71
     1
 72
     0
 73
     1
 90
        0
 40
-0.6
 41
-30.0
 62
     5
 63
     7
421
 16777215
 74
     0
 91
        4
 64
     7
 65
   257
 75
     1
175
     1
 42
1.0
 92
        8
 66
     7
 43
1.0
 76
     1
 77
     6
 78
     2
 67
     7
 79
     5
170
     0
171
     0
290
     0
174
     0
 93
        1
 44
0.0
173
     0
291
     1
 45
0.0
1001
ACAD
1000
AcDbSavedByObjectVersion
1070
     0
  0
VISUALSTYLE
  5
36
102
{ACAD_REACTORS
330
2A
102
}
330
2A
100
AcDbVisualStyle
  2
Brighten
 70
    12
 71
     2
 72
     2
 73
     0
 90
        0
 40
-0.6
 41
-30.0
 62
     5
 63
     7
421
 16777215
 74
     1
 91
        4
 64
     7
 65
   257
 75
     1
175
     1
 42
1.0
 92
        8
 66
     7
 43
1.0
 76
     1
 77
     6
 78
     2
 67
     7
 79
     5
170
     0
171
     0
290
     0
174
     0
 93
        1
 44
50.0
173
     0
291
     1
 45
0.0
1001
ACAD
1000
AcDbSavedByObjectVersion
1070
     0
  0
VISUALSTYLE
  5
3A
102
{ACAD_REACTORS
330
2A
102
}
330
2A
100
AcDbVisualStyle
  2
ColorChange
 70
    16
 71
     2
 72
     2
 73
     3
 90
        0
 40
-0.6
 41
-30.0
 62
     5
 63
     8
421
  8421504
 74
     1
 91
        4
 64
     7
 65
   257
 75
     1
175
     1
 42
1.0
 92
        8
 66
     8
424
  8421504
 43
1.0
 76
     1
 77
     6
 78
     2
 67
     7
 79
     5
170
     0
171
     0
290
     0
174
     0
 93
        1
 44
0.0
173
     0
291
     1
 45
0.0
1001
ACAD
1000
AcDbSavedByObjectVersion
1070
     0
  0
VISUALSTYLE
  5
34
102
{ACAD_REACTORS
330
2A
102
}
330
2A
100
AcDbVisualStyle
  2
Conceptual
 70
     9
 71
     3
 72
     2
 73
     0
 90
        0
 40
-0.6
 41
-30.0
 62
     5
 63
     7
421
 16777215
 74
     2
 91
        2
 64
     7
 65
   257
 75
     1
175
     1
 42
40.0
 92
        8
 66
     7
 43
1.0
 76
     1
 77
     6
 78
     2
 67
     7
 79
     3
170
     0
171
     0
290
     0
174
     0
 93
        1
 44
0.0
173
     0
291
     0
 45
0.0
1001
ACAD
1000
AcDbSavedByObjectVersion
1070
     0
  0
VISUALSTYLE
  5
35
102
{ACAD_REACTORS
330
2A
102
}
330
2A
100
AcDbVisualStyle
  2
Dim
 70
    11
 71
     2
 72
     2
 73
     0
 90
        0
 40
-0.6
 41
-30.0
 62
     5
 63
     7
421
 16777215
 74
     1
 91
        4
 64
     7
 65
   257
 75
     1
175
     1
 42
1.0
 92
        8
 66
     7
 43
1.0
 76
     1
 77
     6
 78
     2
 67
     7
 79
     5
170
     0
171
     0
290
     0
174
     0
 93
        1
 44
-50.0
173
     0
291
     1
 45
0.0
1001
ACAD
1000
AcDbSavedByObjectVersion
1070
     0
  0
VISUALSTYLE
  5
39
102
{ACAD_REACTORS
330
2A
102
}
330
2A
100
AcDbVisualStyle
  2
Facepattern
 70
    15
 71
     2
 72
     2
 73
     0
 90
        0
 40
-0.6
 41
-30.0
 62
     5
 63
     7
421
 16777215
 74
     1
 91
        4
 64
     7
 65
   257
 75
     1
175
     1
 42
1.0
 92
        8
 66
     7
 43
1.0
 76
     1
 77
     6
 78
     2
 67
     7
 79
     5
170
     0
171
     0
290
     0
174
     0
 93
        1
 44
0.0
173
     0
291
     1
 45
0.0
1001
ACAD
1000
AcDbSavedByObjectVersion
1070
     0
  0
VISUALSTYLE
  5
2B
102
{ACAD_REACTORS
330
2A
102
}
330
2A
100
AcDbVisualStyle
  2
Flat
 70
     0
 71
     2
 72
     1
 73
     1
 90
        2
 40
-0.6
 41
30.0
 62
     5
 63
     7
421
 16777215
 74
     0
 91
        4
 64
     7
 65
   257
 75
     1
175
     1
 42
1.0
 92
        8
 66
     7
 43
1.0
 76
     1
 77
     6
 78
     2
 67
     7
 79
     5
170
     0
171
     0
290
     0
174
     0
 93
       13
 44
0.0
173
     0
291
     1
 45
0.0
1001
ACAD
1000
AcDbSavedByObjectVersion
1070
     0
  0
VISUALSTYLE
  5
2C
102
{ACAD_REACTORS
330
2A
102
}
330
2A
100
AcDbVisualStyle
  2
FlatWithEdges
 70
     1
 71
     2
 72
     1
 73
     1
 90
        2
 40
-0.6
 41
30.0
 62
     5
 63
     7
421
 16777215
 74
     1
 91
        4
 64
     7
 65
   257
 75
     1
175
     1
 42
1.0
 92
        0
 66
   257
 43
1.0
 76
     1
 77
     6
 78
     2
 67
     7
 79
     5
170
     0
171
     0
290
     0
174
     0
 93
       13
 44
0.0
173
     0
291
     1
 45
0.0
1001
ACAD
1000
AcDbSavedByObjectVersion
1070
     0
  0
VISUALSTYLE
  5
2D
102
{ACAD_REACTORS
330
2A
102
}
330
2A
100
AcDbVisualStyle
  2
Gouraud
 70
     2
 71
     2
 72
     2
 73
     1
 90
        2
 40
-0.6
 41
30.0
 62
     5
 63
     7
421
 16777215
 74
     0
 91
        4
 64
     7
 65
   257
 75
     1
175
     1
 42
1.0
 92
        0
 66
     7
 43
1.0
 76
     1
 77
     6
 78
     2
 67
     7
 79
     5
170
     0
171
     0
290
     0
174
     0
 93
       13
 44
0.0
173
     0
291
     1
 45
0.0
1001
ACAD
1000
AcDbSavedByObjectVersion
1070
     0
  0
VISUALSTYLE
  5
2E
102
{ACAD_REACTORS
330
2A
102
}
330
2A
100
AcDbVisualStyle
  2
GouraudWithEdges
 70
     3
 71
     2
 72
     2
 73
     1
 90
        2
 40
-0.6
 41
30.0
 62
     5
 63
     7
421
 16777215
 74
     1
 91
        4
 64
     7
 65
   257
 75
     1
175
     1
 42
1.0
 92
        0
 66
   257
 43
1.0
 76
     1
 77
     6
 78
     2
 67
     7
 79
     5
170
     0
171
     0
290
     0
174
     0
 93
       13
 44
0.0
173
     0
291
     1
 45
0.0
1001
ACAD
1000
AcDbSavedByObjectVersion
1070
     0
  0
VISUALSTYLE
  5
38
102
{ACAD_REACTORS
330
2A
102
}
330
2A
100
AcDbVisualStyle
  2
Linepattern
 70
    14
 71
     2
 72
     2
 73
     0
 90
        0
 40
-0.6
 41
-30.0
 62
     5
 63
     7
421
 16777215
 74
     1
 91
        4
 64
     7
 65
   257
 75
     7
175
     7
 42
1.0
 92
        8
 66
     7
 43
1.0
 76
     1
 77
     6
 78
     2
 67
     7
 79
     5
170
     0
171
     0
290
     0
174
     0
 93
        1
 44
0.0
173
     0
291
     1
 45
0.0
1001
ACAD
1000
AcDbSavedByObjectVersion
1070
     0
  0
VISUALSTYLE
  5
33
102
{ACAD_REACTORS
330
2A
102
}
330
2A
100
AcDbVisualStyle
  2
Realistic
 70
     8
 71
     2
 72
     2
 73
     0
 90
        0
 40
-0.6
 41
-30.0
 62
     5
 63
     7
421
 16777215
 74
     1
 91
        0
 64
     7
 65
   257
 75
     1
175
     1
 42
1.0
 92
        8
 66
     8
424
  7895160
 43
1.0
 76
     1
 77
     6
 78
     2
 67
     7
 79
     5
170
     0
171
     0
290
     0
174
     0
 93
       13
 44
0.0
173
     0
291
     0
 45
0.0
1001
ACAD
1000
AcDbSavedByObjectVersion
1070
     0
  0
VISUALSTYLE
  5
37
102
{ACAD_REACTORS
330
2A
102
}
330
2A
100
AcDbVisualStyle
  2
Thicken
 70
    13
 71
     2
 72
     2
 73
     0
 90
        0
 40
-0.6
 41
-30.0
 62
     5
 63
     7
421
 16777215
 74
     1
 91
        4
 64
     7
 65
   257
 75
     1
175
     1
 42
1.0
 92
       12
 66
     7
 43
1.0
 76
     1
 77
     6
 78
     2
 67
     7
 79
     5
170
     0
171
     0
290
     0
174
     0
 93
        1
 44
0.0
173
     0
291
     1
 45
0.0
1001
ACAD
1000
AcDbSavedByObjectVersion
1070
     0
  0
ENDSEC
  0
EOF
