  0
SECTION
  2
HEADER
  9
$ACADVER
  1
AC1012
  9
$DWGCODEPAGE
  3
dos850
  9
$INSBASE
 10
0.0
 20
0.0
 30
0.0
  9
$EXTMIN
 10
-0.6909653
 20
-6.4079233691
 30
0.0
  9
$EXTMAX
 10
23.5227913
 20
9.3055443691
 30
0.0
  9
$LIMMIN
 10
0.0
 20
0.0
  9
$LIMMAX
 10
0.0
 20
0.0
  9
$ORTHOMODE
 70
         0
  9
$REGENMODE
 70
         1
  9
$FILLMODE
 70
         1
  9
$QTEXTMODE
 70
         0
  9
$MIRRTEXT
 70
         1
  9
$DRAGMODE
 70
         2
  9
$LTSCALE
 40
1.0
  9
$OSMODE
 70
         0
  9
$ATTMODE
 70
         1
  9
$TEXTSIZE
 40
0.2
  9
$TRACEWID
 40
0.05
  9
$TEXTSTYLE
  7
STANDARD
  9
$CLAYER
  8
0
  9
$CELTYPE
  6
CONTINUOUS
  9
$CECOLOR
 62
         6
  9
$CELTSCALE
 40
1.0
  9
$DELOBJ
 70
         1
  9
$DISPSILH
 70
         0
  9
$DIMSCALE
 40
1.0
  9
$DIMASZ
 40
0.18
  9
$DIMEXO
 40
0.0625
  9
$DIMDLI
 40
0.38
  9
$DIMRND
 40
0.0
  9
$DIMDLE
 40
0.0
  9
$DIMEXE
 40
0.18
  9
$DIMTP
 40
0.0
  9
$DIMTM
 40
0.0
  9
$DIMTXT
 40
0.18
  9
$DIMCEN
 40
0.09
  9
$DIMTSZ
 40
0.0
  9
$DIMTOL
 70
         0
  9
$DIMLIM
 70
         0
  9
$DIMTIH
 70
         1
  9
$DIMTOH
 70
         1
  9
$DIMSE1
 70
         0
  9
$DIMSE2
 70
         0
  9
$DIMTAD
 70
         0
  9
$DIMZIN
 70
         0
  9
$DIMBLK
  1

  9
$DIMASO
 70
         1
  9
$DIMSHO
 70
         1
  9
$DIMPOST
  1

  9
$DIMAPOST
  1

  9
$DIMALT
 70
         0
  9
$DIMALTD
 70
         2
  9
$DIMALTF
 40
25.4
  9
$DIMLFAC
 40
1.0
  9
$DIMTOFL
 70
         0
  9
$DIMTVP
 40
0.0
  9
$DIMTIX
 70
         0
  9
$DIMSOXD
 70
         0
  9
$DIMSAH
 70
         0
  9
$DIMBLK1
  1

  9
$DIMBLK2
  1

  9
$DIMSTYLE
  2
STANDARD
  9
$DIMCLRD
 70
         0
  9
$DIMCLRE
 70
         0
  9
$DIMCLRT
 70
         6
  9
$DIMTFAC
 40
1.0
  9
$DIMGAP
 40
0.09
  9
$DIMJUST
 70
         0
  9
$DIMSD1
 70
         0
  9
$DIMSD2
 70
         0
  9
$DIMTOLJ
 70
         1
  9
$DIMTZIN
 70
         0
  9
$DIMALTZ
 70
         0
  9
$DIMALTTZ
 70
         0
  9
$DIMFIT
 70
         3
  9
$DIMUPT
 70
         0
  9
$DIMUNIT
 70
         2
  9
$DIMDEC
 70
         4
  9
$DIMTDEC
 70
         4
  9
$DIMALTU
 70
         2
  9
$DIMALTTD
 70
         2
  9
$DIMTXSTY
  7
STANDARD
  9
$DIMAUNIT
 70
         0
  9
$LUNITS
 70
         2
  9
$LUPREC
 70
        10
  9
$SKETCHINC
 40
0.1
  9
$FILLETRAD
 40
0.0
  9
$AUNITS
 70
         0
  9
$AUPREC
 70
         0
  9
$MENU
  1
acad
  9
$ELEVATION
 40
0.0
  9
$PELEVATION
 40
0.0
  9
$THICKNESS
 40
0.0
  9
$LIMCHECK
 70
         0
  9
$BLIPMODE
 70
         1
  9
$CHAMFERA
 40
0.0
  9
$CHAMFERB
 40
0.0
  9
$CHAMFERC
 40
0.0
  9
$CHAMFERD
 40
0.0
  9
$SKPOLY
 70
         0
  9
$TDCREATE
 40
0.000000000
  9
$TDUPDATE
 40
0.000000000
  9
$TDINDWG
 40
0.0000000000
  9
$TDUSRTIMER
 40
0.0000000000
  9
$USRTIMER
 70
         1
  9
$ANGBASE
 50
0.0
  9
$ANGDIR
 70
         0
  9
$PDMODE
 70
         2
  9
$PDSIZE
 40
0.0
  9
$PLINEWID
 40
0.0
  9
$COORDS
 70
         0
  9
$SPLFRAME
 70
         0
  9
$SPLINETYPE
 70
         6
  9
$SPLINESEGS
 70
         8
  9
$ATTDIA
 70
         0
  9
$ATTREQ
 70
         1
  9
$HANDLING
 70
         1
  9
$HANDSEED
  5
114
  9
$SURFTAB1
 70
         6
  9
$SURFTAB2
 70
         6
  9
$SURFTYPE
 70
         6
  9
$SURFU
 70
         6
  9
$SURFV
 70
         6
  9
$UCSNAME
  2

  9
$UCSORG
 10
0.0
 20
0.0
 30
0.0
  9
$UCSXDIR
 10
1.0
 20
0.0
 30
0.0
  9
$UCSYDIR
 10
0.0
 20
1.0
 30
0.0
  9
$PUCSNAME
  2

  9
$PUCSORG
 10
0.0
 20
0.0
 30
0.0
  9
$PUCSXDIR
 10
1.0
 20
0.0
 30
0.0
  9
$PUCSYDIR
 10
0.0
 20
1.0
 30
0.0
  9
$USERI1
 70
         0
  9
$USERI2
 70
         0
  9
$USERI3
 70
         0
  9
$USERI4
 70
         0
  9
$USERI5
 70
         0
  9
$USERR1
 40
0.0
  9
$USERR2
 40
0.0
  9
$USERR3
 40
0.0
  9
$USERR4
 40
0.0
  9
$USERR5
 40
0.0
  9
$WORLDVIEW
 70
         1
  9
$SHADEDGE
 70
         3
  9
$SHADEDIF
 70
        70
  9
$TILEMODE
 70
         1
  9
$MAXACTVP
 70
        16
  9
$PINSBASE
 10
0.0
 20
0.0
 30
0.0
  9
$PLIMCHECK
 70
         0
  9
$PEXTMIN
 10
1.0000000000E 20
 20
1.0000000000E 20
 30
1.0000000000E 20
  9
$PEXTMAX
 10
-1.0000000000E 20
 20
-1.0000000000E 20
 30
-1.0000000000E 20
  9
$PLIMMIN
 10
0.0
 20
0.0
  9
$PLIMMAX
 10
12.0
 20
9.0
  9
$UNITMODE
 70
         0
  9
$VISRETAIN
 70
         0
  9
$PLINEGEN
 70
         1
  9
$PSLTSCALE
 70
         0
  9
$TREEDEPTH
 70
      3020
  9
$PICKSTYLE
 70
         1
  9
$CMLSTYLE
  2
STANDARD
  9
$CMLJUST
 70
         0
  9
$CMLSCALE
 40
1.0
  9
$SAVEIMAGES
 70
         0
  0
ENDSEC
  0
SECTION
  2
CLASSES
  0
CLASS
  1
LWPOLYLINE
  2
AcDbPolyline
  3
\"AutoCAD\"
 90
        0
280
         0
281
         1
  0
CLASS
  1
IMAGE
  2
AcDbRasterImage
  3
ISM
 90
      127
280
         0
281
         1
  0
CLASS
  1
OLE2FRAME
  2
AcDbOle2Frame
  3
\"\"
 90
        0
280
         0
281
         1
  0
CLASS
  1
HATCH
  2
AcDbHatch
  3
\"ACAD_SEDONA\"
 90
        0
280
         0
281
         1
  0
CLASS
  1
DICTIONARYVAR
  2
AcDbDictionaryVar
  3
\"AutoCAD\"
 90
        0
280
         0
281
         0
  0
CLASS
  1
RASTERVARIABLES
  2
AcDbRasterVariables
  3
ISM
 90
        0
280
         0
281
         0
  0
CLASS
  1
IMAGEDEF
  2
AcDbRasterImageDef
  3
ISM
 90
        0
280
         0
281
         0
  0
CLASS
  1
IMAGEDEF_REACTOR
  2
AcDbRasterImageDefReactor
  3
ISM
 90
        1
280
         0
281
         0
  0
CLASS
  1
IDBUFFER
  2
AcDbIdBuffer
  3
\"Acad\"
 90
        0
280
         0
281
         0
  0
CLASS
  1
SPATIAL_FILTER
  2
AcDbSpatialFilter
  3
\"Acad\"
 90
        0
280
         0
281
         0
  0
CLASS
  1
XRECORD
  2
AcDbXrecord
  3
\"<Built In>\"
 90
        0
280
         0
281
         0
  0
CLASS
  1
SORTENTSTABLE
  2
AcDbSortentsTable
  3
\"AutoCAD\"
 90
        0
280
         0
281
         0
  0
CLASS
  1
LAYER_INDEX
  2
AcDbLayerIndex
  3
\"Acad\"
 90
        0
280
         0
281
         0
  0
CLASS
  1
SPATIAL_INDEX
  2
AcDbSpatialIndex
  3
\"Acad\"
 90
        0
280
         0
281
         0
  0
CLASS
  1
OBJECT_PTR
  2
CAseDLPNTableRecord
  3
\"ASE-LPNTableRecord\"
 90
        1
280
         0
281
         0
  0
ENDSEC
  0
SECTION
  2
TABLES
  0
TABLE
  2
VPORT
  5
7
100
AcDbSymbolTable
 70
         1
  0
VPORT
  5
15
100
AcDbSymbolTableRecord
100
AcDbViewportTableRecord
  2
*ACTIVE
 70
         0
 10
0.0
 20
0.0
 11
1.0
 21
1.0
 12
11.415913
 22
1.4488105
 13
0.0
 23
0.0
 14
1.0
 24
1.0
 15
0.0
 25
0.0
 16
0.0
 26
0.0
 36
1.0
 17
0.0
 27
0.0
 37
0.0
 40
15.7134677382
 41
1.5409556314
 42
50.0
 43
0.0
 44
0.0
 50
0.0
 51
0.0
 71
         0
 72
       100
 73
         1
 74
         1
 75
         0
 76
         0
 77
         0
 78
         0
  0
ENDTAB
  0
TABLE
  2
LTYPE
  5
4
100
AcDbSymbolTable
 70
         6
  0
LTYPE
  5
11
100
AcDbSymbolTableRecord
100
AcDbLinetypeTableRecord
  2
BYBLOCK
 70
         0
  3

 72
        65
 73
         0
 40
0.0
  0
LTYPE
  5
12
100
AcDbSymbolTableRecord
100
AcDbLinetypeTableRecord
  2
BYLAYER
 70
         0
  3

 72
        65
 73
         0
 40
0.0
  0
LTYPE
  5
13
100
AcDbSymbolTableRecord
100
AcDbLinetypeTableRecord
  2
CONTINUOUS
 70
         0
  3
Solid line
 72
        65
 73
         0
 40
0.0
  0
LTYPE
  5
1D
100
AcDbSymbolTableRecord
100
AcDbLinetypeTableRecord
  2
DASHED
 70
         0
  3
_ _ _ _ _ _ _ _ _ _ _ _ _ _ _ _
 72
        65
 73
         2
 40
0.2
 49
0.1
 74
         0
 49
-0.1
 74
         0
  0
LTYPE
  5
1E
100
AcDbSymbolTableRecord
100
AcDbLinetypeTableRecord
  2
CENTER
 70
         0
  3
___ _ ___ _ ___ _ ___ _ ___ _ ___ _ ___ _ ___ _
 72
        65
 73
         4
 40
0.95
 49
0.625
 74
         0
 49
-0.125
 74
         0
 49
0.075
 74
         0
 49
-0.125
 74
         0
  0
LTYPE
  5
1F
100
AcDbSymbolTableRecord
100
AcDbLinetypeTableRecord
  2
PHANTOM
 70
         0
  3
______  __  __  ______  __  __  ______  __  __  
 72
        65
 73
         6
 40
1.025
 49
0.625
 74
         0
 49
-0.125
 74
         0
 49
0.075
 74
         0
 49
-0.125
 74
         0
 49
0.075
 74
         0
 49
-0.125
 74
         0
  0
ENDTAB
  0
TABLE
  2
LAYER
  5
2
100
AcDbSymbolTable
 70
         2
  0
LAYER
  5
14
100
AcDbSymbolTableRecord
100
AcDbLayerTableRecord
  2
0
 70
         0
 62
         7
  6
CONTINUOUS
  0
LAYER
  5
21
100
AcDbSymbolTableRecord
100
AcDbLayerTableRecord
  2
CK_LEVEL_1
 70
         0
 62
         7
  6
CONTINUOUS
  0
ENDTAB
  0
TABLE
  2
STYLE
  5
3
100
AcDbSymbolTable
 70
         1
  0
STYLE
  5
17
100
AcDbSymbolTableRecord
100
AcDbTextStyleTableRecord
  2
STANDARD
 70
         0
 40
0.0
 41
1.0
 50
0.0
 71
         0
 42
0.0
  3
txt
  4

  0
ENDTAB
  0
TABLE
  2
VIEW
  5
5
100
AcDbSymbolTable
 70
         0
  0
ENDTAB
  0
TABLE
  2
UCS
  5
6
100
AcDbSymbolTable
 70
         1
  0
UCS
  5
20
100
AcDbSymbolTableRecord
100
AcDbUCSTableRecord
  2
CK_VIEW_1
 70
         0
 10
0.0
 20
0.0
 30
1.0
 11
1.0
 21
0.0
 31
0.0
 12
0.0
 22
1.0
 32
0.0
  0
ENDTAB
  0
TABLE
  2
APPID
  5
8
100
AcDbSymbolTable
 70
         1
  0
APPID
  5
16
100
AcDbSymbolTableRecord
100
AcDbRegAppTableRecord
  2
ACAD
 70
         0
  0
ENDTAB
  0
TABLE
  2
DIMSTYLE
  5
9
100
AcDbSymbolTable
 70
         1
  0
DIMSTYLE
105
18
100
AcDbSymbolTableRecord
100
AcDbDimStyleTableRecord
  2
STANDARD
 70
         0
  3

  4

  5

  6

  7

 40
1.0
 41
0.18
 42
0.0625
 43
0.38
 44
0.18
 45
0.0
 46
0.0
 47
0.0
 48
0.0
140
0.18
141
0.09
142
0.0
143
25.4
144
1.0
145
0.0
146
1.0
147
0.09
 71
         0
 72
         0
 73
         1
 74
         1
 75
         0
 76
         0
 77
         0
 78
         0
170
         0
171
         2
172
         0
173
         0
174
         0
175
         0
176
         0
177
         0
178
         0
270
         2
271
         4
272
         4
273
         2
274
         2
340
17
275
         0
280
         0
281
         0
282
         0
283
         1
284
         0
285
         0
286
         0
287
         0
288
         0
  0
ENDTAB
  0
TABLE
  2
BLOCK_RECORD
  5
1
100
AcDbSymbolTable
 70
         0
  0
BLOCK_RECORD
  5
A
100
AcDbSymbolTableRecord
100
AcDbBlockTableRecord
  2
*MODEL_SPACE
  0
BLOCK_RECORD
  5
B
100
AcDbSymbolTableRecord
100
AcDbBlockTableRecord
  2
*PAPER_SPACE
  0
ENDTAB
  0
ENDSEC
  0
SECTION
  2
BLOCKS
  0
BLOCK
  5
D
100
AcDbEntity
  8
0
100
AcDbBlockBegin
  2
*MODEL_SPACE
 70
         0
 10
0.0
 20
0.0
 30
0.0
  3
*MODEL_SPACE
  1

  0
ENDBLK
  5
E
100
AcDbEntity
  8
0
100
AcDbBlockEnd
  0
BLOCK
  5
F
100
AcDbEntity
 67
         1
  8
0
100
AcDbBlockBegin
  2
*PAPER_SPACE
 70
         0
 10
0.0
 20
0.0
 30
0.0
  3
*PAPER_SPACE
  1

  0
ENDBLK
  5
10
100
AcDbEntity
 67
         1
  8
0
100
AcDbBlockEnd
  0
ENDSEC
  0
SECTION
  2
ENTITIES
  0
ARC
  5
22
100
AcDbEntity
  8
CK_LEVEL_1
  6
CONTINUOUS
 62
        15
100
AcDbCircle
 10
6.803128
 20
5.227654
 30
0.0
 40
0.392403
100
AcDbArc
 50
99.598488
 51
166.583041
  0
ARC
  5
23
100
AcDbEntity
  8
CK_LEVEL_1
  6
CONTINUOUS
 62
        15
100
AcDbCircle
 10
13.856702
 20
6.096026
 30
0.0
 40
0.02
100
AcDbArc
 50
57.941868
 51
151.945932
  0
ARC
  5
24
100
AcDbEntity
  8
CK_LEVEL_1
  6
CONTINUOUS
 62
        15
100
AcDbCircle
 10
13.562616
 20
6.252751
 30
0.0
 40
0.313241
100
AcDbArc
 50
275.643404
 51
331.945937
  0
ARC
  5
25
100
AcDbEntity
  8
CK_LEVEL_1
  6
CONTINUOUS
 62
        15
100
AcDbCircle
 10
13.134694
 20
6.20658
 30
0.0
 40
0.02
100
AcDbArc
 50
57.771366
 51
158.927861
  0
LINE
  5
26
100
AcDbEntity
  8
CK_LEVEL_1
  6
CONTINUOUS
 62
        15
100
AcDbLine
 10
13.593419
 20
5.941028
 30
0.0
 11
13.14536
 21
6.223499
 31
0.0
  0
ARC
  5
27
100
AcDbEntity
  8
CK_LEVEL_1
  6
CONTINUOUS
 62
        15
100
AcDbCircle
 10
12.744769
 20
6.356822
 30
0.0
 40
0.397868
100
AcDbArc
 50
299.365661
 51
338.927866
  0
ARC
  5
28
100
AcDbEntity
  8
CK_LEVEL_1
  6
CONTINUOUS
 62
        15
100
AcDbCircle
 10
12.930069
 20
6.027507
 30
0.0
 40
0.02
100
AcDbArc
 50
239.981811
 51
299.365661
  0
LINE
  5
29
100
AcDbEntity
  8
CK_LEVEL_1
  6
CONTINUOUS
 62
        15
100
AcDbLine
 10
12.920063
 20
6.010189
 30
0.0
 11
12.527686
 21
6.236894
 31
0.0
  0
ARC
  5
2A
100
AcDbEntity
  8
CK_LEVEL_1
  6
CONTINUOUS
 62
        15
100
AcDbCircle
 10
12.311184
 20
6.007633
 30
0.0
 40
0.02
100
AcDbArc
 50
242.85019
 51
276.411609
  0
ARC
  5
2B
100
AcDbEntity
  8
CK_LEVEL_1
  6
CONTINUOUS
 62
        15
100
AcDbCircle
 10
12.290092
 20
6.195328
 30
0.0
 40
0.208877
100
AcDbArc
 50
276.411609
 51
366.081673
  0
ARC
  5
2C
100
AcDbEntity
  8
CK_LEVEL_1
  6
CONTINUOUS
 62
        15
100
AcDbCircle
 10
12.517681
 20
6.219577
 30
0.0
 40
0.02
100
AcDbArc
 50
59.981827
 51
186.081674
  0
ARC
  5
2D
100
AcDbEntity
  8
CK_LEVEL_1
  6
CONTINUOUS
 62
        15
100
AcDbCircle
 10
12.580911
 20
4.058935
 30
0.0
 40
2.423619
100
AcDbArc
 50
27.780799
 51
57.941868
  0
LINE
  5
2E
100
AcDbEntity
  8
CK_LEVEL_1
  6
CONTINUOUS
 62
        15
100
AcDbLine
 10
10.756534
 20
5.42574
 30
0.0
 11
10.509298
 21
5.4653
 31
0.0
  0
ARC
  5
2F
100
AcDbEntity
  8
CK_LEVEL_1
  6
CONTINUOUS
 62
        15
100
AcDbCircle
 10
10.607977
 20
5.611835
 30
0.0
 40
0.245142
100
AcDbArc
 50
312.366544
 51
385.789281
  0
ARC
  5
30
100
AcDbEntity
  8
CK_LEVEL_1
  6
CONTINUOUS
 62
        15
100
AcDbCircle
 10
10.759694
 20
5.445489
 30
0.0
 40
0.02
100
AcDbArc
 50
260.909347
 51
312.366544
  0
ARC
  5
31
100
AcDbEntity
  8
CK_LEVEL_1
  6
CONTINUOUS
 62
        15
100
AcDbCircle
 10
10.846711
 20
5.727189
 30
0.0
 40
0.02
100
AcDbArc
 50
90.000003
 51
205.789283
  0
LINE
  5
32
100
AcDbEntity
  8
CK_LEVEL_1
  6
CONTINUOUS
 62
        15
100
AcDbLine
 10
11.110963
 20
5.747189
 30
0.0
 11
10.846711
 21
5.747189
 31
0.0
  0
ARC
  5
33
100
AcDbEntity
  8
CK_LEVEL_1
  6
CONTINUOUS
 62
        15
100
AcDbCircle
 10
10.506138
 20
5.445551
 30
0.0
 40
0.02
100
AcDbArc
 50
80.909349
 51
196.15985
  0
ARC
  5
34
100
AcDbEntity
  8
CK_LEVEL_1
  6
CONTINUOUS
 62
        15
100
AcDbCircle
 10
8.354486
 20
2.935416
 30
0.0
 40
2.531533
100
AcDbArc
 50
62.254299
 51
83.632094
  0
ARC
  5
35
100
AcDbEntity
  8
CK_LEVEL_1
  6
CONTINUOUS
 62
        15
100
AcDbCircle
 10
6.323545
 20
-6.931067
 30
0.0
 40
12.596341
100
AcDbArc
 50
79.424964
 51
86.024785
  0
LINE
  5
36
100
AcDbEntity
  8
CK_LEVEL_1
  6
CONTINUOUS
 62
        15
100
AcDbLine
 10
7.328382
 20
5.338455
 30
0.0
 11
7.292415
 21
5.318852
 31
0.0
  0
LINE
  5
37
100
AcDbEntity
  8
CK_LEVEL_1
  6
CONTINUOUS
 62
        15
100
AcDbLine
 10
7.196786
 20
5.634969
 30
0.0
 11
6.737698
 21
5.614564
 31
0.0
  0
LINE
  5
38
100
AcDbEntity
  8
CK_LEVEL_1
  6
CONTINUOUS
 62
        15
100
AcDbLine
 10
8.427596
 20
5.301704
 30
0.0
 11
8.413901
 21
5.265018
 31
0.0
  0
ARC
  5
39
100
AcDbEntity
  8
CK_LEVEL_1
  6
CONTINUOUS
 62
        15
100
AcDbCircle
 10
11.020564
 20
5.972185
 30
0.0
 40
0.242477
100
AcDbArc
 50
291.889282
 51
376.615111
  0
LINE
  5
3A
100
AcDbEntity
  8
CK_LEVEL_1
  6
CONTINUOUS
 62
        15
100
AcDbLine
 10
12.302058
 20
5.989837
 30
0.0
 11
11.876786
 21
6.207926
 31
0.0
  0
ARC
  5
3B
100
AcDbEntity
  8
CK_LEVEL_1
  6
CONTINUOUS
 62
        15
100
AcDbCircle
 10
11.86766
 20
6.19013
 30
0.0
 40
0.02
100
AcDbArc
 50
62.850199
 51
177.424641
  0
ARC
  5
3C
100
AcDbEntity
  8
CK_LEVEL_1
  6
CONTINUOUS
 62
        15
100
AcDbCircle
 10
11.526214
 20
6.205488
 30
0.0
 40
0.321791
100
AcDbArc
 50
303.27283
 51
357.424646
  0
ARC
  5
3D
100
AcDbEntity
  8
CK_LEVEL_1
  6
CONTINUOUS
 62
        15
100
AcDbCircle
 10
11.691784
 20
5.95317
 30
0.0
 40
0.02
100
AcDbArc
 50
252.030948
 51
303.27283
  0
LINE
  5
3E
100
AcDbEntity
  8
CK_LEVEL_1
  6
CONTINUOUS
 62
        15
100
AcDbLine
 10
11.685614
 20
5.934146
 30
0.0
 11
11.278252
 21
6.066262
 31
0.0
  0
ARC
  5
3F
100
AcDbEntity
  8
CK_LEVEL_1
  6
CONTINUOUS
 62
        15
100
AcDbCircle
 10
11.272082
 20
6.047238
 30
0.0
 40
0.02
100
AcDbArc
 50
72.03095
 51
196.61511
  0
ARC
  5
40
100
AcDbEntity
  8
CK_LEVEL_1
  6
CONTINUOUS
 62
        15
100
AcDbCircle
 10
10.285342
 20
5.188761
 30
0.0
 40
0.02
100
AcDbArc
 50
73.048757
 51
197.191414
  0
ARC
  5
41
100
AcDbEntity
  8
CK_LEVEL_1
  6
CONTINUOUS
 62
        15
100
AcDbCircle
 10
10.162928
 20
5.3461
 30
0.0
 40
0.337328
100
AcDbArc
 50
329.412483
 51
376.159843
  0
LINE
  5
42
100
AcDbEntity
  8
CK_LEVEL_1
  6
CONTINUOUS
 62
        15
100
AcDbLine
 10
6.809287
 20
4.342857
 30
0.0
 11
6.768
 21
4.324
 31
0.0
  0
ARC
  5
43
100
AcDbEntity
  8
CK_LEVEL_1
  6
CONTINUOUS
 62
        15
100
AcDbCircle
 10
6.621972
 20
3.130959
 30
0.0
 40
0.061212
100
AcDbArc
 50
281.368031
 51
395.298698
  0
LINE
  5
44
100
AcDbEntity
  8
CK_LEVEL_1
  6
CONTINUOUS
 62
        15
100
AcDbLine
 10
6.6705
 20
3.624111
 30
0.0
 11
6.706311
 21
3.649577
 31
0.0
  0
LINE
  5
45
100
AcDbEntity
  8
CK_LEVEL_1
  6
CONTINUOUS
 62
        15
100
AcDbLine
 10
6.689869
 20
3.94103
 30
0.0
 11
6.719179
 21
3.96957
 31
0.0
  0
ARC
  5
46
100
AcDbEntity
  8
CK_LEVEL_1
  6
CONTINUOUS
 62
        15
100
AcDbCircle
 10
7.587054
 20
4.61041
 30
0.0
 40
1.363947
100
AcDbArc
 50
148.714788
 51
188.418172
  0
LINE
  5
47
100
AcDbEntity
  8
CK_LEVEL_1
  6
CONTINUOUS
 62
        15
100
AcDbLine
 10
2.079523
 20
-1.282085
 30
0.0
 11
2.060028
 21
-1.254299
 31
0.0
  0
ARC
  5
48
100
AcDbEntity
  8
CK_LEVEL_1
  6
CONTINUOUS
 62
        15
100
AcDbCircle
 10
1.726372
 20
-1.636121
 30
0.0
 40
0.15303
100
AcDbArc
 50
188.219632
 51
292.143064
  0
ARC
  5
49
100
AcDbEntity
  8
CK_LEVEL_1
  6
CONTINUOUS
 62
        15
100
AcDbCircle
 10
8.615253
 20
4.542213
 30
0.0
 40
2.381084
100
AcDbArc
 50
183.165402
 51
215.298696
  0
ARC
  5
4A
100
AcDbEntity
  8
CK_LEVEL_1
  6
CONTINUOUS
 62
        15
100
AcDbCircle
 10
6.643367
 20
-0.925852
 30
0.0
 40
5.12106
100
AcDbArc
 50
162.20254
 51
188.219632
  0
LINE
  5
4B
100
AcDbEntity
  8
CK_LEVEL_1
  6
CONTINUOUS
 62
        15
100
AcDbLine
 10
2.392677
 20
-0.188317
 30
0.0
 11
2.409401
 21
-0.225312
 31
0.0
  0
ARC
  5
4C
100
AcDbEntity
  8
CK_LEVEL_1
  6
CONTINUOUS
 62
        15
100
AcDbCircle
 10
5.804482
 20
-1.806012
 30
0.0
 40
2.192255
100
AcDbArc
 50
104.148555
 51
134.841444
  0
LINE
  5
4D
100
AcDbEntity
  8
CK_LEVEL_1
  6
CONTINUOUS
 62
        15
100
AcDbLine
 10
3.655288
 20
0.382453
 30
0.0
 11
3.672012
 21
0.345458
 31
0.0
  0
LINE
  5
4E
100
AcDbEntity
  8
CK_LEVEL_1
  6
CONTINUOUS
 62
        15
100
AcDbLine
 10
3.740495
 20
-0.276786
 30
0.0
 11
3.721
 21
-0.249
 31
0.0
  0
LINE
  5
4F
100
AcDbEntity
  8
CK_LEVEL_1
  6
CONTINUOUS
 62
        15
100
AcDbLine
 10
3.672012
 20
0.345458
 30
0.0
 11
2.409401
 21
-0.225312
 31
0.0
  0
LINE
  5
50
100
AcDbEntity
  8
CK_LEVEL_1
  6
CONTINUOUS
 62
        15
100
AcDbLine
 10
3.655288
 20
0.382453
 30
0.0
 11
2.392677
 21
-0.188317
 31
0.0
  0
ARC
  5
51
100
AcDbEntity
  8
CK_LEVEL_1
  6
CONTINUOUS
 62
        15
100
AcDbCircle
 10
-1.527885
 20
6.360893
 30
0.0
 40
8.786825
100
AcDbArc
 50
292.143064
 51
311.188855
  0
ARC
  5
52
100
AcDbEntity
  8
CK_LEVEL_1
  6
CONTINUOUS
 62
        15
100
AcDbCircle
 10
-3.135459
 20
9.208989
 30
0.0
 40
11.715744
100
AcDbArc
 50
296.431385
 51
305.937232
  0
ARC
  5
53
100
AcDbEntity
  8
CK_LEVEL_1
  6
CONTINUOUS
 62
        15
100
AcDbCircle
 10
-3.154954
 20
9.236775
 30
0.0
 40
11.715744
100
AcDbArc
 50
296.431385
 51
305.937232
  0
ARC
  5
54
100
AcDbEntity
  8
CK_LEVEL_1
  6
CONTINUOUS
 62
        15
100
AcDbCircle
 10
1.534257
 20
0.714255
 30
0.0
 40
0.244847
100
AcDbArc
 50
342.202531
 51
401.885459
  0
LINE
  5
55
100
AcDbEntity
  8
CK_LEVEL_1
  6
CONTINUOUS
 62
        15
100
AcDbLine
 10
2.148503
 20
0.836997
 30
0.0
 11
2.157653
 21
0.798703
 31
0.0
  0
ARC
  5
56
100
AcDbEntity
  8
CK_LEVEL_1
  6
CONTINUOUS
 62
        15
100
AcDbCircle
 10
4.994635
 20
3.425481
 30
0.0
 40
1.626478
100
AcDbArc
 50
270.307414
 51
304.349486
  0
ARC
  5
57
100
AcDbEntity
  8
CK_LEVEL_1
  6
CONTINUOUS
 62
        15
100
AcDbCircle
 10
4.99522
 20
3.38487
 30
0.0
 40
1.626478
100
AcDbArc
 50
270.307414
 51
304.349486
  0
CIRCLE
  5
58
100
AcDbEntity
  8
CK_LEVEL_1
  6
CONTINUOUS
 62
        15
100
AcDbCircle
 10
3.177
 20
2.171
 30
0.0
 40
0.0935
  0
ARC
  5
59
100
AcDbEntity
  8
CK_LEVEL_1
  6
CONTINUOUS
 62
        15
100
AcDbCircle
 10
-0.066132
 20
36.396022
 30
0.0
 40
33.991952
100
AcDbArc
 50
277.257459
 51
281.368031
  0
ARC
  5
5A
100
AcDbEntity
  8
CK_LEVEL_1
  6
CONTINUOUS
 62
        15
100
AcDbCircle
 10
4.183386
 20
5.045245
 30
0.0
 40
2.369268
100
AcDbArc
 50
241.552782
 51
271.079253
  0
LINE
  5
5B
100
AcDbEntity
  8
CK_LEVEL_1
  6
CONTINUOUS
 62
        15
100
AcDbLine
 10
4.235
 20
1.694
 30
0.0
 11
4.234416
 21
1.734611
 31
0.0
  0
ARC
  5
5C
100
AcDbEntity
  8
CK_LEVEL_1
  6
CONTINUOUS
 62
        15
100
AcDbCircle
 10
4.722451
 20
0.496922
 30
0.0
 40
1.292518
100
AcDbArc
 50
77.420884
 51
112.1562
  0
ARC
  5
5D
100
AcDbEntity
  8
CK_LEVEL_1
  6
CONTINUOUS
 62
        15
100
AcDbCircle
 10
4.721867
 20
0.537533
 30
0.0
 40
1.292518
100
AcDbArc
 50
77.420884
 51
112.1562
  0
LINE
  5
5E
100
AcDbEntity
  8
CK_LEVEL_1
  6
CONTINUOUS
 62
        15
100
AcDbLine
 10
3.443129
 20
1.911054
 30
0.0
 11
3.442461
 21
1.941855
 31
0.0
  0
LINE
  5
5F
100
AcDbEntity
  8
CK_LEVEL_1
  6
CONTINUOUS
 62
        15
100
AcDbLine
 10
3.66051
 20
1.157792
 30
0.0
 11
3.65136
 21
1.196086
 31
0.0
  0
LINE
  5
60
100
AcDbEntity
  8
CK_LEVEL_1
  6
CONTINUOUS
 62
        15
100
AcDbLine
 10
3.65136
 20
1.196086
 30
0.0
 11
2.148143
 21
0.836911
 31
0.0
  0
LINE
  5
61
100
AcDbEntity
  8
CK_LEVEL_1
  6
CONTINUOUS
 62
        15
100
AcDbLine
 10
2.157653
 20
0.798703
 30
0.0
 11
3.66051
 21
1.157792
 31
0.0
  0
LINE
  5
62
100
AcDbEntity
  8
CK_LEVEL_1
  6
CONTINUOUS
 62
        15
100
AcDbLine
 10
3.344304
 20
2.53391
 30
0.0
 11
3.353713
 21
2.576099
 31
0.0
  0
LINE
  5
63
100
AcDbEntity
  8
CK_LEVEL_1
  6
CONTINUOUS
 62
        15
100
AcDbLine
 10
2.768597
 20
2.703669
 30
0.0
 11
3.344304
 21
2.53391
 31
0.0
  0
LINE
  5
64
100
AcDbEntity
  8
CK_LEVEL_1
  6
CONTINUOUS
 62
        15
100
AcDbLine
 10
2.77831
 20
2.745768
 30
0.0
 11
3.353713
 21
2.576099
 31
0.0
  0
LINE
  5
65
100
AcDbEntity
  8
CK_LEVEL_1
  6
CONTINUOUS
 62
        15
100
AcDbLine
 10
1.631259
 20
1.963084
 30
0.0
 11
1.630591
 21
1.993885
 31
0.0
  0
LINE
  5
66
100
AcDbEntity
  8
CK_LEVEL_1
  6
CONTINUOUS
 62
        15
100
AcDbLine
 10
3.442461
 20
1.941855
 30
0.0
 11
1.630591
 21
1.993885
 31
0.0
  0
ARC
  5
67
100
AcDbEntity
  8
CK_LEVEL_1
  6
CONTINUOUS
 62
        15
100
AcDbCircle
 10
1.30983
 20
-1.099579
 30
0.0
 40
4.420601
100
AcDbArc
 50
66.750667
 51
85.759391
  0
LINE
  5
68
100
AcDbEntity
  8
CK_LEVEL_1
  6
CONTINUOUS
 62
        15
100
AcDbLine
 10
3.443129
 20
1.911054
 30
0.0
 11
1.631259
 21
1.963084
 31
0.0
  0
ARC
  5
69
100
AcDbEntity
  8
CK_LEVEL_1
  6
CONTINUOUS
 62
        15
100
AcDbCircle
 10
0.639204
 20
2.912598
 30
0.0
 40
0.229544
100
AcDbArc
 50
106.083063
 51
205.233524
  0
LINE
  5
6A
100
AcDbEntity
  8
CK_LEVEL_1
  6
CONTINUOUS
 62
        15
100
AcDbLine
 10
0.920296
 20
2.984997
 30
0.0
 11
0.913583
 21
2.954898
 31
0.0
  0
ARC
  5
6B
100
AcDbEntity
  8
CK_LEVEL_1
  6
CONTINUOUS
 62
        15
100
AcDbCircle
 10
1.856752
 20
-1.31038
 30
0.0
 40
4.624538
100
AcDbArc
 50
92.727229
 51
106.083063
  0
ARC
  5
6C
100
AcDbEntity
  8
CK_LEVEL_1
  6
CONTINUOUS
 62
        15
100
AcDbCircle
 10
7.691932
 20
6.236401
 30
0.0
 40
8.026251
100
AcDbArc
 50
205.233524
 51
221.885457
  0
ARC
  5
6D
100
AcDbEntity
  8
CK_LEVEL_1
  6
CONTINUOUS
 62
        15
100
AcDbCircle
 10
1.143517
 20
-2.582885
 30
0.0
 40
5.53069
100
AcDbArc
 50
72.912638
 51
92.413819
  0
ARC
  5
6E
100
AcDbEntity
  8
CK_LEVEL_1
  6
CONTINUOUS
 62
        15
100
AcDbCircle
 10
1.15323
 20
-2.540785
 30
0.0
 40
5.53069
100
AcDbArc
 50
72.912638
 51
92.413819
  0
CIRCLE
  5
6F
100
AcDbEntity
  8
CK_LEVEL_1
  6
CONTINUOUS
 62
        15
100
AcDbCircle
 10
20.305
 20
2.171
 30
0.0
 40
0.0935
  0
LINE
  5
70
100
AcDbEntity
  8
CK_LEVEL_1
  6
CONTINUOUS
 62
        15
100
AcDbLine
 10
20.030864
 20
4.053663
 30
0.0
 11
17.715016
 21
4.880022
 31
0.0
  0
LINE
  5
71
100
AcDbEntity
  8
CK_LEVEL_1
  6
CONTINUOUS
 62
        15
100
AcDbLine
 10
20.33
 20
3.101
 30
0.0
 11
20.306317
 21
3.135485
 31
0.0
  0
ARC
  5
72
100
AcDbEntity
  8
CK_LEVEL_1
  6
CONTINUOUS
 62
        15
100
AcDbCircle
 10
19.884634
 20
3.359928
 30
0.0
 40
0.357473
100
AcDbArc
 50
235.856732
 51
297.784254
  0
ARC
  5
73
100
AcDbEntity
  8
CK_LEVEL_1
  6
CONTINUOUS
 62
        15
100
AcDbCircle
 10
19.84704
 20
3.182149
 30
0.0
 40
0.246751
100
AcDbArc
 50
325.859801
 51
435.591432
  0
LINE
  5
74
100
AcDbEntity
  8
CK_LEVEL_1
  6
CONTINUOUS
 62
        15
100
AcDbLine
 10
20.26551
 20
3.410939
 30
0.0
 11
20.275999
 21
3.454
 31
0.0
  0
LINE
  5
75
100
AcDbEntity
  8
CK_LEVEL_1
  6
CONTINUOUS
 62
        15
100
AcDbLine
 10
19.908441
 20
3.421139
 30
0.0
 11
19.857431
 21
3.421139
 31
0.0
  0
ARC
  5
76
100
AcDbEntity
  8
CK_LEVEL_1
  6
CONTINUOUS
 62
        15
100
AcDbCircle
 10
19.87372
 20
1.440158
 30
0.0
 40
2.56617
100
AcDbArc
 50
42.959708
 51
76.105356
  0
LINE
  5
77
100
AcDbEntity
  8
CK_LEVEL_1
  6
CONTINUOUS
 62
        15
100
AcDbLine
 10
20.489953
 20
3.931239
 30
0.0
 11
20.030864
 21
4.053663
 31
0.0
  0
ARC
  5
78
100
AcDbEntity
  8
CK_LEVEL_1
  6
CONTINUOUS
 62
        15
100
AcDbCircle
 10
19.693622
 20
1.964094
 30
0.0
 40
1.037341
100
AcDbArc
 50
237.742192
 51
280.617147
  0
LINE
  5
79
100
AcDbEntity
  8
CK_LEVEL_1
  6
CONTINUOUS
 62
        15
100
AcDbLine
 10
19.139962
 20
1.086861
 30
0.0
 11
19.151083
 21
1.040784
 31
0.0
  0
LINE
  5
7A
100
AcDbEntity
  8
CK_LEVEL_1
  6
CONTINUOUS
 62
        15
100
AcDbLine
 10
20.561367
 20
1.166506
 30
0.0
 11
20.503529
 21
1.204106
 31
0.0
  0
ARC
  5
7B
100
AcDbEntity
  8
CK_LEVEL_1
  6
CONTINUOUS
 62
        15
100
AcDbCircle
 10
21.648782
 20
1.410796
 30
0.0
 40
0.306059
100
AcDbArc
 50
173.167494
 51
229.331224
  0
ARC
  5
7C
100
AcDbEntity
  8
CK_LEVEL_1
  6
CONTINUOUS
 62
        15
100
AcDbCircle
 10
21.607329
 20
1.399821
 30
0.0
 40
0.306059
100
AcDbArc
 50
167.1675
 51
223.331217
  0
LINE
  5
7D
100
AcDbEntity
  8
CK_LEVEL_1
  6
CONTINUOUS
 62
        15
100
AcDbLine
 10
21.503
 20
2.93
 30
0.0
 11
21.064316
 21
1.573139
 31
0.0
  0
ARC
  5
7E
100
AcDbEntity
  8
CK_LEVEL_1
  6
CONTINUOUS
 62
        15
100
AcDbCircle
 10
20.53284
 20
1.77017
 30
0.0
 40
0.566823
100
AcDbArc
 50
267.035917
 51
339.659024
  0
ARC
  5
7F
100
AcDbEntity
  8
CK_LEVEL_1
  6
CONTINUOUS
 62
        15
100
AcDbCircle
 10
20.561012
 20
1.733329
 30
0.0
 40
0.566823
100
AcDbArc
 50
270.0359
 51
342.659034
  0
LINE
  5
80
100
AcDbEntity
  8
CK_LEVEL_1
  6
CONTINUOUS
 62
        15
100
AcDbLine
 10
21.540756
 20
2.921244
 30
0.0
 11
21.102071
 21
1.564383
 31
0.0
  0
ARC
  5
81
100
AcDbEntity
  8
CK_LEVEL_1
  6
CONTINUOUS
 62
        15
100
AcDbCircle
 10
24.294585
 20
0.775295
 30
0.0
 40
3.025248
100
AcDbArc
 50
142.546512
 51
167.1675
  0
ARC
  5
82
100
AcDbEntity
  8
CK_LEVEL_1
  6
CONTINUOUS
 62
        15
100
AcDbCircle
 10
24.258602
 20
0.795884
 30
0.0
 40
3.025248
100
AcDbArc
 50
142.546512
 51
167.1675
  0
LINE
  5
83
100
AcDbEntity
  8
CK_LEVEL_1
  6
CONTINUOUS
 62
        15
100
AcDbLine
 10
21.503
 20
2.93
 30
0.0
 11
21.540756
 21
2.921244
 31
0.0
  0
ARC
  5
84
100
AcDbEntity
  8
CK_LEVEL_1
  6
CONTINUOUS
 62
        15
100
AcDbCircle
 10
19.412954
 20
-0.670312
 30
0.0
 40
2.710683
100
AcDbArc
 50
29.799634
 51
43.331219
  0
ARC
  5
85
100
AcDbEntity
  8
CK_LEVEL_1
  6
CONTINUOUS
 62
        15
100
AcDbCircle
 10
19.47758
 20
-0.681457
 30
0.0
 40
2.710683
100
AcDbArc
 50
29.799634
 51
43.331219
  0
ARC
  5
86
100
AcDbEntity
  8
CK_LEVEL_1
  6
CONTINUOUS
 62
        15
100
AcDbCircle
 10
21.939273
 20
1.468205
 30
0.0
 40
0.306059
100
AcDbArc
 50
165.650857
 51
227.935762
  0
ARC
  5
87
100
AcDbEntity
  8
CK_LEVEL_1
  6
CONTINUOUS
 62
        15
100
AcDbCircle
 10
24.498356
 20
0.813565
 30
0.0
 40
2.947547
100
AcDbArc
 50
142.93739
 51
165.650857
  0
LINE
  5
88
100
AcDbEntity
  8
CK_LEVEL_1
  6
CONTINUOUS
 62
        15
100
AcDbLine
 10
19.794935
 20
2.762252
 30
0.0
 11
19.818618
 21
2.727766
 31
0.0
  0
ARC
  5
89
100
AcDbEntity
  8
CK_LEVEL_1
  6
CONTINUOUS
 62
        15
100
AcDbCircle
 10
19.868998
 20
3.195687
 30
0.0
 40
0.470625
100
AcDbArc
 50
263.854716
 51
348.393196
  0
ARC
  5
8A
100
AcDbEntity
  8
CK_LEVEL_1
  6
CONTINUOUS
 62
        15
100
AcDbCircle
 10
19.845316
 20
3.230172
 30
0.0
 40
0.470625
100
AcDbArc
 50
263.854716
 51
348.393196
  0
ARC
  5
8B
100
AcDbEntity
  8
CK_LEVEL_1
  6
CONTINUOUS
 62
        15
100
AcDbCircle
 10
21.960661
 20
2.937801
 30
0.0
 40
0.326703
100
AcDbArc
 50
34.623428
 51
129.756082
  0
LINE
  5
8C
100
AcDbEntity
  8
CK_LEVEL_1
  6
CONTINUOUS
 62
        15
100
AcDbLine
 10
21.765199
 20
0.676811
 30
0.0
 11
21.829825
 21
0.665667
 31
0.0
  0
LINE
  5
8D
100
AcDbEntity
  8
CK_LEVEL_1
  6
CONTINUOUS
 62
        15
100
AcDbLine
 10
22.020248
 20
0.982871
 30
0.0
 11
21.734225
 21
1.240988
 31
0.0
  0
LINE
  5
8E
100
AcDbEntity
  8
CK_LEVEL_1
  6
CONTINUOUS
 62
        15
100
AcDbLine
 10
21.893
 20
2.615
 30
0.0
 11
21.857017
 21
2.63559
 31
0.0
  0
ARC
  5
8F
100
AcDbEntity
  8
CK_LEVEL_1
  6
CONTINUOUS
 62
        15
100
AcDbCircle
 10
17.493812
 20
3.014382
 30
0.0
 40
2.749853
100
AcDbArc
 50
258.317509
 51
280.959995
  0
ARC
  5
90
100
AcDbEntity
  8
CK_LEVEL_1
  6
CONTINUOUS
 62
        15
100
AcDbCircle
 10
17.491236
 20
3.044302
 30
0.0
 40
2.749853
100
AcDbArc
 50
257.548648
 51
280.459998
  0
LINE
  5
91
100
AcDbEntity
  8
CK_LEVEL_1
  6
CONTINUOUS
 62
        15
100
AcDbLine
 10
17.823131
 20
0.513421
 30
0.0
 11
17.814108
 21
0.55003
 31
0.0
  0
ARC
  5
92
100
AcDbEntity
  8
CK_LEVEL_1
  6
CONTINUOUS
 62
        15
100
AcDbCircle
 10
17.622287
 20
1.005339
 30
0.0
 40
0.53134
100
AcDbArc
 50
257.799889
 51
292.20959
  0
ARC
  5
93
100
AcDbEntity
  8
CK_LEVEL_1
  6
CONTINUOUS
 62
        15
100
AcDbCircle
 10
17.62188
 20
1.045378
 30
0.0
 40
0.53134
100
AcDbArc
 50
256.799868
 51
291.209596
  0
LINE
  5
94
100
AcDbEntity
  8
CK_LEVEL_1
  6
CONTINUOUS
 62
        15
100
AcDbLine
 10
18.240955
 20
0.549967
 30
0.0
 11
18.214579
 21
0.575199
 31
0.0
  0
ARC
  5
95
100
AcDbEntity
  8
CK_LEVEL_1
  6
CONTINUOUS
 62
        15
100
AcDbCircle
 10
17.747518
 20
0.802266
 30
0.0
 40
0.556914
100
AcDbArc
 50
298.895225
 51
332.83449
  0
ARC
  5
96
100
AcDbEntity
  8
CK_LEVEL_1
  6
CONTINUOUS
 62
        15
100
AcDbCircle
 10
17.721363
 20
0.827727
 30
0.0
 40
0.556914
100
AcDbArc
 50
298.895225
 51
332.83449
  0
ARC
  5
97
100
AcDbEntity
  8
CK_LEVEL_1
  6
CONTINUOUS
 62
        15
100
AcDbCircle
 10
19.689348
 20
1.927546
 30
0.0
 40
1.037341
100
AcDbArc
 50
238.742186
 51
281.617142
  0
LINE
  5
98
100
AcDbEntity
  8
CK_LEVEL_1
  6
CONTINUOUS
 62
        15
100
AcDbLine
 10
20.134491
 20
1.041943
 30
0.0
 11
20.121
 21
1.075
 31
0.0
  0
ARC
  5
99
100
AcDbEntity
  8
CK_LEVEL_1
  6
CONTINUOUS
 62
        15
100
AcDbCircle
 10
14.972442
 20
10.117493
 30
0.0
 40
10.405495
100
AcDbArc
 50
298.169886
 51
299.656054
  0
ARC
  5
9A
100
AcDbEntity
  8
CK_LEVEL_1
  6
CONTINUOUS
 62
        15
100
AcDbCircle
 10
14.985934
 20
10.084436
 30
0.0
 40
10.405495
100
AcDbArc
 50
298.169886
 51
299.656054
  0
ARC
  5
9B
100
AcDbEntity
  8
CK_LEVEL_1
  6
CONTINUOUS
 62
        15
100
AcDbCircle
 10
13.70433
 20
-5.891947
 30
0.0
 40
7.760364
100
AcDbArc
 50
60.624943
 51
65.443471
  0
ARC
  5
9C
100
AcDbEntity
  8
CK_LEVEL_1
  6
CONTINUOUS
 62
        15
100
AcDbCircle
 10
13.726716
 20
-5.855131
 30
0.0
 40
7.760364
100
AcDbArc
 50
60.678998
 51
65.443471
  0
ARC
  5
9D
100
AcDbEntity
  8
CK_LEVEL_1
  6
CONTINUOUS
 62
        15
100
AcDbCircle
 10
19.08582
 20
2.409623
 30
0.0
 40
2.990084
100
AcDbArc
 50
269.123469
 51
297.125988
  0
ARC
  5
9E
100
AcDbEntity
  8
CK_LEVEL_1
  6
CONTINUOUS
 62
        15
100
AcDbCircle
 10
15.64307
 20
6.442623
 30
0.0
 40
7.512657
100
AcDbArc
 50
270.672446
 51
290.184876
  0
ARC
  5
9F
100
AcDbEntity
  8
CK_LEVEL_1
  6
CONTINUOUS
 62
        15
100
AcDbCircle
 10
17.777927
 20
1.42503
 30
0.0
 40
1.774312
100
AcDbArc
 50
242.552093
 51
279.877192
  0
ARC
  5
A0
100
AcDbEntity
  8
CK_LEVEL_1
  6
CONTINUOUS
 62
        15
100
AcDbCircle
 10
17.767211
 20
1.387065
 30
0.0
 40
1.774312
100
AcDbArc
 50
241.552099
 51
278.462277
  0
LINE
  5
A1
100
AcDbEntity
  8
CK_LEVEL_1
  6
CONTINUOUS
 62
        15
100
AcDbLine
 10
17.510979
 20
0.870648
 30
0.0
 11
17.526982
 21
0.911052
 31
0.0
  0
ARC
  5
A2
100
AcDbEntity
  8
CK_LEVEL_1
  6
CONTINUOUS
 62
        15
100
AcDbCircle
 10
18.716904
 20
-2.828842
 30
0.0
 40
2.271835
100
AcDbArc
 50
81.821753
 51
102.238506
  0
LINE
  5
A3
100
AcDbEntity
  8
CK_LEVEL_1
  6
CONTINUOUS
 62
        15
100
AcDbLine
 10
18.028316
 20
-0.36793
 30
0.0
 11
18.082287
 21
-0.322983
 31
0.0
  0
ARC
  5
A4
100
AcDbEntity
  8
CK_LEVEL_1
  6
CONTINUOUS
 62
        15
100
AcDbCircle
 10
20.469403
 20
3.881831
 30
0.0
 40
4.133451
100
AcDbArc
 50
269.719198
 51
292.188936
  0
ARC
  5
A5
100
AcDbEntity
  8
CK_LEVEL_1
  6
CONTINUOUS
 62
        15
100
AcDbCircle
 10
17.73183
 20
3.235132
 30
0.0
 40
2.758067
100
AcDbArc
 50
241.115021
 51
265.386754
  0
ARC
  5
A6
100
AcDbEntity
  8
CK_LEVEL_1
  6
CONTINUOUS
 62
        15
100
AcDbCircle
 10
17.722377
 20
3.277209
 30
0.0
 40
2.758067
100
AcDbArc
 50
241.115021
 51
265.386754
  0
LINE
  5
A7
100
AcDbEntity
  8
CK_LEVEL_1
  6
CONTINUOUS
 62
        15
100
AcDbLine
 10
16.399537
 20
0.820193
 30
0.0
 11
16.390084
 21
0.86227
 31
0.0
  0
ARC
  5
A8
100
AcDbEntity
  8
CK_LEVEL_1
  6
CONTINUOUS
 62
        15
100
AcDbCircle
 10
18.965205
 20
2.577102
 30
0.0
 40
3.42604
100
AcDbArc
 50
196.193277
 51
233.389285
  0
ARC
  5
A9
100
AcDbEntity
  8
CK_LEVEL_1
  6
CONTINUOUS
 62
        15
100
AcDbCircle
 10
19.015748
 20
2.591244
 30
0.0
 40
3.42604
100
AcDbArc
 50
196.193277
 51
233.129028
  0
LINE
  5
AA
100
AcDbEntity
  8
CK_LEVEL_1
  6
CONTINUOUS
 62
        15
100
AcDbLine
 10
16.735627
 20
1.054283
 30
0.0
 11
16.022134
 21
1.572414
 31
0.0
  0
LINE
  5
AB
100
AcDbEntity
  8
CK_LEVEL_1
  6
CONTINUOUS
 62
        15
100
AcDbLine
 10
16.730042
 20
1.016721
 30
0.0
 11
16.016549
 21
1.534852
 31
0.0
  0
ARC
  5
AC
100
AcDbEntity
  8
CK_LEVEL_1
  6
CONTINUOUS
 62
        15
100
AcDbCircle
 10
18.357273
 20
3.394322
 30
0.0
 40
2.603016
100
AcDbArc
 50
208.248943
 51
237.321808
  0
ARC
  5
AD
100
AcDbEntity
  8
CK_LEVEL_1
  6
CONTINUOUS
 62
        15
100
AcDbCircle
 10
18.334887
 20
3.357507
 30
0.0
 40
2.603016
100
AcDbArc
 50
208.248943
 51
237.321808
  0
LINE
  5
AE
100
AcDbEntity
  8
CK_LEVEL_1
  6
CONTINUOUS
 62
        15
100
AcDbLine
 10
16.022134
 20
1.572414
 30
0.0
 11
16.016549
 21
1.534852
 31
0.0
  0
ARC
  5
AF
100
AcDbEntity
  8
CK_LEVEL_1
  6
CONTINUOUS
 62
        15
100
AcDbCircle
 10
18.077189
 20
2.372131
 30
0.0
 40
2.464145
100
AcDbArc
 50
171.785897
 51
197.38673
  0
ARC
  5
B0
100
AcDbEntity
  8
CK_LEVEL_1
  6
CONTINUOUS
 62
        15
100
AcDbCircle
 10
18.026646
 20
2.357989
 30
0.0
 40
2.464145
100
AcDbArc
 50
171.785897
 51
197.38673
  0
ARC
  5
B1
100
AcDbEntity
  8
CK_LEVEL_1
  6
CONTINUOUS
 62
        15
100
AcDbCircle
 10
14.982701
 20
1.505775
 30
0.0
 40
1.265243
100
AcDbArc
 50
31.258272
 51
42.160729
  0
ARC
  5
B2
100
AcDbEntity
  8
CK_LEVEL_1
  6
CONTINUOUS
 62
        15
100
AcDbCircle
 10
14.960315
 20
1.46896
 30
0.0
 40
1.265243
100
AcDbArc
 50
31.258272
 51
41.793873
  0
LINE
  5
B3
100
AcDbEntity
  8
CK_LEVEL_1
  6
CONTINUOUS
 62
        15
100
AcDbLine
 10
15.903614
 20
2.312185
 30
0.0
 11
15.920581
 21
2.355022
 31
0.0
  0
LINE
  5
B4
100
AcDbEntity
  8
CK_LEVEL_1
  6
CONTINUOUS
 62
        15
100
AcDbLine
 10
15.638323
 20
2.72419
 30
0.0
 11
15.587677
 21
2.70933
 31
0.0
  0
ARC
  5
B5
100
AcDbEntity
  8
CK_LEVEL_1
  6
CONTINUOUS
 62
        15
100
AcDbCircle
 10
15.119739
 20
3.596904
 30
0.0
 40
0.4
100
AcDbArc
 50
242.102776
 51
278.395697
  0
ARC
  5
B6
100
AcDbEntity
  8
CK_LEVEL_1
  6
CONTINUOUS
 62
        15
100
AcDbCircle
 10
15.119155
 20
3.637515
 30
0.0
 40
0.4
100
AcDbArc
 50
242.102776
 51
278.395697
  0
ARC
  5
B7
100
AcDbEntity
  8
CK_LEVEL_1
  6
CONTINUOUS
 62
        15
100
AcDbCircle
 10
14.055649
 20
1.073126
 30
0.0
 40
2.378225
100
AcDbArc
 50
68.377495
 51
113.001423
  0
ARC
  5
B8
100
AcDbEntity
  8
CK_LEVEL_1
  6
CONTINUOUS
 62
        15
100
AcDbCircle
 10
14.056233
 20
1.032515
 30
0.0
 40
2.378225
100
AcDbArc
 50
68.377495
 51
113.001423
  0
LINE
  5
B9
100
AcDbEntity
  8
CK_LEVEL_1
  6
CONTINUOUS
 62
        15
100
AcDbLine
 10
16.425714
 20
3.200413
 30
0.0
 11
16.42513
 21
3.241024
 31
0.0
  0
LINE
  5
BA
100
AcDbEntity
  8
CK_LEVEL_1
  6
CONTINUOUS
 62
        15
100
AcDbLine
 10
16.15914
 20
3.337952
 30
0.0
 11
16.42513
 21
3.241024
 31
0.0
  0
ARC
  5
BB
100
AcDbEntity
  8
CK_LEVEL_1
  6
CONTINUOUS
 62
        15
100
AcDbCircle
 10
16.022187
 20
2.962128
 30
0.0
 40
0.4
100
AcDbArc
 50
69.977931
 51
98.395705
  0
LINE
  5
BC
100
AcDbEntity
  8
CK_LEVEL_1
  6
CONTINUOUS
 62
        15
100
AcDbLine
 10
16.159724
 20
3.297341
 30
0.0
 11
16.425714
 21
3.200413
 31
0.0
  0
ARC
  5
BD
100
AcDbEntity
  8
CK_LEVEL_1
  6
CONTINUOUS
 62
        15
100
AcDbCircle
 10
16.022771
 20
2.921517
 30
0.0
 40
0.4
100
AcDbArc
 50
69.977931
 51
98.395705
  0
LINE
  5
BE
100
AcDbEntity
  8
CK_LEVEL_1
  6
CONTINUOUS
 62
        15
100
AcDbLine
 10
15.178143
 20
3.201191
 30
0.0
 11
15.964368
 21
3.31723
 31
0.0
  0
LINE
  5
BF
100
AcDbEntity
  8
CK_LEVEL_1
  6
CONTINUOUS
 62
        15
100
AcDbLine
 10
15.177559
 20
3.241802
 30
0.0
 11
15.963784
 21
3.357841
 31
0.0
  0
ARC
  5
C0
100
AcDbEntity
  8
CK_LEVEL_1
  6
CONTINUOUS
 62
        15
100
AcDbCircle
 10
15.54995
 20
-1.459653
 30
0.0
 40
6.699178
100
AcDbArc
 50
71.144425
 51
97.071953
  0
ARC
  5
C1
100
AcDbEntity
  8
CK_LEVEL_1
  6
CONTINUOUS
 62
        15
100
AcDbCircle
 10
21.258161
 20
0.078327
 30
0.0
 40
1.182783
100
AcDbArc
 50
11.272923
 51
49.88553
  0
LINE
  5
C2
100
AcDbEntity
  8
CK_LEVEL_1
  6
CONTINUOUS
 62
        15
100
AcDbLine
 10
15.488
 20
-1.252
 30
0.0
 11
15.461737
 21
-1.234043
 31
0.0
  0
ARC
  5
C3
100
AcDbEntity
  8
CK_LEVEL_1
  6
CONTINUOUS
 62
        15
100
AcDbCircle
 10
12.625713
 20
-0.584643
 30
0.0
 40
2.939056
100
AcDbArc
 50
321.33603
 51
346.875665
  0
ARC
  5
C4
100
AcDbEntity
  8
CK_LEVEL_1
  6
CONTINUOUS
 62
        15
100
AcDbCircle
 10
12.59945
 20
-0.566686
 30
0.0
 40
2.939056
100
AcDbArc
 50
321.33603
 51
346.875665
  0
ARC
  5
C5
100
AcDbEntity
  8
CK_LEVEL_1
  6
CONTINUOUS
 62
        15
100
AcDbCircle
 10
13.306675
 20
-1.470911
 30
0.0
 40
2.457567
100
AcDbArc
 50
312.732041
 51
369.400235
  0
LINE
  5
C6
100
AcDbEntity
  8
CK_LEVEL_1
  6
CONTINUOUS
 62
        15
100
AcDbLine
 10
17.238001
 20
0.787
 30
0.0
 11
17.243585
 21
0.824562
 31
0.0
  0
LINE
  5
C7
100
AcDbEntity
  8
CK_LEVEL_1
  6
CONTINUOUS
 62
        15
100
AcDbLine
 10
16.937
 20
0.321492
 30
0.0
 11
16.898339
 21
0.359127
 31
0.0
  0
ARC
  5
C8
100
AcDbEntity
  8
CK_LEVEL_1
  6
CONTINUOUS
 62
        15
100
AcDbCircle
 10
0.895629
 20
-1.565463
 30
0.0
 40
12.63556
100
AcDbArc
 50
352.550651
 51
357.815415
  0
ARC
  5
C9
100
AcDbEntity
  8
CK_LEVEL_1
  6
CONTINUOUS
 62
        15
100
AcDbCircle
 10
13.545934
 20
-3.219532
 30
0.0
 40
0.122424
100
AcDbArc
 50
172.550646
 51
289.635429
  0
LINE
  5
CA
100
AcDbEntity
  8
CK_LEVEL_1
  6
CONTINUOUS
 62
        15
100
AcDbLine
 10
14.920597
 20
-2.420824
 30
0.0
 11
14.894334
 21
-2.402867
 31
0.0
  0
ARC
  5
CB
100
AcDbEntity
  8
CK_LEVEL_1
  6
CONTINUOUS
 62
        15
100
AcDbCircle
 10
14.602838
 20
-2.757972
 30
0.0
 40
0.03
100
AcDbArc
 50
16.788952
 51
132.435196
  0
ARC
  5
CC
100
AcDbEntity
  8
CK_LEVEL_1
  6
CONTINUOUS
 62
        15
100
AcDbCircle
 10
12.59945
 20
-0.566686
 30
0.0
 40
2.939056
100
AcDbArc
 50
289.635429
 51
312.435201
  0
LINE
  5
CD
100
AcDbEntity
  8
CK_LEVEL_1
  6
CONTINUOUS
 62
        15
100
AcDbLine
 10
14.631559
 20
-2.749306
 30
0.0
 11
14.774029
 21
-3.221518
 31
0.0
  0
LINE
  5
CE
100
AcDbEntity
  8
CK_LEVEL_1
  6
CONTINUOUS
 62
        15
100
AcDbLine
 10
13.522006
 20
-2.047116
 30
0.0
 11
13.522006
 21
-1.659441
 31
0.0
  0
ARC
  5
CF
100
AcDbEntity
  8
CK_LEVEL_1
  6
CONTINUOUS
 62
        15
100
AcDbCircle
 10
14.891235
 20
-3.186156
 30
0.0
 40
0.122424
100
AcDbArc
 50
196.788951
 51
312.732041
  0
ARC
  5
D0
100
AcDbEntity
  8
CK_LEVEL_1
  6
CONTINUOUS
 62
        15
100
AcDbCircle
 10
21.876391
 20
2.905323
 30
0.0
 40
0.415042
100
AcDbArc
 50
310.561953
 51
391.701852
  0
ARC
  5
D1
100
AcDbEntity
  8
CK_LEVEL_1
  6
CONTINUOUS
 62
        15
100
AcDbCircle
 10
22.169971
 20
0.264576
 30
0.0
 40
0.252195
100
AcDbArc
 50
236.411617
 51
370.270204
  0
LINE
  5
D2
100
AcDbEntity
  8
CK_LEVEL_1
  6
CONTINUOUS
 62
        15
100
AcDbLine
 10
14.203
 20
5.136
 30
0.0
 11
14.195
 21
5.167
 31
0.0
  0
ARC
  5
D3
100
AcDbEntity
  8
CK_LEVEL_1
  6
CONTINUOUS
 62
        15
100
AcDbCircle
 10
17.402579
 20
1.852588
 30
0.0
 40
1.040248
100
AcDbArc
 50
230.122542
 51
261.20829
  0
ARC
  5
D4
100
AcDbEntity
  8
CK_LEVEL_1
  6
CONTINUOUS
 62
        15
100
AcDbCircle
 10
17.396995
 20
1.815026
 30
0.0
 40
1.040248
100
AcDbArc
 50
230.122542
 51
261.20829
  0
ARC
  5
D5
100
AcDbEntity
  8
CK_LEVEL_1
  6
CONTINUOUS
 62
        15
100
AcDbCircle
 10
19.872496
 20
3.193168
 30
0.0
 40
0.228469
100
AcDbArc
 50
93.780758
 51
214.406414
  0
LINE
  5
D6
100
AcDbEntity
  8
CK_LEVEL_1
  6
CONTINUOUS
 62
        15
100
AcDbLine
 10
19.561573
 20
3.543563
 30
0.0
 11
19.529332
 21
3.553571
 31
0.0
  0
LINE
  5
D7
100
AcDbEntity
  8
CK_LEVEL_1
  6
CONTINUOUS
 62
        15
100
AcDbLine
 10
19.570141
 20
3.624987
 30
0.0
 11
19.529332
 21
3.553571
 31
0.0
  0
ARC
  5
D8
100
AcDbEntity
  8
CK_LEVEL_1
  6
CONTINUOUS
 62
        15
100
AcDbCircle
 10
19.862819
 20
3.290769
 30
0.0
 40
0.444255
100
AcDbArc
 50
21.556996
 51
131.208986
  0
ARC
  5
D9
100
AcDbEntity
  8
CK_LEVEL_1
  6
CONTINUOUS
 62
        15
100
AcDbCircle
 10
19.852329
 20
3.247708
 30
0.0
 40
0.444255
100
AcDbArc
 50
21.556996
 51
124.237384
  0
LINE
  5
DA
100
AcDbEntity
  8
CK_LEVEL_1
  6
CONTINUOUS
 62
        15
100
AcDbLine
 10
19.602381
 20
3.614979
 30
0.0
 11
19.561573
 21
3.543563
 31
0.0
  0
ARC
  5
DB
100
AcDbEntity
  8
CK_LEVEL_1
  6
CONTINUOUS
 62
        15
100
AcDbCircle
 10
10.724718
 20
-0.443575
 30
0.0
 40
3.562548
100
AcDbArc
 50
77.541724
 51
117.827074
  0
ARC
  5
DC
100
AcDbEntity
  8
CK_LEVEL_1
  6
CONTINUOUS
 62
        15
100
AcDbCircle
 10
10.725302
 20
-0.484185
 30
0.0
 40
3.562548
100
AcDbArc
 50
77.541724
 51
117.827074
  0
ARC
  5
DD
100
AcDbEntity
  8
CK_LEVEL_1
  6
CONTINUOUS
 62
        15
100
AcDbCircle
 10
3.921401
 20
15.24351
 30
0.0
 40
12.682979
100
AcDbArc
 50
286.301504
 51
297.5726
  0
ARC
  5
DE
100
AcDbEntity
  8
CK_LEVEL_1
  6
CONTINUOUS
 62
        15
100
AcDbCircle
 10
3.901401
 20
15.27851
 30
0.0
 40
12.682979
100
AcDbArc
 50
286.294865
 51
297.5726
  0
LINE
  5
DF
100
AcDbEntity
  8
CK_LEVEL_1
  6
CONTINUOUS
 62
        15
100
AcDbLine
 10
9.793259
 20
4.001658
 30
0.0
 11
9.772
 21
4.036
 31
0.0
  0
ARC
  5
E0
100
AcDbEntity
  8
CK_LEVEL_1
  6
CONTINUOUS
 62
        15
100
AcDbCircle
 10
5.560543
 20
-0.227683
 30
0.0
 40
6.189622
100
AcDbArc
 50
49.988051
 51
62.548946
  0
ARC
  5
E1
100
AcDbEntity
  8
CK_LEVEL_1
  6
CONTINUOUS
 62
        15
100
AcDbCircle
 10
5.582095
 20
-0.195071
 30
0.0
 40
6.189622
100
AcDbArc
 50
50.074333
 51
62.630881
  0
LINE
  5
E2
100
AcDbEntity
  8
CK_LEVEL_1
  6
CONTINUOUS
 62
        15
100
AcDbLine
 10
9.554553
 20
4.551611
 30
0.0
 11
9.540144
 21
4.513012
 31
0.0
  0
ARC
  5
E3
100
AcDbEntity
  8
CK_LEVEL_1
  6
CONTINUOUS
 62
        15
100
AcDbCircle
 10
5.134624
 20
-0.482471
 30
0.0
 40
6.189622
100
AcDbArc
 50
50.520478
 51
69.597408
  0
ARC
  5
E4
100
AcDbEntity
  8
CK_LEVEL_1
  6
CONTINUOUS
 62
        15
100
AcDbCircle
 10
5.171977
 20
-0.463384
 30
0.0
 40
6.189622
100
AcDbArc
 50
50.520478
 51
69.611096
  0
LINE
  5
E5
100
AcDbEntity
  8
CK_LEVEL_1
  6
CONTINUOUS
 62
        15
100
AcDbLine
 10
9.107353
 20
4.314087
 30
0.0
 11
9.070928
 21
4.294235
 31
0.0
  0
ARC
  5
E6
100
AcDbEntity
  8
CK_LEVEL_1
  6
CONTINUOUS
 62
        15
100
AcDbCircle
 10
6.983694
 20
7.578922
 30
0.0
 40
5.296577
100
AcDbArc
 50
274.671987
 51
293.099618
  0
ARC
  5
E7
100
AcDbEntity
  8
CK_LEVEL_1
  6
CONTINUOUS
 62
        15
100
AcDbCircle
 10
6.984278
 20
7.538311
 30
0.0
 40
5.296577
100
AcDbArc
 50
274.671987
 51
293.099618
  0
LINE
  5
E8
100
AcDbEntity
  8
CK_LEVEL_1
  6
CONTINUOUS
 62
        15
100
AcDbLine
 10
8.72849
 20
4.112859
 30
0.0
 11
8.698
 21
4.089
 31
0.0
  0
LINE
  5
E9
100
AcDbEntity
  8
CK_LEVEL_1
  6
CONTINUOUS
 62
        15
100
AcDbLine
 10
8.239371
 20
3.837942
 30
0.0
 11
8.267728
 21
3.868132
 31
0.0
  0
ARC
  5
EA
100
AcDbEntity
  8
CK_LEVEL_1
  6
CONTINUOUS
 62
        15
100
AcDbCircle
 10
4.997155
 20
0.333047
 30
0.0
 40
4.400272
100
AcDbArc
 50
49.127464
 51
65.680622
  0
LINE
  5
EB
100
AcDbEntity
  8
CK_LEVEL_1
  6
CONTINUOUS
 62
        15
100
AcDbLine
 10
7.835312
 20
3.641532
 30
0.0
 11
7.876598
 21
3.660388
 31
0.0
  0
ARC
  5
EC
100
AcDbEntity
  8
CK_LEVEL_1
  6
CONTINUOUS
 62
        15
100
AcDbCircle
 10
4.955869
 20
0.31419
 30
0.0
 40
4.400272
100
AcDbArc
 50
49.127464
 51
65.680622
  0
LINE
  5
ED
100
AcDbEntity
  8
CK_LEVEL_1
  6
CONTINUOUS
 62
        15
100
AcDbLine
 10
7.46
 20
3.105
 30
0.0
 11
7.481411
 21
3.070413
 31
0.0
  0
ARC
  5
EE
100
AcDbEntity
  8
CK_LEVEL_1
  6
CONTINUOUS
 62
        15
100
AcDbCircle
 10
5.50073
 20
0.860815
 30
0.0
 40
3.000694
100
AcDbArc
 50
54.761489
 51
67.055888
  0
ARC
  5
EF
100
AcDbEntity
  8
CK_LEVEL_1
  6
CONTINUOUS
 62
        15
100
AcDbCircle
 10
5.535386
 20
0.886771
 30
0.0
 40
3.000694
100
AcDbArc
 50
54.739871
 51
67.031927
  0
LINE
  5
F0
100
AcDbEntity
  8
CK_LEVEL_1
  6
CONTINUOUS
 62
        15
100
AcDbLine
 10
7.232075
 20
3.311654
 30
0.0
 11
7.267655
 21
3.336956
 31
0.0
  0
ARC
  5
F1
100
AcDbEntity
  8
CK_LEVEL_1
  6
CONTINUOUS
 62
        15
100
AcDbCircle
 10
5.42628
 20
0.818928
 30
0.0
 40
3.368112
100
AcDbArc
 50
51.577074
 51
67.965655
  0
ARC
  5
F2
100
AcDbEntity
  8
CK_LEVEL_1
  6
CONTINUOUS
 62
        15
100
AcDbCircle
 10
5.456143
 20
0.847244
 30
0.0
 40
3.368112
100
AcDbArc
 50
51.586438
 51
67.975798
  0
LINE
  5
F3
100
AcDbEntity
  8
CK_LEVEL_1
  6
CONTINUOUS
 62
        15
100
AcDbLine
 10
7.519431
 20
3.457658
 30
0.0
 11
7.548863
 21
3.486316
 31
0.0
  0
LINE
  5
F4
100
AcDbEntity
  8
CK_LEVEL_1
  6
CONTINUOUS
 62
        15
100
AcDbLine
 10
6.914858
 20
5.12711
 30
0.0
 11
6.884231
 21
5.103291
 31
0.0
  0
ARC
  5
F5
100
AcDbEntity
  8
CK_LEVEL_1
  6
CONTINUOUS
 62
        15
100
AcDbCircle
 10
11.745375
 20
7.206031
 30
0.0
 40
4.178556
100
AcDbArc
 50
266.540947
 51
289.298536
  0
ARC
  5
F6
100
AcDbEntity
  8
CK_LEVEL_1
  6
CONTINUOUS
 62
        15
100
AcDbCircle
 10
11.74596
 20
7.16542
 30
0.0
 40
4.178556
100
AcDbArc
 50
266.540947
 51
289.298536
  0
LINE
  5
F7
100
AcDbEntity
  8
CK_LEVEL_1
  6
CONTINUOUS
 62
        15
100
AcDbLine
 10
10.981715
 20
-1.598229
 30
0.0
 11
10.407896
 21
-1.387438
 31
0.0
  0
ARC
  5
F8
100
AcDbEntity
  8
CK_LEVEL_1
  6
CONTINUOUS
 62
        15
100
AcDbCircle
 10
12.589255
 20
12.373019
 30
0.0
 40
14.063427
100
AcDbArc
 50
263.43638
 51
273.802913
  0
ARC
  5
F9
100
AcDbEntity
  8
CK_LEVEL_1
  6
CONTINUOUS
 62
        15
100
AcDbCircle
 10
10.879167
 20
3.111597
 30
0.0
 40
4.399676
100
AcDbArc
 50
227.455681
 51
252.259541
  0
ARC
  5
FA
100
AcDbEntity
  8
CK_LEVEL_1
  6
CONTINUOUS
 62
        15
100
AcDbCircle
 10
10.895168
 20
3.152597
 30
0.0
 40
4.399676
100
AcDbArc
 50
227.462074
 51
252.265551
  0
LINE
  5
FB
100
AcDbEntity
  8
CK_LEVEL_1
  6
CONTINUOUS
 62
        15
100
AcDbLine
 10
9.53856
 20
-1.07886
 30
0.0
 11
9.555
 21
-1.038
 31
0.0
  0
ARC
  5
FC
100
AcDbEntity
  8
CK_LEVEL_1
  6
CONTINUOUS
 62
        15
100
AcDbCircle
 10
3.270727
 20
-0.357654
 30
0.0
 40
3.742829
100
AcDbArc
 50
350.492086
 51
360.843125
  0
ARC
  5
FD
100
AcDbEntity
  8
CK_LEVEL_1
  6
CONTINUOUS
 62
        15
100
AcDbCircle
 10
7.499763
 20
-0.224185
 30
0.0
 40
0.492886
100
AcDbArc
 50
116.819676
 51
189.151721
  0
LINE
  5
FE
100
AcDbEntity
  8
CK_LEVEL_1
  6
CONTINUOUS
 62
        15
100
AcDbLine
 10
7.904281
 20
-0.129885
 30
0.0
 11
7.920643
 21
-0.089217
 31
0.0
  0
ARC
  5
FF
100
AcDbEntity
  8
CK_LEVEL_1
  6
CONTINUOUS
 62
        15
100
AcDbCircle
 10
8.05004
 20
1.410968
 30
0.0
 40
3.448169
100
AcDbArc
 50
270.739765
 51
304.25941
  0
ARC
  5
100
100
AcDbEntity
  8
CK_LEVEL_1
  6
CONTINUOUS
 62
        15
100
AcDbCircle
 10
8.075837
 20
-0.922074
 30
0.0
 40
1.114997
100
AcDbArc
 50
182.767488
 51
270.962101
  0
ARC
  5
101
100
AcDbEntity
  8
CK_LEVEL_1
  6
CONTINUOUS
 62
        15
100
AcDbCircle
 10
10.249594
 20
-1.81837
 30
0.0
 40
0.459089
100
AcDbArc
 50
69.829306
 51
124.259405
  0
ARC
  5
102
100
AcDbEntity
  8
CK_LEVEL_1
  6
CONTINUOUS
 62
        15
100
AcDbCircle
 10
5.5459
 20
0.581219
 30
0.0
 40
4.715959
100
AcDbArc
 50
48.057064
 51
73.513599
  0
ARC
  5
103
100
AcDbEntity
  8
CK_LEVEL_1
  6
CONTINUOUS
 62
        15
100
AcDbCircle
 10
5.57639
 20
0.605078
 30
0.0
 40
4.715959
100
AcDbArc
 50
48.057064
 51
73.511864
  0
ARC
  5
104
100
AcDbEntity
  8
CK_LEVEL_1
  6
CONTINUOUS
 62
        15
100
AcDbCircle
 10
5.194299
 20
0.487581
 30
0.0
 40
4.568817
100
AcDbArc
 50
47.724451
 51
68.541543
  0
ARC
  5
105
100
AcDbEntity
  8
CK_LEVEL_1
  6
CONTINUOUS
 62
        15
100
AcDbCircle
 10
5.167606
 20
0.45588
 30
0.0
 40
4.568817
100
AcDbArc
 50
47.752643
 51
68.571896
  0
LINE
  5
106
100
AcDbEntity
  8
CK_LEVEL_1
  6
CONTINUOUS
 62
        15
100
AcDbLine
 10
6.865693
 20
4.739701
 30
0.0
 11
6.836748
 21
4.708885
 31
0.0
  0
LINE
  5
107
100
AcDbEntity
  8
CK_LEVEL_1
  6
CONTINUOUS
 62
        15
100
AcDbLine
 10
10.659
 20
4.533
 30
0.0
 11
10.651
 21
4.564
 31
0.0
  0
ARC
  5
108
100
AcDbEntity
  8
CK_LEVEL_1
  6
CONTINUOUS
 62
        15
100
AcDbCircle
 10
10.537933
 20
6.752082
 30
0.0
 40
1.869285
100
AcDbArc
 50
237.480732
 51
259.977846
  0
LINE
  5
109
100
AcDbEntity
  8
CK_LEVEL_1
  6
CONTINUOUS
 62
        15
100
AcDbLine
 10
10.291173
 20
5.207892
 30
0.0
 11
10.43027
 21
5.165495
 31
0.0
  0
ARC
  5
10A
100
AcDbEntity
  8
CK_LEVEL_1
  6
CONTINUOUS
 62
        15
100
AcDbCircle
 10
9.960319
 20
5.088203
 30
0.0
 40
0.320223
100
AcDbArc
 50
328.428089
 51
377.19141
  0
ARC
  5
10B
100
AcDbEntity
  8
CK_LEVEL_1
  6
CONTINUOUS
 62
        15
100
AcDbCircle
 10
10.216104
 20
4.931016
 30
0.0
 40
0.02
100
AcDbArc
 50
259.977846
 51
328.428089
  0
ARC
  5
10C
100
AcDbEntity
  8
CK_LEVEL_1
  6
CONTINUOUS
 62
        15
100
AcDbCircle
 10
10.436101
 20
5.184626
 30
0.0
 40
0.02
100
AcDbArc
 50
253.048755
 51
329.412483
  0
ARC
  5
10D
100
AcDbEntity
  8
CK_LEVEL_1
  6
CONTINUOUS
 62
        15
100
AcDbCircle
 10
15.186672
 20
-11.361363
 30
0.0
 40
16.526664
100
AcDbArc
 50
93.412276
 51
105.900143
  0
ARC
  5
10E
100
AcDbEntity
  8
CK_LEVEL_1
  6
CONTINUOUS
 62
        15
100
AcDbCircle
 10
15.178672
 20
-11.330364
 30
0.0
 40
16.526664
100
AcDbArc
 50
93.412276
 51
105.900143
  0
ARC
  5
10F
100
AcDbEntity
  8
CK_LEVEL_1
  6
CONTINUOUS
 62
        15
100
AcDbCircle
 10
7.007209
 20
-0.18402
 30
0.0
 40
2.517232
100
AcDbArc
 50
80.674574
 51
115.781638
  0
ARC
  5
110
100
AcDbEntity
  8
CK_LEVEL_1
  6
CONTINUOUS
 62
        15
100
AcDbCircle
 10
7.007794
 20
-0.224631
 30
0.0
 40
2.517232
100
AcDbArc
 50
80.674574
 51
115.781638
  0
ARC
  5
111
100
AcDbEntity
  8
CK_LEVEL_1
  6
CONTINUOUS
 62
        15
100
AcDbCircle
 10
6.023817
 20
-4.506772
 30
0.0
 40
4.885239
100
AcDbArc
 50
75.143801
 51
98.89295
  0
ENDSEC
  0
SECTION
  2
OBJECTS
  0
DICTIONARY
  5
19
100
AcDbDictionary
  3
ACAD_GROUP
350
1A
  3
ACAD_MLINESTYLE
350
1B
  0
DICTIONARY
  5
1A
102
{ACAD_REACTORS
330
19
102
}
100
AcDbDictionary
  0
DICTIONARY
  5
1B
102
{ACAD_REACTORS
330
19
102
}
100
AcDbDictionary
  3
STANDARD
350
1C
  0
MLINESTYLE
  5
1C
102
{ACAD_REACTORS
330
1B
102
}
100
AcDbMlineStyle
  2
STANDARD
 70
         0
  3

 62
         0
 51
90.0
 52
90.0
 71
         2
 49
0.5
 62
       256
  6
BYLAYER
 49
-0.5
 62
       256
  6
BYLAYER
  0
ENDSEC
  0
EOF
