  0
SECTION
  2
HEADER
  9
$ACADVER
  1
AC1009
  9
$LIMMIN
 10
0.000000
 20
0.000000
  9
$LIMMAX
 10
14.383812
 20
15.482061
  0
ENDSEC
  0
SECTION
  2
TABLES
  0
TABLE
  2
LTYPE
 70
     4
  0
LTYPE
  2
CONTINUOUS
 70
     0
  3
Solid line
 72
     65
 73
     0
 40
0.000000
  0
LTYPE
  2
HIDDEN
 70
     0
  3
 _ _ _ _ _ _ _ _ _ _ _
 72
     65
 73
     2
 40
0.375000
 49
0.250000
 49
-0.125000
  0
LTYPE
  2
DASHED
 70
     0
  3
 ___ ___ ___ ___ ___ ___ ___ 
 72
     65
 73
     2
 40
0.750000
 49
0.500000
 49
-0.250000
  0
LTYPE
  2
CENTER
 70
     0
  3
___ _ ___ _ ___ _ ___
 72
     65
 73
     4
 40
2.000000
 49
1.250000
 49
-0.250000
 49
0.250000
 49
-0.250000
  0
LTYPE
  2
BORDER
 70
     0
  3
___ ___ . ___ ___ . ___ ___
 72
     65
 73
     6
 40
1.750000
 49
0.500000
 49
-0.250000
 49
0.500000
 49
-0.250000
 49
0.000000
 49
-0.250000
  0
LTYPE
  2
DOT
 70
     0
  3
.................
 72
     65
 73
     2
 40
0.250000
 49
0.000000
 49
-0.250000
  0
LTYPE
  2
DASHDOT
 70
     0
  3
__ . __ . __ . __
 72
     65
 73
     4
 40
1.000000
 49
0.500000
 49
-0.250000
 49
0.000000
 49
-0.250000
  0
LTYPE
  2
DIVIDE
 70
     0
  3
___ .. ___ .. ___ .. ___
 72
     65
 73
     6
 40
1.250000
 49
0.500000
 49
-0.250000
 49
0.000000
 49
-0.250000
 49
0.000000
 49
-0.250000
  0
ENDTAB
  0
TABLE
  2
LAYER
 70
     8
  0
LAYER
  2
BLACK
 70
     0
 62
     1
  6
CONTINUOUS
  0
LAYER
  2
WHITE
 70
     0
 62
     7
  6
CONTINUOUS
  0
LAYER
  2
RED
 70
     0
 62
     1
  6
CONTINUOUS
  0
LAYER
  2
YELLOW
 70
     0
 62
     2
  6
CONTINUOUS
  0
LAYER
  2
GREEN
 70
     0
 62
     3
  6
CONTINUOUS
  0
LAYER
  2
CYAN
 70
     0
 62
     4
  6
CONTINUOUS
  0
LAYER
  2
BLUE
 70
     0
 62
     5
  6
CONTINUOUS
  0
LAYER
  2
MAGENTA
 70
     0
 62
     6
  6
CONTINUOUS
  0
ENDTAB
  0
TABLE
  2
APPID
 70
     1
  0
APPID
  2
TC_BEND_DATA
 70
     0
  0
ENDTAB
  0
ENDSEC
  0
SECTION
  2
BLOCKS
  0
ENDSEC
  0
SECTION
  2
ENTITIES
  0
ARC
  8
WHITE
 10
3.098981
 20
10.050540
 30
0.000000
 40
3.091027
 50
-160.696927
 51
-138.047682
  6
CONTINUOUS
  0
ARC
  8
WHITE
 10
3.436953
 20
10.237304
 30
0.000000
 40
3.472337
 50
-169.081665
 51
-159.631870
  6
CONTINUOUS
  0
ARC
  8
WHITE
 10
1.554734
 20
9.870589
 30
0.000000
 40
1.554734
 50
170.339336
 51
190.786892
  6
CONTINUOUS
  0
ARC
  8
WHITE
 10
2.605282
 20
9.583945
 30
0.000000
 40
2.640626
 50
144.706392
 51
168.032600
  6
CONTINUOUS
  0
ARC
  8
WHITE
 10
6.315245
 20
6.967404
 30
0.000000
 40
7.180460
 50
140.748185
 51
144.769159
  6
CONTINUOUS
  0
ARC
  8
WHITE
 10
11.876621
 20
1.294538
 30
0.000000
 40
15.101745
 50
135.578139
 51
137.430150
  6
CONTINUOUS
  0
ARC
  8
WHITE
 10
0.982597
 20
11.942147
 30
0.000000
 40
0.133067
 50
-35.543893
 51
15.381346
  6
CONTINUOUS
  0
ARC
  8
WHITE
 10
3.003043
 20
12.173927
 30
0.000000
 40
1.902320
 50
157.658418
 51
185.928477
  6
CONTINUOUS
  0
ARC
  8
WHITE
 10
3.998499
 20
11.775695
 30
0.000000
 40
2.974447
 50
140.907534
 51
157.852254
  6
CONTINUOUS
  0
ARC
  8
WHITE
 10
4.853626
 20
11.083712
 30
0.000000
 40
4.074483
 50
129.338896
 51
140.937801
  6
CONTINUOUS
  0
ARC
  8
WHITE
 10
6.058659
 20
9.730891
 30
0.000000
 40
5.885117
 50
115.006717
 51
130.063471
  6
CONTINUOUS
  0
ARC
  8
WHITE
 10
5.400270
 20
11.267437
 30
0.000000
 40
4.214624
 50
78.924220
 51
115.725417
  6
CONTINUOUS
  0
ARC
  8
WHITE
 10
5.274564
 20
10.305175
 30
0.000000
 40
5.183477
 50
68.385037
 51
79.603946
  6
CONTINUOUS
  0
ARC
  8
WHITE
 10
4.758675
 20
8.795089
 30
0.000000
 40
6.777844
 50
61.525768
 51
69.033044
  6
CONTINUOUS
  0
ARC
  8
WHITE
 10
1.631018
 20
2.745983
 30
0.000000
 40
13.587019
 50
55.540251
 51
62.093729
  6
CONTINUOUS
  0
ARC
  8
WHITE
 10
6.445275
 20
9.892257
 30
0.000000
 40
4.971261
 50
41.252092
 51
54.686358
  6
CONTINUOUS
  0
ARC
  8
WHITE
 10
4.508924
 20
8.056575
 30
0.000000
 40
7.638138
 50
35.469621
 51
42.027115
  6
CONTINUOUS
  0
ARC
  8
WHITE
 10
5.545229
 20
8.772918
 30
0.000000
 40
6.378500
 50
31.397756
 51
35.630693
  6
CONTINUOUS
  0
ARC
  8
WHITE
 10
12.090453
 20
12.720598
 30
0.000000
 40
1.265603
 50
-150.426112
 51
-144.350314
  6
CONTINUOUS
  0
ARC
  8
WHITE
 10
10.357440
 20
10.902497
 30
0.000000
 40
1.289909
 50
45.713108
 51
56.891127
  6
CONTINUOUS
  0
ARC
  8
WHITE
 10
15.919311
 20
16.355445
 30
0.000000
 40
6.499511
 50
-135.820520
 51
-133.876037
  6
CONTINUOUS
  0
ARC
  8
WHITE
 10
10.770074
 20
10.919272
 30
0.000000
 40
0.989632
 50
38.197711
 51
49.369737
  6
CONTINUOUS
  0
ARC
  8
WHITE
 10
37.186630
 20
29.181124
 30
0.000000
 40
31.126640
 50
-145.456292
 51
-144.834562
  6
CONTINUOUS
  0
ARC
  8
WHITE
 10
10.597588
 20
10.501157
 30
0.000000
 40
1.368902
 50
22.768262
 51
33.367813
  6
CONTINUOUS
  0
ARC
  8
WHITE
 10
10.100951
 20
10.107044
 30
0.000000
 40
1.986754
 50
16.760310
 51
27.711665
  6
CONTINUOUS
  0
ARC
  8
WHITE
 10
15.306500
 20
11.314697
 30
0.000000
 40
3.363626
 50
-169.122723
 51
-162.650260
  6
CONTINUOUS
  0
LINE
  8
WHITE
 10
12.095912
 20
10.311652
 30
0.000000
 11
12.110092
 21
10.314372
 31
0.000000
  6
CONTINUOUS
  0
ARC
  8
WHITE
 10
11.119977
 20
11.316828
 30
0.000000
 40
1.408987
 50
-45.354890
 51
-17.210470
  6
CONTINUOUS
  0
ARC
  8
WHITE
 10
10.568169
 20
11.485939
 30
0.000000
 40
1.986126
 50
-17.160504
 51
12.792854
  6
CONTINUOUS
  0
ARC
  8
WHITE
 10
9.014735
 20
11.147417
 30
0.000000
 40
3.575983
 50
12.570889
 51
29.212420
  6
CONTINUOUS
  0
LINE
  8
WHITE
 10
12.135912
 20
12.892672
 30
0.000000
 11
12.139992
 21
12.910632
 31
0.000000
  6
CONTINUOUS
  0
LINE
  8
WHITE
 10
12.139992
 20
12.910632
 30
0.000000
 11
12.158352
 21
12.909172
 31
0.000000
  6
CONTINUOUS
  0
ARC
  8
WHITE
 10
9.659771
 20
10.689149
 30
0.000000
 40
3.342366
 50
10.905324
 51
41.621534
  6
CONTINUOUS
  0
ARC
  8
WHITE
 10
7.756310
 20
10.278996
 30
0.000000
 40
5.289220
 50
-8.049956
 51
11.367191
  6
CONTINUOUS
  0
LINE
  8
WHITE
 10
12.993412
 20
9.538312
 30
0.000000
 11
12.980312
 21
9.526152
 31
0.000000
  6
CONTINUOUS
  0
LINE
  8
WHITE
 10
12.980312
 20
9.526152
 30
0.000000
 11
12.965832
 21
9.536652
 31
0.000000
  6
CONTINUOUS
  0
ARC
  8
WHITE
 10
11.952662
 20
9.279198
 30
0.000000
 40
1.045369
 50
14.257554
 51
33.561747
  6
CONTINUOUS
  0
ARC
  8
WHITE
 10
8.931305
 20
6.537910
 30
0.000000
 40
5.115496
 50
40.455166
 51
42.177655
  6
CONTINUOUS
  0
ARC
  8
WHITE
 10
12.608719
 20
9.877165
 30
0.000000
 40
0.148308
 50
40.060798
 51
67.846482
  6
CONTINUOUS
  0
ARC
  8
WHITE
 10
12.247083
 20
9.337274
 30
0.000000
 40
0.795629
 50
58.343953
 51
68.361461
  6
CONTINUOUS
  0
ARC
  8
WHITE
 10
12.440477
 20
9.525250
 30
0.000000
 40
0.560574
 50
79.724635
 51
133.133488
  6
CONTINUOUS
  0
LINE
  8
WHITE
 10
12.057212
 20
9.934336
 30
0.000000
 11
11.980390
 21
9.873034
 31
0.000000
  6
CONTINUOUS
  0
ARC
  8
WHITE
 10
12.235612
 20
9.538769
 30
0.000000
 40
0.420561
 50
127.362900
 51
152.398802
  6
CONTINUOUS
  0
ARC
  8
WHITE
 10
24.129822
 20
1.445058
 30
0.000000
 40
14.804639
 50
145.953708
 51
146.577570
  6
CONTINUOUS
  0
ARC
  8
WHITE
 10
82.719580
 20
-18.266603
 30
0.000000
 40
76.222601
 50
158.556145
 51
158.768244
  6
CONTINUOUS
  0
ARC
  8
WHITE
 10
14.729650
 20
8.541450
 30
0.000000
 40
3.160621
 50
165.426234
 51
180.766437
  6
CONTINUOUS
  0
LINE
  8
WHITE
 10
11.569312
 20
8.499172
 30
0.000000
 11
11.557912
 21
8.484952
 31
0.000000
  6
CONTINUOUS
  0
LINE
  8
WHITE
 10
11.557912
 20
8.484952
 30
0.000000
 11
11.542052
 21
8.493972
 31
0.000000
  6
CONTINUOUS
  0
ARC
  8
WHITE
 10
-3.917486
 20
3.517949
 30
0.000000
 40
16.240632
 50
17.842017
 51
19.659547
  6
CONTINUOUS
  0
ARC
  8
WHITE
 10
11.954047
 20
7.543997
 30
0.000000
 40
1.549475
 50
111.886447
 51
133.954165
  6
CONTINUOUS
  0
ARC
  8
WHITE
 10
11.968780
 20
7.496836
 30
0.000000
 40
1.593805
 50
133.158677
 51
165.404469
  6
CONTINUOUS
  0
ARC
  8
WHITE
 10
12.384253
 20
7.422645
 30
0.000000
 40
2.014835
 50
166.340082
 51
191.865858
  6
CONTINUOUS
  0
LINE
  8
WHITE
 10
10.412472
 20
7.008352
 30
0.000000
 11
10.423172
 21
6.997072
 31
0.000000
  6
CONTINUOUS
  0
LINE
  8
WHITE
 10
10.423172
 20
6.997072
 30
0.000000
 11
10.437652
 21
7.002732
 31
0.000000
  6
CONTINUOUS
  0
ARC
  8
WHITE
 10
8.898784
 20
8.146574
 30
0.000000
 40
1.917417
 50
-36.623456
 51
-8.529904
  6
CONTINUOUS
  0
ARC
  8
WHITE
 10
7.792752
 20
7.686850
 30
0.000000
 40
3.007354
 50
-11.462103
 51
3.342110
  6
CONTINUOUS
  0
ARC
  8
WHITE
 10
7.580574
 20
7.696432
 30
0.000000
 40
3.217372
 50
-21.256848
 51
-10.878460
  6
CONTINUOUS
  0
ARC
  8
WHITE
 10
35.267669
 20
-0.132126
 30
0.000000
 40
25.571693
 50
164.898699
 51
165.878031
  6
CONTINUOUS
  0
ARC
  8
WHITE
 10
25.935778
 20
5.128773
 30
0.000000
 40
15.497893
 50
176.380970
 51
177.592871
  6
CONTINUOUS
  0
ARC
  8
WHITE
 10
11.266310
 20
5.690541
 30
0.000000
 40
0.819613
 50
173.756020
 51
190.943306
  6
CONTINUOUS
  0
ARC
  8
WHITE
 10
14.906167
 20
5.965027
 30
0.000000
 40
4.465325
 50
-174.472973
 51
-169.743169
  6
CONTINUOUS
  0
ARC
  8
WHITE
 10
6.615754
 20
3.977858
 30
0.000000
 40
4.074718
 50
11.825435
 51
17.010844
  6
CONTINUOUS
  0
ARC
  8
WHITE
 10
10.146004
 20
8.917119
 30
0.000000
 40
4.129702
 50
-87.418539
 51
-83.632745
  6
CONTINUOUS
  0
ARC
  8
WHITE
 10
13.405494
 20
-6.160354
 30
0.000000
 40
11.375052
 50
105.675907
 51
106.878571
  6
CONTINUOUS
  0
ARC
  8
WHITE
 10
10.879209
 20
2.908948
 30
0.000000
 40
1.974765
 50
113.151201
 51
137.383261
  6
CONTINUOUS
  0
ARC
  8
WHITE
 10
11.552546
 20
2.214753
 30
0.000000
 40
2.940821
 50
136.312665
 51
152.594424
  6
CONTINUOUS
  0
LINE
  8
WHITE
 10
8.941772
 20
3.568372
 30
0.000000
 11
8.928112
 21
3.560532
 31
0.000000
  6
CONTINUOUS
  0
ARC
  8
WHITE
 10
9.813100
 20
4.052641
 30
0.000000
 40
1.012609
 50
-162.609145
 51
-150.923177
  6
CONTINUOUS
  0
ARC
  8
WHITE
 10
4.171685
 20
1.963439
 30
0.000000
 40
5.004823
 50
20.913901
 51
29.201771
  6
CONTINUOUS
  0
ARC
  8
WHITE
 10
6.113988
 20
3.016011
 30
0.000000
 40
2.795986
 50
29.792497
 51
37.209679
  6
CONTINUOUS
  0
ARC
  8
WHITE
 10
7.582196
 20
4.184168
 30
0.000000
 40
0.921220
 50
34.566809
 51
45.823652
  6
CONTINUOUS
  0
ARC
  8
WHITE
 10
9.022633
 20
5.655081
 30
0.000000
 40
1.137540
 50
-143.686867
 51
-134.581586
  6
CONTINUOUS
  0
LINE
  8
WHITE
 10
8.106012
 20
4.981432
 30
0.000000
 11
8.167432
 21
5.212932
 31
0.000000
  6
CONTINUOUS
  0
LINE
  8
WHITE
 10
8.167432
 20
5.212932
 30
0.000000
 11
8.162832
 21
5.227692
 31
0.000000
  6
CONTINUOUS
  0
LINE
  8
WHITE
 10
8.162832
 20
5.227692
 30
0.000000
 11
8.147472
 21
5.229092
 31
0.000000
  6
CONTINUOUS
  0
ARC
  8
WHITE
 10
8.675877
 20
4.282964
 30
0.000000
 40
1.083684
 50
119.182995
 51
158.846020
  6
CONTINUOUS
  0
ARC
  8
WHITE
 10
8.479548
 20
4.361859
 30
0.000000
 40
0.872117
 50
159.025288
 51
183.687769
  6
CONTINUOUS
  0
ARC
  8
WHITE
 10
8.372442
 20
4.302496
 30
0.000000
 40
0.763213
 50
179.754549
 51
193.837793
  6
CONTINUOUS
  0
ARC
  8
WHITE
 10
6.600652
 20
3.836781
 30
0.000000
 40
1.068919
 50
5.316920
 51
15.361970
  6
CONTINUOUS
  0
ARC
  8
WHITE
 10
8.934787
 20
2.731974
 30
0.000000
 40
1.749772
 50
136.527353
 51
158.293966
  6
CONTINUOUS
  0
ARC
  8
WHITE
 10
10.147760
 20
2.318545
 30
0.000000
 40
3.030329
 50
159.513541
 51
181.508371
  6
CONTINUOUS
  0
ARC
  8
WHITE
 10
21.478832
 20
2.438852
 30
0.000000
 40
14.361744
 50
-179.201785
 51
-177.461443
  6
CONTINUOUS
  0
ARC
  8
WHITE
 10
6.046523
 20
1.774734
 30
0.000000
 40
1.085020
 50
-18.676936
 51
1.479402
  6
CONTINUOUS
  0
ARC
  8
WHITE
 10
6.231679
 20
1.722426
 30
0.000000
 40
0.892917
 50
-62.109447
 51
-19.301892
  6
CONTINUOUS
  0
ARC
  8
WHITE
 10
5.076773
 20
3.877326
 30
0.000000
 40
3.337780
 50
-70.490730
 51
-61.890970
  6
CONTINUOUS
  0
ARC
  8
WHITE
 10
8.631611
 20
-6.179957
 30
0.000000
 40
7.329263
 50
109.446903
 51
115.321216
  6
CONTINUOUS
  0
ARC
  8
WHITE
 10
7.144861
 20
-2.601630
 30
0.000000
 40
3.463880
 50
118.407836
 51
124.621789
  6
CONTINUOUS
  0
LINE
  8
WHITE
 10
5.176834
 20
0.248868
 30
0.000000
 11
4.893512
 21
0.002070
 31
0.000000
  6
CONTINUOUS
  0
LINE
  8
WHITE
 10
4.893512
 20
0.002070
 30
0.000000
 11
4.875332
 21
0.000000
 31
0.000000
  6
CONTINUOUS
  0
LINE
  8
WHITE
 10
4.875332
 20
0.000000
 30
0.000000
 11
4.870492
 21
0.017646
 31
0.000000
  6
CONTINUOUS
  0
LINE
  8
WHITE
 10
4.870492
 20
0.017646
 30
0.000000
 11
5.148630
 21
0.522093
 31
0.000000
  6
CONTINUOUS
  0
ARC
  8
WHITE
 10
7.057125
 20
-0.488054
 30
0.000000
 40
2.159340
 50
140.650335
 51
152.108203
  6
CONTINUOUS
  0
ARC
  8
WHITE
 10
4.716595
 20
1.480586
 30
0.000000
 40
0.899606
 50
-41.790687
 51
-0.522134
  6
CONTINUOUS
  0
ARC
  8
WHITE
 10
3.698829
 20
1.554807
 30
0.000000
 40
1.919105
 50
-2.461407
 51
16.881805
  6
CONTINUOUS
  0
LINE
  8
WHITE
 10
5.535232
 20
2.112112
 30
0.000000
 11
5.523112
 21
2.122192
 31
0.000000
  6
CONTINUOUS
  0
LINE
  8
WHITE
 10
5.523112
 20
2.122192
 30
0.000000
 11
5.509352
 21
2.114512
 31
0.000000
  6
CONTINUOUS
  0
ARC
  8
WHITE
 10
7.396520
 20
1.171207
 30
0.000000
 40
2.109793
 50
153.441723
 51
169.529350
  6
CONTINUOUS
  0
ARC
  8
WHITE
 10
8.774355
 20
0.980167
 30
0.000000
 40
3.499961
 50
170.553179
 51
177.822058
  6
CONTINUOUS
  0
ARC
  8
WHITE
 10
4.533657
 20
1.229210
 30
0.000000
 40
0.752268
 50
-34.231134
 51
-8.873022
  6
CONTINUOUS
  0
ARC
  8
WHITE
 10
3.579548
 20
1.947126
 30
0.000000
 40
1.945782
 50
-50.618432
 51
-35.905016
  6
CONTINUOUS
  0
ARC
  8
WHITE
 10
-7.387596
 20
15.779931
 30
0.000000
 40
19.598426
 50
-52.955982
 51
-51.494765
  6
CONTINUOUS
  0
LINE
  8
WHITE
 10
4.419052
 20
0.136998
 30
0.000000
 11
4.400792
 21
0.137822
 31
0.000000
  6
CONTINUOUS
  0
LINE
  8
WHITE
 10
4.400792
 20
0.137822
 30
0.000000
 11
4.398772
 21
0.155992
 31
0.000000
  6
CONTINUOUS
  0
ARC
  8
WHITE
 10
3.238780
 20
0.939880
 30
0.000000
 40
1.400022
 50
-34.049659
 51
-21.698227
  6
CONTINUOUS
  0
LINE
  8
WHITE
 10
4.539602
 20
0.422267
 30
0.000000
 11
4.619080
 21
0.693820
 31
0.000000
  6
CONTINUOUS
  0
ARC
  8
WHITE
 10
3.938483
 20
0.934673
 30
0.000000
 40
0.721958
 50
-19.488101
 51
1.563481
  6
CONTINUOUS
  0
ARC
  8
WHITE
 10
-27.926781
 20
3.083363
 30
0.000000
 40
32.656424
 50
-3.737974
 51
-3.301665
  6
CONTINUOUS
  0
ARC
  8
WHITE
 10
0.748811
 20
0.954583
 30
0.000000
 40
3.934451
 50
3.613883
 51
17.194338
  6
CONTINUOUS
  0
ARC
  8
WHITE
 10
2.999814
 20
1.730106
 30
0.000000
 40
1.556625
 50
14.416627
 51
40.147583
  6
CONTINUOUS
  0
ARC
  8
WHITE
 10
3.975075
 20
2.508484
 30
0.000000
 40
0.311127
 50
46.389264
 51
94.628166
  6
CONTINUOUS
  0
ARC
  8
WHITE
 10
3.979772
 20
2.675128
 30
0.000000
 40
0.146532
 50
101.734741
 51
191.617968
  6
CONTINUOUS
  0
ARC
  8
WHITE
 10
4.353853
 20
2.698003
 30
0.000000
 40
0.520254
 50
-174.221053
 51
-152.104706
  6
CONTINUOUS
  0
ARC
  8
WHITE
 10
-17.079344
 20
-6.047325
 30
0.000000
 40
22.631084
 50
21.176419
 51
22.066015
  6
CONTINUOUS
  0
ARC
  8
WHITE
 10
2.137897
 20
1.477930
 30
0.000000
 40
1.994518
 50
3.884185
 51
19.020204
  6
CONTINUOUS
  0
ARC
  8
WHITE
 10
2.185536
 20
1.592650
 30
0.000000
 40
1.942404
 50
-7.165317
 51
0.601410
  6
CONTINUOUS
  0
ARC
  8
WHITE
 10
12.760670
 20
-0.747290
 30
0.000000
 40
8.898671
 50
166.365504
 51
168.062246
  6
CONTINUOUS
  0
LINE
  8
WHITE
 10
4.054452
 20
1.093390
 30
0.000000
 11
4.038392
 21
1.084004
 31
0.000000
  6
CONTINUOUS
  0
LINE
  8
WHITE
 10
4.038392
 20
1.084004
 30
0.000000
 11
4.027032
 21
1.098722
 31
0.000000
  6
CONTINUOUS
  0
ARC
  8
WHITE
 10
2.184320
 20
1.210070
 30
0.000000
 40
1.846073
 50
-3.457951
 51
26.068671
  6
CONTINUOUS
  0
ARC
  8
WHITE
 10
1.556295
 20
0.941066
 30
0.000000
 40
2.528654
 50
25.290392
 51
44.152119
  6
CONTINUOUS
  0
ARC
  8
WHITE
 10
12.993864
 20
12.219973
 30
0.000000
 40
13.534804
 50
-141.483284
 51
-135.316528
  6
CONTINUOUS
  0
ARC
  8
WHITE
 10
7.170236
 20
7.417394
 30
0.000000
 40
5.988905
 50
-147.963559
 51
-142.737062
  6
CONTINUOUS
  0
ARC
  8
WHITE
 10
5.332134
 20
6.293715
 30
0.000000
 40
3.834726
 50
-161.904280
 51
-147.627655
  6
CONTINUOUS
  0
ARC
  8
WHITE
 10
4.551085
 20
6.038487
 30
0.000000
 40
3.013034
 50
170.838456
 51
198.095601
  6
CONTINUOUS
  0
ARC
  8
WHITE
 10
3.532862
 20
6.231667
 30
0.000000
 40
1.977248
 50
130.100680
 51
171.667132
  6
CONTINUOUS
  0
ARC
  8
WHITE
 10
2.233828
 20
7.461055
 30
0.000000
 40
0.284177
 50
67.465727
 51
84.867200
  6
CONTINUOUS
  0
ARC
  8
WHITE
 10
2.464315
 20
8.238583
 30
0.000000
 40
0.529203
 50
-103.281921
 51
-66.308181
  6
CONTINUOUS
  0
ARC
  8
WHITE
 10
2.298919
 20
8.666232
 30
0.000000
 40
0.987480
 50
-67.490738
 51
-48.866731
  6
CONTINUOUS
  0
ARC
  8
WHITE
 10
1.915770
 20
9.113850
 30
0.000000
 40
1.576668
 50
-49.079989
 51
-27.186622
  6
CONTINUOUS
  0
ARC
  8
WHITE
 10
2.526402
 20
8.828628
 30
0.000000
 40
0.903536
 50
-28.789939
 51
4.651693
  6
CONTINUOUS
  0
LINE
  8
WHITE
 10
3.426962
 20
8.901903
 30
0.000000
 11
3.394921
 21
9.012727
 31
0.000000
  6
CONTINUOUS
  0
ARC
  8
WHITE
 10
0.257616
 20
6.883935
 30
0.000000
 40
3.791364
 50
34.158511
 51
35.845404
  6
CONTINUOUS
  0
ARC
  8
WHITE
 10
3.062991
 20
8.812444
 30
0.000000
 40
0.396069
 50
47.436366
 51
78.589278
  6
CONTINUOUS
  0
LINE
  8
WHITE
 10
3.141350
 20
9.200684
 30
0.000000
 11
3.092050
 21
9.212727
 31
0.000000
  6
CONTINUOUS
  0
ARC
  8
WHITE
 10
3.105205
 20
9.301152
 30
0.000000
 40
0.089398
 50
-162.299974
 51
-98.461586
  6
CONTINUOUS
  0
ARC
  8
WHITE
 10
2.625243
 20
9.037697
 30
0.000000
 40
0.460097
 50
30.899438
 51
78.849555
  6
CONTINUOUS
  0
ARC
  8
WHITE
 10
2.737309
 20
8.108681
 30
0.000000
 40
1.380621
 50
90.958241
 51
97.953893
  6
CONTINUOUS
  0
ARC
  8
WHITE
 10
6.154489
 20
0.147845
 30
0.000000
 40
10.001706
 50
111.146937
 51
114.785644
  6
CONTINUOUS
  0
ARC
  8
WHITE
 10
1.531036
 20
10.083315
 30
0.000000
 40
0.957345
 50
-77.534077
 51
-63.277355
  6
CONTINUOUS
  0
ARC
  8
WHITE
 10
0.722014
 20
12.511069
 30
0.000000
 40
3.512577
 50
-76.592486
 51
-73.192730
  6
CONTINUOUS
  0
ARC
  8
WHITE
 10
1.915599
 20
7.516341
 30
0.000000
 40
1.622787
 50
103.509861
 51
116.366219
  6
CONTINUOUS
  0
LINE
  8
WHITE
 10
1.194907
 20
8.970316
 30
0.000000
 11
1.090711
 21
8.881713
 31
0.000000
  6
CONTINUOUS
  0
ARC
  8
WHITE
 10
1.372465
 20
8.519943
 30
0.000000
 40
0.458544
 50
127.912298
 51
157.736231
  6
CONTINUOUS
  0
ARC
  8
WHITE
 10
1.410934
 20
8.422618
 30
0.000000
 40
0.536358
 50
149.644749
 51
168.785388
  6
CONTINUOUS
  0
ARC
  8
WHITE
 10
1.964400
 20
8.192163
 30
0.000000
 40
1.130296
 50
162.771813
 51
176.414216
  6
CONTINUOUS
  0
ARC
  8
WHITE
 10
4.223587
 20
7.977036
 30
0.000000
 40
3.399308
 50
175.176800
 51
179.713199
  6
CONTINUOUS
  0
LINE
  8
WHITE
 10
0.824322
 20
7.994052
 30
0.000000
 11
0.815684
 21
7.980712
 31
0.000000
  6
CONTINUOUS
  0
LINE
  8
WHITE
 10
0.815684
 20
7.980712
 30
0.000000
 11
0.800180
 21
7.984152
 31
0.000000
  6
CONTINUOUS
  0
ARC
  8
WHITE
 10
5.754404
 20
11.622494
 30
0.000000
 40
3.049572
 50
-46.337719
 51
-34.337948
  6
CONTINUOUS
  0
ARC
  8
WHITE
 10
6.588011
 20
10.738090
 30
0.000000
 40
1.834263
 50
-63.558465
 51
-46.101928
  6
CONTINUOUS
  0
ARC
  8
WHITE
 10
7.337120
 20
9.201051
 30
0.000000
 40
0.125198
 50
-113.234966
 51
-57.287512
  6
CONTINUOUS
  0
ARC
  8
WHITE
 10
7.114435
 20
8.546023
 30
0.000000
 40
0.567110
 50
72.207384
 51
120.064269
  6
CONTINUOUS
  0
ARC
  8
WHITE
 10
7.115000
 20
8.675693
 30
0.000000
 40
0.459849
 50
128.246844
 51
179.893090
  6
CONTINUOUS
  0
ARC
  8
WHITE
 10
6.965874
 20
8.679915
 30
0.000000
 40
0.310741
 50
-179.379720
 51
-112.822083
  6
CONTINUOUS
  0
ARC
  8
WHITE
 10
7.171486
 20
9.060967
 30
0.000000
 40
0.742886
 50
-116.041190
 51
-91.563692
  6
CONTINUOUS
  0
ARC
  8
WHITE
 10
7.290300
 20
10.394720
 30
0.000000
 40
2.081015
 50
-93.832233
 51
-63.250413
  6
CONTINUOUS
  0
ARC
  8
WHITE
 10
7.990022
 20
9.061218
 30
0.000000
 40
0.575809
 50
-65.703056
 51
-38.073201
  6
CONTINUOUS
  0
ARC
  8
WHITE
 10
8.366866
 20
8.820189
 30
0.000000
 40
0.137304
 50
-56.167373
 51
31.079369
  6
CONTINUOUS
  0
ARC
  8
WHITE
 10
8.252850
 20
8.671871
 30
0.000000
 40
0.318890
 50
43.422715
 51
99.537091
  6
CONTINUOUS
  0
ARC
  8
WHITE
 10
8.244887
 20
8.034206
 30
0.000000
 40
0.953205
 50
92.698215
 51
111.475738
  6
CONTINUOUS
  0
LINE
  8
WHITE
 10
7.895912
 20
8.921232
 30
0.000000
 11
7.878592
 21
8.928252
 31
0.000000
  6
CONTINUOUS
  0
LINE
  8
WHITE
 10
7.878592
 20
8.928252
 30
0.000000
 11
7.883452
 21
8.946272
 31
0.000000
  6
CONTINUOUS
  0
ARC
  8
WHITE
 10
8.384920
 20
8.078341
 30
0.000000
 40
1.002385
 50
90.267969
 51
120.018218
  6
CONTINUOUS
  0
ARC
  8
WHITE
 10
8.498982
 20
11.350135
 30
0.000000
 40
2.272525
 50
-92.995337
 51
-88.066599
  6
CONTINUOUS
  0
ARC
  8
WHITE
 10
8.606406
 20
9.531865
 30
0.000000
 40
0.454004
 50
-93.884103
 51
-72.274953
  6
CONTINUOUS
  0
ARC
  8
WHITE
 10
8.375513
 20
10.763443
 30
0.000000
 40
1.704476
 50
-77.493171
 51
-57.375752
  6
CONTINUOUS
  0
ARC
  8
WHITE
 10
8.033613
 20
11.366425
 30
0.000000
 40
2.396938
 50
-58.263285
 51
-51.112018
  6
CONTINUOUS
  0
ARC
  8
WHITE
 10
9.039065
 20
10.102943
 30
0.000000
 40
0.782324
 50
-50.336048
 51
-39.378332
  6
CONTINUOUS
  0
ARC
  8
WHITE
 10
9.526994
 20
9.719041
 30
0.000000
 40
0.162113
 50
-43.912365
 51
8.724792
  6
CONTINUOUS
  0
ARC
  8
WHITE
 10
9.596148
 20
9.699073
 30
0.000000
 40
0.101399
 50
26.068517
 51
67.551529
  6
CONTINUOUS
  0
ARC
  8
WHITE
 10
9.514621
 20
9.551773
 30
0.000000
 40
0.269347
 50
63.484546
 51
90.839115
  6
CONTINUOUS
  0
ARC
  8
WHITE
 10
10.128693
 20
6.606730
 30
0.000000
 40
3.273233
 50
100.883297
 51
104.266165
  6
CONTINUOUS
  0
ARC
  8
WHITE
 10
7.222366
 20
13.070230
 30
0.000000
 40
3.903953
 50
-60.302397
 51
-57.463069
  6
CONTINUOUS
  0
LINE
  8
WHITE
 10
9.156472
 20
9.679052
 30
0.000000
 11
9.147732
 21
9.683092
 31
0.000000
  6
CONTINUOUS
  0
LINE
  8
WHITE
 10
9.147732
 20
9.683092
 30
0.000000
 11
9.143272
 21
9.691612
 31
0.000000
  6
CONTINUOUS
  0
ARC
  8
WHITE
 10
10.173401
 20
8.891322
 30
0.000000
 40
1.304466
 50
118.512659
 51
142.156993
  6
CONTINUOUS
  0
ARC
  8
WHITE
 10
10.791554
 20
7.564229
 30
0.000000
 40
2.767150
 50
108.263657
 51
116.642317
  6
CONTINUOUS
  0
ARC
  8
WHITE
 10
9.140348
 20
12.168284
 30
0.000000
 40
2.126133
 50
-68.361518
 51
-60.178541
  6
CONTINUOUS
  0
ARC
  8
WHITE
 10
9.698798
 20
11.272124
 30
0.000000
 40
1.071631
 50
-62.255631
 51
-13.583854
  6
CONTINUOUS
  0
LINE
  8
WHITE
 10
10.740452
 20
11.020432
 30
0.000000
 11
10.754072
 21
11.031512
 31
0.000000
  6
CONTINUOUS
  0
LINE
  8
WHITE
 10
10.754072
 20
11.031512
 30
0.000000
 11
10.767792
 21
11.020632
 31
0.000000
  6
CONTINUOUS
  0
ARC
  8
WHITE
 10
6.861757
 20
10.269645
 30
0.000000
 40
3.977573
 50
4.220466
 51
10.883068
  6
CONTINUOUS
  0
ARC
  8
WHITE
 10
9.433791
 20
10.442322
 30
0.000000
 40
1.399910
 50
-23.476846
 51
4.919487
  6
CONTINUOUS
  0
ARC
  8
WHITE
 10
7.929195
 20
11.213856
 30
0.000000
 40
3.089218
 50
-38.352283
 51
-25.485313
  6
CONTINUOUS
  0
LINE
  8
WHITE
 10
10.351792
 20
9.297012
 30
0.000000
 11
10.334392
 21
9.293432
 31
0.000000
  6
CONTINUOUS
  0
LINE
  8
WHITE
 10
10.334392
 20
9.293432
 30
0.000000
 11
10.327412
 21
9.309732
 31
0.000000
  6
CONTINUOUS
  0
ARC
  8
WHITE
 10
8.640922
 20
9.779006
 30
0.000000
 40
1.750561
 50
-15.549491
 51
-6.099996
  6
CONTINUOUS
  0
ARC
  8
WHITE
 10
9.575516
 20
9.655845
 30
0.000000
 40
0.808503
 50
-4.459185
 51
5.750987
  6
CONTINUOUS
  0
ARC
  8
WHITE
 10
10.142900
 20
9.724979
 30
0.000000
 40
0.237347
 50
2.869396
 51
37.787977
  6
CONTINUOUS
  0
LINE
  8
WHITE
 10
10.330472
 20
9.870412
 30
0.000000
 11
10.265852
 21
9.907632
 31
0.000000
  6
CONTINUOUS
  0
ARC
  8
WHITE
 10
10.255854
 20
9.511848
 30
0.000000
 40
0.395911
 50
88.552947
 51
126.208727
  6
CONTINUOUS
  0
ARC
  8
WHITE
 10
10.420460
 20
9.362919
 30
0.000000
 40
0.614951
 50
130.390152
 51
172.783282
  6
CONTINUOUS
  0
ARC
  8
WHITE
 10
10.656943
 20
9.331487
 30
0.000000
 40
0.853511
 50
172.684242
 51
195.628247
  6
CONTINUOUS
  0
ARC
  8
WHITE
 10
12.513067
 20
9.945487
 30
0.000000
 40
2.807906
 50
-162.509034
 51
-152.048352
  6
CONTINUOUS
  0
ARC
  8
WHITE
 10
8.531284
 20
7.851141
 30
0.000000
 40
1.691130
 50
10.029220
 51
27.398052
  6
CONTINUOUS
  0
LINE
  8
WHITE
 10
10.196572
 20
8.145652
 30
0.000000
 11
10.210072
 21
8.133292
 31
0.000000
  6
CONTINUOUS
  0
LINE
  8
WHITE
 10
10.210072
 20
8.133292
 30
0.000000
 11
10.224312
 21
8.144752
 31
0.000000
  6
CONTINUOUS
  0
ARC
  8
WHITE
 10
8.953658
 20
8.385860
 30
0.000000
 40
1.293327
 50
-10.744218
 51
20.717672
  6
CONTINUOUS
  0
LINE
  8
WHITE
 10
10.163352
 20
8.843392
 30
0.000000
 11
10.170292
 21
8.861572
 31
0.000000
  6
CONTINUOUS
  0
ARC
  8
WHITE
 10
9.355452
 20
10.305840
 30
0.000000
 40
1.658274
 50
-60.568801
 51
-40.950705
  6
CONTINUOUS
  0
ARC
  8
WHITE
 10
8.846498
 20
10.864708
 30
0.000000
 40
2.410587
 50
-43.055269
 51
-22.811950
  6
CONTINUOUS
  0
LINE
  8
WHITE
 10
11.068535
 20
9.930104
 30
0.000000
 11
11.181560
 21
10.340490
 31
0.000000
  6
CONTINUOUS
  0
ARC
  8
WHITE
 10
12.344708
 20
9.950051
 30
0.000000
 40
1.226929
 50
151.499664
 51
161.444418
  6
CONTINUOUS
  0
ARC
  8
WHITE
 10
11.685409
 20
10.339935
 30
0.000000
 40
0.462340
 50
141.777063
 51
154.976967
  6
CONTINUOUS
  0
ARC
  8
WHITE
 10
11.070125
 20
10.841211
 30
0.000000
 40
0.331443
 50
-40.491050
 51
-22.092981
  6
CONTINUOUS
  0
LINE
  8
WHITE
 10
11.377232
 20
10.716552
 30
0.000000
 11
11.363972
 21
10.724532
 31
0.000000
  6
CONTINUOUS
  0
ARC
  8
WHITE
 10
11.381131
 20
10.084943
 30
0.000000
 40
0.639819
 50
91.536823
 51
109.306229
  6
CONTINUOUS
  0
ARC
  8
WHITE
 10
11.516731
 20
9.895574
 30
0.000000
 40
0.865842
 50
113.635828
 51
120.180702
  6
CONTINUOUS
  0
ARC
  8
WHITE
 10
10.853486
 20
10.862834
 30
0.000000
 40
0.315967
 50
-61.623796
 51
-43.823712
  6
CONTINUOUS
  0
LINE
  8
WHITE
 10
11.003652
 20
10.584832
 30
0.000000
 11
10.994992
 21
10.599472
 31
0.000000
  6
CONTINUOUS
  0
ARC
  8
WHITE
 10
7.767525
 20
10.902392
 30
0.000000
 40
3.241652
 50
-5.361900
 51
2.623744
  6
CONTINUOUS
  0
ARC
  8
WHITE
 10
9.183599
 20
11.028765
 30
0.000000
 40
1.822312
 50
0.692360
 51
25.551835
  6
CONTINUOUS
  0
ARC
  8
WHITE
 10
10.159251
 20
11.442258
 30
0.000000
 40
0.765225
 50
29.131213
 51
51.331110
  6
CONTINUOUS
  0
ARC
  8
WHITE
 10
10.450476
 20
11.841602
 30
0.000000
 40
0.272368
 50
46.669134
 51
155.822828
  6
CONTINUOUS
  0
ARC
  8
WHITE
 10
10.959345
 20
11.647382
 30
0.000000
 40
0.816742
 50
158.014146
 51
185.313825
  6
CONTINUOUS
  0
ARC
  8
WHITE
 10
12.590661
 20
11.714092
 30
0.000000
 40
2.448689
 50
-176.667373
 51
-169.838128
  6
CONTINUOUS
  0
ARC
  8
WHITE
 10
9.063525
 20
11.093042
 30
0.000000
 40
1.132743
 50
-12.529305
 51
9.606240
  6
CONTINUOUS
  0
ARC
  8
WHITE
 10
9.397702
 20
11.067462
 30
0.000000
 40
0.802383
 50
-47.071694
 51
-15.924917
  6
CONTINUOUS
  0
LINE
  8
WHITE
 10
9.944192
 20
10.479952
 30
0.000000
 11
9.935272
 21
10.484032
 31
0.000000
  6
CONTINUOUS
  0
LINE
  8
WHITE
 10
9.935272
 20
10.484032
 30
0.000000
 11
9.930732
 21
10.492732
 31
0.000000
  6
CONTINUOUS
  0
ARC
  8
WHITE
 10
9.358699
 20
10.909844
 30
0.000000
 40
0.707958
 50
-36.098642
 51
-23.216470
  6
CONTINUOUS
  0
ARC
  8
WHITE
 10
9.708404
 20
10.730891
 30
0.000000
 40
0.317145
 50
-18.404102
 51
35.472165
  6
CONTINUOUS
  0
ARC
  8
WHITE
 10
9.354802
 20
10.459986
 30
0.000000
 40
0.762482
 50
36.631452
 51
56.296534
  6
CONTINUOUS
  0
ARC
  8
WHITE
 10
11.646778
 20
14.414624
 30
0.000000
 40
3.810143
 50
-126.266056
 51
-119.373521
  6
CONTINUOUS
  0
ARC
  8
WHITE
 10
9.677948
 20
11.832425
 30
0.000000
 40
0.566719
 50
-137.525213
 51
-120.192323
  6
CONTINUOUS
  0
LINE
  8
WHITE
 10
9.259951
 20
11.449739
 30
0.000000
 11
9.062498
 21
11.676770
 31
0.000000
  6
CONTINUOUS
  0
ARC
  8
WHITE
 10
10.701233
 20
12.745581
 30
0.000000
 40
1.956479
 50
-153.480550
 51
-146.886933
  6
CONTINUOUS
  0
ARC
  8
WHITE
 10
9.742974
 20
12.392365
 30
0.000000
 40
0.947951
 50
-167.174057
 51
-146.706591
  6
CONTINUOUS
  0
ARC
  8
WHITE
 10
10.970416
 20
12.918280
 30
0.000000
 40
2.274248
 50
-169.630659
 51
-161.108465
  6
CONTINUOUS
  0
LINE
  8
WHITE
 10
8.733312
 20
12.508932
 30
0.000000
 11
8.741852
 21
12.524032
 31
0.000000
  6
CONTINUOUS
  0
LINE
  8
WHITE
 10
8.741852
 20
12.524032
 30
0.000000
 11
8.758532
 21
12.519272
 31
0.000000
  6
CONTINUOUS
  0
ARC
  8
WHITE
 10
9.725859
 20
13.216477
 30
0.000000
 40
1.192399
 50
-144.217672
 51
-127.580755
  6
CONTINUOUS
  0
LINE
  8
WHITE
 10
8.998639
 20
12.271507
 30
0.000000
 11
9.074570
 21
12.229884
 31
0.000000
  6
CONTINUOUS
  0
ARC
  8
WHITE
 10
9.172998
 20
12.341891
 30
0.000000
 40
0.149109
 50
-131.307968
 51
-81.012562
  6
CONTINUOUS
  0
ARC
  8
WHITE
 10
9.249684
 20
12.544442
 30
0.000000
 40
0.353880
 50
-98.677661
 51
-77.785997
  6
CONTINUOUS
  0
ARC
  8
WHITE
 10
11.121052
 20
12.824571
 30
0.000000
 40
1.902443
 50
-160.788872
 51
-151.310241
  6
CONTINUOUS
  0
ARC
  8
WHITE
 10
9.939284
 20
12.174800
 30
0.000000
 40
0.553831
 50
-151.586708
 51
-123.096991
  6
CONTINUOUS
  0
ARC
  8
WHITE
 10
9.705129
 20
11.801110
 30
0.000000
 40
0.113187
 50
-127.096014
 51
-66.104499
  6
CONTINUOUS
  0
ARC
  8
WHITE
 10
9.666947
 20
11.828345
 30
0.000000
 40
0.155399
 50
-57.265868
 51
-16.075729
  6
CONTINUOUS
  0
ARC
  8
WHITE
 10
9.406534
 20
11.941220
 30
0.000000
 40
0.438394
 50
-20.831958
 51
6.855514
  6
CONTINUOUS
  0
ARC
  8
WHITE
 10
8.757233
 20
11.944664
 30
0.000000
 40
1.085662
 50
2.580756
 51
41.725972
  6
CONTINUOUS
  0
ARC
  8
WHITE
 10
7.442263
 20
10.806406
 30
0.000000
 40
2.824778
 50
41.205110
 51
56.238639
  6
CONTINUOUS
  0
LINE
  8
WHITE
 10
9.012092
 20
13.154812
 30
0.000000
 11
9.007052
 21
13.172552
 31
0.000000
  6
CONTINUOUS
  0
LINE
  8
WHITE
 10
9.007052
 20
13.172552
 30
0.000000
 11
9.023872
 21
13.180092
 31
0.000000
  6
CONTINUOUS
  0
ARC
  8
WHITE
 10
5.452898
 20
4.111405
 30
0.000000
 40
9.746432
 50
66.797110
 51
68.506984
  6
CONTINUOUS
  0
ARC
  8
WHITE
 10
8.119156
 20
10.899004
 30
0.000000
 40
2.467526
 50
41.338241
 51
61.597170
  6
CONTINUOUS
  0
LINE
  8
WHITE
 10
9.971832
 20
12.528812
 30
0.000000
 11
9.989252
 21
12.525492
 31
0.000000
  6
CONTINUOUS
  0
LINE
  8
WHITE
 10
9.989252
 20
12.525492
 30
0.000000
 11
9.996112
 21
12.541852
 31
0.000000
  6
CONTINUOUS
  0
ARC
  8
WHITE
 10
7.711202
 20
11.853545
 30
0.000000
 40
2.386331
 50
16.764417
 51
35.891407
  6
CONTINUOUS
  0
ARC
  8
WHITE
 10
6.967324
 20
11.170082
 30
0.000000
 40
3.391689
 50
37.878327
 51
63.110943
  6
CONTINUOUS
  0
LINE
  8
WHITE
 10
8.501264
 20
14.195075
 30
0.000000
 11
7.911180
 21
14.475858
 31
0.000000
  6
CONTINUOUS
  0
ARC
  8
WHITE
 10
14.064352
 20
26.270812
 30
0.000000
 40
13.303475
 50
-120.188239
 51
-117.550075
  6
CONTINUOUS
  0
ARC
  8
WHITE
 10
5.397093
 20
11.269778
 30
0.000000
 40
4.021683
 50
60.543641
 51
68.727287
  6
CONTINUOUS
  0
ARC
  8
WHITE
 10
5.773203
 20
12.496976
 30
0.000000
 40
2.743283
 50
66.747890
 51
77.997628
  6
CONTINUOUS
  0
ARC
  8
WHITE
 10
4.158605
 20
6.382378
 30
0.000000
 40
9.065194
 50
76.052094
 51
77.647366
  6
CONTINUOUS
  0
ARC
  8
WHITE
 10
7.063183
 20
24.449469
 30
0.000000
 40
9.262198
 50
-97.494578
 51
-95.982072
  6
CONTINUOUS
  0
ARC
  8
WHITE
 10
5.581484
 20
13.413528
 30
0.000000
 40
1.872961
 50
81.599981
 51
96.093099
  6
CONTINUOUS
  0
ARC
  8
WHITE
 10
5.369914
 20
13.005227
 30
0.000000
 40
2.270717
 50
89.677889
 51
100.888428
  6
CONTINUOUS
  0
ARC
  8
WHITE
 10
5.815757
 20
9.775965
 30
0.000000
 40
5.528742
 50
99.103771
 51
116.362212
  6
CONTINUOUS
  0
ARC
  8
WHITE
 10
5.204159
 20
10.987183
 30
0.000000
 40
4.171921
 50
116.222680
 51
133.372591
  6
CONTINUOUS
  0
ARC
  8
WHITE
 10
7.612408
 20
8.656501
 30
0.000000
 40
7.521438
 50
134.515255
 51
138.083367
  6
CONTINUOUS
  0
ARC
  8
WHITE
 10
4.007185
 20
11.674679
 30
0.000000
 40
2.827117
 50
134.786520
 51
151.400543
  6
CONTINUOUS
  0
ARC
  8
WHITE
 10
3.037991
 20
12.160058
 30
0.000000
 40
1.744243
 50
150.159419
 51
170.355778
  6
CONTINUOUS
  0
ARC
  8
WHITE
 10
1.999536
 20
12.285769
 30
0.000000
 40
0.701192
 50
166.263644
 51
203.949914
  6
CONTINUOUS
  0
ARC
  8
WHITE
 10
1.789462
 20
12.229264
 30
0.000000
 40
0.487429
 50
-152.093006
 51
-111.465193
  6
CONTINUOUS
  0
ARC
  8
WHITE
 10
1.964245
 20
12.412929
 30
0.000000
 40
0.728594
 50
-118.992970
 51
-98.598135
  6
CONTINUOUS
  0
ARC
  8
WHITE
 10
2.095618
 20
12.663760
 30
0.000000
 40
1.000522
 50
-103.896857
 51
-81.589171
  6
CONTINUOUS
  0
ARC
  8
WHITE
 10
2.242899
 20
12.285863
 30
0.000000
 40
0.611865
 50
-90.087520
 51
-71.856236
  6
CONTINUOUS
  0
LINE
  8
WHITE
 10
2.433435
 20
11.704421
 30
0.000000
 11
2.622272
 21
11.751132
 31
0.000000
  6
CONTINUOUS
  0
ARC
  8
WHITE
 10
-0.206724
 20
10.286506
 30
0.000000
 40
3.185647
 50
24.304071
 51
27.371474
  6
CONTINUOUS
  0
LINE
  8
WHITE
 10
2.696592
 20
11.597652
 30
0.000000
 11
2.810004
 21
11.520211
 31
0.000000
  6
CONTINUOUS
  0
ARC
  8
WHITE
 10
2.935758
 20
11.959703
 30
0.000000
 40
0.457129
 50
-105.967680
 51
-75.934294
  6
CONTINUOUS
  0
ARC
  8
WHITE
 10
2.897539
 20
12.192965
 30
0.000000
 40
0.692964
 50
-77.556530
 51
-18.110894
  6
CONTINUOUS
  0
LINE
  8
WHITE
 10
3.556172
 20
11.977552
 30
0.000000
 11
3.548492
 21
11.993932
 31
0.000000
  6
CONTINUOUS
  0
LINE
  8
WHITE
 10
3.548492
 20
11.993932
 30
0.000000
 11
3.531032
 21
11.989212
 31
0.000000
  6
CONTINUOUS
  0
ARC
  8
WHITE
 10
2.862346
 20
12.499332
 30
0.000000
 40
0.841049
 50
-59.316277
 51
-37.338883
  6
CONTINUOUS
  0
LINE
  8
WHITE
 10
3.291532
 20
11.776032
 30
0.000000
 11
3.283252
 21
11.781152
 31
0.000000
  6
CONTINUOUS
  0
LINE
  8
WHITE
 10
3.283252
 20
11.781152
 30
0.000000
 11
3.279872
 21
11.790292
 31
0.000000
  6
CONTINUOUS
  0
ARC
  8
WHITE
 10
2.356307
 20
12.713036
 30
0.000000
 40
1.305537
 50
-44.974540
 51
-20.596834
  6
CONTINUOUS
  0
LINE
  8
WHITE
 10
3.578393
 20
12.253761
 30
0.000000
 11
3.652653
 21
12.448250
 31
0.000000
  6
CONTINUOUS
  0
ARC
  8
WHITE
 10
4.392824
 20
12.084523
 30
0.000000
 40
0.824713
 50
103.223814
 51
153.830035
  6
CONTINUOUS
  0
ARC
  8
WHITE
 10
4.396486
 20
12.066697
 30
0.000000
 40
0.842904
 50
78.406261
 51
103.188957
  6
CONTINUOUS
  0
ARC
  8
WHITE
 10
4.407139
 20
12.122755
 30
0.000000
 40
0.785849
 50
65.063199
 51
78.345720
  6
CONTINUOUS
  0
ARC
  8
WHITE
 10
5.591665
 20
14.195410
 30
0.000000
 40
1.605532
 50
-122.100857
 51
-115.620019
  6
CONTINUOUS
  0
LINE
  8
WHITE
 10
4.897432
 20
12.747732
 30
0.000000
 11
5.301592
 21
12.915126
 31
0.000000
  6
CONTINUOUS
  0
ARC
  8
WHITE
 10
1.917779
 20
18.400219
 30
0.000000
 40
6.444876
 50
-58.329122
 51
-55.412407
  6
CONTINUOUS
  0
ARC
  8
WHITE
 10
3.206006
 20
16.501708
 30
0.000000
 40
4.150664
 50
-55.175333
 51
-48.386161
  6
CONTINUOUS
  0
ARC
  8
WHITE
 10
6.841218
 20
12.402053
 30
0.000000
 40
1.328571
 50
110.179468
 51
131.407381
  6
CONTINUOUS
  0
LINE
  8
WHITE
 10
6.382912
 20
13.649072
 30
0.000000
 11
6.389672
 21
13.642112
 31
0.000000
  6
CONTINUOUS
  0
LINE
  8
WHITE
 10
6.389672
 20
13.642112
 30
0.000000
 11
6.390772
 21
13.632452
 31
0.000000
  6
CONTINUOUS
  0
ARC
  8
WHITE
 10
7.608659
 20
11.850049
 30
0.000000
 40
2.158752
 50
124.344168
 51
137.539024
  6
CONTINUOUS
  0
ARC
  8
WHITE
 10
10.180999
 20
9.571629
 30
0.000000
 40
5.594874
 50
138.109244
 51
142.570660
  6
CONTINUOUS
  0
ARC
  8
WHITE
 10
3.260830
 20
14.766949
 30
0.000000
 40
3.059136
 50
-50.201315
 51
-35.924510
  6
CONTINUOUS
  0
LINE
  8
WHITE
 10
5.218959
 20
12.416620
 30
0.000000
 11
5.042172
 21
12.303285
 31
0.000000
  6
CONTINUOUS
  0
ARC
  8
WHITE
 10
5.120735
 20
12.245498
 30
0.000000
 40
0.097526
 50
143.663740
 51
181.110106
  6
CONTINUOUS
  0
LINE
  8
WHITE
 10
5.023227
 20
12.243609
 30
0.000000
 11
5.004698
 21
12.119187
 31
0.000000
  6
CONTINUOUS
  0
ARC
  8
WHITE
 10
4.564428
 20
12.142289
 30
0.000000
 40
0.440875
 50
-33.669229
 51
-3.003599
  6
CONTINUOUS
  0
ARC
  8
WHITE
 10
4.533580
 20
12.034331
 30
0.000000
 40
0.420525
 50
-47.043412
 51
-18.935589
  6
CONTINUOUS
  0
ARC
  8
WHITE
 10
3.651340
 20
12.745080
 30
0.000000
 40
1.550318
 50
-47.724551
 51
-41.069544
  6
CONTINUOUS
  0
LINE
  8
WHITE
 10
4.694232
 20
11.597970
 30
0.000000
 11
4.560582
 21
11.513680
 31
0.000000
  6
CONTINUOUS
  0
ARC
  8
WHITE
 10
4.369669
 20
11.751596
 30
0.000000
 40
0.305044
 50
-77.269663
 51
-51.255011
  6
CONTINUOUS
  0
ARC
  8
WHITE
 10
3.994284
 20
12.558897
 30
0.000000
 40
1.190204
 50
-91.418642
 51
-68.168819
  6
CONTINUOUS
  0
ARC
  8
WHITE
 10
4.236573
 20
14.524045
 30
0.000000
 40
3.166669
 50
-99.293090
 51
-94.923027
  6
CONTINUOUS
  0
LINE
  8
WHITE
 10
3.725204
 20
11.398938
 30
0.000000
 11
3.496552
 21
11.478052
 31
0.000000
  6
CONTINUOUS
  0
LINE
  8
WHITE
 10
3.496552
 20
11.478052
 30
0.000000
 11
3.479732
 21
11.474632
 31
0.000000
  6
CONTINUOUS
  0
ARC
  8
WHITE
 10
3.766811
 20
11.196662
 30
0.000000
 40
0.399603
 50
135.923612
 51
150.263069
  6
CONTINUOUS
  0
ARC
  8
WHITE
 10
3.853121
 20
12.120212
 30
0.000000
 40
0.844901
 50
-120.852412
 51
-112.211723
  6
CONTINUOUS
  0
ARC
  8
WHITE
 10
3.007298
 20
10.627972
 30
0.000000
 40
0.883898
 50
45.179058
 51
53.446569
  6
CONTINUOUS
  0
LINE
  8
WHITE
 10
3.630352
 20
11.254932
 30
0.000000
 11
3.651912
 21
11.157612
 31
0.000000
  6
CONTINUOUS
  0
LINE
  8
WHITE
 10
3.651912
 20
11.157612
 30
0.000000
 11
3.584032
 21
11.043472
 31
0.000000
  6
CONTINUOUS
  0
LINE
  8
WHITE
 10
3.584032
 20
11.043472
 30
0.000000
 11
3.586372
 21
11.021612
 31
0.000000
  6
CONTINUOUS
  0
ARC
  8
WHITE
 10
3.993336
 20
11.711203
 30
0.000000
 40
0.800722
 50
-120.547122
 51
-93.948513
  6
CONTINUOUS
  0
ARC
  8
WHITE
 10
4.019093
 20
11.595916
 30
0.000000
 40
0.688305
 50
-96.749406
 51
-73.500542
  6
CONTINUOUS
  0
ARC
  8
WHITE
 10
-5.216607
 20
50.967699
 30
0.000000
 40
41.127701
 50
-76.743276
 51
-76.160472
  6
CONTINUOUS
  0
ARC
  8
WHITE
 10
6.785607
 20
-13.380022
 30
0.000000
 40
24.509726
 50
94.088405
 51
95.066097
  6
CONTINUOUS
  0
LINE
  8
WHITE
 10
5.038172
 20
11.067332
 30
0.000000
 11
5.050812
 21
11.059492
 31
0.000000
  6
CONTINUOUS
  0
LINE
  8
WHITE
 10
5.050812
 20
11.059492
 30
0.000000
 11
4.954730
 21
10.872150
 31
0.000000
  6
CONTINUOUS
  0
ARC
  8
WHITE
 10
5.494426
 20
10.665852
 30
0.000000
 40
0.577781
 50
159.080741
 51
190.461856
  6
CONTINUOUS
  0
ARC
  8
WHITE
 10
5.337824
 20
10.637361
 30
0.000000
 40
0.418610
 50
-169.480825
 51
-147.836400
  6
CONTINUOUS
  0
ARC
  8
WHITE
 10
4.314353
 20
9.852670
 30
0.000000
 40
0.873714
 50
29.657188
 51
40.020253
  6
CONTINUOUS
  0
ARC
  8
WHITE
 10
5.001894
 20
10.453329
 30
0.000000
 40
0.182977
 50
-90.173162
 51
-66.924138
  6
CONTINUOUS
  0
ARC
  8
WHITE
 10
9.797866
 20
-38.306709
 30
0.000000
 40
48.813292
 50
95.639137
 51
95.981159
  6
CONTINUOUS
  0
ARC
  8
WHITE
 10
23.577425
 20
-53.323570
 30
0.000000
 40
66.305060
 50
106.530932
 51
106.971632
  6
CONTINUOUS
  0
ARC
  8
WHITE
 10
3.840013
 20
11.962868
 30
0.000000
 40
1.907859
 50
-89.890449
 51
-78.416641
  6
CONTINUOUS
  0
ARC
  8
WHITE
 10
3.491151
 20
28.516306
 30
0.000000
 40
18.464659
 50
-89.796215
 51
-88.906096
  6
CONTINUOUS
  0
ARC
  8
WHITE
 10
3.554300
 20
8.651286
 30
0.000000
 40
1.400480
 50
89.896713
 51
98.697449
  6
CONTINUOUS
  0
ARC
  8
WHITE
 10
3.996452
 20
8.073327
 30
0.000000
 40
2.068424
 50
108.430131
 51
112.891336
  6
CONTINUOUS
  0
ARC
  8
WHITE
 10
3.959785
 20
8.746397
 30
0.000000
 40
1.452116
 50
121.926251
 51
141.011747
  6
CONTINUOUS
  0
LINE
  8
WHITE
 10
2.831092
 20
9.660012
 30
0.000000
 11
2.828632
 21
9.646392
 31
0.000000
  6
CONTINUOUS
  0
LINE
  8
WHITE
 10
2.828632
 20
9.646392
 30
0.000000
 11
3.013114
 21
9.576269
 31
0.000000
  6
CONTINUOUS
  0
ARC
  8
WHITE
 10
2.802282
 20
9.180445
 30
0.000000
 40
0.448472
 50
42.924899
 51
61.958395
  6
CONTINUOUS
  0
ARC
  8
WHITE
 10
3.354179
 20
9.670791
 30
0.000000
 40
0.290085
 50
-140.396872
 51
-96.309643
  6
CONTINUOUS
  0
ARC
  8
WHITE
 10
3.330653
 20
9.756375
 30
0.000000
 40
0.374006
 50
-91.280043
 51
-74.296670
  6
CONTINUOUS
  0
ARC
  8
WHITE
 10
3.750079
 20
8.834335
 30
0.000000
 40
0.645824
 50
109.643806
 51
119.518414
  6
CONTINUOUS
  0
LINE
  8
WHITE
 10
3.532972
 20
9.442572
 30
0.000000
 11
3.695092
 21
9.353672
 31
0.000000
  6
CONTINUOUS
  0
LINE
  8
WHITE
 10
3.695092
 20
9.353672
 30
0.000000
 11
3.842532
 21
9.229752
 31
0.000000
  6
CONTINUOUS
  0
LINE
  8
WHITE
 10
3.842532
 20
9.229752
 30
0.000000
 11
3.955572
 21
9.077712
 31
0.000000
  6
CONTINUOUS
  0
LINE
  8
WHITE
 10
3.955572
 20
9.077712
 30
0.000000
 11
4.014492
 21
8.904352
 31
0.000000
  6
CONTINUOUS
  0
LINE
  8
WHITE
 10
4.014492
 20
8.904352
 30
0.000000
 11
4.026252
 21
8.892392
 31
0.000000
  6
CONTINUOUS
  0
LINE
  8
WHITE
 10
4.026252
 20
8.892392
 30
0.000000
 11
4.236872
 21
8.848992
 31
0.000000
  6
CONTINUOUS
  0
LINE
  8
WHITE
 10
4.236872
 20
8.848992
 30
0.000000
 11
4.436012
 21
8.772652
 31
0.000000
  6
CONTINUOUS
  0
LINE
  8
WHITE
 10
4.436012
 20
8.772652
 30
0.000000
 11
4.453632
 21
8.776072
 31
0.000000
  6
CONTINUOUS
  0
ARC
  8
WHITE
 10
3.672617
 20
9.422055
 30
0.000000
 40
1.013547
 50
-39.594401
 51
-14.387502
  6
CONTINUOUS
  0
ARC
  8
WHITE
 10
4.103470
 20
9.306508
 30
0.000000
 40
0.567516
 50
-13.896252
 51
8.612660
  6
CONTINUOUS
  0
ARC
  8
WHITE
 10
3.891482
 20
9.216877
 30
0.000000
 40
0.792580
 50
12.727583
 51
20.785953
  6
CONTINUOUS
  0
ARC
  8
WHITE
 10
4.925437
 20
9.695638
 30
0.000000
 40
0.353312
 50
-163.952754
 51
-146.015300
  6
CONTINUOUS
  0
LINE
  8
WHITE
 10
4.585892
 20
9.597972
 30
0.000000
 11
4.602712
 21
9.602012
 31
0.000000
  6
CONTINUOUS
  0
LINE
  8
WHITE
 10
4.602712
 20
9.602012
 30
0.000000
 11
5.021692
 21
9.416452
 31
0.000000
  6
CONTINUOUS
  0
LINE
  8
WHITE
 10
5.021692
 20
9.416452
 30
0.000000
 11
5.029812
 21
9.406872
 31
0.000000
  6
CONTINUOUS
  0
ARC
  8
WHITE
 10
12.456887
 20
3.637249
 30
0.000000
 40
9.404786
 50
142.158637
 51
148.524515
  6
CONTINUOUS
  0
ARC
  8
WHITE
 10
6.425563
 20
7.273153
 30
0.000000
 40
2.362953
 50
147.355039
 51
160.025620
  6
CONTINUOUS
  0
ARC
  8
WHITE
 10
5.097674
 20
7.724545
 30
0.000000
 40
0.961196
 50
158.274757
 51
173.849141
  6
CONTINUOUS
  0
ARC
  8
WHITE
 10
4.556229
 20
7.764427
 30
0.000000
 40
0.418998
 50
171.337408
 51
207.075781
  6
CONTINUOUS
  0
LINE
  8
WHITE
 10
4.183152
 20
7.573712
 30
0.000000
 11
4.204292
 21
7.570852
 31
0.000000
  6
CONTINUOUS
  0
ARC
  8
WHITE
 10
3.690170
 20
8.008531
 30
0.000000
 40
0.675192
 50
-40.408191
 51
-2.475131
  6
CONTINUOUS
  0
LINE
  8
WHITE
 10
4.364732
 20
7.979372
 30
0.000000
 11
4.375892
 21
7.991952
 31
0.000000
  6
CONTINUOUS
  0
ARC
  8
WHITE
 10
4.111656
 20
7.698542
 30
0.000000
 40
0.394854
 50
31.523061
 51
47.994834
  6
CONTINUOUS
  0
ARC
  8
WHITE
 10
4.822022
 20
8.218993
 30
0.000000
 40
0.488171
 50
-139.967105
 51
-93.506454
  6
CONTINUOUS
  0
ARC
  8
WHITE
 10
4.733280
 20
8.619692
 30
0.000000
 40
0.889906
 50
-86.205956
 51
-60.644800
  6
CONTINUOUS
  0
LINE
  8
WHITE
 10
5.169532
 20
7.844052
 30
0.000000
 11
5.186692
 21
7.841672
 31
0.000000
  6
CONTINUOUS
  0
LINE
  8
WHITE
 10
5.186692
 20
7.841672
 30
0.000000
 11
5.188412
 21
7.824412
 31
0.000000
  6
CONTINUOUS
  0
ARC
  8
WHITE
 10
4.422229
 20
8.308802
 30
0.000000
 40
0.906460
 50
-50.506284
 51
-32.301571
  6
CONTINUOUS
  0
LINE
  8
WHITE
 10
4.998732
 20
7.609292
 30
0.000000
 11
4.995372
 21
7.591532
 31
0.000000
  6
CONTINUOUS
  0
LINE
  8
WHITE
 10
4.995372
 20
7.591532
 30
0.000000
 11
5.012252
 21
7.585132
 31
0.000000
  6
CONTINUOUS
  0
ARC
  8
WHITE
 10
4.376327
 20
9.279911
 30
0.000000
 40
1.810159
 50
-69.432610
 51
-36.730932
  6
CONTINUOUS
  0
ARC
  8
WHITE
 10
28.257517
 20
-7.511394
 30
0.000000
 40
27.384089
 50
143.374248
 51
144.995258
  6
CONTINUOUS
  0
ARC
  8
WHITE
 10
8.208195
 20
7.454624
 30
0.000000
 40
2.365532
 50
130.505004
 51
144.581300
  6
CONTINUOUS
  0
ARC
  8
WHITE
 10
7.151253
 20
8.655059
 30
0.000000
 40
0.766656
 50
96.135271
 51
128.715159
  6
CONTINUOUS
  0
ARC
  8
WHITE
 10
5.971038
 20
15.750512
 30
0.000000
 40
6.427712
 50
-80.161821
 51
-77.248007
  6
CONTINUOUS
  0
ARC
  8
WHITE
 10
7.149566
 20
10.740819
 30
0.000000
 40
1.282191
 50
-79.199536
 51
-68.245030
  6
CONTINUOUS
  0
ARC
  8
WHITE
 10
10.934822
 20
2.002394
 30
0.000000
 40
8.241473
 50
112.402069
 51
113.680147
  6
CONTINUOUS
  0
ARC
  8
WHITE
 10
7.555452
 20
10.322304
 30
0.000000
 40
0.739901
 50
-71.194356
 51
-49.835029
  6
CONTINUOUS
  0
ARC
  8
WHITE
 10
12.151893
 20
4.076610
 30
0.000000
 40
7.016649
 50
123.696587
 51
125.948834
  6
CONTINUOUS
  0
LINE
  8
WHITE
 10
8.259092
 20
9.914372
 30
0.000000
 11
8.272512
 21
9.902312
 31
0.000000
  6
CONTINUOUS
  0
ARC
  8
WHITE
 10
6.486619
 20
7.500328
 30
0.000000
 40
2.121680
 50
136.401858
 51
156.134164
  6
CONTINUOUS
  0
ARC
  8
WHITE
 10
6.438283
 20
7.559271
 30
0.000000
 40
2.046050
 50
126.434042
 51
136.663822
  6
CONTINUOUS
  0
ARC
  8
WHITE
 10
8.742632
 20
3.756329
 30
0.000000
 40
6.486850
 50
119.633259
 51
122.857939
  6
CONTINUOUS
  0
LINE
  8
WHITE
 10
5.535232
 20
9.394752
 30
0.000000
 11
5.549212
 21
9.393932
 31
0.000000
  6
CONTINUOUS
  0
LINE
  8
WHITE
 10
5.549212
 20
9.393932
 30
0.000000
 11
5.555312
 21
9.381332
 31
0.000000
  6
CONTINUOUS
  0
LINE
  8
WHITE
 10
5.555312
 20
9.381332
 30
0.000000
 11
5.526192
 21
9.165552
 31
0.000000
  6
CONTINUOUS
  0
LINE
  8
WHITE
 10
5.526192
 20
9.165552
 30
0.000000
 11
5.464952
 21
8.978472
 31
0.000000
  6
CONTINUOUS
  0
LINE
  8
WHITE
 10
5.464952
 20
8.978472
 30
0.000000
 11
5.307932
 21
8.734612
 31
0.000000
  6
CONTINUOUS
  0
LINE
  8
WHITE
 10
5.307932
 20
8.734612
 30
0.000000
 11
5.093312
 21
8.553032
 31
0.000000
  6
CONTINUOUS
  0
LINE
  8
WHITE
 10
5.093312
 20
8.553032
 30
0.000000
 11
4.838932
 21
8.424512
 31
0.000000
  6
CONTINUOUS
  0
LINE
  8
WHITE
 10
4.838932
 20
8.424512
 30
0.000000
 11
4.562612
 21
8.339872
 31
0.000000
  6
CONTINUOUS
  0
LINE
  8
WHITE
 10
4.562612
 20
8.339872
 30
0.000000
 11
4.548592
 21
8.344232
 31
0.000000
  6
CONTINUOUS
  0
LINE
  8
WHITE
 10
4.548592
 20
8.344232
 30
0.000000
 11
4.546352
 21
8.358752
 31
0.000000
  6
CONTINUOUS
  0
ARC
  8
WHITE
 10
5.543044
 20
12.743292
 30
0.000000
 40
0.679124
 50
-117.056517
 51
-103.183807
  6
CONTINUOUS
  0
ARC
  8
WHITE
 10
5.408951
 20
12.248399
 30
0.000000
 40
0.167628
 50
-97.127180
 51
-47.528228
  6
CONTINUOUS
  0
ARC
  8
WHITE
 10
5.112860
 20
12.572419
 30
0.000000
 40
0.606557
 50
-47.564779
 51
-23.731992
  6
CONTINUOUS
  0
ARC
  8
WHITE
 10
9.175341
 20
10.680047
 30
0.000000
 40
3.875218
 50
143.610704
 51
154.828264
  6
CONTINUOUS
  0
LINE
  8
WHITE
 10
6.055772
 20
12.979092
 30
0.000000
 11
6.065352
 21
12.976612
 31
0.000000
  6
CONTINUOUS
  0
LINE
  8
WHITE
 10
6.065352
 20
12.976612
 30
0.000000
 11
6.071372
 21
12.968752
 31
0.000000
  6
CONTINUOUS
  0
ARC
  8
WHITE
 10
7.371101
 20
12.247878
 30
0.000000
 40
1.486255
 50
150.985754
 51
162.269712
  6
CONTINUOUS
  0
ARC
  8
WHITE
 10
19.373915
 20
7.531124
 30
0.000000
 40
14.379772
 50
158.931170
 51
160.975948
  6
CONTINUOUS
  0
ARC
  8
WHITE
 10
4.628150
 20
12.546469
 30
0.000000
 40
1.197209
 50
-52.723677
 51
-15.902756
  6
CONTINUOUS
  0
ARC
  8
WHITE
 10
4.335224
 20
12.898809
 30
0.000000
 40
1.655105
 50
-78.674720
 51
-52.042038
  6
CONTINUOUS
  0
LINE
  8
WHITE
 10
4.660252
 20
11.275932
 30
0.000000
 11
4.644312
 21
11.285552
 31
0.000000
  6
CONTINUOUS
  0
LINE
  8
WHITE
 10
4.644312
 20
11.285552
 30
0.000000
 11
4.651812
 21
11.302572
 31
0.000000
  6
CONTINUOUS
  0
ARC
  8
WHITE
 10
4.148366
 20
12.391286
 30
0.000000
 40
1.199481
 50
-65.183101
 51
-39.298526
  6
CONTINUOUS
  0
ARC
  8
WHITE
 10
4.627632
 20
12.008241
 30
0.000000
 40
0.586036
 50
-39.995335
 51
-13.425616
  6
CONTINUOUS
  0
ARC
  8
WHITE
 10
4.865860
 20
11.993666
 30
0.000000
 40
0.353336
 50
-20.111160
 51
1.825028
  6
CONTINUOUS
  0
ARC
  8
WHITE
 10
5.909035
 20
11.994482
 30
0.000000
 40
0.690097
 50
167.954918
 51
179.133455
  6
CONTINUOUS
  0
LINE
  8
WHITE
 10
7.692652
 20
11.844192
 30
0.000000
 11
7.675532
 21
11.837152
 31
0.000000
  6
CONTINUOUS
  0
LINE
  8
WHITE
 10
7.675532
 20
11.837152
 30
0.000000
 11
7.680172
 21
11.819232
 31
0.000000
  6
CONTINUOUS
  0
LINE
  8
WHITE
 10
7.680172
 20
11.819232
 30
0.000000
 11
7.697192
 21
11.807672
 31
0.000000
  6
CONTINUOUS
  0
LINE
  8
WHITE
 10
7.697192
 20
11.807672
 30
0.000000
 11
8.016892
 21
11.549552
 31
0.000000
  6
CONTINUOUS
  0
LINE
  8
WHITE
 10
8.016892
 20
11.549552
 30
0.000000
 11
8.298992
 21
11.245852
 31
0.000000
  6
CONTINUOUS
  0
LINE
  8
WHITE
 10
8.298992
 20
11.245852
 30
0.000000
 11
8.540312
 21
10.908012
 31
0.000000
  6
CONTINUOUS
  0
LINE
  8
WHITE
 10
8.540312
 20
10.908012
 30
0.000000
 11
8.737732
 21
10.547492
 31
0.000000
  6
CONTINUOUS
  0
LINE
  8
WHITE
 10
8.737732
 20
10.547492
 30
0.000000
 11
8.750992
 21
10.539232
 31
0.000000
  6
CONTINUOUS
  0
LINE
  8
WHITE
 10
8.750992
 20
10.539232
 30
0.000000
 11
8.763572
 21
10.548492
 31
0.000000
  6
CONTINUOUS
  0
LINE
  8
WHITE
 10
8.763572
 20
10.548492
 30
0.000000
 11
8.814332
 21
10.741672
 31
0.000000
  6
CONTINUOUS
  0
LINE
  8
WHITE
 10
8.814332
 20
10.741672
 30
0.000000
 11
8.822692
 21
10.945752
 31
0.000000
  6
CONTINUOUS
  0
LINE
  8
WHITE
 10
8.822692
 20
10.945752
 30
0.000000
 11
8.780132
 21
11.141712
 31
0.000000
  6
CONTINUOUS
  0
LINE
  8
WHITE
 10
8.780132
 20
11.141712
 30
0.000000
 11
8.678052
 21
11.310492
 31
0.000000
  6
CONTINUOUS
  0
LINE
  8
WHITE
 10
8.678052
 20
11.310492
 30
0.000000
 11
8.550772
 21
11.423532
 31
0.000000
  6
CONTINUOUS
  0
LINE
  8
WHITE
 10
8.550772
 20
11.423532
 30
0.000000
 11
8.388532
 21
11.529872
 31
0.000000
  6
CONTINUOUS
  0
LINE
  8
WHITE
 10
8.388532
 20
11.529872
 30
0.000000
 11
8.049592
 21
11.703032
 31
0.000000
  6
CONTINUOUS
  0
LINE
  8
WHITE
 10
8.049592
 20
11.703032
 30
0.000000
 11
7.692652
 21
11.844192
 31
0.000000
  6
CONTINUOUS
  0
ARC
  8
WHITE
 10
7.852134
 20
7.350212
 30
0.000000
 40
3.396547
 50
94.155101
 51
105.644209
  6
CONTINUOUS
  0
ARC
  8
WHITE
 10
7.326659
 20
9.202092
 30
0.000000
 40
1.471584
 50
105.386226
 51
131.898681
  6
CONTINUOUS
  0
LINE
  8
WHITE
 10
6.343912
 20
10.297432
 30
0.000000
 11
6.341272
 21
10.281432
 31
0.000000
  6
CONTINUOUS
  0
LINE
  8
WHITE
 10
6.341272
 20
10.281432
 30
0.000000
 11
6.355552
 21
10.273712
 31
0.000000
  6
CONTINUOUS
  0
LINE
  8
WHITE
 10
6.355552
 20
10.273712
 30
0.000000
 11
6.595537
 21
10.298203
 31
0.000000
  6
CONTINUOUS
  0
ARC
  8
WHITE
 10
6.571910
 20
10.692501
 30
0.000000
 40
0.395005
 50
-86.570915
 51
-55.950653
  6
CONTINUOUS
  0
ARC
  8
WHITE
 10
7.968147
 20
8.022024
 30
0.000000
 40
2.621325
 50
84.336127
 51
116.632980
  6
CONTINUOUS
  0
LINE
  8
WHITE
 10
8.226852
 20
10.630552
 30
0.000000
 11
8.242152
 21
10.640772
 31
0.000000
  6
CONTINUOUS
  0
LINE
  8
WHITE
 10
8.242152
 20
10.640772
 30
0.000000
 11
8.234232
 21
10.657372
 31
0.000000
  6
CONTINUOUS
  0
ARC
  8
WHITE
 10
6.967383
 20
7.721856
 30
0.000000
 40
3.197211
 50
66.656948
 51
81.104593
  6
CONTINUOUS
  0
LINE
  8
WHITE
 10
7.461772
 20
10.880612
 30
0.000000
 11
7.446872
 21
10.870072
 31
0.000000
  6
CONTINUOUS
  0
LINE
  8
WHITE
 10
7.446872
 20
10.870072
 30
0.000000
 11
7.454912
 21
10.853692
 31
0.000000
  6
CONTINUOUS
  0
ARC
  8
WHITE
 10
7.161680
 20
10.154762
 30
0.000000
 40
0.757950
 50
53.371413
 51
67.239786
  6
CONTINUOUS
  0
LINE
  8
WHITE
 10
7.613892
 20
10.763032
 30
0.000000
 11
7.618972
 21
10.747632
 31
0.000000
  6
CONTINUOUS
  0
LINE
  8
WHITE
 10
7.618972
 20
10.747632
 30
0.000000
 11
7.606032
 21
10.737832
 31
0.000000
  6
CONTINUOUS
  0
ARC
  8
WHITE
 10
7.905379
 20
12.192926
 30
0.000000
 40
1.081711
 50
53.687833
 51
67.539317
  6
CONTINUOUS
  0
ARC
  8
WHITE
 10
6.833777
 20
10.194741
 30
0.000000
 40
3.345427
 50
63.650178
 51
67.563321
  6
CONTINUOUS
  0
LINE
  8
WHITE
 10
8.110600
 20
13.286926
 30
0.000000
 11
7.916909
 21
13.337463
 31
0.000000
  6
CONTINUOUS
  0
ARC
  8
WHITE
 10
7.757273
 20
12.899079
 30
0.000000
 40
0.466545
 50
69.991082
 51
91.487521
  6
CONTINUOUS
  0
LINE
  8
WHITE
 10
7.745161
 20
13.365467
 30
0.000000
 11
7.591941
 21
13.368931
 31
0.000000
  6
CONTINUOUS
  0
ARC
  8
WHITE
 10
7.559415
 20
12.733810
 30
0.000000
 40
0.635953
 50
87.068339
 51
111.179558
  6
CONTINUOUS
  0
LINE
  8
WHITE
 10
7.329651
 20
13.326806
 30
0.000000
 11
7.232559
 21
13.300559
 31
0.000000
  6
CONTINUOUS
  0
ARC
  8
WHITE
 10
7.189970
 20
13.373796
 30
0.000000
 40
0.084720
 50
-118.093720
 51
-59.820865
  6
CONTINUOUS
  0
LINE
  8
WHITE
 10
7.150074
 20
13.299058
 30
0.000000
 11
7.089202
 21
13.346219
 31
0.000000
  6
CONTINUOUS
  0
ARC
  8
WHITE
 10
6.945997
 20
13.191420
 30
0.000000
 40
0.210880
 50
47.228078
 51
83.787378
  6
CONTINUOUS
  0
ARC
  8
WHITE
 10
6.802277
 20
12.861926
 30
0.000000
 40
0.564272
 50
72.833849
 51
93.332151
  6
CONTINUOUS
  0
ARC
  8
WHITE
 10
6.820797
 20
11.675579
 30
0.000000
 40
1.750418
 50
91.680018
 51
98.288803
  6
CONTINUOUS
  0
LINE
  8
WHITE
 10
6.568452
 20
13.407712
 30
0.000000
 11
6.552692
 21
13.417672
 31
0.000000
  6
CONTINUOUS
  0
LINE
  8
WHITE
 10
6.552692
 20
13.417672
 30
0.000000
 11
6.560632
 21
13.434532
 31
0.000000
  6
CONTINUOUS
  0
ARC
  8
WHITE
 10
7.276008
 20
11.682383
 30
0.000000
 40
1.892562
 50
79.901615
 51
112.209446
  6
CONTINUOUS
  0
ARC
  8
WHITE
 10
7.270180
 20
11.759370
 30
0.000000
 40
1.817891
 50
62.467943
 51
79.295327
  6
CONTINUOUS
  0
ARC
  8
WHITE
 10
-0.864979
 20
-1.595963
 30
0.000000
 40
17.452240
 50
58.173932
 51
59.050156
  6
CONTINUOUS
  0
LINE
  8
WHITE
 10
8.338328
 20
13.232382
 30
0.000000
 11
8.545952
 21
13.064572
 31
0.000000
  6
CONTINUOUS
  0
ARC
  8
WHITE
 10
5.200900
 20
11.763398
 30
0.000000
 40
2.428185
 50
131.165919
 51
148.580472
  6
CONTINUOUS
  0
ARC
  8
WHITE
 10
5.128835
 20
11.792704
 30
0.000000
 40
2.358947
 50
112.380001
 51
130.316743
  6
CONTINUOUS
  0
ARC
  8
WHITE
 10
5.118027
 20
10.966696
 30
0.000000
 40
3.135459
 50
106.439715
 51
123.282245
  6
CONTINUOUS
  0
ARC
  8
WHITE
 10
5.297543
 20
10.635533
 30
0.000000
 40
3.510959
 50
122.765598
 51
130.287236
  6
CONTINUOUS
  0
ARC
  8
WHITE
 10
11.019604
 20
4.515726
 30
0.000000
 40
11.886215
 50
132.252734
 51
134.473875
  6
CONTINUOUS
  0
LINE
  8
WHITE
 10
2.692312
 20
12.997372
 30
0.000000
 11
2.691112
 21
12.979572
 31
0.000000
  6
CONTINUOUS
  0
LINE
  8
WHITE
 10
2.691112
 20
12.979572
 30
0.000000
 11
2.708352
 21
12.974932
 31
0.000000
  6
CONTINUOUS
  0
LINE
  8
WHITE
 10
2.708352
 20
12.974932
 30
0.000000
 11
2.903492
 21
13.034612
 31
0.000000
  6
CONTINUOUS
  0
LINE
  8
WHITE
 10
2.903492
 20
13.034612
 30
0.000000
 11
3.113052
 21
13.022332
 31
0.000000
  6
CONTINUOUS
  0
LINE
  8
WHITE
 10
3.113052
 20
13.022332
 30
0.000000
 11
3.128752
 21
13.029212
 31
0.000000
  6
CONTINUOUS
  0
ARC
  8
WHITE
 10
7.940971
 20
7.646427
 30
0.000000
 40
3.421468
 50
105.998857
 51
124.867747
  6
CONTINUOUS
  0
LINE
  8
WHITE
 10
6.997952
 20
10.935372
 30
0.000000
 11
7.009092
 21
10.949412
 31
0.000000
  6
CONTINUOUS
  0
LINE
  8
WHITE
 10
7.009092
 20
10.949412
 30
0.000000
 11
6.997392
 21
10.962972
 31
0.000000
  6
CONTINUOUS
  0
LINE
  8
WHITE
 10
6.997392
 20
10.962972
 30
0.000000
 11
6.696552
 21
10.995392
 31
0.000000
  6
CONTINUOUS
  0
LINE
  8
WHITE
 10
6.696552
 20
10.995392
 30
0.000000
 11
6.397632
 21
10.986352
 31
0.000000
  6
CONTINUOUS
  0
ARC
  8
WHITE
 10
7.129638
 20
9.930475
 30
0.000000
 40
1.284799
 50
124.732342
 51
155.097514
  6
CONTINUOUS
  0
LINE
  8
WHITE
 10
5.964292
 20
10.471472
 30
0.000000
 11
5.967572
 21
10.454372
 31
0.000000
  6
CONTINUOUS
  0
LINE
  8
WHITE
 10
5.967572
 20
10.454372
 30
0.000000
 11
5.984972
 21
10.453652
 31
0.000000
  6
CONTINUOUS
  0
ARC
  8
WHITE
 10
5.608004
 20
12.484123
 30
0.000000
 40
1.896742
 50
71.743732
 51
91.203522
  6
CONTINUOUS
  0
ARC
  8
WHITE
 10
5.547157
 20
15.380219
 30
0.000000
 40
0.999993
 50
-98.025236
 51
-88.796242
  6
CONTINUOUS
  0
ARC
  8
WHITE
 10
5.444322
 20
14.683184
 30
0.000000
 40
0.295462
 50
-120.544836
 51
-97.149588
  6
CONTINUOUS
  0
ARC
  8
WHITE
 10
5.331588
 20
14.493891
 30
0.000000
 40
0.075150
 50
101.821651
 51
240.132870
  6
CONTINUOUS
  0
ARC
  8
WHITE
 10
5.447481
 20
14.177312
 30
0.000000
 40
0.411633
 50
83.394484
 51
108.599070
  6
CONTINUOUS
  0
ARC
  8
WHITE
 10
5.334562
 20
13.090250
 30
0.000000
 40
1.504523
 50
54.151724
 51
83.884935
  6
CONTINUOUS
  0
LINE
  8
WHITE
 10
6.215672
 20
14.309772
 30
0.000000
 11
6.219492
 21
14.291752
 31
0.000000
  6
CONTINUOUS
  0
LINE
  8
WHITE
 10
6.219492
 20
14.291752
 30
0.000000
 11
6.202192
 21
14.285392
 31
0.000000
  6
CONTINUOUS
  0
ARC
  8
WHITE
 10
6.565769
 20
11.958717
 30
0.000000
 40
0.245051
 50
157.561175
 51
193.096069
  6
CONTINUOUS
  0
ARC
  8
WHITE
 10
7.084062
 20
11.678435
 30
0.000000
 40
0.833338
 50
120.447320
 51
153.347534
  6
CONTINUOUS
  0
LINE
  8
WHITE
 10
6.661772
 20
12.396852
 30
0.000000
 11
6.679772
 21
12.394272
 31
0.000000
  6
CONTINUOUS
  0
LINE
  8
WHITE
 10
6.679772
 20
12.394272
 30
0.000000
 11
6.680172
 21
12.376092
 31
0.000000
  6
CONTINUOUS
  0
LINE
  8
WHITE
 10
6.680172
 20
12.376092
 30
0.000000
 11
6.576592
 21
12.204992
 31
0.000000
  6
CONTINUOUS
  0
LINE
  8
WHITE
 10
6.576592
 20
12.204992
 30
0.000000
 11
6.510672
 21
12.038192
 31
0.000000
  6
CONTINUOUS
  0
LINE
  8
WHITE
 10
6.510672
 20
12.038192
 30
0.000000
 11
6.491212
 21
11.988892
 31
0.000000
  6
CONTINUOUS
  0
LINE
  8
WHITE
 10
6.491212
 20
11.988892
 30
0.000000
 11
6.458852
 21
11.931192
 31
0.000000
  6
CONTINUOUS
  0
LINE
  8
WHITE
 10
6.458852
 20
11.931192
 30
0.000000
 11
6.415552
 21
11.886132
 31
0.000000
  6
CONTINUOUS
  0
LINE
  8
WHITE
 10
6.415552
 20
11.886132
 30
0.000000
 11
6.363372
 21
11.874732
 31
0.000000
  6
CONTINUOUS
  0
LINE
  8
WHITE
 10
6.363372
 20
11.874732
 30
0.000000
 11
6.327092
 21
11.903192
 31
0.000000
  6
CONTINUOUS
  0
ARC
  8
WHITE
 10
5.582946
 20
12.840342
 30
0.000000
 40
1.081215
 50
112.729108
 51
129.017140
  6
CONTINUOUS
  0
ARC
  8
WHITE
 10
3.656843
 20
15.188137
 30
0.000000
 40
1.955592
 50
-54.943028
 51
-50.442595
  6
CONTINUOUS
  0
ARC
  8
WHITE
 10
4.694204
 20
13.696156
 30
0.000000
 40
0.138655
 50
-114.960805
 51
-51.711911
  6
CONTINUOUS
  0
LINE
  8
WHITE
 10
4.635692
 20
13.570452
 30
0.000000
 11
4.619232
 21
13.613552
 31
0.000000
  6
CONTINUOUS
  0
ARC
  8
WHITE
 10
4.852582
 20
13.538425
 30
0.000000
 40
0.245146
 50
126.631586
 51
162.154117
  6
CONTINUOUS
  0
ARC
  8
WHITE
 10
5.152956
 20
13.031278
 30
0.000000
 40
0.833624
 50
89.509558
 51
122.397243
  6
CONTINUOUS
  0
LINE
  8
WHITE
 10
5.160092
 20
13.864872
 30
0.000000
 11
5.174192
 21
13.853392
 31
0.000000
  6
CONTINUOUS
  0
LINE
  8
WHITE
 10
5.174192
 20
13.853392
 30
0.000000
 11
5.165192
 21
13.837592
 31
0.000000
  6
CONTINUOUS
  0
ARC
  8
WHITE
 10
2.495019
 20
11.458417
 30
0.000000
 40
1.043826
 50
-25.339954
 51
-19.177289
  6
CONTINUOUS
  0
ARC
  8
WHITE
 10
3.334964
 20
11.128610
 30
0.000000
 40
0.146540
 50
-5.121678
 51
72.047142
  6
CONTINUOUS
  0
ARC
  8
WHITE
 10
3.116769
 20
10.506028
 30
0.000000
 40
0.806216
 50
70.933470
 51
113.051241
  6
CONTINUOUS
  0
LINE
  8
WHITE
 10
2.801092
 20
11.247872
 30
0.000000
 11
2.781892
 21
11.252992
 31
0.000000
  6
CONTINUOUS
  0
ARC
  8
WHITE
 10
2.368408
 20
10.993275
 30
0.000000
 40
0.488284
 50
32.133776
 51
78.737185
  6
CONTINUOUS
  0
ARC
  8
WHITE
 10
2.333795
 20
10.835509
 30
0.000000
 40
0.649779
 50
78.460868
 51
104.656923
  6
CONTINUOUS
  0
ARC
  8
WHITE
 10
2.134691
 20
11.658896
 30
0.000000
 40
0.197818
 50
-112.049612
 51
-79.900212
  6
CONTINUOUS
  0
ARC
  8
WHITE
 10
1.471878
 20
9.231966
 30
0.000000
 40
2.319493
 50
75.301008
 51
84.954385
  6
CONTINUOUS
  0
ARC
  8
WHITE
 10
1.472755
 20
8.346869
 30
0.000000
 40
3.202050
 50
86.363034
 51
89.858899
  6
CONTINUOUS
  0
ARC
  8
WHITE
 10
1.238877
 20
13.813280
 30
0.000000
 40
2.277240
 50
-88.808955
 51
-83.905701
  6
CONTINUOUS
  0
ARC
  8
WHITE
 10
1.003659
 20
11.548497
 30
0.000000
 40
0.282806
 50
-2.424792
 51
54.632138
  6
CONTINUOUS
  0
LINE
  8
WHITE
 10
1.167354
 20
11.779112
 30
0.000000
 11
1.151426
 21
11.777472
 31
0.000000
  6
CONTINUOUS
  0
ARC
  8
WHITE
 10
3.853134
 20
8.808288
 30
0.000000
 40
4.014384
 50
132.299562
 51
144.837238
  6
CONTINUOUS
  0
ARC
  8
WHITE
 10
2.261692
 20
9.901432
 30
0.000000
 40
2.083932
 50
144.209065
 51
168.366101
  6
CONTINUOUS
  0
LINE
  8
WHITE
 10
0.220572
 20
10.321672
 30
0.000000
 11
0.229174
 21
10.306332
 31
0.000000
  6
CONTINUOUS
  0
LINE
  8
WHITE
 10
0.229174
 20
10.306332
 30
0.000000
 11
0.246030
 21
10.311432
 31
0.000000
  6
CONTINUOUS
  0
ARC
  8
WHITE
 10
0.857530
 20
9.793161
 30
0.000000
 40
0.801584
 50
105.943169
 51
139.717383
  6
CONTINUOUS
  0
ARC
  8
WHITE
 10
-0.331835
 20
10.336485
 30
0.000000
 40
0.995509
 50
5.472698
 51
13.206032
  6
CONTINUOUS
  0
ARC
  8
WHITE
 10
1.423876
 20
10.525166
 30
0.000000
 40
0.770464
 50
-173.011782
 51
-95.485385
  6
CONTINUOUS
  0
ARC
  8
WHITE
 10
1.523218
 20
10.949108
 30
0.000000
 40
1.203376
 50
-98.265225
 51
-79.707079
  6
CONTINUOUS
  0
LINE
  8
WHITE
 10
1.738238
 20
9.765098
 30
0.000000
 11
1.903772
 21
9.807372
 31
0.000000
  6
CONTINUOUS
  0
ARC
  8
WHITE
 10
1.516181
 20
10.712761
 30
0.000000
 40
0.984863
 50
-66.824539
 51
-48.193871
  6
CONTINUOUS
  0
ARC
  8
WHITE
 10
4.147575
 20
7.976430
 30
0.000000
 40
2.812288
 50
123.189968
 51
134.606185
  6
CONTINUOUS
  0
ARC
  8
WHITE
 10
3.214484
 20
9.324068
 30
0.000000
 40
1.174506
 50
100.564284
 51
121.084648
  6
CONTINUOUS
  0
ARC
  8
WHITE
 10
3.385787
 20
8.561930
 30
0.000000
 40
1.955343
 50
92.163867
 51
101.404402
  6
CONTINUOUS
  0
ARC
  8
WHITE
 10
2.730049
 20
19.018498
 30
0.000000
 40
8.522509
 50
-86.084856
 51
-82.905825
  6
CONTINUOUS
  0
ARC
  8
WHITE
 10
3.581044
 20
11.609110
 30
0.000000
 40
1.067082
 50
-79.113106
 51
-66.415561
  6
CONTINUOUS
  0
ARC
  8
WHITE
 10
3.788173
 20
11.099744
 30
0.000000
 40
0.517579
 50
-64.868985
 51
-38.688613
  6
CONTINUOUS
  0
LINE
  8
WHITE
 10
4.192172
 20
10.776212
 30
0.000000
 11
4.193152
 21
10.792012
 31
0.000000
  6
CONTINUOUS
  0
ARC
  8
WHITE
 10
4.072910
 20
9.057453
 30
0.000000
 40
1.738722
 50
86.034519
 51
92.540032
  6
CONTINUOUS
  0
ARC
  8
WHITE
 10
4.131539
 20
12.047256
 30
0.000000
 40
1.260116
 50
-123.171425
 51
-96.181406
  6
CONTINUOUS
  0
LINE
  8
WHITE
 10
3.442072
 20
10.992492
 30
0.000000
 11
3.438412
 21
11.011672
 31
0.000000
  6
CONTINUOUS
  0
ARC
  8
WHITE
 10
1.845546
 20
11.054231
 30
0.000000
 40
0.194006
 50
96.307107
 51
157.129369
  6
CONTINUOUS
  0
ARC
  8
WHITE
 10
1.970892
 20
9.096378
 30
0.000000
 40
2.155680
 50
85.657615
 51
93.901058
  6
CONTINUOUS
  0
ARC
  8
WHITE
 10
2.049075
 20
9.564898
 30
0.000000
 40
1.683122
 50
84.466659
 51
87.103988
  6
CONTINUOUS
  0
LINE
  8
WHITE
 10
2.211370
 20
11.240176
 30
0.000000
 11
2.266554
 21
11.221733
 31
0.000000
  6
CONTINUOUS
  0
ARC
  8
WHITE
 10
2.105896
 20
11.100742
 30
0.000000
 40
0.201121
 50
-12.365621
 51
36.983420
  6
CONTINUOUS
  0
LINE
  8
WHITE
 10
2.302352
 20
11.057672
 30
0.000000
 11
2.246892
 21
10.984752
 31
0.000000
  6
CONTINUOUS
  0
ARC
  8
WHITE
 10
1.983139
 20
11.647221
 30
0.000000
 40
0.713044
 50
-95.345925
 51
-68.290724
  6
CONTINUOUS
  0
ARC
  8
WHITE
 10
2.005209
 20
11.379415
 30
0.000000
 40
0.450907
 50
-122.705954
 51
-101.319460
  6
CONTINUOUS
  0
ARC
  8
WHITE
 10
1.825118
 20
11.145924
 30
0.000000
 40
0.159163
 50
-174.124863
 51
-113.531689
  6
CONTINUOUS
  0
ARC
  8
WHITE
 10
2.448455
 20
10.671977
 30
0.000000
 40
0.130487
 50
149.648918
 51
179.563311
  6
CONTINUOUS
  0
LINE
  8
WHITE
 10
2.335852
 20
10.737912
 30
0.000000
 11
2.359412
 21
10.749192
 31
0.000000
  6
CONTINUOUS
  0
LINE
  8
WHITE
 10
2.359412
 20
10.749192
 30
0.000000
 11
2.393512
 21
10.747412
 31
0.000000
  6
CONTINUOUS
  0
LINE
  8
WHITE
 10
2.393512
 20
10.747412
 30
0.000000
 11
2.407892
 21
10.752652
 31
0.000000
  6
CONTINUOUS
  0
LINE
  8
WHITE
 10
2.407892
 20
10.752652
 30
0.000000
 11
2.471292
 21
10.915872
 31
0.000000
  6
CONTINUOUS
  0
LINE
  8
WHITE
 10
2.471292
 20
10.915872
 30
0.000000
 11
2.455292
 21
11.088872
 31
0.000000
  6
CONTINUOUS
  0
LINE
  8
WHITE
 10
2.455292
 20
11.088872
 30
0.000000
 11
2.440012
 21
11.099352
 31
0.000000
  6
CONTINUOUS
  0
LINE
  8
WHITE
 10
2.440012
 20
11.099352
 30
0.000000
 11
2.427592
 21
11.085632
 31
0.000000
  6
CONTINUOUS
  0
ARC
  8
WHITE
 10
2.071837
 20
11.078590
 30
0.000000
 40
0.355824
 50
-24.272236
 51
1.134014
  6
CONTINUOUS
  0
ARC
  8
WHITE
 10
2.224048
 20
11.013247
 30
0.000000
 40
0.190231
 50
-60.789187
 51
-25.176866
  6
CONTINUOUS
  0
ARC
  8
WHITE
 10
2.027026
 20
11.685263
 30
0.000000
 40
0.886766
 50
-93.883187
 51
-70.920904
  6
CONTINUOUS
  0
LINE
  8
WHITE
 10
1.966972
 20
10.800532
 30
0.000000
 11
1.953492
 21
10.790192
 31
0.000000
  6
CONTINUOUS
  0
LINE
  8
WHITE
 10
1.953492
 20
10.790192
 30
0.000000
 11
1.959932
 21
10.774452
 31
0.000000
  6
CONTINUOUS
  0
LINE
  8
WHITE
 10
1.959932
 20
10.774452
 30
0.000000
 11
2.128332
 21
10.701132
 31
0.000000
  6
CONTINUOUS
  0
LINE
  8
WHITE
 10
2.128332
 20
10.701132
 30
0.000000
 11
2.306832
 21
10.668632
 31
0.000000
  6
CONTINUOUS
  0
LINE
  8
WHITE
 10
2.306832
 20
10.668632
 30
0.000000
 11
2.317972
 21
10.672972
 31
0.000000
  6
CONTINUOUS
  0
ARC
  8
WHITE
 10
3.114074
 20
6.065955
 30
0.000000
 40
0.837882
 50
148.828318
 51
170.798960
  6
CONTINUOUS
  0
ARC
  8
WHITE
 10
2.652849
 20
6.392639
 30
0.000000
 40
0.277174
 50
128.232796
 51
157.289873
  6
CONTINUOUS
  0
ARC
  8
WHITE
 10
2.839925
 20
6.317156
 30
0.000000
 40
0.463214
 50
108.049120
 51
140.729966
  6
CONTINUOUS
  0
ARC
  8
WHITE
 10
4.824080
 20
2.106335
 30
0.000000
 40
5.114787
 50
111.998188
 51
114.581356
  6
CONTINUOUS
  0
ARC
  8
WHITE
 10
2.480762
 20
7.748455
 30
0.000000
 40
0.996084
 50
-64.588538
 51
-18.182957
  6
CONTINUOUS
  0
ARC
  8
WHITE
 10
0.666004
 20
8.247265
 30
0.000000
 40
2.877361
 50
-16.342762
 51
-0.274264
  6
CONTINUOUS
  0
LINE
  8
WHITE
 10
3.543332
 20
8.233492
 30
0.000000
 11
3.531232
 21
8.247672
 31
0.000000
  6
CONTINUOUS
  0
LINE
  8
WHITE
 10
3.531232
 20
8.247672
 30
0.000000
 11
3.515672
 21
8.237392
 31
0.000000
  6
CONTINUOUS
  0
LINE
  8
WHITE
 10
3.515672
 20
8.237392
 30
0.000000
 11
3.431731
 21
8.020072
 31
0.000000
  6
CONTINUOUS
  0
ARC
  8
WHITE
 10
2.898571
 20
8.201426
 30
0.000000
 40
0.563160
 50
-41.006525
 51
-18.785733
  6
CONTINUOUS
  0
ARC
  8
WHITE
 10
2.683402
 20
8.225186
 30
0.000000
 40
0.751303
 50
-47.179411
 51
-31.564415
  6
CONTINUOUS
  0
ARC
  8
WHITE
 10
1.994806
 20
8.919443
 30
0.000000
 40
1.728890
 50
-58.793488
 51
-46.079579
  6
CONTINUOUS
  0
ARC
  8
WHITE
 10
30.047129
 20
-40.734577
 30
0.000000
 40
55.302229
 50
119.410075
 51
120.105883
  6
CONTINUOUS
  0
ARC
  8
WHITE
 10
2.898829
 20
6.107964
 30
0.000000
 40
1.161219
 50
120.609420
 51
145.467931
  6
CONTINUOUS
  0
ARC
  8
WHITE
 10
2.808351
 20
6.230976
 30
0.000000
 40
1.018182
 50
148.285524
 51
190.769950
  6
CONTINUOUS
  0
ARC
  8
WHITE
 10
2.356717
 20
6.148874
 30
0.000000
 40
0.559173
 50
-168.846973
 51
-130.173292
  6
CONTINUOUS
  0
ARC
  8
WHITE
 10
2.233513
 20
6.069644
 30
0.000000
 40
0.421358
 50
-124.312047
 51
-72.993438
  6
CONTINUOUS
  0
LINE
  8
WHITE
 10
2.356752
 20
5.666712
 30
0.000000
 11
2.372752
 21
5.660432
 31
0.000000
  6
CONTINUOUS
  0
LINE
  8
WHITE
 10
2.372752
 20
5.660432
 30
0.000000
 11
2.370552
 21
5.643412
 31
0.000000
  6
CONTINUOUS
  0
LINE
  8
WHITE
 10
2.370552
 20
5.643412
 30
0.000000
 11
2.282912
 21
5.528512
 31
0.000000
  6
CONTINUOUS
  0
LINE
  8
WHITE
 10
2.282912
 20
5.528512
 30
0.000000
 11
2.232272
 21
5.398192
 31
0.000000
  6
CONTINUOUS
  0
LINE
  8
WHITE
 10
2.232272
 20
5.398192
 30
0.000000
 11
2.231412
 21
5.262012
 31
0.000000
  6
CONTINUOUS
  0
LINE
  8
WHITE
 10
2.231412
 20
5.262012
 30
0.000000
 11
2.293132
 21
5.129492
 31
0.000000
  6
CONTINUOUS
  0
LINE
  8
WHITE
 10
2.293132
 20
5.129492
 30
0.000000
 11
2.408452
 21
5.043432
 31
0.000000
  6
CONTINUOUS
  0
ARC
  8
WHITE
 10
2.510862
 20
5.448759
 30
0.000000
 40
0.418065
 50
-104.179554
 51
-58.663071
  6
CONTINUOUS
  0
ARC
  8
WHITE
 10
2.598733
 20
5.373772
 30
0.000000
 40
0.310417
 50
-65.332990
 51
-38.534125
  6
CONTINUOUS
  0
LINE
  8
WHITE
 10
2.841554
 20
5.180388
 30
0.000000
 11
2.929052
 21
5.285222
 31
0.000000
  6
CONTINUOUS
  0
ARC
  8
WHITE
 10
2.783242
 20
5.440303
 30
0.000000
 40
0.212863
 50
-46.764590
 51
-12.253404
  6
CONTINUOUS
  0
LINE
  8
WHITE
 10
2.991255
 20
5.395126
 30
0.000000
 11
3.034071
 21
5.507245
 31
0.000000
  6
CONTINUOUS
  0
ARC
  8
WHITE
 10
2.151485
 20
5.783473
 30
0.000000
 40
0.924802
 50
-17.378846
 51
-3.480134
  6
CONTINUOUS
  0
ARC
  8
WHITE
 10
2.417093
 20
5.836442
 30
0.000000
 40
0.666481
 50
-9.422107
 51
7.501078
  6
CONTINUOUS
  0
ARC
  8
WHITE
 10
1.778130
 20
5.895895
 30
0.000000
 40
1.300032
 50
1.214415
 51
16.389403
  6
CONTINUOUS
  0
ARC
  8
WHITE
 10
2.460464
 20
6.114362
 30
0.000000
 40
0.584030
 50
14.715551
 51
40.013439
  6
CONTINUOUS
  0
ARC
  8
WHITE
 10
2.263341
 20
5.647092
 30
0.000000
 40
1.060928
 50
52.596876
 51
57.814996
  6
CONTINUOUS
  0
ARC
  8
WHITE
 10
2.743993
 20
6.335274
 30
0.000000
 40
0.226084
 50
68.064557
 51
111.086328
  6
CONTINUOUS
  0
ARC
  8
WHITE
 10
2.867069
 20
6.041659
 30
0.000000
 40
0.544395
 50
112.054638
 51
138.775816
  6
CONTINUOUS
  0
ARC
  8
WHITE
 10
3.099718
 20
5.802920
 30
0.000000
 40
0.877103
 50
137.060993
 51
153.666966
  6
CONTINUOUS
  0
LINE
  8
WHITE
 10
2.313632
 20
6.191992
 30
0.000000
 11
2.296892
 21
6.184512
 31
0.000000
  6
CONTINUOUS
  0
LINE
  8
WHITE
 10
2.296892
 20
6.184512
 30
0.000000
 11
2.286972
 21
6.199932
 31
0.000000
  6
CONTINUOUS
  0
ARC
  8
WHITE
 10
5.261861
 20
7.212758
 30
0.000000
 40
3.369785
 50
-21.411510
 51
-8.321057
  6
CONTINUOUS
  0
ARC
  8
WHITE
 10
6.738997
 20
6.976636
 30
0.000000
 40
1.874133
 50
-7.713698
 51
15.812295
  6
CONTINUOUS
  0
LINE
  8
WHITE
 10
8.542212
 20
7.487312
 30
0.000000
 11
8.533132
 21
7.496312
 31
0.000000
  6
CONTINUOUS
  0
LINE
  8
WHITE
 10
8.533132
 20
7.496312
 30
0.000000
 11
8.520532
 21
7.494032
 31
0.000000
  6
CONTINUOUS
  0
LINE
  8
WHITE
 10
8.520532
 20
7.494032
 30
0.000000
 11
8.215072
 21
7.268252
 31
0.000000
  6
CONTINUOUS
  0
LINE
  8
WHITE
 10
8.215072
 20
7.268252
 30
0.000000
 11
8.209912
 21
7.253132
 31
0.000000
  6
CONTINUOUS
  0
ARC
  8
WHITE
 10
6.965607
 20
6.940832
 30
0.000000
 40
1.282897
 50
-56.554279
 51
14.089265
  6
CONTINUOUS
  0
LINE
  8
WHITE
 10
7.672672
 20
5.870372
 30
0.000000
 11
7.657772
 21
5.869352
 31
0.000000
  6
CONTINUOUS
  0
LINE
  8
WHITE
 10
7.657772
 20
5.869352
 30
0.000000
 11
7.650572
 21
5.882432
 31
0.000000
  6
CONTINUOUS
  0
ARC
  8
WHITE
 10
11.631875
 20
5.646909
 30
0.000000
 40
3.988264
 50
167.075502
 51
176.614482
  6
CONTINUOUS
  0
ARC
  8
WHITE
 10
10.499700
 20
5.968178
 30
0.000000
 40
2.813552
 50
148.012870
 51
168.295399
  6
CONTINUOUS
  0
ARC
  8
WHITE
 10
10.159046
 20
6.155858
 30
0.000000
 40
2.425294
 50
135.755453
 51
147.510388
  6
CONTINUOUS
  0
ARC
  8
WHITE
 10
10.365993
 20
5.796387
 30
0.000000
 40
2.826620
 50
128.417562
 51
133.461847
  6
CONTINUOUS
  0
ARC
  8
WHITE
 10
1.866600
 20
18.367624
 30
0.000000
 40
12.358242
 50
-56.932617
 51
-55.778308
  6
CONTINUOUS
  0
LINE
  8
WHITE
 10
8.816832
 20
8.148992
 30
0.000000
 11
8.835952
 21
8.143572
 31
0.000000
  6
CONTINUOUS
  0
ARC
  8
WHITE
 10
7.506138
 20
7.486391
 30
0.000000
 40
1.483338
 50
-8.365965
 51
26.298142
  6
CONTINUOUS
  0
LINE
  8
WHITE
 10
8.973692
 20
7.270572
 30
0.000000
 11
8.982492
 21
7.255452
 31
0.000000
  6
CONTINUOUS
  0
LINE
  8
WHITE
 10
8.982492
 20
7.255452
 30
0.000000
 11
8.999192
 21
7.260632
 31
0.000000
  6
CONTINUOUS
  0
LINE
  8
WHITE
 10
8.999192
 20
7.260632
 30
0.000000
 11
9.186228
 21
7.602534
 31
0.000000
  6
CONTINUOUS
  0
ARC
  8
WHITE
 10
5.600728
 20
8.948827
 30
0.000000
 40
3.829924
 50
-20.580293
 51
-16.209537
  6
CONTINUOUS
  0
ARC
  8
WHITE
 10
7.896361
 20
8.370465
 30
0.000000
 40
1.466590
 50
-19.550047
 51
14.708393
  6
CONTINUOUS
  0
LINE
  8
WHITE
 10
9.314892
 20
8.742832
 30
0.000000
 11
9.320172
 21
8.758812
 31
0.000000
  6
CONTINUOUS
  0
LINE
  8
WHITE
 10
9.320172
 20
8.758812
 30
0.000000
 11
9.336992
 21
8.758132
 31
0.000000
  6
CONTINUOUS
  0
ARC
  8
WHITE
 10
8.750237
 20
8.075417
 30
0.000000
 40
0.900212
 50
-2.727126
 51
49.322798
  6
CONTINUOUS
  0
ARC
  8
WHITE
 10
8.001221
 20
8.092401
 30
0.000000
 40
1.649293
 50
-23.402781
 51
-2.078428
  6
CONTINUOUS
  0
ARC
  8
WHITE
 10
6.107213
 20
8.973408
 30
0.000000
 40
3.737844
 50
-38.384825
 51
-24.264972
  6
CONTINUOUS
  0
ARC
  8
WHITE
 10
3.055650
 20
11.403304
 30
0.000000
 40
7.638662
 50
-45.370581
 51
-38.458748
  6
CONTINUOUS
  0
LINE
  8
WHITE
 10
8.421952
 20
5.967132
 30
0.000000
 11
8.404152
 21
5.965432
 31
0.000000
  6
CONTINUOUS
  0
LINE
  8
WHITE
 10
8.404152
 20
5.965432
 30
0.000000
 11
8.399072
 21
5.982572
 31
0.000000
  6
CONTINUOUS
  0
LINE
  8
WHITE
 10
6.922712
 20
5.508052
 30
0.000000
 11
6.927932
 21
5.525692
 31
0.000000
  6
CONTINUOUS
  0
LINE
  8
WHITE
 10
6.927932
 20
5.525692
 30
0.000000
 11
6.911292
 21
5.533432
 31
0.000000
  6
CONTINUOUS
  0
LINE
  8
WHITE
 10
6.911292
 20
5.533432
 30
0.000000
 11
6.799332
 21
5.498472
 31
0.000000
  6
CONTINUOUS
  0
LINE
  8
WHITE
 10
6.799332
 20
5.498472
 30
0.000000
 11
6.653592
 21
5.446432
 31
0.000000
  6
CONTINUOUS
  0
LINE
  8
WHITE
 10
6.653592
 20
5.446432
 30
0.000000
 11
6.276912
 21
5.278632
 31
0.000000
  6
CONTINUOUS
  0
LINE
  8
WHITE
 10
6.276912
 20
5.278632
 30
0.000000
 11
5.932732
 21
5.073252
 31
0.000000
  6
CONTINUOUS
  0
LINE
  8
WHITE
 10
5.932732
 20
5.073252
 30
0.000000
 11
5.628152
 21
4.830572
 31
0.000000
  6
CONTINUOUS
  0
LINE
  8
WHITE
 10
5.628152
 20
4.830572
 30
0.000000
 11
5.370332
 21
4.550792
 31
0.000000
  6
CONTINUOUS
  0
LINE
  8
WHITE
 10
5.370332
 20
4.550792
 30
0.000000
 11
5.166392
 21
4.234192
 31
0.000000
  6
CONTINUOUS
  0
LINE
  8
WHITE
 10
5.166392
 20
4.234192
 30
0.000000
 11
5.023452
 21
3.881012
 31
0.000000
  6
CONTINUOUS
  0
LINE
  8
WHITE
 10
5.023452
 20
3.881012
 30
0.000000
 11
4.948652
 21
3.491512
 31
0.000000
  6
CONTINUOUS
  0
LINE
  8
WHITE
 10
4.948652
 20
3.491512
 30
0.000000
 11
4.949112
 21
3.065912
 31
0.000000
  6
CONTINUOUS
  0
LINE
  8
WHITE
 10
4.949112
 20
3.065912
 30
0.000000
 11
4.959492
 21
3.053332
 31
0.000000
  6
CONTINUOUS
  0
LINE
  8
WHITE
 10
4.959492
 20
3.053332
 30
0.000000
 11
4.974772
 21
3.059072
 31
0.000000
  6
CONTINUOUS
  0
LINE
  8
WHITE
 10
4.974772
 20
3.059072
 30
0.000000
 11
5.293952
 21
3.556512
 31
0.000000
  6
CONTINUOUS
  0
LINE
  8
WHITE
 10
5.293952
 20
3.556512
 30
0.000000
 11
5.598112
 21
4.064632
 31
0.000000
  6
CONTINUOUS
  0
LINE
  8
WHITE
 10
5.598112
 20
4.064632
 30
0.000000
 11
5.922372
 21
4.557812
 31
0.000000
  6
CONTINUOUS
  0
LINE
  8
WHITE
 10
5.922372
 20
4.557812
 30
0.000000
 11
6.301892
 21
5.010412
 31
0.000000
  6
CONTINUOUS
  0
LINE
  8
WHITE
 10
6.301892
 20
5.010412
 30
0.000000
 11
6.585512
 21
5.266892
 31
0.000000
  6
CONTINUOUS
  0
LINE
  8
WHITE
 10
6.585512
 20
5.266892
 30
0.000000
 11
6.922712
 21
5.508052
 31
0.000000
  6
CONTINUOUS
  0
ARC
  8
WHITE
 10
0.967523
 20
11.698408
 30
0.000000
 40
2.525215
 50
-58.844590
 51
-50.109669
  6
CONTINUOUS
  0
ARC
  8
WHITE
 10
5.282137
 20
6.429881
 30
0.000000
 40
4.284778
 50
124.472268
 51
128.976661
  6
CONTINUOUS
  0
ARC
  8
WHITE
 10
3.463183
 20
9.136793
 30
0.000000
 40
1.024177
 50
93.318626
 51
126.295518
  6
CONTINUOUS
  0
ARC
  8
WHITE
 10
3.146898
 20
24.253447
 30
0.000000
 40
14.096538
 50
-88.955372
 51
-87.158359
  6
CONTINUOUS
  0
ARC
  8
WHITE
 10
3.705514
 20
12.400657
 30
0.000000
 40
2.230825
 50
-86.396033
 51
-77.879573
  6
CONTINUOUS
  0
ARC
  8
WHITE
 10
4.041797
 20
11.019103
 30
0.000000
 40
0.810385
 50
-80.617177
 51
-45.454728
  6
CONTINUOUS
  0
ARC
  8
WHITE
 10
4.004145
 20
10.980467
 30
0.000000
 40
0.811056
 50
-41.641686
 51
-6.596785
  6
CONTINUOUS
  0
ARC
  8
WHITE
 10
4.763768
 20
10.396275
 30
0.000000
 40
0.493173
 50
84.640573
 51
138.177871
  6
CONTINUOUS
  0
ARC
  8
WHITE
 10
3.911467
 20
11.151504
 30
0.000000
 40
0.645602
 50
-77.247126
 51
-41.332196
  6
CONTINUOUS
  0
ARC
  8
WHITE
 10
3.200577
 20
14.730374
 30
0.000000
 40
4.294201
 50
-87.993980
 51
-78.537052
  6
CONTINUOUS
  0
ARC
  8
WHITE
 10
6.539126
 20
-11.982000
 30
0.000000
 40
22.646353
 50
98.093186
 51
98.765604
  6
CONTINUOUS
  0
ARC
  8
WHITE
 10
3.164533
 20
9.751783
 30
0.000000
 40
0.652566
 50
96.735923
 51
117.132139
  6
CONTINUOUS
  0
LINE
  8
WHITE
 10
2.866933
 20
10.332539
 30
0.000000
 11
2.678274
 21
10.256238
 31
0.000000
  6
CONTINUOUS
  0
ARC
  8
WHITE
 10
6.586888
 20
4.663790
 30
0.000000
 40
6.822957
 50
124.950063
 51
127.939590
  6
CONTINUOUS
  0
ARC
  8
WHITE
 10
-3.405285
 20
16.646535
 30
0.000000
 40
8.785832
 50
-52.196405
 51
-48.712602
  6
CONTINUOUS
  0
ARC
  8
WHITE
 10
1.305375
 20
10.453854
 30
0.000000
 40
1.008173
 50
-63.180919
 51
-47.994205
  6
CONTINUOUS
  0
LINE
  8
WHITE
 10
1.760237
 20
9.554125
 30
0.000000
 11
1.530372
 21
9.418092
 31
0.000000
  6
CONTINUOUS
  0
LINE
  8
WHITE
 10
1.530372
 20
9.418092
 30
0.000000
 11
1.523392
 21
9.400512
 31
0.000000
  6
CONTINUOUS
  0
LINE
  8
WHITE
 10
1.523392
 20
9.400512
 30
0.000000
 11
1.540212
 21
9.391832
 31
0.000000
  6
CONTINUOUS
  0
ARC
  8
WHITE
 10
-0.074598
 20
13.524919
 30
0.000000
 40
4.437344
 50
-68.659266
 51
-63.005993
  6
CONTINUOUS
  0
ARC
  8
WHITE
 10
-1.598781
 20
14.763477
 30
0.000000
 40
6.283406
 50
-55.728483
 51
-52.233016
  6
CONTINUOUS
  0
ARC
  8
WHITE
 10
8.087608
 20
3.468596
 30
0.000000
 40
8.609560
 50
130.462516
 51
132.695028
  6
CONTINUOUS
  0
ARC
  8
WHITE
 10
3.299518
 20
9.162349
 30
0.000000
 40
1.171501
 50
104.282266
 51
133.008415
  6
CONTINUOUS
  0
ARC
  8
WHITE
 10
3.310463
 20
8.676366
 30
0.000000
 40
1.648789
 50
85.180397
 51
100.481781
  6
CONTINUOUS
  0
ARC
  8
WHITE
 10
3.557006
 20
12.626919
 30
0.000000
 40
2.310121
 50
-92.679953
 51
-76.299882
  6
CONTINUOUS
  0
ARC
  8
WHITE
 10
3.845201
 20
11.328900
 30
0.000000
 40
0.981158
 50
-74.698009
 51
-55.415347
  6
CONTINUOUS
  0
ARC
  8
WHITE
 10
3.784066
 20
11.349868
 30
0.000000
 40
1.033838
 50
-53.285084
 51
-44.136093
  6
CONTINUOUS
  0
ARC
  8
WHITE
 10
5.237621
 20
10.127634
 30
0.000000
 40
0.871011
 50
133.946434
 51
144.781709
  6
CONTINUOUS
  0
LINE
  8
WHITE
 10
4.633152
 20
10.754752
 30
0.000000
 11
4.644212
 21
10.742832
 31
0.000000
  6
CONTINUOUS
  0
ARC
  8
WHITE
 10
4.406547
 20
10.721984
 30
0.000000
 40
0.238577
 50
-37.609280
 51
5.013133
  6
CONTINUOUS
  0
ARC
  8
WHITE
 10
4.125136
 20
10.920297
 30
0.000000
 40
0.582718
 50
-68.889645
 51
-36.170030
  6
CONTINUOUS
  0
ARC
  8
WHITE
 10
3.986372
 20
10.934096
 30
0.000000
 40
0.657460
 50
-83.350762
 51
-57.975568
  6
CONTINUOUS
  0
ARC
  8
WHITE
 10
3.789967
 20
11.349576
 30
0.000000
 40
1.102726
 50
-88.929336
 51
-75.691393
  6
CONTINUOUS
  0
ARC
  8
WHITE
 10
3.331292
 20
18.650569
 30
0.000000
 40
8.417183
 50
-89.770747
 51
-86.735772
  6
CONTINUOUS
  0
ARC
  8
WHITE
 10
3.383994
 20
9.200428
 30
0.000000
 40
1.033201
 50
91.054999
 51
128.141611
  6
CONTINUOUS
  0
ARC
  8
WHITE
 10
6.720820
 20
5.364880
 30
0.000000
 40
6.115995
 50
130.535944
 51
136.794792
  6
CONTINUOUS
  0
LINE
  8
WHITE
 10
2.262832
 20
9.551972
 30
0.000000
 11
2.265912
 21
9.542792
 31
0.000000
  6
CONTINUOUS
  0
LINE
  8
WHITE
 10
2.265912
 20
9.542792
 30
0.000000
 11
2.273972
 21
9.537412
 31
0.000000
  6
CONTINUOUS
  0
ARC
  8
WHITE
 10
6.378520
 20
5.683364
 30
0.000000
 40
1.815973
 50
85.230889
 51
89.443706
  6
CONTINUOUS
  0
ARC
  8
WHITE
 10
6.450471
 20
7.915989
 30
0.000000
 40
0.430259
 50
-79.415792
 51
-26.294297
  6
CONTINUOUS
  0
LINE
  8
WHITE
 10
6.836212
 20
7.725392
 30
0.000000
 11
6.847832
 21
7.733372
 31
0.000000
  6
CONTINUOUS
  0
LINE
  8
WHITE
 10
6.847832
 20
7.733372
 30
0.000000
 11
7.199832
 21
7.760452
 31
0.000000
  6
CONTINUOUS
  0
LINE
  8
WHITE
 10
7.199832
 20
7.760452
 30
0.000000
 11
7.212212
 21
7.755092
 31
0.000000
  6
CONTINUOUS
  0
ARC
  8
WHITE
 10
7.065703
 20
7.762575
 30
0.000000
 40
0.146700
 50
-27.725385
 51
-2.923816
  6
CONTINUOUS
  0
ARC
  8
WHITE
 10
5.637052
 20
8.391455
 30
0.000000
 40
1.707319
 50
-57.579515
 51
-24.099259
  6
CONTINUOUS
  0
ARC
  8
WHITE
 10
5.406617
 20
8.790817
 30
0.000000
 40
2.168065
 50
-84.483686
 51
-58.097263
  6
CONTINUOUS
  0
ARC
  8
WHITE
 10
5.175913
 20
7.852953
 30
0.000000
 40
1.296772
 50
-70.206917
 51
-56.698431
  6
CONTINUOUS
  0
ARC
  8
WHITE
 10
5.572061
 20
7.360850
 30
0.000000
 40
0.670744
 50
-61.908619
 51
-42.327882
  6
CONTINUOUS
  0
ARC
  8
WHITE
 10
5.474097
 20
7.593883
 30
0.000000
 40
0.906344
 50
-49.064294
 51
-27.336958
  6
CONTINUOUS
  0
ARC
  8
WHITE
 10
5.865655
 20
7.436611
 30
0.000000
 40
0.487943
 50
-32.051504
 51
-11.905773
  6
CONTINUOUS
  0
ARC
  8
WHITE
 10
8.630461
 20
6.683162
 30
0.000000
 40
2.378685
 50
159.935081
 51
164.071877
  6
CONTINUOUS
  0
ARC
  8
WHITE
 10
5.139283
 20
3.650903
 30
0.000000
 40
1.494290
 50
114.493514
 51
144.588958
  6
CONTINUOUS
  0
ARC
  8
WHITE
 10
4.508111
 20
5.092746
 30
0.000000
 40
0.082850
 50
-81.914412
 51
-15.238062
  6
CONTINUOUS
  0
ARC
  8
WHITE
 10
5.636036
 20
4.991987
 30
0.000000
 40
1.050959
 50
138.250665
 51
175.689915
  6
CONTINUOUS
  0
LINE
  8
WHITE
 10
4.851952
 20
5.691792
 30
0.000000
 11
4.853692
 21
5.708532
 31
0.000000
  6
CONTINUOUS
  0
LINE
  8
WHITE
 10
4.853692
 20
5.708532
 30
0.000000
 11
4.838092
 21
5.714832
 31
0.000000
  6
CONTINUOUS
  0
ARC
  8
WHITE
 10
5.346215
 20
3.535430
 30
0.000000
 40
2.237853
 50
103.123955
 51
114.007529
  6
CONTINUOUS
  0
ARC
  8
WHITE
 10
4.970724
 20
4.487317
 30
0.000000
 40
1.216346
 50
116.093503
 51
131.091053
  6
CONTINUOUS
  0
ARC
  8
WHITE
 10
4.487376
 20
5.000328
 30
0.000000
 40
0.512740
 50
128.061052
 51
154.765791
  6
CONTINUOUS
  0
ARC
  8
WHITE
 10
4.353752
 20
4.978301
 30
0.000000
 40
0.408558
 50
143.917877
 51
169.063466
  6
CONTINUOUS
  0
ARC
  8
WHITE
 10
4.742388
 20
4.765270
 30
0.000000
 40
0.841522
 50
159.802379
 51
178.118114
  6
CONTINUOUS
  0
ARC
  8
WHITE
 10
6.348620
 20
4.609022
 30
0.000000
 40
2.454198
 50
175.703035
 51
181.983173
  6
CONTINUOUS
  0
LINE
  8
WHITE
 10
3.895892
 20
4.524092
 30
0.000000
 11
3.905972
 21
4.511112
 31
0.000000
  6
CONTINUOUS
  0
LINE
  8
WHITE
 10
3.905972
 20
4.511112
 30
0.000000
 11
3.921412
 21
4.516752
 31
0.000000
  6
CONTINUOUS
  0
ARC
  8
WHITE
 10
5.635028
 20
3.157468
 30
0.000000
 40
1.887142
 50
129.124329
 51
144.926608
  6
CONTINUOUS
  0
ARC
  8
WHITE
 10
4.623905
 20
3.817361
 30
0.000000
 40
0.681662
 50
141.482636
 51
157.897105
  6
CONTINUOUS
  0
LINE
  8
WHITE
 10
3.992339
 20
4.073851
 30
0.000000
 11
3.956796
 21
3.996141
 31
0.000000
  6
CONTINUOUS
  0
ARC
  8
WHITE
 10
4.006706
 20
3.954883
 30
0.000000
 40
0.064755
 50
140.420701
 51
212.102770
  6
CONTINUOUS
  0
ARC
  8
WHITE
 10
6.540271
 20
4.557067
 30
0.000000
 40
2.665552
 50
-166.182863
 51
-153.270008
  6
CONTINUOUS
  0
ARC
  8
WHITE
 10
5.402504
 20
3.841280
 30
0.000000
 40
1.333533
 50
-158.758314
 51
-145.853728
  6
CONTINUOUS
  0
LINE
  8
WHITE
 10
4.298862
 20
3.092758
 30
0.000000
 11
4.460092
 21
2.839272
 31
0.000000
  6
CONTINUOUS
  0
LINE
  8
WHITE
 10
4.460092
 20
2.839272
 30
0.000000
 11
4.477192
 21
2.834832
 31
0.000000
  6
CONTINUOUS
  0
LINE
  8
WHITE
 10
4.477192
 20
2.834832
 30
0.000000
 11
4.485092
 21
2.850652
 31
0.000000
  6
CONTINUOUS
  0
LINE
  8
WHITE
 10
4.485092
 20
2.850652
 30
0.000000
 11
4.409192
 21
3.287572
 31
0.000000
  6
CONTINUOUS
  0
LINE
  8
WHITE
 10
4.409192
 20
3.287572
 30
0.000000
 11
4.374112
 21
3.729132
 31
0.000000
  6
CONTINUOUS
  0
LINE
  8
WHITE
 10
4.374112
 20
3.729132
 30
0.000000
 11
4.389892
 21
4.170552
 31
0.000000
  6
CONTINUOUS
  0
LINE
  8
WHITE
 10
4.389892
 20
4.170552
 30
0.000000
 11
4.466572
 21
4.607012
 31
0.000000
  6
CONTINUOUS
  0
LINE
  8
WHITE
 10
4.466572
 20
4.607012
 30
0.000000
 11
4.460712
 21
4.622472
 31
0.000000
  6
CONTINUOUS
  0
LINE
  8
WHITE
 10
4.460712
 20
4.622472
 30
0.000000
 11
4.444232
 21
4.621472
 31
0.000000
  6
CONTINUOUS
  0
ARC
  8
WHITE
 10
3.692119
 20
12.075606
 30
0.000000
 40
0.838453
 50
-7.219567
 51
21.047668
  6
CONTINUOUS
  0
ARC
  8
WHITE
 10
4.010655
 20
12.055285
 30
0.000000
 40
0.520267
 50
-77.630792
 51
-9.408437
  6
CONTINUOUS
  0
ARC
  8
WHITE
 10
3.917542
 20
12.398258
 30
0.000000
 40
0.875399
 50
-117.118105
 51
-76.486368
  6
CONTINUOUS
  0
LINE
  8
WHITE
 10
3.518512
 20
11.619092
 30
0.000000
 11
3.513212
 21
11.638932
 31
0.000000
  6
CONTINUOUS
  0
LINE
  8
WHITE
 10
3.513212
 20
11.638932
 30
0.000000
 11
3.623692
 21
11.817172
 31
0.000000
  6
CONTINUOUS
  0
ARC
  8
WHITE
 10
3.881392
 20
12.467896
 30
0.000000
 40
0.699893
 50
-111.604615
 51
-81.224001
  6
CONTINUOUS
  0
ARC
  8
WHITE
 10
3.950472
 20
11.932290
 30
0.000000
 40
0.160583
 50
-76.420431
 51
-10.489448
  6
CONTINUOUS
  0
ARC
  8
WHITE
 10
3.656029
 20
11.946970
 30
0.000000
 40
0.454469
 50
-5.545070
 51
17.886506
  6
CONTINUOUS
  0
LINE
  8
WHITE
 10
4.088532
 20
12.086552
 30
0.000000
 11
4.093252
 21
12.101792
 31
0.000000
  6
CONTINUOUS
  0
LINE
  8
WHITE
 10
4.093252
 20
12.101792
 30
0.000000
 11
4.452992
 21
12.382412
 31
0.000000
  6
CONTINUOUS
  0
LINE
  8
WHITE
 10
4.452992
 20
12.382412
 30
0.000000
 11
4.465252
 21
12.385052
 31
0.000000
  6
CONTINUOUS
  0
LINE
  8
WHITE
 10
4.465252
 20
12.385052
 30
0.000000
 11
4.474632
 21
12.376732
 31
0.000000
  6
CONTINUOUS
  0
ARC
  8
WHITE
 10
6.582669
 20
7.660930
 30
0.000000
 40
3.071307
 50
-35.437919
 51
-17.681178
  6
CONTINUOUS
  0
ARC
  8
WHITE
 10
6.443817
 20
7.890413
 30
0.000000
 40
3.319203
 50
-45.491335
 51
-37.275944
  6
CONTINUOUS
  0
ARC
  8
WHITE
 10
5.064025
 20
9.759688
 30
0.000000
 40
5.628995
 50
-53.657201
 51
-48.815552
  6
CONTINUOUS
  0
LINE
  8
WHITE
 10
8.399852
 20
5.225612
 30
0.000000
 11
8.396092
 21
5.205352
 31
0.000000
  6
CONTINUOUS
  0
LINE
  8
WHITE
 10
8.396092
 20
5.205352
 30
0.000000
 11
8.639872
 21
4.826812
 31
0.000000
  6
CONTINUOUS
  0
LINE
  8
WHITE
 10
8.639872
 20
4.826812
 30
0.000000
 11
8.651532
 21
4.819392
 31
0.000000
  6
CONTINUOUS
  0
LINE
  8
WHITE
 10
8.651532
 20
4.819392
 30
0.000000
 11
8.663792
 21
4.825712
 31
0.000000
  6
CONTINUOUS
  0
LINE
  8
WHITE
 10
8.663792
 20
4.825712
 30
0.000000
 11
8.936172
 21
5.248072
 31
0.000000
  6
CONTINUOUS
  0
LINE
  8
WHITE
 10
8.936172
 20
5.248072
 30
0.000000
 11
9.174012
 21
5.690432
 31
0.000000
  6
CONTINUOUS
  0
LINE
  8
WHITE
 10
9.174012
 20
5.690432
 30
0.000000
 11
9.372832
 21
6.199092
 31
0.000000
  6
CONTINUOUS
  0
LINE
  8
WHITE
 10
9.372832
 20
6.199092
 30
0.000000
 11
9.508892
 21
6.728112
 31
0.000000
  6
CONTINUOUS
  0
ARC
  8
WHITE
 10
5.415189
 20
3.991000
 30
0.000000
 40
1.563448
 50
-54.986339
 51
-41.790862
  6
CONTINUOUS
  0
ARC
  8
WHITE
 10
5.753947
 20
3.660827
 30
0.000000
 40
1.091036
 50
-40.718514
 51
-12.411880
  6
CONTINUOUS
  0
ARC
  8
WHITE
 10
5.321191
 20
3.650583
 30
0.000000
 40
1.514982
 50
-8.512706
 51
11.885840
  6
CONTINUOUS
  0
LINE
  8
WHITE
 10
6.803692
 20
3.962612
 30
0.000000
 11
6.795312
 21
3.972952
 31
0.000000
  6
CONTINUOUS
  0
LINE
  8
WHITE
 10
6.795312
 20
3.972952
 30
0.000000
 11
6.782072
 21
3.971412
 31
0.000000
  6
CONTINUOUS
  0
LINE
  8
WHITE
 10
6.782072
 20
3.971412
 30
0.000000
 11
6.751072
 21
3.949132
 31
0.000000
  6
CONTINUOUS
  0
LINE
  8
WHITE
 10
6.751072
 20
3.949132
 30
0.000000
 11
6.708152
 21
3.914232
 31
0.000000
  6
CONTINUOUS
  0
LINE
  8
WHITE
 10
6.708152
 20
3.914232
 30
0.000000
 11
6.493952
 21
3.664592
 31
0.000000
  6
CONTINUOUS
  0
LINE
  8
WHITE
 10
6.493952
 20
3.664592
 30
0.000000
 11
6.358252
 21
3.370392
 31
0.000000
  6
CONTINUOUS
  0
LINE
  8
WHITE
 10
6.358252
 20
3.370392
 30
0.000000
 11
6.292972
 21
3.049772
 31
0.000000
  6
CONTINUOUS
  0
LINE
  8
WHITE
 10
6.292972
 20
3.049772
 30
0.000000
 11
6.290052
 21
2.720872
 31
0.000000
  6
CONTINUOUS
  0
LINE
  8
WHITE
 10
6.290052
 20
2.720872
 30
0.000000
 11
6.298032
 21
2.709032
 31
0.000000
  6
CONTINUOUS
  0
LINE
  8
WHITE
 10
6.298032
 20
2.709032
 30
0.000000
 11
6.312252
 21
2.710512
 31
0.000000
  6
CONTINUOUS
  0
ARC
  8
WHITE
 10
7.098887
 20
2.919655
 30
0.000000
 40
2.612755
 50
112.225325
 51
141.714368
  6
CONTINUOUS
  0
LINE
  8
WHITE
 10
6.110612
 20
5.338292
 30
0.000000
 11
6.119692
 21
5.353612
 31
0.000000
  6
CONTINUOUS
  0
LINE
  8
WHITE
 10
6.119692
 20
5.353612
 30
0.000000
 11
6.106452
 21
5.365492
 31
0.000000
  6
CONTINUOUS
  0
ARC
  8
WHITE
 10
5.940208
 20
2.388608
 30
0.000000
 40
2.981523
 50
86.803644
 51
94.656568
  6
CONTINUOUS
  0
ARC
  8
WHITE
 10
5.799766
 20
4.155461
 30
0.000000
 40
1.209104
 50
94.820519
 51
109.343873
  6
CONTINUOUS
  0
ARC
  8
WHITE
 10
5.563681
 20
4.777974
 30
0.000000
 40
0.543786
 50
107.598939
 51
156.038050
  6
CONTINUOUS
  0
ARC
  8
WHITE
 10
6.160580
 20
4.640120
 30
0.000000
 40
1.151134
 50
161.843878
 51
173.257972
  6
CONTINUOUS
  0
ARC
  8
WHITE
 10
14.381879
 20
4.888772
 30
0.000000
 40
9.365160
 50
-179.305536
 51
-177.899478
  6
CONTINUOUS
  0
LINE
  8
WHITE
 10
5.023012
 20
4.545512
 30
0.000000
 11
5.033112
 21
4.533392
 31
0.000000
  6
CONTINUOUS
  0
LINE
  8
WHITE
 10
5.033112
 20
4.533392
 30
0.000000
 11
5.048052
 21
4.538472
 31
0.000000
  6
CONTINUOUS
  0
ARC
  8
WHITE
 10
3.692054
 20
2.465212
 30
0.000000
 40
3.217432
 50
-10.768204
 51
1.699131
  6
CONTINUOUS
  0
ARC
  8
WHITE
 10
5.411355
 20
2.140956
 30
0.000000
 40
1.467827
 50
-38.196492
 51
-10.872866
  6
CONTINUOUS
  0
LINE
  8
WHITE
 10
6.564912
 20
1.233310
 30
0.000000
 11
6.547552
 21
1.230498
 31
0.000000
  6
CONTINUOUS
  0
LINE
  8
WHITE
 10
6.547552
 20
1.230498
 30
0.000000
 11
6.541092
 21
1.246836
 31
0.000000
  6
CONTINUOUS
  0
ARC
  8
WHITE
 10
-17.652796
 20
5.186758
 30
0.000000
 40
24.512593
 50
-9.249301
 51
-8.767301
  6
CONTINUOUS
  0
ARC
  8
WHITE
 10
5.378057
 20
1.445270
 30
0.000000
 40
1.195334
 50
0.250883
 51
29.866975
  6
CONTINUOUS
  0
LINE
  8
WHITE
 10
6.414632
 20
2.040532
 30
0.000000
 11
6.419792
 21
2.060372
 31
0.000000
  6
CONTINUOUS
  0
ARC
  8
WHITE
 10
5.875021
 20
3.021209
 30
0.000000
 40
1.104528
 50
-60.447831
 51
-24.340273
  6
CONTINUOUS
  0
LINE
  8
WHITE
 10
6.881372
 20
2.565972
 30
0.000000
 11
6.896832
 21
2.573772
 31
0.000000
  6
CONTINUOUS
  0
LINE
  8
WHITE
 10
6.896832
 20
2.573772
 30
0.000000
 11
6.908072
 21
2.560612
 31
0.000000
  6
CONTINUOUS
  0
ARC
  8
WHITE
 10
5.264987
 20
5.211381
 30
0.000000
 40
2.361408
 50
-148.412375
 51
-138.681404
  6
CONTINUOUS
  0
ARC
  8
WHITE
 10
4.291206
 20
4.612353
 30
0.000000
 40
1.218130
 50
-162.570141
 51
-148.422146
  6
CONTINUOUS
  0
ARC
  8
WHITE
 10
3.722696
 20
4.456537
 30
0.000000
 40
0.629423
 50
158.322769
 51
199.399143
  6
CONTINUOUS
  0
ARC
  8
WHITE
 10
3.986948
 20
4.281099
 30
0.000000
 40
0.942064
 50
126.906211
 51
154.340609
  6
CONTINUOUS
  0
LINE
  8
WHITE
 10
3.421232
 20
5.034392
 30
0.000000
 11
3.436912
 21
5.035592
 31
0.000000
  6
CONTINUOUS
  0
ARC
  8
WHITE
 10
3.210646
 20
4.987511
 30
0.000000
 40
0.231318
 50
-9.111431
 51
11.996734
  6
CONTINUOUS
  0
ARC
  8
WHITE
 10
9.540225
 20
4.388221
 30
0.000000
 40
6.127070
 50
174.731003
 51
180.788643
  6
CONTINUOUS
  0
ARC
  8
WHITE
 10
5.914503
 20
4.375229
 30
0.000000
 40
2.501785
 50
-178.365942
 51
-163.533163
  6
CONTINUOUS
  0
LINE
  8
WHITE
 10
3.515332
 20
3.666072
 30
0.000000
 11
3.509072
 21
3.649332
 31
0.000000
  6
CONTINUOUS
  0
LINE
  8
WHITE
 10
3.509072
 20
3.649332
 30
0.000000
 11
3.491452
 21
3.652272
 31
0.000000
  6
CONTINUOUS
  0
LINE
  8
WHITE
 10
7.331092
 20
5.868052
 30
0.000000
 11
7.220942
 21
6.103573
 31
0.000000
  6
CONTINUOUS
  0
ARC
  8
WHITE
 10
8.577116
 20
6.624258
 30
0.000000
 40
1.452694
 50
165.127300
 51
201.003645
  6
CONTINUOUS
  0
ARC
  8
WHITE
 10
8.946119
 20
6.466137
 30
0.000000
 40
1.850833
 50
135.164442
 51
163.328078
  6
CONTINUOUS
  0
LINE
  8
WHITE
 10
7.633632
 20
7.771112
 30
0.000000
 11
7.651792
 21
7.772852
 31
0.000000
  6
CONTINUOUS
  0
LINE
  8
WHITE
 10
7.651792
 20
7.772852
 30
0.000000
 11
7.656392
 21
7.755192
 31
0.000000
  6
CONTINUOUS
  0
LINE
  8
WHITE
 10
7.656392
 20
7.755192
 30
0.000000
 11
7.608112
 21
7.651732
 31
0.000000
  6
CONTINUOUS
  0
LINE
  8
WHITE
 10
7.608112
 20
7.651732
 30
0.000000
 11
7.448412
 21
7.230072
 31
0.000000
  6
CONTINUOUS
  0
LINE
  8
WHITE
 10
7.448412
 20
7.230072
 30
0.000000
 11
7.341152
 21
6.782712
 31
0.000000
  6
CONTINUOUS
  0
LINE
  8
WHITE
 10
7.341152
 20
6.782712
 30
0.000000
 11
7.304612
 21
6.326472
 31
0.000000
  6
CONTINUOUS
  0
LINE
  8
WHITE
 10
7.304612
 20
6.326472
 30
0.000000
 11
7.356992
 21
5.878152
 31
0.000000
  6
CONTINUOUS
  0
LINE
  8
WHITE
 10
7.356992
 20
5.878152
 30
0.000000
 11
7.348392
 21
5.861932
 31
0.000000
  6
CONTINUOUS
  0
LINE
  8
WHITE
 10
7.348392
 20
5.861932
 30
0.000000
 11
7.331092
 21
5.868052
 31
0.000000
  6
CONTINUOUS
  0
ARC
  8
WHITE
 10
1.258428
 20
9.757644
 30
0.000000
 40
1.054519
 50
167.109671
 51
180.362269
  6
CONTINUOUS
  0
ARC
  8
WHITE
 10
0.822532
 20
9.746096
 30
0.000000
 40
0.618621
 50
179.547985
 51
218.901310
  6
CONTINUOUS
  0
ARC
  8
WHITE
 10
0.548142
 20
9.487756
 30
0.000000
 40
0.244545
 50
-147.846974
 51
-72.841520
  6
CONTINUOUS
  0
ARC
  8
WHITE
 10
0.461583
 20
9.548823
 30
0.000000
 40
0.334740
 50
-61.698645
 51
-20.711763
  6
CONTINUOUS
  0
ARC
  8
WHITE
 10
0.278850
 20
9.637899
 30
0.000000
 40
0.537491
 50
-22.704745
 51
15.679177
  6
CONTINUOUS
  0
ARC
  8
WHITE
 10
0.090815
 20
9.554521
 30
0.000000
 40
0.741648
 50
17.955588
 51
45.788400
  6
CONTINUOUS
  0
LINE
  8
WHITE
 10
0.607974
 20
10.086112
 30
0.000000
 11
0.589868
 21
10.087452
 31
0.000000
  6
CONTINUOUS
  0
LINE
  8
WHITE
 10
0.589868
 20
10.087452
 30
0.000000
 11
0.585522
 21
10.069812
 31
0.000000
  6
CONTINUOUS
  0
ARC
  8
WHITE
 10
0.214833
 20
9.875724
 30
0.000000
 40
0.418427
 50
-2.616297
 51
27.636015
  6
CONTINUOUS
  0
ARC
  8
WHITE
 10
0.465629
 20
9.858689
 30
0.000000
 40
0.167207
 50
-114.264687
 51
-0.707639
  6
CONTINUOUS
  0
ARC
  8
WHITE
 10
0.487318
 20
9.890657
 30
0.000000
 40
0.205365
 50
-162.345450
 51
-116.116395
  6
CONTINUOUS
  0
ARC
  8
WHITE
 10
0.905968
 20
10.040189
 30
0.000000
 40
0.649833
 50
-175.516684
 51
-160.976705
  6
CONTINUOUS
  0
LINE
  8
WHITE
 10
0.258124
 20
9.989392
 30
0.000000
 11
0.245810
 21
10.003072
 31
0.000000
  6
CONTINUOUS
  0
LINE
  8
WHITE
 10
0.245810
 20
10.003072
 30
0.000000
 11
0.230484
 21
9.992892
 31
0.000000
  6
CONTINUOUS
  0
ARC
  8
WHITE
 10
2.082622
 20
6.089882
 30
0.000000
 40
1.170302
 50
-2.543238
 51
28.231263
  6
CONTINUOUS
  0
LINE
  8
WHITE
 10
3.251772
 20
6.037952
 30
0.000000
 11
3.262052
 21
6.023652
 31
0.000000
  6
CONTINUOUS
  0
LINE
  8
WHITE
 10
3.262052
 20
6.023652
 30
0.000000
 11
3.278212
 21
6.030652
 31
0.000000
  6
CONTINUOUS
  0
LINE
  8
WHITE
 10
3.278212
 20
6.030652
 30
0.000000
 11
3.460252
 21
6.449492
 31
0.000000
  6
CONTINUOUS
  0
LINE
  8
WHITE
 10
3.460252
 20
6.449492
 30
0.000000
 11
3.569672
 21
6.893232
 31
0.000000
  6
CONTINUOUS
  0
LINE
  8
WHITE
 10
3.569672
 20
6.893232
 30
0.000000
 11
3.607212
 21
7.509252
 31
0.000000
  6
CONTINUOUS
  0
LINE
  8
WHITE
 10
3.607212
 20
7.509252
 30
0.000000
 11
3.594112
 21
7.522812
 31
0.000000
  6
CONTINUOUS
  0
LINE
  8
WHITE
 10
3.594112
 20
7.522812
 30
0.000000
 11
3.579292
 21
7.511172
 31
0.000000
  6
CONTINUOUS
  0
LINE
  8
WHITE
 10
3.579292
 20
7.511172
 30
0.000000
 11
3.522732
 21
7.265832
 31
0.000000
  6
CONTINUOUS
  0
LINE
  8
WHITE
 10
3.522732
 20
7.265832
 30
0.000000
 11
3.427732
 21
7.031012
 31
0.000000
  6
CONTINUOUS
  0
LINE
  8
WHITE
 10
3.427732
 20
7.031012
 30
0.000000
 11
3.293172
 21
6.823992
 31
0.000000
  6
CONTINUOUS
  0
LINE
  8
WHITE
 10
3.293172
 20
6.823992
 30
0.000000
 11
3.117992
 21
6.662052
 31
0.000000
  6
CONTINUOUS
  0
LINE
  8
WHITE
 10
3.117992
 20
6.662052
 30
0.000000
 11
3.113712
 21
6.643472
 31
0.000000
  6
CONTINUOUS
  0
ARC
  8
WHITE
 10
3.345215
 20
11.553453
 30
0.000000
 40
5.167003
 50
-77.688700
 51
-74.640853
  6
CONTINUOUS
  0
ARC
  8
WHITE
 10
5.316812
 20
4.269313
 30
0.000000
 40
2.399207
 50
111.257923
 51
130.955051
  6
CONTINUOUS
  0
LINE
  8
WHITE
 10
3.744212
 20
6.081252
 30
0.000000
 11
3.726352
 21
6.081112
 31
0.000000
  6
CONTINUOUS
  0
LINE
  8
WHITE
 10
3.726352
 20
6.081112
 30
0.000000
 11
3.722772
 21
6.098592
 31
0.000000
  6
CONTINUOUS
  0
LINE
  8
WHITE
 10
3.722772
 20
6.098592
 30
0.000000
 11
3.753912
 21
6.154872
 31
0.000000
  6
CONTINUOUS
  0
LINE
  8
WHITE
 10
3.753912
 20
6.154872
 30
0.000000
 11
3.948192
 21
6.427752
 31
0.000000
  6
CONTINUOUS
  0
LINE
  8
WHITE
 10
3.948192
 20
6.427752
 30
0.000000
 11
4.187592
 21
6.660032
 31
0.000000
  6
CONTINUOUS
  0
LINE
  8
WHITE
 10
4.187592
 20
6.660032
 30
0.000000
 11
4.464552
 21
6.845772
 31
0.000000
  6
CONTINUOUS
  0
LINE
  8
WHITE
 10
4.464552
 20
6.845772
 30
0.000000
 11
4.771552
 21
6.979072
 31
0.000000
  6
CONTINUOUS
  0
LINE
  8
WHITE
 10
4.771552
 20
6.979072
 30
0.000000
 11
4.787892
 21
6.973352
 31
0.000000
  6
CONTINUOUS
  0
ARC
  8
WHITE
 10
4.260545
 20
7.186336
 30
0.000000
 40
0.568732
 50
-32.559281
 51
-21.992704
  6
CONTINUOUS
  0
ARC
  8
WHITE
 10
5.143052
 20
6.690500
 30
0.000000
 40
0.445585
 50
154.794401
 51
195.557382
  6
CONTINUOUS
  0
ARC
  8
WHITE
 10
3.870544
 20
11.997536
 30
0.000000
 40
6.017127
 50
-77.473046
 51
-61.083503
  6
CONTINUOUS
  0
LINE
  8
WHITE
 10
5.175652
 20
6.123652
 30
0.000000
 11
5.164912
 21
6.108312
 31
0.000000
  6
CONTINUOUS
  0
LINE
  8
WHITE
 10
5.164912
 20
6.108312
 30
0.000000
 11
5.178912
 21
6.095872
 31
0.000000
  6
CONTINUOUS
  0
ARC
  8
WHITE
 10
5.126638
 20
8.993688
 30
0.000000
 40
2.898288
 50
-88.966543
 51
-71.433310
  6
CONTINUOUS
  0
ARC
  8
WHITE
 10
5.462051
 20
8.031561
 30
0.000000
 40
1.879473
 50
-71.787172
 51
-44.742807
  6
CONTINUOUS
  0
LINE
  8
WHITE
 10
6.796992
 20
6.708552
 30
0.000000
 11
6.797892
 21
6.726812
 31
0.000000
  6
CONTINUOUS
  0
LINE
  8
WHITE
 10
6.797892
 20
6.726812
 30
0.000000
 11
6.780032
 21
6.730592
 31
0.000000
  6
CONTINUOUS
  0
ARC
  8
WHITE
 10
11.378885
 20
10.403053
 30
0.000000
 40
0.570616
 50
66.537819
 51
104.981956
  6
CONTINUOUS
  0
LINE
  8
WHITE
 10
11.606072
 20
10.926492
 30
0.000000
 11
11.621492
 21
10.929072
 31
0.000000
  6
CONTINUOUS
  0
LINE
  8
WHITE
 10
11.621492
 20
10.929072
 30
0.000000
 11
11.624792
 21
10.944332
 31
0.000000
  6
CONTINUOUS
  0
LINE
  8
WHITE
 10
11.624792
 20
10.944332
 30
0.000000
 11
11.420352
 21
11.347772
 31
0.000000
  6
CONTINUOUS
  0
LINE
  8
WHITE
 10
11.420352
 20
11.347772
 30
0.000000
 11
11.128232
 21
11.691792
 31
0.000000
  6
CONTINUOUS
  0
LINE
  8
WHITE
 10
11.128232
 20
11.691792
 30
0.000000
 11
11.110932
 21
11.693392
 31
0.000000
  6
CONTINUOUS
  0
LINE
  8
WHITE
 10
11.110932
 20
11.693392
 30
0.000000
 11
11.105352
 21
11.676932
 31
0.000000
  6
CONTINUOUS
  0
ARC
  8
WHITE
 10
-27.807485
 20
1.378494
 30
0.000000
 40
40.252537
 50
14.299294
 51
14.823702
  6
CONTINUOUS
  0
ARC
  8
WHITE
 10
17.997919
 20
11.756072
 30
0.000000
 40
6.813886
 50
-176.333658
 51
-173.242267
  6
CONTINUOUS
  0
ARC
  8
WHITE
 10
4.394474
 20
12.664976
 30
0.000000
 40
0.259393
 50
137.153837
 51
152.175474
  6
CONTINUOUS
  0
LINE
  8
WHITE
 10
4.204292
 20
12.841372
 30
0.000000
 11
4.401372
 21
12.853432
 31
0.000000
  6
CONTINUOUS
  0
LINE
  8
WHITE
 10
4.401372
 20
12.853432
 30
0.000000
 11
4.605312
 21
12.821452
 31
0.000000
  6
CONTINUOUS
  0
LINE
  8
WHITE
 10
4.605312
 20
12.821452
 30
0.000000
 11
4.615432
 21
12.805372
 31
0.000000
  6
CONTINUOUS
  0
LINE
  8
WHITE
 10
4.615432
 20
12.805372
 30
0.000000
 11
4.600352
 21
12.793832
 31
0.000000
  6
CONTINUOUS
  0
LINE
  8
WHITE
 10
4.600352
 20
12.793832
 30
0.000000
 11
4.387192
 21
12.798472
 31
0.000000
  6
CONTINUOUS
  0
LINE
  8
WHITE
 10
4.387192
 20
12.798472
 30
0.000000
 11
4.180672
 21
12.765112
 31
0.000000
  6
CONTINUOUS
  0
LINE
  8
WHITE
 10
4.180672
 20
12.765112
 30
0.000000
 11
4.165572
 21
12.770152
 31
0.000000
  6
CONTINUOUS
  0
LINE
  8
WHITE
 10
4.165572
 20
12.770152
 30
0.000000
 11
4.165072
 21
12.786052
 31
0.000000
  6
CONTINUOUS
  0
ARC
  8
WHITE
 10
3.975828
 20
12.265702
 30
0.000000
 40
0.070793
 50
-86.108818
 51
86.108772
  6
CONTINUOUS
  0
ARC
  8
WHITE
 10
3.985429
 20
12.265702
 30
0.000000
 40
0.070793
 50
93.885308
 51
266.114715
  6
CONTINUOUS
  0
ARC
  8
WHITE
 10
5.213758
 20
12.516014
 30
0.000000
 40
0.210928
 50
-172.464380
 51
-152.412439
  6
CONTINUOUS
  0
LINE
  8
WHITE
 10
5.026812
 20
12.418332
 30
0.000000
 11
5.040712
 21
12.420932
 31
0.000000
  6
CONTINUOUS
  0
LINE
  8
WHITE
 10
5.040712
 20
12.420932
 30
0.000000
 11
5.151772
 21
12.525352
 31
0.000000
  6
CONTINUOUS
  0
LINE
  8
WHITE
 10
5.151772
 20
12.525352
 30
0.000000
 11
5.152632
 21
12.543332
 31
0.000000
  6
CONTINUOUS
  0
LINE
  8
WHITE
 10
5.152632
 20
12.543332
 30
0.000000
 11
5.135132
 21
12.547452
 31
0.000000
  6
CONTINUOUS
  0
LINE
  8
WHITE
 10
5.135132
 20
12.547452
 30
0.000000
 11
5.015172
 21
12.505752
 31
0.000000
  6
CONTINUOUS
  0
LINE
  8
WHITE
 10
5.015172
 20
12.505752
 30
0.000000
 11
5.004652
 21
12.488352
 31
0.000000
  6
CONTINUOUS
  0
ARC
  8
WHITE
 10
13.425700
 20
5.277877
 30
0.000000
 40
2.745729
 50
152.291627
 51
164.270524
  6
CONTINUOUS
  0
ARC
  8
WHITE
 10
12.882542
 20
5.548797
 30
0.000000
 40
2.138925
 50
125.051164
 51
151.951434
  6
CONTINUOUS
  0
ARC
  8
WHITE
 10
13.743479
 20
4.186962
 30
0.000000
 40
3.749017
 50
112.355527
 51
123.869472
  6
CONTINUOUS
  0
ARC
  8
WHITE
 10
112.182762
 20
-255.839582
 30
0.000000
 40
281.783680
 50
110.527122
 51
110.756914
  6
CONTINUOUS
  0
ARC
  8
WHITE
 10
9.373779
 20
17.691063
 30
0.000000
 40
10.436014
 50
-67.454595
 51
-64.352708
  6
CONTINUOUS
  0
ARC
  8
WHITE
 10
-25.767456
 20
73.135530
 30
0.000000
 40
76.017071
 50
-58.553515
 51
-58.127791
  6
CONTINUOUS
  0
LINE
  8
WHITE
 10
14.371572
 20
8.579712
 30
0.000000
 11
14.380152
 21
8.574712
 31
0.000000
  6
CONTINUOUS
  0
LINE
  8
WHITE
 10
14.380152
 20
8.574712
 30
0.000000
 11
14.383812
 21
8.565492
 31
0.000000
  6
CONTINUOUS
  0
ARC
  8
WHITE
 10
11.373439
 20
11.764778
 30
0.000000
 40
4.392923
 50
-58.326094
 51
-46.742544
  6
CONTINUOUS
  0
ARC
  8
WHITE
 10
11.053147
 20
12.290449
 30
0.000000
 40
5.008477
 50
-65.985343
 51
-58.365415
  6
CONTINUOUS
  0
ARC
  8
WHITE
 10
13.788623
 20
6.025256
 30
0.000000
 40
1.828380
 50
112.414665
 51
120.242143
  6
CONTINUOUS
  0
ARC
  8
WHITE
 10
13.565768
 20
6.236254
 30
0.000000
 40
1.536279
 50
117.023553
 51
125.170367
  6
CONTINUOUS
  0
LINE
  8
WHITE
 10
12.680857
 20
7.492074
 30
0.000000
 11
12.541992
 21
7.360947
 31
0.000000
  6
CONTINUOUS
  0
ARC
  8
WHITE
 10
12.887660
 20
7.043050
 30
0.000000
 40
0.469622
 50
137.396506
 51
178.154109
  6
CONTINUOUS
  0
ARC
  8
WHITE
 10
12.626646
 20
7.078451
 30
0.000000
 40
0.209349
 50
-174.442360
 51
-105.716187
  6
CONTINUOUS
  0
ARC
  8
WHITE
 10
12.754736
 20
7.590604
 30
0.000000
 40
0.737212
 50
-104.517148
 51
-75.297245
  6
CONTINUOUS
  0
ARC
  8
WHITE
 10
12.369218
 20
9.299366
 30
0.000000
 40
2.488611
 50
-76.697127
 51
-68.029197
  6
CONTINUOUS
  0
LINE
  8
WHITE
 10
13.300292
 20
6.991492
 30
0.000000
 11
13.317452
 21
6.986152
 31
0.000000
  6
CONTINUOUS
  0
LINE
  8
WHITE
 10
13.317452
 20
6.986152
 30
0.000000
 11
13.315392
 21
6.968312
 31
0.000000
  6
CONTINUOUS
  0
LINE
  8
WHITE
 10
13.315392
 20
6.968312
 30
0.000000
 11
13.072632
 21
6.778332
 31
0.000000
  6
CONTINUOUS
  0
LINE
  8
WHITE
 10
13.072632
 20
6.778332
 30
0.000000
 11
12.807612
 21
6.645412
 31
0.000000
  6
CONTINUOUS
  0
LINE
  8
WHITE
 10
12.807612
 20
6.645412
 30
0.000000
 11
12.521032
 21
6.558592
 31
0.000000
  6
CONTINUOUS
  0
LINE
  8
WHITE
 10
12.521032
 20
6.558592
 30
0.000000
 11
12.213532
 21
6.506912
 31
0.000000
  6
CONTINUOUS
  0
LINE
  8
WHITE
 10
12.213532
 20
6.506912
 30
0.000000
 11
11.772012
 21
6.467092
 31
0.000000
  6
CONTINUOUS
  0
LINE
  8
WHITE
 10
11.772012
 20
6.467092
 30
0.000000
 11
11.504492
 21
6.423332
 31
0.000000
  6
CONTINUOUS
  0
LINE
  8
WHITE
 10
11.504492
 20
6.423332
 30
0.000000
 11
11.243392
 21
6.333092
 31
0.000000
  6
CONTINUOUS
  0
LINE
  8
WHITE
 10
11.243392
 20
6.333092
 30
0.000000
 11
11.005412
 21
6.195472
 31
0.000000
  6
CONTINUOUS
  0
LINE
  8
WHITE
 10
11.005412
 20
6.195472
 30
0.000000
 11
10.807212
 21
6.009632
 31
0.000000
  6
CONTINUOUS
  0
LINE
  8
WHITE
 10
10.807212
 20
6.009632
 30
0.000000
 11
10.789872
 21
6.005992
 31
0.000000
  6
CONTINUOUS
  0
LINE
  8
WHITE
 10
10.789872
 20
6.005992
 30
0.000000
 11
10.782792
 21
6.022232
 31
0.000000
  6
CONTINUOUS
  0
ARC
  8
WHITE
 10
-1.801344
 20
-2.336933
 30
0.000000
 40
12.159225
 50
19.783645
 51
21.496245
  6
CONTINUOUS
  0
ARC
  8
WHITE
 10
20.583849
 20
3.683103
 30
0.000000
 40
11.181722
 50
-173.587023
 51
-171.957510
  6
CONTINUOUS
  0
ARC
  8
WHITE
 10
12.115985
 20
2.485890
 30
0.000000
 40
2.644396
 50
156.997569
 51
181.120657
  6
CONTINUOUS
  0
ARC
  8
WHITE
 10
13.261381
 20
2.118626
 30
0.000000
 40
3.843795
 50
142.039161
 51
158.630360
  6
CONTINUOUS
  0
LINE
  8
WHITE
 10
10.230812
 20
4.483032
 30
0.000000
 11
10.231812
 21
4.499632
 31
0.000000
  6
CONTINUOUS
  0
LINE
  8
WHITE
 10
10.231812
 20
4.499632
 30
0.000000
 11
10.216252
 21
4.505412
 31
0.000000
  6
CONTINUOUS
  0
ARC
  8
WHITE
 10
10.619286
 20
3.130629
 30
0.000000
 40
1.432643
 50
106.339148
 51
124.049967
  6
CONTINUOUS
  0
ARC
  8
WHITE
 10
11.169198
 20
2.442222
 30
0.000000
 40
2.311991
 50
125.789418
 51
158.708966
  6
CONTINUOUS
  0
ARC
  8
WHITE
 10
6.519935
 20
2.446929
 30
0.000000
 40
2.631016
 50
-15.157933
 51
18.498992
  6
CONTINUOUS
  0
ARC
  8
WHITE
 10
6.301741
 20
2.552433
 30
0.000000
 40
2.869555
 50
-46.917537
 51
-16.052072
  6
CONTINUOUS
  0
LINE
  8
WHITE
 10
8.261792
 20
0.456592
 30
0.000000
 11
8.259892
 21
0.438472
 31
0.000000
  6
CONTINUOUS
  0
LINE
  8
WHITE
 10
8.259892
 20
0.438472
 30
0.000000
 11
8.277472
 21
0.433730
 31
0.000000
  6
CONTINUOUS
  0
LINE
  8
WHITE
 10
8.277472
 20
0.433730
 30
0.000000
 11
8.558932
 21
0.587324
 31
0.000000
  6
CONTINUOUS
  0
LINE
  8
WHITE
 10
8.558932
 20
0.587324
 30
0.000000
 11
8.823452
 21
0.763872
 31
0.000000
  6
CONTINUOUS
  0
LINE
  8
WHITE
 10
8.823452
 20
0.763872
 30
0.000000
 11
9.080472
 21
0.969394
 31
0.000000
  6
CONTINUOUS
  0
LINE
  8
WHITE
 10
9.080472
 20
0.969394
 30
0.000000
 11
9.315132
 21
1.207266
 31
0.000000
  6
CONTINUOUS
  0
LINE
  8
WHITE
 10
9.315132
 20
1.207266
 30
0.000000
 11
9.508152
 21
1.477112
 31
0.000000
  6
CONTINUOUS
  0
LINE
  8
WHITE
 10
9.508152
 20
1.477112
 30
0.000000
 11
9.640212
 21
1.778592
 31
0.000000
  6
CONTINUOUS
  0
LINE
  8
WHITE
 10
1.079048
 20
5.895612
 30
0.000000
 11
1.094692
 21
5.904732
 31
0.000000
  6
CONTINUOUS
  0
LINE
  8
WHITE
 10
1.094692
 20
5.904732
 30
0.000000
 11
1.106352
 21
5.890852
 31
0.000000
  6
CONTINUOUS
  0
LINE
  8
WHITE
 10
1.106352
 20
5.890852
 30
0.000000
 11
1.134346
 21
5.338992
 31
0.000000
  6
CONTINUOUS
  0
LINE
  8
WHITE
 10
1.134346
 20
5.338992
 30
0.000000
 11
1.207368
 21
4.793512
 31
0.000000
  6
CONTINUOUS
  0
LINE
  8
WHITE
 10
1.207368
 20
4.793512
 30
0.000000
 11
1.317732
 21
4.259332
 31
0.000000
  6
CONTINUOUS
  0
LINE
  8
WHITE
 10
1.317732
 20
4.259332
 30
0.000000
 11
1.479052
 21
3.730232
 31
0.000000
  6
CONTINUOUS
  0
LINE
  8
WHITE
 10
1.479052
 20
3.730232
 30
0.000000
 11
1.701512
 21
3.225772
 31
0.000000
  6
CONTINUOUS
  0
LINE
  8
WHITE
 10
1.701512
 20
3.225772
 30
0.000000
 11
1.995352
 21
2.765552
 31
0.000000
  6
CONTINUOUS
  0
LINE
  8
WHITE
 10
1.995352
 20
2.765552
 30
0.000000
 11
1.994972
 21
2.747832
 31
0.000000
  6
CONTINUOUS
  0
LINE
  8
WHITE
 10
1.994972
 20
2.747832
 30
0.000000
 11
1.977532
 21
2.744612
 31
0.000000
  6
CONTINUOUS
  0
LINE
  8
WHITE
 10
1.977532
 20
2.744612
 30
0.000000
 11
1.563292
 21
3.019292
 31
0.000000
  6
CONTINUOUS
  0
LINE
  8
WHITE
 10
1.563292
 20
3.019292
 30
0.000000
 11
1.248994
 21
3.334372
 31
0.000000
  6
CONTINUOUS
  0
LINE
  8
WHITE
 10
1.248994
 20
3.334372
 30
0.000000
 11
1.058832
 21
3.623472
 31
0.000000
  6
CONTINUOUS
  0
LINE
  8
WHITE
 10
1.058832
 20
3.623472
 30
0.000000
 11
0.929732
 21
3.930392
 31
0.000000
  6
CONTINUOUS
  0
LINE
  8
WHITE
 10
0.929732
 20
3.930392
 30
0.000000
 11
0.855288
 21
4.250652
 31
0.000000
  6
CONTINUOUS
  0
LINE
  8
WHITE
 10
0.855288
 20
4.250652
 30
0.000000
 11
0.829106
 21
4.579792
 31
0.000000
  6
CONTINUOUS
  0
LINE
  8
WHITE
 10
0.829106
 20
4.579792
 30
0.000000
 11
0.844784
 21
4.913332
 31
0.000000
  6
CONTINUOUS
  0
LINE
  8
WHITE
 10
0.844784
 20
4.913332
 30
0.000000
 11
0.895932
 21
5.246812
 31
0.000000
  6
CONTINUOUS
  0
LINE
  8
WHITE
 10
0.895932
 20
5.246812
 30
0.000000
 11
0.976152
 21
5.575732
 31
0.000000
  6
CONTINUOUS
  0
LINE
  8
WHITE
 10
0.976152
 20
5.575732
 30
0.000000
 11
1.079048
 21
5.895612
 31
0.000000
  6
CONTINUOUS
  0
ARC
  8
WHITE
 10
4.971846
 20
2.029598
 30
0.000000
 40
3.784593
 50
26.454053
 51
40.394101
  6
CONTINUOUS
  0
ARC
  8
WHITE
 10
1.502624
 20
0.623143
 30
0.000000
 40
7.522557
 50
21.643161
 51
24.273056
  6
CONTINUOUS
  0
ARC
  8
WHITE
 10
7.152475
 20
2.846698
 30
0.000000
 40
1.451025
 50
10.393641
 51
22.315002
  6
CONTINUOUS
  0
ARC
  8
WHITE
 10
5.213625
 20
2.171252
 30
0.000000
 40
3.494108
 50
11.225741
 51
15.558982
  6
CONTINUOUS
  0
ARC
  8
WHITE
 10
2.532544
 20
2.274356
 30
0.000000
 40
6.135541
 50
1.077697
 51
5.397240
  6
CONTINUOUS
  0
ARC
  8
WHITE
 10
6.244958
 20
2.391708
 30
0.000000
 40
2.422042
 50
-16.459429
 51
-0.046200
  6
CONTINUOUS
  0
ARC
  8
WHITE
 10
4.835095
 20
2.835771
 30
0.000000
 40
3.900038
 50
-21.944961
 51
-16.847289
  6
CONTINUOUS
  0
ARC
  8
WHITE
 10
20.952362
 20
-4.565511
 30
0.000000
 40
13.841019
 50
154.568478
 51
156.004786
  6
CONTINUOUS
  0
LINE
  8
WHITE
 10
8.307492
 20
1.063082
 30
0.000000
 11
8.313352
 21
1.055338
 31
0.000000
  6
CONTINUOUS
  0
LINE
  8
WHITE
 10
8.313352
 20
1.055338
 30
0.000000
 11
8.322732
 21
1.052804
 31
0.000000
  6
CONTINUOUS
  0
ARC
  8
WHITE
 10
7.433633
 20
1.865814
 30
0.000000
 40
1.204775
 50
-42.440422
 51
-31.169987
  6
CONTINUOUS
  0
LINE
  8
WHITE
 10
8.464481
 20
1.242248
 30
0.000000
 11
8.678343
 21
1.631746
 31
0.000000
  6
CONTINUOUS
  0
ARC
  8
WHITE
 10
1.251242
 20
4.320571
 30
0.000000
 40
7.898836
 50
-19.901722
 51
-17.081420
  6
CONTINUOUS
  0
ARC
  8
WHITE
 10
7.667577
 20
2.390368
 30
0.000000
 40
1.199232
 50
-18.974388
 51
-2.720245
  6
CONTINUOUS
  0
ARC
  8
WHITE
 10
3.753951
 20
3.017506
 30
0.000000
 40
5.157075
 50
-7.622374
 51
-4.315190
  6
CONTINUOUS
  0
ARC
  8
WHITE
 10
-2.138902
 20
1.959148
 30
0.000000
 40
11.055649
 50
3.476077
 51
6.174953
  6
CONTINUOUS
  0
ARC
  8
WHITE
 10
5.692059
 20
2.519185
 30
0.000000
 40
3.222558
 50
11.258540
 51
25.151663
  6
CONTINUOUS
  0
ARC
  8
WHITE
 10
3.811365
 20
1.598456
 30
0.000000
 40
5.316370
 50
25.519234
 51
29.729807
  6
CONTINUOUS
  0
LINE
  8
WHITE
 10
8.427960
 20
4.234899
 30
0.000000
 11
8.217772
 21
4.564252
 31
0.000000
  6
CONTINUOUS
  0
LINE
  8
WHITE
 10
8.217772
 20
4.564252
 30
0.000000
 11
8.203132
 21
4.569812
 31
0.000000
  6
CONTINUOUS
  0
LINE
  8
WHITE
 10
8.203132
 20
4.569812
 30
0.000000
 11
7.864712
 21
4.491712
 31
0.000000
  6
CONTINUOUS
  0
LINE
  8
WHITE
 10
7.864712
 20
4.491712
 30
0.000000
 11
7.854212
 21
4.482172
 31
0.000000
  6
CONTINUOUS
  0
ARC
  8
WHITE
 10
1.648638
 20
1.059731
 30
0.000000
 40
2.069826
 50
20.807281
 51
37.182837
  6
CONTINUOUS
  0
ARC
  8
WHITE
 10
0.929078
 20
0.884247
 30
0.000000
 40
2.806288
 50
0.804720
 51
18.937414
  6
CONTINUOUS
  0
ARC
  8
WHITE
 10
-0.728603
 20
0.907797
 30
0.000000
 40
4.463720
 50
-11.199650
 51
0.203619
  6
CONTINUOUS
  0
LINE
  8
WHITE
 10
3.650112
 20
0.040816
 30
0.000000
 11
3.649692
 21
0.065718
 31
0.000000
  6
CONTINUOUS
  0
LINE
  8
WHITE
 10
3.649692
 20
0.065718
 30
0.000000
 11
3.642952
 21
0.134942
 31
0.000000
  6
CONTINUOUS
  0
LINE
  8
WHITE
 10
3.642952
 20
0.134942
 30
0.000000
 11
3.565432
 21
0.404468
 31
0.000000
  6
CONTINUOUS
  0
LINE
  8
WHITE
 10
3.565432
 20
0.404468
 30
0.000000
 11
3.424332
 21
0.645626
 31
0.000000
  6
CONTINUOUS
  0
LINE
  8
WHITE
 10
3.424332
 20
0.645626
 30
0.000000
 11
3.235532
 21
0.854604
 31
0.000000
  6
CONTINUOUS
  0
LINE
  8
WHITE
 10
3.235532
 20
0.854604
 30
0.000000
 11
3.014892
 21
1.027578
 31
0.000000
  6
CONTINUOUS
  0
LINE
  8
WHITE
 10
3.014892
 20
1.027578
 30
0.000000
 11
3.011912
 21
1.048262
 31
0.000000
  6
CONTINUOUS
  0
LINE
  8
WHITE
 10
3.011912
 20
1.048262
 30
0.000000
 11
3.188772
 21
1.334492
 31
0.000000
  6
CONTINUOUS
  0
LINE
  8
WHITE
 10
3.188772
 20
1.334492
 30
0.000000
 11
3.277932
 21
1.642632
 31
0.000000
  6
CONTINUOUS
  0
LINE
  8
WHITE
 10
3.277932
 20
1.642632
 30
0.000000
 11
3.299372
 21
1.966432
 31
0.000000
  6
CONTINUOUS
  0
LINE
  8
WHITE
 10
3.299372
 20
1.966432
 30
0.000000
 11
3.273072
 21
2.299672
 31
0.000000
  6
CONTINUOUS
  0
LINE
  8
WHITE
 10
3.273072
 20
2.299672
 30
0.000000
 11
3.281212
 21
2.314512
 31
0.000000
  6
CONTINUOUS
  0
LINE
  8
WHITE
 10
3.281212
 20
2.314512
 30
0.000000
 11
3.297692
 21
2.310652
 31
0.000000
  6
CONTINUOUS
  0
ARC
  8
WHITE
 10
11.684252
 20
13.025735
 30
0.000000
 40
0.788586
 50
-175.377597
 51
-161.223911
  6
CONTINUOUS
  0
ARC
  8
WHITE
 10
11.127280
 20
12.980835
 30
0.000000
 40
0.229807
 50
163.452092
 51
184.655212
  6
CONTINUOUS
  0
ARC
  8
WHITE
 10
10.995137
 20
13.016563
 30
0.000000
 40
0.093022
 50
62.955255
 51
161.365068
  6
CONTINUOUS
  0
ARC
  8
WHITE
 10
10.989830
 20
12.867259
 30
0.000000
 40
0.236985
 50
44.654490
 51
78.412323
  6
CONTINUOUS
  0
ARC
  8
WHITE
 10
7.572611
 20
8.785735
 30
0.000000
 40
5.559153
 50
48.572145
 51
49.832347
  6
CONTINUOUS
  0
ARC
  8
WHITE
 10
10.306230
 20
12.325269
 30
0.000000
 40
1.134791
 50
12.009049
 51
33.641061
  6
CONTINUOUS
  0
ARC
  8
WHITE
 10
7.242698
 20
11.641523
 30
0.000000
 40
4.273657
 50
6.688097
 51
12.429543
  6
CONTINUOUS
  0
LINE
  8
WHITE
 10
11.487272
 20
12.139252
 30
0.000000
 11
11.501632
 21
12.126832
 31
0.000000
  6
CONTINUOUS
  0
LINE
  8
WHITE
 10
11.501632
 20
12.126832
 30
0.000000
 11
11.515312
 21
12.139992
 31
0.000000
  6
CONTINUOUS
  0
LINE
  8
WHITE
 10
11.515312
 20
12.139992
 30
0.000000
 11
11.511232
 21
12.478672
 31
0.000000
  6
CONTINUOUS
  0
LINE
  8
WHITE
 10
11.511232
 20
12.478672
 30
0.000000
 11
11.456272
 21
12.801812
 31
0.000000
  6
CONTINUOUS
  0
LINE
  8
WHITE
 10
11.456272
 20
12.801812
 30
0.000000
 11
11.331352
 21
13.103032
 31
0.000000
  6
CONTINUOUS
  0
LINE
  8
WHITE
 10
11.331352
 20
13.103032
 30
0.000000
 11
11.117372
 21
13.375912
 31
0.000000
  6
CONTINUOUS
  0
LINE
  8
WHITE
 10
11.117372
 20
13.375912
 30
0.000000
 11
10.901652
 21
13.564652
 31
0.000000
  6
CONTINUOUS
  0
LINE
  8
WHITE
 10
10.901652
 20
13.564652
 30
0.000000
 11
10.672332
 21
13.764252
 31
0.000000
  6
CONTINUOUS
  0
LINE
  8
WHITE
 10
10.672332
 20
13.764252
 30
0.000000
 11
10.468192
 21
13.987232
 31
0.000000
  6
CONTINUOUS
  0
LINE
  8
WHITE
 10
10.468192
 20
13.987232
 30
0.000000
 11
10.279612
 21
14.281912
 31
0.000000
  6
CONTINUOUS
  0
LINE
  8
WHITE
 10
10.279612
 20
14.281912
 30
0.000000
 11
10.262812
 21
14.288812
 31
0.000000
  6
CONTINUOUS
  0
LINE
  8
WHITE
 10
10.262812
 20
14.288812
 30
0.000000
 11
10.253192
 21
14.273432
 31
0.000000
  6
CONTINUOUS
  0
LINE
  8
WHITE
 10
10.253192
 20
14.273432
 30
0.000000
 11
10.335192
 21
13.866692
 31
0.000000
  6
CONTINUOUS
  0
LINE
  8
WHITE
 10
10.335192
 20
13.866692
 30
0.000000
 11
10.469172
 21
13.459992
 31
0.000000
  6
CONTINUOUS
  0
LINE
  8
WHITE
 10
10.469172
 20
13.459992
 30
0.000000
 11
10.660452
 21
13.081072
 31
0.000000
  6
CONTINUOUS
  0
LINE
  8
WHITE
 10
10.660452
 20
13.081072
 30
0.000000
 11
10.914312
 21
12.757632
 31
0.000000
  6
CONTINUOUS
  0
LINE
  8
WHITE
 10
10.914312
 20
12.757632
 30
0.000000
 11
10.931652
 21
12.755492
 31
0.000000
  6
CONTINUOUS
  0
LINE
  8
WHITE
 10
10.931652
 20
12.755492
 30
0.000000
 11
10.937632
 21
12.771912
 31
0.000000
  6
CONTINUOUS
  0
ARC
  8
WHITE
 10
46.550520
 20
-18.513759
 30
0.000000
 40
41.803241
 50
150.007219
 51
150.263271
  6
CONTINUOUS
  0
ARC
  8
WHITE
 10
11.407313
 20
1.566896
 30
0.000000
 40
1.339612
 50
118.501624
 51
142.451502
  6
CONTINUOUS
  0
LINE
  8
WHITE
 10
10.768072
 20
2.744152
 30
0.000000
 11
10.775272
 21
2.760572
 31
0.000000
  6
CONTINUOUS
  0
LINE
  8
WHITE
 10
10.775272
 20
2.760572
 30
0.000000
 11
10.710732
 21
3.134112
 31
0.000000
  6
CONTINUOUS
  0
LINE
  8
WHITE
 10
10.710732
 20
3.134112
 30
0.000000
 11
10.721672
 21
3.496832
 31
0.000000
  6
CONTINUOUS
  0
LINE
  8
WHITE
 10
10.721672
 20
3.496832
 30
0.000000
 11
10.790952
 21
3.854112
 31
0.000000
  6
CONTINUOUS
  0
LINE
  8
WHITE
 10
10.790952
 20
3.854112
 30
0.000000
 11
10.901452
 21
4.211352
 31
0.000000
  6
CONTINUOUS
  0
LINE
  8
WHITE
 10
10.901452
 20
4.211352
 30
0.000000
 11
10.894452
 21
4.228452
 31
0.000000
  6
CONTINUOUS
  0
LINE
  8
WHITE
 10
10.894452
 20
4.228452
 30
0.000000
 11
10.876552
 21
4.223932
 31
0.000000
  6
CONTINUOUS
  0
LINE
  8
WHITE
 10
10.876552
 20
4.223932
 30
0.000000
 11
10.615732
 21
3.767912
 31
0.000000
  6
CONTINUOUS
  0
LINE
  8
WHITE
 10
10.615732
 20
3.767912
 30
0.000000
 11
10.419472
 21
3.269812
 31
0.000000
  6
CONTINUOUS
  0
LINE
  8
WHITE
 10
10.419472
 20
3.269812
 30
0.000000
 11
10.288912
 21
2.749732
 31
0.000000
  6
CONTINUOUS
  0
LINE
  8
WHITE
 10
10.288912
 20
2.749732
 30
0.000000
 11
10.225272
 21
2.227672
 31
0.000000
  6
CONTINUOUS
  0
LINE
  8
WHITE
 10
10.225272
 20
2.227672
 30
0.000000
 11
10.236052
 21
2.213212
 31
0.000000
  6
CONTINUOUS
  0
LINE
  8
WHITE
 10
10.236052
 20
2.213212
 30
0.000000
 11
10.252192
 21
2.221292
 31
0.000000
  6
CONTINUOUS
  0
LINE
  8
WHITE
 10
12.179392
 20
8.508072
 30
0.000000
 11
11.955976
 21
8.343069
 31
0.000000
  6
CONTINUOUS
  0
ARC
  8
WHITE
 10
14.206822
 20
5.977767
 30
0.000000
 40
3.265112
 50
133.579660
 51
148.200510
  6
CONTINUOUS
  0
LINE
  8
WHITE
 10
11.431812
 20
7.698312
 30
0.000000
 11
11.434572
 21
7.680132
 31
0.000000
  6
CONTINUOUS
  0
LINE
  8
WHITE
 10
11.434572
 20
7.680132
 30
0.000000
 11
11.452972
 21
7.680212
 31
0.000000
  6
CONTINUOUS
  0
ARC
  8
WHITE
 10
12.938535
 20
5.778810
 30
0.000000
 40
2.412929
 50
109.084415
 51
128.000472
  6
CONTINUOUS
  0
ARC
  8
WHITE
 10
13.566595
 20
4.070062
 30
0.000000
 40
4.233255
 50
98.769259
 51
109.556066
  6
CONTINUOUS
  0
LINE
  8
WHITE
 10
12.921212
 20
8.253832
 30
0.000000
 11
12.932912
 21
8.268392
 31
0.000000
  6
CONTINUOUS
  0
LINE
  8
WHITE
 10
12.932912
 20
8.268392
 30
0.000000
 11
12.919832
 21
8.281732
 31
0.000000
  6
CONTINUOUS
  0
ARC
  8
WHITE
 10
12.976754
 20
9.740949
 30
0.000000
 40
1.460327
 50
-122.374929
 51
-92.233919
  6
CONTINUOUS
  0
LINE
  8
WHITE
 10
12.194812
 20
8.507612
 30
0.000000
 11
12.179392
 21
8.508072
 31
0.000000
  6
CONTINUOUS
  0
ENDSEC
  0
EOF
