999
\"DXF R12 Output\" (www.mydxf.blogspot.com)
 0 
SECTION
 2 
HEADER
 9 
$ACADVER
 1 
AC1009
 9 
$EXTMIN
 10 
 0 
 20 
 0 
 9 
$EXTMAX
 10 
 8.5 
 20 
 11 
 0 
ENDSEC
 0 
SECTION
 2 
ENTITIES
0
LINE
8
Layer 1
10
150.013628
20
294.041318
11
144.679310
21
293.851614
0
LINE
8
Layer 1
10
144.679310
20
293.851614
11
139.386118
21
293.446380
0
LINE
8
Layer 1
10
139.386118
20
293.446380
11
134.163528
21
292.826130
0
LINE
8
Layer 1
10
134.163528
20
292.826130
11
129.041016
21
291.991378
0
LINE
8
Layer 1
10
129.041016
20
291.991378
11
124.048059
21
290.942636
0
LINE
8
Layer 1
10
124.048059
20
290.942636
11
119.214132
21
289.680418
0
LINE
8
Layer 1
10
119.214132
20
289.680418
11
114.568712
21
288.205237
0
LINE
8
Layer 1
10
114.568712
20
288.205237
11
110.141275
21
286.517607
0
LINE
8
Layer 1
10
110.141275
20
286.517607
11
106.120052
21
284.713998
0
LINE
8
Layer 1
10
106.120052
20
284.713998
11
102.087362
21
282.655543
0
LINE
8
Layer 1
10
102.087362
20
282.655543
11
98.099605
21
280.379308
0
LINE
8
Layer 1
10
98.099605
20
280.379308
11
94.213178
21
277.922365
0
LINE
8
Layer 1
10
94.213178
20
277.922365
11
90.484480
21
275.321781
0
LINE
8
Layer 1
10
90.484480
20
275.321781
11
86.969910
21
272.614625
0
LINE
8
Layer 1
10
86.969910
20
272.614625
11
83.725866
21
269.837968
0
LINE
8
Layer 1
10
83.725866
20
269.837968
11
80.808748
21
267.028876
0
LINE
8
Layer 1
10
80.808748
20
267.028876
11
75.008531
21
261.062938
0
LINE
8
Layer 1
10
75.008531
20
261.062938
11
46.802901
21
261.062938
0
LINE
8
Layer 1
10
46.802901
20
261.062938
11
46.802901
21
251.517438
0
LINE
8
Layer 1
10
46.802901
20
251.517438
11
36.196789
21
251.517438
0
LINE
8
Layer 1
10
36.196789
20
251.517438
11
36.229933
21
130.077450
0
LINE
8
Layer 1
10
36.229933
20
130.077450
11
26.684433
21
130.077450
0
LINE
8
Layer 1
10
26.684433
20
130.077450
11
26.651289
21
125.636144
0
LINE
8
Layer 1
10
26.651289
20
125.636144
11
26.393811
21
123.487284
0
LINE
8
Layer 1
10
26.393811
20
123.487284
11
25.714460
21
121.724148
0
LINE
8
Layer 1
10
25.714460
20
121.724148
11
24.666634
21
120.259804
0
LINE
8
Layer 1
10
24.666634
20
120.259804
11
23.303735
21
119.007317
0
LINE
8
Layer 1
10
23.303735
20
119.007317
11
21.990774
21
117.714075
0
LINE
8
Layer 1
10
21.990774
20
117.714075
11
20.503279
21
115.826339
0
LINE
8
Layer 1
10
20.503279
20
115.826339
11
19.023959
21
113.598453
0
LINE
8
Layer 1
10
19.023959
20
113.598453
11
17.735525
21
111.284758
0
LINE
8
Layer 1
10
17.735525
20
111.284758
11
16.251913
21
107.949760
0
LINE
8
Layer 1
10
16.251913
20
107.949760
11
15.767423
21
106.364268
0
LINE
8
Layer 1
10
15.767423
20
106.364268
11
15.423357
21
104.623421
0
LINE
8
Layer 1
10
15.423357
20
104.623421
11
15.063144
21
100.045578
0
LINE
8
Layer 1
10
15.063144
20
100.045578
11
14.984565
21
92.956067
0
LINE
8
Layer 1
10
14.984565
20
92.956067
11
15.064873
21
85.868448
0
LINE
8
Layer 1
10
15.064873
20
85.868448
11
15.427950
21
81.284261
0
LINE
8
Layer 1
10
15.427950
20
81.284261
11
15.772802
21
79.540422
0
LINE
8
Layer 1
10
15.772802
20
79.540422
11
16.257075
21
77.953804
0
LINE
8
Layer 1
10
16.257075
20
77.953804
11
17.735525
21
74.627376
0
LINE
8
Layer 1
10
17.735525
20
74.627376
11
19.058235
21
72.278754
0
LINE
8
Layer 1
10
19.058235
20
72.278754
11
20.637644
21
69.939778
0
LINE
8
Layer 1
10
20.637644
20
69.939778
11
22.274051
21
67.881380
0
LINE
8
Layer 1
10
22.274051
20
67.881380
11
23.767751
21
66.374495
0
LINE
8
Layer 1
10
23.767751
20
66.374495
11
25.358739
21
64.856558
0
LINE
8
Layer 1
10
25.358739
20
64.856558
11
26.392435
21
63.367664
0
LINE
8
Layer 1
10
26.392435
20
63.367664
11
26.950678
21
61.716692
0
LINE
8
Layer 1
10
26.950678
20
61.716692
11
27.115305
21
59.712524
0
LINE
8
Layer 1
10
27.115305
20
59.712524
11
27.115305
21
55.271216
0
LINE
8
Layer 1
10
27.115305
20
55.271216
11
36.196789
21
55.171777
0
LINE
8
Layer 1
10
36.196789
20
55.171777
11
36.196789
21
38.268286
0
LINE
8
Layer 1
10
36.196789
20
38.268286
11
36.196789
21
21.364815
0
LINE
8
Layer 1
10
36.196789
20
21.364815
11
46.802901
21
21.364815
0
LINE
8
Layer 1
10
46.802901
20
21.364815
11
46.802901
21
10.758678
0
LINE
8
Layer 1
10
46.802901
20
10.758678
11
257.997102
21
10.758678
0
LINE
8
Layer 1
10
257.997102
20
10.758678
11
257.997102
21
21.364815
0
LINE
8
Layer 1
10
257.997102
20
21.364815
11
268.603208
21
21.364815
0
LINE
8
Layer 1
10
268.603208
20
21.364815
11
268.603208
21
38.268286
0
LINE
8
Layer 1
10
268.603208
20
38.268286
11
268.603208
21
55.171777
0
LINE
8
Layer 1
10
268.603208
20
55.171777
11
277.684715
21
55.271216
0
LINE
8
Layer 1
10
277.684715
20
55.271216
11
277.684715
21
59.712524
0
LINE
8
Layer 1
10
277.684715
20
59.712524
11
277.849348
21
61.716692
0
LINE
8
Layer 1
10
277.849348
20
61.716692
11
278.407588
21
63.367664
0
LINE
8
Layer 1
10
278.407588
20
63.367664
11
279.441278
21
64.856558
0
LINE
8
Layer 1
10
279.441278
20
64.856558
11
281.032260
21
66.374495
0
LINE
8
Layer 1
10
281.032260
20
66.374495
11
282.525967
21
67.881380
0
LINE
8
Layer 1
10
282.525967
20
67.881380
11
284.162377
21
69.939778
0
LINE
8
Layer 1
10
284.162377
20
69.939778
11
285.741790
21
72.278754
0
LINE
8
Layer 1
10
285.741790
20
72.278754
11
287.064506
21
74.627376
0
LINE
8
Layer 1
10
287.064506
20
74.627376
11
288.542943
21
77.953804
0
LINE
8
Layer 1
10
288.542943
20
77.953804
11
289.027211
21
79.540422
0
LINE
8
Layer 1
10
289.027211
20
79.540422
11
289.372058
21
81.284261
0
LINE
8
Layer 1
10
289.372058
20
81.284261
11
289.735130
21
85.868448
0
LINE
8
Layer 1
10
289.735130
20
85.868448
11
289.815439
21
92.956067
0
LINE
8
Layer 1
10
289.815439
20
92.956067
11
289.736860
21
100.045578
0
LINE
8
Layer 1
10
289.736860
20
100.045578
11
289.376651
21
104.623421
0
LINE
8
Layer 1
10
289.376651
20
104.623421
11
289.032588
21
106.364268
0
LINE
8
Layer 1
10
289.032588
20
106.364268
11
288.548102
21
107.949760
0
LINE
8
Layer 1
10
288.548102
20
107.949760
11
287.064506
21
111.284758
0
LINE
8
Layer 1
10
287.064506
20
111.284758
11
285.776059
21
113.598453
0
LINE
8
Layer 1
10
285.776059
20
113.598453
11
284.296725
21
115.826339
0
LINE
8
Layer 1
10
284.296725
20
115.826339
11
282.809221
21
117.714075
0
LINE
8
Layer 1
10
282.809221
20
117.714075
11
281.496262
21
119.007317
0
LINE
8
Layer 1
10
281.496262
20
119.007317
11
280.133371
21
120.259804
0
LINE
8
Layer 1
10
280.133371
20
120.259804
11
279.085552
21
121.724148
0
LINE
8
Layer 1
10
279.085552
20
121.724148
11
278.406200
21
123.487284
0
LINE
8
Layer 1
10
278.406200
20
123.487284
11
278.148714
21
125.636144
0
LINE
8
Layer 1
10
278.148714
20
125.636144
11
278.082448
21
130.077450
0
LINE
8
Layer 1
10
278.082448
20
130.077450
11
268.570061
21
130.077450
0
LINE
8
Layer 1
10
268.570061
20
130.077450
11
268.603208
21
251.517438
0
LINE
8
Layer 1
10
268.603208
20
251.517438
11
257.997102
21
251.517438
0
LINE
8
Layer 1
10
257.997102
20
251.517438
11
257.997102
21
261.062938
0
LINE
8
Layer 1
10
257.997102
20
261.062938
11
229.791477
21
261.062938
0
LINE
8
Layer 1
10
229.791477
20
261.062938
11
223.991269
21
267.028876
0
LINE
8
Layer 1
10
223.991269
20
267.028876
11
221.074145
21
269.837968
0
LINE
8
Layer 1
10
221.074145
20
269.837968
11
217.830097
21
272.614625
0
LINE
8
Layer 1
10
217.830097
20
272.614625
11
214.315525
21
275.321781
0
LINE
8
Layer 1
10
214.315525
20
275.321781
11
210.586825
21
277.922365
0
LINE
8
Layer 1
10
210.586825
20
277.922365
11
206.700398
21
280.379308
0
LINE
8
Layer 1
10
206.700398
20
280.379308
11
202.712640
21
282.655543
0
LINE
8
Layer 1
10
202.712640
20
282.655543
11
198.679952
21
284.713998
0
LINE
8
Layer 1
10
198.679952
20
284.713998
11
194.658731
21
286.517607
0
LINE
8
Layer 1
10
194.658731
20
286.517607
11
190.026928
21
288.275413
0
LINE
8
Layer 1
10
190.026928
20
288.275413
11
185.158603
21
289.800051
0
LINE
8
Layer 1
10
185.158603
20
289.800051
11
180.087370
21
291.091341
0
LINE
8
Layer 1
10
180.087370
20
291.091341
11
174.846842
21
292.149105
0
LINE
8
Layer 1
10
174.846842
20
292.149105
11
169.470630
21
292.973163
0
LINE
8
Layer 1
10
169.470630
20
292.973163
11
163.992347
21
293.563338
0
LINE
8
Layer 1
10
163.992347
20
293.563338
11
158.445607
21
293.919449
0
LINE
8
Layer 1
10
158.445607
20
293.919449
11
152.864021
21
294.041318
0
LINE
8
Layer 1
10
152.864021
20
294.041318
11
150.013628
21
294.041318
0
LINE
8
Layer 1
10
150.013628
20
294.041318
11
150.013628
21
294.041318
0
LINE
8
Layer 1
10
149.980486
20
287.412497
11
152.864021
21
287.412497
0
LINE
8
Layer 1
10
152.864021
20
287.412497
11
158.438695
21
287.329144
0
LINE
8
Layer 1
10
158.438695
20
287.329144
11
163.831146
21
287.026913
0
LINE
8
Layer 1
10
163.831146
20
287.026913
11
169.046925
21
286.503453
0
LINE
8
Layer 1
10
169.046925
20
286.503453
11
174.091585
21
285.756412
0
LINE
8
Layer 1
10
174.091585
20
285.756412
11
178.970678
21
284.783437
0
LINE
8
Layer 1
10
178.970678
20
284.783437
11
183.689758
21
283.582175
0
LINE
8
Layer 1
10
183.689758
20
283.582175
11
188.254375
21
282.150274
0
LINE
8
Layer 1
10
188.254375
20
282.150274
11
192.670083
21
280.485381
0
LINE
8
Layer 1
10
192.670083
20
280.485381
11
196.367182
21
278.858920
0
LINE
8
Layer 1
10
196.367182
20
278.858920
11
199.961501
21
277.056289
0
LINE
8
Layer 1
10
199.961501
20
277.056289
11
203.456862
21
275.076546
0
LINE
8
Layer 1
10
203.456862
20
275.076546
11
206.857089
21
272.918746
0
LINE
8
Layer 1
10
206.857089
20
272.918746
11
210.166003
21
270.581949
0
LINE
8
Layer 1
10
210.166003
20
270.581949
11
213.387428
21
268.065209
0
LINE
8
Layer 1
10
213.387428
20
268.065209
11
216.525184
21
265.367585
0
LINE
8
Layer 1
10
216.525184
20
265.367585
11
219.583096
21
262.488132
0
LINE
8
Layer 1
10
219.583096
20
262.488132
11
227.537665
21
254.699270
0
LINE
8
Layer 1
10
227.537665
20
254.699270
11
251.633454
21
254.699270
0
LINE
8
Layer 1
10
251.633454
20
254.699270
11
251.633454
21
245.153770
0
LINE
8
Layer 1
10
251.633454
20
245.153770
11
262.239560
21
245.153770
0
LINE
8
Layer 1
10
262.239560
20
245.153770
11
262.239560
21
124.244092
0
LINE
8
Layer 1
10
262.239560
20
124.244092
11
271.718755
21
124.244092
0
LINE
8
Layer 1
10
271.718755
20
124.244092
11
271.785049
21
121.327424
0
LINE
8
Layer 1
10
271.785049
20
121.327424
11
272.017003
21
119.824422
0
LINE
8
Layer 1
10
272.017003
20
119.824422
11
272.686351
21
118.380648
0
LINE
8
Layer 1
10
272.686351
20
118.380648
11
273.857945
21
116.918774
0
LINE
8
Layer 1
10
273.857945
20
116.918774
11
275.596635
21
115.361477
0
LINE
8
Layer 1
10
275.596635
20
115.361477
11
277.650978
21
113.536595
0
LINE
8
Layer 1
10
277.650978
20
113.536595
11
279.340498
21
111.592922
0
LINE
8
Layer 1
10
279.340498
20
111.592922
11
280.693217
21
109.450454
0
LINE
8
Layer 1
10
280.693217
20
109.450454
11
281.737154
21
107.029187
0
LINE
8
Layer 1
10
281.737154
20
107.029187
11
282.500329
21
104.249118
0
LINE
8
Layer 1
10
282.500329
20
104.249118
11
283.010763
21
101.030244
0
LINE
8
Layer 1
10
283.010763
20
101.030244
11
283.296475
21
97.292562
0
LINE
8
Layer 1
10
283.296475
20
97.292562
11
283.385486
21
92.956067
0
LINE
8
Layer 1
10
283.385486
20
92.956067
11
283.296482
21
88.619573
0
LINE
8
Layer 1
10
283.296482
20
88.619573
11
283.010771
21
84.881893
0
LINE
8
Layer 1
10
283.010771
20
84.881893
11
282.500335
21
81.663023
0
LINE
8
Layer 1
10
282.500335
20
81.663023
11
281.737155
21
78.882957
0
LINE
8
Layer 1
10
281.737155
20
78.882957
11
280.693213
21
76.461692
0
LINE
8
Layer 1
10
280.693213
20
76.461692
11
279.340491
21
74.319224
0
LINE
8
Layer 1
10
279.340491
20
74.319224
11
277.650971
21
72.375546
0
LINE
8
Layer 1
10
277.650971
20
72.375546
11
275.596635
21
70.550656
0
LINE
8
Layer 1
10
275.596635
20
70.550656
11
273.845546
21
68.993385
0
LINE
8
Layer 1
10
273.845546
20
68.993385
11
272.653266
21
67.531535
0
LINE
8
Layer 1
10
272.653266
20
67.531535
11
271.979774
21
66.087759
0
LINE
8
Layer 1
10
271.979774
20
66.087759
11
271.785049
21
64.584710
0
LINE
8
Layer 1
10
271.785049
20
64.584710
11
271.851343
21
61.668042
0
LINE
8
Layer 1
10
271.851343
20
61.668042
11
262.239560
21
61.668042
0
LINE
8
Layer 1
10
262.239560
20
61.668042
11
262.239560
21
44.698257
0
LINE
8
Layer 1
10
262.239560
20
44.698257
11
262.239560
21
27.728466
0
LINE
8
Layer 1
10
262.239560
20
27.728466
11
251.633454
21
27.728466
0
LINE
8
Layer 1
10
251.633454
20
27.728466
11
251.633454
21
17.122366
0
LINE
8
Layer 1
10
251.633454
20
17.122366
11
53.166566
21
17.122366
0
LINE
8
Layer 1
10
53.166566
20
17.122366
11
53.166566
21
27.728466
0
LINE
8
Layer 1
10
53.166566
20
27.728466
11
42.560454
21
27.728466
0
LINE
8
Layer 1
10
42.560454
20
27.728466
11
42.560454
21
44.698257
0
LINE
8
Layer 1
10
42.560454
20
44.698257
11
42.560454
21
61.668042
0
LINE
8
Layer 1
10
42.560454
20
61.668042
11
32.948668
21
61.668042
0
LINE
8
Layer 1
10
32.948668
20
61.668042
11
33.014954
21
64.584710
0
LINE
8
Layer 1
10
33.014954
20
64.584710
11
32.820234
21
66.087759
0
LINE
8
Layer 1
10
32.820234
20
66.087759
11
32.146744
21
67.531535
0
LINE
8
Layer 1
10
32.146744
20
67.531535
11
30.954468
21
68.993385
0
LINE
8
Layer 1
10
30.954468
20
68.993385
11
29.203385
21
70.550656
0
LINE
8
Layer 1
10
29.203385
20
70.550656
11
27.149048
21
72.375546
0
LINE
8
Layer 1
10
27.149048
20
72.375546
11
25.459529
21
74.319224
0
LINE
8
Layer 1
10
25.459529
20
74.319224
11
24.106808
21
76.461692
0
LINE
8
Layer 1
10
24.106808
20
76.461692
11
23.062867
21
78.882957
0
LINE
8
Layer 1
10
23.062867
20
78.882957
11
22.299687
21
81.663023
0
LINE
8
Layer 1
10
22.299687
20
81.663023
11
21.789248
21
84.881893
0
LINE
8
Layer 1
10
21.789248
20
84.881893
11
21.503531
21
88.619573
0
LINE
8
Layer 1
10
21.503531
20
88.619573
11
21.414519
21
92.956067
0
LINE
8
Layer 1
10
21.414519
20
92.956067
11
21.503531
21
97.292562
0
LINE
8
Layer 1
10
21.503531
20
97.292562
11
21.789246
21
101.030244
0
LINE
8
Layer 1
10
21.789246
20
101.030244
11
22.299684
21
104.249118
0
LINE
8
Layer 1
10
22.299684
20
104.249118
11
23.062863
21
107.029187
0
LINE
8
Layer 1
10
23.062863
20
107.029187
11
24.106804
21
109.450454
0
LINE
8
Layer 1
10
24.106804
20
109.450454
11
25.459525
21
111.592922
0
LINE
8
Layer 1
10
25.459525
20
111.592922
11
27.149045
21
113.536595
0
LINE
8
Layer 1
10
27.149045
20
113.536595
11
29.203385
21
115.361477
0
LINE
8
Layer 1
10
29.203385
20
115.361477
11
30.942062
21
116.918774
0
LINE
8
Layer 1
10
30.942062
20
116.918774
11
32.113655
21
118.380648
0
LINE
8
Layer 1
10
32.113655
20
118.380648
11
32.783004
21
119.824422
0
LINE
8
Layer 1
10
32.783004
20
119.824422
11
33.014954
21
121.327424
0
LINE
8
Layer 1
10
33.014954
20
121.327424
11
33.081242
21
124.244092
0
LINE
8
Layer 1
10
33.081242
20
124.244092
11
42.560454
21
124.244092
0
LINE
8
Layer 1
10
42.560454
20
124.244092
11
42.560454
21
245.153770
0
LINE
8
Layer 1
10
42.560454
20
245.153770
11
53.166566
21
245.153770
0
LINE
8
Layer 1
10
53.166566
20
245.153770
11
53.166566
21
254.699270
0
LINE
8
Layer 1
10
53.166566
20
254.699270
11
77.262327
21
254.699270
0
LINE
8
Layer 1
10
77.262327
20
254.699270
11
85.216913
21
262.488132
0
LINE
8
Layer 1
10
85.216913
20
262.488132
11
88.274822
21
265.367585
0
LINE
8
Layer 1
10
88.274822
20
265.367585
11
91.412577
21
268.065209
0
LINE
8
Layer 1
10
91.412577
20
268.065209
11
94.634001
21
270.581949
0
LINE
8
Layer 1
10
94.634001
20
270.581949
11
97.942914
21
272.918746
0
LINE
8
Layer 1
10
97.942914
20
272.918746
11
101.343141
21
275.076546
0
LINE
8
Layer 1
10
101.343141
20
275.076546
11
104.838502
21
277.056289
0
LINE
8
Layer 1
10
104.838502
20
277.056289
11
108.432821
21
278.858920
0
LINE
8
Layer 1
10
108.432821
20
278.858920
11
112.129920
21
280.485381
0
LINE
8
Layer 1
10
112.129920
20
280.485381
11
116.351383
21
282.083216
0
LINE
8
Layer 1
10
116.351383
20
282.083216
11
120.708591
21
283.467896
0
LINE
8
Layer 1
10
120.708591
20
283.467896
11
125.206510
21
284.641433
0
LINE
8
Layer 1
10
125.206510
20
284.641433
11
129.850102
21
285.605843
0
LINE
8
Layer 1
10
129.850102
20
285.605843
11
134.644332
21
286.363141
0
LINE
8
Layer 1
10
134.644332
20
286.363141
11
139.594164
21
286.915339
0
LINE
8
Layer 1
10
139.594164
20
286.915339
11
144.704560
21
287.264453
0
LINE
8
Layer 1
10
144.704560
20
287.264453
11
149.980486
21
287.412497
0
LINE
8
Layer 1
10
149.980486
20
287.412497
11
149.980486
21
287.412497
 0 
ENDSEC
 0 
EOF
