  0
SECTION
  2
HEADER
  9
$ACADVER
  1
AC1009
  9
$DWGCODEPAGE
  3
ansi_1254
  9
$INSBASE
 10
0.0
 20
0.0
 30
0.0
  9
$EXTMIN
 10
352.7090301003345
 20
571.6297029909833
 30
0.0
  9
$EXTMAX
 10
1232.709030100335
 20
2526.631166574232
 30
0.0
  9
$LIMMIN
 10
0.0
 20
0.0
  9
$LIMMAX
 10
12.0
 20
9.0
  9
$ORTHOMODE
 70
     0
  9
$REGENMODE
 70
     1
  9
$FILLMODE
 70
     1
  9
$QTEXTMODE
 70
     0
  9
$MIRRTEXT
 70
     1
  9
$DRAGMODE
 70
     2
  9
$LTSCALE
 40
1.0
  9
$OSMODE
 70
    37
  9
$ATTMODE
 70
     1
  9
$TEXTSIZE
 40
0.2
  9
$TRACEWID
 40
0.05
  9
$TEXTSTYLE
  7
STANDARD
  9
$CLAYER
  8
0
  9
$CELTYPE
  6
BYLAYER
  9
$CECOLOR
 62
   256
  9
$DIMSCALE
 40
1.0
  9
$DIMASZ
 40
0.18
  9
$DIMEXO
 40
0.0625
  9
$DIMDLI
 40
0.38
  9
$DIMRND
 40
0.0
  9
$DIMDLE
 40
0.0
  9
$DIMEXE
 40
0.18
  9
$DIMTP
 40
0.0
  9
$DIMTM
 40
0.0
  9
$DIMTXT
 40
0.18
  9
$DIMCEN
 40
0.09
  9
$DIMTSZ
 40
0.0
  9
$DIMTOL
 70
     0
  9
$DIMLIM
 70
     0
  9
$DIMTIH
 70
     1
  9
$DIMTOH
 70
     1
  9
$DIMSE1
 70
     0
  9
$DIMSE2
 70
     0
  9
$DIMTAD
 70
     0
  9
$DIMZIN
 70
     0
  9
$DIMBLK
  1

  9
$DIMASO
 70
     1
  9
$DIMSHO
 70
     1
  9
$DIMPOST
  1

  9
$DIMAPOST
  1

  9
$DIMALT
 70
     0
  9
$DIMALTD
 70
     2
  9
$DIMALTF
 40
25.4
  9
$DIMLFAC
 40
1.0
  9
$DIMTOFL
 70
     0
  9
$DIMTVP
 40
0.0
  9
$DIMTIX
 70
     0
  9
$DIMSOXD
 70
     0
  9
$DIMSAH
 70
     0
  9
$DIMBLK1
  1

  9
$DIMBLK2
  1

  9
$DIMSTYLE
  2
STANDARD
  9
$DIMCLRD
 70
     0
  9
$DIMCLRE
 70
     0
  9
$DIMCLRT
 70
     0
  9
$DIMTFAC
 40
1.0
  9
$DIMGAP
 40
0.09
  9
$LUNITS
 70
     2
  9
$LUPREC
 70
     4
  9
$SKETCHINC
 40
0.1
  9
$FILLETRAD
 40
0.5
  9
$AUNITS
 70
     0
  9
$AUPREC
 70
     0
  9
$MENU
  1
.
  9
$ELEVATION
 40
0.0
  9
$PELEVATION
 40
0.0
  9
$THICKNESS
 40
0.0
  9
$LIMCHECK
 70
     0
  9
$CHAMFERA
 40
0.0
  9
$CHAMFERB
 40
0.0
  9
$SKPOLY
 70
     0
  9
$TDCREATE
 40
2454910.5
  9
$TDUPDATE
 40
2457924.730794803
  9
$TDINDWG
 40
0.0000000116
  9
$TDUSRTIMER
 40
0.0000000116
  9
$USRTIMER
 70
     1
  9
$ANGBASE
 50
0.0
  9
$ANGDIR
 70
     0
  9
$PDMODE
 70
     0
  9
$PDSIZE
 40
0.0
  9
$PLINEWID
 40
0.0
  9
$COORDS
 70
     1
  9
$SPLFRAME
 70
     0
  9
$SPLINETYPE
 70
     6
  9
$SPLINESEGS
 70
     8
  9
$ATTDIA
 70
     0
  9
$ATTREQ
 70
     1
  9
$HANDLING
 70
     1
  9
$HANDSEED
  5
D2B
  9
$SURFTAB1
 70
     6
  9
$SURFTAB2
 70
     6
  9
$SURFTYPE
 70
     6
  9
$SURFU
 70
     6
  9
$SURFV
 70
     6
  9
$UCSNAME
  2

  9
$UCSORG
 10
0.0
 20
0.0
 30
0.0
  9
$UCSXDIR
 10
1.0
 20
0.0
 30
0.0
  9
$UCSYDIR
 10
0.0
 20
1.0
 30
0.0
  9
$PUCSNAME
  2

  9
$PUCSORG
 10
0.0
 20
0.0
 30
0.0
  9
$PUCSXDIR
 10
1.0
 20
0.0
 30
0.0
  9
$PUCSYDIR
 10
0.0
 20
1.0
 30
0.0
  9
$USERI1
 70
     0
  9
$USERI2
 70
     0
  9
$USERI3
 70
     0
  9
$USERI4
 70
     0
  9
$USERI5
 70
     0
  9
$USERR1
 40
0.0
  9
$USERR2
 40
0.0
  9
$USERR3
 40
0.0
  9
$USERR4
 40
0.0
  9
$USERR5
 40
0.0
  9
$WORLDVIEW
 70
     1
  9
$SHADEDGE
 70
     3
  9
$SHADEDIF
 70
    70
  9
$TILEMODE
 70
     1
  9
$MAXACTVP
 70
    64
  9
$PLIMCHECK
 70
     0
  9
$PEXTMIN
 10
1.000000000000000E+20
 20
1.000000000000000E+20
 30
1.000000000000000E+20
  9
$PEXTMAX
 10
-1.000000000000000E+20
 20
-1.000000000000000E+20
 30
-1.000000000000000E+20
  9
$PLIMMIN
 10
0.0
 20
0.0
  9
$PLIMMAX
 10
12.0
 20
9.0
  9
$UNITMODE
 70
     0
  9
$VISRETAIN
 70
     1
  9
$PLINEGEN
 70
     0
  9
$PSLTSCALE
 70
     1
  0
ENDSEC
  0
SECTION
  2
TABLES
  0
TABLE
  2
VPORT
 70
     1
  0
VPORT
  2
*ACTIVE
 70
     0
 10
0.0
 20
0.0
 11
1.0
 21
1.0
 12
10.42990654205607
 22
4.5
 13
0.0
 23
0.0
 14
0.5
 24
0.5
 15
0.5
 25
0.5
 16
0.0
 26
0.0
 36
1.0
 17
0.0
 27
0.0
 37
0.0
 40
9.0
 41
1.972972972850329
 42
50.0
 43
0.0
 44
0.0
 50
0.0
 51
0.0
 71
     0
 72
   100
 73
     1
 74
     3
 75
     0
 76
     0
 77
     0
 78
     0
  0
ENDTAB
  0
TABLE
  2
LTYPE
 70
     2
  0
LTYPE
  2
CONTINUOUS
 70
     0
  3
Solid line
 72
    65
 73
     0
 40
0.0
  0
LTYPE
  2
CONTINUOUS2
 70
     0
  3
Solid Line
 72
    65
 73
     0
 40
0.0
  0
ENDTAB
  0
TABLE
  2
LAYER
 70
     2
  0
LAYER
  2
0
 70
     0
 62
     7
  6
CONTINUOUS
  0
LAYER
  2
LAYER_1
 70
     0
 62
    18
  6
CONTINUOUS
  0
ENDTAB
  0
TABLE
  2
STYLE
 70
     1
  0
STYLE
  2
STANDARD
 70
     0
 40
0.0
 41
1.0
 50
0.0
 71
     0
 42
0.2
  3
txt
  4

  0
ENDTAB
  0
TABLE
  2
VIEW
 70
     0
  0
ENDTAB
  0
TABLE
  2
UCS
 70
     0
  0
ENDTAB
  0
TABLE
  2
APPID
 70
     1
  0
APPID
  2
ACAD
 70
     0
  0
ENDTAB
  0
TABLE
  2
DIMSTYLE
 70
     1
  0
DIMSTYLE
  2
STANDARD
 70
     0
  3

  4

  5

  6

  7

 40
1.0
 41
0.18
 42
0.0625
 43
0.38
 44
0.18
 45
0.0
 46
0.0
 47
0.0
 48
0.0
140
0.18
141
0.09
142
0.0
143
25.4
144
1.0
145
0.0
146
1.0
147
0.09
 71
     0
 72
     0
 73
     1
 74
     1
 75
     0
 76
     0
 77
     0
 78
     0
170
     0
171
     2
172
     0
173
     0
174
     0
175
     0
176
     0
177
     0
178
     0
  0
ENDTAB
  0
ENDSEC
  0
SECTION
  2
BLOCKS
  0
BLOCK
  8
0
  2
$MODEL_SPACE
 70
     0
 10
0.0
 20
0.0
 30
0.0
  3
$MODEL_SPACE
  1

  0
ENDBLK
  5
21
  8
0
  0
BLOCK
 67
     1
  8
0
  2
$PAPER_SPACE
 70
     0
 10
0.0
 20
0.0
 30
0.0
  3
$PAPER_SPACE
  1

  0
ENDBLK
  5
1D
 67
     1
  8
0
  0
ENDSEC
  0
SECTION
  2
ENTITIES
  0
POLYLINE
  5
70
  8
LAYER_1
 66
     1
 10
0.0
 20
0.0
 30
0.0
 70
     1
  0
VERTEX
  5
93
  8
LAYER_1
 10
352.7090301003345
 20
571.6311665742344
 30
0.0
  0
VERTEX
  5
94
  8
LAYER_1
 10
1232.709030100335
 20
571.6311665742344
 30
0.0
  0
VERTEX
  5
95
  8
LAYER_1
 10
1232.709030100335
 20
2526.631166574232
 30
0.0
  0
VERTEX
  5
96
  8
LAYER_1
 10
352.7090301003345
 20
2526.631166574232
 30
0.0
  0
SEQEND
  5
D0F
  8
LAYER_1
  0
POLYLINE
  5
71
  8
LAYER_1
 66
     1
 10
0.0
 20
0.0
 30
0.0
  0
VERTEX
  5
97
  8
LAYER_1
 10
492.10274259112
 20
2354.38807317882
 30
0.0
  0
VERTEX
  5
98
  8
LAYER_1
 10
490.1596721756368
 20
2357.193544357859
 30
0.0
  0
VERTEX
  5
99
  8
LAYER_1
 10
488.2091428286557
 20
2359.995656941964
 30
0.0
  0
VERTEX
  5
9A
  8
LAYER_1
 10
486.2511545501766
 20
2362.79439806308
 30
0.0
  0
VERTEX
  5
9B
  8
LAYER_1
 10
484.2857073401996
 20
2365.589754853151
 30
0.0
  0
VERTEX
  5
9C
  8
LAYER_1
 10
482.3128011987246
 20
2368.381714444122
 30
0.0
  0
VERTEX
  5
9D
  8
LAYER_1
 10
480.3324361257518
 20
2371.170263967936
 30
0.0
  0
VERTEX
  5
9E
  8
LAYER_1
 10
478.3446121212809
 20
2373.955390556538
 30
0.0
  0
VERTEX
  5
9F
  8
LAYER_1
 10
476.3493291853121
 20
2376.737081341871
 30
0.0
  0
VERTEX
  5
A0
  8
LAYER_1
 10
474.3465873178453
 20
2379.51532345588
 30
0.0
  0
VERTEX
  5
A1
  8
LAYER_1
 10
472.3363865188806
 20
2382.29010403051
 30
0.0
  0
VERTEX
  5
A2
  8
LAYER_1
 10
470.3187267884179
 20
2385.061410197704
 30
0.0
  0
VERTEX
  5
A3
  8
LAYER_1
 10
468.2936081264573
 20
2387.829229089406
 30
0.0
  0
VERTEX
  5
A4
  8
LAYER_1
 10
466.2610305329987
 20
2390.593547837561
 30
0.0
  0
VERTEX
  5
A5
  8
LAYER_1
 10
464.2209940080422
 20
2393.354353574114
 30
0.0
  0
VERTEX
  5
A6
  8
LAYER_1
 10
462.1734985515878
 20
2396.111633431007
 30
0.0
  0
VERTEX
  5
A7
  8
LAYER_1
 10
460.1185441636354
 20
2398.865374540185
 30
0.0
  0
VERTEX
  5
A8
  8
LAYER_1
 10
458.0561308441851
 20
2401.615564033593
 30
0.0
  0
VERTEX
  5
A9
  8
LAYER_1
 10
455.9862585932368
 20
2404.362189043175
 30
0.0
  0
VERTEX
  5
AA
  8
LAYER_1
 10
453.9089274107906
 20
2407.105236700875
 30
0.0
  0
VERTEX
  5
AB
  8
LAYER_1
 10
451.8241372968464
 20
2409.844694138636
 30
0.0
  0
VERTEX
  5
AC
  8
LAYER_1
 10
449.7318882514043
 20
2412.580548488404
 30
0.0
  0
VERTEX
  5
AD
  8
LAYER_1
 10
447.6321802744642
 20
2415.312786882122
 30
0.0
  0
VERTEX
  5
AE
  8
LAYER_1
 10
445.5250133660262
 20
2418.041396451735
 30
0.0
  0
VERTEX
  5
AF
  8
LAYER_1
 10
443.4103875260902
 20
2420.766364329186
 30
0.0
  0
VERTEX
  5
B0
  8
LAYER_1
 10
441.2883027546563
 20
2423.487677646421
 30
0.0
  0
VERTEX
  5
B1
  8
LAYER_1
 10
439.1587590517245
 20
2426.205323535381
 30
0.0
  0
VERTEX
  5
B2
  8
LAYER_1
 10
437.0217564172947
 20
2428.919289128014
 30
0.0
  0
VERTEX
  5
B3
  8
LAYER_1
 10
434.8772948513669
 20
2431.629561556263
 30
0.0
  0
VERTEX
  5
B4
  8
LAYER_1
 10
432.7253743539412
 20
2434.33612795207
 30
0.0
  0
VERTEX
  5
B5
  8
LAYER_1
 10
430.5659949250175
 20
2437.038975447382
 30
0.0
  0
VERTEX
  5
B6
  8
LAYER_1
 10
428.399156564596
 20
2439.738091174142
 30
0.0
  0
VERTEX
  5
B7
  8
LAYER_1
 10
426.2248592726764
 20
2442.433462264294
 30
0.0
  0
VERTEX
  5
B8
  8
LAYER_1
 10
424.0431030492589
 20
2445.125075849783
 30
0.0
  0
VERTEX
  5
B9
  8
LAYER_1
 10
421.8538878943434
 20
2447.812919062551
 30
0.0
  0
VERTEX
  5
BA
  8
LAYER_1
 10
419.65721380793
 20
2450.496979034545
 30
0.0
  0
VERTEX
  5
BB
  8
LAYER_1
 10
417.4530807900187
 20
2453.177242897707
 30
0.0
  0
VERTEX
  5
BC
  8
LAYER_1
 10
415.2414888406095
 20
2455.853697783983
 30
0.0
  0
VERTEX
  5
BD
  8
LAYER_1
 10
413.0224379597022
 20
2458.526330825316
 30
0.0
  0
VERTEX
  5
BE
  8
LAYER_1
 10
410.795928147297
 20
2461.195129153651
 30
0.0
  0
VERTEX
  5
BF
  8
LAYER_1
 10
408.5619594033939
 20
2463.860079900931
 30
0.0
  0
VERTEX
  5
C0
  8
LAYER_1
 10
406.3205317279928
 20
2466.521170199101
 30
0.0
  0
VERTEX
  5
C1
  8
LAYER_1
 10
404.0716451210938
 20
2469.178387180105
 30
0.0
  0
VERTEX
  5
C2
  8
LAYER_1
 10
401.8152995826968
 20
2471.831717975888
 30
0.0
  0
VERTEX
  5
C3
  8
LAYER_1
 10
399.5514951128019
 20
2474.481149718392
 30
0.0
  0
VERTEX
  5
C4
  8
LAYER_1
 10
397.280231711409
 20
2477.126669539563
 30
0.0
  0
VERTEX
  5
C5
  8
LAYER_1
 10
395.0015093785182
 20
2479.768264571346
 30
0.0
  0
VERTEX
  5
C6
  8
LAYER_1
 10
392.7153281141294
 20
2482.405921945682
 30
0.0
  0
VERTEX
  5
C7
  8
LAYER_1
 10
390.4216879182428
 20
2485.039628794519
 30
0.0
  0
VERTEX
  5
C8
  8
LAYER_1
 10
388.1205887908581
 20
2487.669372249798
 30
0.0
  0
VERTEX
  5
C9
  8
LAYER_1
 10
385.8120307319755
 20
2490.295139443465
 30
0.0
  0
VERTEX
  5
CA
  8
LAYER_1
 10
383.496013741595
 20
2492.916917507464
 30
0.0
  0
VERTEX
  5
CB
  8
LAYER_1
 10
381.1725378197165
 20
2495.534693573738
 30
0.0
  0
VERTEX
  5
CC
  8
LAYER_1
 10
378.84160296634
 20
2498.148454774233
 30
0.0
  0
VERTEX
  5
CD
  8
LAYER_1
 10
376.5032091814656
 20
2500.758188240891
 30
0.0
  0
VERTEX
  5
CE
  8
LAYER_1
 10
374.1573564650933
 20
2503.363881105659
 30
0.0
  0
VERTEX
  5
CF
  8
LAYER_1
 10
371.804044817223
 20
2505.965520500479
 30
0.0
  0
VERTEX
  5
D0
  8
LAYER_1
 10
369.4432742378547
 20
2508.563093557295
 30
0.0
  0
VERTEX
  5
D1
  8
LAYER_1
 10
367.0750447269886
 20
2511.156587408053
 30
0.0
  0
VERTEX
  5
D2
  8
LAYER_1
 10
364.6993562846244
 20
2513.745989184696
 30
0.0
  0
VERTEX
  5
D3
  8
LAYER_1
 10
362.3162089107623
 20
2516.331286019168
 30
0.0
  0
VERTEX
  5
D4
  8
LAYER_1
 10
359.9256026054023
 20
2518.912465043413
 30
0.0
  0
VERTEX
  5
D5
  8
LAYER_1
 10
357.5275373685444
 20
2521.489513389376
 30
0.0
  0
VERTEX
  5
D6
  8
LAYER_1
 10
355.1220132001885
 20
2524.062418189001
 30
0.0
  0
VERTEX
  5
D7
  8
LAYER_1
 10
352.7090301003345
 20
2526.631166574232
 30
0.0
  0
SEQEND
  5
D10
  8
LAYER_1
  0
POLYLINE
  5
72
  8
LAYER_1
 66
     1
 10
0.0
 20
0.0
 30
0.0
  0
VERTEX
  5
D8
  8
LAYER_1
 10
735.5351616178018
 20
1392.924386058574
 30
0.0
  0
VERTEX
  5
D9
  8
LAYER_1
 10
735.9390531099823
 20
1396.589154047719
 30
0.0
  0
VERTEX
  5
DA
  8
LAYER_1
 10
736.3333274293129
 20
1400.254703818625
 30
0.0
  0
VERTEX
  5
DB
  8
LAYER_1
 10
736.7179845757679
 20
1403.921016531821
 30
0.0
  0
VERTEX
  5
DC
  8
LAYER_1
 10
737.0930245493219
 20
1407.588073347835
 30
0.0
  0
VERTEX
  5
DD
  8
LAYER_1
 10
737.458447349949
 20
1411.255855427195
 30
0.0
  0
VERTEX
  5
DE
  8
LAYER_1
 10
737.8142529776233
 20
1414.92434393043
 30
0.0
  0
VERTEX
  5
DF
  8
LAYER_1
 10
738.1604414323194
 20
1418.593520018069
 30
0.0
  0
VERTEX
  5
E0
  8
LAYER_1
 10
738.4970127140116
 20
1422.26336485064
 30
0.0
  0
SEQEND
  5
D11
  8
LAYER_1
  0
POLYLINE
  5
73
  8
LAYER_1
 66
     1
 10
0.0
 20
0.0
 30
0.0
 70
     1
  0
VERTEX
  5
E1
  8
LAYER_1
 10
492.7071010675758
 20
1180.075768306978
 30
0.0
  0
VERTEX
  5
E2
  8
LAYER_1
 10
492.7090301003345
 20
2353.498839564674
 30
0.0
  0
VERTEX
  5
E3
  8
LAYER_1
 10
492.7096115246536
 20
2353.508109872841
 30
0.0
  0
VERTEX
  5
E4
  8
LAYER_1
 10
494.9650394104597
 20
2350.228644905942
 30
0.0
  0
VERTEX
  5
E5
  8
LAYER_1
 10
497.2103088567845
 20
2346.944649291129
 30
0.0
  0
VERTEX
  5
E6
  8
LAYER_1
 10
499.4454198623781
 20
2343.656143480597
 30
0.0
  0
VERTEX
  5
E7
  8
LAYER_1
 10
501.6703724259905
 20
2340.363147926541
 30
0.0
  0
VERTEX
  5
E8
  8
LAYER_1
 10
503.8851665463715
 20
2337.065683081154
 30
0.0
  0
VERTEX
  5
E9
  8
LAYER_1
 10
506.0898022222711
 20
2333.76376939663
 30
0.0
  0
VERTEX
  5
EA
  8
LAYER_1
 10
508.2842794524394
 20
2330.457427325165
 30
0.0
  0
VERTEX
  5
EB
  8
LAYER_1
 10
510.4685982356261
 20
2327.146677318952
 30
0.0
  0
VERTEX
  5
EC
  8
LAYER_1
 10
512.6427585705815
 20
2323.831539830185
 30
0.0
  0
VERTEX
  5
ED
  8
LAYER_1
 10
514.8067604560554
 20
2320.512035311058
 30
0.0
  0
VERTEX
  5
EE
  8
LAYER_1
 10
516.9606038907978
 20
2317.188184213766
 30
0.0
  0
VERTEX
  5
EF
  8
LAYER_1
 10
519.1042888735585
 20
2313.860006990503
 30
0.0
  0
VERTEX
  5
F0
  8
LAYER_1
 10
521.2378154030878
 20
2310.527524093463
 30
0.0
  0
VERTEX
  5
F1
  8
LAYER_1
 10
523.3611834781354
 20
2307.190755974841
 30
0.0
  0
VERTEX
  5
F2
  8
LAYER_1
 10
525.4743930974514
 20
2303.84972308683
 30
0.0
  0
VERTEX
  5
F3
  8
LAYER_1
 10
527.5774442597859
 20
2300.504445881626
 30
0.0
  0
VERTEX
  5
F4
  8
LAYER_1
 10
529.6703369638886
 20
2297.154944811421
 30
0.0
  0
VERTEX
  5
F5
  8
LAYER_1
 10
531.7530712085096
 20
2293.80124032841
 30
0.0
  0
VERTEX
  5
F6
  8
LAYER_1
 10
533.8256469923988
 20
2290.443352884788
 30
0.0
  0
VERTEX
  5
F7
  8
LAYER_1
 10
535.8880643143061
 20
2287.081302932748
 30
0.0
  0
VERTEX
  5
F8
  8
LAYER_1
 10
537.9403231729816
 20
2283.715110924486
 30
0.0
  0
VERTEX
  5
F9
  8
LAYER_1
 10
539.9824235671754
 20
2280.344797312194
 30
0.0
  0
VERTEX
  5
FA
  8
LAYER_1
 10
542.0143654956372
 20
2276.970382548068
 30
0.0
  0
VERTEX
  5
FB
  8
LAYER_1
 10
544.0361489571171
 20
2273.591887084301
 30
0.0
  0
VERTEX
  5
FC
  8
LAYER_1
 10
546.0477739503651
 20
2270.209331373088
 30
0.0
  0
VERTEX
  5
FD
  8
LAYER_1
 10
548.0492404741311
 20
2266.822735866623
 30
0.0
  0
VERTEX
  5
FE
  8
LAYER_1
 10
550.0405485271651
 20
2263.432121017101
 30
0.0
  0
VERTEX
  5
FF
  8
LAYER_1
 10
552.0216981082172
 20
2260.037507276714
 30
0.0
  0
VERTEX
  5
100
  8
LAYER_1
 10
553.9926892160371
 20
2256.638915097658
 30
0.0
  0
VERTEX
  5
101
  8
LAYER_1
 10
555.953521849375
 20
2253.236364932128
 30
0.0
  0
VERTEX
  5
102
  8
LAYER_1
 10
557.9041960069808
 20
2249.829877232316
 30
0.0
  0
VERTEX
  5
103
  8
LAYER_1
 10
559.8447116876042
 20
2246.419472450418
 30
0.0
  0
VERTEX
  5
104
  8
LAYER_1
 10
561.7750688899955
 20
2243.005171038627
 30
0.0
  0
VERTEX
  5
105
  8
LAYER_1
 10
563.6952676129047
 20
2239.586993449138
 30
0.0
  0
VERTEX
  5
106
  8
LAYER_1
 10
565.6053078550816
 20
2236.164960134144
 30
0.0
  0
VERTEX
  5
107
  8
LAYER_1
 10
567.5051896152763
 20
2232.739091545841
 30
0.0
  0
VERTEX
  5
108
  8
LAYER_1
 10
569.3949128922386
 20
2229.309408136422
 30
0.0
  0
VERTEX
  5
109
  8
LAYER_1
 10
571.2744776847186
 20
2225.875930358082
 30
0.0
  0
VERTEX
  5
10A
  8
LAYER_1
 10
573.143883991466
 20
2222.438678663014
 30
0.0
  0
VERTEX
  5
10B
  8
LAYER_1
 10
575.0031318112312
 20
2218.997673503414
 30
0.0
  0
VERTEX
  5
10C
  8
LAYER_1
 10
576.8522211427639
 20
2215.552935331475
 30
0.0
  0
VERTEX
  5
10D
  8
LAYER_1
 10
578.6911519848143
 20
2212.104484599391
 30
0.0
  0
VERTEX
  5
10E
  8
LAYER_1
 10
580.5199243361321
 20
2208.652341759356
 30
0.0
  0
VERTEX
  5
10F
  8
LAYER_1
 10
582.3385381954673
 20
2205.196527263566
 30
0.0
  0
VERTEX
  5
110
  8
LAYER_1
 10
584.1469935615698
 20
2201.737061564214
 30
0.0
  0
VERTEX
  5
111
  8
LAYER_1
 10
585.9452904331899
 20
2198.273965113494
 30
0.0
  0
VERTEX
  5
112
  8
LAYER_1
 10
587.7334288090775
 20
2194.807258363601
 30
0.0
  0
VERTEX
  5
113
  8
LAYER_1
 10
589.5114086879823
 20
2191.336961766729
 30
0.0
  0
VERTEX
  5
114
  8
LAYER_1
 10
591.2792300686544
 20
2187.863095775071
 30
0.0
  0
VERTEX
  5
115
  8
LAYER_1
 10
593.036892949844
 20
2184.385680840822
 30
0.0
  0
VERTEX
  5
116
  8
LAYER_1
 10
594.7843973303007
 20
2180.904737416177
 30
0.0
  0
VERTEX
  5
117
  8
LAYER_1
 10
596.5217432087746
 20
2177.42028595333
 30
0.0
  0
VERTEX
  5
118
  8
LAYER_1
 10
598.2489305840159
 20
2173.932346904474
 30
0.0
  0
VERTEX
  5
119
  8
LAYER_1
 10
599.9659594547741
 20
2170.440940721805
 30
0.0
  0
VERTEX
  5
11A
  8
LAYER_1
 10
601.6728298197995
 20
2166.946087857515
 30
0.0
  0
VERTEX
  5
11B
  8
LAYER_1
 10
603.369541677842
 20
2163.4478087638
 30
0.0
  0
VERTEX
  5
11C
  8
LAYER_1
 10
605.0560950276516
 20
2159.946123892853
 30
0.0
  0
VERTEX
  5
11D
  8
LAYER_1
 10
606.7324898679782
 20
2156.44105369687
 30
0.0
  0
VERTEX
  5
11E
  8
LAYER_1
 10
608.3987261975718
 20
2152.932618628044
 30
0.0
  0
VERTEX
  5
11F
  8
LAYER_1
 10
610.0548040151824
 20
2149.420839138569
 30
0.0
  0
VERTEX
  5
120
  8
LAYER_1
 10
611.70072331956
 20
2145.90573568064
 30
0.0
  0
VERTEX
  5
121
  8
LAYER_1
 10
613.3364841094544
 20
2142.387328706451
 30
0.0
  0
VERTEX
  5
122
  8
LAYER_1
 10
614.9620863836159
 20
2138.865638668195
 30
0.0
  0
VERTEX
  5
123
  8
LAYER_1
 10
616.5775301407941
 20
2135.340686018068
 30
0.0
  0
VERTEX
  5
124
  8
LAYER_1
 10
618.1828153797392
 20
2131.812491208263
 30
0.0
  0
VERTEX
  5
125
  8
LAYER_1
 10
619.777942099201
 20
2128.281074690975
 30
0.0
  0
VERTEX
  5
126
  8
LAYER_1
 10
621.3629102979296
 20
2124.746456918398
 30
0.0
  0
VERTEX
  5
127
  8
LAYER_1
 10
622.937719974675
 20
2121.208658342725
 30
0.0
  0
VERTEX
  5
128
  8
LAYER_1
 10
624.5023711281871
 20
2117.667699416152
 30
0.0
  0
VERTEX
  5
129
  8
LAYER_1
 10
626.0568637572158
 20
2114.123600590872
 30
0.0
  0
VERTEX
  5
12A
  8
LAYER_1
 10
627.6011978605112
 20
2110.57638231908
 30
0.0
  0
VERTEX
  5
12B
  8
LAYER_1
 10
629.1353734368232
 20
2107.026065052971
 30
0.0
  0
VERTEX
  5
12C
  8
LAYER_1
 10
630.6593904849018
 20
2103.472669244737
 30
0.0
  0
VERTEX
  5
12D
  8
LAYER_1
 10
632.173249003497
 20
2099.916215346573
 30
0.0
  0
VERTEX
  5
12E
  8
LAYER_1
 10
633.6769489913586
 20
2096.356723810674
 30
0.0
  0
VERTEX
  5
12F
  8
LAYER_1
 10
635.1704904472367
 20
2092.794215089235
 30
0.0
  0
VERTEX
  5
130
  8
LAYER_1
 10
636.6538733698812
 20
2089.228709634448
 30
0.0
  0
VERTEX
  5
131
  8
LAYER_1
 10
638.1270977580423
 20
2085.660227898507
 30
0.0
  0
VERTEX
  5
132
  8
LAYER_1
 10
639.5901636104696
 20
2082.088790333609
 30
0.0
  0
VERTEX
  5
133
  8
LAYER_1
 10
641.0430709259135
 20
2078.514417391946
 30
0.0
  0
VERTEX
  5
134
  8
LAYER_1
 10
642.4858197031235
 20
2074.937129525713
 30
0.0
  0
VERTEX
  5
135
  8
LAYER_1
 10
643.91840994085
 20
2071.356947187104
 30
0.0
  0
VERTEX
  5
136
  8
LAYER_1
 10
645.3408416378427
 20
2067.773890828314
 30
0.0
  0
VERTEX
  5
137
  8
LAYER_1
 10
646.7531147928516
 20
2064.187980901536
 30
0.0
  0
VERTEX
  5
138
  8
LAYER_1
 10
648.1552294046268
 20
2060.599237858965
 30
0.0
  0
VERTEX
  5
139
  8
LAYER_1
 10
649.547185471918
 20
2057.007682152795
 30
0.0
  0
VERTEX
  5
13A
  8
LAYER_1
 10
650.9289829934755
 20
2053.41333423522
 30
0.0
  0
VERTEX
  5
13B
  8
LAYER_1
 10
652.3006219680491
 20
2049.816214558434
 30
0.0
  0
VERTEX
  5
13C
  8
LAYER_1
 10
653.6621023943887
 20
2046.216343574632
 30
0.0
  0
VERTEX
  5
13D
  8
LAYER_1
 10
655.0134242712445
 20
2042.613741736008
 30
0.0
  0
VERTEX
  5
13E
  8
LAYER_1
 10
656.3545875973663
 20
2039.008429494756
 30
0.0
  0
VERTEX
  5
13F
  8
LAYER_1
 10
657.6855923715041
 20
2035.40042730307
 30
0.0
  0
VERTEX
  5
140
  8
LAYER_1
 10
659.0064385924077
 20
2031.789755613144
 30
0.0
  0
VERTEX
  5
141
  8
LAYER_1
 10
660.3171262588273
 20
2028.176434877173
 30
0.0
  0
VERTEX
  5
142
  8
LAYER_1
 10
661.6176553695128
 20
2024.560485547352
 30
0.0
  0
VERTEX
  5
143
  8
LAYER_1
 10
662.9080259232143
 20
2020.941928075873
 30
0.0
  0
VERTEX
  5
144
  8
LAYER_1
 10
664.1882379186816
 20
2017.320782914931
 30
0.0
  0
VERTEX
  5
145
  8
LAYER_1
 10
665.4582913546647
 20
2013.697070516721
 30
0.0
  0
VERTEX
  5
146
  8
LAYER_1
 10
666.7181862299135
 20
2010.070811333437
 30
0.0
  0
VERTEX
  5
147
  8
LAYER_1
 10
667.967922543178
 20
2006.442025817273
 30
0.0
  0
VERTEX
  5
148
  8
LAYER_1
 10
669.2075002932083
 20
2002.810734420423
 30
0.0
  0
VERTEX
  5
149
  8
LAYER_1
 10
670.4369194787542
 20
1999.176957595082
 30
0.0
  0
VERTEX
  5
14A
  8
LAYER_1
 10
671.656180098566
 20
1995.540715793443
 30
0.0
  0
VERTEX
  5
14B
  8
LAYER_1
 10
672.8652821513932
 20
1991.902029467701
 30
0.0
  0
VERTEX
  5
14C
  8
LAYER_1
 10
674.0642256359861
 20
1988.26091907005
 30
0.0
  0
VERTEX
  5
14D
  8
LAYER_1
 10
675.2530105510946
 20
1984.617405052685
 30
0.0
  0
VERTEX
  5
14E
  8
LAYER_1
 10
676.4316368954685
 20
1980.971507867799
 30
0.0
  0
VERTEX
  5
14F
  8
LAYER_1
 10
677.600104667858
 20
1977.323247967586
 30
0.0
  0
VERTEX
  5
150
  8
LAYER_1
 10
678.7584138670129
 20
1973.672645804242
 30
0.0
  0
VERTEX
  5
151
  8
LAYER_1
 10
679.9065644916833
 20
1970.019721829959
 30
0.0
  0
VERTEX
  5
152
  8
LAYER_1
 10
681.044556540619
 20
1966.364496496933
 30
0.0
  0
VERTEX
  5
153
  8
LAYER_1
 10
682.1723900125703
 20
1962.706990257358
 30
0.0
  0
VERTEX
  5
154
  8
LAYER_1
 10
683.290064906287
 20
1959.047223563427
 30
0.0
  0
VERTEX
  5
155
  8
LAYER_1
 10
684.3975812205188
 20
1955.385216867336
 30
0.0
  0
VERTEX
  5
156
  8
LAYER_1
 10
685.4949389540159
 20
1951.720990621277
 30
0.0
  0
VERTEX
  5
157
  8
LAYER_1
 10
686.5821381055282
 20
1948.054565277446
 30
0.0
  0
VERTEX
  5
158
  8
LAYER_1
 10
687.6591786738057
 20
1944.385961288037
 30
0.0
  0
VERTEX
  5
159
  8
LAYER_1
 10
688.7260606575985
 20
1940.715199105244
 30
0.0
  0
VERTEX
  5
15A
  8
LAYER_1
 10
689.7827840556565
 20
1937.04229918126
 30
0.0
  0
VERTEX
  5
15B
  8
LAYER_1
 10
690.8293488667296
 20
1933.367281968282
 30
0.0
  0
VERTEX
  5
15C
  8
LAYER_1
 10
691.8657550895678
 20
1929.690167918502
 30
0.0
  0
VERTEX
  5
15D
  8
LAYER_1
 10
692.892002722921
 20
1926.010977484114
 30
0.0
  0
VERTEX
  5
15E
  8
LAYER_1
 10
693.9080917655392
 20
1922.329731117313
 30
0.0
  0
VERTEX
  5
15F
  8
LAYER_1
 10
694.9140222161725
 20
1918.646449270293
 30
0.0
  0
VERTEX
  5
160
  8
LAYER_1
 10
695.9097940735709
 20
1914.961152395249
 30
0.0
  0
VERTEX
  5
161
  8
LAYER_1
 10
696.8954073364841
 20
1911.273860944375
 30
0.0
  0
VERTEX
  5
162
  8
LAYER_1
 10
697.8708620036623
 20
1907.584595369864
 30
0.0
  0
VERTEX
  5
163
  8
LAYER_1
 10
698.8361580738554
 20
1903.893376123911
 30
0.0
  0
VERTEX
  5
164
  8
LAYER_1
 10
699.7912955458132
 20
1900.200223658711
 30
0.0
  0
VERTEX
  5
165
  8
LAYER_1
 10
700.7362744182859
 20
1896.505158426457
 30
0.0
  0
VERTEX
  5
166
  8
LAYER_1
 10
701.6710946900234
 20
1892.808200879344
 30
0.0
  0
VERTEX
  5
167
  8
LAYER_1
 10
702.5957563597758
 20
1889.109371469565
 30
0.0
  0
VERTEX
  5
168
  8
LAYER_1
 10
703.5102594262928
 20
1885.408690649316
 30
0.0
  0
VERTEX
  5
169
  8
LAYER_1
 10
704.4146038883246
 20
1881.70617887079
 30
0.0
  0
VERTEX
  5
16A
  8
LAYER_1
 10
705.308789744621
 20
1878.001856586182
 30
0.0
  0
VERTEX
  5
16B
  8
LAYER_1
 10
706.192816993932
 20
1874.295744247685
 30
0.0
  0
VERTEX
  5
16C
  8
LAYER_1
 10
707.0666856350076
 20
1870.587862307495
 30
0.0
  0
VERTEX
  5
16D
  8
LAYER_1
 10
707.9303956665979
 20
1866.878231217805
 30
0.0
  0
VERTEX
  5
16E
  8
LAYER_1
 10
708.7839470874526
 20
1863.166871430809
 30
0.0
  0
VERTEX
  5
16F
  8
LAYER_1
 10
709.6273398963219
 20
1859.453803398702
 30
0.0
  0
VERTEX
  5
170
  8
LAYER_1
 10
710.4605740919556
 20
1855.739047573677
 30
0.0
  0
VERTEX
  5
171
  8
LAYER_1
 10
711.2836496731038
 20
1852.02262440793
 30
0.0
  0
VERTEX
  5
172
  8
LAYER_1
 10
712.0965666385165
 20
1848.304554353654
 30
0.0
  0
VERTEX
  5
173
  8
LAYER_1
 10
712.8993249869436
 20
1844.584857863043
 30
0.0
  0
VERTEX
  5
174
  8
LAYER_1
 10
713.691924717135
 20
1840.863555388292
 30
0.0
  0
VERTEX
  5
175
  8
LAYER_1
 10
714.4743658278408
 20
1837.140667381595
 30
0.0
  0
VERTEX
  5
176
  8
LAYER_1
 10
715.2466483178107
 20
1833.416214295147
 30
0.0
  0
VERTEX
  5
177
  8
LAYER_1
 10
716.0087721857951
 20
1829.69021658114
 30
0.0
  0
VERTEX
  5
178
  8
LAYER_1
 10
716.7607374305437
 20
1825.962694691771
 30
0.0
  0
VERTEX
  5
179
  8
LAYER_1
 10
717.5025440508064
 20
1822.233669079232
 30
0.0
  0
VERTEX
  5
17A
  8
LAYER_1
 10
718.2341920453332
 20
1818.503160195718
 30
0.0
  0
VERTEX
  5
17B
  8
LAYER_1
 10
718.9556814128744
 20
1814.771188493423
 30
0.0
  0
VERTEX
  5
17C
  8
LAYER_1
 10
719.6670121521796
 20
1811.037774424542
 30
0.0
  0
VERTEX
  5
17D
  8
LAYER_1
 10
720.3681842619989
 20
1807.302938441268
 30
0.0
  0
VERTEX
  5
17E
  8
LAYER_1
 10
721.0591977410821
 20
1803.566700995796
 30
0.0
  0
VERTEX
  5
17F
  8
LAYER_1
 10
721.7400525881794
 20
1799.829082540321
 30
0.0
  0
VERTEX
  5
180
  8
LAYER_1
 10
722.4107488020408
 20
1796.090103527035
 30
0.0
  0
VERTEX
  5
181
  8
LAYER_1
 10
723.071286381416
 20
1792.349784408134
 30
0.0
  0
VERTEX
  5
182
  8
LAYER_1
 10
723.7216653250553
 20
1788.608145635812
 30
0.0
  0
VERTEX
  5
183
  8
LAYER_1
 10
724.3618856317084
 20
1784.865207662263
 30
0.0
  0
VERTEX
  5
184
  8
LAYER_1
 10
724.9919473001255
 20
1781.120990939681
 30
0.0
  0
VERTEX
  5
185
  8
LAYER_1
 10
725.6118503290563
 20
1777.375515920261
 30
0.0
  0
VERTEX
  5
186
  8
LAYER_1
 10
726.221594717251
 20
1773.628803056196
 30
0.0
  0
VERTEX
  5
187
  8
LAYER_1
 10
726.8211804634594
 20
1769.880872799681
 30
0.0
  0
VERTEX
  5
188
  8
LAYER_1
 10
727.4106075664315
 20
1766.13174560291
 30
0.0
  0
VERTEX
  5
189
  8
LAYER_1
 10
727.9898760249175
 20
1762.381441918078
 30
0.0
  0
VERTEX
  5
18A
  8
LAYER_1
 10
728.558985837667
 20
1758.629982197377
 30
0.0
  0
VERTEX
  5
18B
  8
LAYER_1
 10
729.1179370034303
 20
1754.877386893004
 30
0.0
  0
VERTEX
  5
18C
  8
LAYER_1
 10
729.6667295209571
 20
1751.123676457151
 30
0.0
  0
VERTEX
  5
18D
  8
LAYER_1
 10
730.2053633889976
 20
1747.368871342013
 30
0.0
  0
VERTEX
  5
18E
  8
LAYER_1
 10
730.7338386063017
 20
1743.612991999785
 30
0.0
  0
VERTEX
  5
18F
  8
LAYER_1
 10
731.2521551716192
 20
1739.856058882661
 30
0.0
  0
VERTEX
  5
190
  8
LAYER_1
 10
731.7603130837003
 20
1736.098092442834
 30
0.0
  0
VERTEX
  5
191
  8
LAYER_1
 10
732.2583123412949
 20
1732.339113132499
 30
0.0
  0
VERTEX
  5
192
  8
LAYER_1
 10
732.7461529431529
 20
1728.57914140385
 30
0.0
  0
VERTEX
  5
193
  8
LAYER_1
 10
733.2238348880242
 20
1724.818197709082
 30
0.0
  0
VERTEX
  5
194
  8
LAYER_1
 10
733.691358174659
 20
1721.056302500388
 30
0.0
  0
VERTEX
  5
195
  8
LAYER_1
 10
734.148722801807
 20
1717.293476229964
 30
0.0
  0
VERTEX
  5
196
  8
LAYER_1
 10
734.5959287682184
 20
1713.529739350002
 30
0.0
  0
VERTEX
  5
197
  8
LAYER_1
 10
735.032976072643
 20
1709.765112312698
 30
0.0
  0
VERTEX
  5
198
  8
LAYER_1
 10
735.4598647138309
 20
1705.999615570245
 30
0.0
  0
VERTEX
  5
199
  8
LAYER_1
 10
735.8765946905321
 20
1702.233269574838
 30
0.0
  0
VERTEX
  5
19A
  8
LAYER_1
 10
736.2831660014965
 20
1698.466094778671
 30
0.0
  0
VERTEX
  5
19B
  8
LAYER_1
 10
736.6795786454741
 20
1694.698111633938
 30
0.0
  0
VERTEX
  5
19C
  8
LAYER_1
 10
737.0658326212147
 20
1690.929340592833
 30
0.0
  0
VERTEX
  5
19D
  8
LAYER_1
 10
737.4419279274684
 20
1687.159802107551
 30
0.0
  0
VERTEX
  5
19E
  8
LAYER_1
 10
737.8078645629853
 20
1683.389516630286
 30
0.0
  0
VERTEX
  5
19F
  8
LAYER_1
 10
738.1636425265151
 20
1679.618504613232
 30
0.0
  0
VERTEX
  5
1A0
  8
LAYER_1
 10
738.5092618168079
 20
1675.846786508583
 30
0.0
  0
VERTEX
  5
1A1
  8
LAYER_1
 10
738.8447224326138
 20
1672.074382768533
 30
0.0
  0
VERTEX
  5
1A2
  8
LAYER_1
 10
739.1700243726826
 20
1668.301313845277
 30
0.0
  0
VERTEX
  5
1A3
  8
LAYER_1
 10
739.4851676357642
 20
1664.527600191009
 30
0.0
  0
VERTEX
  5
1A4
  8
LAYER_1
 10
739.7901522206088
 20
1660.753262257924
 30
0.0
  0
VERTEX
  5
1A5
  8
LAYER_1
 10
740.0849781259662
 20
1656.978320498214
 30
0.0
  0
VERTEX
  5
1A6
  8
LAYER_1
 10
740.3696453505866
 20
1653.202795364075
 30
0.0
  0
VERTEX
  5
1A7
  8
LAYER_1
 10
740.6441538932195
 20
1649.426707307701
 30
0.0
  0
VERTEX
  5
1A8
  8
LAYER_1
 10
740.9085037526154
 20
1645.650076781285
 30
0.0
  0
VERTEX
  5
1A9
  8
LAYER_1
 10
741.162694927524
 20
1641.872924237023
 30
0.0
  0
VERTEX
  5
1AA
  8
LAYER_1
 10
741.4067274166952
 20
1638.095270127109
 30
0.0
  0
VERTEX
  5
1AB
  8
LAYER_1
 10
741.640601218879
 20
1634.317134903736
 30
0.0
  0
VERTEX
  5
1AC
  8
LAYER_1
 10
741.8643163328256
 20
1630.538539019099
 30
0.0
  0
VERTEX
  5
1AD
  8
LAYER_1
 10
742.0778727572847
 20
1626.759502925391
 30
0.0
  0
VERTEX
  5
1AE
  8
LAYER_1
 10
742.2812704910065
 20
1622.980047074808
 30
0.0
  0
VERTEX
  5
1AF
  8
LAYER_1
 10
742.4745095327407
 20
1619.200191919544
 30
0.0
  0
VERTEX
  5
1B0
  8
LAYER_1
 10
742.6575898812375
 20
1615.419957911792
 30
0.0
  0
VERTEX
  5
1B1
  8
LAYER_1
 10
742.8305115352468
 20
1611.639365503747
 30
0.0
  0
VERTEX
  5
1B2
  8
LAYER_1
 10
742.9932744935185
 20
1607.858435147603
 30
0.0
  0
VERTEX
  5
1B3
  8
LAYER_1
 10
743.1458787548027
 20
1604.077187295555
 30
0.0
  0
VERTEX
  5
1B4
  8
LAYER_1
 10
743.2883243178492
 20
1600.295642399796
 30
0.0
  0
VERTEX
  5
1B5
  8
LAYER_1
 10
743.420611181408
 20
1596.513820912521
 30
0.0
  0
VERTEX
  5
1B6
  8
LAYER_1
 10
743.5427393442294
 20
1592.731743285924
 30
0.0
  0
VERTEX
  5
1B7
  8
LAYER_1
 10
743.6547088050629
 20
1588.949429972199
 30
0.0
  0
VERTEX
  5
1B8
  8
LAYER_1
 10
743.7565195626587
 20
1585.166901423541
 30
0.0
  0
VERTEX
  5
1B9
  8
LAYER_1
 10
743.8481716157668
 20
1581.384178092143
 30
0.0
  0
VERTEX
  5
1BA
  8
LAYER_1
 10
743.9296649631369
 20
1577.6012804302
 30
0.0
  0
VERTEX
  5
1BB
  8
LAYER_1
 10
744.0009996035194
 20
1573.818228889907
 30
0.0
  0
VERTEX
  5
1BC
  8
LAYER_1
 10
744.0621755356641
 20
1570.035043923456
 30
0.0
  0
VERTEX
  5
1BD
  8
LAYER_1
 10
744.1131927583208
 20
1566.251745983043
 30
0.0
  0
VERTEX
  5
1BE
  8
LAYER_1
 10
744.1540512702395
 20
1562.468355520862
 30
0.0
  0
VERTEX
  5
1BF
  8
LAYER_1
 10
744.1847510701705
 20
1558.684892989106
 30
0.0
  0
VERTEX
  5
1C0
  8
LAYER_1
 10
744.2052921568633
 20
1554.901378839971
 30
0.0
  0
VERTEX
  5
1C1
  8
LAYER_1
 10
744.2156745290681
 20
1551.11783352565
 30
0.0
  0
VERTEX
  5
1C2
  8
LAYER_1
 10
744.2158981855348
 20
1547.334277498338
 30
0.0
  0
VERTEX
  5
1C3
  8
LAYER_1
 10
744.2059631250136
 20
1543.550731210229
 30
0.0
  0
VERTEX
  5
1C4
  8
LAYER_1
 10
744.1858693462542
 20
1539.767215113516
 30
0.0
  0
VERTEX
  5
1C5
  8
LAYER_1
 10
744.1556168480067
 20
1535.983749660395
 30
0.0
  0
VERTEX
  5
1C6
  8
LAYER_1
 10
744.1152056290211
 20
1532.200355303059
 30
0.0
  0
VERTEX
  5
1C7
  8
LAYER_1
 10
744.0646356880472
 20
1528.417052493703
 30
0.0
  0
VERTEX
  5
1C8
  8
LAYER_1
 10
744.0039070238352
 20
1524.633861684521
 30
0.0
  0
VERTEX
  5
1C9
  8
LAYER_1
 10
743.9330196351348
 20
1520.850803327707
 30
0.0
  0
VERTEX
  5
1CA
  8
LAYER_1
 10
743.8519735206961
 20
1517.067897875455
 30
0.0
  0
VERTEX
  5
1CB
  8
LAYER_1
 10
743.7607686792692
 20
1513.28516577996
 30
0.0
  0
VERTEX
  5
1CC
  8
LAYER_1
 10
743.6594051096038
 20
1509.502627493416
 30
0.0
  0
VERTEX
  5
1CD
  8
LAYER_1
 10
743.5478828104501
 20
1505.720303468016
 30
0.0
  0
VERTEX
  5
1CE
  8
LAYER_1
 10
743.4262017805581
 20
1501.938214155956
 30
0.0
  0
VERTEX
  5
1CF
  8
LAYER_1
 10
743.2943620186776
 20
1498.15638000943
 30
0.0
  0
VERTEX
  5
1D0
  8
LAYER_1
 10
743.1523635235585
 20
1494.374821480631
 30
0.0
  0
VERTEX
  5
1D1
  8
LAYER_1
 10
743.000206293951
 20
1490.593559021753
 30
0.0
  0
VERTEX
  5
1D2
  8
LAYER_1
 10
742.837890328605
 20
1486.812613084992
 30
0.0
  0
VERTEX
  5
1D3
  8
LAYER_1
 10
742.6654156262705
 20
1483.032004122541
 30
0.0
  0
VERTEX
  5
1D4
  8
LAYER_1
 10
742.4827821856973
 20
1479.251752586594
 30
0.0
  0
VERTEX
  5
1D5
  8
LAYER_1
 10
742.2899900056354
 20
1475.471878929346
 30
0.0
  0
VERTEX
  5
1D6
  8
LAYER_1
 10
742.0870390848349
 20
1471.692403602991
 30
0.0
  0
VERTEX
  5
1D7
  8
LAYER_1
 10
741.8739294220459
 20
1467.913347059723
 30
0.0
  0
VERTEX
  5
1D8
  8
LAYER_1
 10
741.650661016018
 20
1464.134729751737
 30
0.0
  0
VERTEX
  5
1D9
  8
LAYER_1
 10
741.4172338655014
 20
1460.356572131226
 30
0.0
  0
VERTEX
  5
1DA
  8
LAYER_1
 10
741.1736479692461
 20
1456.578894650385
 30
0.0
  0
VERTEX
  5
1DB
  8
LAYER_1
 10
740.9199033260018
 20
1452.801717761408
 30
0.0
  0
VERTEX
  5
1DC
  8
LAYER_1
 10
740.6559999345187
 20
1449.025061916489
 30
0.0
  0
VERTEX
  5
1DD
  8
LAYER_1
 10
740.3819377935467
 20
1445.248947567823
 30
0.0
  0
VERTEX
  5
1DE
  8
LAYER_1
 10
740.0977169018361
 20
1441.473395167603
 30
0.0
  0
VERTEX
  5
1DF
  8
LAYER_1
 10
739.8033372581363
 20
1437.698425168024
 30
0.0
  0
VERTEX
  5
1E0
  8
LAYER_1
 10
739.4987988611975
 20
1433.92405802128
 30
0.0
  0
VERTEX
  5
1E1
  8
LAYER_1
 10
739.1841017097698
 20
1430.150314179565
 30
0.0
  0
VERTEX
  5
1E2
  8
LAYER_1
 10
738.859245802603
 20
1426.377214095074
 30
0.0
  0
VERTEX
  5
1E3
  8
LAYER_1
 10
738.5242311384472
 20
1422.604778220001
 30
0.0
  0
VERTEX
  5
1E4
  8
LAYER_1
 10
736.4474585152684
 20
1421.721725223667
 30
0.0
  0
VERTEX
  5
1E5
  8
LAYER_1
 10
734.3707063540153
 20
1420.829478604713
 30
0.0
  0
VERTEX
  5
1E6
  8
LAYER_1
 10
732.2939916212309
 20
1419.928038629544
 30
0.0
  0
VERTEX
  5
1E7
  8
LAYER_1
 10
730.2173312834583
 20
1419.017405564566
 30
0.0
  0
VERTEX
  5
1E8
  8
LAYER_1
 10
728.1407423072403
 20
1418.097579676185
 30
0.0
  0
VERTEX
  5
1E9
  8
LAYER_1
 10
726.0642416591201
 20
1417.168561230806
 30
0.0
  0
VERTEX
  5
1EA
  8
LAYER_1
 10
723.9878463056405
 20
1416.230350494835
 30
0.0
  0
VERTEX
  5
1EB
  8
LAYER_1
 10
721.9115732133445
 20
1415.282947734679
 30
0.0
  0
VERTEX
  5
1EC
  8
LAYER_1
 10
718.8667828115732
 20
1413.876840623823
 30
0.0
  0
VERTEX
  5
1ED
  8
LAYER_1
 10
715.836962609136
 20
1412.457691115188
 30
0.0
  0
VERTEX
  5
1EE
  8
LAYER_1
 10
712.822226412859
 20
1411.025647968911
 30
0.0
  0
VERTEX
  5
1EF
  8
LAYER_1
 10
709.8226880295683
 20
1409.580859945126
 30
0.0
  0
VERTEX
  5
1F0
  8
LAYER_1
 10
706.8384612660903
 20
1408.123475803968
 30
0.0
  0
VERTEX
  5
1F1
  8
LAYER_1
 10
703.8696599292513
 20
1406.653644305573
 30
0.0
  0
VERTEX
  5
1F2
  8
LAYER_1
 10
700.9163978258771
 20
1405.171514210076
 30
0.0
  0
VERTEX
  5
1F3
  8
LAYER_1
 10
697.9787887627942
 20
1403.677234277612
 30
0.0
  0
VERTEX
  5
1F4
  8
LAYER_1
 10
695.0569465468287
 20
1402.170953268315
 30
0.0
  0
VERTEX
  5
1F5
  8
LAYER_1
 10
692.1509849848068
 20
1400.652819942322
 30
0.0
  0
VERTEX
  5
1F6
  8
LAYER_1
 10
689.2610178835545
 20
1399.122983059767
 30
0.0
  0
VERTEX
  5
1F7
  8
LAYER_1
 10
686.387159049898
 20
1397.581591380787
 30
0.0
  0
VERTEX
  5
1F8
  8
LAYER_1
 10
683.5295222906635
 20
1396.028793665515
 30
0.0
  0
VERTEX
  5
1F9
  8
LAYER_1
 10
680.6882214126774
 20
1394.464738674086
 30
0.0
  0
VERTEX
  5
1FA
  8
LAYER_1
 10
677.8633702227658
 20
1392.889575166637
 30
0.0
  0
VERTEX
  5
1FB
  8
LAYER_1
 10
675.0550825277546
 20
1391.303451903301
 30
0.0
  0
VERTEX
  5
1FC
  8
LAYER_1
 10
672.2634721344704
 20
1389.706517644216
 30
0.0
  0
VERTEX
  5
1FD
  8
LAYER_1
 10
669.4886528497389
 20
1388.098921149515
 30
0.0
  0
VERTEX
  5
1FE
  8
LAYER_1
 10
666.7307384803867
 20
1386.480811179333
 30
0.0
  0
VERTEX
  5
1FF
  8
LAYER_1
 10
663.9898428332397
 20
1384.852336493807
 30
0.0
  0
VERTEX
  5
200
  8
LAYER_1
 10
661.2660797151241
 20
1383.213645853071
 30
0.0
  0
VERTEX
  5
201
  8
LAYER_1
 10
658.5595629328664
 20
1381.564888017259
 30
0.0
  0
VERTEX
  5
202
  8
LAYER_1
 10
655.8704062932925
 20
1379.906211746509
 30
0.0
  0
VERTEX
  5
203
  8
LAYER_1
 10
653.1987236032285
 20
1378.237765800953
 30
0.0
  0
VERTEX
  5
204
  8
LAYER_1
 10
650.5446286695008
 20
1376.559698940729
 30
0.0
  0
VERTEX
  5
205
  8
LAYER_1
 10
647.9082352989353
 20
1374.87215992597
 30
0.0
  0
VERTEX
  5
206
  8
LAYER_1
 10
645.2896572983585
 20
1373.175297516813
 30
0.0
  0
VERTEX
  5
207
  8
LAYER_1
 10
642.6890084745964
 20
1371.469260473391
 30
0.0
  0
VERTEX
  5
208
  8
LAYER_1
 10
640.1064026344752
 20
1369.754197555842
 30
0.0
  0
VERTEX
  5
209
  8
LAYER_1
 10
637.5419535848212
 20
1368.030257524298
 30
0.0
  0
VERTEX
  5
20A
  8
LAYER_1
 10
634.9957751324603
 20
1366.297589138896
 30
0.0
  0
VERTEX
  5
20B
  8
LAYER_1
 10
632.467981084219
 20
1364.556341159772
 30
0.0
  0
VERTEX
  5
20C
  8
LAYER_1
 10
629.9586852469233
 20
1362.806662347059
 30
0.0
  0
VERTEX
  5
20D
  8
LAYER_1
 10
627.4680014273994
 20
1361.048701460893
 30
0.0
  0
VERTEX
  5
20E
  8
LAYER_1
 10
624.9960434324735
 20
1359.28260726141
 30
0.0
  0
VERTEX
  5
20F
  8
LAYER_1
 10
622.5429250689716
 20
1357.508528508744
 30
0.0
  0
VERTEX
  5
210
  8
LAYER_1
 10
620.1087601437201
 20
1355.726613963031
 30
0.0
  0
VERTEX
  5
211
  8
LAYER_1
 10
617.6936624635453
 20
1353.937012384406
 30
0.0
  0
VERTEX
  5
212
  8
LAYER_1
 10
615.297745835273
 20
1352.139872533005
 30
0.0
  0
VERTEX
  5
213
  8
LAYER_1
 10
612.9211240657295
 20
1350.335343168961
 30
0.0
  0
VERTEX
  5
214
  8
LAYER_1
 10
610.5639109617412
 20
1348.52357305241
 30
0.0
  0
VERTEX
  5
215
  8
LAYER_1
 10
608.2262203301341
 20
1346.704710943488
 30
0.0
  0
VERTEX
  5
216
  8
LAYER_1
 10
605.9081659777344
 20
1344.87890560233
 30
0.0
  0
VERTEX
  5
217
  8
LAYER_1
 10
603.6098617113682
 20
1343.046305789071
 30
0.0
  0
VERTEX
  5
218
  8
LAYER_1
 10
601.3314213378619
 20
1341.207060263845
 30
0.0
  0
VERTEX
  5
219
  8
LAYER_1
 10
599.0729586640414
 20
1339.361317786789
 30
0.0
  0
VERTEX
  5
21A
  8
LAYER_1
 10
596.8345874967331
 20
1337.509227118037
 30
0.0
  0
VERTEX
  5
21B
  8
LAYER_1
 10
594.6164216427632
 20
1335.650937017725
 30
0.0
  0
VERTEX
  5
21C
  8
LAYER_1
 10
592.4185749089577
 20
1333.786596245987
 30
0.0
  0
VERTEX
  5
21D
  8
LAYER_1
 10
590.2411611021428
 20
1331.916353562959
 30
0.0
  0
VERTEX
  5
21E
  8
LAYER_1
 10
588.0842940291446
 20
1330.040357728777
 30
0.0
  0
VERTEX
  5
21F
  8
LAYER_1
 10
585.9480874967896
 20
1328.158757503574
 30
0.0
  0
VERTEX
  5
220
  8
LAYER_1
 10
583.8326553119037
 20
1326.271701647487
 30
0.0
  0
VERTEX
  5
221
  8
LAYER_1
 10
581.7381112813133
 20
1324.37933892065
 30
0.0
  0
VERTEX
  5
222
  8
LAYER_1
 10
579.6645692118444
 20
1322.481818083199
 30
0.0
  0
VERTEX
  5
223
  8
LAYER_1
 10
577.6121429103232
 20
1320.579287895269
 30
0.0
  0
VERTEX
  5
224
  8
LAYER_1
 10
575.5809461835759
 20
1318.671897116994
 30
0.0
  0
VERTEX
  5
225
  8
LAYER_1
 10
573.5710928384286
 20
1316.759794508511
 30
0.0
  0
VERTEX
  5
226
  8
LAYER_1
 10
571.5826966817076
 20
1314.843128829955
 30
0.0
  0
VERTEX
  5
227
  8
LAYER_1
 10
569.6158715202391
 20
1312.922048841459
 30
0.0
  0
VERTEX
  5
228
  8
LAYER_1
 10
567.6707311608493
 20
1310.996703303161
 30
0.0
  0
VERTEX
  5
229
  8
LAYER_1
 10
565.7473894103641
 20
1309.067240975194
 30
0.0
  0
VERTEX
  5
22A
  8
LAYER_1
 10
563.8459600756098
 20
1307.133810617694
 30
0.0
  0
VERTEX
  5
22B
  8
LAYER_1
 10
561.9665569634128
 20
1305.196560990797
 30
0.0
  0
VERTEX
  5
22C
  8
LAYER_1
 10
560.1092938805991
 20
1303.255640854636
 30
0.0
  0
VERTEX
  5
22D
  8
LAYER_1
 10
558.274284633995
 20
1301.311198969348
 30
0.0
  0
VERTEX
  5
22E
  8
LAYER_1
 10
556.4616430304263
 20
1299.363384095068
 30
0.0
  0
VERTEX
  5
22F
  8
LAYER_1
 10
554.6714828767197
 20
1297.412344991931
 30
0.0
  0
VERTEX
  5
230
  8
LAYER_1
 10
552.903917979701
 20
1295.458230420072
 30
0.0
  0
VERTEX
  5
231
  8
LAYER_1
 10
551.1590621461966
 20
1293.501189139625
 30
0.0
  0
VERTEX
  5
232
  8
LAYER_1
 10
549.4370291830326
 20
1291.541369910727
 30
0.0
  0
VERTEX
  5
233
  8
LAYER_1
 10
547.7379328970351
 20
1289.578921493513
 30
0.0
  0
VERTEX
  5
234
  8
LAYER_1
 10
546.0618870950303
 20
1287.613992648117
 30
0.0
  0
VERTEX
  5
235
  8
LAYER_1
 10
544.4090055838445
 20
1285.646732134675
 30
0.0
  0
VERTEX
  5
236
  8
LAYER_1
 10
542.7794021703039
 20
1283.677288713322
 30
0.0
  0
VERTEX
  5
237
  8
LAYER_1
 10
541.1731906612345
 20
1281.705811144193
 30
0.0
  0
VERTEX
  5
238
  8
LAYER_1
 10
539.5904848634625
 20
1279.732448187424
 30
0.0
  0
VERTEX
  5
239
  8
LAYER_1
 10
538.0313985838142
 20
1277.757348603149
 30
0.0
  0
VERTEX
  5
23A
  8
LAYER_1
 10
536.4960456291157
 20
1275.780661151503
 30
0.0
  0
VERTEX
  5
23B
  8
LAYER_1
 10
534.9845398061933
 20
1273.802534592623
 30
0.0
  0
VERTEX
  5
23C
  8
LAYER_1
 10
533.4969949218731
 20
1271.823117686642
 30
0.0
  0
VERTEX
  5
23D
  8
LAYER_1
 10
532.0335247829811
 20
1269.842559193696
 30
0.0
  0
VERTEX
  5
23E
  8
LAYER_1
 10
530.5942431963435
 20
1267.861007873921
 30
0.0
  0
VERTEX
  5
23F
  8
LAYER_1
 10
529.1792639687869
 20
1265.878612487451
 30
0.0
  0
VERTEX
  5
240
  8
LAYER_1
 10
527.7887009071371
 20
1263.895521794421
 30
0.0
  0
VERTEX
  5
241
  8
LAYER_1
 10
526.4226678182204
 20
1261.911884554968
 30
0.0
  0
VERTEX
  5
242
  8
LAYER_1
 10
525.0812785088629
 20
1259.927849529226
 30
0.0
  0
VERTEX
  5
243
  8
LAYER_1
 10
523.7646467858906
 20
1257.943565477329
 30
0.0
  0
VERTEX
  5
244
  8
LAYER_1
 10
522.47288645613
 20
1255.959181159414
 30
0.0
  0
VERTEX
  5
245
  8
LAYER_1
 10
521.2061113264074
 20
1253.974845335615
 30
0.0
  0
VERTEX
  5
246
  8
LAYER_1
 10
519.9644352035485
 20
1251.990706766068
 30
0.0
  0
VERTEX
  5
247
  8
LAYER_1
 10
518.7479718943798
 20
1250.006914210908
 30
0.0
  0
VERTEX
  5
248
  8
LAYER_1
 10
517.5568352057276
 20
1248.02361643027
 30
0.0
  0
VERTEX
  5
249
  8
LAYER_1
 10
516.3911389444177
 20
1246.040962184288
 30
0.0
  0
VERTEX
  5
24A
  8
LAYER_1
 10
515.2509969172766
 20
1244.059100233099
 30
0.0
  0
VERTEX
  5
24B
  8
LAYER_1
 10
514.1365229311302
 20
1242.078179336838
 30
0.0
  0
VERTEX
  5
24C
  8
LAYER_1
 10
513.0478307928049
 20
1240.098348255638
 30
0.0
  0
VERTEX
  5
24D
  8
LAYER_1
 10
511.9850343091268
 20
1238.119755749637
 30
0.0
  0
VERTEX
  5
24E
  8
LAYER_1
 10
510.9482472869221
 20
1236.142550578969
 30
0.0
  0
VERTEX
  5
24F
  8
LAYER_1
 10
509.9375835330169
 20
1234.166881503769
 30
0.0
  0
VERTEX
  5
250
  8
LAYER_1
 10
508.9531568542375
 20
1232.192897284172
 30
0.0
  0
VERTEX
  5
251
  8
LAYER_1
 10
507.9950810574099
 20
1230.220746680313
 30
0.0
  0
VERTEX
  5
252
  8
LAYER_1
 10
507.0634699493605
 20
1228.250578452328
 30
0.0
  0
VERTEX
  5
253
  8
LAYER_1
 10
506.1584373369154
 20
1226.282541360352
 30
0.0
  0
VERTEX
  5
254
  8
LAYER_1
 10
505.2800970269006
 20
1224.31678416452
 30
0.0
  0
VERTEX
  5
255
  8
LAYER_1
 10
504.4285628261426
 20
1222.353455624967
 30
0.0
  0
VERTEX
  5
256
  8
LAYER_1
 10
503.6039485414673
 20
1220.392704501828
 30
0.0
  0
VERTEX
  5
257
  8
LAYER_1
 10
502.806367979701
 20
1218.434679555238
 30
0.0
  0
VERTEX
  5
258
  8
LAYER_1
 10
502.0359349476699
 20
1216.479529545333
 30
0.0
  0
VERTEX
  5
259
  8
LAYER_1
 10
501.2927632522001
 20
1214.527403232248
 30
0.0
  0
VERTEX
  5
25A
  8
LAYER_1
 10
500.5769667001179
 20
1212.578449376118
 30
0.0
  0
VERTEX
  5
25B
  8
LAYER_1
 10
499.8886590982493
 20
1210.632816737078
 30
0.0
  0
VERTEX
  5
25C
  8
LAYER_1
 10
499.2279542534205
 20
1208.690654075263
 30
0.0
  0
VERTEX
  5
25D
  8
LAYER_1
 10
498.5949659724579
 20
1206.752110150808
 30
0.0
  0
VERTEX
  5
25E
  8
LAYER_1
 10
497.9898080621874
 20
1204.817333723849
 30
0.0
  0
VERTEX
  5
25F
  8
LAYER_1
 10
497.4125943294354
 20
1202.886473554521
 30
0.0
  0
VERTEX
  5
260
  8
LAYER_1
 10
496.8634385810279
 20
1200.959678402958
 30
0.0
  0
VERTEX
  5
261
  8
LAYER_1
 10
496.3424546237913
 20
1199.037097029297
 30
0.0
  0
VERTEX
  5
262
  8
LAYER_1
 10
495.8497562645516
 20
1197.118878193672
 30
0.0
  0
VERTEX
  5
263
  8
LAYER_1
 10
495.3854573101349
 20
1195.205170656218
 30
0.0
  0
VERTEX
  5
264
  8
LAYER_1
 10
494.9496715673676
 20
1193.296123177071
 30
0.0
  0
VERTEX
  5
265
  8
LAYER_1
 10
494.5425128430758
 20
1191.391884516365
 30
0.0
  0
VERTEX
  5
266
  8
LAYER_1
 10
494.1640949440856
 20
1189.492603434237
 30
0.0
  0
VERTEX
  5
267
  8
LAYER_1
 10
493.8145316772233
 20
1187.59842869082
 30
0.0
  0
VERTEX
  5
268
  8
LAYER_1
 10
493.4939368493149
 20
1185.709509046251
 30
0.0
  0
VERTEX
  5
269
  8
LAYER_1
 10
493.2024242671868
 20
1183.825993260664
 30
0.0
  0
VERTEX
  5
26A
  8
LAYER_1
 10
492.940107737665
 20
1181.948030094195
 30
0.0
  0
SEQEND
  5
D12
  8
LAYER_1
  0
POLYLINE
  5
74
  8
LAYER_1
 66
     1
 10
0.0
 20
0.0
 30
0.0
 70
     1
  0
VERTEX
  5
26B
  8
LAYER_1
 10
669.1302509407125
 20
1095.22944679044
 30
0.0
  0
VERTEX
  5
26C
  8
LAYER_1
 10
670.6703867644183
 20
1099.783947232086
 30
0.0
  0
VERTEX
  5
26D
  8
LAYER_1
 10
672.1945624035172
 20
1104.342314586413
 30
0.0
  0
VERTEX
  5
26E
  8
LAYER_1
 10
673.7027778704796
 20
1108.904508575986
 30
0.0
  0
VERTEX
  5
26F
  8
LAYER_1
 10
675.1950331777756
 20
1113.470488923369
 30
0.0
  0
VERTEX
  5
270
  8
LAYER_1
 10
676.6713283378757
 20
1118.040215351129
 30
0.0
  0
VERTEX
  5
271
  8
LAYER_1
 10
678.1316633632501
 20
1122.613647581829
 30
0.0
  0
VERTEX
  5
272
  8
LAYER_1
 10
679.5760382663693
 20
1127.190745338036
 30
0.0
  0
VERTEX
  5
273
  8
LAYER_1
 10
681.0044530597033
 20
1131.771468342314
 30
0.0
  0
VERTEX
  5
274
  8
LAYER_1
 10
682.4169077557226
 20
1136.355776317228
 30
0.0
  0
VERTEX
  5
275
  8
LAYER_1
 10
683.8134023668974
 20
1140.943628985344
 30
0.0
  0
VERTEX
  5
276
  8
LAYER_1
 10
685.193936905698
 20
1145.534986069227
 30
0.0
  0
VERTEX
  5
277
  8
LAYER_1
 10
686.558511384595
 20
1150.129807291441
 30
0.0
  0
VERTEX
  5
278
  8
LAYER_1
 10
687.9071258160582
 20
1154.728052374551
 30
0.0
  0
VERTEX
  5
279
  8
LAYER_1
 10
689.2397802125583
 20
1159.329681041123
 30
0.0
  0
VERTEX
  5
27A
  8
LAYER_1
 10
690.5564745865654
 20
1163.934653013722
 30
0.0
  0
VERTEX
  5
27B
  8
LAYER_1
 10
691.8572089505499
 20
1168.542928014914
 30
0.0
  0
VERTEX
  5
27C
  8
LAYER_1
 10
693.141983316982
 20
1173.154465767262
 30
0.0
  0
VERTEX
  5
27D
  8
LAYER_1
 10
694.4107976983321
 20
1177.769225993332
 30
0.0
  0
VERTEX
  5
27E
  8
LAYER_1
 10
695.6636521070704
 20
1182.38716841569
 30
0.0
  0
VERTEX
  5
27F
  8
LAYER_1
 10
696.9005465556675
 20
1187.0082527569
 30
0.0
  0
VERTEX
  5
280
  8
LAYER_1
 10
698.1214810565933
 20
1191.632438739527
 30
0.0
  0
VERTEX
  5
281
  8
LAYER_1
 10
699.3264556223183
 20
1196.259686086137
 30
0.0
  0
VERTEX
  5
282
  8
LAYER_1
 10
700.5154702653128
 20
1200.889954519294
 30
0.0
  0
VERTEX
  5
283
  8
LAYER_1
 10
701.6885249980472
 20
1205.523203761564
 30
0.0
  0
VERTEX
  5
284
  8
LAYER_1
 10
702.8456198329917
 20
1210.159393535512
 30
0.0
  0
VERTEX
  5
285
  8
LAYER_1
 10
703.9867547826165
 20
1214.798483563703
 30
0.0
  0
VERTEX
  5
286
  8
LAYER_1
 10
705.1119298593919
 20
1219.440433568701
 30
0.0
  0
VERTEX
  5
287
  8
LAYER_1
 10
706.2211450757884
 20
1224.085203273073
 30
0.0
  0
VERTEX
  5
288
  8
LAYER_1
 10
707.3144004442763
 20
1228.732752399383
 30
0.0
  0
VERTEX
  5
289
  8
LAYER_1
 10
708.3916959773258
 20
1233.383040670195
 30
0.0
  0
VERTEX
  5
28A
  8
LAYER_1
 10
709.453031687407
 20
1238.036027808077
 30
0.0
  0
VERTEX
  5
28B
  8
LAYER_1
 10
710.4984075869907
 20
1242.691673535591
 30
0.0
  0
VERTEX
  5
28C
  8
LAYER_1
 10
711.5278236885467
 20
1247.349937575304
 30
0.0
  0
VERTEX
  5
28D
  8
LAYER_1
 10
712.5412800045456
 20
1252.010779649781
 30
0.0
  0
VERTEX
  5
28E
  8
LAYER_1
 10
713.5387765474575
 20
1256.674159481587
 30
0.0
  0
VERTEX
  5
28F
  8
LAYER_1
 10
714.520313329753
 20
1261.340036793286
 30
0.0
  0
VERTEX
  5
290
  8
LAYER_1
 10
715.4858903639022
 20
1266.008371307444
 30
0.0
  0
VERTEX
  5
291
  8
LAYER_1
 10
716.4355076623754
 20
1270.679122746626
 30
0.0
  0
VERTEX
  5
292
  8
LAYER_1
 10
717.3691652376431
 20
1275.352250833397
 30
0.0
  0
VERTEX
  5
293
  8
LAYER_1
 10
718.2868631021752
 20
1280.027715290322
 30
0.0
  0
VERTEX
  5
294
  8
LAYER_1
 10
719.1886012684422
 20
1284.705475839966
 30
0.0
  0
VERTEX
  5
295
  8
LAYER_1
 10
720.0743797489147
 20
1289.385492204895
 30
0.0
  0
VERTEX
  5
296
  8
LAYER_1
 10
720.9441985560625
 20
1294.067724107673
 30
0.0
  0
VERTEX
  5
297
  8
LAYER_1
 10
721.7980577023563
 20
1298.752131270865
 30
0.0
  0
VERTEX
  5
298
  8
LAYER_1
 10
722.6359572002664
 20
1303.438673417038
 30
0.0
  0
VERTEX
  5
299
  8
LAYER_1
 10
723.4578970622629
 20
1308.127310268754
 30
0.0
  0
VERTEX
  5
29A
  8
LAYER_1
 10
724.2638773008159
 20
1312.81800154858
 30
0.0
  0
VERTEX
  5
29B
  8
LAYER_1
 10
725.0538979283963
 20
1317.510706979082
 30
0.0
  0
VERTEX
  5
29C
  8
LAYER_1
 10
725.8279589574738
 20
1322.205386282823
 30
0.0
  0
VERTEX
  5
29D
  8
LAYER_1
 10
726.586060400519
 20
1326.901999182369
 30
0.0
  0
VERTEX
  5
29E
  8
LAYER_1
 10
727.3282022700024
 20
1331.600505400285
 30
0.0
  0
VERTEX
  5
29F
  8
LAYER_1
 10
728.0543845783939
 20
1336.300864659137
 30
0.0
  0
VERTEX
  5
2A0
  8
LAYER_1
 10
728.7646073381638
 20
1341.003036681489
 30
0.0
  0
VERTEX
  5
2A1
  8
LAYER_1
 10
729.458870561783
 20
1345.706981189906
 30
0.0
  0
VERTEX
  5
2A2
  8
LAYER_1
 10
730.1371742617213
 20
1350.412657906954
 30
0.0
  0
VERTEX
  5
2A3
  8
LAYER_1
 10
730.7995184504489
 20
1355.120026555197
 30
0.0
  0
VERTEX
  5
2A4
  8
LAYER_1
 10
731.4459031404363
 20
1359.829046857201
 30
0.0
  0
VERTEX
  5
2A5
  8
LAYER_1
 10
732.0763283441538
 20
1364.539678535531
 30
0.0
  0
VERTEX
  5
2A6
  8
LAYER_1
 10
732.6907940740718
 20
1369.251881312751
 30
0.0
  0
VERTEX
  5
2A7
  8
LAYER_1
 10
733.2893003426605
 20
1373.965614911427
 30
0.0
  0
VERTEX
  5
2A8
  8
LAYER_1
 10
733.8718471623902
 20
1378.680839054124
 30
0.0
  0
VERTEX
  5
2A9
  8
LAYER_1
 10
734.4384345457311
 20
1383.397513463408
 30
0.0
  0
VERTEX
  5
2AA
  8
LAYER_1
 10
734.9890625051537
 20
1388.115597861842
 30
0.0
  0
VERTEX
  5
2AB
  8
LAYER_1
 10
735.5237310531282
 20
1392.835051971993
 30
0.0
  0
VERTEX
  5
2AC
  8
LAYER_1
 10
732.5161413003932
 20
1391.337379021782
 30
0.0
  0
VERTEX
  5
2AD
  8
LAYER_1
 10
729.5275438421481
 20
1389.824827334388
 30
0.0
  0
VERTEX
  5
2AE
  8
LAYER_1
 10
726.5581048177917
 20
1388.297614027002
 30
0.0
  0
VERTEX
  5
2AF
  8
LAYER_1
 10
723.6079903667227
 20
1386.755956216818
 30
0.0
  0
VERTEX
  5
2B0
  8
LAYER_1
 10
720.6773666283398
 20
1385.200071021028
 30
0.0
  0
VERTEX
  5
2B1
  8
LAYER_1
 10
717.7663997420416
 20
1383.630175556826
 30
0.0
  0
VERTEX
  5
2B2
  8
LAYER_1
 10
714.8752558472271
 20
1382.046486941403
 30
0.0
  0
VERTEX
  5
2B3
  8
LAYER_1
 10
712.0041010832947
 20
1380.449222291954
 30
0.0
  0
VERTEX
  5
2B4
  8
LAYER_1
 10
709.1531015896431
 20
1378.83859872567
 30
0.0
  0
VERTEX
  5
2B5
  8
LAYER_1
 10
706.3224235056712
 20
1377.214833359745
 30
0.0
  0
VERTEX
  5
2B6
  8
LAYER_1
 10
703.5122329707776
 20
1375.578143311371
 30
0.0
  0
VERTEX
  5
2B7
  8
LAYER_1
 10
700.7226961243612
 20
1373.928745697742
 30
0.0
  0
VERTEX
  5
2B8
  8
LAYER_1
 10
697.9539791058203
 20
1372.266857636049
 30
0.0
  0
VERTEX
  5
2B9
  8
LAYER_1
 10
695.206248054554
 20
1370.592696243486
 30
0.0
  0
VERTEX
  5
2BA
  8
LAYER_1
 10
692.4796691099607
 20
1368.906478637246
 30
0.0
  0
VERTEX
  5
2BB
  8
LAYER_1
 10
689.7744084114393
 20
1367.208421934522
 30
0.0
  0
VERTEX
  5
2BC
  8
LAYER_1
 10
687.0906320983884
 20
1365.498743252505
 30
0.0
  0
VERTEX
  5
2BD
  8
LAYER_1
 10
684.4285063102068
 20
1363.77765970839
 30
0.0
  0
VERTEX
  5
2BE
  8
LAYER_1
 10
681.788197186293
 20
1362.045388419368
 30
0.0
  0
VERTEX
  5
2BF
  8
LAYER_1
 10
679.1698708660458
 20
1360.302146502634
 30
0.0
  0
VERTEX
  5
2C0
  8
LAYER_1
 10
676.5736934888641
 20
1358.548151075378
 30
0.0
  0
VERTEX
  5
2C1
  8
LAYER_1
 10
673.9998311941465
 20
1356.783619254795
 30
0.0
  0
VERTEX
  5
2C2
  8
LAYER_1
 10
671.4484501212914
 20
1355.008768158078
 30
0.0
  0
VERTEX
  5
2C3
  8
LAYER_1
 10
668.9197164096979
 20
1353.223814902418
 30
0.0
  0
VERTEX
  5
2C4
  8
LAYER_1
 10
666.4137961987647
 20
1351.428976605009
 30
0.0
  0
VERTEX
  5
2C5
  8
LAYER_1
 10
663.9308556278902
 20
1349.624470383043
 30
0.0
  0
VERTEX
  5
2C6
  8
LAYER_1
 10
661.4710608364733
 20
1347.810513353715
 30
0.0
  0
VERTEX
  5
2C7
  8
LAYER_1
 10
659.0345779639126
 20
1345.987322634215
 30
0.0
  0
VERTEX
  5
2C8
  8
LAYER_1
 10
656.6215731496068
 20
1344.155115341737
 30
0.0
  0
VERTEX
  5
2C9
  8
LAYER_1
 10
654.2322125329547
 20
1342.314108593475
 30
0.0
  0
VERTEX
  5
2CA
  8
LAYER_1
 10
651.8666622533551
 20
1340.46451950662
 30
0.0
  0
VERTEX
  5
2CB
  8
LAYER_1
 10
649.5250884502066
 20
1338.606565198365
 30
0.0
  0
VERTEX
  5
2CC
  8
LAYER_1
 10
647.2076572629078
 20
1336.740462785904
 30
0.0
  0
VERTEX
  5
2CD
  8
LAYER_1
 10
644.9145348308574
 20
1334.866429386429
 30
0.0
  0
VERTEX
  5
2CE
  8
LAYER_1
 10
642.6458872934543
 20
1332.984682117133
 30
0.0
  0
VERTEX
  5
2CF
  8
LAYER_1
 10
640.401880790097
 20
1331.095438095208
 30
0.0
  0
VERTEX
  5
2D0
  8
LAYER_1
 10
638.1826814601844
 20
1329.198914437849
 30
0.0
  0
VERTEX
  5
2D1
  8
LAYER_1
 10
635.9884554431151
 20
1327.295328262246
 30
0.0
  0
VERTEX
  5
2D2
  8
LAYER_1
 10
633.8193688782878
 20
1325.384896685594
 30
0.0
  0
VERTEX
  5
2D3
  8
LAYER_1
 10
631.6755879051012
 20
1323.467836825085
 30
0.0
  0
VERTEX
  5
2D4
  8
LAYER_1
 10
629.5572786629541
 20
1321.544365797912
 30
0.0
  0
VERTEX
  5
2D5
  8
LAYER_1
 10
627.464607291245
 20
1319.614700721268
 30
0.0
  0
VERTEX
  5
2D6
  8
LAYER_1
 10
625.3977399293726
 20
1317.679058712344
 30
0.0
  0
VERTEX
  5
2D7
  8
LAYER_1
 10
623.3568427167359
 20
1315.737656888336
 30
0.0
  0
VERTEX
  5
2D8
  8
LAYER_1
 10
621.3420817927333
 20
1313.790712366434
 30
0.0
  0
VERTEX
  5
2D9
  8
LAYER_1
 10
619.3536232967635
 20
1311.838442263832
 30
0.0
  0
VERTEX
  5
2DA
  8
LAYER_1
 10
617.3916333682255
 20
1309.881063697723
 30
0.0
  0
VERTEX
  5
2DB
  8
LAYER_1
 10
615.4562781465179
 20
1307.918793785299
 30
0.0
  0
VERTEX
  5
2DC
  8
LAYER_1
 10
613.547723771039
 20
1305.951849643754
 30
0.0
  0
VERTEX
  5
2DD
  8
LAYER_1
 10
611.6661363811882
 20
1303.98044839028
 30
0.0
  0
VERTEX
  5
2DE
  8
LAYER_1
 10
609.8116821163636
 20
1302.004807142071
 30
0.0
  0
VERTEX
  5
2DF
  8
LAYER_1
 10
607.9845271159643
 20
1300.025143016318
 30
0.0
  0
VERTEX
  5
2E0
  8
LAYER_1
 10
606.1848375193888
 20
1298.041673130214
 30
0.0
  0
VERTEX
  5
2E1
  8
LAYER_1
 10
604.4127794660358
 20
1296.054614600953
 30
0.0
  0
VERTEX
  5
2E2
  8
LAYER_1
 10
602.668519095304
 20
1294.064184545728
 30
0.0
  0
VERTEX
  5
2E3
  8
LAYER_1
 10
600.9522225465922
 20
1292.07060008173
 30
0.0
  0
VERTEX
  5
2E4
  8
LAYER_1
 10
599.2640559592991
 20
1290.074078326153
 30
0.0
  0
VERTEX
  5
2E5
  8
LAYER_1
 10
597.6041854728234
 20
1288.07483639619
 30
0.0
  0
VERTEX
  5
2E6
  8
LAYER_1
 10
595.9727772265637
 20
1286.073091409034
 30
0.0
  0
VERTEX
  5
2E7
  8
LAYER_1
 10
594.3699973599187
 20
1284.069060481877
 30
0.0
  0
VERTEX
  5
2E8
  8
LAYER_1
 10
592.7960120122873
 20
1282.062960731912
 30
0.0
  0
VERTEX
  5
2E9
  8
LAYER_1
 10
591.2509873230679
 20
1280.055009276332
 30
0.0
  0
VERTEX
  5
2EA
  8
LAYER_1
 10
589.7350894316594
 20
1278.04542323233
 30
0.0
  0
VERTEX
  5
2EB
  8
LAYER_1
 10
588.2484844774606
 20
1276.034419717099
 30
0.0
  0
VERTEX
  5
2EC
  8
LAYER_1
 10
586.79133859987
 20
1274.022215847831
 30
0.0
  0
VERTEX
  5
2ED
  8
LAYER_1
 10
585.3638179382863
 20
1272.009028741719
 30
0.0
  0
VERTEX
  5
2EE
  8
LAYER_1
 10
583.9660886321083
 20
1269.995075515957
 30
0.0
  0
VERTEX
  5
2EF
  8
LAYER_1
 10
582.5983168207348
 20
1267.980573287736
 30
0.0
  0
VERTEX
  5
2F0
  8
LAYER_1
 10
581.2606686435644
 20
1265.965739174249
 30
0.0
  0
VERTEX
  5
2F1
  8
LAYER_1
 10
579.9533102399956
 20
1263.950790292691
 30
0.0
  0
VERTEX
  5
2F2
  8
LAYER_1
 10
578.6764077494274
 20
1261.935943760253
 30
0.0
  0
VERTEX
  5
2F3
  8
LAYER_1
 10
577.4301273112585
 20
1259.921416694128
 30
0.0
  0
VERTEX
  5
2F4
  8
LAYER_1
 10
576.2146350648874
 20
1257.907426211508
 30
0.0
  0
VERTEX
  5
2F5
  8
LAYER_1
 10
575.0300971497129
 20
1255.894189429588
 30
0.0
  0
VERTEX
  5
2F6
  8
LAYER_1
 10
573.8766797051337
 20
1253.881923465559
 30
0.0
  0
VERTEX
  5
2F7
  8
LAYER_1
 10
572.7545488705487
 20
1251.870845436615
 30
0.0
  0
VERTEX
  5
2F8
  8
LAYER_1
 10
571.6638707853563
 20
1249.861172459948
 30
0.0
  0
VERTEX
  5
2F9
  8
LAYER_1
 10
570.6048115889553
 20
1247.853121652751
 30
0.0
  0
VERTEX
  5
2FA
  8
LAYER_1
 10
569.5775374207443
 20
1245.846910132217
 30
0.0
  0
VERTEX
  5
2FB
  8
LAYER_1
 10
568.5822144201223
 20
1243.842755015538
 30
0.0
  0
VERTEX
  5
2FC
  8
LAYER_1
 10
567.6190087264879
 20
1241.840873419908
 30
0.0
  0
VERTEX
  5
2FD
  8
LAYER_1
 10
566.6880864792396
 20
1239.84148246252
 30
0.0
  0
VERTEX
  5
2FE
  8
LAYER_1
 10
565.7896138177762
 20
1237.844799260565
 30
0.0
  0
VERTEX
  5
2FF
  8
LAYER_1
 10
564.9237568814964
 20
1235.851040931238
 30
0.0
  0
VERTEX
  5
300
  8
LAYER_1
 10
564.090681809799
 20
1233.860424591729
 30
0.0
  0
VERTEX
  5
301
  8
LAYER_1
 10
563.2905547420826
 20
1231.873167359234
 30
0.0
  0
VERTEX
  5
302
  8
LAYER_1
 10
562.5235418177458
 20
1229.889486350944
 30
0.0
  0
VERTEX
  5
303
  8
LAYER_1
 10
561.7898091761878
 20
1227.909598684053
 30
0.0
  0
VERTEX
  5
304
  8
LAYER_1
 10
561.4354748800126
 20
1226.921145202754
 30
0.0
  0
VERTEX
  5
305
  8
LAYER_1
 10
561.0895229568068
 20
1225.933721475752
 30
0.0
  0
VERTEX
  5
306
  8
LAYER_1
 10
560.7519741739948
 20
1224.947354642696
 30
0.0
  0
VERTEX
  5
307
  8
LAYER_1
 10
560.4228492990015
 20
1223.962071843235
 30
0.0
  0
VERTEX
  5
308
  8
LAYER_1
 10
560.102169099252
 20
1222.977900217018
 30
0.0
  0
VERTEX
  5
309
  8
LAYER_1
 10
559.789954342171
 20
1221.994866903695
 30
0.0
  0
VERTEX
  5
30A
  8
LAYER_1
 10
559.4862257951833
 20
1221.012999042914
 30
0.0
  0
VERTEX
  5
30B
  8
LAYER_1
 10
559.1910042257136
 20
1220.032323774324
 30
0.0
  0
VERTEX
  5
30C
  8
LAYER_1
 10
558.904310401187
 20
1219.052868237575
 30
0.0
  0
VERTEX
  5
30D
  8
LAYER_1
 10
558.6261650890282
 20
1218.074659572316
 30
0.0
  0
VERTEX
  5
30E
  8
LAYER_1
 10
558.356589056662
 20
1217.097724918195
 30
0.0
  0
VERTEX
  5
30F
  8
LAYER_1
 10
558.0956030715134
 20
1216.122091414863
 30
0.0
  0
VERTEX
  5
310
  8
LAYER_1
 10
557.8432279010071
 20
1215.147786201967
 30
0.0
  0
VERTEX
  5
311
  8
LAYER_1
 10
557.599484312568
 20
1214.174836419157
 30
0.0
  0
VERTEX
  5
312
  8
LAYER_1
 10
557.3643930736209
 20
1213.203269206083
 30
0.0
  0
VERTEX
  5
313
  8
LAYER_1
 10
557.1379749515908
 20
1212.233111702393
 30
0.0
  0
VERTEX
  5
314
  8
LAYER_1
 10
556.9202507139023
 20
1211.264391047736
 30
0.0
  0
VERTEX
  5
315
  8
LAYER_1
 10
556.7112411279803
 20
1210.297134381762
 30
0.0
  0
VERTEX
  5
316
  8
LAYER_1
 10
556.5109669612497
 20
1209.331368844119
 30
0.0
  0
VERTEX
  5
317
  8
LAYER_1
 10
556.3194489811352
 20
1208.367121574457
 30
0.0
  0
VERTEX
  5
318
  8
LAYER_1
 10
556.1367079550619
 20
1207.404419712425
 30
0.0
  0
VERTEX
  5
319
  8
LAYER_1
 10
555.9627646504543
 20
1206.443290397671
 30
0.0
  0
VERTEX
  5
31A
  8
LAYER_1
 10
555.7976398347375
 20
1205.483760769846
 30
0.0
  0
VERTEX
  5
31B
  8
LAYER_1
 10
555.6413542753363
 20
1204.525857968598
 30
0.0
  0
VERTEX
  5
31C
  8
LAYER_1
 10
555.4939287396755
 20
1203.569609133576
 30
0.0
  0
VERTEX
  5
31D
  8
LAYER_1
 10
555.3553839951799
 20
1202.615041404429
 30
0.0
  0
VERTEX
  5
31E
  8
LAYER_1
 10
555.2257408092744
 20
1201.662181920807
 30
0.0
  0
VERTEX
  5
31F
  8
LAYER_1
 10
555.1050199493839
 20
1200.711057822358
 30
0.0
  0
VERTEX
  5
320
  8
LAYER_1
 10
554.9932421829329
 20
1199.761696248732
 30
0.0
  0
VERTEX
  5
321
  8
LAYER_1
 10
554.8904282773467
 20
1198.814124339578
 30
0.0
  0
VERTEX
  5
322
  8
LAYER_1
 10
554.7965990000499
 20
1197.868369234544
 30
0.0
  0
VERTEX
  5
323
  8
LAYER_1
 10
554.7117751184674
 20
1196.92445807328
 30
0.0
  0
VERTEX
  5
324
  8
LAYER_1
 10
554.6359774000239
 20
1195.982417995436
 30
0.0
  0
VERTEX
  5
325
  8
LAYER_1
 10
554.5692266121443
 20
1195.042276140659
 30
0.0
  0
VERTEX
  5
326
  8
LAYER_1
 10
554.5115435222536
 20
1194.1040596486
 30
0.0
  0
VERTEX
  5
327
  8
LAYER_1
 10
554.4629488977764
 20
1193.167795658907
 30
0.0
  0
VERTEX
  5
328
  8
LAYER_1
 10
554.4234635061376
 20
1192.233511311229
 30
0.0
  0
VERTEX
  5
329
  8
LAYER_1
 10
554.3931081147623
 20
1191.301233745216
 30
0.0
  0
VERTEX
  5
32A
  8
LAYER_1
 10
554.371903491075
 20
1190.370990100517
 30
0.0
  0
VERTEX
  5
32B
  8
LAYER_1
 10
554.3598704025007
 20
1189.44280751678
 30
0.0
  0
VERTEX
  5
32C
  8
LAYER_1
 10
554.3570296164642
 20
1188.516713133655
 30
0.0
  0
VERTEX
  5
32D
  8
LAYER_1
 10
554.3634019003904
 20
1187.592734090791
 30
0.0
  0
VERTEX
  5
32E
  8
LAYER_1
 10
554.3790080217041
 20
1186.670897527837
 30
0.0
  0
VERTEX
  5
32F
  8
LAYER_1
 10
554.4038687478298
 20
1185.751230584443
 30
0.0
  0
VERTEX
  5
330
  8
LAYER_1
 10
554.4380048461929
 20
1184.833760400256
 30
0.0
  0
VERTEX
  5
331
  8
LAYER_1
 10
554.481437084218
 20
1183.918514114927
 30
0.0
  0
VERTEX
  5
332
  8
LAYER_1
 10
554.53418622933
 20
1183.005518868104
 30
0.0
  0
VERTEX
  5
333
  8
LAYER_1
 10
554.5962730489534
 20
1182.094801799437
 30
0.0
  0
VERTEX
  5
334
  8
LAYER_1
 10
554.6677183105135
 20
1181.186390048575
 30
0.0
  0
VERTEX
  5
335
  8
LAYER_1
 10
554.7485427814349
 20
1180.280310755166
 30
0.0
  0
VERTEX
  5
336
  8
LAYER_1
 10
554.8387672291426
 20
1179.37659105886
 30
0.0
  0
VERTEX
  5
337
  8
LAYER_1
 10
554.9384124210611
 20
1178.475258099306
 30
0.0
  0
VERTEX
  5
338
  8
LAYER_1
 10
555.0474991246157
 20
1177.576339016153
 30
0.0
  0
VERTEX
  5
339
  8
LAYER_1
 10
555.1660481072308
 20
1176.679860949051
 30
0.0
  0
VERTEX
  5
33A
  8
LAYER_1
 10
555.2940801363316
 20
1175.785851037648
 30
0.0
  0
VERTEX
  5
33B
  8
LAYER_1
 10
555.4316159793426
 20
1174.894336421592
 30
0.0
  0
VERTEX
  5
33C
  8
LAYER_1
 10
555.5786764036889
 20
1174.005344240535
 30
0.0
  0
VERTEX
  5
33D
  8
LAYER_1
 10
555.7352821767952
 20
1173.118901634124
 30
0.0
  0
VERTEX
  5
33E
  8
LAYER_1
 10
555.9014540660864
 20
1172.235035742009
 30
0.0
  0
VERTEX
  5
33F
  8
LAYER_1
 10
556.0772128389874
 20
1171.353773703838
 30
0.0
  0
VERTEX
  5
340
  8
LAYER_1
 10
556.262579262923
 20
1170.475142659262
 30
0.0
  0
VERTEX
  5
341
  8
LAYER_1
 10
556.4575741053179
 20
1169.599169747928
 30
0.0
  0
VERTEX
  5
342
  8
LAYER_1
 10
556.662218133597
 20
1168.725882109486
 30
0.0
  0
VERTEX
  5
343
  8
LAYER_1
 10
556.8765321151851
 20
1167.855306883586
 30
0.0
  0
VERTEX
  5
344
  8
LAYER_1
 10
557.1005368175072
 20
1166.987471209875
 30
0.0
  0
VERTEX
  5
345
  8
LAYER_1
 10
557.3342530079881
 20
1166.122402228005
 30
0.0
  0
VERTEX
  5
346
  8
LAYER_1
 10
557.5777014540527
 20
1165.260127077623
 30
0.0
  0
VERTEX
  5
347
  8
LAYER_1
 10
557.8309029231254
 20
1164.400672898378
 30
0.0
  0
VERTEX
  5
348
  8
LAYER_1
 10
558.0938781826314
 20
1163.54406682992
 30
0.0
  0
VERTEX
  5
349
  8
LAYER_1
 10
558.3666479999957
 20
1162.690336011898
 30
0.0
  0
VERTEX
  5
34A
  8
LAYER_1
 10
558.649233142643
 20
1161.83950758396
 30
0.0
  0
VERTEX
  5
34B
  8
LAYER_1
 10
558.9416543779979
 20
1160.991608685757
 30
0.0
  0
VERTEX
  5
34C
  8
LAYER_1
 10
559.2439324734855
 20
1160.146666456937
 30
0.0
  0
VERTEX
  5
34D
  8
LAYER_1
 10
559.5560881965306
 20
1159.304708037149
 30
0.0
  0
VERTEX
  5
34E
  8
LAYER_1
 10
559.8781423145579
 20
1158.465760566042
 30
0.0
  0
VERTEX
  5
34F
  8
LAYER_1
 10
560.2101155949923
 20
1157.629851183266
 30
0.0
  0
VERTEX
  5
350
  8
LAYER_1
 10
560.5520288052587
 20
1156.797007028469
 30
0.0
  0
VERTEX
  5
351
  8
LAYER_1
 10
560.9039027127819
 20
1155.967255241301
 30
0.0
  0
VERTEX
  5
352
  8
LAYER_1
 10
561.2657580849868
 20
1155.140622961411
 30
0.0
  0
VERTEX
  5
353
  8
LAYER_1
 10
561.6376156892982
 20
1154.317137328447
 30
0.0
  0
VERTEX
  5
354
  8
LAYER_1
 10
562.0138273445609
 20
1153.508835047616
 30
0.0
  0
VERTEX
  5
355
  8
LAYER_1
 10
562.3987157458185
 20
1152.705912749275
 30
0.0
  0
VERTEX
  5
356
  8
LAYER_1
 10
562.7922481226124
 20
1151.908372327243
 30
0.0
  0
VERTEX
  5
357
  8
LAYER_1
 10
563.1943917044837
 20
1151.116215675335
 30
0.0
  0
VERTEX
  5
358
  8
LAYER_1
 10
563.605113720974
 20
1150.329444687369
 30
0.0
  0
VERTEX
  5
359
  8
LAYER_1
 10
564.0243814016251
 20
1149.548061257163
 30
0.0
  0
VERTEX
  5
35A
  8
LAYER_1
 10
564.4521619759778
 20
1148.772067278533
 30
0.0
  0
VERTEX
  5
35B
  8
LAYER_1
 10
564.888422673574
 20
1148.001464645297
 30
0.0
  0
VERTEX
  5
35C
  8
LAYER_1
 10
565.333130723955
 20
1147.236255251271
 30
0.0
  0
VERTEX
  5
35D
  8
LAYER_1
 10
565.786253356662
 20
1146.476440990273
 30
0.0
  0
VERTEX
  5
35E
  8
LAYER_1
 10
566.2477578012365
 20
1145.72202375612
 30
0.0
  0
VERTEX
  5
35F
  8
LAYER_1
 10
566.71761128722
 20
1144.97300544263
 30
0.0
  0
VERTEX
  5
360
  8
LAYER_1
 10
567.195781044154
 20
1144.229387943618
 30
0.0
  0
VERTEX
  5
361
  8
LAYER_1
 10
567.6822343015799
 20
1143.491173152904
 30
0.0
  0
VERTEX
  5
362
  8
LAYER_1
 10
568.176938289039
 20
1142.758362964303
 30
0.0
  0
VERTEX
  5
363
  8
LAYER_1
 10
568.6798602360727
 20
1142.030959271632
 30
0.0
  0
VERTEX
  5
364
  8
LAYER_1
 10
569.1909673722225
 20
1141.30896396871
 30
0.0
  0
VERTEX
  5
365
  8
LAYER_1
 10
569.7102269270299
 20
1140.592378949352
 30
0.0
  0
VERTEX
  5
366
  8
LAYER_1
 10
570.2376061300363
 20
1139.881206107377
 30
0.0
  0
VERTEX
  5
367
  8
LAYER_1
 10
570.7730722107829
 20
1139.175447336601
 30
0.0
  0
VERTEX
  5
368
  8
LAYER_1
 10
571.3165923988114
 20
1138.475104530842
 30
0.0
  0
VERTEX
  5
369
  8
LAYER_1
 10
571.868133923663
 20
1137.780179583917
 30
0.0
  0
VERTEX
  5
36A
  8
LAYER_1
 10
572.4276640148794
 20
1137.090674389642
 30
0.0
  0
VERTEX
  5
36B
  8
LAYER_1
 10
572.9951499020017
 20
1136.406590841836
 30
0.0
  0
VERTEX
  5
36C
  8
LAYER_1
 10
573.5705588145715
 20
1135.727930834314
 30
0.0
  0
VERTEX
  5
36D
  8
LAYER_1
 10
574.1538579821301
 20
1135.054696260895
 30
0.0
  0
VERTEX
  5
36E
  8
LAYER_1
 10
574.7450146342192
 20
1134.386889015395
 30
0.0
  0
VERTEX
  5
36F
  8
LAYER_1
 10
575.34399600038
 20
1133.724510991633
 30
0.0
  0
VERTEX
  5
370
  8
LAYER_1
 10
575.9507693101539
 20
1133.067564083423
 30
0.0
  0
VERTEX
  5
371
  8
LAYER_1
 10
576.5653017930823
 20
1132.416050184585
 30
0.0
  0
VERTEX
  5
372
  8
LAYER_1
 10
577.1875606787067
 20
1131.769971188935
 30
0.0
  0
VERTEX
  5
373
  8
LAYER_1
 10
577.8175131965686
 20
1131.12932899029
 30
0.0
  0
VERTEX
  5
374
  8
LAYER_1
 10
578.4551265762093
 20
1130.494125482468
 30
0.0
  0
VERTEX
  5
375
  8
LAYER_1
 10
579.1003680471703
 20
1129.864362559284
 30
0.0
  0
VERTEX
  5
376
  8
LAYER_1
 10
579.7532048389929
 20
1129.240042114558
 30
0.0
  0
VERTEX
  5
377
  8
LAYER_1
 10
580.4136041812187
 20
1128.621166042106
 30
0.0
  0
VERTEX
  5
378
  8
LAYER_1
 10
581.081533303389
 20
1128.007736235744
 30
0.0
  0
VERTEX
  5
379
  8
LAYER_1
 10
581.7569594350452
 20
1127.399754589291
 30
0.0
  0
VERTEX
  5
37A
  8
LAYER_1
 10
582.4398498057288
 20
1126.797222996563
 30
0.0
  0
VERTEX
  5
37B
  8
LAYER_1
 10
583.1301716449811
 20
1126.200143351377
 30
0.0
  0
VERTEX
  5
37C
  8
LAYER_1
 10
583.8278921823437
 20
1125.608517547551
 30
0.0
  0
VERTEX
  5
37D
  8
LAYER_1
 10
584.5329786473578
 20
1125.022347478902
 30
0.0
  0
VERTEX
  5
37E
  8
LAYER_1
 10
585.2453982695652
 20
1124.441635039247
 30
0.0
  0
VERTEX
  5
37F
  8
LAYER_1
 10
585.9651182785068
 20
1123.866382122403
 30
0.0
  0
VERTEX
  5
380
  8
LAYER_1
 10
586.6921059037244
 20
1123.296590622187
 30
0.0
  0
VERTEX
  5
381
  8
LAYER_1
 10
587.4263283747594
 20
1122.732262432417
 30
0.0
  0
VERTEX
  5
382
  8
LAYER_1
 10
588.1677529211529
 20
1122.173399446908
 30
0.0
  0
VERTEX
  5
383
  8
LAYER_1
 10
588.9163467724468
 20
1121.62000355948
 30
0.0
  0
VERTEX
  5
384
  8
LAYER_1
 10
589.6720771581822
 20
1121.072076663948
 30
0.0
  0
VERTEX
  5
385
  8
LAYER_1
 10
590.4349113079005
 20
1120.529620654131
 30
0.0
  0
VERTEX
  5
386
  8
LAYER_1
 10
591.2048164511433
 20
1119.992637423844
 30
0.0
  0
VERTEX
  5
387
  8
LAYER_1
 10
591.981759817452
 20
1119.461128866906
 30
0.0
  0
VERTEX
  5
388
  8
LAYER_1
 10
592.7657086363679
 20
1118.935096877133
 30
0.0
  0
VERTEX
  5
389
  8
LAYER_1
 10
593.5566301374325
 20
1118.414543348343
 30
0.0
  0
VERTEX
  5
38A
  8
LAYER_1
 10
594.3544915501873
 20
1117.899470174353
 30
0.0
  0
VERTEX
  5
38B
  8
LAYER_1
 10
595.1592601041734
 20
1117.389879248979
 30
0.0
  0
VERTEX
  5
38C
  8
LAYER_1
 10
595.9709030289326
 20
1116.88577246604
 30
0.0
  0
VERTEX
  5
38D
  8
LAYER_1
 10
596.7893875540061
 20
1116.387151719352
 30
0.0
  0
VERTEX
  5
38E
  8
LAYER_1
 10
597.6146809089354
 20
1115.894018902732
 30
0.0
  0
VERTEX
  5
38F
  8
LAYER_1
 10
598.446750323262
 20
1115.406375909998
 30
0.0
  0
VERTEX
  5
390
  8
LAYER_1
 10
599.2855630265271
 20
1114.924224634966
 30
0.0
  0
VERTEX
  5
391
  8
LAYER_1
 10
600.1310862482724
 20
1114.447566971455
 30
0.0
  0
VERTEX
  5
392
  8
LAYER_1
 10
600.9832872180391
 20
1113.97640481328
 30
0.0
  0
VERTEX
  5
393
  8
LAYER_1
 10
601.8421331653686
 20
1113.510740054259
 30
0.0
  0
VERTEX
  5
394
  8
LAYER_1
 10
602.7075913198025
 20
1113.05057458821
 30
0.0
  0
VERTEX
  5
395
  8
LAYER_1
 10
603.5796289108821
 20
1112.595910308949
 30
0.0
  0
VERTEX
  5
396
  8
LAYER_1
 10
604.4582131681489
 20
1112.146749110293
 30
0.0
  0
VERTEX
  5
397
  8
LAYER_1
 10
605.3433113211443
 20
1111.70309288606
 30
0.0
  0
VERTEX
  5
398
  8
LAYER_1
 10
606.2348905994096
 20
1111.264943530068
 30
0.0
  0
VERTEX
  5
399
  8
LAYER_1
 10
607.1329182324864
 20
1110.832302936132
 30
0.0
  0
VERTEX
  5
39A
  8
LAYER_1
 10
608.037361449916
 20
1110.405172998071
 30
0.0
  0
VERTEX
  5
39B
  8
LAYER_1
 10
608.94818748124
 20
1109.9835556097
 30
0.0
  0
VERTEX
  5
39C
  8
LAYER_1
 10
609.8653635559995
 20
1109.567452664839
 30
0.0
  0
VERTEX
  5
39D
  8
LAYER_1
 10
610.7888569037361
 20
1109.156866057303
 30
0.0
  0
VERTEX
  5
39E
  8
LAYER_1
 10
611.7186347539913
 20
1108.75179768091
 30
0.0
  0
VERTEX
  5
39F
  8
LAYER_1
 10
612.6546643363065
 20
1108.352249429477
 30
0.0
  0
VERTEX
  5
3A0
  8
LAYER_1
 10
614.5453476152824
 20
1107.569720876759
 30
0.0
  0
VERTEX
  5
3A1
  8
LAYER_1
 10
616.460644576995
 20
1106.809295549686
 30
0.0
  0
VERTEX
  5
3A2
  8
LAYER_1
 10
618.4002930577758
 20
1106.070988598797
 30
0.0
  0
VERTEX
  5
3A3
  8
LAYER_1
 10
620.3640308939563
 20
1105.354815174628
 30
0.0
  0
VERTEX
  5
3A4
  8
LAYER_1
 10
622.3515959218677
 20
1104.660790427716
 30
0.0
  0
VERTEX
  5
3A5
  8
LAYER_1
 10
624.3627259778414
 20
1103.988929508599
 30
0.0
  0
VERTEX
  5
3A6
  8
LAYER_1
 10
626.3971588982088
 20
1103.339247567813
 30
0.0
  0
VERTEX
  5
3A7
  8
LAYER_1
 10
628.4546325193013
 20
1102.711759755897
 30
0.0
  0
VERTEX
  5
3A8
  8
LAYER_1
 10
630.5348846774502
 20
1102.106481223387
 30
0.0
  0
VERTEX
  5
3A9
  8
LAYER_1
 10
632.637653208987
 20
1101.52342712082
 30
0.0
  0
VERTEX
  5
3AA
  8
LAYER_1
 10
634.762675950243
 20
1100.962612598734
 30
0.0
  0
VERTEX
  5
3AB
  8
LAYER_1
 10
636.9096907375495
 20
1100.424052807666
 30
0.0
  0
VERTEX
  5
3AC
  8
LAYER_1
 10
639.0784354072376
 20
1099.907762898153
 30
0.0
  0
VERTEX
  5
3AD
  8
LAYER_1
 10
641.2686477956393
 20
1099.413758020733
 30
0.0
  0
VERTEX
  5
3AE
  8
LAYER_1
 10
643.4800657390855
 20
1098.942053325942
 30
0.0
  0
VERTEX
  5
3AF
  8
LAYER_1
 10
645.7124270739077
 20
1098.492663964318
 30
0.0
  0
VERTEX
  5
3B0
  8
LAYER_1
 10
647.9654696364373
 20
1098.065605086398
 30
0.0
  0
VERTEX
  5
3B1
  8
LAYER_1
 10
650.2389312630057
 20
1097.660891842719
 30
0.0
  0
VERTEX
  5
3B2
  8
LAYER_1
 10
652.5325497899444
 20
1097.278539383818
 30
0.0
  0
VERTEX
  5
3B3
  8
LAYER_1
 10
654.8460630535843
 20
1096.918562860234
 30
0.0
  0
VERTEX
  5
3B4
  8
LAYER_1
 10
657.1792088902572
 20
1096.580977422502
 30
0.0
  0
VERTEX
  5
3B5
  8
LAYER_1
 10
659.5317251362942
 20
1096.26579822116
 30
0.0
  0
VERTEX
  5
3B6
  8
LAYER_1
 10
661.903349628027
 20
1095.973040406746
 30
0.0
  0
VERTEX
  5
3B7
  8
LAYER_1
 10
664.2938202017867
 20
1095.702719129796
 30
0.0
  0
VERTEX
  5
3B8
  8
LAYER_1
 10
666.7028746939047
 20
1095.454849540848
 30
0.0
  0
SEQEND
  5
D13
  8
LAYER_1
  0
POLYLINE
  5
75
  8
LAYER_1
 66
     1
 10
0.0
 20
0.0
 30
0.0
  0
VERTEX
  5
3B9
  8
LAYER_1
 10
492.7090301003345
 20
1154.343870567168
 30
0.0
  0
VERTEX
  5
3BA
  8
LAYER_1
 10
492.7090301003345
 20
1179.713182464783
 30
0.0
  0
SEQEND
  5
D14
  8
LAYER_1
  0
POLYLINE
  5
76
  8
LAYER_1
 66
     1
 10
0.0
 20
0.0
 30
0.0
  0
VERTEX
  5
3BB
  8
LAYER_1
 10
492.4616822922466
 20
744.3940594708708
 30
0.0
  0
VERTEX
  5
3BC
  8
LAYER_1
 10
490.5143648741666
 20
741.5798548029459
 30
0.0
  0
VERTEX
  5
3BD
  8
LAYER_1
 10
488.5595453042155
 20
738.7690258317693
 30
0.0
  0
VERTEX
  5
3BE
  8
LAYER_1
 10
486.5972235824112
 20
735.9615855374009
 30
0.0
  0
VERTEX
  5
3BF
  8
LAYER_1
 10
484.6273997087711
 20
733.1575468999001
 30
0.0
  0
VERTEX
  5
3C0
  8
LAYER_1
 10
482.6500736833132
 20
730.3569228993267
 30
0.0
  0
VERTEX
  5
3C1
  8
LAYER_1
 10
480.6652455060548
 20
727.5597265157405
 30
0.0
  0
VERTEX
  5
3C2
  8
LAYER_1
 10
478.6729151770139
 20
724.7659707292008
 30
0.0
  0
VERTEX
  5
3C3
  8
LAYER_1
 10
476.6730826962081
 20
721.9756685197676
 30
0.0
  0
VERTEX
  5
3C4
  8
LAYER_1
 10
474.6657480636551
 20
719.1888328675004
 30
0.0
  0
VERTEX
  5
3C5
  8
LAYER_1
 10
472.6509112793727
 20
716.405476752459
 30
0.0
  0
VERTEX
  5
3C6
  8
LAYER_1
 10
470.6285723433784
 20
713.6256131547029
 30
0.0
  0
VERTEX
  5
3C7
  8
LAYER_1
 10
468.5987312556901
 20
710.8492550542919
 30
0.0
  0
VERTEX
  5
3C8
  8
LAYER_1
 10
466.5613880163253
 20
708.0764154312856
 30
0.0
  0
VERTEX
  5
3C9
  8
LAYER_1
 10
464.5165426253018
 20
705.3071072657435
 30
0.0
  0
VERTEX
  5
3CA
  8
LAYER_1
 10
462.4641950826373
 20
702.5413435377255
 30
0.0
  0
VERTEX
  5
3CB
  8
LAYER_1
 10
460.4043453883495
 20
699.7791372272911
 30
0.0
  0
VERTEX
  5
3CC
  8
LAYER_1
 10
458.3369935424561
 20
697.0205013145002
 30
0.0
  0
VERTEX
  5
3CD
  8
LAYER_1
 10
456.2621395449747
 20
694.2654487794123
 30
0.0
  0
VERTEX
  5
3CE
  8
LAYER_1
 10
454.1797833959231
 20
691.513992602087
 30
0.0
  0
VERTEX
  5
3CF
  8
LAYER_1
 10
452.0899250953189
 20
688.7661457625838
 30
0.0
  0
VERTEX
  5
3D0
  8
LAYER_1
 10
449.9925646431799
 20
686.0219212409628
 30
0.0
  0
VERTEX
  5
3D1
  8
LAYER_1
 10
447.8877020395237
 20
683.2813320172835
 30
0.0
  0
VERTEX
  5
3D2
  8
LAYER_1
 10
445.7753372843681
 20
680.5443910716054
 30
0.0
  0
VERTEX
  5
3D3
  8
LAYER_1
 10
443.6554703777307
 20
677.8111113839884
 30
0.0
  0
VERTEX
  5
3D4
  8
LAYER_1
 10
441.5281013196293
 20
675.081505934492
 30
0.0
  0
VERTEX
  5
3D5
  8
LAYER_1
 10
439.3932301100815
 20
672.3555877031758
 30
0.0
  0
VERTEX
  5
3D6
  8
LAYER_1
 10
437.250856749105
 20
669.6333696700997
 30
0.0
  0
VERTEX
  5
3D7
  8
LAYER_1
 10
435.1009812367175
 20
666.9148648153232
 30
0.0
  0
VERTEX
  5
3D8
  8
LAYER_1
 10
432.9436035729368
 20
664.200086118906
 30
0.0
  0
VERTEX
  5
3D9
  8
LAYER_1
 10
430.7787237577804
 20
661.4890465609078
 30
0.0
  0
VERTEX
  5
3DA
  8
LAYER_1
 10
428.6063417912662
 20
658.7817591213882
 30
0.0
  0
VERTEX
  5
3DB
  8
LAYER_1
 10
426.4264576734118
 20
656.0782367804067
 30
0.0
  0
VERTEX
  5
3DC
  8
LAYER_1
 10
424.2390714042349
 20
653.3784925180231
 30
0.0
  0
VERTEX
  5
3DD
  8
LAYER_1
 10
422.0441829837532
 20
650.6825393142972
 30
0.0
  0
VERTEX
  5
3DE
  8
LAYER_1
 10
419.8417924119843
 20
647.9903901492886
 30
0.0
  0
VERTEX
  5
3DF
  8
LAYER_1
 10
417.6318996889461
 20
645.302058003057
 30
0.0
  0
VERTEX
  5
3E0
  8
LAYER_1
 10
415.4145048146561
 20
642.617555855662
 30
0.0
  0
VERTEX
  5
3E1
  8
LAYER_1
 10
413.1896077891321
 20
639.9368966871632
 30
0.0
  0
VERTEX
  5
3E2
  8
LAYER_1
 10
410.9572086123918
 20
637.2600934776203
 30
0.0
  0
VERTEX
  5
3E3
  8
LAYER_1
 10
408.7173072844528
 20
634.5871592070931
 30
0.0
  0
VERTEX
  5
3E4
  8
LAYER_1
 10
406.4699038053329
 20
631.9181068556411
 30
0.0
  0
VERTEX
  5
3E5
  8
LAYER_1
 10
404.2149981750497
 20
629.252949403324
 30
0.0
  0
VERTEX
  5
3E6
  8
LAYER_1
 10
401.952590393621
 20
626.5916998302014
 30
0.0
  0
VERTEX
  5
3E7
  8
LAYER_1
 10
399.6826804610645
 20
623.9343711163331
 30
0.0
  0
VERTEX
  5
3E8
  8
LAYER_1
 10
397.4052683773978
 20
621.2809762417785
 30
0.0
  0
VERTEX
  5
3E9
  8
LAYER_1
 10
395.1203541426386
 20
618.6315281865975
 30
0.0
  0
VERTEX
  5
3EA
  8
LAYER_1
 10
392.8279377568046
 20
615.9860399308499
 30
0.0
  0
VERTEX
  5
3EB
  8
LAYER_1
 10
390.5280192199136
 20
613.3445244545951
 30
0.0
  0
VERTEX
  5
3EC
  8
LAYER_1
 10
388.2205985319831
 20
610.7069947378928
 30
0.0
  0
VERTEX
  5
3ED
  8
LAYER_1
 10
385.9056756930311
 20
608.0734637608028
 30
0.0
  0
VERTEX
  5
3EE
  8
LAYER_1
 10
383.583250703075
 20
605.4439445033847
 30
0.0
  0
VERTEX
  5
3EF
  8
LAYER_1
 10
381.2533235621326
 20
602.8184499456979
 30
0.0
  0
VERTEX
  5
3F0
  8
LAYER_1
 10
378.9158942702217
 20
600.1969930678024
 30
0.0
  0
VERTEX
  5
3F1
  8
LAYER_1
 10
376.5709628273598
 20
597.5795868497579
 30
0.0
  0
VERTEX
  5
3F2
  8
LAYER_1
 10
374.2185292335647
 20
594.9662442716239
 30
0.0
  0
VERTEX
  5
3F3
  8
LAYER_1
 10
371.8585934888541
 20
592.3569783134599
 30
0.0
  0
VERTEX
  5
3F4
  8
LAYER_1
 10
369.4911555932458
 20
589.7518019553258
 30
0.0
  0
VERTEX
  5
3F5
  8
LAYER_1
 10
367.1162155467572
 20
587.1507281772813
 30
0.0
  0
VERTEX
  5
3F6
  8
LAYER_1
 10
364.7337733494063
 20
584.5537699593858
 30
0.0
  0
VERTEX
  5
3F7
  8
LAYER_1
 10
362.3438290012106
 20
581.9609402816992
 30
0.0
  0
VERTEX
  5
3F8
  8
LAYER_1
 10
359.9463825021879
 20
579.3722521242812
 30
0.0
  0
VERTEX
  5
3F9
  8
LAYER_1
 10
357.5414338523559
 20
576.7877184671911
 30
0.0
  0
VERTEX
  5
3FA
  8
LAYER_1
 10
355.1289830517322
 20
574.2073522904891
 30
0.0
  0
VERTEX
  5
3FB
  8
LAYER_1
 10
352.7090301003345
 20
571.6311665742344
 30
0.0
  0
SEQEND
  5
D15
  8
LAYER_1
  0
POLYLINE
  5
77
  8
LAYER_1
 66
     1
 10
0.0
 20
0.0
 30
0.0
 70
     1
  0
VERTEX
  5
3FC
  8
LAYER_1
 10
492.710892133993
 20
744.7592166759964
 30
0.0
  0
VERTEX
  5
3FD
  8
LAYER_1
 10
495.872990274597
 20
749.3623253095135
 30
0.0
  0
VERTEX
  5
3FE
  8
LAYER_1
 10
499.0150829420204
 20
753.974340726555
 30
0.0
  0
VERTEX
  5
3FF
  8
LAYER_1
 10
502.1371701783335
 20
758.5952063869281
 30
0.0
  0
VERTEX
  5
400
  8
LAYER_1
 10
505.2392520256067
 20
763.2248657504399
 30
0.0
  0
VERTEX
  5
401
  8
LAYER_1
 10
508.3213285259101
 20
767.8632622768978
 30
0.0
  0
VERTEX
  5
402
  8
LAYER_1
 10
511.3833997213142
 20
772.5103394261084
 30
0.0
  0
VERTEX
  5
403
  8
LAYER_1
 10
514.4254656538892
 20
777.1660406578793
 30
0.0
  0
VERTEX
  5
404
  8
LAYER_1
 10
517.4475263657057
 20
781.8303094320175
 30
0.0
  0
VERTEX
  5
405
  8
LAYER_1
 10
520.4495818988337
 20
786.5030892083302
 30
0.0
  0
VERTEX
  5
406
  8
LAYER_1
 10
523.4316322953437
 20
791.1843234466244
 30
0.0
  0
VERTEX
  5
407
  8
LAYER_1
 10
526.3936775973059
 20
795.8739556067073
 30
0.0
  0
VERTEX
  5
408
  8
LAYER_1
 10
529.3357178467904
 20
800.5719291483861
 30
0.0
  0
VERTEX
  5
409
  8
LAYER_1
 10
532.2577530858679
 20
805.2781875314679
 30
0.0
  0
VERTEX
  5
40A
  8
LAYER_1
 10
535.1597833566086
 20
809.99267421576
 30
0.0
  0
VERTEX
  5
40B
  8
LAYER_1
 10
538.0418087010828
 20
814.7153326610692
 30
0.0
  0
VERTEX
  5
40C
  8
LAYER_1
 10
540.9038291613608
 20
819.446106327203
 30
0.0
  0
VERTEX
  5
40D
  8
LAYER_1
 10
543.7458447795129
 20
824.1849386739684
 30
0.0
  0
VERTEX
  5
40E
  8
LAYER_1
 10
546.5678555976097
 20
828.9317731611724
 30
0.0
  0
VERTEX
  5
40F
  8
LAYER_1
 10
549.369861657721
 20
833.6865532486223
 30
0.0
  0
VERTEX
  5
410
  8
LAYER_1
 10
552.1518630019173
 20
838.4492223961253
 30
0.0
  0
VERTEX
  5
411
  8
LAYER_1
 10
554.9138596722689
 20
843.2197240634883
 30
0.0
  0
VERTEX
  5
412
  8
LAYER_1
 10
557.6558517108464
 20
847.9980017105188
 30
0.0
  0
VERTEX
  5
413
  8
LAYER_1
 10
560.3778391597199
 20
852.7839987970237
 30
0.0
  0
VERTEX
  5
414
  8
LAYER_1
 10
563.0798220609597
 20
857.5776587828101
 30
0.0
  0
VERTEX
  5
415
  8
LAYER_1
 10
565.7618004566361
 20
862.3789251276852
 30
0.0
  0
VERTEX
  5
416
  8
LAYER_1
 10
568.4237743888195
 20
867.1877412914562
 30
0.0
  0
VERTEX
  5
417
  8
LAYER_1
 10
571.0657438995802
 20
872.0040507339303
 30
0.0
  0
VERTEX
  5
418
  8
LAYER_1
 10
573.6877090309883
 20
876.8277969149146
 30
0.0
  0
VERTEX
  5
419
  8
LAYER_1
 10
576.2896698251144
 20
881.6589232942163
 30
0.0
  0
VERTEX
  5
41A
  8
LAYER_1
 10
578.8716263240287
 20
886.4973733316423
 30
0.0
  0
VERTEX
  5
41B
  8
LAYER_1
 10
581.4335785698017
 20
891.3430904869999
 30
0.0
  0
VERTEX
  5
41C
  8
LAYER_1
 10
583.9755266045036
 20
896.1960182200961
 30
0.0
  0
VERTEX
  5
41D
  8
LAYER_1
 10
586.4974704702045
 20
901.0560999907383
 30
0.0
  0
VERTEX
  5
41E
  8
LAYER_1
 10
588.999410208975
 20
905.9232792587334
 30
0.0
  0
VERTEX
  5
41F
  8
LAYER_1
 10
591.4813458628853
 20
910.7974994838888
 30
0.0
  0
VERTEX
  5
420
  8
LAYER_1
 10
593.9432774740055
 20
915.6787041260116
 30
0.0
  0
VERTEX
  5
421
  8
LAYER_1
 10
596.3852050844062
 20
920.5668366449088
 30
0.0
  0
VERTEX
  5
422
  8
LAYER_1
 10
598.8071287361577
 20
925.4618405003874
 30
0.0
  0
VERTEX
  5
423
  8
LAYER_1
 10
601.2090484713303
 20
930.3636591522549
 30
0.0
  0
VERTEX
  5
424
  8
LAYER_1
 10
603.5909643319942
 20
935.2722360603182
 30
0.0
  0
VERTEX
  5
425
  8
LAYER_1
 10
605.9528763602198
 20
940.1875146843845
 30
0.0
  0
VERTEX
  5
426
  8
LAYER_1
 10
608.2947845980773
 20
945.1094384842611
 30
0.0
  0
VERTEX
  5
427
  8
LAYER_1
 10
610.6166890876373
 20
950.037950919755
 30
0.0
  0
VERTEX
  5
428
  8
LAYER_1
 10
612.9185898709698
 20
954.9729954506732
 30
0.0
  0
VERTEX
  5
429
  8
LAYER_1
 10
615.2004869901452
 20
959.914515536823
 30
0.0
  0
VERTEX
  5
42A
  8
LAYER_1
 10
617.4623804872341
 20
964.8624546380117
 30
0.0
  0
VERTEX
  5
42B
  8
LAYER_1
 10
619.7042704043064
 20
969.8167562140462
 30
0.0
  0
VERTEX
  5
42C
  8
LAYER_1
 10
621.9261567834327
 20
974.7773637247337
 30
0.0
  0
VERTEX
  5
42D
  8
LAYER_1
 10
624.1280396666833
 20
979.7442206298815
 30
0.0
  0
VERTEX
  5
42E
  8
LAYER_1
 10
626.3099190961283
 20
984.7172703892965
 30
0.0
  0
VERTEX
  5
42F
  8
LAYER_1
 10
628.4717951138381
 20
989.6964564627858
 30
0.0
  0
VERTEX
  5
430
  8
LAYER_1
 10
630.613667761883
 20
994.6817223101569
 30
0.0
  0
VERTEX
  5
431
  8
LAYER_1
 10
632.7355370823334
 20
999.6730113912167
 30
0.0
  0
VERTEX
  5
432
  8
LAYER_1
 10
634.8374031172597
 20
1004.670267165772
 30
0.0
  0
VERTEX
  5
433
  8
LAYER_1
 10
636.9192659087321
 20
1009.673433093631
 30
0.0
  0
VERTEX
  5
434
  8
LAYER_1
 10
638.9811254988208
 20
1014.6824526346
 30
0.0
  0
VERTEX
  5
435
  8
LAYER_1
 10
641.0229819295963
 20
1019.697269248486
 30
0.0
  0
VERTEX
  5
436
  8
LAYER_1
 10
643.0448352431288
 20
1024.717826395097
 30
0.0
  0
VERTEX
  5
437
  8
LAYER_1
 10
645.0466854814887
 20
1029.744067534239
 30
0.0
  0
VERTEX
  5
438
  8
LAYER_1
 10
647.0285326867463
 20
1034.77593612572
 30
0.0
  0
VERTEX
  5
439
  8
LAYER_1
 10
648.9903769009718
 20
1039.813375629347
 30
0.0
  0
VERTEX
  5
43A
  8
LAYER_1
 10
650.9322181662355
 20
1044.856329504927
 30
0.0
  0
VERTEX
  5
43B
  8
LAYER_1
 10
652.854056524608
 20
1049.904741212267
 30
0.0
  0
VERTEX
  5
43C
  8
LAYER_1
 10
654.7558920181596
 20
1054.958554211174
 30
0.0
  0
VERTEX
  5
43D
  8
LAYER_1
 10
653.0090338995043
 20
1054.967570652655
 30
0.0
  0
VERTEX
  5
43E
  8
LAYER_1
 10
651.2682756601262
 20
1054.985319149128
 30
0.0
  0
VERTEX
  5
43F
  8
LAYER_1
 10
649.5336751938278
 20
1055.011796352082
 30
0.0
  0
VERTEX
  5
440
  8
LAYER_1
 10
647.8052903944113
 20
1055.046998913003
 30
0.0
  0
VERTEX
  5
441
  8
LAYER_1
 10
646.0831791556791
 20
1055.09092348338
 30
0.0
  0
VERTEX
  5
442
  8
LAYER_1
 10
644.3673993714333
 20
1055.143566714699
 30
0.0
  0
VERTEX
  5
443
  8
LAYER_1
 10
642.6580089354766
 20
1055.204925258447
 30
0.0
  0
VERTEX
  5
444
  8
LAYER_1
 10
640.955065741611
 20
1055.274995766113
 30
0.0
  0
VERTEX
  5
445
  8
LAYER_1
 10
639.2586276836389
 20
1055.353774889184
 30
0.0
  0
VERTEX
  5
446
  8
LAYER_1
 10
637.5687526553627
 20
1055.441259279145
 30
0.0
  0
VERTEX
  5
447
  8
LAYER_1
 10
635.8854985505847
 20
1055.537445587486
 30
0.0
  0
VERTEX
  5
448
  8
LAYER_1
 10
634.2089232631072
 20
1055.642330465692
 30
0.0
  0
VERTEX
  5
449
  8
LAYER_1
 10
632.5390846867324
 20
1055.755910565252
 30
0.0
  0
VERTEX
  5
44A
  8
LAYER_1
 10
630.8760407152629
 20
1055.878182537653
 30
0.0
  0
VERTEX
  5
44B
  8
LAYER_1
 10
629.2198492425007
 20
1056.009143034383
 30
0.0
  0
VERTEX
  5
44C
  8
LAYER_1
 10
627.5705681622486
 20
1056.148788706927
 30
0.0
  0
VERTEX
  5
44D
  8
LAYER_1
 10
625.9282553683086
 20
1056.297116206774
 30
0.0
  0
VERTEX
  5
44E
  8
LAYER_1
 10
624.2929687544829
 20
1056.454122185411
 30
0.0
  0
VERTEX
  5
44F
  8
LAYER_1
 10
622.664766214574
 20
1056.619803294326
 30
0.0
  0
VERTEX
  5
450
  8
LAYER_1
 10
621.0437056423841
 20
1056.794156185004
 30
0.0
  0
VERTEX
  5
451
  8
LAYER_1
 10
619.4298449317157
 20
1056.977177508935
 30
0.0
  0
VERTEX
  5
452
  8
LAYER_1
 10
617.8232419763712
 20
1057.168863917605
 30
0.0
  0
VERTEX
  5
453
  8
LAYER_1
 10
616.2239546701526
 20
1057.369212062501
 30
0.0
  0
VERTEX
  5
454
  8
LAYER_1
 10
614.6320409068624
 20
1057.578218595112
 30
0.0
  0
VERTEX
  5
455
  8
LAYER_1
 10
613.0475585803028
 20
1057.795880166923
 30
0.0
  0
VERTEX
  5
456
  8
LAYER_1
 10
611.4705655842764
 20
1058.022193429422
 30
0.0
  0
VERTEX
  5
457
  8
LAYER_1
 10
609.9011198125854
 20
1058.257155034098
 30
0.0
  0
VERTEX
  5
458
  8
LAYER_1
 10
608.339279159032
 20
1058.500761632436
 30
0.0
  0
VERTEX
  5
459
  8
LAYER_1
 10
606.7851015174186
 20
1058.753009875924
 30
0.0
  0
VERTEX
  5
45A
  8
LAYER_1
 10
605.2386447815476
 20
1059.01389641605
 30
0.0
  0
VERTEX
  5
45B
  8
LAYER_1
 10
603.6999668452212
 20
1059.283417904301
 30
0.0
  0
VERTEX
  5
45C
  8
LAYER_1
 10
602.1691256022418
 20
1059.561570992164
 30
0.0
  0
VERTEX
  5
45D
  8
LAYER_1
 10
600.6461789464117
 20
1059.848352331126
 30
0.0
  0
VERTEX
  5
45E
  8
LAYER_1
 10
599.1311847715332
 20
1060.143758572676
 30
0.0
  0
VERTEX
  5
45F
  8
LAYER_1
 10
597.6242009714088
 20
1060.447786368299
 30
0.0
  0
VERTEX
  5
460
  8
LAYER_1
 10
596.1252854398404
 20
1060.760432369483
 30
0.0
  0
VERTEX
  5
461
  8
LAYER_1
 10
594.6344960706308
 20
1061.081693227717
 30
0.0
  0
VERTEX
  5
462
  8
LAYER_1
 10
593.151890757582
 20
1061.411565594486
 30
0.0
  0
VERTEX
  5
463
  8
LAYER_1
 10
591.6775273944965
 20
1061.750046121278
 30
0.0
  0
VERTEX
  5
464
  8
LAYER_1
 10
590.2114638751766
 20
1062.097131459581
 30
0.0
  0
VERTEX
  5
465
  8
LAYER_1
 10
588.7537580934246
 20
1062.452818260882
 30
0.0
  0
VERTEX
  5
466
  8
LAYER_1
 10
587.3044679430428
 20
1062.817103176668
 30
0.0
  0
VERTEX
  5
467
  8
LAYER_1
 10
585.8636513178335
 20
1063.189982858426
 30
0.0
  0
VERTEX
  5
468
  8
LAYER_1
 10
584.4313661115991
 20
1063.571453957645
 30
0.0
  0
VERTEX
  5
469
  8
LAYER_1
 10
583.0076702181419
 20
1063.96151312581
 30
0.0
  0
VERTEX
  5
46A
  8
LAYER_1
 10
581.5926215312641
 20
1064.360157014409
 30
0.0
  0
VERTEX
  5
46B
  8
LAYER_1
 10
580.1862779447681
 20
1064.76738227493
 30
0.0
  0
VERTEX
  5
46C
  8
LAYER_1
 10
578.7886973524564
 20
1065.18318555886
 30
0.0
  0
VERTEX
  5
46D
  8
LAYER_1
 10
577.3999376481312
 20
1065.607563517687
 30
0.0
  0
VERTEX
  5
46E
  8
LAYER_1
 10
576.0200567255948
 20
1066.040512802897
 30
0.0
  0
VERTEX
  5
46F
  8
LAYER_1
 10
574.6491124786496
 20
1066.482030065977
 30
0.0
  0
VERTEX
  5
470
  8
LAYER_1
 10
573.2871628010977
 20
1066.932111958416
 30
0.0
  0
VERTEX
  5
471
  8
LAYER_1
 10
571.9342655867417
 20
1067.3907551317
 30
0.0
  0
VERTEX
  5
472
  8
LAYER_1
 10
570.5904787293837
 20
1067.857956237317
 30
0.0
  0
VERTEX
  5
473
  8
LAYER_1
 10
569.255860122826
 20
1068.333711926754
 30
0.0
  0
VERTEX
  5
474
  8
LAYER_1
 10
567.9304676608713
 20
1068.818018851498
 30
0.0
  0
VERTEX
  5
475
  8
LAYER_1
 10
566.6143592373214
 20
1069.310873663037
 30
0.0
  0
VERTEX
  5
476
  8
LAYER_1
 10
565.3075927459793
 20
1069.812273012858
 30
0.0
  0
VERTEX
  5
477
  8
LAYER_1
 10
564.0102260806466
 20
1070.322213552448
 30
0.0
  0
VERTEX
  5
478
  8
LAYER_1
 10
562.7223171351259
 20
1070.840691933295
 30
0.0
  0
VERTEX
  5
479
  8
LAYER_1
 10
561.4439238032198
 20
1071.367704806885
 30
0.0
  0
VERTEX
  5
47A
  8
LAYER_1
 10
560.1751039787302
 20
1071.903248824706
 30
0.0
  0
VERTEX
  5
47B
  8
LAYER_1
 10
558.9159155554596
 20
1072.447320638246
 30
0.0
  0
VERTEX
  5
47C
  8
LAYER_1
 10
557.6664164272104
 20
1072.999916898992
 30
0.0
  0
VERTEX
  5
47D
  8
LAYER_1
 10
556.4266644877848
 20
1073.56103425843
 30
0.0
  0
VERTEX
  5
47E
  8
LAYER_1
 10
555.1967176309852
 20
1074.13066936805
 30
0.0
  0
VERTEX
  5
47F
  8
LAYER_1
 10
553.9766337506139
 20
1074.708818879336
 30
0.0
  0
VERTEX
  5
480
  8
LAYER_1
 10
552.7664707404734
 20
1075.295479443777
 30
0.0
  0
VERTEX
  5
481
  8
LAYER_1
 10
551.5662864943658
 20
1075.890647712861
 30
0.0
  0
VERTEX
  5
482
  8
LAYER_1
 10
550.3761389060933
 20
1076.494320338074
 30
0.0
  0
VERTEX
  5
483
  8
LAYER_1
 10
549.1960858694586
 20
1077.106493970904
 30
0.0
  0
VERTEX
  5
484
  8
LAYER_1
 10
548.0261852782637
 20
1077.727165262838
 30
0.0
  0
VERTEX
  5
485
  8
LAYER_1
 10
546.866495026311
 20
1078.356330865364
 30
0.0
  0
VERTEX
  5
486
  8
LAYER_1
 10
545.717073007403
 20
1078.993987429968
 30
0.0
  0
VERTEX
  5
487
  8
LAYER_1
 10
544.5779771153418
 20
1079.640131608138
 30
0.0
  0
VERTEX
  5
488
  8
LAYER_1
 10
543.4492652439299
 20
1080.294760051362
 30
0.0
  0
VERTEX
  5
489
  8
LAYER_1
 10
542.3309952869695
 20
1080.957869411126
 30
0.0
  0
VERTEX
  5
48A
  8
LAYER_1
 10
541.2232251382629
 20
1081.629456338918
 30
0.0
  0
VERTEX
  5
48B
  8
LAYER_1
 10
540.1260126916127
 20
1082.309517486225
 30
0.0
  0
VERTEX
  5
48C
  8
LAYER_1
 10
539.0394158408208
 20
1082.998049504534
 30
0.0
  0
VERTEX
  5
48D
  8
LAYER_1
 10
537.9634924796899
 20
1083.695049045334
 30
0.0
  0
VERTEX
  5
48E
  8
LAYER_1
 10
536.898300502022
 20
1084.40051276011
 30
0.0
  0
VERTEX
  5
48F
  8
LAYER_1
 10
535.8438978016196
 20
1085.114437300351
 30
0.0
  0
VERTEX
  5
490
  8
LAYER_1
 10
534.8003422722852
 20
1085.836819317544
 30
0.0
  0
VERTEX
  5
491
  8
LAYER_1
 10
533.7676918078207
 20
1086.567655463175
 30
0.0
  0
VERTEX
  5
492
  8
LAYER_1
 10
532.7460043020287
 20
1087.306942388733
 30
0.0
  0
VERTEX
  5
493
  8
LAYER_1
 10
531.7353376487115
 20
1088.054676745705
 30
0.0
  0
VERTEX
  5
494
  8
LAYER_1
 10
530.7357497416715
 20
1088.810855185577
 30
0.0
  0
VERTEX
  5
495
  8
LAYER_1
 10
529.747298474711
 20
1089.575474359837
 30
0.0
  0
VERTEX
  5
496
  8
LAYER_1
 10
528.770041741632
 20
1090.348530919973
 30
0.0
  0
VERTEX
  5
497
  8
LAYER_1
 10
527.8040374362372
 20
1091.130021517472
 30
0.0
  0
VERTEX
  5
498
  8
LAYER_1
 10
526.8493434523288
 20
1091.919942803821
 30
0.0
  0
VERTEX
  5
499
  8
LAYER_1
 10
525.9060176837089
 20
1092.718291430507
 30
0.0
  0
VERTEX
  5
49A
  8
LAYER_1
 10
524.9741180241804
 20
1093.525064049018
 30
0.0
  0
VERTEX
  5
49B
  8
LAYER_1
 10
524.0537023675452
 20
1094.340257310841
 30
0.0
  0
VERTEX
  5
49C
  8
LAYER_1
 10
523.1448286076055
 20
1095.163867867463
 30
0.0
  0
VERTEX
  5
49D
  8
LAYER_1
 10
522.2475546381639
 20
1095.995892370371
 30
0.0
  0
VERTEX
  5
49E
  8
LAYER_1
 10
521.3619383530228
 20
1096.836327471054
 30
0.0
  0
VERTEX
  5
49F
  8
LAYER_1
 10
520.4880376459842
 20
1097.685169820998
 30
0.0
  0
VERTEX
  5
4A0
  8
LAYER_1
 10
519.6259104108506
 20
1098.54241607169
 30
0.0
  0
VERTEX
  5
4A1
  8
LAYER_1
 10
518.7756145414241
 20
1099.408062874618
 30
0.0
  0
VERTEX
  5
4A2
  8
LAYER_1
 10
517.9372079315076
 20
1100.282106881269
 30
0.0
  0
VERTEX
  5
4A3
  8
LAYER_1
 10
517.110748474903
 20
1101.16454474313
 30
0.0
  0
VERTEX
  5
4A4
  8
LAYER_1
 10
516.2962940654124
 20
1102.055373111689
 30
0.0
  0
VERTEX
  5
4A5
  8
LAYER_1
 10
515.4939025968386
 20
1102.954588638433
 30
0.0
  0
VERTEX
  5
4A6
  8
LAYER_1
 10
514.7036319629836
 20
1103.862187974849
 30
0.0
  0
VERTEX
  5
4A7
  8
LAYER_1
 10
513.9255400576501
 20
1104.778167772425
 30
0.0
  0
VERTEX
  5
4A8
  8
LAYER_1
 10
513.1596847746399
 20
1105.702524682648
 30
0.0
  0
VERTEX
  5
4A9
  8
LAYER_1
 10
512.4061240077557
 20
1106.635255357005
 30
0.0
  0
VERTEX
  5
4AA
  8
LAYER_1
 10
511.6649156507998
 20
1107.576356446983
 30
0.0
  0
VERTEX
  5
4AB
  8
LAYER_1
 10
510.9361175975745
 20
1108.52582460407
 30
0.0
  0
VERTEX
  5
4AC
  8
LAYER_1
 10
510.2197877418819
 20
1109.483656479753
 30
0.0
  0
VERTEX
  5
4AD
  8
LAYER_1
 10
509.5159839775246
 20
1110.44984872552
 30
0.0
  0
VERTEX
  5
4AE
  8
LAYER_1
 10
508.8247641983048
 20
1111.424397992857
 30
0.0
  0
VERTEX
  5
4AF
  8
LAYER_1
 10
508.1461862980248
 20
1112.407300933252
 30
0.0
  0
VERTEX
  5
4B0
  8
LAYER_1
 10
507.480308170487
 20
1113.398554198192
 30
0.0
  0
VERTEX
  5
4B1
  8
LAYER_1
 10
506.8271877094936
 20
1114.398154439165
 30
0.0
  0
VERTEX
  5
4B2
  8
LAYER_1
 10
506.186882808847
 20
1115.406098307657
 30
0.0
  0
VERTEX
  5
4B3
  8
LAYER_1
 10
505.5594513623496
 20
1116.422382455157
 30
0.0
  0
VERTEX
  5
4B4
  8
LAYER_1
 10
504.9449512638037
 20
1117.447003533151
 30
0.0
  0
VERTEX
  5
4B5
  8
LAYER_1
 10
504.3434404070116
 20
1118.479958193127
 30
0.0
  0
VERTEX
  5
4B6
  8
LAYER_1
 10
503.7549766857755
 20
1119.521243086572
 30
0.0
  0
VERTEX
  5
4B7
  8
LAYER_1
 10
503.1796179938979
 20
1120.570854864973
 30
0.0
  0
VERTEX
  5
4B8
  8
LAYER_1
 10
502.617422225181
 20
1121.628790179818
 30
0.0
  0
VERTEX
  5
4B9
  8
LAYER_1
 10
502.0684472734272
 20
1122.695045682594
 30
0.0
  0
VERTEX
  5
4BA
  8
LAYER_1
 10
501.5327510324388
 20
1123.769618024788
 30
0.0
  0
VERTEX
  5
4BB
  8
LAYER_1
 10
501.0103913960181
 20
1124.852503857888
 30
0.0
  0
VERTEX
  5
4BC
  8
LAYER_1
 10
500.5014262579675
 20
1125.943699833381
 30
0.0
  0
VERTEX
  5
4BD
  8
LAYER_1
 10
500.128888083716
 20
1126.766749544964
 30
0.0
  0
VERTEX
  5
4BE
  8
LAYER_1
 10
499.764817813867
 20
1127.592465812731
 30
0.0
  0
VERTEX
  5
4BF
  8
LAYER_1
 10
499.4092008139918
 20
1128.42082919375
 30
0.0
  0
VERTEX
  5
4C0
  8
LAYER_1
 10
499.0620224496619
 20
1129.251820245092
 30
0.0
  0
VERTEX
  5
4C1
  8
LAYER_1
 10
498.7232680864486
 20
1130.085419523824
 30
0.0
  0
VERTEX
  5
4C2
  8
LAYER_1
 10
498.3929230899233
 20
1130.921607587017
 30
0.0
  0
VERTEX
  5
4C3
  8
LAYER_1
 10
498.0709728256576
 20
1131.760364991738
 30
0.0
  0
VERTEX
  5
4C4
  8
LAYER_1
 10
497.7574026592226
 20
1132.601672295056
 30
0.0
  0
VERTEX
  5
4C5
  8
LAYER_1
 10
497.45219795619
 20
1133.445510054041
 30
0.0
  0
VERTEX
  5
4C6
  8
LAYER_1
 10
497.1553440821313
 20
1134.291858825761
 30
0.0
  0
VERTEX
  5
4C7
  8
LAYER_1
 10
496.8668264026176
 20
1135.140699167286
 30
0.0
  0
VERTEX
  5
4C8
  8
LAYER_1
 10
496.5866302832204
 20
1135.992011635684
 30
0.0
  0
VERTEX
  5
4C9
  8
LAYER_1
 10
496.3147410895112
 20
1136.845776788024
 30
0.0
  0
VERTEX
  5
4CA
  8
LAYER_1
 10
496.0511441870614
 20
1137.701975181375
 30
0.0
  0
VERTEX
  5
4CB
  8
LAYER_1
 10
495.7958249414423
 20
1138.560587372806
 30
0.0
  0
VERTEX
  5
4CC
  8
LAYER_1
 10
495.5487687182255
 20
1139.421593919386
 30
0.0
  0
VERTEX
  5
4CD
  8
LAYER_1
 10
495.3099608829823
 20
1140.284975378184
 30
0.0
  0
VERTEX
  5
4CE
  8
LAYER_1
 10
495.079386801284
 20
1141.150712306269
 30
0.0
  0
VERTEX
  5
4CF
  8
LAYER_1
 10
494.8570318387023
 20
1142.01878526071
 30
0.0
  0
VERTEX
  5
4D0
  8
LAYER_1
 10
494.6428813608084
 20
1142.889174798575
 30
0.0
  0
VERTEX
  5
4D1
  8
LAYER_1
 10
494.4369207331737
 20
1143.761861476934
 30
0.0
  0
VERTEX
  5
4D2
  8
LAYER_1
 10
494.2391353213698
 20
1144.636825852855
 30
0.0
  0
VERTEX
  5
4D3
  8
LAYER_1
 10
494.0495104909679
 20
1145.514048483408
 30
0.0
  0
VERTEX
  5
4D4
  8
LAYER_1
 10
493.8680316075395
 20
1146.393509925661
 30
0.0
  0
VERTEX
  5
4D5
  8
LAYER_1
 10
493.6946840366561
 20
1147.275190736683
 30
0.0
  0
VERTEX
  5
4D6
  8
LAYER_1
 10
493.529453143889
 20
1148.159071473544
 30
0.0
  0
VERTEX
  5
4D7
  8
LAYER_1
 10
493.3723242948096
 20
1149.045132693312
 30
0.0
  0
VERTEX
  5
4D8
  8
LAYER_1
 10
493.2232828549894
 20
1149.933354953056
 30
0.0
  0
VERTEX
  5
4D9
  8
LAYER_1
 10
493.0823141899997
 20
1150.823718809845
 30
0.0
  0
VERTEX
  5
4DA
  8
LAYER_1
 10
492.9494036654121
 20
1151.716204820748
 30
0.0
  0
VERTEX
  5
4DB
  8
LAYER_1
 10
492.8245366467978
 20
1152.610793542834
 30
0.0
  0
VERTEX
  5
4DC
  8
LAYER_1
 10
492.7076984997284
 20
1153.507465533171
 30
0.0
  0
SEQEND
  5
D16
  8
LAYER_1
  0
POLYLINE
  5
78
  8
LAYER_1
 66
     1
 10
0.0
 20
0.0
 30
0.0
  0
VERTEX
  5
4DD
  8
LAYER_1
 10
735.2834948580544
 20
1096.978347501292
 30
0.0
  0
VERTEX
  5
4DE
  8
LAYER_1
 10
733.0995231253246
 20
1096.708628650569
 30
0.0
  0
VERTEX
  5
4DF
  8
LAYER_1
 10
730.9226440101932
 20
1096.452787639459
 30
0.0
  0
VERTEX
  5
4E0
  8
LAYER_1
 10
728.7529816060486
 20
1096.2108172905
 30
0.0
  0
VERTEX
  5
4E1
  8
LAYER_1
 10
726.5906600062793
 20
1095.982710426229
 30
0.0
  0
VERTEX
  5
4E2
  8
LAYER_1
 10
724.435803304274
 20
1095.768459869184
 30
0.0
  0
VERTEX
  5
4E3
  8
LAYER_1
 10
722.2885355934213
 20
1095.568058441904
 30
0.0
  0
VERTEX
  5
4E4
  8
LAYER_1
 10
720.1489809671095
 20
1095.381498966925
 30
0.0
  0
VERTEX
  5
4E5
  8
LAYER_1
 10
718.0172635187271
 20
1095.208774266786
 30
0.0
  0
VERTEX
  5
4E6
  8
LAYER_1
 10
715.8935073416627
 20
1095.049877164024
 30
0.0
  0
VERTEX
  5
4E7
  8
LAYER_1
 10
713.777836529305
 20
1094.904800481177
 30
0.0
  0
VERTEX
  5
4E8
  8
LAYER_1
 10
711.6703751750422
 20
1094.773537040783
 30
0.0
  0
VERTEX
  5
4E9
  8
LAYER_1
 10
709.5712473722632
 20
1094.656079665379
 30
0.0
  0
VERTEX
  5
4EA
  8
LAYER_1
 10
707.4805772143563
 20
1094.552421177503
 30
0.0
  0
VERTEX
  5
4EB
  8
LAYER_1
 10
705.39848879471
 20
1094.462554399694
 30
0.0
  0
VERTEX
  5
4EC
  8
LAYER_1
 10
703.3251062067129
 20
1094.386472154488
 30
0.0
  0
VERTEX
  5
4ED
  8
LAYER_1
 10
701.2605535437535
 20
1094.324167264423
 30
0.0
  0
VERTEX
  5
4EE
  8
LAYER_1
 10
699.2049548992204
 20
1094.275632552038
 30
0.0
  0
VERTEX
  5
4EF
  8
LAYER_1
 10
697.158434366502
 20
1094.240860839869
 30
0.0
  0
VERTEX
  5
4F0
  8
LAYER_1
 10
695.1211160389869
 20
1094.219844950456
 30
0.0
  0
VERTEX
  5
4F1
  8
LAYER_1
 10
693.0931240100635
 20
1094.212577706335
 30
0.0
  0
VERTEX
  5
4F2
  8
LAYER_1
 10
691.0745823731206
 20
1094.219051930044
 30
0.0
  0
VERTEX
  5
4F3
  8
LAYER_1
 10
689.0656152215465
 20
1094.239260444121
 30
0.0
  0
VERTEX
  5
4F4
  8
LAYER_1
 10
687.0663466487299
 20
1094.273196071103
 30
0.0
  0
VERTEX
  5
4F5
  8
LAYER_1
 10
685.0769007480591
 20
1094.320851633529
 30
0.0
  0
VERTEX
  5
4F6
  8
LAYER_1
 10
683.0974016129228
 20
1094.382219953936
 30
0.0
  0
VERTEX
  5
4F7
  8
LAYER_1
 10
681.1279733367094
 20
1094.457293854862
 30
0.0
  0
VERTEX
  5
4F8
  8
LAYER_1
 10
679.1687400128076
 20
1094.546066158845
 30
0.0
  0
VERTEX
  5
4F9
  8
LAYER_1
 10
677.2198257346058
 20
1094.648529688422
 30
0.0
  0
VERTEX
  5
4FA
  8
LAYER_1
 10
675.2813545954925
 20
1094.764677266131
 30
0.0
  0
VERTEX
  5
4FB
  8
LAYER_1
 10
673.3534506888564
 20
1094.89450171451
 30
0.0
  0
VERTEX
  5
4FC
  8
LAYER_1
 10
671.4362381080858
 20
1095.037995856097
 30
0.0
  0
VERTEX
  5
4FD
  8
LAYER_1
 10
669.5298409465694
 20
1095.195152513429
 30
0.0
  0
SEQEND
  5
D17
  8
LAYER_1
  0
POLYLINE
  5
79
  8
LAYER_1
 66
     1
 10
0.0
 20
0.0
 30
0.0
  0
VERTEX
  5
4FE
  8
LAYER_1
 10
719.6610654741016
 20
1060.228928851569
 30
0.0
  0
VERTEX
  5
4FF
  8
LAYER_1
 10
717.5466527591341
 20
1059.89933049709
 30
0.0
  0
VERTEX
  5
500
  8
LAYER_1
 10
715.4371508753666
 20
1059.580414910256
 30
0.0
  0
VERTEX
  5
501
  8
LAYER_1
 10
713.332636607506
 20
1059.272177649902
 30
0.0
  0
VERTEX
  5
502
  8
LAYER_1
 10
711.2331867402592
 20
1058.974614274862
 30
0.0
  0
VERTEX
  5
503
  8
LAYER_1
 10
709.1388780583329
 20
1058.687720343969
 30
0.0
  0
VERTEX
  5
504
  8
LAYER_1
 10
707.0497873464342
 20
1058.411491416058
 30
0.0
  0
VERTEX
  5
505
  8
LAYER_1
 10
704.9659913892697
 20
1058.145923049962
 30
0.0
  0
VERTEX
  5
506
  8
LAYER_1
 10
702.8875669715466
 20
1057.891010804516
 30
0.0
  0
VERTEX
  5
507
  8
LAYER_1
 10
700.8145908779713
 20
1057.646750238553
 30
0.0
  0
VERTEX
  5
508
  8
LAYER_1
 10
698.7471398932508
 20
1057.413136910908
 30
0.0
  0
VERTEX
  5
509
  8
LAYER_1
 10
696.6852908020921
 20
1057.190166380415
 30
0.0
  0
VERTEX
  5
50A
  8
LAYER_1
 10
694.6291203892018
 20
1056.977834205907
 30
0.0
  0
VERTEX
  5
50B
  8
LAYER_1
 10
692.578705439287
 20
1056.776135946219
 30
0.0
  0
VERTEX
  5
50C
  8
LAYER_1
 10
690.5341227370543
 20
1056.585067160185
 30
0.0
  0
VERTEX
  5
50D
  8
LAYER_1
 10
688.4954490672106
 20
1056.404623406638
 30
0.0
  0
VERTEX
  5
50E
  8
LAYER_1
 10
686.462761214463
 20
1056.234800244413
 30
0.0
  0
VERTEX
  5
50F
  8
LAYER_1
 10
684.4361359635179
 20
1056.075593232345
 30
0.0
  0
VERTEX
  5
510
  8
LAYER_1
 10
682.4156500990825
 20
1055.926997929265
 30
0.0
  0
VERTEX
  5
511
  8
LAYER_1
 10
680.4013804058637
 20
1055.78900989401
 30
0.0
  0
VERTEX
  5
512
  8
LAYER_1
 10
678.393403668568
 20
1055.661624685413
 30
0.0
  0
VERTEX
  5
513
  8
LAYER_1
 10
676.3917966719024
 20
1055.544837862307
 30
0.0
  0
VERTEX
  5
514
  8
LAYER_1
 10
674.3966362005739
 20
1055.438644983527
 30
0.0
  0
VERTEX
  5
515
  8
LAYER_1
 10
672.407999039289
 20
1055.343041607908
 30
0.0
  0
VERTEX
  5
516
  8
LAYER_1
 10
670.4259619727551
 20
1055.258023294282
 30
0.0
  0
VERTEX
  5
517
  8
LAYER_1
 10
668.4506017856786
 20
1055.183585601485
 30
0.0
  0
VERTEX
  5
518
  8
LAYER_1
 10
666.4819952627663
 20
1055.119724088349
 30
0.0
  0
VERTEX
  5
519
  8
LAYER_1
 10
664.5202191887252
 20
1055.066434313709
 30
0.0
  0
VERTEX
  5
51A
  8
LAYER_1
 10
662.5653503482621
 20
1055.0237118364
 30
0.0
  0
VERTEX
  5
51B
  8
LAYER_1
 10
660.6174655260838
 20
1054.991552215254
 30
0.0
  0
VERTEX
  5
51C
  8
LAYER_1
 10
658.6766415068975
 20
1054.969951009107
 30
0.0
  0
VERTEX
  5
51D
  8
LAYER_1
 10
656.7429550754096
 20
1054.958903776791
 30
0.0
  0
VERTEX
  5
51E
  8
LAYER_1
 10
654.8164830163271
 20
1054.958406077142
 30
0.0
  0
SEQEND
  5
D18
  8
LAYER_1
  0
POLYLINE
  5
7A
  8
LAYER_1
 66
     1
 10
0.0
 20
0.0
 30
0.0
  0
VERTEX
  5
51F
  8
LAYER_1
 10
540.7980913023684
 20
744.2072238480641
 30
0.0
  0
VERTEX
  5
520
  8
LAYER_1
 10
538.7223998800758
 20
741.3851295315978
 30
0.0
  0
VERTEX
  5
521
  8
LAYER_1
 10
536.6398941815336
 20
738.5668810390396
 30
0.0
  0
VERTEX
  5
522
  8
LAYER_1
 10
534.5505761527734
 20
735.7524906420508
 30
0.0
  0
VERTEX
  5
523
  8
LAYER_1
 10
532.4544477398272
 20
732.9419706122928
 30
0.0
  0
VERTEX
  5
524
  8
LAYER_1
 10
530.3515108887268
 20
730.1353332214271
 30
0.0
  0
VERTEX
  5
525
  8
LAYER_1
 10
528.2417675455042
 20
727.332590741115
 30
0.0
  0
VERTEX
  5
526
  8
LAYER_1
 10
526.1252196561911
 20
724.5337554430182
 30
0.0
  0
VERTEX
  5
527
  8
LAYER_1
 10
524.0018691668196
 20
721.7388395987978
 30
0.0
  0
VERTEX
  5
528
  8
LAYER_1
 10
521.8717180234214
 20
718.9478554801153
 30
0.0
  0
VERTEX
  5
529
  8
LAYER_1
 10
519.7347681720285
 20
716.1608153586322
 30
0.0
  0
VERTEX
  5
52A
  8
LAYER_1
 10
517.5910215586725
 20
713.3777315060097
 30
0.0
  0
VERTEX
  5
52B
  8
LAYER_1
 10
515.4404801293855
 20
710.5986161939095
 30
0.0
  0
VERTEX
  5
52C
  8
LAYER_1
 10
513.2831458301994
 20
707.8234816939928
 30
0.0
  0
VERTEX
  5
52D
  8
LAYER_1
 10
511.1190206071458
 20
705.0523402779211
 30
0.0
  0
VERTEX
  5
52E
  8
LAYER_1
 10
508.9481064062569
 20
702.2852042173558
 30
0.0
  0
VERTEX
  5
52F
  8
LAYER_1
 10
506.7704051735645
 20
699.5220857839583
 30
0.0
  0
VERTEX
  5
530
  8
LAYER_1
 10
504.5859188551004
 20
696.7629972493901
 30
0.0
  0
VERTEX
  5
531
  8
LAYER_1
 10
502.3946493968964
 20
694.0079508853123
 30
0.0
  0
VERTEX
  5
532
  8
LAYER_1
 10
500.1965987449845
 20
691.2569589633868
 30
0.0
  0
VERTEX
  5
533
  8
LAYER_1
 10
497.9917688453966
 20
688.5100337552747
 30
0.0
  0
VERTEX
  5
534
  8
LAYER_1
 10
495.7801616441644
 20
685.7671875326373
 30
0.0
  0
VERTEX
  5
535
  8
LAYER_1
 10
493.5617790873199
 20
683.0284325671363
 30
0.0
  0
VERTEX
  5
536
  8
LAYER_1
 10
491.336623120895
 20
680.293781130433
 30
0.0
  0
VERTEX
  5
537
  8
LAYER_1
 10
489.1046956909214
 20
677.5632454941888
 30
0.0
  0
VERTEX
  5
538
  8
LAYER_1
 10
486.8659987434312
 20
674.8368379300651
 30
0.0
  0
VERTEX
  5
539
  8
LAYER_1
 10
484.620534224456
 20
672.1145707097234
 30
0.0
  0
VERTEX
  5
53A
  8
LAYER_1
 10
482.3683040800279
 20
669.3964561048249
 30
0.0
  0
VERTEX
  5
53B
  8
LAYER_1
 10
480.1093102561788
 20
666.6825063870313
 30
0.0
  0
VERTEX
  5
53C
  8
LAYER_1
 10
477.8435546989404
 20
663.9727338280036
 30
0.0
  0
VERTEX
  5
53D
  8
LAYER_1
 10
475.5710393543445
 20
661.2671506994038
 30
0.0
  0
VERTEX
  5
53E
  8
LAYER_1
 10
473.2917661684232
 20
658.5657692728928
 30
0.0
  0
VERTEX
  5
53F
  8
LAYER_1
 10
471.0057370872084
 20
655.8686018201323
 30
0.0
  0
VERTEX
  5
540
  8
LAYER_1
 10
468.7129540567319
 20
653.1756606127835
 30
0.0
  0
VERTEX
  5
541
  8
LAYER_1
 10
466.4134190230254
 20
650.486957922508
 30
0.0
  0
VERTEX
  5
542
  8
LAYER_1
 10
464.1071339321209
 20
647.8025060209673
 30
0.0
  0
VERTEX
  5
543
  8
LAYER_1
 10
461.7941007300503
 20
645.1223171798224
 30
0.0
  0
VERTEX
  5
544
  8
LAYER_1
 10
459.4743213628454
 20
642.446403670735
 30
0.0
  0
VERTEX
  5
545
  8
LAYER_1
 10
457.1477977765382
 20
639.7747777653665
 30
0.0
  0
VERTEX
  5
546
  8
LAYER_1
 10
454.8145319171604
 20
637.1074517353784
 30
0.0
  0
VERTEX
  5
547
  8
LAYER_1
 10
452.4745257307441
 20
634.4444378524317
 30
0.0
  0
VERTEX
  5
548
  8
LAYER_1
 10
450.1277811633208
 20
631.7857483881884
 30
0.0
  0
VERTEX
  5
549
  8
LAYER_1
 10
447.7743001609228
 20
629.1313956143094
 30
0.0
  0
VERTEX
  5
54A
  8
LAYER_1
 10
445.4140846695817
 20
626.4813918024565
 30
0.0
  0
VERTEX
  5
54B
  8
LAYER_1
 10
443.0471366353295
 20
623.835749224291
 30
0.0
  0
VERTEX
  5
54C
  8
LAYER_1
 10
440.673458004198
 20
621.1944801514743
 30
0.0
  0
VERTEX
  5
54D
  8
LAYER_1
 10
438.293050722219
 20
618.5575968556677
 30
0.0
  0
VERTEX
  5
54E
  8
LAYER_1
 10
435.9059167354245
 20
615.9251116085326
 30
0.0
  0
VERTEX
  5
54F
  8
LAYER_1
 10
433.5120579898464
 20
613.2970366817306
 30
0.0
  0
VERTEX
  5
550
  8
LAYER_1
 10
431.1114764315164
 20
610.6733843469228
 30
0.0
  0
VERTEX
  5
551
  8
LAYER_1
 10
428.7041740064665
 20
608.054166875771
 30
0.0
  0
VERTEX
  5
552
  8
LAYER_1
 10
426.2901526607286
 20
605.4393965399364
 30
0.0
  0
VERTEX
  5
553
  8
LAYER_1
 10
423.8694143403345
 20
602.8290856110805
 30
0.0
  0
VERTEX
  5
554
  8
LAYER_1
 10
421.4419609913161
 20
600.2232463608646
 30
0.0
  0
VERTEX
  5
555
  8
LAYER_1
 10
419.0077945597052
 20
597.6218910609501
 30
0.0
  0
VERTEX
  5
556
  8
LAYER_1
 10
416.5669169915338
 20
595.0250319829986
 30
0.0
  0
VERTEX
  5
557
  8
LAYER_1
 10
414.1193302328336
 20
592.4326813986713
 30
0.0
  0
VERTEX
  5
558
  8
LAYER_1
 10
411.6650362296367
 20
589.8448515796298
 30
0.0
  0
VERTEX
  5
559
  8
LAYER_1
 10
409.2040369279748
 20
587.2615547975353
 30
0.0
  0
VERTEX
  5
55A
  8
LAYER_1
 10
406.7363342738798
 20
584.6828033240494
 30
0.0
  0
VERTEX
  5
55B
  8
LAYER_1
 10
404.2619302133836
 20
582.1086094308334
 30
0.0
  0
VERTEX
  5
55C
  8
LAYER_1
 10
401.7808266925181
 20
579.5389853895489
 30
0.0
  0
VERTEX
  5
55D
  8
LAYER_1
 10
399.2930256573151
 20
576.9739434718571
 30
0.0
  0
VERTEX
  5
55E
  8
LAYER_1
 10
396.7985290538065
 20
574.4134959494194
 30
0.0
  0
VERTEX
  5
55F
  8
LAYER_1
 10
394.2973388280242
 20
571.8576550938974
 30
0.0
  0
SEQEND
  5
D19
  8
LAYER_1
  0
POLYLINE
  5
7B
  8
LAYER_1
 66
     1
 10
0.0
 20
0.0
 30
0.0
 70
     1
  0
VERTEX
  5
560
  8
LAYER_1
 10
916.6271379071768
 20
744.7602849478815
 30
0.0
  0
VERTEX
  5
561
  8
LAYER_1
 10
915.6512429710945
 20
747.463824964973
 30
0.0
  0
VERTEX
  5
562
  8
LAYER_1
 10
914.6838375021047
 20
750.1697725641935
 30
0.0
  0
VERTEX
  5
563
  8
LAYER_1
 10
913.7249227165358
 20
752.8781075770278
 30
0.0
  0
VERTEX
  5
564
  8
LAYER_1
 10
912.7744998307169
 20
755.5888098349611
 30
0.0
  0
VERTEX
  5
565
  8
LAYER_1
 10
911.8325700609766
 20
758.3018591694786
 30
0.0
  0
VERTEX
  5
566
  8
LAYER_1
 10
910.899134623644
 20
761.0172354120655
 30
0.0
  0
VERTEX
  5
567
  8
LAYER_1
 10
909.9741947350476
 20
763.7349183942068
 30
0.0
  0
VERTEX
  5
568
  8
LAYER_1
 10
909.0577516115162
 20
766.454887947388
 30
0.0
  0
VERTEX
  5
569
  8
LAYER_1
 10
908.1498064693785
 20
769.1771239030938
 30
0.0
  0
VERTEX
  5
56A
  8
LAYER_1
 10
907.2503605249636
 20
771.9016060928097
 30
0.0
  0
VERTEX
  5
56B
  8
LAYER_1
 10
906.3594149946001
 20
774.6283143480209
 30
0.0
  0
VERTEX
  5
56C
  8
LAYER_1
 10
905.4769710946167
 20
777.3572285002124
 30
0.0
  0
VERTEX
  5
56D
  8
LAYER_1
 10
904.6030300413422
 20
780.0883283808694
 30
0.0
  0
VERTEX
  5
56E
  8
LAYER_1
 10
903.7375930511055
 20
782.8215938214769
 30
0.0
  0
VERTEX
  5
56F
  8
LAYER_1
 10
902.8806613402353
 20
785.5570046535203
 30
0.0
  0
VERTEX
  5
570
  8
LAYER_1
 10
902.0322361250605
 20
788.2945407084846
 30
0.0
  0
VERTEX
  5
571
  8
LAYER_1
 10
901.1923186219099
 20
791.0341818178551
 30
0.0
  0
VERTEX
  5
572
  8
LAYER_1
 10
900.3609100471119
 20
793.7759078131169
 30
0.0
  0
VERTEX
  5
573
  8
LAYER_1
 10
899.5380116169956
 20
796.5196985257552
 30
0.0
  0
VERTEX
  5
574
  8
LAYER_1
 10
898.7236245478898
 20
799.2655337872551
 30
0.0
  0
VERTEX
  5
575
  8
LAYER_1
 10
897.9177500561233
 20
802.0133934291018
 30
0.0
  0
VERTEX
  5
576
  8
LAYER_1
 10
897.1203893580248
 20
804.7632572827805
 30
0.0
  0
VERTEX
  5
577
  8
LAYER_1
 10
896.3315436699229
 20
807.5151051797762
 30
0.0
  0
VERTEX
  5
578
  8
LAYER_1
 10
895.5512142081467
 20
810.2689169515743
 30
0.0
  0
VERTEX
  5
579
  8
LAYER_1
 10
894.7794021890247
 20
813.0246724296597
 30
0.0
  0
VERTEX
  5
57A
  8
LAYER_1
 10
894.016108828886
 20
815.7823514455179
 30
0.0
  0
VERTEX
  5
57B
  8
LAYER_1
 10
893.2613353440593
 20
818.5419338306336
 30
0.0
  0
VERTEX
  5
57C
  8
LAYER_1
 10
892.5150829508732
 20
821.3033994164923
 30
0.0
  0
VERTEX
  5
57D
  8
LAYER_1
 10
891.7773528656566
 20
824.066728034579
 30
0.0
  0
VERTEX
  5
57E
  8
LAYER_1
 10
891.0481463047382
 20
826.831899516379
 30
0.0
  0
VERTEX
  5
57F
  8
LAYER_1
 10
890.3274644844469
 20
829.5988936933775
 30
0.0
  0
VERTEX
  5
580
  8
LAYER_1
 10
889.6153086211114
 20
832.3676903970595
 30
0.0
  0
VERTEX
  5
581
  8
LAYER_1
 10
888.9116799310605
 20
835.1382694589103
 30
0.0
  0
VERTEX
  5
582
  8
LAYER_1
 10
888.216579630623
 20
837.9106107104149
 30
0.0
  0
VERTEX
  5
583
  8
LAYER_1
 10
887.5300089361277
 20
840.6846939830584
 30
0.0
  0
VERTEX
  5
584
  8
LAYER_1
 10
886.8519690639034
 20
843.4604991083263
 30
0.0
  0
VERTEX
  5
585
  8
LAYER_1
 10
886.1824612302789
 20
846.2380059177035
 30
0.0
  0
VERTEX
  5
586
  8
LAYER_1
 10
885.5214866515828
 20
849.0171942426753
 30
0.0
  0
VERTEX
  5
587
  8
LAYER_1
 10
884.8690465441441
 20
851.7980439147266
 30
0.0
  0
VERTEX
  5
588
  8
LAYER_1
 10
884.2251421242914
 20
854.5805347653429
 30
0.0
  0
VERTEX
  5
589
  8
LAYER_1
 10
883.5897746083538
 20
857.3646466260093
 30
0.0
  0
VERTEX
  5
58A
  8
LAYER_1
 10
882.9629452126596
 20
860.1503593282107
 30
0.0
  0
VERTEX
  5
58B
  8
LAYER_1
 10
882.344655153538
 20
862.9376527034325
 30
0.0
  0
VERTEX
  5
58C
  8
LAYER_1
 10
881.7349056473175
 20
865.7265065831598
 30
0.0
  0
VERTEX
  5
58D
  8
LAYER_1
 10
881.1336979103271
 20
868.5169007988777
 30
0.0
  0
VERTEX
  5
58E
  8
LAYER_1
 10
880.5410331588955
 20
871.3088151820714
 30
0.0
  0
VERTEX
  5
58F
  8
LAYER_1
 10
879.9569126093514
 20
874.102229564226
 30
0.0
  0
VERTEX
  5
590
  8
LAYER_1
 10
879.3813374780237
 20
876.897123776827
 30
0.0
  0
VERTEX
  5
591
  8
LAYER_1
 10
878.8143089812411
 20
879.6934776513592
 30
0.0
  0
VERTEX
  5
592
  8
LAYER_1
 10
878.2558283353326
 20
882.4912710193079
 30
0.0
  0
VERTEX
  5
593
  8
LAYER_1
 10
877.7058967566265
 20
885.2904837121582
 30
0.0
  0
VERTEX
  5
594
  8
LAYER_1
 10
877.1645154614522
 20
888.0910955613952
 30
0.0
  0
VERTEX
  5
595
  8
LAYER_1
 10
876.6316856661381
 20
890.8930863985041
 30
0.0
  0
VERTEX
  5
596
  8
LAYER_1
 10
876.107408587013
 20
893.6964360549703
 30
0.0
  0
VERTEX
  5
597
  8
LAYER_1
 10
875.5916854404056
 20
896.5011243622787
 30
0.0
  0
VERTEX
  5
598
  8
LAYER_1
 10
875.0845174426449
 20
899.3071311519144
 30
0.0
  0
VERTEX
  5
599
  8
LAYER_1
 10
874.5859058100597
 20
902.1144362553628
 30
0.0
  0
VERTEX
  5
59A
  8
LAYER_1
 10
874.0958517589786
 20
904.9230195041089
 30
0.0
  0
VERTEX
  5
59B
  8
LAYER_1
 10
873.6143565057305
 20
907.7328607296381
 30
0.0
  0
VERTEX
  5
59C
  8
LAYER_1
 10
873.1414212666441
 20
910.5439397634351
 30
0.0
  0
VERTEX
  5
59D
  8
LAYER_1
 10
872.6770472580483
 20
913.3562364369856
 30
0.0
  0
VERTEX
  5
59E
  8
LAYER_1
 10
872.2212356962718
 20
916.1697305817743
 30
0.0
  0
VERTEX
  5
59F
  8
LAYER_1
 10
871.7739877976435
 20
918.9844020292865
 30
0.0
  0
VERTEX
  5
5A0
  8
LAYER_1
 10
871.335304778492
 20
921.8002306110076
 30
0.0
  0
VERTEX
  5
5A1
  8
LAYER_1
 10
870.9051878551461
 20
924.6171961584225
 30
0.0
  0
VERTEX
  5
5A2
  8
LAYER_1
 10
870.4836382439347
 20
927.4352785030164
 30
0.0
  0
VERTEX
  5
5A3
  8
LAYER_1
 10
870.0706571611865
 20
930.2544574762746
 30
0.0
  0
VERTEX
  5
5A4
  8
LAYER_1
 10
869.6662458232304
 20
933.0747129096821
 30
0.0
  0
VERTEX
  5
5A5
  8
LAYER_1
 10
869.270405446395
 20
935.8960246347242
 30
0.0
  0
VERTEX
  5
5A6
  8
LAYER_1
 10
868.8831372470092
 20
938.7183724828859
 30
0.0
  0
VERTEX
  5
5A7
  8
LAYER_1
 10
868.5044424414018
 20
941.5417362856526
 30
0.0
  0
VERTEX
  5
5A8
  8
LAYER_1
 10
868.1343222459016
 20
944.3660958745093
 30
0.0
  0
VERTEX
  5
5A9
  8
LAYER_1
 10
867.7727778768373
 20
947.1914310809411
 30
0.0
  0
VERTEX
  5
5AA
  8
LAYER_1
 10
867.4198105505376
 20
950.0177217364333
 30
0.0
  0
VERTEX
  5
5AB
  8
LAYER_1
 10
867.0754214833314
 20
952.8449476724709
 30
0.0
  0
VERTEX
  5
5AC
  8
LAYER_1
 10
866.7396118915476
 20
955.6730887205391
 30
0.0
  0
VERTEX
  5
5AD
  8
LAYER_1
 10
866.4123829915147
 20
958.5021247121232
 30
0.0
  0
VERTEX
  5
5AE
  8
LAYER_1
 10
866.0937359995618
 20
961.3320354787082
 30
0.0
  0
VERTEX
  5
5AF
  8
LAYER_1
 10
865.7836721320175
 20
964.1628008517795
 30
0.0
  0
VERTEX
  5
5B0
  8
LAYER_1
 10
865.4821926052105
 20
966.994400662822
 30
0.0
  0
VERTEX
  5
5B1
  8
LAYER_1
 10
865.1892986354696
 20
969.8268147433212
 30
0.0
  0
VERTEX
  5
5B2
  8
LAYER_1
 10
864.9049914391239
 20
972.6600229247617
 30
0.0
  0
VERTEX
  5
5B3
  8
LAYER_1
 10
864.629272232502
 20
975.4940050386291
 30
0.0
  0
VERTEX
  5
5B4
  8
LAYER_1
 10
864.3621422319325
 20
978.3287409164084
 30
0.0
  0
VERTEX
  5
5B5
  8
LAYER_1
 10
864.1036026537444
 20
981.1642103895847
 30
0.0
  0
VERTEX
  5
5B6
  8
LAYER_1
 10
863.8536547142662
 20
984.0003932896435
 30
0.0
  0
VERTEX
  5
5B7
  8
LAYER_1
 10
863.612299629827
 20
986.8372694480697
 30
0.0
  0
VERTEX
  5
5B8
  8
LAYER_1
 10
863.3795386167556
 20
989.6748186963484
 30
0.0
  0
VERTEX
  5
5B9
  8
LAYER_1
 10
863.1553728913805
 20
992.513020865965
 30
0.0
  0
VERTEX
  5
5BA
  8
LAYER_1
 10
862.9398036700306
 20
995.3518557884045
 30
0.0
  0
VERTEX
  5
5BB
  8
LAYER_1
 10
862.7328321690347
 20
998.191303295152
 30
0.0
  0
VERTEX
  5
5BC
  8
LAYER_1
 10
862.5344596047219
 20
1001.031343217693
 30
0.0
  0
VERTEX
  5
5BD
  8
LAYER_1
 10
862.3446871934204
 20
1003.871955387512
 30
0.0
  0
VERTEX
  5
5BE
  8
LAYER_1
 10
862.1635161514594
 20
1006.713119636094
 30
0.0
  0
VERTEX
  5
5BF
  8
LAYER_1
 10
861.9909476951675
 20
1009.554815794926
 30
0.0
  0
VERTEX
  5
5C0
  8
LAYER_1
 10
861.8269830408736
 20
1012.397023695491
 30
0.0
  0
VERTEX
  5
5C1
  8
LAYER_1
 10
861.6716234049064
 20
1015.239723169275
 30
0.0
  0
VERTEX
  5
5C2
  8
LAYER_1
 10
861.5248700035947
 20
1018.082894047764
 30
0.0
  0
VERTEX
  5
5C3
  8
LAYER_1
 10
861.3867240532672
 20
1020.926516162442
 30
0.0
  0
VERTEX
  5
5C4
  8
LAYER_1
 10
861.2571867702529
 20
1023.770569344794
 30
0.0
  0
VERTEX
  5
5C5
  8
LAYER_1
 10
861.1362593708802
 20
1026.615033426307
 30
0.0
  0
VERTEX
  5
5C6
  8
LAYER_1
 10
861.0239430714784
 20
1029.459888238463
 30
0.0
  0
VERTEX
  5
5C7
  8
LAYER_1
 10
860.9202390883759
 20
1032.30511361275
 30
0.0
  0
VERTEX
  5
5C8
  8
LAYER_1
 10
860.8251486379015
 20
1035.150689380652
 30
0.0
  0
VERTEX
  5
5C9
  8
LAYER_1
 10
860.7386729363841
 20
1037.996595373655
 30
0.0
  0
VERTEX
  5
5CA
  8
LAYER_1
 10
860.6608132001525
 20
1040.842811423243
 30
0.0
  0
VERTEX
  5
5CB
  8
LAYER_1
 10
860.5915706455355
 20
1043.689317360901
 30
0.0
  0
VERTEX
  5
5CC
  8
LAYER_1
 10
860.5309464888618
 20
1046.536093018116
 30
0.0
  0
VERTEX
  5
5CD
  8
LAYER_1
 10
860.4789419464603
 20
1049.383118226371
 30
0.0
  0
VERTEX
  5
5CE
  8
LAYER_1
 10
860.4355582346595
 20
1052.230372817153
 30
0.0
  0
VERTEX
  5
5CF
  8
LAYER_1
 10
860.4007965697884
 20
1055.077836621946
 30
0.0
  0
VERTEX
  5
5D0
  8
LAYER_1
 10
860.3746581681759
 20
1057.925489472235
 30
0.0
  0
VERTEX
  5
5D1
  8
LAYER_1
 10
860.3571442461505
 20
1060.773311199506
 30
0.0
  0
VERTEX
  5
5D2
  8
LAYER_1
 10
860.3482560200412
 20
1063.621281635244
 30
0.0
  0
VERTEX
  5
5D3
  8
LAYER_1
 10
860.3479947061767
 20
1066.469380610934
 30
0.0
  0
VERTEX
  5
5D4
  8
LAYER_1
 10
860.3563615208858
 20
1069.317587958061
 30
0.0
  0
VERTEX
  5
5D5
  8
LAYER_1
 10
860.3733576804973
 20
1072.16588350811
 30
0.0
  0
VERTEX
  5
5D6
  8
LAYER_1
 10
860.3989844013399
 20
1075.014247092566
 30
0.0
  0
VERTEX
  5
5D7
  8
LAYER_1
 10
860.4332428997425
 20
1077.862658542915
 30
0.0
  0
VERTEX
  5
5D8
  8
LAYER_1
 10
860.4761343920336
 20
1080.711097690642
 30
0.0
  0
VERTEX
  5
5D9
  8
LAYER_1
 10
860.5276600945424
 20
1083.559544367232
 30
0.0
  0
VERTEX
  5
5DA
  8
LAYER_1
 10
860.5878212235974
 20
1086.40797840417
 30
0.0
  0
VERTEX
  5
5DB
  8
LAYER_1
 10
860.6566189955275
 20
1089.256379632941
 30
0.0
  0
VERTEX
  5
5DC
  8
LAYER_1
 10
860.7340546266614
 20
1092.104727885031
 30
0.0
  0
VERTEX
  5
5DD
  8
LAYER_1
 10
860.820129333328
 20
1094.953002991923
 30
0.0
  0
VERTEX
  5
5DE
  8
LAYER_1
 10
860.9148443318561
 20
1097.801184785105
 30
0.0
  0
VERTEX
  5
5DF
  8
LAYER_1
 10
861.0182008385743
 20
1100.649253096061
 30
0.0
  0
VERTEX
  5
5E0
  8
LAYER_1
 10
861.1302000698115
 20
1103.497187756276
 30
0.0
  0
VERTEX
  5
5E1
  8
LAYER_1
 10
858.8895197246295
 20
1102.489922317248
 30
0.0
  0
VERTEX
  5
5E2
  8
LAYER_1
 10
856.6488494548348
 20
1101.493352153177
 30
0.0
  0
VERTEX
  5
5E3
  8
LAYER_1
 10
854.408263271926
 20
1100.507472987353
 30
0.0
  0
VERTEX
  5
5E4
  8
LAYER_1
 10
852.167835187402
 20
1099.532280543063
 30
0.0
  0
VERTEX
  5
5E5
  8
LAYER_1
 10
849.9276392127614
 20
1098.567770543598
 30
0.0
  0
VERTEX
  5
5E6
  8
LAYER_1
 10
847.6877493595032
 20
1097.613938712245
 30
0.0
  0
VERTEX
  5
5E7
  8
LAYER_1
 10
845.4482396391259
 20
1096.670780772295
 30
0.0
  0
VERTEX
  5
5E8
  8
LAYER_1
 10
843.2091840631282
 20
1095.738292447036
 30
0.0
  0
VERTEX
  5
5E9
  8
LAYER_1
 10
840.9706566430091
 20
1094.816469459757
 30
0.0
  0
VERTEX
  5
5EA
  8
LAYER_1
 10
838.7327313902672
 20
1093.905307533747
 30
0.0
  0
VERTEX
  5
5EB
  8
LAYER_1
 10
836.4954823164014
 20
1093.004802392295
 30
0.0
  0
VERTEX
  5
5EC
  8
LAYER_1
 10
834.2589834329103
 20
1092.11494975869
 30
0.0
  0
VERTEX
  5
5ED
  8
LAYER_1
 10
832.0233087512927
 20
1091.235745356221
 30
0.0
  0
VERTEX
  5
5EE
  8
LAYER_1
 10
829.7885322830474
 20
1090.367184908177
 30
0.0
  0
VERTEX
  5
5EF
  8
LAYER_1
 10
827.5547280396731
 20
1089.509264137847
 30
0.0
  0
VERTEX
  5
5F0
  8
LAYER_1
 10
825.3219700326686
 20
1088.661978768521
 30
0.0
  0
VERTEX
  5
5F1
  8
LAYER_1
 10
823.0903322735326
 20
1087.825324523486
 30
0.0
  0
VERTEX
  5
5F2
  8
LAYER_1
 10
820.8598887737637
 20
1086.999297126032
 30
0.0
  0
VERTEX
  5
5F3
  8
LAYER_1
 10
818.630713544861
 20
1086.183892299448
 30
0.0
  0
VERTEX
  5
5F4
  8
LAYER_1
 10
816.4028805983231
 20
1085.379105767024
 30
0.0
  0
VERTEX
  5
5F5
  8
LAYER_1
 10
814.1764639456487
 20
1084.584933252047
 30
0.0
  0
VERTEX
  5
5F6
  8
LAYER_1
 10
811.9515375983365
 20
1083.801370477807
 30
0.0
  0
VERTEX
  5
5F7
  8
LAYER_1
 10
809.7281755678853
 20
1083.028413167593
 30
0.0
  0
VERTEX
  5
5F8
  8
LAYER_1
 10
807.5064518657939
 20
1082.266057044695
 30
0.0
  0
VERTEX
  5
5F9
  8
LAYER_1
 10
805.286440503561
 20
1081.5142978324
 30
0.0
  0
VERTEX
  5
5FA
  8
LAYER_1
 10
803.0682154926856
 20
1080.773131253998
 30
0.0
  0
VERTEX
  5
5FB
  8
LAYER_1
 10
800.8518508446662
 20
1080.042553032778
 30
0.0
  0
VERTEX
  5
5FC
  8
LAYER_1
 10
798.6374205710014
 20
1079.32255889203
 30
0.0
  0
VERTEX
  5
5FD
  8
LAYER_1
 10
796.4249986831901
 20
1078.613144555041
 30
0.0
  0
VERTEX
  5
5FE
  8
LAYER_1
 10
794.2146591927312
 20
1077.914305745101
 30
0.0
  0
VERTEX
  5
5FF
  8
LAYER_1
 10
792.0064761111234
 20
1077.226038185499
 30
0.0
  0
VERTEX
  5
600
  8
LAYER_1
 10
789.8005234498655
 20
1076.548337599524
 30
0.0
  0
VERTEX
  5
601
  8
LAYER_1
 10
787.596875220456
 20
1075.881199710465
 30
0.0
  0
VERTEX
  5
602
  8
LAYER_1
 10
785.3956054343939
 20
1075.224620241611
 30
0.0
  0
VERTEX
  5
603
  8
LAYER_1
 10
783.1967881031778
 20
1074.578594916251
 30
0.0
  0
VERTEX
  5
604
  8
LAYER_1
 10
781.0004972383066
 20
1073.943119457673
 30
0.0
  0
VERTEX
  5
605
  8
LAYER_1
 10
778.8068068512789
 20
1073.318189589168
 30
0.0
  0
VERTEX
  5
606
  8
LAYER_1
 10
776.6157909535934
 20
1072.703801034023
 30
0.0
  0
VERTEX
  5
607
  8
LAYER_1
 10
774.4275235567492
 20
1072.099949515529
 30
0.0
  0
VERTEX
  5
608
  8
LAYER_1
 10
772.2420786722447
 20
1071.506630756973
 30
0.0
  0
VERTEX
  5
609
  8
LAYER_1
 10
770.0595303115788
 20
1070.923840481645
 30
0.0
  0
VERTEX
  5
60A
  8
LAYER_1
 10
767.8799524862502
 20
1070.351574412834
 30
0.0
  0
VERTEX
  5
60B
  8
LAYER_1
 10
765.7034192077577
 20
1069.789828273829
 30
0.0
  0
VERTEX
  5
60C
  8
LAYER_1
 10
763.5300044876001
 20
1069.238597787919
 30
0.0
  0
VERTEX
  5
60D
  8
LAYER_1
 10
761.359782337276
 20
1068.697878678393
 30
0.0
  0
VERTEX
  5
60E
  8
LAYER_1
 10
759.1928267682842
 20
1068.167666668539
 30
0.0
  0
VERTEX
  5
60F
  8
LAYER_1
 10
757.0292117921235
 20
1067.647957481648
 30
0.0
  0
VERTEX
  5
610
  8
LAYER_1
 10
754.8690114202927
 20
1067.138746841007
 30
0.0
  0
VERTEX
  5
611
  8
LAYER_1
 10
752.7122996642905
 20
1066.640030469906
 30
0.0
  0
VERTEX
  5
612
  8
LAYER_1
 10
750.5591505356156
 20
1066.151804091634
 30
0.0
  0
VERTEX
  5
613
  8
LAYER_1
 10
748.4096380457669
 20
1065.67406342948
 30
0.0
  0
VERTEX
  5
614
  8
LAYER_1
 10
746.263836206243
 20
1065.206804206733
 30
0.0
  0
VERTEX
  5
615
  8
LAYER_1
 10
744.1218190285427
 20
1064.750022146681
 30
0.0
  0
VERTEX
  5
616
  8
LAYER_1
 10
741.9836605241649
 20
1064.303712972615
 30
0.0
  0
VERTEX
  5
617
  8
LAYER_1
 10
739.849434704608
 20
1063.867872407822
 30
0.0
  0
VERTEX
  5
618
  8
LAYER_1
 10
737.719215581371
 20
1063.442496175591
 30
0.0
  0
VERTEX
  5
619
  8
LAYER_1
 10
735.5930771659526
 20
1063.027579999213
 30
0.0
  0
VERTEX
  5
61A
  8
LAYER_1
 10
733.4710934698517
 20
1062.623119601976
 30
0.0
  0
VERTEX
  5
61B
  8
LAYER_1
 10
731.3533385045669
 20
1062.229110707168
 30
0.0
  0
VERTEX
  5
61C
  8
LAYER_1
 10
729.2398862815968
 20
1061.845549038079
 30
0.0
  0
VERTEX
  5
61D
  8
LAYER_1
 10
727.1308108124404
 20
1061.472430317998
 30
0.0
  0
VERTEX
  5
61E
  8
LAYER_1
 10
725.0261861085964
 20
1061.109750270214
 30
0.0
  0
VERTEX
  5
61F
  8
LAYER_1
 10
722.9260861815636
 20
1060.757504618015
 30
0.0
  0
VERTEX
  5
620
  8
LAYER_1
 10
720.8305850428407
 20
1060.415689084691
 30
0.0
  0
VERTEX
  5
621
  8
LAYER_1
 10
718.6144236227666
 20
1055.230607716365
 30
0.0
  0
VERTEX
  5
622
  8
LAYER_1
 10
716.379336710693
 20
1050.052433909884
 30
0.0
  0
VERTEX
  5
623
  8
LAYER_1
 10
714.1253318556525
 20
1044.881222009604
 30
0.0
  0
VERTEX
  5
624
  8
LAYER_1
 10
711.8524166066777
 20
1039.717026359878
 30
0.0
  0
VERTEX
  5
625
  8
LAYER_1
 10
709.5605985128013
 20
1034.559901305059
 30
0.0
  0
VERTEX
  5
626
  8
LAYER_1
 10
707.2498851230562
 20
1029.409901189502
 30
0.0
  0
VERTEX
  5
627
  8
LAYER_1
 10
704.9202839864747
 20
1024.267080357561
 30
0.0
  0
VERTEX
  5
628
  8
LAYER_1
 10
702.5718026520896
 20
1019.131493153589
 30
0.0
  0
VERTEX
  5
629
  8
LAYER_1
 10
700.2044486689335
 20
1014.003193921941
 30
0.0
  0
VERTEX
  5
62A
  8
LAYER_1
 10
697.8182295860393
 20
1008.88223700697
 30
0.0
  0
VERTEX
  5
62B
  8
LAYER_1
 10
695.4131529524394
 20
1003.76867675303
 30
0.0
  0
VERTEX
  5
62C
  8
LAYER_1
 10
692.9892263171668
 20
998.6625675044747
 30
0.0
  0
VERTEX
  5
62D
  8
LAYER_1
 10
690.5464572292537
 20
993.5639636056587
 30
0.0
  0
VERTEX
  5
62E
  8
LAYER_1
 10
688.0848532377332
 20
988.4729194009354
 30
0.0
  0
VERTEX
  5
62F
  8
LAYER_1
 10
685.6044218916377
 20
983.3894892346589
 30
0.0
  0
VERTEX
  5
630
  8
LAYER_1
 10
683.10517074
 20
978.313727451183
 30
0.0
  0
VERTEX
  5
631
  8
LAYER_1
 10
680.5871073318526
 20
973.2456883948615
 30
0.0
  0
VERTEX
  5
632
  8
LAYER_1
 10
678.0502392162284
 20
968.1854264100484
 30
0.0
  0
VERTEX
  5
633
  8
LAYER_1
 10
675.4945739421598
 20
963.1329958410976
 30
0.0
  0
VERTEX
  5
634
  8
LAYER_1
 10
672.9201190586798
 20
958.0884510323629
 30
0.0
  0
VERTEX
  5
635
  8
LAYER_1
 10
670.3268821148208
 20
953.051846328198
 30
0.0
  0
VERTEX
  5
636
  8
LAYER_1
 10
667.7148706596154
 20
948.0232360729574
 30
0.0
  0
VERTEX
  5
637
  8
LAYER_1
 10
665.0840922420965
 20
943.0026746109944
 30
0.0
  0
VERTEX
  5
638
  8
LAYER_1
 10
662.4345544112966
 20
937.9902162866631
 30
0.0
  0
VERTEX
  5
639
  8
LAYER_1
 10
659.7662647162485
 20
932.9859154443175
 30
0.0
  0
VERTEX
  5
63A
  8
LAYER_1
 10
657.0792307059849
 20
927.9898264283112
 30
0.0
  0
VERTEX
  5
63B
  8
LAYER_1
 10
654.3734599295381
 20
923.0020035829983
 30
0.0
  0
VERTEX
  5
63C
  8
LAYER_1
 10
651.6489599359412
 20
918.0225012527328
 30
0.0
  0
VERTEX
  5
63D
  8
LAYER_1
 10
648.9057382742267
 20
913.0513737818684
 30
0.0
  0
VERTEX
  5
63E
  8
LAYER_1
 10
646.1438024934272
 20
908.088675514759
 30
0.0
  0
VERTEX
  5
63F
  8
LAYER_1
 10
643.3631601425755
 20
903.1344607957584
 30
0.0
  0
VERTEX
  5
640
  8
LAYER_1
 10
640.5638187707041
 20
898.1887839692206
 30
0.0
  0
VERTEX
  5
641
  8
LAYER_1
 10
637.7457859268457
 20
893.2516993794995
 30
0.0
  0
VERTEX
  5
642
  8
LAYER_1
 10
634.9090691600331
 20
888.323261370949
 30
0.0
  0
VERTEX
  5
643
  8
LAYER_1
 10
632.053676019299
 20
883.4035242879229
 30
0.0
  0
VERTEX
  5
644
  8
LAYER_1
 10
629.1796140536758
 20
878.4925424747753
 30
0.0
  0
VERTEX
  5
645
  8
LAYER_1
 10
626.2868908121962
 20
873.5903702758599
 30
0.0
  0
VERTEX
  5
646
  8
LAYER_1
 10
623.3755138438931
 20
868.6970620355306
 30
0.0
  0
VERTEX
  5
647
  8
LAYER_1
 10
620.4454906977992
 20
863.8126720981413
 30
0.0
  0
VERTEX
  5
648
  8
LAYER_1
 10
617.4968289229467
 20
858.937254808046
 30
0.0
  0
VERTEX
  5
649
  8
LAYER_1
 10
614.5295360683688
 20
854.0708645095983
 30
0.0
  0
VERTEX
  5
64A
  8
LAYER_1
 10
611.5436196830979
 20
849.2135555471524
 30
0.0
  0
VERTEX
  5
64B
  8
LAYER_1
 10
608.5390873161666
 20
844.365382265062
 30
0.0
  0
VERTEX
  5
64C
  8
LAYER_1
 10
605.5159465166078
 20
839.526399007681
 30
0.0
  0
VERTEX
  5
64D
  8
LAYER_1
 10
602.474204833454
 20
834.6966601193634
 30
0.0
  0
VERTEX
  5
64E
  8
LAYER_1
 10
599.4138698157378
 20
829.876219944463
 30
0.0
  0
VERTEX
  5
64F
  8
LAYER_1
 10
596.3349490124922
 20
825.0651328273337
 30
0.0
  0
VERTEX
  5
650
  8
LAYER_1
 10
593.2374499727493
 20
820.2634531123296
 30
0.0
  0
VERTEX
  5
651
  8
LAYER_1
 10
590.1213802455422
 20
815.4712351438043
 30
0.0
  0
VERTEX
  5
652
  8
LAYER_1
 10
586.9867473799036
 20
810.6885332661117
 30
0.0
  0
VERTEX
  5
653
  8
LAYER_1
 10
583.8335589248659
 20
805.9154018236057
 30
0.0
  0
VERTEX
  5
654
  8
LAYER_1
 10
580.6618224294621
 20
801.1518951606404
 30
0.0
  0
VERTEX
  5
655
  8
LAYER_1
 10
577.4715454427244
 20
796.3980676215696
 30
0.0
  0
VERTEX
  5
656
  8
LAYER_1
 10
574.2627355136859
 20
791.6539735507469
 30
0.0
  0
VERTEX
  5
657
  8
LAYER_1
 10
571.035400191379
 20
786.9196672925266
 30
0.0
  0
VERTEX
  5
658
  8
LAYER_1
 10
567.7895470248365
 20
782.1952031912623
 30
0.0
  0
VERTEX
  5
659
  8
LAYER_1
 10
564.5251835630909
 20
777.4806355913081
 30
0.0
  0
VERTEX
  5
65A
  8
LAYER_1
 10
561.242317355175
 20
772.7760188370178
 30
0.0
  0
VERTEX
  5
65B
  8
LAYER_1
 10
557.9409559501216
 20
768.0814072727452
 30
0.0
  0
VERTEX
  5
65C
  8
LAYER_1
 10
554.621106896963
 20
763.3968552428443
 30
0.0
  0
VERTEX
  5
65D
  8
LAYER_1
 10
551.2827777447324
 20
758.7224170916688
 30
0.0
  0
VERTEX
  5
65E
  8
LAYER_1
 10
547.9259760424618
 20
754.0581471635729
 30
0.0
  0
VERTEX
  5
65F
  8
LAYER_1
 10
544.5507093391843
 20
749.4040998029102
 30
0.0
  0
VERTEX
  5
660
  8
LAYER_1
 10
541.1569851839325
 20
744.7603293540349
 30
0.0
  0
SEQEND
  5
D1A
  8
LAYER_1
  0
POLYLINE
  5
7C
  8
LAYER_1
 66
     1
 10
0.0
 20
0.0
 30
0.0
  0
VERTEX
  5
661
  8
LAYER_1
 10
862.792879706439
 20
1132.942604310439
 30
0.0
  0
VERTEX
  5
662
  8
LAYER_1
 10
862.5357452304681
 20
1129.287830108858
 30
0.0
  0
VERTEX
  5
663
  8
LAYER_1
 10
862.29288894202
 20
1125.632500741072
 30
0.0
  0
VERTEX
  5
664
  8
LAYER_1
 10
862.0643082603864
 20
1121.976658943842
 30
0.0
  0
VERTEX
  5
665
  8
LAYER_1
 10
861.8500006048594
 20
1118.320347453932
 30
0.0
  0
VERTEX
  5
666
  8
LAYER_1
 10
861.649963394731
 20
1114.663609008102
 30
0.0
  0
VERTEX
  5
667
  8
LAYER_1
 10
861.4641940492932
 20
1111.006486343116
 30
0.0
  0
VERTEX
  5
668
  8
LAYER_1
 10
861.2926899878381
 20
1107.349022195736
 30
0.0
  0
VERTEX
  5
669
  8
LAYER_1
 10
861.1354486296577
 20
1103.691259302725
 30
0.0
  0
SEQEND
  5
D1B
  8
LAYER_1
  0
POLYLINE
  5
7D
  8
LAYER_1
 66
     1
 10
0.0
 20
0.0
 30
0.0
 70
     1
  0
VERTEX
  5
66A
  8
LAYER_1
 10
938.9540535546082
 20
1441.288273810794
 30
0.0
  0
VERTEX
  5
66B
  8
LAYER_1
 10
937.3694621128664
 20
1441.357758461105
 30
0.0
  0
VERTEX
  5
66C
  8
LAYER_1
 10
935.7782252140034
 20
1441.418299858327
 30
0.0
  0
VERTEX
  5
66D
  8
LAYER_1
 10
934.1804083076478
 20
1441.469894239664
 30
0.0
  0
VERTEX
  5
66E
  8
LAYER_1
 10
932.5760768434276
 20
1441.512537842319
 30
0.0
  0
VERTEX
  5
66F
  8
LAYER_1
 10
930.9652962709711
 20
1441.546226903496
 30
0.0
  0
VERTEX
  5
670
  8
LAYER_1
 10
929.3481320399065
 20
1441.570957660399
 30
0.0
  0
VERTEX
  5
671
  8
LAYER_1
 10
927.7246495998622
 20
1441.586726350232
 30
0.0
  0
VERTEX
  5
672
  8
LAYER_1
 10
926.0949144004662
 20
1441.593529210199
 30
0.0
  0
VERTEX
  5
673
  8
LAYER_1
 10
924.4589918913471
 20
1441.591362477503
 30
0.0
  0
VERTEX
  5
674
  8
LAYER_1
 10
922.8169475221328
 20
1441.580222389349
 30
0.0
  0
VERTEX
  5
675
  8
LAYER_1
 10
921.1688467424516
 20
1441.56010518294
 30
0.0
  0
VERTEX
  5
676
  8
LAYER_1
 10
919.5147550019319
 20
1441.531007095481
 30
0.0
  0
VERTEX
  5
677
  8
LAYER_1
 10
917.8547377502018
 20
1441.492924364175
 30
0.0
  0
VERTEX
  5
678
  8
LAYER_1
 10
916.1888604368899
 20
1441.445853226226
 30
0.0
  0
VERTEX
  5
679
  8
LAYER_1
 10
914.517188511624
 20
1441.389789918838
 30
0.0
  0
VERTEX
  5
67A
  8
LAYER_1
 10
912.8397874240325
 20
1441.324730679215
 30
0.0
  0
VERTEX
  5
67B
  8
LAYER_1
 10
911.1567226237437
 20
1441.25067174456
 30
0.0
  0
VERTEX
  5
67C
  8
LAYER_1
 10
909.4680595603859
 20
1441.167609352078
 30
0.0
  0
VERTEX
  5
67D
  8
LAYER_1
 10
907.7738636835873
 20
1441.075539738972
 30
0.0
  0
VERTEX
  5
67E
  8
LAYER_1
 10
906.074200442976
 20
1440.974459142447
 30
0.0
  0
VERTEX
  5
67F
  8
LAYER_1
 10
904.3691352881804
 20
1440.864363799705
 30
0.0
  0
VERTEX
  5
680
  8
LAYER_1
 10
902.6587336688287
 20
1440.745249947952
 30
0.0
  0
VERTEX
  5
681
  8
LAYER_1
 10
900.9430610345494
 20
1440.61711382439
 30
0.0
  0
VERTEX
  5
682
  8
LAYER_1
 10
899.2221828349701
 20
1440.479951666225
 30
0.0
  0
VERTEX
  5
683
  8
LAYER_1
 10
897.4961645197195
 20
1440.333759710659
 30
0.0
  0
VERTEX
  5
684
  8
LAYER_1
 10
895.7650715384261
 20
1440.178534194896
 30
0.0
  0
VERTEX
  5
685
  8
LAYER_1
 10
894.0289693407176
 20
1440.014271356141
 30
0.0
  0
VERTEX
  5
686
  8
LAYER_1
 10
892.2879233762227
 20
1439.840967431597
 30
0.0
  0
VERTEX
  5
687
  8
LAYER_1
 10
890.5419990945694
 20
1439.658618658468
 30
0.0
  0
VERTEX
  5
688
  8
LAYER_1
 10
888.7912619453859
 20
1439.467221273958
 30
0.0
  0
VERTEX
  5
689
  8
LAYER_1
 10
887.0357773783006
 20
1439.266771515271
 30
0.0
  0
VERTEX
  5
68A
  8
LAYER_1
 10
885.2756108429418
 20
1439.057265619611
 30
0.0
  0
VERTEX
  5
68B
  8
LAYER_1
 10
883.5108277889376
 20
1438.838699824181
 30
0.0
  0
VERTEX
  5
68C
  8
LAYER_1
 10
881.7414936659162
 20
1438.611070366186
 30
0.0
  0
VERTEX
  5
68D
  8
LAYER_1
 10
879.967673923506
 20
1438.374373482829
 30
0.0
  0
VERTEX
  5
68E
  8
LAYER_1
 10
878.1894340113352
 20
1438.128605411314
 30
0.0
  0
VERTEX
  5
68F
  8
LAYER_1
 10
876.406839379032
 20
1437.873762388846
 30
0.0
  0
VERTEX
  5
690
  8
LAYER_1
 10
874.6199554762246
 20
1437.609840652627
 30
0.0
  0
VERTEX
  5
691
  8
LAYER_1
 10
872.8288477525414
 20
1437.336836439862
 30
0.0
  0
VERTEX
  5
692
  8
LAYER_1
 10
871.0335816576106
 20
1437.054745987754
 30
0.0
  0
VERTEX
  5
693
  8
LAYER_1
 10
869.2342226410603
 20
1436.763565533509
 30
0.0
  0
VERTEX
  5
694
  8
LAYER_1
 10
867.4308361525191
 20
1436.463291314328
 30
0.0
  0
VERTEX
  5
695
  8
LAYER_1
 10
865.6234876416149
 20
1436.153919567418
 30
0.0
  0
VERTEX
  5
696
  8
LAYER_1
 10
863.8122425579762
 20
1435.83544652998
 30
0.0
  0
VERTEX
  5
697
  8
LAYER_1
 10
861.997166351231
 20
1435.507868439219
 30
0.0
  0
VERTEX
  5
698
  8
LAYER_1
 10
860.1783244710077
 20
1435.171181532339
 30
0.0
  0
VERTEX
  5
699
  8
LAYER_1
 10
858.3557823669345
 20
1434.825382046544
 30
0.0
  0
VERTEX
  5
69A
  8
LAYER_1
 10
856.5296054886396
 20
1434.470466219037
 30
0.0
  0
VERTEX
  5
69B
  8
LAYER_1
 10
854.6998592857514
 20
1434.106430287024
 30
0.0
  0
VERTEX
  5
69C
  8
LAYER_1
 10
852.8666092078979
 20
1433.733270487706
 30
0.0
  0
VERTEX
  5
69D
  8
LAYER_1
 10
851.0299207047076
 20
1433.350983058289
 30
0.0
  0
VERTEX
  5
69E
  8
LAYER_1
 10
849.1898592258087
 20
1432.959564235975
 30
0.0
  0
VERTEX
  5
69F
  8
LAYER_1
 10
847.3464902208294
 20
1432.55901025797
 30
0.0
  0
VERTEX
  5
6A0
  8
LAYER_1
 10
845.499879139398
 20
1432.149317361477
 30
0.0
  0
VERTEX
  5
6A1
  8
LAYER_1
 10
843.6500914311425
 20
1431.7304817837
 30
0.0
  0
VERTEX
  5
6A2
  8
LAYER_1
 10
841.7971925456916
 20
1431.302499761842
 30
0.0
  0
VERTEX
  5
6A3
  8
LAYER_1
 10
839.9412479326731
 20
1430.865367533107
 30
0.0
  0
VERTEX
  5
6A4
  8
LAYER_1
 10
838.0823230417155
 20
1430.4190813347
 30
0.0
  0
VERTEX
  5
6A5
  8
LAYER_1
 10
836.2204833224471
 20
1429.963637403825
 30
0.0
  0
VERTEX
  5
6A6
  8
LAYER_1
 10
834.3557942244959
 20
1429.499031977684
 30
0.0
  0
VERTEX
  5
6A7
  8
LAYER_1
 10
832.4883211974902
 20
1429.025261293482
 30
0.0
  0
VERTEX
  5
6A8
  8
LAYER_1
 10
830.6181296910586
 20
1428.542321588423
 30
0.0
  0
VERTEX
  5
6A9
  8
LAYER_1
 10
828.7452851548289
 20
1428.050209099711
 30
0.0
  0
VERTEX
  5
6AA
  8
LAYER_1
 10
826.8698530384295
 20
1427.54892006455
 30
0.0
  0
VERTEX
  5
6AB
  8
LAYER_1
 10
826.0054507834099
 20
1422.261876018448
 30
0.0
  0
VERTEX
  5
6AC
  8
LAYER_1
 10
825.1231950232199
 20
1416.97775521052
 30
0.0
  0
VERTEX
  5
6AD
  8
LAYER_1
 10
824.2230933647742
 20
1411.696605201972
 30
0.0
  0
VERTEX
  5
6AE
  8
LAYER_1
 10
823.3051534149879
 20
1406.418473554015
 30
0.0
  0
VERTEX
  5
6AF
  8
LAYER_1
 10
822.3693827807758
 20
1401.143407827856
 30
0.0
  0
VERTEX
  5
6B0
  8
LAYER_1
 10
821.4157890690528
 20
1395.871455584706
 30
0.0
  0
VERTEX
  5
6B1
  8
LAYER_1
 10
820.4443798867339
 20
1390.602664385773
 30
0.0
  0
VERTEX
  5
6B2
  8
LAYER_1
 10
819.4551628407337
 20
1385.337081792266
 30
0.0
  0
VERTEX
  5
6B3
  8
LAYER_1
 10
818.4481455379673
 20
1380.074755365395
 30
0.0
  0
VERTEX
  5
6B4
  8
LAYER_1
 10
817.4233355853494
 20
1374.815732666367
 30
0.0
  0
VERTEX
  5
6B5
  8
LAYER_1
 10
816.3807405897951
 20
1369.560061256392
 30
0.0
  0
VERTEX
  5
6B6
  8
LAYER_1
 10
815.3203681582191
 20
1364.30778869668
 30
0.0
  0
VERTEX
  5
6B7
  8
LAYER_1
 10
814.2422258975365
 20
1359.058962548438
 30
0.0
  0
VERTEX
  5
6B8
  8
LAYER_1
 10
813.146321414662
 20
1353.813630372877
 30
0.0
  0
VERTEX
  5
6B9
  8
LAYER_1
 10
812.0326623165105
 20
1348.571839731205
 30
0.0
  0
VERTEX
  5
6BA
  8
LAYER_1
 10
810.9012562099969
 20
1343.333638184631
 30
0.0
  0
VERTEX
  5
6BB
  8
LAYER_1
 10
809.752110702036
 20
1338.099073294365
 30
0.0
  0
VERTEX
  5
6BC
  8
LAYER_1
 10
808.5852333995429
 20
1332.868192621614
 30
0.0
  0
VERTEX
  5
6BD
  8
LAYER_1
 10
807.4006319094324
 20
1327.641043727589
 30
0.0
  0
VERTEX
  5
6BE
  8
LAYER_1
 10
806.1983138386194
 20
1322.417674173498
 30
0.0
  0
VERTEX
  5
6BF
  8
LAYER_1
 10
804.9782867940187
 20
1317.19813152055
 30
0.0
  0
VERTEX
  5
6C0
  8
LAYER_1
 10
803.7405583825453
 20
1311.982463329954
 30
0.0
  0
VERTEX
  5
6C1
  8
LAYER_1
 10
802.4851362111137
 20
1306.770717162919
 30
0.0
  0
VERTEX
  5
6C2
  8
LAYER_1
 10
801.2120278866394
 20
1301.562940580655
 30
0.0
  0
VERTEX
  5
6C3
  8
LAYER_1
 10
799.9212410160369
 20
1296.35918114437
 30
0.0
  0
VERTEX
  5
6C4
  8
LAYER_1
 10
798.612783206221
 20
1291.159486415273
 30
0.0
  0
VERTEX
  5
6C5
  8
LAYER_1
 10
797.2866620641068
 20
1285.963903954573
 30
0.0
  0
VERTEX
  5
6C6
  8
LAYER_1
 10
795.9428851966093
 20
1280.772481323479
 30
0.0
  0
VERTEX
  5
6C7
  8
LAYER_1
 10
794.581460210643
 20
1275.585266083201
 30
0.0
  0
VERTEX
  5
6C8
  8
LAYER_1
 10
793.202394713123
 20
1270.402305794947
 30
0.0
  0
VERTEX
  5
6C9
  8
LAYER_1
 10
791.8056963109642
 20
1265.223648019926
 30
0.0
  0
VERTEX
  5
6CA
  8
LAYER_1
 10
790.3913726110816
 20
1260.049340319347
 30
0.0
  0
VERTEX
  5
6CB
  8
LAYER_1
 10
788.9594312203898
 20
1254.879430254419
 30
0.0
  0
VERTEX
  5
6CC
  8
LAYER_1
 10
787.5098797458038
 20
1249.713965386352
 30
0.0
  0
VERTEX
  5
6CD
  8
LAYER_1
 10
786.0427257942385
 20
1244.552993276354
 30
0.0
  0
VERTEX
  5
6CE
  8
LAYER_1
 10
784.5579769726089
 20
1239.396561485634
 30
0.0
  0
VERTEX
  5
6CF
  8
LAYER_1
 10
783.0556408878297
 20
1234.244717575401
 30
0.0
  0
VERTEX
  5
6D0
  8
LAYER_1
 10
781.5357251468158
 20
1229.097509106865
 30
0.0
  0
VERTEX
  5
6D1
  8
LAYER_1
 10
779.9982373564822
 20
1223.954983641234
 30
0.0
  0
VERTEX
  5
6D2
  8
LAYER_1
 10
778.4431851237437
 20
1218.817188739717
 30
0.0
  0
VERTEX
  5
6D3
  8
LAYER_1
 10
776.8705760555152
 20
1213.684171963524
 30
0.0
  0
VERTEX
  5
6D4
  8
LAYER_1
 10
775.2804177587116
 20
1208.555980873862
 30
0.0
  0
VERTEX
  5
6D5
  8
LAYER_1
 10
773.6727178402477
 20
1203.432663031942
 30
0.0
  0
VERTEX
  5
6D6
  8
LAYER_1
 10
772.0474839070387
 20
1198.314265998972
 30
0.0
  0
VERTEX
  5
6D7
  8
LAYER_1
 10
770.404723565999
 20
1193.200837336162
 30
0.0
  0
VERTEX
  5
6D8
  8
LAYER_1
 10
768.7444444240438
 20
1188.092424604719
 30
0.0
  0
VERTEX
  5
6D9
  8
LAYER_1
 10
767.066654088088
 20
1182.989075365855
 30
0.0
  0
VERTEX
  5
6DA
  8
LAYER_1
 10
765.3713601650461
 20
1177.890837180776
 30
0.0
  0
VERTEX
  5
6DB
  8
LAYER_1
 10
763.6585702618333
 20
1172.797757610693
 30
0.0
  0
VERTEX
  5
6DC
  8
LAYER_1
 10
761.9282919853647
 20
1167.709884216813
 30
0.0
  0
VERTEX
  5
6DD
  8
LAYER_1
 10
760.1805329425549
 20
1162.627264560347
 30
0.0
  0
VERTEX
  5
6DE
  8
LAYER_1
 10
758.4153007403188
 20
1157.549946202504
 30
0.0
  0
VERTEX
  5
6DF
  8
LAYER_1
 10
756.6326029855712
 20
1152.477976704492
 30
0.0
  0
VERTEX
  5
6E0
  8
LAYER_1
 10
754.8324472852272
 20
1147.41140362752
 30
0.0
  0
VERTEX
  5
6E1
  8
LAYER_1
 10
753.0148412462015
 20
1142.350274532797
 30
0.0
  0
VERTEX
  5
6E2
  8
LAYER_1
 10
751.1797924754092
 20
1137.294636981533
 30
0.0
  0
VERTEX
  5
6E3
  8
LAYER_1
 10
749.3273085797649
 20
1132.244538534936
 30
0.0
  0
VERTEX
  5
6E4
  8
LAYER_1
 10
747.4573971661837
 20
1127.200026754215
 30
0.0
  0
VERTEX
  5
6E5
  8
LAYER_1
 10
745.5700658415803
 20
1122.16114920058
 30
0.0
  0
VERTEX
  5
6E6
  8
LAYER_1
 10
743.6653222128698
 20
1117.127953435239
 30
0.0
  0
VERTEX
  5
6E7
  8
LAYER_1
 10
741.743173886967
 20
1112.100487019401
 30
0.0
  0
VERTEX
  5
6E8
  8
LAYER_1
 10
739.8036284707866
 20
1107.078797514275
 30
0.0
  0
VERTEX
  5
6E9
  8
LAYER_1
 10
737.8466935712438
 20
1102.062932481072
 30
0.0
  0
VERTEX
  5
6EA
  8
LAYER_1
 10
735.8723767952532
 20
1097.052939480998
 30
0.0
  0
VERTEX
  5
6EB
  8
LAYER_1
 10
737.7493628291321
 20
1097.298110938661
 30
0.0
  0
VERTEX
  5
6EC
  8
LAYER_1
 10
739.6313556304096
 20
1097.553466338221
 30
0.0
  0
VERTEX
  5
6ED
  8
LAYER_1
 10
741.5182770949955
 20
1097.819010107001
 30
0.0
  0
VERTEX
  5
6EE
  8
LAYER_1
 10
743.410049118799
 20
1098.094746672326
 30
0.0
  0
VERTEX
  5
6EF
  8
LAYER_1
 10
745.3065935977297
 20
1098.38068046152
 30
0.0
  0
VERTEX
  5
6F0
  8
LAYER_1
 10
747.2078324276972
 20
1098.676815901908
 30
0.0
  0
VERTEX
  5
6F1
  8
LAYER_1
 10
749.113687504611
 20
1098.983157420815
 30
0.0
  0
VERTEX
  5
6F2
  8
LAYER_1
 10
751.0240807243806
 20
1099.299709445565
 30
0.0
  0
VERTEX
  5
6F3
  8
LAYER_1
 10
752.9389339829155
 20
1099.626476403484
 30
0.0
  0
VERTEX
  5
6F4
  8
LAYER_1
 10
754.8581691761253
 20
1099.963462721894
 30
0.0
  0
VERTEX
  5
6F5
  8
LAYER_1
 10
756.7817081999195
 20
1100.310672828122
 30
0.0
  0
VERTEX
  5
6F6
  8
LAYER_1
 10
758.7094729502076
 20
1100.668111149492
 30
0.0
  0
VERTEX
  5
6F7
  8
LAYER_1
 10
760.641385322899
 20
1101.035782113328
 30
0.0
  0
VERTEX
  5
6F8
  8
LAYER_1
 10
762.5773672139034
 20
1101.413690146956
 30
0.0
  0
VERTEX
  5
6F9
  8
LAYER_1
 10
764.5173405191301
 20
1101.801839677698
 30
0.0
  0
VERTEX
  5
6FA
  8
LAYER_1
 10
766.4612271344888
 20
1102.200235132881
 30
0.0
  0
VERTEX
  5
6FB
  8
LAYER_1
 10
768.4089489558891
 20
1102.608880939829
 30
0.0
  0
VERTEX
  5
6FC
  8
LAYER_1
 10
770.3604278792403
 20
1103.027781525866
 30
0.0
  0
VERTEX
  5
6FD
  8
LAYER_1
 10
772.3155858004521
 20
1103.456941318317
 30
0.0
  0
VERTEX
  5
6FE
  8
LAYER_1
 10
774.274344615434
 20
1103.896364744506
 30
0.0
  0
VERTEX
  5
6FF
  8
LAYER_1
 10
776.2366262200953
 20
1104.346056231759
 30
0.0
  0
VERTEX
  5
700
  8
LAYER_1
 10
778.2023525103459
 20
1104.8060202074
 30
0.0
  0
VERTEX
  5
701
  8
LAYER_1
 10
780.171445382095
 20
1105.276261098753
 30
0.0
  0
VERTEX
  5
702
  8
LAYER_1
 10
782.1438267312521
 20
1105.756783333143
 30
0.0
  0
VERTEX
  5
703
  8
LAYER_1
 10
784.1194184537269
 20
1106.247591337895
 30
0.0
  0
VERTEX
  5
704
  8
LAYER_1
 10
786.0981424454291
 20
1106.748689540333
 30
0.0
  0
VERTEX
  5
705
  8
LAYER_1
 10
788.0799206022679
 20
1107.260082367782
 30
0.0
  0
VERTEX
  5
706
  8
LAYER_1
 10
790.0646748201528
 20
1107.781774247566
 30
0.0
  0
VERTEX
  5
707
  8
LAYER_1
 10
792.0523269949936
 20
1108.31376960701
 30
0.0
  0
VERTEX
  5
708
  8
LAYER_1
 10
794.0427990226995
 20
1108.85607287344
 30
0.0
  0
VERTEX
  5
709
  8
LAYER_1
 10
796.0360127991803
 20
1109.408688474178
 30
0.0
  0
VERTEX
  5
70A
  8
LAYER_1
 10
798.0318902203453
 20
1109.97162083655
 30
0.0
  0
VERTEX
  5
70B
  8
LAYER_1
 10
800.0303531821041
 20
1110.544874387881
 30
0.0
  0
VERTEX
  5
70C
  8
LAYER_1
 10
802.0313235803665
 20
1111.128453555494
 30
0.0
  0
VERTEX
  5
70D
  8
LAYER_1
 10
804.0347233110415
 20
1111.722362766715
 30
0.0
  0
VERTEX
  5
70E
  8
LAYER_1
 10
806.0404742700389
 20
1112.326606448869
 30
0.0
  0
VERTEX
  5
70F
  8
LAYER_1
 10
808.0484983532682
 20
1112.94118902928
 30
0.0
  0
VERTEX
  5
710
  8
LAYER_1
 10
810.0587174566389
 20
1113.566114935272
 30
0.0
  0
VERTEX
  5
711
  8
LAYER_1
 10
812.0710534760606
 20
1114.20138859417
 30
0.0
  0
VERTEX
  5
712
  8
LAYER_1
 10
814.0854283074427
 20
1114.847014433299
 30
0.0
  0
VERTEX
  5
713
  8
LAYER_1
 10
816.1017638466949
 20
1115.502996879983
 30
0.0
  0
VERTEX
  5
714
  8
LAYER_1
 10
818.1199819897265
 20
1116.169340361547
 30
0.0
  0
VERTEX
  5
715
  8
LAYER_1
 10
820.1400046324474
 20
1116.846049305316
 30
0.0
  0
VERTEX
  5
716
  8
LAYER_1
 10
822.1617536707665
 20
1117.533128138614
 30
0.0
  0
VERTEX
  5
717
  8
LAYER_1
 10
824.1851510005938
 20
1118.230581288765
 30
0.0
  0
VERTEX
  5
718
  8
LAYER_1
 10
826.2101185178387
 20
1118.938413183095
 30
0.0
  0
VERTEX
  5
719
  8
LAYER_1
 10
828.2365781184106
 20
1119.656628248928
 30
0.0
  0
VERTEX
  5
71A
  8
LAYER_1
 10
830.2644516982192
 20
1120.385230913588
 30
0.0
  0
VERTEX
  5
71B
  8
LAYER_1
 10
832.2936611531738
 20
1121.124225604401
 30
0.0
  0
VERTEX
  5
71C
  8
LAYER_1
 10
834.3241283791842
 20
1121.87361674869
 30
0.0
  0
VERTEX
  5
71D
  8
LAYER_1
 10
836.3557752721599
 20
1122.633408773781
 30
0.0
  0
VERTEX
  5
71E
  8
LAYER_1
 10
838.3885237280102
 20
1123.403606106998
 30
0.0
  0
VERTEX
  5
71F
  8
LAYER_1
 10
840.4222956426448
 20
1124.184213175665
 30
0.0
  0
VERTEX
  5
720
  8
LAYER_1
 10
842.4570129119732
 20
1124.975234407108
 30
0.0
  0
VERTEX
  5
721
  8
LAYER_1
 10
844.4925974319046
 20
1125.77667422865
 30
0.0
  0
VERTEX
  5
722
  8
LAYER_1
 10
846.5289710983491
 20
1126.588537067617
 30
0.0
  0
VERTEX
  5
723
  8
LAYER_1
 10
848.5660558072157
 20
1127.410827351333
 30
0.0
  0
VERTEX
  5
724
  8
LAYER_1
 10
850.6037734544142
 20
1128.243549507122
 30
0.0
  0
VERTEX
  5
725
  8
LAYER_1
 10
852.642045935854
 20
1129.086707962309
 30
0.0
  0
VERTEX
  5
726
  8
LAYER_1
 10
854.6807951474448
 20
1129.94030714422
 30
0.0
  0
VERTEX
  5
727
  8
LAYER_1
 10
856.7199429850959
 20
1130.804351480178
 30
0.0
  0
VERTEX
  5
728
  8
LAYER_1
 10
858.7594113447169
 20
1131.678845397507
 30
0.0
  0
VERTEX
  5
729
  8
LAYER_1
 10
860.7991221222173
 20
1132.563793323534
 30
0.0
  0
VERTEX
  5
72A
  8
LAYER_1
 10
862.8389972135069
 20
1133.459199685582
 30
0.0
  0
VERTEX
  5
72B
  8
LAYER_1
 10
863.2097342649181
 20
1138.374336837534
 30
0.0
  0
VERTEX
  5
72C
  8
LAYER_1
 10
863.6063308339928
 20
1143.288281742022
 30
0.0
  0
VERTEX
  5
72D
  8
LAYER_1
 10
864.0287930434613
 20
1148.200930325198
 30
0.0
  0
VERTEX
  5
72E
  8
LAYER_1
 10
864.4771270160543
 20
1153.112178513219
 30
0.0
  0
VERTEX
  5
72F
  8
LAYER_1
 10
864.951338874502
 20
1158.021922232236
 30
0.0
  0
VERTEX
  5
730
  8
LAYER_1
 10
865.4514347415347
 20
1162.930057408406
 30
0.0
  0
VERTEX
  5
731
  8
LAYER_1
 10
865.9774207398834
 20
1167.836479967882
 30
0.0
  0
VERTEX
  5
732
  8
LAYER_1
 10
866.5293029922782
 20
1172.741085836818
 30
0.0
  0
VERTEX
  5
733
  8
LAYER_1
 10
867.1070876214494
 20
1177.643770941368
 30
0.0
  0
VERTEX
  5
734
  8
LAYER_1
 10
867.7107807501277
 20
1182.544431207687
 30
0.0
  0
VERTEX
  5
735
  8
LAYER_1
 10
868.3403885010434
 20
1187.44296256193
 30
0.0
  0
VERTEX
  5
736
  8
LAYER_1
 10
868.9959169969271
 20
1192.33926093025
 30
0.0
  0
VERTEX
  5
737
  8
LAYER_1
 10
869.6773723605093
 20
1197.233222238801
 30
0.0
  0
VERTEX
  5
738
  8
LAYER_1
 10
870.3847607145199
 20
1202.124742413738
 30
0.0
  0
VERTEX
  5
739
  8
LAYER_1
 10
871.1180881816899
 20
1207.013717381214
 30
0.0
  0
VERTEX
  5
73A
  8
LAYER_1
 10
871.8773608847496
 20
1211.900043067385
 30
0.0
  0
VERTEX
  5
73B
  8
LAYER_1
 10
872.6625849464294
 20
1216.783615398404
 30
0.0
  0
VERTEX
  5
73C
  8
LAYER_1
 10
873.4737664894598
 20
1221.664330300426
 30
0.0
  0
VERTEX
  5
73D
  8
LAYER_1
 10
874.3109116365712
 20
1226.542083699605
 30
0.0
  0
VERTEX
  5
73E
  8
LAYER_1
 10
875.1740265104941
 20
1231.416771522095
 30
0.0
  0
VERTEX
  5
73F
  8
LAYER_1
 10
876.0631172339589
 20
1236.28828969405
 30
0.0
  0
VERTEX
  5
740
  8
LAYER_1
 10
876.9781899296961
 20
1241.156534141624
 30
0.0
  0
VERTEX
  5
741
  8
LAYER_1
 10
877.9192507204361
 20
1246.021400790973
 30
0.0
  0
VERTEX
  5
742
  8
LAYER_1
 10
878.8863057289093
 20
1250.882785568249
 30
0.0
  0
VERTEX
  5
743
  8
LAYER_1
 10
879.8793610778462
 20
1255.740584399608
 30
0.0
  0
VERTEX
  5
744
  8
LAYER_1
 10
880.8984228899772
 20
1260.594693211202
 30
0.0
  0
VERTEX
  5
745
  8
LAYER_1
 10
881.9434972880326
 20
1265.445007929188
 30
0.0
  0
VERTEX
  5
746
  8
LAYER_1
 10
883.0145903947433
 20
1270.291424479719
 30
0.0
  0
VERTEX
  5
747
  8
LAYER_1
 10
884.1117083328395
 20
1275.133838788949
 30
0.0
  0
VERTEX
  5
748
  8
LAYER_1
 10
885.2348572250515
 20
1279.972146783032
 30
0.0
  0
VERTEX
  5
749
  8
LAYER_1
 10
886.38404319411
 20
1284.806244388122
 30
0.0
  0
VERTEX
  5
74A
  8
LAYER_1
 10
887.5592723627451
 20
1289.636027530375
 30
0.0
  0
VERTEX
  5
74B
  8
LAYER_1
 10
888.7605508536876
 20
1294.461392135943
 30
0.0
  0
VERTEX
  5
74C
  8
LAYER_1
 10
889.9878847896678
 20
1299.282234130982
 30
0.0
  0
VERTEX
  5
74D
  8
LAYER_1
 10
891.2412802934159
 20
1304.098449441645
 30
0.0
  0
VERTEX
  5
74E
  8
LAYER_1
 10
892.5207434876627
 20
1308.909933994087
 30
0.0
  0
VERTEX
  5
74F
  8
LAYER_1
 10
893.8262804951387
 20
1313.716583714462
 30
0.0
  0
VERTEX
  5
750
  8
LAYER_1
 10
895.1578974385741
 20
1318.518294528924
 30
0.0
  0
VERTEX
  5
751
  8
LAYER_1
 10
896.5156004406994
 20
1323.314962363627
 30
0.0
  0
VERTEX
  5
752
  8
LAYER_1
 10
897.899395624245
 20
1328.106483144727
 30
0.0
  0
VERTEX
  5
753
  8
LAYER_1
 10
899.3092891119416
 20
1332.892752798376
 30
0.0
  0
VERTEX
  5
754
  8
LAYER_1
 10
900.7452870265192
 20
1337.673667250729
 30
0.0
  0
VERTEX
  5
755
  8
LAYER_1
 10
902.2073954907086
 20
1342.44912242794
 30
0.0
  0
VERTEX
  5
756
  8
LAYER_1
 10
903.6956206272401
 20
1347.219014256164
 30
0.0
  0
VERTEX
  5
757
  8
LAYER_1
 10
905.2099685588444
 20
1351.983238661555
 30
0.0
  0
VERTEX
  5
758
  8
LAYER_1
 10
906.7504454082516
 20
1356.741691570267
 30
0.0
  0
VERTEX
  5
759
  8
LAYER_1
 10
908.3170572981921
 20
1361.494268908454
 30
0.0
  0
VERTEX
  5
75A
  8
LAYER_1
 10
909.9098103513968
 20
1366.24086660227
 30
0.0
  0
VERTEX
  5
75B
  8
LAYER_1
 10
911.5287106905959
 20
1370.981380577871
 30
0.0
  0
VERTEX
  5
75C
  8
LAYER_1
 10
913.1737644385196
 20
1375.715706761409
 30
0.0
  0
VERTEX
  5
75D
  8
LAYER_1
 10
914.8449777178987
 20
1380.443741079039
 30
0.0
  0
VERTEX
  5
75E
  8
LAYER_1
 10
916.5423566514635
 20
1385.165379456916
 30
0.0
  0
VERTEX
  5
75F
  8
LAYER_1
 10
918.2659073619443
 20
1389.880517821193
 30
0.0
  0
VERTEX
  5
760
  8
LAYER_1
 10
920.0156359720719
 20
1394.589052098025
 30
0.0
  0
VERTEX
  5
761
  8
LAYER_1
 10
921.7915486045765
 20
1399.290878213566
 30
0.0
  0
VERTEX
  5
762
  8
LAYER_1
 10
923.5936513821885
 20
1403.985892093971
 30
0.0
  0
VERTEX
  5
763
  8
LAYER_1
 10
925.4219504276385
 20
1408.673989665393
 30
0.0
  0
VERTEX
  5
764
  8
LAYER_1
 10
927.2764518636568
 20
1413.355066853987
 30
0.0
  0
VERTEX
  5
765
  8
LAYER_1
 10
929.157161812974
 20
1418.029019585907
 30
0.0
  0
VERTEX
  5
766
  8
LAYER_1
 10
931.0640863983206
 20
1422.695743787307
 30
0.0
  0
VERTEX
  5
767
  8
LAYER_1
 10
932.9972317424267
 20
1427.355135384341
 30
0.0
  0
VERTEX
  5
768
  8
LAYER_1
 10
934.9566039680233
 20
1432.007090303164
 30
0.0
  0
VERTEX
  5
769
  8
LAYER_1
 10
936.9422091978402
 20
1436.651504469931
 30
0.0
  0
SEQEND
  5
D1C
  8
LAYER_1
  0
POLYLINE
  5
7E
  8
LAYER_1
 66
     1
 10
0.0
 20
0.0
 30
0.0
  0
VERTEX
  5
76A
  8
LAYER_1
 10
939.3455715969258
 20
1441.270628032103
 30
0.0
  0
VERTEX
  5
76B
  8
LAYER_1
 10
942.1097498030981
 20
1441.1231276628
 30
0.0
  0
VERTEX
  5
76C
  8
LAYER_1
 10
944.8528178223772
 20
1440.948072649105
 30
0.0
  0
VERTEX
  5
76D
  8
LAYER_1
 10
947.5744209541119
 20
1440.745483499863
 30
0.0
  0
VERTEX
  5
76E
  8
LAYER_1
 10
950.2742044976511
 20
1440.515380723923
 30
0.0
  0
VERTEX
  5
76F
  8
LAYER_1
 10
952.9518137523437
 20
1440.257784830133
 30
0.0
  0
VERTEX
  5
770
  8
LAYER_1
 10
955.6068940175385
 20
1439.972716327341
 30
0.0
  0
VERTEX
  5
771
  8
LAYER_1
 10
958.2390905925845
 20
1439.660195724395
 30
0.0
  0
VERTEX
  5
772
  8
LAYER_1
 10
959.5464966523482
 20
1439.493647294378
 30
0.0
  0
VERTEX
  5
773
  8
LAYER_1
 10
960.8480487768306
 20
1439.320243530141
 30
0.0
  0
VERTEX
  5
774
  8
LAYER_1
 10
962.1437026284502
 20
1439.139986995289
 30
0.0
  0
VERTEX
  5
775
  8
LAYER_1
 10
963.4334138696257
 20
1438.952880253429
 30
0.0
  0
VERTEX
  5
776
  8
LAYER_1
 10
964.7171381627758
 20
1438.758925868165
 30
0.0
  0
VERTEX
  5
777
  8
LAYER_1
 10
965.9948311703189
 20
1438.558126403105
 30
0.0
  0
VERTEX
  5
778
  8
LAYER_1
 10
967.2664485546737
 20
1438.350484421854
 30
0.0
  0
VERTEX
  5
779
  8
LAYER_1
 10
968.5319459782588
 20
1438.136002488018
 30
0.0
  0
VERTEX
  5
77A
  8
LAYER_1
 10
969.7912791034928
 20
1437.914683165203
 30
0.0
  0
VERTEX
  5
77B
  8
LAYER_1
 10
971.0444035927944
 20
1437.686529017015
 30
0.0
  0
VERTEX
  5
77C
  8
LAYER_1
 10
972.2912751085821
 20
1437.45154260706
 30
0.0
  0
VERTEX
  5
77D
  8
LAYER_1
 10
973.5318493132746
 20
1437.209726498944
 30
0.0
  0
VERTEX
  5
77E
  8
LAYER_1
 10
974.7660818692906
 20
1436.961083256273
 30
0.0
  0
VERTEX
  5
77F
  8
LAYER_1
 10
975.9939284390483
 20
1436.705615442653
 30
0.0
  0
VERTEX
  5
780
  8
LAYER_1
 10
977.2153446849667
 20
1436.44332562169
 30
0.0
  0
VERTEX
  5
781
  8
LAYER_1
 10
978.4302862694644
 20
1436.17421635699
 30
0.0
  0
VERTEX
  5
782
  8
LAYER_1
 10
979.63870885496
 20
1435.898290212159
 30
0.0
  0
VERTEX
  5
783
  8
LAYER_1
 10
980.8405681038719
 20
1435.615549750802
 30
0.0
  0
VERTEX
  5
784
  8
LAYER_1
 10
982.035819678619
 20
1435.325997536526
 30
0.0
  0
VERTEX
  5
785
  8
LAYER_1
 10
983.2244192416197
 20
1435.029636132937
 30
0.0
  0
VERTEX
  5
786
  8
LAYER_1
 10
984.4063224552926
 20
1434.726468103641
 30
0.0
  0
VERTEX
  5
787
  8
LAYER_1
 10
985.5814849820564
 20
1434.416496012244
 30
0.0
  0
VERTEX
  5
788
  8
LAYER_1
 10
986.7498624843297
 20
1434.099722422351
 30
0.0
  0
VERTEX
  5
789
  8
LAYER_1
 10
987.9114106245313
 20
1433.776149897569
 30
0.0
  0
VERTEX
  5
78A
  8
LAYER_1
 10
989.0660850650794
 20
1433.445781001504
 30
0.0
  0
VERTEX
  5
78B
  8
LAYER_1
 10
990.213841468393
 20
1433.108618297761
 30
0.0
  0
VERTEX
  5
78C
  8
LAYER_1
 10
991.3546354968905
 20
1432.764664349947
 30
0.0
  0
VERTEX
  5
78D
  8
LAYER_1
 10
992.4884228129906
 20
1432.413921721667
 30
0.0
  0
VERTEX
  5
78E
  8
LAYER_1
 10
993.6151590791119
 20
1432.056392976528
 30
0.0
  0
VERTEX
  5
78F
  8
LAYER_1
 10
994.734799957673
 20
1431.692080678136
 30
0.0
  0
VERTEX
  5
790
  8
LAYER_1
 10
995.8473011110924
 20
1431.320987390096
 30
0.0
  0
VERTEX
  5
791
  8
LAYER_1
 10
996.952618201789
 20
1430.943115676014
 30
0.0
  0
VERTEX
  5
792
  8
LAYER_1
 10
998.0507068921812
 20
1430.558468099497
 30
0.0
  0
VERTEX
  5
793
  8
LAYER_1
 10
999.1415228446875
 20
1430.16704722415
 30
0.0
  0
VERTEX
  5
794
  8
LAYER_1
 10
1000.225021721727
 20
1429.768855613579
 30
0.0
  0
VERTEX
  5
795
  8
LAYER_1
 10
1001.301159185717
 20
1429.363895831391
 30
0.0
  0
VERTEX
  5
796
  8
LAYER_1
 10
1002.369890899078
 20
1428.952170441192
 30
0.0
  0
VERTEX
  5
797
  8
LAYER_1
 10
1003.431172524228
 20
1428.533682006586
 30
0.0
  0
VERTEX
  5
798
  8
LAYER_1
 10
1004.484959723585
 20
1428.108433091181
 30
0.0
  0
VERTEX
  5
799
  8
LAYER_1
 10
1005.531208159567
 20
1427.676426258582
 30
0.0
  0
VERTEX
  5
79A
  8
LAYER_1
 10
1006.569873494595
 20
1427.237664072395
 30
0.0
  0
VERTEX
  5
79B
  8
LAYER_1
 10
1007.600911391085
 20
1426.792149096227
 30
0.0
  0
VERTEX
  5
79C
  8
LAYER_1
 10
1008.624277511457
 20
1426.339883893682
 30
0.0
  0
VERTEX
  5
79D
  8
LAYER_1
 10
1009.63992751813
 20
1425.880871028368
 30
0.0
  0
VERTEX
  5
79E
  8
LAYER_1
 10
1010.647817073522
 20
1425.41511306389
 30
0.0
  0
VERTEX
  5
79F
  8
LAYER_1
 10
1011.647901840051
 20
1424.942612563854
 30
0.0
  0
VERTEX
  5
7A0
  8
LAYER_1
 10
1012.640137480136
 20
1424.463372091865
 30
0.0
  0
VERTEX
  5
7A1
  8
LAYER_1
 10
1013.624479656196
 20
1423.977394211532
 30
0.0
  0
VERTEX
  5
7A2
  8
LAYER_1
 10
1014.60088403065
 20
1423.484681486458
 30
0.0
  0
VERTEX
  5
7A3
  8
LAYER_1
 10
1015.569306265916
 20
1422.985236480249
 30
0.0
  0
SEQEND
  5
D1D
  8
LAYER_1
  0
POLYLINE
  5
7F
  8
LAYER_1
 66
     1
 10
0.0
 20
0.0
 30
0.0
 70
     1
  0
VERTEX
  5
7A4
  8
LAYER_1
 10
977.6899943299652
 20
1204.189956514007
 30
0.0
  0
VERTEX
  5
7A5
  8
LAYER_1
 10
977.8304078984182
 20
1207.622018437107
 30
0.0
  0
VERTEX
  5
7A6
  8
LAYER_1
 10
977.9850948066332
 20
1211.0544640171
 30
0.0
  0
VERTEX
  5
7A7
  8
LAYER_1
 10
978.1540655402489
 20
1214.487250083337
 30
0.0
  0
VERTEX
  5
7A8
  8
LAYER_1
 10
978.3373305849037
 20
1217.920333465171
 30
0.0
  0
VERTEX
  5
7A9
  8
LAYER_1
 10
978.534900426236
 20
1221.353670991952
 30
0.0
  0
VERTEX
  5
7AA
  8
LAYER_1
 10
978.7467855498842
 20
1224.787219493033
 30
0.0
  0
VERTEX
  5
7AB
  8
LAYER_1
 10
978.9729964414869
 20
1228.220935797766
 30
0.0
  0
VERTEX
  5
7AC
  8
LAYER_1
 10
979.2135435866824
 20
1231.654776735502
 30
0.0
  0
VERTEX
  5
7AD
  8
LAYER_1
 10
979.468437471109
 20
1235.088699135592
 30
0.0
  0
VERTEX
  5
7AE
  8
LAYER_1
 10
979.7376885804053
 20
1238.52265982739
 30
0.0
  0
VERTEX
  5
7AF
  8
LAYER_1
 10
980.0213074002099
 20
1241.956615640247
 30
0.0
  0
VERTEX
  5
7B0
  8
LAYER_1
 10
980.3193044161611
 20
1245.390523403513
 30
0.0
  0
VERTEX
  5
7B1
  8
LAYER_1
 10
980.6316901138973
 20
1248.824339946542
 30
0.0
  0
VERTEX
  5
7B2
  8
LAYER_1
 10
980.958474979057
 20
1252.258022098685
 30
0.0
  0
VERTEX
  5
7B3
  8
LAYER_1
 10
981.2996694972785
 20
1255.691526689294
 30
0.0
  0
VERTEX
  5
7B4
  8
LAYER_1
 10
981.6552841542004
 20
1259.12481054772
 30
0.0
  0
VERTEX
  5
7B5
  8
LAYER_1
 10
982.0253294354611
 20
1262.557830503315
 30
0.0
  0
VERTEX
  5
7B6
  8
LAYER_1
 10
982.409815826699
 20
1265.990543385431
 30
0.0
  0
VERTEX
  5
7B7
  8
LAYER_1
 10
982.8087538135526
 20
1269.42290602342
 30
0.0
  0
VERTEX
  5
7B8
  8
LAYER_1
 10
983.2221538816602
 20
1272.854875246633
 30
0.0
  0
VERTEX
  5
7B9
  8
LAYER_1
 10
983.6500265166604
 20
1276.286407884422
 30
0.0
  0
VERTEX
  5
7BA
  8
LAYER_1
 10
984.0923822041916
 20
1279.71746076614
 30
0.0
  0
VERTEX
  5
7BB
  8
LAYER_1
 10
984.5492314298922
 20
1283.147990721137
 30
0.0
  0
VERTEX
  5
7BC
  8
LAYER_1
 10
985.0205846794006
 20
1286.577954578766
 30
0.0
  0
VERTEX
  5
7BD
  8
LAYER_1
 10
985.5064524383554
 20
1290.007309168379
 30
0.0
  0
VERTEX
  5
7BE
  8
LAYER_1
 10
986.0068451923948
 20
1293.436011319326
 30
0.0
  0
VERTEX
  5
7BF
  8
LAYER_1
 10
986.5217734271575
 20
1296.864017860961
 30
0.0
  0
VERTEX
  5
7C0
  8
LAYER_1
 10
987.0512476282818
 20
1300.291285622633
 30
0.0
  0
VERTEX
  5
7C1
  8
LAYER_1
 10
987.5952782814061
 20
1303.717771433697
 30
0.0
  0
VERTEX
  5
7C2
  8
LAYER_1
 10
988.153875872169
 20
1307.143432123503
 30
0.0
  0
VERTEX
  5
7C3
  8
LAYER_1
 10
988.7270508862089
 20
1310.568224521402
 30
0.0
  0
VERTEX
  5
7C4
  8
LAYER_1
 10
989.3148138091641
 20
1313.992105456748
 30
0.0
  0
VERTEX
  5
7C5
  8
LAYER_1
 10
989.9171751266731
 20
1317.41503175889
 30
0.0
  0
VERTEX
  5
7C6
  8
LAYER_1
 10
990.5341453243743
 20
1320.836960257182
 30
0.0
  0
VERTEX
  5
7C7
  8
LAYER_1
 10
991.1657348879063
 20
1324.257847780975
 30
0.0
  0
VERTEX
  5
7C8
  8
LAYER_1
 10
991.8119543029075
 20
1327.677651159622
 30
0.0
  0
VERTEX
  5
7C9
  8
LAYER_1
 10
992.4728140550162
 20
1331.096327222472
 30
0.0
  0
VERTEX
  5
7CA
  8
LAYER_1
 10
993.1483246298708
 20
1334.513832798879
 30
0.0
  0
VERTEX
  5
7CB
  8
LAYER_1
 10
993.8384965131099
 20
1337.930124718194
 30
0.0
  0
VERTEX
  5
7CC
  8
LAYER_1
 10
994.543340190372
 20
1341.345159809769
 30
0.0
  0
VERTEX
  5
7CD
  8
LAYER_1
 10
995.2628661472954
 20
1344.758894902955
 30
0.0
  0
VERTEX
  5
7CE
  8
LAYER_1
 10
995.9970848695184
 20
1348.171286827105
 30
0.0
  0
VERTEX
  5
7CF
  8
LAYER_1
 10
996.7460068426798
 20
1351.582292411571
 30
0.0
  0
VERTEX
  5
7D0
  8
LAYER_1
 10
997.5096425524177
 20
1354.991868485703
 30
0.0
  0
VERTEX
  5
7D1
  8
LAYER_1
 10
998.288002484371
 20
1358.399971878853
 30
0.0
  0
VERTEX
  5
7D2
  8
LAYER_1
 10
999.0810971241776
 20
1361.806559420374
 30
0.0
  0
VERTEX
  5
7D3
  8
LAYER_1
 10
999.8889369574762
 20
1365.211587939618
 30
0.0
  0
VERTEX
  5
7D4
  8
LAYER_1
 10
1000.711532469905
 20
1368.615014265936
 30
0.0
  0
VERTEX
  5
7D5
  8
LAYER_1
 10
1001.548894147103
 20
1372.016795228679
 30
0.0
  0
VERTEX
  5
7D6
  8
LAYER_1
 10
1002.401032474708
 20
1375.4168876572
 30
0.0
  0
VERTEX
  5
7D7
  8
LAYER_1
 10
1003.267957938359
 20
1378.81524838085
 30
0.0
  0
VERTEX
  5
7D8
  8
LAYER_1
 10
1004.149681023694
 20
1382.211834228982
 30
0.0
  0
VERTEX
  5
7D9
  8
LAYER_1
 10
1005.046212216352
 20
1385.606602030946
 30
0.0
  0
VERTEX
  5
7DA
  8
LAYER_1
 10
1005.957562001971
 20
1388.999508616095
 30
0.0
  0
VERTEX
  5
7DB
  8
LAYER_1
 10
1006.883740866189
 20
1392.39051081378
 30
0.0
  0
VERTEX
  5
7DC
  8
LAYER_1
 10
1007.824759294645
 20
1395.779565453354
 30
0.0
  0
VERTEX
  5
7DD
  8
LAYER_1
 10
1008.780627772978
 20
1399.166629364167
 30
0.0
  0
VERTEX
  5
7DE
  8
LAYER_1
 10
1009.751356786825
 20
1402.551659375572
 30
0.0
  0
VERTEX
  5
7DF
  8
LAYER_1
 10
1010.736956821826
 20
1405.934612316921
 30
0.0
  0
VERTEX
  5
7E0
  8
LAYER_1
 10
1011.737438363618
 20
1409.315445017565
 30
0.0
  0
VERTEX
  5
7E1
  8
LAYER_1
 10
1012.75281189784
 20
1412.694114306856
 30
0.0
  0
VERTEX
  5
7E2
  8
LAYER_1
 10
1013.783087910131
 20
1416.070577014145
 30
0.0
  0
VERTEX
  5
7E3
  8
LAYER_1
 10
1014.828276886129
 20
1419.444789968785
 30
0.0
  0
VERTEX
  5
7E4
  8
LAYER_1
 10
1015.888389311473
 20
1422.816710000128
 30
0.0
  0
VERTEX
  5
7E5
  8
LAYER_1
 10
1016.770061490467
 20
1422.349149077088
 30
0.0
  0
VERTEX
  5
7E6
  8
LAYER_1
 10
1017.644888361265
 20
1421.875889934599
 30
0.0
  0
VERTEX
  5
7E7
  8
LAYER_1
 10
1018.512835385125
 20
1421.39693459865
 30
0.0
  0
VERTEX
  5
7E8
  8
LAYER_1
 10
1019.373868023306
 20
1420.912285095231
 30
0.0
  0
VERTEX
  5
7E9
  8
LAYER_1
 10
1020.227951737066
 20
1420.421943450331
 30
0.0
  0
VERTEX
  5
7EA
  8
LAYER_1
 10
1021.075051987665
 20
1419.925911689939
 30
0.0
  0
VERTEX
  5
7EB
  8
LAYER_1
 10
1021.91513423636
 20
1419.424191840045
 30
0.0
  0
VERTEX
  5
7EC
  8
LAYER_1
 10
1022.74816394441
 20
1418.916785926639
 30
0.0
  0
VERTEX
  5
7ED
  8
LAYER_1
 10
1023.574106573073
 20
1418.40369597571
 30
0.0
  0
VERTEX
  5
7EE
  8
LAYER_1
 10
1024.392927583609
 20
1417.884924013247
 30
0.0
  0
VERTEX
  5
7EF
  8
LAYER_1
 10
1025.204592437276
 20
1417.36047206524
 30
0.0
  0
VERTEX
  5
7F0
  8
LAYER_1
 10
1026.009066595332
 20
1416.830342157678
 30
0.0
  0
VERTEX
  5
7F1
  8
LAYER_1
 10
1026.806315519036
 20
1416.294536316551
 30
0.0
  0
VERTEX
  5
7F2
  8
LAYER_1
 10
1027.596304669646
 20
1415.753056567848
 30
0.0
  0
VERTEX
  5
7F3
  8
LAYER_1
 10
1028.378999508421
 20
1415.205904937559
 30
0.0
  0
VERTEX
  5
7F4
  8
LAYER_1
 10
1029.15436549662
 20
1414.653083451673
 30
0.0
  0
VERTEX
  5
7F5
  8
LAYER_1
 10
1029.922368095501
 20
1414.09459413618
 30
0.0
  0
VERTEX
  5
7F6
  8
LAYER_1
 10
1030.682972766323
 20
1413.530439017069
 30
0.0
  0
VERTEX
  5
7F7
  8
LAYER_1
 10
1031.436144970344
 20
1412.96062012033
 30
0.0
  0
VERTEX
  5
7F8
  8
LAYER_1
 10
1032.181850168822
 20
1412.385139471951
 30
0.0
  0
VERTEX
  5
7F9
  8
LAYER_1
 10
1032.920053823017
 20
1411.803999097923
 30
0.0
  0
VERTEX
  5
7FA
  8
LAYER_1
 10
1033.650721394187
 20
1411.217201024235
 30
0.0
  0
VERTEX
  5
7FB
  8
LAYER_1
 10
1034.37381834359
 20
1410.624747276876
 30
0.0
  0
VERTEX
  5
7FC
  8
LAYER_1
 10
1035.089310132485
 20
1410.026639881837
 30
0.0
  0
VERTEX
  5
7FD
  8
LAYER_1
 10
1035.797162222131
 20
1409.422880865106
 30
0.0
  0
VERTEX
  5
7FE
  8
LAYER_1
 10
1036.497340073786
 20
1408.813472252672
 30
0.0
  0
VERTEX
  5
7FF
  8
LAYER_1
 10
1037.189809148709
 20
1408.198416070526
 30
0.0
  0
VERTEX
  5
800
  8
LAYER_1
 10
1037.874534908158
 20
1407.577714344656
 30
0.0
  0
VERTEX
  5
801
  8
LAYER_1
 10
1038.551482813391
 20
1406.951369101053
 30
0.0
  0
VERTEX
  5
802
  8
LAYER_1
 10
1039.220618325668
 20
1406.319382365706
 30
0.0
  0
VERTEX
  5
803
  8
LAYER_1
 10
1039.881906906247
 20
1405.681756164604
 30
0.0
  0
VERTEX
  5
804
  8
LAYER_1
 10
1040.535314016386
 20
1405.038492523736
 30
0.0
  0
VERTEX
  5
805
  8
LAYER_1
 10
1041.180805117345
 20
1404.389593469092
 30
0.0
  0
VERTEX
  5
806
  8
LAYER_1
 10
1041.81834567038
 20
1403.735061026662
 30
0.0
  0
VERTEX
  5
807
  8
LAYER_1
 10
1042.447901136753
 20
1403.074897222435
 30
0.0
  0
VERTEX
  5
808
  8
LAYER_1
 10
1043.06943697772
 20
1402.409104082401
 30
0.0
  0
VERTEX
  5
809
  8
LAYER_1
 10
1043.68291865454
 20
1401.737683632548
 30
0.0
  0
VERTEX
  5
80A
  8
LAYER_1
 10
1044.288311628472
 20
1401.060637898867
 30
0.0
  0
VERTEX
  5
80B
  8
LAYER_1
 10
1044.885581360774
 20
1400.377968907346
 30
0.0
  0
VERTEX
  5
80C
  8
LAYER_1
 10
1045.474693312705
 20
1399.689678683976
 30
0.0
  0
VERTEX
  5
80D
  8
LAYER_1
 10
1046.055612945524
 20
1398.995769254746
 30
0.0
  0
VERTEX
  5
80E
  8
LAYER_1
 10
1046.628305720488
 20
1398.296242645645
 30
0.0
  0
VERTEX
  5
80F
  8
LAYER_1
 10
1047.192737098857
 20
1397.591100882663
 30
0.0
  0
VERTEX
  5
810
  8
LAYER_1
 10
1047.74887254189
 20
1396.880345991789
 30
0.0
  0
VERTEX
  5
811
  8
LAYER_1
 10
1048.296677510844
 20
1396.163979999012
 30
0.0
  0
VERTEX
  5
812
  8
LAYER_1
 10
1048.836117466978
 20
1395.442004930323
 30
0.0
  0
VERTEX
  5
813
  8
LAYER_1
 10
1049.367157871551
 20
1394.71442281171
 30
0.0
  0
VERTEX
  5
814
  8
LAYER_1
 10
1049.889764185822
 20
1393.981235669164
 30
0.0
  0
VERTEX
  5
815
  8
LAYER_1
 10
1050.403901871048
 20
1393.242445528673
 30
0.0
  0
VERTEX
  5
816
  8
LAYER_1
 10
1050.909536388489
 20
1392.498054416226
 30
0.0
  0
VERTEX
  5
817
  8
LAYER_1
 10
1051.406633199403
 20
1391.748064357815
 30
0.0
  0
VERTEX
  5
818
  8
LAYER_1
 10
1051.895157765048
 20
1390.992477379427
 30
0.0
  0
VERTEX
  5
819
  8
LAYER_1
 10
1052.375075546684
 20
1390.231295507052
 30
0.0
  0
VERTEX
  5
81A
  8
LAYER_1
 10
1052.846352005569
 20
1389.464520766681
 30
0.0
  0
VERTEX
  5
81B
  8
LAYER_1
 10
1053.308952602961
 20
1388.692155184302
 30
0.0
  0
VERTEX
  5
81C
  8
LAYER_1
 10
1053.762842800118
 20
1387.914200785904
 30
0.0
  0
VERTEX
  5
81D
  8
LAYER_1
 10
1054.2079880583
 20
1387.130659597478
 30
0.0
  0
VERTEX
  5
81E
  8
LAYER_1
 10
1054.644353838765
 20
1386.341533645013
 30
0.0
  0
VERTEX
  5
81F
  8
LAYER_1
 10
1055.071905602772
 20
1385.546824954497
 30
0.0
  0
VERTEX
  5
820
  8
LAYER_1
 10
1055.490608811578
 20
1384.746535551922
 30
0.0
  0
VERTEX
  5
821
  8
LAYER_1
 10
1055.900428926444
 20
1383.940667463275
 30
0.0
  0
VERTEX
  5
822
  8
LAYER_1
 10
1056.301331408626
 20
1383.129222714547
 30
0.0
  0
VERTEX
  5
823
  8
LAYER_1
 10
1056.693281719384
 20
1382.312203331727
 30
0.0
  0
VERTEX
  5
824
  8
LAYER_1
 10
1057.076245319976
 20
1381.489611340804
 30
0.0
  0
VERTEX
  5
825
  8
LAYER_1
 10
1057.609172257389
 20
1380.301375433538
 30
0.0
  0
VERTEX
  5
826
  8
LAYER_1
 10
1058.121328119925
 20
1379.106623966103
 30
0.0
  0
VERTEX
  5
827
  8
LAYER_1
 10
1058.612775086523
 20
1377.905438235995
 30
0.0
  0
VERTEX
  5
828
  8
LAYER_1
 10
1059.083575336123
 20
1376.697899540713
 30
0.0
  0
VERTEX
  5
829
  8
LAYER_1
 10
1059.533791047663
 20
1375.484089177753
 30
0.0
  0
VERTEX
  5
82A
  8
LAYER_1
 10
1059.963484400085
 20
1374.264088444612
 30
0.0
  0
VERTEX
  5
82B
  8
LAYER_1
 10
1060.372717572326
 20
1373.037978638787
 30
0.0
  0
VERTEX
  5
82C
  8
LAYER_1
 10
1060.761552743326
 20
1371.805841057775
 30
0.0
  0
VERTEX
  5
82D
  8
LAYER_1
 10
1061.130052092026
 20
1370.567756999074
 30
0.0
  0
VERTEX
  5
82E
  8
LAYER_1
 10
1061.478277797363
 20
1369.32380776018
 30
0.0
  0
VERTEX
  5
82F
  8
LAYER_1
 10
1061.806292038278
 20
1368.074074638591
 30
0.0
  0
VERTEX
  5
830
  8
LAYER_1
 10
1062.11415699371
 20
1366.818638931804
 30
0.0
  0
VERTEX
  5
831
  8
LAYER_1
 10
1062.401934842599
 20
1365.557581937315
 30
0.0
  0
VERTEX
  5
832
  8
LAYER_1
 10
1062.669687763883
 20
1364.290984952622
 30
0.0
  0
VERTEX
  5
833
  8
LAYER_1
 10
1062.917477936502
 20
1363.018929275221
 30
0.0
  0
VERTEX
  5
834
  8
LAYER_1
 10
1063.145367539396
 20
1361.741496202611
 30
0.0
  0
VERTEX
  5
835
  8
LAYER_1
 10
1063.353418751505
 20
1360.458767032287
 30
0.0
  0
VERTEX
  5
836
  8
LAYER_1
 10
1063.541693751767
 20
1359.170823061747
 30
0.0
  0
VERTEX
  5
837
  8
LAYER_1
 10
1063.710254719121
 20
1357.877745588488
 30
0.0
  0
VERTEX
  5
838
  8
LAYER_1
 10
1063.859163832508
 20
1356.579615910007
 30
0.0
  0
VERTEX
  5
839
  8
LAYER_1
 10
1063.988483270867
 20
1355.276515323802
 30
0.0
  0
VERTEX
  5
83A
  8
LAYER_1
 10
1064.098275213137
 20
1353.968525127368
 30
0.0
  0
VERTEX
  5
83B
  8
LAYER_1
 10
1064.188601838258
 20
1352.655726618204
 30
0.0
  0
VERTEX
  5
83C
  8
LAYER_1
 10
1064.259525325168
 20
1351.338201093806
 30
0.0
  0
VERTEX
  5
83D
  8
LAYER_1
 10
1064.311107852808
 20
1350.016029851672
 30
0.0
  0
VERTEX
  5
83E
  8
LAYER_1
 10
1064.343411600117
 20
1348.689294189298
 30
0.0
  0
VERTEX
  5
83F
  8
LAYER_1
 10
1064.356498746035
 20
1347.358075404181
 30
0.0
  0
VERTEX
  5
840
  8
LAYER_1
 10
1064.3504314695
 20
1346.022454793819
 30
0.0
  0
VERTEX
  5
841
  8
LAYER_1
 10
1064.325271949452
 20
1344.682513655709
 30
0.0
  0
VERTEX
  5
842
  8
LAYER_1
 10
1064.28108236483
 20
1343.338333287347
 30
0.0
  0
VERTEX
  5
843
  8
LAYER_1
 10
1064.217924894574
 20
1341.989994986232
 30
0.0
  0
VERTEX
  5
844
  8
LAYER_1
 10
1064.135861717624
 20
1340.637580049859
 30
0.0
  0
VERTEX
  5
845
  8
LAYER_1
 10
1064.034955012919
 20
1339.281169775725
 30
0.0
  0
VERTEX
  5
846
  8
LAYER_1
 10
1063.915266959398
 20
1337.920845461329
 30
0.0
  0
VERTEX
  5
847
  8
LAYER_1
 10
1063.776859736001
 20
1336.556688404167
 30
0.0
  0
VERTEX
  5
848
  8
LAYER_1
 10
1063.619795521666
 20
1335.188779901736
 30
0.0
  0
VERTEX
  5
849
  8
LAYER_1
 10
1063.444136495334
 20
1333.817201251533
 30
0.0
  0
VERTEX
  5
84A
  8
LAYER_1
 10
1063.249944835944
 20
1332.442033751056
 30
0.0
  0
VERTEX
  5
84B
  8
LAYER_1
 10
1063.037282722435
 20
1331.0633586978
 30
0.0
  0
VERTEX
  5
84C
  8
LAYER_1
 10
1062.806212333747
 20
1329.681257389264
 30
0.0
  0
VERTEX
  5
84D
  8
LAYER_1
 10
1062.556795848819
 20
1328.295811122944
 30
0.0
  0
VERTEX
  5
84E
  8
LAYER_1
 10
1062.28909544659
 20
1326.907101196338
 30
0.0
  0
VERTEX
  5
84F
  8
LAYER_1
 10
1062.003173306001
 20
1325.515208906942
 30
0.0
  0
VERTEX
  5
850
  8
LAYER_1
 10
1061.69909160599
 20
1324.120215552254
 30
0.0
  0
VERTEX
  5
851
  8
LAYER_1
 10
1061.376912525497
 20
1322.722202429771
 30
0.0
  0
VERTEX
  5
852
  8
LAYER_1
 10
1061.036698243461
 20
1321.321250836989
 30
0.0
  0
VERTEX
  5
853
  8
LAYER_1
 10
1060.678510938821
 20
1319.917442071406
 30
0.0
  0
VERTEX
  5
854
  8
LAYER_1
 10
1060.302412790518
 20
1318.510857430519
 30
0.0
  0
VERTEX
  5
855
  8
LAYER_1
 10
1059.90846597749
 20
1317.101578211825
 30
0.0
  0
VERTEX
  5
856
  8
LAYER_1
 10
1059.496732678677
 20
1315.689685712821
 30
0.0
  0
VERTEX
  5
857
  8
LAYER_1
 10
1059.067275073018
 20
1314.275261231003
 30
0.0
  0
VERTEX
  5
858
  8
LAYER_1
 10
1058.620155339454
 20
1312.858386063871
 30
0.0
  0
VERTEX
  5
859
  8
LAYER_1
 10
1058.155435656922
 20
1311.439141508919
 30
0.0
  0
VERTEX
  5
85A
  8
LAYER_1
 10
1057.673178204362
 20
1310.017608863645
 30
0.0
  0
VERTEX
  5
85B
  8
LAYER_1
 10
1057.173445160715
 20
1308.593869425546
 30
0.0
  0
VERTEX
  5
85C
  8
LAYER_1
 10
1056.656298704919
 20
1307.16800449212
 30
0.0
  0
VERTEX
  5
85D
  8
LAYER_1
 10
1056.121801015914
 20
1305.740095360864
 30
0.0
  0
VERTEX
  5
85E
  8
LAYER_1
 10
1055.57001427264
 20
1304.310223329273
 30
0.0
  0
VERTEX
  5
85F
  8
LAYER_1
 10
1055.001000654034
 20
1302.878469694847
 30
0.0
  0
VERTEX
  5
860
  8
LAYER_1
 10
1054.414822339038
 20
1301.444915755081
 30
0.0
  0
VERTEX
  5
861
  8
LAYER_1
 10
1053.811541506591
 20
1300.009642807472
 30
0.0
  0
VERTEX
  5
862
  8
LAYER_1
 10
1053.191220335631
 20
1298.572732149519
 30
0.0
  0
VERTEX
  5
863
  8
LAYER_1
 10
1052.553921005099
 20
1297.134265078717
 30
0.0
  0
VERTEX
  5
864
  8
LAYER_1
 10
1051.899705693933
 20
1295.694322892564
 30
0.0
  0
VERTEX
  5
865
  8
LAYER_1
 10
1051.228636581074
 20
1294.252986888557
 30
0.0
  0
VERTEX
  5
866
  8
LAYER_1
 10
1050.54077584546
 20
1292.810338364193
 30
0.0
  0
VERTEX
  5
867
  8
LAYER_1
 10
1049.836185666031
 20
1291.366458616969
 30
0.0
  0
VERTEX
  5
868
  8
LAYER_1
 10
1049.114928221727
 20
1289.921428944382
 30
0.0
  0
VERTEX
  5
869
  8
LAYER_1
 10
1048.377065691487
 20
1288.475330643929
 30
0.0
  0
VERTEX
  5
86A
  8
LAYER_1
 10
1047.622660254249
 20
1287.028245013107
 30
0.0
  0
VERTEX
  5
86B
  8
LAYER_1
 10
1046.851774088955
 20
1285.580253349414
 30
0.0
  0
VERTEX
  5
86C
  8
LAYER_1
 10
1046.064469374543
 20
1284.131436950346
 30
0.0
  0
VERTEX
  5
86D
  8
LAYER_1
 10
1045.260808289951
 20
1282.681877113401
 30
0.0
  0
VERTEX
  5
86E
  8
LAYER_1
 10
1044.440853014122
 20
1281.231655136075
 30
0.0
  0
VERTEX
  5
86F
  8
LAYER_1
 10
1043.604665725992
 20
1279.780852315865
 30
0.0
  0
VERTEX
  5
870
  8
LAYER_1
 10
1042.752308604502
 20
1278.329549950269
 30
0.0
  0
VERTEX
  5
871
  8
LAYER_1
 10
1041.883843828592
 20
1276.877829336784
 30
0.0
  0
VERTEX
  5
872
  8
LAYER_1
 10
1040.999333577199
 20
1275.425771772907
 30
0.0
  0
VERTEX
  5
873
  8
LAYER_1
 10
1040.098840029265
 20
1273.973458556135
 30
0.0
  0
VERTEX
  5
874
  8
LAYER_1
 10
1039.182425363729
 20
1272.520970983964
 30
0.0
  0
VERTEX
  5
875
  8
LAYER_1
 10
1038.250151759529
 20
1271.068390353892
 30
0.0
  0
VERTEX
  5
876
  8
LAYER_1
 10
1037.302081395605
 20
1269.615797963416
 30
0.0
  0
VERTEX
  5
877
  8
LAYER_1
 10
1036.338276450898
 20
1268.163275110034
 30
0.0
  0
VERTEX
  5
878
  8
LAYER_1
 10
1035.358799104345
 20
1266.710903091241
 30
0.0
  0
VERTEX
  5
879
  8
LAYER_1
 10
1034.363711534887
 20
1265.258763204536
 30
0.0
  0
VERTEX
  5
87A
  8
LAYER_1
 10
1033.353075921463
 20
1263.806936747415
 30
0.0
  0
VERTEX
  5
87B
  8
LAYER_1
 10
1032.326954443012
 20
1262.355505017375
 30
0.0
  0
VERTEX
  5
87C
  8
LAYER_1
 10
1031.285409278474
 20
1260.904549311913
 30
0.0
  0
VERTEX
  5
87D
  8
LAYER_1
 10
1030.228502606788
 20
1259.454150928527
 30
0.0
  0
VERTEX
  5
87E
  8
LAYER_1
 10
1029.156296606894
 20
1258.004391164713
 30
0.0
  0
VERTEX
  5
87F
  8
LAYER_1
 10
1028.068853457731
 20
1256.555351317969
 30
0.0
  0
VERTEX
  5
880
  8
LAYER_1
 10
1026.966235338238
 20
1255.107112685792
 30
0.0
  0
VERTEX
  5
881
  8
LAYER_1
 10
1025.848504427356
 20
1253.659756565678
 30
0.0
  0
VERTEX
  5
882
  8
LAYER_1
 10
1024.715722904022
 20
1252.213364255125
 30
0.0
  0
VERTEX
  5
883
  8
LAYER_1
 10
1023.567952947178
 20
1250.76801705163
 30
0.0
  0
VERTEX
  5
884
  8
LAYER_1
 10
1022.405256735761
 20
1249.32379625269
 30
0.0
  0
VERTEX
  5
885
  8
LAYER_1
 10
1021.227696448712
 20
1247.880783155802
 30
0.0
  0
VERTEX
  5
886
  8
LAYER_1
 10
1020.03533426497
 20
1246.439059058463
 30
0.0
  0
VERTEX
  5
887
  8
LAYER_1
 10
1018.828232363474
 20
1244.998705258169
 30
0.0
  0
VERTEX
  5
888
  8
LAYER_1
 10
1017.606452923164
 20
1243.559803052419
 30
0.0
  0
VERTEX
  5
889
  8
LAYER_1
 10
1016.37005812298
 20
1242.122433738709
 30
0.0
  0
VERTEX
  5
88A
  8
LAYER_1
 10
1015.11911014186
 20
1240.686678614537
 30
0.0
  0
VERTEX
  5
88B
  8
LAYER_1
 10
1013.853671158744
 20
1239.252618977399
 30
0.0
  0
VERTEX
  5
88C
  8
LAYER_1
 10
1012.573803352571
 20
1237.820336124792
 30
0.0
  0
VERTEX
  5
88D
  8
LAYER_1
 10
1011.279568902282
 20
1236.389911354213
 30
0.0
  0
VERTEX
  5
88E
  8
LAYER_1
 10
1009.971029986815
 20
1234.96142596316
 30
0.0
  0
VERTEX
  5
88F
  8
LAYER_1
 10
1008.648248785109
 20
1233.53496124913
 30
0.0
  0
VERTEX
  5
890
  8
LAYER_1
 10
1007.311287476105
 20
1232.110598509619
 30
0.0
  0
VERTEX
  5
891
  8
LAYER_1
 10
1005.960208238741
 20
1230.688419042125
 30
0.0
  0
VERTEX
  5
892
  8
LAYER_1
 10
1004.595073251957
 20
1229.268504144145
 30
0.0
  0
VERTEX
  5
893
  8
LAYER_1
 10
1003.215944694693
 20
1227.850935113176
 30
0.0
  0
VERTEX
  5
894
  8
LAYER_1
 10
1001.822884745887
 20
1226.435793246714
 30
0.0
  0
VERTEX
  5
895
  8
LAYER_1
 10
1000.41595558448
 20
1225.023159842257
 30
0.0
  0
VERTEX
  5
896
  8
LAYER_1
 10
998.9952193894106
 20
1223.613116197303
 30
0.0
  0
VERTEX
  5
897
  8
LAYER_1
 10
997.5607383396182
 20
1222.205743609347
 30
0.0
  0
VERTEX
  5
898
  8
LAYER_1
 10
996.1125746140422
 20
1220.801123375888
 30
0.0
  0
VERTEX
  5
899
  8
LAYER_1
 10
994.650790391622
 20
1219.399336794422
 30
0.0
  0
VERTEX
  5
89A
  8
LAYER_1
 10
993.1754478512972
 20
1218.000465162446
 30
0.0
  0
VERTEX
  5
89B
  8
LAYER_1
 10
991.6866091720071
 20
1216.604589777457
 30
0.0
  0
VERTEX
  5
89C
  8
LAYER_1
 10
990.1843365326913
 20
1215.211791936954
 30
0.0
  0
VERTEX
  5
89D
  8
LAYER_1
 10
988.6686921122891
 20
1213.822152938431
 30
0.0
  0
VERTEX
  5
89E
  8
LAYER_1
 10
987.1397380897399
 20
1212.435754079387
 30
0.0
  0
VERTEX
  5
89F
  8
LAYER_1
 10
985.5975366439832
 20
1211.052676657318
 30
0.0
  0
VERTEX
  5
8A0
  8
LAYER_1
 10
984.0421499539582
 20
1209.673001969723
 30
0.0
  0
VERTEX
  5
8A1
  8
LAYER_1
 10
982.4736401986045
 20
1208.296811314096
 30
0.0
  0
VERTEX
  5
8A2
  8
LAYER_1
 10
980.8920695568615
 20
1206.924185987937
 30
0.0
  0
VERTEX
  5
8A3
  8
LAYER_1
 10
979.2975002076687
 20
1205.555207288742
 30
0.0
  0
SEQEND
  5
D1E
  8
LAYER_1
  0
POLYLINE
  5
80
  8
LAYER_1
 66
     1
 10
0.0
 20
0.0
 30
0.0
  0
VERTEX
  5
8A4
  8
LAYER_1
 10
1024.443983519355
 20
1448.926049945848
 30
0.0
  0
VERTEX
  5
8A5
  8
LAYER_1
 10
1022.435751992225
 20
1449.744570968458
 30
0.0
  0
VERTEX
  5
8A6
  8
LAYER_1
 10
1020.404313750977
 20
1450.542174718744
 30
0.0
  0
VERTEX
  5
8A7
  8
LAYER_1
 10
1018.349890834205
 20
1451.31884835417
 30
0.0
  0
VERTEX
  5
8A8
  8
LAYER_1
 10
1016.2727052805
 20
1452.074579032202
 30
0.0
  0
VERTEX
  5
8A9
  8
LAYER_1
 10
1014.172979128455
 20
1452.809353910307
 30
0.0
  0
VERTEX
  5
8AA
  8
LAYER_1
 10
1012.050934416663
 20
1453.523160145948
 30
0.0
  0
VERTEX
  5
8AB
  8
LAYER_1
 10
1009.906793183716
 20
1454.215984896592
 30
0.0
  0
VERTEX
  5
8AC
  8
LAYER_1
 10
1007.740777468207
 20
1454.887815319705
 30
0.0
  0
VERTEX
  5
8AD
  8
LAYER_1
 10
1005.553109308728
 20
1455.538638572752
 30
0.0
  0
VERTEX
  5
8AE
  8
LAYER_1
 10
1003.344010743872
 20
1456.168441813198
 30
0.0
  0
VERTEX
  5
8AF
  8
LAYER_1
 10
1001.113703812231
 20
1456.777212198509
 30
0.0
  0
VERTEX
  5
8B0
  8
LAYER_1
 10
998.8624105523968
 20
1457.364936886152
 30
0.0
  0
VERTEX
  5
8B1
  8
LAYER_1
 10
996.5903530029632
 20
1457.93160303359
 30
0.0
  0
VERTEX
  5
8B2
  8
LAYER_1
 10
994.297753202522
 20
1458.47719779829
 30
0.0
  0
VERTEX
  5
8B3
  8
LAYER_1
 10
991.984833189666
 20
1459.001708337717
 30
0.0
  0
VERTEX
  5
8B4
  8
LAYER_1
 10
989.6518150029874
 20
1459.505121809338
 30
0.0
  0
VERTEX
  5
8B5
  8
LAYER_1
 10
987.2989206810789
 20
1459.987425370616
 30
0.0
  0
VERTEX
  5
8B6
  8
LAYER_1
 10
984.9263722625328
 20
1460.448606179019
 30
0.0
  0
VERTEX
  5
8B7
  8
LAYER_1
 10
982.5343917859418
 20
1460.888651392011
 30
0.0
  0
VERTEX
  5
8B8
  8
LAYER_1
 10
980.1232012898981
 20
1461.307548167058
 30
0.0
  0
VERTEX
  5
8B9
  8
LAYER_1
 10
977.6930228129945
 20
1461.705283661626
 30
0.0
  0
VERTEX
  5
8BA
  8
LAYER_1
 10
975.2440783938233
 20
1462.08184503318
 30
0.0
  0
VERTEX
  5
8BB
  8
LAYER_1
 10
972.7765900709771
 20
1462.437219439186
 30
0.0
  0
VERTEX
  5
8BC
  8
LAYER_1
 10
970.2907798830482
 20
1462.77139403711
 30
0.0
  0
VERTEX
  5
8BD
  8
LAYER_1
 10
967.7868698686293
 20
1463.084355984416
 30
0.0
  0
VERTEX
  5
8BE
  8
LAYER_1
 10
965.2650820663127
 20
1463.37609243857
 30
0.0
  0
VERTEX
  5
8BF
  8
LAYER_1
 10
962.7256385146909
 20
1463.646590557039
 30
0.0
  0
VERTEX
  5
8C0
  8
LAYER_1
 10
960.1687612523566
 20
1463.895837497287
 30
0.0
  0
VERTEX
  5
8C1
  8
LAYER_1
 10
957.594672317902
 20
1464.12382041678
 30
0.0
  0
VERTEX
  5
8C2
  8
LAYER_1
 10
955.0035937499199
 20
1464.330526472983
 30
0.0
  0
VERTEX
  5
8C3
  8
LAYER_1
 10
952.3957475870025
 20
1464.515942823364
 30
0.0
  0
VERTEX
  5
8C4
  8
LAYER_1
 10
949.7713558677424
 20
1464.680056625385
 30
0.0
  0
SEQEND
  5
D1F
  8
LAYER_1
  0
POLYLINE
  5
81
  8
LAYER_1
 66
     1
 10
0.0
 20
0.0
 30
0.0
  0
VERTEX
  5
8C5
  8
LAYER_1
 10
1092.886080445082
 20
1595.066612453121
 30
0.0
  0
VERTEX
  5
8C6
  8
LAYER_1
 10
1094.6850444535
 20
1598.094307673088
 30
0.0
  0
VERTEX
  5
8C7
  8
LAYER_1
 10
1096.49677570373
 20
1601.11430429442
 30
0.0
  0
VERTEX
  5
8C8
  8
LAYER_1
 10
1098.321249006008
 20
1604.126561812963
 30
0.0
  0
VERTEX
  5
8C9
  8
LAYER_1
 10
1100.158439170568
 20
1607.131039724561
 30
0.0
  0
VERTEX
  5
8CA
  8
LAYER_1
 10
1102.008321007645
 20
1610.12769752506
 30
0.0
  0
VERTEX
  5
8CB
  8
LAYER_1
 10
1103.870869327473
 20
1613.116494710304
 30
0.0
  0
VERTEX
  5
8CC
  8
LAYER_1
 10
1105.746058940287
 20
1616.09739077614
 30
0.0
  0
VERTEX
  5
8CD
  8
LAYER_1
 10
1107.633864656323
 20
1619.070345218411
 30
0.0
  0
VERTEX
  5
8CE
  8
LAYER_1
 10
1109.534261285815
 20
1622.035317532964
 30
0.0
  0
VERTEX
  5
8CF
  8
LAYER_1
 10
1111.447223638997
 20
1624.992267215643
 30
0.0
  0
VERTEX
  5
8D0
  8
LAYER_1
 10
1113.372726526106
 20
1627.941153762293
 30
0.0
  0
VERTEX
  5
8D1
  8
LAYER_1
 10
1115.310744757375
 20
1630.881936668759
 30
0.0
  0
VERTEX
  5
8D2
  8
LAYER_1
 10
1117.261253143039
 20
1633.814575430888
 30
0.0
  0
VERTEX
  5
8D3
  8
LAYER_1
 10
1119.224226493332
 20
1636.739029544523
 30
0.0
  0
VERTEX
  5
8D4
  8
LAYER_1
 10
1121.199639618491
 20
1639.655258505509
 30
0.0
  0
VERTEX
  5
8D5
  8
LAYER_1
 10
1123.18746732875
 20
1642.563221809693
 30
0.0
  0
VERTEX
  5
8D6
  8
LAYER_1
 10
1125.187684434342
 20
1645.462878952918
 30
0.0
  0
VERTEX
  5
8D7
  8
LAYER_1
 10
1127.200265745505
 20
1648.354189431031
 30
0.0
  0
VERTEX
  5
8D8
  8
LAYER_1
 10
1129.22518607247
 20
1651.237112739876
 30
0.0
  0
VERTEX
  5
8D9
  8
LAYER_1
 10
1131.262420225475
 20
1654.111608375298
 30
0.0
  0
VERTEX
  5
8DA
  8
LAYER_1
 10
1133.311943014754
 20
1656.977635833143
 30
0.0
  0
VERTEX
  5
8DB
  8
LAYER_1
 10
1135.37372925054
 20
1659.835154609255
 30
0.0
  0
VERTEX
  5
8DC
  8
LAYER_1
 10
1137.44775374307
 20
1662.68412419948
 30
0.0
  0
VERTEX
  5
8DD
  8
LAYER_1
 10
1139.533991302578
 20
1665.524504099662
 30
0.0
  0
VERTEX
  5
8DE
  8
LAYER_1
 10
1141.632416739299
 20
1668.356253805648
 30
0.0
  0
VERTEX
  5
8DF
  8
LAYER_1
 10
1143.743004863467
 20
1671.179332813282
 30
0.0
  0
VERTEX
  5
8E0
  8
LAYER_1
 10
1145.865730485318
 20
1673.993700618408
 30
0.0
  0
VERTEX
  5
8E1
  8
LAYER_1
 10
1148.000568415086
 20
1676.799316716873
 30
0.0
  0
VERTEX
  5
8E2
  8
LAYER_1
 10
1150.147493463006
 20
1679.596140604522
 30
0.0
  0
VERTEX
  5
8E3
  8
LAYER_1
 10
1152.306480439313
 20
1682.384131777198
 30
0.0
  0
VERTEX
  5
8E4
  8
LAYER_1
 10
1154.477504154241
 20
1685.163249730749
 30
0.0
  0
VERTEX
  5
8E5
  8
LAYER_1
 10
1156.660539418026
 20
1687.933453961018
 30
0.0
  0
VERTEX
  5
8E6
  8
LAYER_1
 10
1158.855561040901
 20
1690.69470396385
 30
0.0
  0
VERTEX
  5
8E7
  8
LAYER_1
 10
1161.062543833103
 20
1693.446959235092
 30
0.0
  0
VERTEX
  5
8E8
  8
LAYER_1
 10
1163.281462604866
 20
1696.190179270588
 30
0.0
  0
VERTEX
  5
8E9
  8
LAYER_1
 10
1165.512292166424
 20
1698.924323566183
 30
0.0
  0
VERTEX
  5
8EA
  8
LAYER_1
 10
1167.755007328013
 20
1701.649351617722
 30
0.0
  0
VERTEX
  5
8EB
  8
LAYER_1
 10
1170.009582899866
 20
1704.36522292105
 30
0.0
  0
VERTEX
  5
8EC
  8
LAYER_1
 10
1172.27599369222
 20
1707.071896972013
 30
0.0
  0
VERTEX
  5
8ED
  8
LAYER_1
 10
1174.554214515308
 20
1709.769333266455
 30
0.0
  0
VERTEX
  5
8EE
  8
LAYER_1
 10
1176.844220179366
 20
1712.457491300223
 30
0.0
  0
VERTEX
  5
8EF
  8
LAYER_1
 10
1179.145985494629
 20
1715.136330569159
 30
0.0
  0
VERTEX
  5
8F0
  8
LAYER_1
 10
1181.45948527133
 20
1717.805810569111
 30
0.0
  0
VERTEX
  5
8F1
  8
LAYER_1
 10
1183.784694319706
 20
1720.465890795923
 30
0.0
  0
VERTEX
  5
8F2
  8
LAYER_1
 10
1186.12158744999
 20
1723.11653074544
 30
0.0
  0
VERTEX
  5
8F3
  8
LAYER_1
 10
1188.470139472417
 20
1725.757689913507
 30
0.0
  0
VERTEX
  5
8F4
  8
LAYER_1
 10
1190.830325197224
 20
1728.389327795969
 30
0.0
  0
VERTEX
  5
8F5
  8
LAYER_1
 10
1193.202119434643
 20
1731.011403888672
 30
0.0
  0
VERTEX
  5
8F6
  8
LAYER_1
 10
1195.58549699491
 20
1733.623877687461
 30
0.0
  0
VERTEX
  5
8F7
  8
LAYER_1
 10
1197.98043268826
 20
1736.22670868818
 30
0.0
  0
VERTEX
  5
8F8
  8
LAYER_1
 10
1200.386901324928
 20
1738.819856386675
 30
0.0
  0
VERTEX
  5
8F9
  8
LAYER_1
 10
1202.804877715148
 20
1741.403280278791
 30
0.0
  0
VERTEX
  5
8FA
  8
LAYER_1
 10
1205.234336669154
 20
1743.976939860373
 30
0.0
  0
VERTEX
  5
8FB
  8
LAYER_1
 10
1207.675252997183
 20
1746.540794627266
 30
0.0
  0
VERTEX
  5
8FC
  8
LAYER_1
 10
1210.127601509469
 20
1749.094804075315
 30
0.0
  0
VERTEX
  5
8FD
  8
LAYER_1
 10
1212.591357016246
 20
1751.638927700365
 30
0.0
  0
VERTEX
  5
8FE
  8
LAYER_1
 10
1215.06649432775
 20
1754.173124998263
 30
0.0
  0
VERTEX
  5
8FF
  8
LAYER_1
 10
1217.552988254214
 20
1756.697355464851
 30
0.0
  0
VERTEX
  5
900
  8
LAYER_1
 10
1220.050813605875
 20
1759.211578595976
 30
0.0
  0
VERTEX
  5
901
  8
LAYER_1
 10
1222.559945192966
 20
1761.715753887484
 30
0.0
  0
VERTEX
  5
902
  8
LAYER_1
 10
1225.080357825723
 20
1764.209840835218
 30
0.0
  0
VERTEX
  5
903
  8
LAYER_1
 10
1227.61202631438
 20
1766.693798935024
 30
0.0
  0
VERTEX
  5
904
  8
LAYER_1
 10
1230.154925469172
 20
1769.167587682747
 30
0.0
  0
VERTEX
  5
905
  8
LAYER_1
 10
1232.709030100335
 20
1771.631166574232
 30
0.0
  0
SEQEND
  5
D20
  8
LAYER_1
  0
POLYLINE
  5
82
  8
LAYER_1
 66
     1
 10
0.0
 20
0.0
 30
0.0
 70
     1
  0
VERTEX
  5
906
  8
LAYER_1
 10
1092.707848788694
 20
1371.488801287361
 30
0.0
  0
VERTEX
  5
907
  8
LAYER_1
 10
1092.705151662635
 20
1594.751640254
 30
0.0
  0
VERTEX
  5
908
  8
LAYER_1
 10
1091.429397155954
 20
1592.584917331191
 30
0.0
  0
VERTEX
  5
909
  8
LAYER_1
 10
1090.160179075754
 20
1590.41430463777
 30
0.0
  0
VERTEX
  5
90A
  8
LAYER_1
 10
1088.897506499694
 20
1588.239816965119
 30
0.0
  0
VERTEX
  5
90B
  8
LAYER_1
 10
1087.641388505433
 20
1586.06146910462
 30
0.0
  0
VERTEX
  5
90C
  8
LAYER_1
 10
1086.391834170628
 20
1583.879275847654
 30
0.0
  0
VERTEX
  5
90D
  8
LAYER_1
 10
1085.148852572938
 20
1581.693251985603
 30
0.0
  0
VERTEX
  5
90E
  8
LAYER_1
 10
1083.91245279002
 20
1579.503412309848
 30
0.0
  0
VERTEX
  5
90F
  8
LAYER_1
 10
1082.682643899534
 20
1577.309771611772
 30
0.0
  0
VERTEX
  5
910
  8
LAYER_1
 10
1081.459434979138
 20
1575.112344682756
 30
0.0
  0
VERTEX
  5
911
  8
LAYER_1
 10
1080.242835106489
 20
1572.911146314183
 30
0.0
  0
VERTEX
  5
912
  8
LAYER_1
 10
1079.032853359246
 20
1570.706191297432
 30
0.0
  0
VERTEX
  5
913
  8
LAYER_1
 10
1077.829498815068
 20
1568.497494423887
 30
0.0
  0
VERTEX
  5
914
  8
LAYER_1
 10
1076.632780551612
 20
1566.285070484929
 30
0.0
  0
VERTEX
  5
915
  8
LAYER_1
 10
1075.442707646537
 20
1564.068934271939
 30
0.0
  0
VERTEX
  5
916
  8
LAYER_1
 10
1074.259289177502
 20
1561.849100576301
 30
0.0
  0
VERTEX
  5
917
  8
LAYER_1
 10
1073.082534222164
 20
1559.625584189394
 30
0.0
  0
VERTEX
  5
918
  8
LAYER_1
 10
1071.912451858181
 20
1557.398399902602
 30
0.0
  0
VERTEX
  5
919
  8
LAYER_1
 10
1070.749051163213
 20
1555.167562507305
 30
0.0
  0
VERTEX
  5
91A
  8
LAYER_1
 10
1069.592341214917
 20
1552.933086794885
 30
0.0
  0
VERTEX
  5
91B
  8
LAYER_1
 10
1068.442331090952
 20
1550.694987556724
 30
0.0
  0
VERTEX
  5
91C
  8
LAYER_1
 10
1067.299029868975
 20
1548.453279584204
 30
0.0
  0
VERTEX
  5
91D
  8
LAYER_1
 10
1066.162446626646
 20
1546.207977668707
 30
0.0
  0
VERTEX
  5
91E
  8
LAYER_1
 10
1065.032590441622
 20
1543.959096601614
 30
0.0
  0
VERTEX
  5
91F
  8
LAYER_1
 10
1063.909470391562
 20
1541.706651174307
 30
0.0
  0
VERTEX
  5
920
  8
LAYER_1
 10
1062.793095554123
 20
1539.450656178167
 30
0.0
  0
VERTEX
  5
921
  8
LAYER_1
 10
1061.683475006965
 20
1537.191126404577
 30
0.0
  0
VERTEX
  5
922
  8
LAYER_1
 10
1060.580617827746
 20
1534.928076644918
 30
0.0
  0
VERTEX
  5
923
  8
LAYER_1
 10
1059.484533094123
 20
1532.661521690572
 30
0.0
  0
VERTEX
  5
924
  8
LAYER_1
 10
1058.395229883756
 20
1530.391476332921
 30
0.0
  0
VERTEX
  5
925
  8
LAYER_1
 10
1057.312717274302
 20
1528.117955363346
 30
0.0
  0
VERTEX
  5
926
  8
LAYER_1
 10
1056.237004343419
 20
1525.840973573228
 30
0.0
  0
VERTEX
  5
927
  8
LAYER_1
 10
1055.168100168766
 20
1523.560545753951
 30
0.0
  0
VERTEX
  5
928
  8
LAYER_1
 10
1054.106013828002
 20
1521.276686696895
 30
0.0
  0
VERTEX
  5
929
  8
LAYER_1
 10
1053.050754398784
 20
1518.989411193442
 30
0.0
  0
VERTEX
  5
92A
  8
LAYER_1
 10
1052.002330958771
 20
1516.698734034975
 30
0.0
  0
VERTEX
  5
92B
  8
LAYER_1
 10
1050.960752585621
 20
1514.404670012873
 30
0.0
  0
VERTEX
  5
92C
  8
LAYER_1
 10
1049.926028356992
 20
1512.10723391852
 30
0.0
  0
VERTEX
  5
92D
  8
LAYER_1
 10
1048.898167350543
 20
1509.806440543297
 30
0.0
  0
VERTEX
  5
92E
  8
LAYER_1
 10
1047.877178643932
 20
1507.502304678586
 30
0.0
  0
VERTEX
  5
92F
  8
LAYER_1
 10
1046.863071314817
 20
1505.194841115769
 30
0.0
  0
VERTEX
  5
930
  8
LAYER_1
 10
1045.855854440856
 20
1502.884064646227
 30
0.0
  0
VERTEX
  5
931
  8
LAYER_1
 10
1044.855537099708
 20
1500.569990061341
 30
0.0
  0
VERTEX
  5
932
  8
LAYER_1
 10
1043.862128369031
 20
1498.252632152494
 30
0.0
  0
VERTEX
  5
933
  8
LAYER_1
 10
1042.875637326483
 20
1495.932005711068
 30
0.0
  0
VERTEX
  5
934
  8
LAYER_1
 10
1041.896073049723
 20
1493.608125528443
 30
0.0
  0
VERTEX
  5
935
  8
LAYER_1
 10
1040.923444616409
 20
1491.281006396003
 30
0.0
  0
VERTEX
  5
936
  8
LAYER_1
 10
1039.957761104199
 20
1488.950663105129
 30
0.0
  0
VERTEX
  5
937
  8
LAYER_1
 10
1038.999031590751
 20
1486.617110447201
 30
0.0
  0
VERTEX
  5
938
  8
LAYER_1
 10
1038.047265153723
 20
1484.280363213602
 30
0.0
  0
VERTEX
  5
939
  8
LAYER_1
 10
1037.102470870775
 20
1481.940436195714
 30
0.0
  0
VERTEX
  5
93A
  8
LAYER_1
 10
1036.164657819564
 20
1479.597344184919
 30
0.0
  0
VERTEX
  5
93B
  8
LAYER_1
 10
1035.233835077749
 20
1477.251101972598
 30
0.0
  0
VERTEX
  5
93C
  8
LAYER_1
 10
1034.310011722986
 20
1474.901724350132
 30
0.0
  0
VERTEX
  5
93D
  8
LAYER_1
 10
1033.393196832937
 20
1472.549226108904
 30
0.0
  0
VERTEX
  5
93E
  8
LAYER_1
 10
1032.483399485257
 20
1470.193622040296
 30
0.0
  0
VERTEX
  5
93F
  8
LAYER_1
 10
1031.580628757607
 20
1467.834926935688
 30
0.0
  0
VERTEX
  5
940
  8
LAYER_1
 10
1030.684893727643
 20
1465.473155586464
 30
0.0
  0
VERTEX
  5
941
  8
LAYER_1
 10
1029.796203473024
 20
1463.108322784004
 30
0.0
  0
VERTEX
  5
942
  8
LAYER_1
 10
1028.914567071409
 20
1460.74044331969
 30
0.0
  0
VERTEX
  5
943
  8
LAYER_1
 10
1028.039993600456
 20
1458.369531984903
 30
0.0
  0
VERTEX
  5
944
  8
LAYER_1
 10
1027.172492137822
 20
1455.995603571027
 30
0.0
  0
VERTEX
  5
945
  8
LAYER_1
 10
1026.312071761167
 20
1453.618672869442
 30
0.0
  0
VERTEX
  5
946
  8
LAYER_1
 10
1025.458741548148
 20
1451.23875467153
 30
0.0
  0
VERTEX
  5
947
  8
LAYER_1
 10
1024.612510576424
 20
1448.855863768673
 30
0.0
  0
VERTEX
  5
948
  8
LAYER_1
 10
1025.942557010301
 20
1448.29500979559
 30
0.0
  0
VERTEX
  5
949
  8
LAYER_1
 10
1027.262026277059
 20
1447.724792802858
 30
0.0
  0
VERTEX
  5
94A
  8
LAYER_1
 10
1028.570851803692
 20
1447.145216628993
 30
0.0
  0
VERTEX
  5
94B
  8
LAYER_1
 10
1029.868967017196
 20
1446.556285112514
 30
0.0
  0
VERTEX
  5
94C
  8
LAYER_1
 10
1031.156305344567
 20
1445.95800209194
 30
0.0
  0
VERTEX
  5
94D
  8
LAYER_1
 10
1032.432800212801
 20
1445.350371405788
 30
0.0
  0
VERTEX
  5
94E
  8
LAYER_1
 10
1033.698385048891
 20
1444.733396892577
 30
0.0
  0
VERTEX
  5
94F
  8
LAYER_1
 10
1034.952993279835
 20
1444.107082390824
 30
0.0
  0
VERTEX
  5
950
  8
LAYER_1
 10
1036.196558332627
 20
1443.471431739048
 30
0.0
  0
VERTEX
  5
951
  8
LAYER_1
 10
1037.429013634262
 20
1442.826448775767
 30
0.0
  0
VERTEX
  5
952
  8
LAYER_1
 10
1038.650292611736
 20
1442.172137339499
 30
0.0
  0
VERTEX
  5
953
  8
LAYER_1
 10
1039.860328692044
 20
1441.508501268762
 30
0.0
  0
VERTEX
  5
954
  8
LAYER_1
 10
1041.059055302183
 20
1440.835544402075
 30
0.0
  0
VERTEX
  5
955
  8
LAYER_1
 10
1042.246405869146
 20
1440.153270577955
 30
0.0
  0
VERTEX
  5
956
  8
LAYER_1
 10
1043.422313819929
 20
1439.461683634921
 30
0.0
  0
VERTEX
  5
957
  8
LAYER_1
 10
1044.586712581529
 20
1438.76078741149
 30
0.0
  0
VERTEX
  5
958
  8
LAYER_1
 10
1045.73953558094
 20
1438.050585746181
 30
0.0
  0
VERTEX
  5
959
  8
LAYER_1
 10
1046.880716245157
 20
1437.331082477513
 30
0.0
  0
VERTEX
  5
95A
  8
LAYER_1
 10
1048.010188001177
 20
1436.602281444002
 30
0.0
  0
VERTEX
  5
95B
  8
LAYER_1
 10
1049.127884275993
 20
1435.864186484168
 30
0.0
  0
VERTEX
  5
95C
  8
LAYER_1
 10
1050.233738496603
 20
1435.116801436528
 30
0.0
  0
VERTEX
  5
95D
  8
LAYER_1
 10
1051.327684090001
 20
1434.360130139601
 30
0.0
  0
VERTEX
  5
95E
  8
LAYER_1
 10
1052.409654483183
 20
1433.594176431904
 30
0.0
  0
VERTEX
  5
95F
  8
LAYER_1
 10
1053.479583103143
 20
1432.818944151956
 30
0.0
  0
VERTEX
  5
960
  8
LAYER_1
 10
1054.537403376878
 20
1432.034437138275
 30
0.0
  0
VERTEX
  5
961
  8
LAYER_1
 10
1055.583048731382
 20
1431.240659229379
 30
0.0
  0
VERTEX
  5
962
  8
LAYER_1
 10
1056.616452593651
 20
1430.437614263787
 30
0.0
  0
VERTEX
  5
963
  8
LAYER_1
 10
1057.637548390681
 20
1429.625306080015
 30
0.0
  0
VERTEX
  5
964
  8
LAYER_1
 10
1058.646269549467
 20
1428.803738516584
 30
0.0
  0
VERTEX
  5
965
  8
LAYER_1
 10
1059.642549497004
 20
1427.97291541201
 30
0.0
  0
VERTEX
  5
966
  8
LAYER_1
 10
1060.626321660288
 20
1427.132840604811
 30
0.0
  0
VERTEX
  5
967
  8
LAYER_1
 10
1061.597519466313
 20
1426.283517933507
 30
0.0
  0
VERTEX
  5
968
  8
LAYER_1
 10
1062.556076342076
 20
1425.424951236614
 30
0.0
  0
VERTEX
  5
969
  8
LAYER_1
 10
1063.501925714572
 20
1424.557144352652
 30
0.0
  0
VERTEX
  5
96A
  8
LAYER_1
 10
1064.435001010796
 20
1423.680101120138
 30
0.0
  0
VERTEX
  5
96B
  8
LAYER_1
 10
1065.355235657744
 20
1422.79382537759
 30
0.0
  0
VERTEX
  5
96C
  8
LAYER_1
 10
1066.26256308241
 20
1421.898320963527
 30
0.0
  0
VERTEX
  5
96D
  8
LAYER_1
 10
1067.156916711791
 20
1420.993591716467
 30
0.0
  0
VERTEX
  5
96E
  8
LAYER_1
 10
1068.038229972881
 20
1420.079641474927
 30
0.0
  0
VERTEX
  5
96F
  8
LAYER_1
 10
1068.906436292677
 20
1419.156474077427
 30
0.0
  0
VERTEX
  5
970
  8
LAYER_1
 10
1069.761469098173
 20
1418.224093362483
 30
0.0
  0
VERTEX
  5
971
  8
LAYER_1
 10
1070.603261816365
 20
1417.282503168615
 30
0.0
  0
VERTEX
  5
972
  8
LAYER_1
 10
1071.431747874248
 20
1416.33170733434
 30
0.0
  0
VERTEX
  5
973
  8
LAYER_1
 10
1072.246860698817
 20
1415.371709698177
 30
0.0
  0
VERTEX
  5
974
  8
LAYER_1
 10
1073.048533717069
 20
1414.402514098643
 30
0.0
  0
VERTEX
  5
975
  8
LAYER_1
 10
1073.836700355998
 20
1413.424124374257
 30
0.0
  0
VERTEX
  5
976
  8
LAYER_1
 10
1074.611294042599
 20
1412.436544363537
 30
0.0
  0
VERTEX
  5
977
  8
LAYER_1
 10
1075.372248203869
 20
1411.439777905
 30
0.0
  0
VERTEX
  5
978
  8
LAYER_1
 10
1076.119496266803
 20
1410.433828837166
 30
0.0
  0
VERTEX
  5
979
  8
LAYER_1
 10
1076.852971658395
 20
1409.418700998553
 30
0.0
  0
VERTEX
  5
97A
  8
LAYER_1
 10
1077.572607805641
 20
1408.394398227678
 30
0.0
  0
VERTEX
  5
97B
  8
LAYER_1
 10
1078.278338135538
 20
1407.360924363059
 30
0.0
  0
VERTEX
  5
97C
  8
LAYER_1
 10
1078.970096075079
 20
1406.318283243216
 30
0.0
  0
VERTEX
  5
97D
  8
LAYER_1
 10
1079.647815051261
 20
1405.266478706665
 30
0.0
  0
VERTEX
  5
97E
  8
LAYER_1
 10
1080.311428491079
 20
1404.205514591925
 30
0.0
  0
VERTEX
  5
97F
  8
LAYER_1
 10
1080.960869821527
 20
1403.135394737514
 30
0.0
  0
VERTEX
  5
980
  8
LAYER_1
 10
1081.596072469603
 20
1402.05612298195
 30
0.0
  0
VERTEX
  5
981
  8
LAYER_1
 10
1082.2169698623
 20
1400.967703163752
 30
0.0
  0
VERTEX
  5
982
  8
LAYER_1
 10
1082.823495426615
 20
1399.870139121437
 30
0.0
  0
VERTEX
  5
983
  8
LAYER_1
 10
1083.415582589543
 20
1398.763434693524
 30
0.0
  0
VERTEX
  5
984
  8
LAYER_1
 10
1083.993164778079
 20
1397.647593718531
 30
0.0
  0
VERTEX
  5
985
  8
LAYER_1
 10
1084.556175419218
 20
1396.522620034975
 30
0.0
  0
VERTEX
  5
986
  8
LAYER_1
 10
1085.104547939956
 20
1395.388517481376
 30
0.0
  0
VERTEX
  5
987
  8
LAYER_1
 10
1085.638215767288
 20
1394.245289896251
 30
0.0
  0
VERTEX
  5
988
  8
LAYER_1
 10
1086.253377544745
 20
1392.874405518388
 30
0.0
  0
VERTEX
  5
989
  8
LAYER_1
 10
1086.845122999396
 20
1391.496188292523
 30
0.0
  0
VERTEX
  5
98A
  8
LAYER_1
 10
1087.413518208596
 20
1390.110741081509
 30
0.0
  0
VERTEX
  5
98B
  8
LAYER_1
 10
1087.9586292497
 20
1388.718166748196
 30
0.0
  0
VERTEX
  5
98C
  8
LAYER_1
 10
1088.480522200063
 20
1387.318568155439
 30
0.0
  0
VERTEX
  5
98D
  8
LAYER_1
 10
1088.979263137041
 20
1385.912048166087
 30
0.0
  0
VERTEX
  5
98E
  8
LAYER_1
 10
1089.454918137988
 20
1384.498709642994
 30
0.0
  0
VERTEX
  5
98F
  8
LAYER_1
 10
1089.907553280258
 20
1383.078655449011
 30
0.0
  0
VERTEX
  5
990
  8
LAYER_1
 10
1090.337234641208
 20
1381.651988446991
 30
0.0
  0
VERTEX
  5
991
  8
LAYER_1
 10
1090.744028298192
 20
1380.218811499785
 30
0.0
  0
VERTEX
  5
992
  8
LAYER_1
 10
1091.128000328565
 20
1378.779227470245
 30
0.0
  0
VERTEX
  5
993
  8
LAYER_1
 10
1091.489216809682
 20
1377.333339221223
 30
0.0
  0
VERTEX
  5
994
  8
LAYER_1
 10
1091.827743818899
 20
1375.881249615572
 30
0.0
  0
VERTEX
  5
995
  8
LAYER_1
 10
1092.14364743357
 20
1374.423061516143
 30
0.0
  0
VERTEX
  5
996
  8
LAYER_1
 10
1092.43699373105
 20
1372.958877785789
 30
0.0
  0
SEQEND
  5
D21
  8
LAYER_1
  0
POLYLINE
  5
83
  8
LAYER_1
 66
     1
 10
0.0
 20
0.0
 30
0.0
  0
VERTEX
  5
997
  8
LAYER_1
 10
1092.706341036319
 20
1335.241475896829
 30
0.0
  0
VERTEX
  5
998
  8
LAYER_1
 10
1092.706176638852
 20
1371.111458777796
 30
0.0
  0
SEQEND
  5
D22
  8
LAYER_1
  0
POLYLINE
  5
84
  8
LAYER_1
 66
     1
 10
0.0
 20
0.0
 30
0.0
  0
VERTEX
  5
999
  8
LAYER_1
 10
977.0378503262609
 20
1173.270775818871
 30
0.0
  0
VERTEX
  5
99A
  8
LAYER_1
 10
977.0535587589521
 20
1177.06426827045
 30
0.0
  0
VERTEX
  5
99B
  8
LAYER_1
 10
977.0865993945118
 20
1180.858679868273
 30
0.0
  0
VERTEX
  5
99C
  8
LAYER_1
 10
977.136987055701
 20
1184.653952410752
 30
0.0
  0
VERTEX
  5
99D
  8
LAYER_1
 10
977.2047365652803
 20
1188.450027696302
 30
0.0
  0
VERTEX
  5
99E
  8
LAYER_1
 10
977.2898627460108
 20
1192.246847523335
 30
0.0
  0
VERTEX
  5
99F
  8
LAYER_1
 10
977.3923804206538
 20
1196.044353690264
 30
0.0
  0
VERTEX
  5
9A0
  8
LAYER_1
 10
977.5123044119696
 20
1199.842487995503
 30
0.0
  0
VERTEX
  5
9A1
  8
LAYER_1
 10
977.6496495427195
 20
1203.641192237465
 30
0.0
  0
SEQEND
  5
D23
  8
LAYER_1
  0
POLYLINE
  5
85
  8
LAYER_1
 66
     1
 10
0.0
 20
0.0
 30
0.0
 70
     1
  0
VERTEX
  5
9A2
  8
LAYER_1
 10
1092.70856270818
 20
748.4782810648462
 30
0.0
  0
VERTEX
  5
9A3
  8
LAYER_1
 10
1090.93493592989
 20
751.494438896711
 30
0.0
  0
VERTEX
  5
9A4
  8
LAYER_1
 10
1089.174524492129
 20
754.5172175763742
 30
0.0
  0
VERTEX
  5
9A5
  8
LAYER_1
 10
1087.427339984814
 20
757.5465715636349
 30
0.0
  0
VERTEX
  5
9A6
  8
LAYER_1
 10
1085.693393997864
 20
760.5824553182927
 30
0.0
  0
VERTEX
  5
9A7
  8
LAYER_1
 10
1083.972698121196
 20
763.6248233001465
 30
0.0
  0
VERTEX
  5
9A8
  8
LAYER_1
 10
1082.265263944729
 20
766.6736299689958
 30
0.0
  0
VERTEX
  5
9A9
  8
LAYER_1
 10
1080.57110305838
 20
769.7288297846399
 30
0.0
  0
VERTEX
  5
9AA
  8
LAYER_1
 10
1078.890227052068
 20
772.790377206878
 30
0.0
  0
VERTEX
  5
9AB
  8
LAYER_1
 10
1077.222647515712
 20
775.8582266955094
 30
0.0
  0
VERTEX
  5
9AC
  8
LAYER_1
 10
1075.568376039229
 20
778.9323327103334
 30
0.0
  0
VERTEX
  5
9AD
  8
LAYER_1
 10
1073.927424212538
 20
782.0126497111493
 30
0.0
  0
VERTEX
  5
9AE
  8
LAYER_1
 10
1072.299803625555
 20
785.0991321577562
 30
0.0
  0
VERTEX
  5
9AF
  8
LAYER_1
 10
1070.685525868201
 20
788.1917345099537
 30
0.0
  0
VERTEX
  5
9B0
  8
LAYER_1
 10
1069.084602530393
 20
791.2904112275407
 30
0.0
  0
VERTEX
  5
9B1
  8
LAYER_1
 10
1067.497045202048
 20
794.3951167703169
 30
0.0
  0
VERTEX
  5
9B2
  8
LAYER_1
 10
1065.922865473086
 20
797.5058055980812
 30
0.0
  0
VERTEX
  5
9B3
  8
LAYER_1
 10
1064.362074933424
 20
800.6224321706331
 30
0.0
  0
VERTEX
  5
9B4
  8
LAYER_1
 10
1062.814685172981
 20
803.7449509477717
 30
0.0
  0
VERTEX
  5
9B5
  8
LAYER_1
 10
1061.280707781674
 20
806.8733163892964
 30
0.0
  0
VERTEX
  5
9B6
  8
LAYER_1
 10
1059.760154349422
 20
810.0074829550066
 30
0.0
  0
VERTEX
  5
9B7
  8
LAYER_1
 10
1058.253036466143
 20
813.1474051047013
 30
0.0
  0
VERTEX
  5
9B8
  8
LAYER_1
 10
1056.759365721755
 20
816.2930372981799
 30
0.0
  0
VERTEX
  5
9B9
  8
LAYER_1
 10
1055.279153706176
 20
819.4443339952418
 30
0.0
  0
VERTEX
  5
9BA
  8
LAYER_1
 10
1053.812412009325
 20
822.6012496556862
 30
0.0
  0
VERTEX
  5
9BB
  8
LAYER_1
 10
1052.359152221119
 20
825.7637387393121
 30
0.0
  0
VERTEX
  5
9BC
  8
LAYER_1
 10
1050.919385931477
 20
828.9317557059192
 30
0.0
  0
VERTEX
  5
9BD
  8
LAYER_1
 10
1049.493124730317
 20
832.1052550153065
 30
0.0
  0
VERTEX
  5
9BE
  8
LAYER_1
 10
1048.080380207557
 20
835.2841911272735
 30
0.0
  0
VERTEX
  5
9BF
  8
LAYER_1
 10
1046.681163953114
 20
838.4685185016194
 30
0.0
  0
VERTEX
  5
9C0
  8
LAYER_1
 10
1045.295487556908
 20
841.6581915981433
 30
0.0
  0
VERTEX
  5
9C1
  8
LAYER_1
 10
1043.923362608857
 20
844.8531648766444
 30
0.0
  0
VERTEX
  5
9C2
  8
LAYER_1
 10
1042.564800698878
 20
848.0533927969224
 30
0.0
  0
VERTEX
  5
9C3
  8
LAYER_1
 10
1041.21981341689
 20
851.2588298187762
 30
0.0
  0
VERTEX
  5
9C4
  8
LAYER_1
 10
1039.888412352811
 20
854.4694304020054
 30
0.0
  0
VERTEX
  5
9C5
  8
LAYER_1
 10
1038.570609096558
 20
857.6851490064092
 30
0.0
  0
VERTEX
  5
9C6
  8
LAYER_1
 10
1037.266415238051
 20
860.9059400917866
 30
0.0
  0
VERTEX
  5
9C7
  8
LAYER_1
 10
1035.975842367207
 20
864.1317581179371
 30
0.0
  0
VERTEX
  5
9C8
  8
LAYER_1
 10
1034.698902073945
 20
867.3625575446601
 30
0.0
  0
VERTEX
  5
9C9
  8
LAYER_1
 10
1033.435605948182
 20
870.5982928317546
 30
0.0
  0
VERTEX
  5
9CA
  8
LAYER_1
 10
1032.185965579838
 20
873.8389184390202
 30
0.0
  0
VERTEX
  5
9CB
  8
LAYER_1
 10
1030.949992558829
 20
877.0843888262559
 30
0.0
  0
VERTEX
  5
9CC
  8
LAYER_1
 10
1029.727698475074
 20
880.3346584532609
 30
0.0
  0
VERTEX
  5
9CD
  8
LAYER_1
 10
1028.519094918492
 20
883.5896817798348
 30
0.0
  0
VERTEX
  5
9CE
  8
LAYER_1
 10
1027.324193478999
 20
886.8494132657765
 30
0.0
  0
VERTEX
  5
9CF
  8
LAYER_1
 10
1026.143005746516
 20
890.1138073708855
 30
0.0
  0
VERTEX
  5
9D0
  8
LAYER_1
 10
1024.975543310959
 20
893.3828185549612
 30
0.0
  0
VERTEX
  5
9D1
  8
LAYER_1
 10
1023.821817762246
 20
896.6564012778027
 30
0.0
  0
VERTEX
  5
9D2
  8
LAYER_1
 10
1022.681840690297
 20
899.9345099992095
 30
0.0
  0
VERTEX
  5
9D3
  8
LAYER_1
 10
1021.555623685029
 20
903.2170991789806
 30
0.0
  0
VERTEX
  5
9D4
  8
LAYER_1
 10
1020.44317833636
 20
906.5041232769153
 30
0.0
  0
VERTEX
  5
9D5
  8
LAYER_1
 10
1019.344516234209
 20
909.795536752813
 30
0.0
  0
VERTEX
  5
9D6
  8
LAYER_1
 10
1018.259648968493
 20
913.0912940664729
 30
0.0
  0
VERTEX
  5
9D7
  8
LAYER_1
 10
1017.188588129131
 20
916.3913496776943
 30
0.0
  0
VERTEX
  5
9D8
  8
LAYER_1
 10
1016.131345306041
 20
919.6956580462765
 30
0.0
  0
VERTEX
  5
9D9
  8
LAYER_1
 10
1015.087932089141
 20
923.0041736320188
 30
0.0
  0
VERTEX
  5
9DA
  8
LAYER_1
 10
1014.058360068349
 20
926.3168508947203
 30
0.0
  0
VERTEX
  5
9DB
  8
LAYER_1
 10
1013.042640833583
 20
929.6336442941806
 30
0.0
  0
VERTEX
  5
9DC
  8
LAYER_1
 10
1012.040785974762
 20
932.9545082901986
 30
0.0
  0
VERTEX
  5
9DD
  8
LAYER_1
 10
1011.052807081803
 20
936.2793973425739
 30
0.0
  0
VERTEX
  5
9DE
  8
LAYER_1
 10
1010.078715744625
 20
939.6082659111057
 30
0.0
  0
VERTEX
  5
9DF
  8
LAYER_1
 10
1009.118523553147
 20
942.9410684555933
 30
0.0
  0
VERTEX
  5
9E0
  8
LAYER_1
 10
1008.172242097285
 20
946.2777594358356
 30
0.0
  0
VERTEX
  5
9E1
  8
LAYER_1
 10
1007.239882966958
 20
949.6182933116324
 30
0.0
  0
VERTEX
  5
9E2
  8
LAYER_1
 10
1006.321457752085
 20
952.9626245427827
 30
0.0
  0
VERTEX
  5
9E3
  8
LAYER_1
 10
1005.416978042583
 20
956.3107075890858
 30
0.0
  0
VERTEX
  5
9E4
  8
LAYER_1
 10
1004.526455428371
 20
959.6624969103411
 30
0.0
  0
VERTEX
  5
9E5
  8
LAYER_1
 10
1003.649901499367
 20
963.0179469663478
 30
0.0
  0
VERTEX
  5
9E6
  8
LAYER_1
 10
1002.787327845489
 20
966.3770122169051
 30
0.0
  0
VERTEX
  5
9E7
  8
LAYER_1
 10
1001.938746056655
 20
969.7396471218124
 30
0.0
  0
VERTEX
  5
9E8
  8
LAYER_1
 10
1001.104167722783
 20
973.1058061408688
 30
0.0
  0
VERTEX
  5
9E9
  8
LAYER_1
 10
1000.283604433791
 20
976.4754437338738
 30
0.0
  0
VERTEX
  5
9EA
  8
LAYER_1
 10
999.4770677795987
 20
979.8485143606265
 30
0.0
  0
VERTEX
  5
9EB
  8
LAYER_1
 10
998.6845693501225
 20
983.2249724809262
 30
0.0
  0
VERTEX
  5
9EC
  8
LAYER_1
 10
997.9061207352813
 20
986.6047725545725
 30
0.0
  0
VERTEX
  5
9ED
  8
LAYER_1
 10
997.1417335249931
 20
989.9878690413643
 30
0.0
  0
VERTEX
  5
9EE
  8
LAYER_1
 10
996.3914193091761
 20
993.374216401101
 30
0.0
  0
VERTEX
  5
9EF
  8
LAYER_1
 10
995.6551896777482
 20
996.7637690935818
 30
0.0
  0
VERTEX
  5
9F0
  8
LAYER_1
 10
994.933056220628
 20
1000.156481578606
 30
0.0
  0
VERTEX
  5
9F1
  8
LAYER_1
 10
994.2250305277335
 20
1003.552308315973
 30
0.0
  0
VERTEX
  5
9F2
  8
LAYER_1
 10
993.5311241889826
 20
1006.951203765482
 30
0.0
  0
VERTEX
  5
9F3
  8
LAYER_1
 10
992.8513487942937
 20
1010.353122386932
 30
0.0
  0
VERTEX
  5
9F4
  8
LAYER_1
 10
992.1857159335848
 20
1013.758018640123
 30
0.0
  0
VERTEX
  5
9F5
  8
LAYER_1
 10
991.5342371967743
 20
1017.165846984854
 30
0.0
  0
VERTEX
  5
9F6
  8
LAYER_1
 10
990.89692417378
 20
1020.576561880923
 30
0.0
  0
VERTEX
  5
9F7
  8
LAYER_1
 10
990.2737884545202
 20
1023.990117788132
 30
0.0
  0
VERTEX
  5
9F8
  8
LAYER_1
 10
989.6648416289131
 20
1027.406469166277
 30
0.0
  0
VERTEX
  5
9F9
  8
LAYER_1
 10
989.0700952868767
 20
1030.82557047516
 30
0.0
  0
VERTEX
  5
9FA
  8
LAYER_1
 10
988.4895610183295
 20
1034.247376174579
 30
0.0
  0
VERTEX
  5
9FB
  8
LAYER_1
 10
987.9232504131894
 20
1037.671840724333
 30
0.0
  0
VERTEX
  5
9FC
  8
LAYER_1
 10
987.3711750613743
 20
1041.098918584222
 30
0.0
  0
VERTEX
  5
9FD
  8
LAYER_1
 10
986.8333465528028
 20
1044.528564214046
 30
0.0
  0
VERTEX
  5
9FE
  8
LAYER_1
 10
986.3097764773929
 20
1047.960732073602
 30
0.0
  0
VERTEX
  5
9FF
  8
LAYER_1
 10
985.8004764250626
 20
1051.395376622692
 30
0.0
  0
VERTEX
  5
A00
  8
LAYER_1
 10
985.3054579857303
 20
1054.832452321113
 30
0.0
  0
VERTEX
  5
A01
  8
LAYER_1
 10
984.8247327493139
 20
1058.271913628665
 30
0.0
  0
VERTEX
  5
A02
  8
LAYER_1
 10
984.3583123057317
 20
1061.713715005148
 30
0.0
  0
VERTEX
  5
A03
  8
LAYER_1
 10
983.9062082449019
 20
1065.15781091036
 30
0.0
  0
VERTEX
  5
A04
  8
LAYER_1
 10
983.4684321567424
 20
1068.604155804101
 30
0.0
  0
VERTEX
  5
A05
  8
LAYER_1
 10
983.0449956311716
 20
1072.052704146171
 30
0.0
  0
VERTEX
  5
A06
  8
LAYER_1
 10
982.6359102581075
 20
1075.503410396368
 30
0.0
  0
VERTEX
  5
A07
  8
LAYER_1
 10
982.2411876274684
 20
1078.956229014492
 30
0.0
  0
VERTEX
  5
A08
  8
LAYER_1
 10
981.8608393291724
 20
1082.411114460342
 30
0.0
  0
VERTEX
  5
A09
  8
LAYER_1
 10
981.4948769531377
 20
1085.868021193717
 30
0.0
  0
VERTEX
  5
A0A
  8
LAYER_1
 10
981.1433120892821
 20
1089.326903674418
 30
0.0
  0
VERTEX
  5
A0B
  8
LAYER_1
 10
980.8061563275243
 20
1092.787716362242
 30
0.0
  0
VERTEX
  5
A0C
  8
LAYER_1
 10
980.483421257782
 20
1096.250413716989
 30
0.0
  0
VERTEX
  5
A0D
  8
LAYER_1
 10
980.1751184699734
 20
1099.714950198459
 30
0.0
  0
VERTEX
  5
A0E
  8
LAYER_1
 10
979.8812595540169
 20
1103.18128026645
 30
0.0
  0
VERTEX
  5
A0F
  8
LAYER_1
 10
979.6018560998305
 20
1106.649358380763
 30
0.0
  0
VERTEX
  5
A10
  8
LAYER_1
 10
979.3369196973324
 20
1110.119139001195
 30
0.0
  0
VERTEX
  5
A11
  8
LAYER_1
 10
979.0864619364407
 20
1113.590576587548
 30
0.0
  0
VERTEX
  5
A12
  8
LAYER_1
 10
978.8504944070735
 20
1117.063625599619
 30
0.0
  0
VERTEX
  5
A13
  8
LAYER_1
 10
978.629028699149
 20
1120.538240497209
 30
0.0
  0
VERTEX
  5
A14
  8
LAYER_1
 10
978.4220764025854
 20
1124.014375740115
 30
0.0
  0
VERTEX
  5
A15
  8
LAYER_1
 10
978.2296491073008
 20
1127.491985788139
 30
0.0
  0
VERTEX
  5
A16
  8
LAYER_1
 10
978.0517584032134
 20
1130.971025101079
 30
0.0
  0
VERTEX
  5
A17
  8
LAYER_1
 10
977.8884158802413
 20
1134.451448138733
 30
0.0
  0
VERTEX
  5
A18
  8
LAYER_1
 10
977.7396331283026
 20
1137.933209360903
 30
0.0
  0
VERTEX
  5
A19
  8
LAYER_1
 10
977.6054217373155
 20
1141.416263227386
 30
0.0
  0
VERTEX
  5
A1A
  8
LAYER_1
 10
977.4857932971984
 20
1144.900564197982
 30
0.0
  0
VERTEX
  5
A1B
  8
LAYER_1
 10
977.380759397869
 20
1148.386066732491
 30
0.0
  0
VERTEX
  5
A1C
  8
LAYER_1
 10
977.2903316292457
 20
1151.872725290711
 30
0.0
  0
VERTEX
  5
A1D
  8
LAYER_1
 10
977.2145215812465
 20
1155.360494332442
 30
0.0
  0
VERTEX
  5
A1E
  8
LAYER_1
 10
977.1533408437897
 20
1158.849328317483
 30
0.0
  0
VERTEX
  5
A1F
  8
LAYER_1
 10
977.1068010067935
 20
1162.339181705634
 30
0.0
  0
VERTEX
  5
A20
  8
LAYER_1
 10
977.0749136601759
 20
1165.830008956694
 30
0.0
  0
VERTEX
  5
A21
  8
LAYER_1
 10
977.0576903938551
 20
1169.321764530462
 30
0.0
  0
VERTEX
  5
A22
  8
LAYER_1
 10
977.0551427977493
 20
1172.814402886737
 30
0.0
  0
VERTEX
  5
A23
  8
LAYER_1
 10
980.088156582847
 20
1175.197312685587
 30
0.0
  0
VERTEX
  5
A24
  8
LAYER_1
 10
981.5920456740699
 20
1176.393131392771
 30
0.0
  0
VERTEX
  5
A25
  8
LAYER_1
 10
983.0874807304656
 20
1177.591804175583
 30
0.0
  0
VERTEX
  5
A26
  8
LAYER_1
 10
984.5744301265763
 20
1178.793289686866
 30
0.0
  0
VERTEX
  5
A27
  8
LAYER_1
 10
986.0528622369446
 20
1179.997546579463
 30
0.0
  0
VERTEX
  5
A28
  8
LAYER_1
 10
987.5227454361127
 20
1181.204533506215
 30
0.0
  0
VERTEX
  5
A29
  8
LAYER_1
 10
988.9840480986231
 20
1182.414209119966
 30
0.0
  0
VERTEX
  5
A2A
  8
LAYER_1
 10
990.4367385990183
 20
1183.626532073557
 30
0.0
  0
VERTEX
  5
A2B
  8
LAYER_1
 10
991.8807853118407
 20
1184.841461019831
 30
0.0
  0
VERTEX
  5
A2C
  8
LAYER_1
 10
993.3161566116326
 20
1186.05895461163
 30
0.0
  0
VERTEX
  5
A2D
  8
LAYER_1
 10
994.7428208729364
 20
1187.278971501798
 30
0.0
  0
VERTEX
  5
A2E
  8
LAYER_1
 10
996.1607464702945
 20
1188.501470343175
 30
0.0
  0
VERTEX
  5
A2F
  8
LAYER_1
 10
997.5699017782496
 20
1189.726409788605
 30
0.0
  0
VERTEX
  5
A30
  8
LAYER_1
 10
998.9702551713439
 20
1190.953748490931
 30
0.0
  0
VERTEX
  5
A31
  8
LAYER_1
 10
1000.36177502412
 20
1192.183445102993
 30
0.0
  0
VERTEX
  5
A32
  8
LAYER_1
 10
1001.74442971112
 20
1193.415458277635
 30
0.0
  0
VERTEX
  5
A33
  8
LAYER_1
 10
1003.118187606886
 20
1194.649746667699
 30
0.0
  0
VERTEX
  5
A34
  8
LAYER_1
 10
1004.483017085961
 20
1195.886268926028
 30
0.0
  0
VERTEX
  5
A35
  8
LAYER_1
 10
1005.838886522888
 20
1197.124983705464
 30
0.0
  0
VERTEX
  5
A36
  8
LAYER_1
 10
1007.185764292208
 20
1198.365849658849
 30
0.0
  0
VERTEX
  5
A37
  8
LAYER_1
 10
1008.523618768464
 20
1199.608825439027
 30
0.0
  0
VERTEX
  5
A38
  8
LAYER_1
 10
1009.852418326199
 20
1200.853869698838
 30
0.0
  0
VERTEX
  5
A39
  8
LAYER_1
 10
1011.172131339955
 20
1202.100941091125
 30
0.0
  0
VERTEX
  5
A3A
  8
LAYER_1
 10
1012.482726184274
 20
1203.349998268732
 30
0.0
  0
VERTEX
  5
A3B
  8
LAYER_1
 10
1013.784171233699
 20
1204.6009998845
 30
0.0
  0
VERTEX
  5
A3C
  8
LAYER_1
 10
1015.076434862772
 20
1205.853904591271
 30
0.0
  0
VERTEX
  5
A3D
  8
LAYER_1
 10
1016.359485446036
 20
1207.108671041889
 30
0.0
  0
VERTEX
  5
A3E
  8
LAYER_1
 10
1017.633291358032
 20
1208.365257889195
 30
0.0
  0
VERTEX
  5
A3F
  8
LAYER_1
 10
1018.897820973304
 20
1209.623623786032
 30
0.0
  0
VERTEX
  5
A40
  8
LAYER_1
 10
1020.153042666394
 20
1210.883727385243
 30
0.0
  0
VERTEX
  5
A41
  8
LAYER_1
 10
1021.398924811844
 20
1212.145527339669
 30
0.0
  0
VERTEX
  5
A42
  8
LAYER_1
 10
1022.635435784197
 20
1213.408982302153
 30
0.0
  0
VERTEX
  5
A43
  8
LAYER_1
 10
1023.862543957995
 20
1214.674050925538
 30
0.0
  0
VERTEX
  5
A44
  8
LAYER_1
 10
1025.080217707781
 20
1215.940691862665
 30
0.0
  0
VERTEX
  5
A45
  8
LAYER_1
 10
1026.288425408096
 20
1217.208863766378
 30
0.0
  0
VERTEX
  5
A46
  8
LAYER_1
 10
1027.487135433483
 20
1218.478525289518
 30
0.0
  0
VERTEX
  5
A47
  8
LAYER_1
 10
1028.676316158486
 20
1219.749635084929
 30
0.0
  0
VERTEX
  5
A48
  8
LAYER_1
 10
1029.855935957645
 20
1221.022151805452
 30
0.0
  0
VERTEX
  5
A49
  8
LAYER_1
 10
1031.025963205504
 20
1222.29603410393
 30
0.0
  0
VERTEX
  5
A4A
  8
LAYER_1
 10
1032.186366276605
 20
1223.571240633205
 30
0.0
  0
VERTEX
  5
A4B
  8
LAYER_1
 10
1033.337113545491
 20
1224.84773004612
 30
0.0
  0
VERTEX
  5
A4C
  8
LAYER_1
 10
1034.478173386703
 20
1226.125460995517
 30
0.0
  0
VERTEX
  5
A4D
  8
LAYER_1
 10
1035.609514174784
 20
1227.404392134238
 30
0.0
  0
VERTEX
  5
A4E
  8
LAYER_1
 10
1036.731104284277
 20
1228.684482115126
 30
0.0
  0
VERTEX
  5
A4F
  8
LAYER_1
 10
1037.842912089724
 20
1229.965689591023
 30
0.0
  0
VERTEX
  5
A50
  8
LAYER_1
 10
1038.944905965668
 20
1231.247973214772
 30
0.0
  0
VERTEX
  5
A51
  8
LAYER_1
 10
1040.03705428665
 20
1232.531291639215
 30
0.0
  0
VERTEX
  5
A52
  8
LAYER_1
 10
1041.119325427214
 20
1233.815603517195
 30
0.0
  0
VERTEX
  5
A53
  8
LAYER_1
 10
1042.191687761901
 20
1235.100867501553
 30
0.0
  0
VERTEX
  5
A54
  8
LAYER_1
 10
1043.254109665255
 20
1236.387042245132
 30
0.0
  0
VERTEX
  5
A55
  8
LAYER_1
 10
1044.306559511817
 20
1237.674086400776
 30
0.0
  0
VERTEX
  5
A56
  8
LAYER_1
 10
1045.34900567613
 20
1238.961958621325
 30
0.0
  0
VERTEX
  5
A57
  8
LAYER_1
 10
1046.381416532736
 20
1240.250617559622
 30
0.0
  0
VERTEX
  5
A58
  8
LAYER_1
 10
1047.403760456178
 20
1241.54002186851
 30
0.0
  0
VERTEX
  5
A59
  8
LAYER_1
 10
1048.416005820998
 20
1242.830130200832
 30
0.0
  0
VERTEX
  5
A5A
  8
LAYER_1
 10
1049.418121001739
 20
1244.120901209429
 30
0.0
  0
VERTEX
  5
A5B
  8
LAYER_1
 10
1050.410074372943
 20
1245.412293547144
 30
0.0
  0
VERTEX
  5
A5C
  8
LAYER_1
 10
1051.391834309152
 20
1246.704265866819
 30
0.0
  0
VERTEX
  5
A5D
  8
LAYER_1
 10
1052.363369184909
 20
1247.996776821297
 30
0.0
  0
VERTEX
  5
A5E
  8
LAYER_1
 10
1053.324647374756
 20
1249.28978506342
 30
0.0
  0
VERTEX
  5
A5F
  8
LAYER_1
 10
1054.275637253236
 20
1250.583249246031
 30
0.0
  0
VERTEX
  5
A60
  8
LAYER_1
 10
1055.216307194892
 20
1251.877128021972
 30
0.0
  0
VERTEX
  5
A61
  8
LAYER_1
 10
1056.146625574264
 20
1253.171380044085
 30
0.0
  0
VERTEX
  5
A62
  8
LAYER_1
 10
1057.066560765896
 20
1254.465963965213
 30
0.0
  0
VERTEX
  5
A63
  8
LAYER_1
 10
1057.976081144331
 20
1255.760838438198
 30
0.0
  0
VERTEX
  5
A64
  8
LAYER_1
 10
1058.875155084111
 20
1257.055962115883
 30
0.0
  0
VERTEX
  5
A65
  8
LAYER_1
 10
1059.763750959777
 20
1258.351293651109
 30
0.0
  0
VERTEX
  5
A66
  8
LAYER_1
 10
1060.641837145874
 20
1259.64679169672
 30
0.0
  0
VERTEX
  5
A67
  8
LAYER_1
 10
1061.509382016941
 20
1260.942414905558
 30
0.0
  0
VERTEX
  5
A68
  8
LAYER_1
 10
1062.366353947524
 20
1262.238121930465
 30
0.0
  0
VERTEX
  5
A69
  8
LAYER_1
 10
1063.212721312163
 20
1263.533871424283
 30
0.0
  0
VERTEX
  5
A6A
  8
LAYER_1
 10
1064.048452485402
 20
1264.829622039855
 30
0.0
  0
VERTEX
  5
A6B
  8
LAYER_1
 10
1064.873515841782
 20
1266.125332430023
 30
0.0
  0
VERTEX
  5
A6C
  8
LAYER_1
 10
1065.687879755846
 20
1267.42096124763
 30
0.0
  0
VERTEX
  5
A6D
  8
LAYER_1
 10
1066.491512602136
 20
1268.716467145519
 30
0.0
  0
VERTEX
  5
A6E
  8
LAYER_1
 10
1067.284382755196
 20
1270.01180877653
 30
0.0
  0
VERTEX
  5
A6F
  8
LAYER_1
 10
1068.066458589567
 20
1271.306944793508
 30
0.0
  0
VERTEX
  5
A70
  8
LAYER_1
 10
1068.837708479791
 20
1272.601833849294
 30
0.0
  0
VERTEX
  5
A71
  8
LAYER_1
 10
1069.598100800412
 20
1273.896434596731
 30
0.0
  0
VERTEX
  5
A72
  8
LAYER_1
 10
1070.347603925971
 20
1275.19070568866
 30
0.0
  0
VERTEX
  5
A73
  8
LAYER_1
 10
1071.086186231011
 20
1276.484605777925
 30
0.0
  0
VERTEX
  5
A74
  8
LAYER_1
 10
1071.813816090074
 20
1277.778093517368
 30
0.0
  0
VERTEX
  5
A75
  8
LAYER_1
 10
1072.530461877704
 20
1279.071127559832
 30
0.0
  0
VERTEX
  5
A76
  8
LAYER_1
 10
1073.236091968441
 20
1280.363666558158
 30
0.0
  0
VERTEX
  5
A77
  8
LAYER_1
 10
1073.930674736829
 20
1281.655669165189
 30
0.0
  0
VERTEX
  5
A78
  8
LAYER_1
 10
1074.61417855741
 20
1282.947094033767
 30
0.0
  0
VERTEX
  5
A79
  8
LAYER_1
 10
1075.286571804726
 20
1284.237899816735
 30
0.0
  0
VERTEX
  5
A7A
  8
LAYER_1
 10
1075.94782285332
 20
1285.528045166935
 30
0.0
  0
VERTEX
  5
A7B
  8
LAYER_1
 10
1076.597900077735
 20
1286.817488737211
 30
0.0
  0
VERTEX
  5
A7C
  8
LAYER_1
 10
1077.236771852512
 20
1288.106189180403
 30
0.0
  0
VERTEX
  5
A7D
  8
LAYER_1
 10
1077.864406552194
 20
1289.394105149354
 30
0.0
  0
VERTEX
  5
A7E
  8
LAYER_1
 10
1078.480772551324
 20
1290.681195296908
 30
0.0
  0
VERTEX
  5
A7F
  8
LAYER_1
 10
1079.085838224443
 20
1291.967418275905
 30
0.0
  0
VERTEX
  5
A80
  8
LAYER_1
 10
1079.679571946095
 20
1293.252732739189
 30
0.0
  0
VERTEX
  5
A81
  8
LAYER_1
 10
1080.261942090821
 20
1294.537097339603
 30
0.0
  0
VERTEX
  5
A82
  8
LAYER_1
 10
1080.832917033165
 20
1295.820470729987
 30
0.0
  0
VERTEX
  5
A83
  8
LAYER_1
 10
1081.392465147668
 20
1297.102811563186
 30
0.0
  0
VERTEX
  5
A84
  8
LAYER_1
 10
1081.940554808873
 20
1298.384078492041
 30
0.0
  0
VERTEX
  5
A85
  8
LAYER_1
 10
1082.477154391323
 20
1299.664230169394
 30
0.0
  0
VERTEX
  5
A86
  8
LAYER_1
 10
1083.002232269559
 20
1300.943225248088
 30
0.0
  0
VERTEX
  5
A87
  8
LAYER_1
 10
1083.515756818125
 20
1302.221022380966
 30
0.0
  0
VERTEX
  5
A88
  8
LAYER_1
 10
1084.017696411562
 20
1303.497580220869
 30
0.0
  0
VERTEX
  5
A89
  8
LAYER_1
 10
1084.508019424413
 20
1304.772857420641
 30
0.0
  0
VERTEX
  5
A8A
  8
LAYER_1
 10
1084.986694231221
 20
1306.046812633123
 30
0.0
  0
VERTEX
  5
A8B
  8
LAYER_1
 10
1085.453689206528
 20
1307.319404511158
 30
0.0
  0
VERTEX
  5
A8C
  8
LAYER_1
 10
1085.908972724875
 20
1308.590591707588
 30
0.0
  0
VERTEX
  5
A8D
  8
LAYER_1
 10
1086.352513160807
 20
1309.860332875257
 30
0.0
  0
VERTEX
  5
A8E
  8
LAYER_1
 10
1086.784278888865
 20
1311.128586667005
 30
0.0
  0
VERTEX
  5
A8F
  8
LAYER_1
 10
1087.204238283591
 20
1312.395311735676
 30
0.0
  0
VERTEX
  5
A90
  8
LAYER_1
 10
1087.612359719528
 20
1313.660466734112
 30
0.0
  0
VERTEX
  5
A91
  8
LAYER_1
 10
1088.008611571218
 20
1314.924010315155
 30
0.0
  0
VERTEX
  5
A92
  8
LAYER_1
 10
1088.392962213205
 20
1316.185901131647
 30
0.0
  0
VERTEX
  5
A93
  8
LAYER_1
 10
1088.765380020029
 20
1317.446097836433
 30
0.0
  0
VERTEX
  5
A94
  8
LAYER_1
 10
1089.125833366234
 20
1318.704559082352
 30
0.0
  0
VERTEX
  5
A95
  8
LAYER_1
 10
1089.474290626362
 20
1319.961243522249
 30
0.0
  0
VERTEX
  5
A96
  8
LAYER_1
 10
1089.810720174955
 20
1321.216109808965
 30
0.0
  0
VERTEX
  5
A97
  8
LAYER_1
 10
1090.135090386556
 20
1322.469116595342
 30
0.0
  0
VERTEX
  5
A98
  8
LAYER_1
 10
1090.447369635708
 20
1323.720222534223
 30
0.0
  0
VERTEX
  5
A99
  8
LAYER_1
 10
1090.747526296952
 20
1324.969386278452
 30
0.0
  0
VERTEX
  5
A9A
  8
LAYER_1
 10
1091.035528744831
 20
1326.216566480869
 30
0.0
  0
VERTEX
  5
A9B
  8
LAYER_1
 10
1091.311345353888
 20
1327.461721794317
 30
0.0
  0
VERTEX
  5
A9C
  8
LAYER_1
 10
1091.574944498664
 20
1328.704810871639
 30
0.0
  0
VERTEX
  5
A9D
  8
LAYER_1
 10
1091.826294553703
 20
1329.945792365677
 30
0.0
  0
VERTEX
  5
A9E
  8
LAYER_1
 10
1092.065363893547
 20
1331.184624929273
 30
0.0
  0
VERTEX
  5
A9F
  8
LAYER_1
 10
1092.292120892737
 20
1332.421267215271
 30
0.0
  0
VERTEX
  5
AA0
  8
LAYER_1
 10
1092.506533925818
 20
1333.655677876511
 30
0.0
  0
VERTEX
  5
AA1
  8
LAYER_1
 10
1092.70857136733
 20
1334.887815565838
 30
0.0
  0
SEQEND
  5
D24
  8
LAYER_1
  0
POLYLINE
  5
86
  8
LAYER_1
 66
     1
 10
0.0
 20
0.0
 30
0.0
  0
VERTEX
  5
AA2
  8
LAYER_1
 10
1093.035155492627
 20
747.8904168743643
 30
0.0
  0
VERTEX
  5
AA3
  8
LAYER_1
 10
1094.814200417595
 20
744.8984006444803
 30
0.0
  0
VERTEX
  5
AA4
  8
LAYER_1
 10
1096.606285896659
 20
741.913015667576
 30
0.0
  0
VERTEX
  5
AA5
  8
LAYER_1
 10
1098.411400534906
 20
738.9343066148881
 30
0.0
  0
VERTEX
  5
AA6
  8
LAYER_1
 10
1100.229532937423
 20
735.9623181576534
 30
0.0
  0
VERTEX
  5
AA7
  8
LAYER_1
 10
1102.060671709298
 20
732.9970949671084
 30
0.0
  0
VERTEX
  5
AA8
  8
LAYER_1
 10
1103.904805455617
 20
730.0386817144899
 30
0.0
  0
VERTEX
  5
AA9
  8
LAYER_1
 10
1105.761922781468
 20
727.0871230710347
 30
0.0
  0
VERTEX
  5
AAA
  8
LAYER_1
 10
1107.632012291939
 20
724.1424637079793
 30
0.0
  0
VERTEX
  5
AAB
  8
LAYER_1
 10
1109.515062592115
 20
721.2047482965606
 30
0.0
  0
VERTEX
  5
AAC
  8
LAYER_1
 10
1111.411062287085
 20
718.274021508015
 30
0.0
  0
VERTEX
  5
AAD
  8
LAYER_1
 10
1113.319999981935
 20
715.3503280135793
 30
0.0
  0
VERTEX
  5
AAE
  8
LAYER_1
 10
1115.241864281753
 20
712.4337124844903
 30
0.0
  0
VERTEX
  5
AAF
  8
LAYER_1
 10
1117.176643791626
 20
709.5242195919845
 30
0.0
  0
VERTEX
  5
AB0
  8
LAYER_1
 10
1119.124327116641
 20
706.6218940072988
 30
0.0
  0
VERTEX
  5
AB1
  8
LAYER_1
 10
1121.084902861885
 20
703.7267804016697
 30
0.0
  0
VERTEX
  5
AB2
  8
LAYER_1
 10
1123.058359632446
 20
700.8389234463339
 30
0.0
  0
VERTEX
  5
AB3
  8
LAYER_1
 10
1125.04468603341
 20
697.9583678125282
 30
0.0
  0
VERTEX
  5
AB4
  8
LAYER_1
 10
1127.043870669866
 20
695.0851581714892
 30
0.0
  0
VERTEX
  5
AB5
  8
LAYER_1
 10
1129.055902146899
 20
692.2193391944536
 30
0.0
  0
VERTEX
  5
AB6
  8
LAYER_1
 10
1131.080769069597
 20
689.3609555526581
 30
0.0
  0
VERTEX
  5
AB7
  8
LAYER_1
 10
1133.118460043048
 20
686.5100519173393
 30
0.0
  0
VERTEX
  5
AB8
  8
LAYER_1
 10
1135.168963672339
 20
683.6666729597341
 30
0.0
  0
VERTEX
  5
AB9
  8
LAYER_1
 10
1137.232268562556
 20
680.8308633510791
 30
0.0
  0
VERTEX
  5
ABA
  8
LAYER_1
 10
1139.308363318787
 20
678.0026677626107
 30
0.0
  0
VERTEX
  5
ABB
  8
LAYER_1
 10
1141.397236546119
 20
675.1821308655659
 30
0.0
  0
VERTEX
  5
ABC
  8
LAYER_1
 10
1143.49887684964
 20
672.3692973311813
 30
0.0
  0
VERTEX
  5
ABD
  8
LAYER_1
 10
1145.613272834436
 20
669.5642118306937
 30
0.0
  0
VERTEX
  5
ABE
  8
LAYER_1
 10
1147.740413105595
 20
666.7669190353397
 30
0.0
  0
VERTEX
  5
ABF
  8
LAYER_1
 10
1149.880286268203
 20
663.9774636163559
 30
0.0
  0
VERTEX
  5
AC0
  8
LAYER_1
 10
1152.032880927349
 20
661.1958902449792
 30
0.0
  0
VERTEX
  5
AC1
  8
LAYER_1
 10
1154.198185688119
 20
658.4222435924461
 30
0.0
  0
VERTEX
  5
AC2
  8
LAYER_1
 10
1156.3761891556
 20
655.6565683299931
 30
0.0
  0
VERTEX
  5
AC3
  8
LAYER_1
 10
1158.56687993488
 20
652.8989091288571
 30
0.0
  0
VERTEX
  5
AC4
  8
LAYER_1
 10
1160.770246631045
 20
650.149310660275
 30
0.0
  0
VERTEX
  5
AC5
  8
LAYER_1
 10
1162.986277849184
 20
647.4078175954833
 30
0.0
  0
VERTEX
  5
AC6
  8
LAYER_1
 10
1165.214962194383
 20
644.6744746057184
 30
0.0
  0
VERTEX
  5
AC7
  8
LAYER_1
 10
1167.456288271729
 20
641.9493263622174
 30
0.0
  0
VERTEX
  5
AC8
  8
LAYER_1
 10
1169.71024468631
 20
639.2324175362169
 30
0.0
  0
VERTEX
  5
AC9
  8
LAYER_1
 10
1171.976820043212
 20
636.5237927989534
 30
0.0
  0
VERTEX
  5
ACA
  8
LAYER_1
 10
1174.256002947523
 20
633.8234968216638
 30
0.0
  0
VERTEX
  5
ACB
  8
LAYER_1
 10
1176.54778200433
 20
631.1315742755846
 30
0.0
  0
VERTEX
  5
ACC
  8
LAYER_1
 10
1178.852145818721
 20
628.4480698319526
 30
0.0
  0
VERTEX
  5
ACD
  8
LAYER_1
 10
1181.169082995782
 20
625.7730281620045
 30
0.0
  0
VERTEX
  5
ACE
  8
LAYER_1
 10
1183.4985821406
 20
623.1064939369769
 30
0.0
  0
VERTEX
  5
ACF
  8
LAYER_1
 10
1185.840631858264
 20
620.4485118281065
 30
0.0
  0
VERTEX
  5
AD0
  8
LAYER_1
 10
1188.195220753859
 20
617.79912650663
 30
0.0
  0
VERTEX
  5
AD1
  8
LAYER_1
 10
1190.562337432473
 20
615.1583826437842
 30
0.0
  0
VERTEX
  5
AD2
  8
LAYER_1
 10
1192.941970499194
 20
612.5263249108056
 30
0.0
  0
VERTEX
  5
AD3
  8
LAYER_1
 10
1195.334108559109
 20
609.9029979789309
 30
0.0
  0
VERTEX
  5
AD4
  8
LAYER_1
 10
1197.738740217304
 20
607.288446519397
 30
0.0
  0
VERTEX
  5
AD5
  8
LAYER_1
 10
1200.155854078867
 20
604.6827152034405
 30
0.0
  0
VERTEX
  5
AD6
  8
LAYER_1
 10
1202.585438748885
 20
602.0858487022979
 30
0.0
  0
VERTEX
  5
AD7
  8
LAYER_1
 10
1205.027482832445
 20
599.497891687206
 30
0.0
  0
VERTEX
  5
AD8
  8
LAYER_1
 10
1207.481974934635
 20
596.9188888294016
 30
0.0
  0
VERTEX
  5
AD9
  8
LAYER_1
 10
1209.948903660542
 20
594.3488848001211
 30
0.0
  0
VERTEX
  5
ADA
  8
LAYER_1
 10
1212.428257615252
 20
591.7879242706015
 30
0.0
  0
VERTEX
  5
ADB
  8
LAYER_1
 10
1214.920025403853
 20
589.2360519120793
 30
0.0
  0
VERTEX
  5
ADC
  8
LAYER_1
 10
1217.424195631433
 20
586.6933123957913
 30
0.0
  0
VERTEX
  5
ADD
  8
LAYER_1
 10
1219.940756903078
 20
584.159750392974
 30
0.0
  0
VERTEX
  5
ADE
  8
LAYER_1
 10
1222.469697823875
 20
581.6354105748644
 30
0.0
  0
VERTEX
  5
ADF
  8
LAYER_1
 10
1225.011006998913
 20
579.1203376126989
 30
0.0
  0
VERTEX
  5
AE0
  8
LAYER_1
 10
1227.564673033277
 20
576.6145761777143
 30
0.0
  0
VERTEX
  5
AE1
  8
LAYER_1
 10
1230.130684532055
 20
574.1181709411472
 30
0.0
  0
VERTEX
  5
AE2
  8
LAYER_1
 10
1232.709030100335
 20
571.6311665742344
 30
0.0
  0
SEQEND
  5
D25
  8
LAYER_1
  0
POLYLINE
  5
87
  8
LAYER_1
 66
     1
 10
0.0
 20
0.0
 30
0.0
  0
VERTEX
  5
AE3
  8
LAYER_1
 10
1000.375977585797
 20
571.6297029909833
 30
0.0
  0
VERTEX
  5
AE4
  8
LAYER_1
 10
998.7893839317666
 20
574.2092740810317
 30
0.0
  0
VERTEX
  5
AE5
  8
LAYER_1
 10
997.2117522853746
 20
576.7928382568014
 30
0.0
  0
VERTEX
  5
AE6
  8
LAYER_1
 10
995.6430839891423
 20
579.3803733246666
 30
0.0
  0
VERTEX
  5
AE7
  8
LAYER_1
 10
994.083380385591
 20
581.9718570910013
 30
0.0
  0
VERTEX
  5
AE8
  8
LAYER_1
 10
992.5326428172426
 20
584.5672673621797
 30
0.0
  0
VERTEX
  5
AE9
  8
LAYER_1
 10
990.9908726266183
 20
587.1665819445759
 30
0.0
  0
VERTEX
  5
AEA
  8
LAYER_1
 10
989.4580711562398
 20
589.7697786445639
 30
0.0
  0
VERTEX
  5
AEB
  8
LAYER_1
 10
987.9342397486288
 20
592.3768352685177
 30
0.0
  0
VERTEX
  5
AEC
  8
LAYER_1
 10
986.4193797463065
 20
594.9877296228115
 30
0.0
  0
VERTEX
  5
AED
  8
LAYER_1
 10
984.9134924917948
 20
597.6024395138193
 30
0.0
  0
VERTEX
  5
AEE
  8
LAYER_1
 10
983.4165793276153
 20
600.220942747915
 30
0.0
  0
VERTEX
  5
AEF
  8
LAYER_1
 10
981.9286415962893
 20
602.843217131473
 30
0.0
  0
VERTEX
  5
AF0
  8
LAYER_1
 10
980.4496806403383
 20
605.4692404708671
 30
0.0
  0
VERTEX
  5
AF1
  8
LAYER_1
 10
978.9796978022844
 20
608.0989905724717
 30
0.0
  0
VERTEX
  5
AF2
  8
LAYER_1
 10
977.5186944246484
 20
610.7324452426607
 30
0.0
  0
VERTEX
  5
AF3
  8
LAYER_1
 10
976.0666718499523
 20
613.3695822878079
 30
0.0
  0
VERTEX
  5
AF4
  8
LAYER_1
 10
974.6236314207176
 20
616.0103795142877
 30
0.0
  0
VERTEX
  5
AF5
  8
LAYER_1
 10
973.1895744794658
 20
618.6548147284741
 30
0.0
  0
VERTEX
  5
AF6
  8
LAYER_1
 10
971.7645023687186
 20
621.3028657367411
 30
0.0
  0
VERTEX
  5
AF7
  8
LAYER_1
 10
970.3484164309973
 20
623.954510345463
 30
0.0
  0
VERTEX
  5
AF8
  8
LAYER_1
 10
968.9413180088236
 20
626.6097263610136
 30
0.0
  0
VERTEX
  5
AF9
  8
LAYER_1
 10
967.5432084447192
 20
629.2684915897671
 30
0.0
  0
VERTEX
  5
AFA
  8
LAYER_1
 10
966.1540890812055
 20
631.9307838380976
 30
0.0
  0
VERTEX
  5
AFB
  8
LAYER_1
 10
964.773961260804
 20
634.5965809123791
 30
0.0
  0
VERTEX
  5
AFC
  8
LAYER_1
 10
963.4028263260363
 20
637.2658606189857
 30
0.0
  0
VERTEX
  5
AFD
  8
LAYER_1
 10
962.040685619424
 20
639.9386007642913
 30
0.0
  0
VERTEX
  5
AFE
  8
LAYER_1
 10
960.6875404834886
 20
642.6147791546703
 30
0.0
  0
VERTEX
  5
AFF
  8
LAYER_1
 10
959.3433922607519
 20
645.2943735964966
 30
0.0
  0
VERTEX
  5
B00
  8
LAYER_1
 10
958.0082422937352
 20
647.9773618961442
 30
0.0
  0
VERTEX
  5
B01
  8
LAYER_1
 10
956.6820919249599
 20
650.6637218599873
 30
0.0
  0
VERTEX
  5
B02
  8
LAYER_1
 10
955.3649424969478
 20
653.3534312943998
 30
0.0
  0
VERTEX
  5
B03
  8
LAYER_1
 10
954.0567953522205
 20
656.0464680057561
 30
0.0
  0
VERTEX
  5
B04
  8
LAYER_1
 10
952.7576518332994
 20
658.74280980043
 30
0.0
  0
VERTEX
  5
B05
  8
LAYER_1
 10
951.4675132827062
 20
661.4424344847955
 30
0.0
  0
VERTEX
  5
B06
  8
LAYER_1
 10
950.1863810429625
 20
664.1453198652268
 30
0.0
  0
VERTEX
  5
B07
  8
LAYER_1
 10
948.9142564565897
 20
666.8514437480982
 30
0.0
  0
VERTEX
  5
B08
  8
LAYER_1
 10
947.6511408661094
 20
669.5607839397834
 30
0.0
  0
VERTEX
  5
B09
  8
LAYER_1
 10
946.397035614043
 20
672.2733182466566
 30
0.0
  0
VERTEX
  5
B0A
  8
LAYER_1
 10
945.1519420429124
 20
674.9890244750919
 30
0.0
  0
VERTEX
  5
B0B
  8
LAYER_1
 10
943.9158614952389
 20
677.7078804314635
 30
0.0
  0
VERTEX
  5
B0C
  8
LAYER_1
 10
942.6887953135442
 20
680.4298639221454
 30
0.0
  0
VERTEX
  5
B0D
  8
LAYER_1
 10
941.4707448403498
 20
683.1549527535113
 30
0.0
  0
VERTEX
  5
B0E
  8
LAYER_1
 10
940.2617114181771
 20
685.8831247319357
 30
0.0
  0
VERTEX
  5
B0F
  8
LAYER_1
 10
939.0616963895479
 20
688.6143576637926
 30
0.0
  0
VERTEX
  5
B10
  8
LAYER_1
 10
937.8707010969837
 20
691.348629355456
 30
0.0
  0
VERTEX
  5
B11
  8
LAYER_1
 10
936.6887268830059
 20
694.0859176133
 30
0.0
  0
VERTEX
  5
B12
  8
LAYER_1
 10
935.515775090136
 20
696.8262002436987
 30
0.0
  0
VERTEX
  5
B13
  8
LAYER_1
 10
934.351847060896
 20
699.5694550530261
 30
0.0
  0
VERTEX
  5
B14
  8
LAYER_1
 10
933.1969441378071
 20
702.3156598476563
 30
0.0
  0
VERTEX
  5
B15
  8
LAYER_1
 10
932.051067663391
 20
705.0647924339635
 30
0.0
  0
VERTEX
  5
B16
  8
LAYER_1
 10
930.9142189801692
 20
707.8168306183215
 30
0.0
  0
VERTEX
  5
B17
  8
LAYER_1
 10
929.7863994306631
 20
710.5717522071047
 30
0.0
  0
VERTEX
  5
B18
  8
LAYER_1
 10
928.6676103573946
 20
713.329535006687
 30
0.0
  0
VERTEX
  5
B19
  8
LAYER_1
 10
927.5578531028849
 20
716.0901568234424
 30
0.0
  0
VERTEX
  5
B1A
  8
LAYER_1
 10
926.4571290096558
 20
718.8535954637449
 30
0.0
  0
VERTEX
  5
B1B
  8
LAYER_1
 10
925.3654394202288
 20
721.6198287339688
 30
0.0
  0
VERTEX
  5
B1C
  8
LAYER_1
 10
924.2827856771254
 20
724.3888344404882
 30
0.0
  0
VERTEX
  5
B1D
  8
LAYER_1
 10
923.2091691228673
 20
727.1605903896768
 30
0.0
  0
VERTEX
  5
B1E
  8
LAYER_1
 10
922.1445910999757
 20
729.9350743879091
 30
0.0
  0
VERTEX
  5
B1F
  8
LAYER_1
 10
921.0890529509726
 20
732.7122642415591
 30
0.0
  0
VERTEX
  5
B20
  8
LAYER_1
 10
920.0425560183793
 20
735.4921377570008
 30
0.0
  0
VERTEX
  5
B21
  8
LAYER_1
 10
919.0051016447173
 20
738.2746727406081
 30
0.0
  0
VERTEX
  5
B22
  8
LAYER_1
 10
917.9766911725085
 20
741.0598469987552
 30
0.0
  0
VERTEX
  5
B23
  8
LAYER_1
 10
916.9573259442741
 20
743.8476383378163
 30
0.0
  0
SEQEND
  5
D26
  8
LAYER_1
  0
POLYLINE
  5
88
  8
LAYER_1
 66
     1
 10
0.0
 20
0.0
 30
0.0
  0
VERTEX
  5
B24
  8
LAYER_1
 10
830.7513807337434
 20
1452.807557916464
 30
0.0
  0
VERTEX
  5
B25
  8
LAYER_1
 10
829.8313225144218
 20
1446.563052226914
 30
0.0
  0
VERTEX
  5
B26
  8
LAYER_1
 10
828.8864407835988
 20
1440.322303000889
 30
0.0
  0
VERTEX
  5
B27
  8
LAYER_1
 10
827.9167478517787
 20
1434.085387989085
 30
0.0
  0
VERTEX
  5
B28
  8
LAYER_1
 10
826.9222560294661
 20
1427.852384942195
 30
0.0
  0
SEQEND
  5
D27
  8
LAYER_1
  0
POLYLINE
  5
89
  8
LAYER_1
 66
     1
 10
0.0
 20
0.0
 30
0.0
  0
VERTEX
  5
B29
  8
LAYER_1
 10
1092.741416974717
 20
1683.682731590733
 30
0.0
  0
VERTEX
  5
B2A
  8
LAYER_1
 10
1094.711500109747
 20
1685.927463251366
 30
0.0
  0
VERTEX
  5
B2B
  8
LAYER_1
 10
1096.688766216849
 20
1688.165985475062
 30
0.0
  0
VERTEX
  5
B2C
  8
LAYER_1
 10
1098.673200876612
 20
1690.398280603549
 30
0.0
  0
VERTEX
  5
B2D
  8
LAYER_1
 10
1100.664789669621
 20
1692.624330978551
 30
0.0
  0
VERTEX
  5
B2E
  8
LAYER_1
 10
1102.663518176465
 20
1694.844118941795
 30
0.0
  0
VERTEX
  5
B2F
  8
LAYER_1
 10
1104.66937197773
 20
1697.057626835008
 30
0.0
  0
VERTEX
  5
B30
  8
LAYER_1
 10
1106.682336654004
 20
1699.264836999915
 30
0.0
  0
VERTEX
  5
B31
  8
LAYER_1
 10
1108.702397785874
 20
1701.465731778243
 30
0.0
  0
VERTEX
  5
B32
  8
LAYER_1
 10
1110.729540953927
 20
1703.660293511717
 30
0.0
  0
VERTEX
  5
B33
  8
LAYER_1
 10
1112.76375173875
 20
1705.848504542064
 30
0.0
  0
VERTEX
  5
B34
  8
LAYER_1
 10
1114.80501572093
 20
1708.030347211011
 30
0.0
  0
VERTEX
  5
B35
  8
LAYER_1
 10
1116.853318481054
 20
1710.205803860282
 30
0.0
  0
VERTEX
  5
B36
  8
LAYER_1
 10
1118.90864559971
 20
1712.374856831605
 30
0.0
  0
VERTEX
  5
B37
  8
LAYER_1
 10
1120.970982657485
 20
1714.537488466706
 30
0.0
  0
VERTEX
  5
B38
  8
LAYER_1
 10
1123.040315234966
 20
1716.69368110731
 30
0.0
  0
VERTEX
  5
B39
  8
LAYER_1
 10
1125.116628912739
 20
1718.843417095144
 30
0.0
  0
VERTEX
  5
B3A
  8
LAYER_1
 10
1127.199909271393
 20
1720.986678771934
 30
0.0
  0
VERTEX
  5
B3B
  8
LAYER_1
 10
1129.290141891515
 20
1723.123448479406
 30
0.0
  0
VERTEX
  5
B3C
  8
LAYER_1
 10
1131.387312353691
 20
1725.253708559287
 30
0.0
  0
VERTEX
  5
B3D
  8
LAYER_1
 10
1133.491406238508
 20
1727.377441353302
 30
0.0
  0
VERTEX
  5
B3E
  8
LAYER_1
 10
1135.602409126555
 20
1729.494629203177
 30
0.0
  0
VERTEX
  5
B3F
  8
LAYER_1
 10
1137.720306598417
 20
1731.605254450639
 30
0.0
  0
VERTEX
  5
B40
  8
LAYER_1
 10
1139.845084234683
 20
1733.709299437415
 30
0.0
  0
VERTEX
  5
B41
  8
LAYER_1
 10
1141.976727615938
 20
1735.806746505229
 30
0.0
  0
VERTEX
  5
B42
  8
LAYER_1
 10
1144.115222322772
 20
1737.897577995808
 30
0.0
  0
VERTEX
  5
B43
  8
LAYER_1
 10
1146.26055393577
 20
1739.981776250879
 30
0.0
  0
VERTEX
  5
B44
  8
LAYER_1
 10
1148.412708035519
 20
1742.059323612168
 30
0.0
  0
VERTEX
  5
B45
  8
LAYER_1
 10
1150.571670202608
 20
1744.1302024214
 30
0.0
  0
VERTEX
  5
B46
  8
LAYER_1
 10
1152.737426017623
 20
1746.194395020302
 30
0.0
  0
VERTEX
  5
B47
  8
LAYER_1
 10
1154.909961061152
 20
1748.2518837506
 30
0.0
  0
VERTEX
  5
B48
  8
LAYER_1
 10
1157.08926091378
 20
1750.30265095402
 30
0.0
  0
VERTEX
  5
B49
  8
LAYER_1
 10
1159.275311156097
 20
1752.346678972289
 30
0.0
  0
VERTEX
  5
B4A
  8
LAYER_1
 10
1161.468097368688
 20
1754.383950147133
 30
0.0
  0
VERTEX
  5
B4B
  8
LAYER_1
 10
1163.667605132141
 20
1756.414446820276
 30
0.0
  0
VERTEX
  5
B4C
  8
LAYER_1
 10
1165.873820027043
 20
1758.438151333447
 30
0.0
  0
VERTEX
  5
B4D
  8
LAYER_1
 10
1168.086727633981
 20
1760.45504602837
 30
0.0
  0
VERTEX
  5
B4E
  8
LAYER_1
 10
1170.306313533542
 20
1762.465113246773
 30
0.0
  0
VERTEX
  5
B4F
  8
LAYER_1
 10
1172.532563306315
 20
1764.468335330381
 30
0.0
  0
VERTEX
  5
B50
  8
LAYER_1
 10
1174.765462532885
 20
1766.46469462092
 30
0.0
  0
VERTEX
  5
B51
  8
LAYER_1
 10
1177.004996793839
 20
1768.454173460117
 30
0.0
  0
VERTEX
  5
B52
  8
LAYER_1
 10
1179.251151669766
 20
1770.436754189698
 30
0.0
  0
VERTEX
  5
B53
  8
LAYER_1
 10
1181.503912741252
 20
1772.412419151388
 30
0.0
  0
VERTEX
  5
B54
  8
LAYER_1
 10
1183.763265588884
 20
1774.381150686915
 30
0.0
  0
VERTEX
  5
B55
  8
LAYER_1
 10
1186.02919579325
 20
1776.342931138004
 30
0.0
  0
VERTEX
  5
B56
  8
LAYER_1
 10
1188.301688934937
 20
1778.297742846381
 30
0.0
  0
VERTEX
  5
B57
  8
LAYER_1
 10
1190.580730594531
 20
1780.245568153773
 30
0.0
  0
VERTEX
  5
B58
  8
LAYER_1
 10
1192.86630635262
 20
1782.186389401905
 30
0.0
  0
VERTEX
  5
B59
  8
LAYER_1
 10
1195.158401789792
 20
1784.120188932504
 30
0.0
  0
VERTEX
  5
B5A
  8
LAYER_1
 10
1197.457002486632
 20
1786.046949087297
 30
0.0
  0
VERTEX
  5
B5B
  8
LAYER_1
 10
1199.762094023729
 20
1787.966652208008
 30
0.0
  0
VERTEX
  5
B5C
  8
LAYER_1
 10
1202.07366198167
 20
1789.879280636364
 30
0.0
  0
VERTEX
  5
B5D
  8
LAYER_1
 10
1204.391691941042
 20
1791.784816714093
 30
0.0
  0
VERTEX
  5
B5E
  8
LAYER_1
 10
1206.716169482432
 20
1793.683242782918
 30
0.0
  0
VERTEX
  5
B5F
  8
LAYER_1
 10
1209.047080186426
 20
1795.574541184568
 30
0.0
  0
VERTEX
  5
B60
  8
LAYER_1
 10
1211.384409633613
 20
1797.458694260767
 30
0.0
  0
VERTEX
  5
B61
  8
LAYER_1
 10
1213.728143404579
 20
1799.335684353243
 30
0.0
  0
VERTEX
  5
B62
  8
LAYER_1
 10
1216.078267079912
 20
1801.205493803721
 30
0.0
  0
VERTEX
  5
B63
  8
LAYER_1
 10
1218.434766240199
 20
1803.068104953927
 30
0.0
  0
VERTEX
  5
B64
  8
LAYER_1
 10
1220.797626466026
 20
1804.923500145587
 30
0.0
  0
VERTEX
  5
B65
  8
LAYER_1
 10
1223.166833337982
 20
1806.771661720429
 30
0.0
  0
VERTEX
  5
B66
  8
LAYER_1
 10
1225.542372436652
 20
1808.612572020177
 30
0.0
  0
VERTEX
  5
B67
  8
LAYER_1
 10
1227.924229342625
 20
1810.446213386558
 30
0.0
  0
VERTEX
  5
B68
  8
LAYER_1
 10
1230.312389636488
 20
1812.272568161299
 30
0.0
  0
VERTEX
  5
B69
  8
LAYER_1
 10
1232.706838898827
 20
1814.091618686125
 30
0.0
  0
SEQEND
  5
D28
  8
LAYER_1
  0
POLYLINE
  5
8A
  8
LAYER_1
 66
     1
 10
0.0
 20
0.0
 30
0.0
  0
VERTEX
  5
B6A
  8
LAYER_1
 10
681.8066077018972
 20
2384.910318634608
 30
0.0
  0
VERTEX
  5
B6B
  8
LAYER_1
 10
679.5600547319325
 20
2389.413355301697
 30
0.0
  0
VERTEX
  5
B6C
  8
LAYER_1
 10
677.299285228878
 20
2393.909057958987
 30
0.0
  0
VERTEX
  5
B6D
  8
LAYER_1
 10
675.0243178648577
 20
2398.397393380401
 30
0.0
  0
VERTEX
  5
B6E
  8
LAYER_1
 10
672.7351713119959
 20
2402.878328339863
 30
0.0
  0
VERTEX
  5
B6F
  8
LAYER_1
 10
670.4318642424162
 20
2407.351829611297
 30
0.0
  0
VERTEX
  5
B70
  8
LAYER_1
 10
668.1144153282426
 20
2411.817863968626
 30
0.0
  0
VERTEX
  5
B71
  8
LAYER_1
 10
665.782843241599
 20
2416.276398185774
 30
0.0
  0
VERTEX
  5
B72
  8
LAYER_1
 10
663.4371666546092
 20
2420.727399036666
 30
0.0
  0
VERTEX
  5
B73
  8
LAYER_1
 10
661.0774042393972
 20
2425.170833295224
 30
0.0
  0
VERTEX
  5
B74
  8
LAYER_1
 10
658.703574668087
 20
2429.606667735373
 30
0.0
  0
VERTEX
  5
B75
  8
LAYER_1
 10
656.3156966128024
 20
2434.034869131037
 30
0.0
  0
VERTEX
  5
B76
  8
LAYER_1
 10
653.9137887456675
 20
2438.455404256139
 30
0.0
  0
VERTEX
  5
B77
  8
LAYER_1
 10
651.497869738806
 20
2442.868239884602
 30
0.0
  0
VERTEX
  5
B78
  8
LAYER_1
 10
649.0679582643419
 20
2447.273342790352
 30
0.0
  0
VERTEX
  5
B79
  8
LAYER_1
 10
646.6240729943991
 20
2451.670679747312
 30
0.0
  0
VERTEX
  5
B7A
  8
LAYER_1
 10
644.1662326011016
 20
2456.060217529404
 30
0.0
  0
VERTEX
  5
B7B
  8
LAYER_1
 10
641.6944557565732
 20
2460.441922910554
 30
0.0
  0
VERTEX
  5
B7C
  8
LAYER_1
 10
639.208761132938
 20
2464.815762664685
 30
0.0
  0
VERTEX
  5
B7D
  8
LAYER_1
 10
636.7091674023197
 20
2469.181703565721
 30
0.0
  0
VERTEX
  5
B7E
  8
LAYER_1
 10
634.1956932368424
 20
2473.539712387585
 30
0.0
  0
VERTEX
  5
B7F
  8
LAYER_1
 10
631.66835730863
 20
2477.889755904203
 30
0.0
  0
VERTEX
  5
B80
  8
LAYER_1
 10
629.1271782898064
 20
2482.231800889495
 30
0.0
  0
VERTEX
  5
B81
  8
LAYER_1
 10
626.5721748524953
 20
2486.565814117388
 30
0.0
  0
VERTEX
  5
B82
  8
LAYER_1
 10
624.003365668821
 20
2490.891762361804
 30
0.0
  0
VERTEX
  5
B83
  8
LAYER_1
 10
621.4207694109072
 20
2495.209612396668
 30
0.0
  0
VERTEX
  5
B84
  8
LAYER_1
 10
618.8244047508776
 20
2499.519330995904
 30
0.0
  0
VERTEX
  5
B85
  8
LAYER_1
 10
616.2142903608566
 20
2503.820884933435
 30
0.0
  0
VERTEX
  5
B86
  8
LAYER_1
 10
613.5904449129678
 20
2508.114240983184
 30
0.0
  0
VERTEX
  5
B87
  8
LAYER_1
 10
610.9528870793351
 20
2512.399365919076
 30
0.0
  0
VERTEX
  5
B88
  8
LAYER_1
 10
608.3016355320826
 20
2516.676226515035
 30
0.0
  0
VERTEX
  5
B89
  8
LAYER_1
 10
605.6367089433342
 20
2520.944789544983
 30
0.0
  0
VERTEX
  5
B8A
  8
LAYER_1
 10
602.9581259852137
 20
2525.205021782846
 30
0.0
  0
SEQEND
  5
D29
  8
LAYER_1
  0
POLYLINE
  5
8B
  8
LAYER_1
 66
     1
 10
0.0
 20
0.0
 30
0.0
 70
     1
  0
VERTEX
  5
B8B
  8
LAYER_1
 10
830.7693012925075
 20
1452.9310007386
 30
0.0
  0
VERTEX
  5
B8C
  8
LAYER_1
 10
832.7579533467177
 20
1453.393371646002
 30
0.0
  0
VERTEX
  5
B8D
  8
LAYER_1
 10
834.7435970540531
 20
1453.846827701222
 30
0.0
  0
VERTEX
  5
B8E
  8
LAYER_1
 10
836.7261745168698
 20
1454.291372291406
 30
0.0
  0
VERTEX
  5
B8F
  8
LAYER_1
 10
838.7056278375238
 20
1454.727008803703
 30
0.0
  0
VERTEX
  5
B90
  8
LAYER_1
 10
840.6818991183715
 20
1455.15374062526
 30
0.0
  0
VERTEX
  5
B91
  8
LAYER_1
 10
842.6549304617686
 20
1455.571571143224
 30
0.0
  0
VERTEX
  5
B92
  8
LAYER_1
 10
844.6246639700717
 20
1455.980503744745
 30
0.0
  0
VERTEX
  5
B93
  8
LAYER_1
 10
846.5910417456366
 20
1456.38054181697
 30
0.0
  0
VERTEX
  5
B94
  8
LAYER_1
 10
848.5540058908197
 20
1456.771688747046
 30
0.0
  0
VERTEX
  5
B95
  8
LAYER_1
 10
850.5134985079769
 20
1457.153947922121
 30
0.0
  0
VERTEX
  5
B96
  8
LAYER_1
 10
852.4694616994645
 20
1457.527322729342
 30
0.0
  0
VERTEX
  5
B97
  8
LAYER_1
 10
854.4218375676388
 20
1457.891816555859
 30
0.0
  0
VERTEX
  5
B98
  8
LAYER_1
 10
856.3705682148557
 20
1458.247432788818
 30
0.0
  0
VERTEX
  5
B99
  8
LAYER_1
 10
858.3155957434712
 20
1458.594174815368
 30
0.0
  0
VERTEX
  5
B9A
  8
LAYER_1
 10
860.2568622558417
 20
1458.932046022655
 30
0.0
  0
VERTEX
  5
B9B
  8
LAYER_1
 10
862.1943098543234
 20
1459.261049797829
 30
0.0
  0
VERTEX
  5
B9C
  8
LAYER_1
 10
864.1278806412722
 20
1459.581189528036
 30
0.0
  0
VERTEX
  5
B9D
  8
LAYER_1
 10
866.0575167190443
 20
1459.892468600425
 30
0.0
  0
VERTEX
  5
B9E
  8
LAYER_1
 10
867.9831601899959
 20
1460.194890402142
 30
0.0
  0
VERTEX
  5
B9F
  8
LAYER_1
 10
869.9047531564831
 20
1460.488458320337
 30
0.0
  0
VERTEX
  5
BA0
  8
LAYER_1
 10
871.8222377208622
 20
1460.773175742157
 30
0.0
  0
VERTEX
  5
BA1
  8
LAYER_1
 10
873.7355559854891
 20
1461.049046054749
 30
0.0
  0
VERTEX
  5
BA2
  8
LAYER_1
 10
875.6446500527201
 20
1461.316072645262
 30
0.0
  0
VERTEX
  5
BA3
  8
LAYER_1
 10
877.5494620249112
 20
1461.574258900842
 30
0.0
  0
VERTEX
  5
BA4
  8
LAYER_1
 10
879.4499340044188
 20
1461.823608208639
 30
0.0
  0
VERTEX
  5
BA5
  8
LAYER_1
 10
881.3460080935986
 20
1462.064123955799
 30
0.0
  0
VERTEX
  5
BA6
  8
LAYER_1
 10
883.2376263948071
 20
1462.295809529471
 30
0.0
  0
VERTEX
  5
BA7
  8
LAYER_1
 10
885.1247310104003
 20
1462.518668316802
 30
0.0
  0
VERTEX
  5
BA8
  8
LAYER_1
 10
887.0072640427344
 20
1462.73270370494
 30
0.0
  0
VERTEX
  5
BA9
  8
LAYER_1
 10
888.8851675941656
 20
1462.937919081033
 30
0.0
  0
VERTEX
  5
BAA
  8
LAYER_1
 10
890.7583837670501
 20
1463.134317832229
 30
0.0
  0
VERTEX
  5
BAB
  8
LAYER_1
 10
892.6268546637436
 20
1463.321903345675
 30
0.0
  0
VERTEX
  5
BAC
  8
LAYER_1
 10
894.4905223866026
 20
1463.500679008519
 30
0.0
  0
VERTEX
  5
BAD
  8
LAYER_1
 10
896.3493290379834
 20
1463.670648207909
 30
0.0
  0
VERTEX
  5
BAE
  8
LAYER_1
 10
898.2032167202417
 20
1463.831814330993
 30
0.0
  0
VERTEX
  5
BAF
  8
LAYER_1
 10
900.052127535734
 20
1463.984180764919
 30
0.0
  0
VERTEX
  5
BB0
  8
LAYER_1
 10
901.8960035868163
 20
1464.127750896833
 30
0.0
  0
VERTEX
  5
BB1
  8
LAYER_1
 10
903.7347869758447
 20
1464.262528113885
 30
0.0
  0
VERTEX
  5
BB2
  8
LAYER_1
 10
905.5684198051754
 20
1464.388515803222
 30
0.0
  0
VERTEX
  5
BB3
  8
LAYER_1
 10
907.3968441771643
 20
1464.505717351992
 30
0.0
  0
VERTEX
  5
BB4
  8
LAYER_1
 10
909.2200021941679
 20
1464.614136147341
 30
0.0
  0
VERTEX
  5
BB5
  8
LAYER_1
 10
911.0378359585422
 20
1464.713775576419
 30
0.0
  0
VERTEX
  5
BB6
  8
LAYER_1
 10
912.8502875726433
 20
1464.804639026373
 30
0.0
  0
VERTEX
  5
BB7
  8
LAYER_1
 10
914.6572991388276
 20
1464.886729884352
 30
0.0
  0
VERTEX
  5
BB8
  8
LAYER_1
 10
916.4588127594509
 20
1464.960051537501
 30
0.0
  0
VERTEX
  5
BB9
  8
LAYER_1
 10
918.2547705368694
 20
1465.02460737297
 30
0.0
  0
VERTEX
  5
BBA
  8
LAYER_1
 10
920.0451145734393
 20
1465.080400777906
 30
0.0
  0
VERTEX
  5
BBB
  8
LAYER_1
 10
921.8297869715167
 20
1465.127435139457
 30
0.0
  0
VERTEX
  5
BBC
  8
LAYER_1
 10
923.6087298334578
 20
1465.165713844771
 30
0.0
  0
VERTEX
  5
BBD
  8
LAYER_1
 10
925.3818852616187
 20
1465.195240280995
 30
0.0
  0
VERTEX
  5
BBE
  8
LAYER_1
 10
927.1491953583554
 20
1465.216017835277
 30
0.0
  0
VERTEX
  5
BBF
  8
LAYER_1
 10
928.9106022260245
 20
1465.228049894766
 30
0.0
  0
VERTEX
  5
BC0
  8
LAYER_1
 10
930.6660479669818
 20
1465.231339846608
 30
0.0
  0
VERTEX
  5
BC1
  8
LAYER_1
 10
932.4154746835833
 20
1465.225891077952
 30
0.0
  0
VERTEX
  5
BC2
  8
LAYER_1
 10
934.1588244781854
 20
1465.211706975945
 30
0.0
  0
VERTEX
  5
BC3
  8
LAYER_1
 10
935.8960394531441
 20
1465.188790927736
 30
0.0
  0
VERTEX
  5
BC4
  8
LAYER_1
 10
937.6270617108157
 20
1465.157146320472
 30
0.0
  0
VERTEX
  5
BC5
  8
LAYER_1
 10
939.3518333535561
 20
1465.1167765413
 30
0.0
  0
VERTEX
  5
BC6
  8
LAYER_1
 10
941.0702964837217
 20
1465.067684977369
 30
0.0
  0
VERTEX
  5
BC7
  8
LAYER_1
 10
942.7823932036684
 20
1465.009875015826
 30
0.0
  0
VERTEX
  5
BC8
  8
LAYER_1
 10
944.4880656157526
 20
1464.943350043819
 30
0.0
  0
VERTEX
  5
BC9
  8
LAYER_1
 10
946.1872558223301
 20
1464.868113448497
 30
0.0
  0
VERTEX
  5
BCA
  8
LAYER_1
 10
947.8799059257574
 20
1464.784168617006
 30
0.0
  0
VERTEX
  5
BCB
  8
LAYER_1
 10
949.5659580283905
 20
1464.691518936494
 30
0.0
  0
VERTEX
  5
BCC
  8
LAYER_1
 10
951.3274180133217
 20
1468.418276632691
 30
0.0
  0
VERTEX
  5
BCD
  8
LAYER_1
 10
953.1047287843687
 20
1472.136271635022
 30
0.0
  0
VERTEX
  5
BCE
  8
LAYER_1
 10
954.8978532457346
 20
1475.845458515091
 30
0.0
  0
VERTEX
  5
BCF
  8
LAYER_1
 10
956.7067543016224
 20
1479.545791844504
 30
0.0
  0
VERTEX
  5
BD0
  8
LAYER_1
 10
958.5313948562352
 20
1483.237226194866
 30
0.0
  0
VERTEX
  5
BD1
  8
LAYER_1
 10
960.3717378137763
 20
1486.919716137784
 30
0.0
  0
VERTEX
  5
BD2
  8
LAYER_1
 10
962.2277460784487
 20
1490.593216244862
 30
0.0
  0
VERTEX
  5
BD3
  8
LAYER_1
 10
964.0993825544555
 20
1494.257681087706
 30
0.0
  0
VERTEX
  5
BD4
  8
LAYER_1
 10
965.9866101459997
 20
1497.913065237922
 30
0.0
  0
VERTEX
  5
BD5
  8
LAYER_1
 10
967.8893917572847
 20
1501.559323267115
 30
0.0
  0
VERTEX
  5
BD6
  8
LAYER_1
 10
969.8076902925134
 20
1505.196409746891
 30
0.0
  0
VERTEX
  5
BD7
  8
LAYER_1
 10
971.7414686558888
 20
1508.824279248855
 30
0.0
  0
VERTEX
  5
BD8
  8
LAYER_1
 10
973.6906897516142
 20
1512.442886344612
 30
0.0
  0
VERTEX
  5
BD9
  8
LAYER_1
 10
975.6553164838925
 20
1516.052185605768
 30
0.0
  0
VERTEX
  5
BDA
  8
LAYER_1
 10
977.6353117569271
 20
1519.65213160393
 30
0.0
  0
VERTEX
  5
BDB
  8
LAYER_1
 10
979.6306384749208
 20
1523.242678910701
 30
0.0
  0
VERTEX
  5
BDC
  8
LAYER_1
 10
981.6412595420769
 20
1526.823782097688
 30
0.0
  0
VERTEX
  5
BDD
  8
LAYER_1
 10
983.6671378625985
 20
1530.395395736497
 30
0.0
  0
VERTEX
  5
BDE
  8
LAYER_1
 10
985.7082363406886
 20
1533.957474398732
 30
0.0
  0
VERTEX
  5
BDF
  8
LAYER_1
 10
987.7645178805503
 20
1537.509972655999
 30
0.0
  0
VERTEX
  5
BE0
  8
LAYER_1
 10
989.8359453863868
 20
1541.052845079905
 30
0.0
  0
VERTEX
  5
BE1
  8
LAYER_1
 10
991.9224817624012
 20
1544.586046242053
 30
0.0
  0
VERTEX
  5
BE2
  8
LAYER_1
 10
994.0240899127965
 20
1548.10953071405
 30
0.0
  0
VERTEX
  5
BE3
  8
LAYER_1
 10
996.140732741776
 20
1551.623253067502
 30
0.0
  0
VERTEX
  5
BE4
  8
LAYER_1
 10
998.2723731535425
 20
1555.127167874013
 30
0.0
  0
VERTEX
  5
BE5
  8
LAYER_1
 10
1000.418974052299
 20
1558.621229705189
 30
0.0
  0
VERTEX
  5
BE6
  8
LAYER_1
 10
1002.58049834225
 20
1562.105393132637
 30
0.0
  0
VERTEX
  5
BE7
  8
LAYER_1
 10
1004.756908927596
 20
1565.579612727961
 30
0.0
  0
VERTEX
  5
BE8
  8
LAYER_1
 10
1006.948168712543
 20
1569.043843062766
 30
0.0
  0
VERTEX
  5
BE9
  8
LAYER_1
 10
1009.154240601292
 20
1572.498038708659
 30
0.0
  0
VERTEX
  5
BEA
  8
LAYER_1
 10
1011.375087498047
 20
1575.942154237245
 30
0.0
  0
VERTEX
  5
BEB
  8
LAYER_1
 10
1013.61067230701
 20
1579.376144220129
 30
0.0
  0
VERTEX
  5
BEC
  8
LAYER_1
 10
1015.860957932386
 20
1582.799963228917
 30
0.0
  0
VERTEX
  5
BED
  8
LAYER_1
 10
1018.125907278377
 20
1586.213565835215
 30
0.0
  0
VERTEX
  5
BEE
  8
LAYER_1
 10
1020.405483249186
 20
1589.616906610628
 30
0.0
  0
VERTEX
  5
BEF
  8
LAYER_1
 10
1022.699648749017
 20
1593.009940126761
 30
0.0
  0
VERTEX
  5
BF0
  8
LAYER_1
 10
1025.008366682071
 20
1596.392620955219
 30
0.0
  0
VERTEX
  5
BF1
  8
LAYER_1
 10
1027.331599952554
 20
1599.76490366761
 30
0.0
  0
VERTEX
  5
BF2
  8
LAYER_1
 10
1029.669311464667
 20
1603.126742835537
 30
0.0
  0
VERTEX
  5
BF3
  8
LAYER_1
 10
1032.021464122614
 20
1606.478093030607
 30
0.0
  0
VERTEX
  5
BF4
  8
LAYER_1
 10
1034.388020830598
 20
1609.818908824425
 30
0.0
  0
VERTEX
  5
BF5
  8
LAYER_1
 10
1036.768944492821
 20
1613.149144788596
 30
0.0
  0
VERTEX
  5
BF6
  8
LAYER_1
 10
1039.164198013488
 20
1616.468755494726
 30
0.0
  0
VERTEX
  5
BF7
  8
LAYER_1
 10
1041.573744296801
 20
1619.777695514421
 30
0.0
  0
VERTEX
  5
BF8
  8
LAYER_1
 10
1043.997546246963
 20
1623.075919419286
 30
0.0
  0
VERTEX
  5
BF9
  8
LAYER_1
 10
1046.435566768178
 20
1626.363381780927
 30
0.0
  0
VERTEX
  5
BFA
  8
LAYER_1
 10
1048.887768764648
 20
1629.640037170948
 30
0.0
  0
VERTEX
  5
BFB
  8
LAYER_1
 10
1051.354115140576
 20
1632.905840160957
 30
0.0
  0
VERTEX
  5
BFC
  8
LAYER_1
 10
1053.834568800166
 20
1636.160745322557
 30
0.0
  0
VERTEX
  5
BFD
  8
LAYER_1
 10
1056.329092647622
 20
1639.404707227355
 30
0.0
  0
VERTEX
  5
BFE
  8
LAYER_1
 10
1058.837649587145
 20
1642.637680446956
 30
0.0
  0
VERTEX
  5
BFF
  8
LAYER_1
 10
1061.360202522939
 20
1645.859619552965
 30
0.0
  0
VERTEX
  5
C00
  8
LAYER_1
 10
1063.896714359207
 20
1649.070479116989
 30
0.0
  0
VERTEX
  5
C01
  8
LAYER_1
 10
1066.447148000152
 20
1652.270213710633
 30
0.0
  0
VERTEX
  5
C02
  8
LAYER_1
 10
1069.011466349978
 20
1655.458777905501
 30
0.0
  0
VERTEX
  5
C03
  8
LAYER_1
 10
1071.589632312887
 20
1658.6361262732
 30
0.0
  0
VERTEX
  5
C04
  8
LAYER_1
 10
1074.181608793082
 20
1661.802213385336
 30
0.0
  0
VERTEX
  5
C05
  8
LAYER_1
 10
1076.787358694768
 20
1664.956993813513
 30
0.0
  0
VERTEX
  5
C06
  8
LAYER_1
 10
1079.406844922146
 20
1668.100422129337
 30
0.0
  0
VERTEX
  5
C07
  8
LAYER_1
 10
1082.040030379419
 20
1671.232452904414
 30
0.0
  0
VERTEX
  5
C08
  8
LAYER_1
 10
1084.686877970792
 20
1674.35304071035
 30
0.0
  0
VERTEX
  5
C09
  8
LAYER_1
 10
1087.347350600467
 20
1677.462140118749
 30
0.0
  0
VERTEX
  5
C0A
  8
LAYER_1
 10
1090.021411172647
 20
1680.559705701218
 30
0.0
  0
VERTEX
  5
C0B
  8
LAYER_1
 10
1092.709022591535
 20
1683.645692029361
 30
0.0
  0
VERTEX
  5
C0C
  8
LAYER_1
 10
1092.709030100335
 20
2384.76049577817
 30
0.0
  0
VERTEX
  5
C0D
  8
LAYER_1
 10
681.8764950017297
 20
2384.76200028012
 30
0.0
  0
VERTEX
  5
C0E
  8
LAYER_1
 10
683.5919044869693
 20
2381.298554724121
 30
0.0
  0
VERTEX
  5
C0F
  8
LAYER_1
 10
685.2982132773858
 20
2377.832412813929
 30
0.0
  0
VERTEX
  5
C10
  8
LAYER_1
 10
686.9954238316759
 20
2374.363590044299
 30
0.0
  0
VERTEX
  5
C11
  8
LAYER_1
 10
688.6835386085362
 20
2370.892101909985
 30
0.0
  0
VERTEX
  5
C12
  8
LAYER_1
 10
690.3625600666633
 20
2367.417963905742
 30
0.0
  0
VERTEX
  5
C13
  8
LAYER_1
 10
692.0324906647536
 20
2363.941191526324
 30
0.0
  0
VERTEX
  5
C14
  8
LAYER_1
 10
693.6933328615037
 20
2360.461800266484
 30
0.0
  0
VERTEX
  5
C15
  8
LAYER_1
 10
695.3450891156101
 20
2356.979805620979
 30
0.0
  0
VERTEX
  5
C16
  8
LAYER_1
 10
696.9877618857696
 20
2353.495223084562
 30
0.0
  0
VERTEX
  5
C17
  8
LAYER_1
 10
698.6213536306784
 20
2350.008068151988
 30
0.0
  0
VERTEX
  5
C18
  8
LAYER_1
 10
700.2458668090333
 20
2346.51835631801
 30
0.0
  0
VERTEX
  5
C19
  8
LAYER_1
 10
701.8613038795306
 20
2343.026103077384
 30
0.0
  0
VERTEX
  5
C1A
  8
LAYER_1
 10
703.4676673008671
 20
2339.531323924863
 30
0.0
  0
VERTEX
  5
C1B
  8
LAYER_1
 10
705.0649595317394
 20
2336.034034355202
 30
0.0
  0
VERTEX
  5
C1C
  8
LAYER_1
 10
706.6531830308438
 20
2332.534249863157
 30
0.0
  0
VERTEX
  5
C1D
  8
LAYER_1
 10
708.232340256877
 20
2329.031985943479
 30
0.0
  0
VERTEX
  5
C1E
  8
LAYER_1
 10
709.8024336685355
 20
2325.527258090925
 30
0.0
  0
VERTEX
  5
C1F
  8
LAYER_1
 10
711.3634657245159
 20
2322.020081800249
 30
0.0
  0
VERTEX
  5
C20
  8
LAYER_1
 10
712.9154388835146
 20
2318.510472566204
 30
0.0
  0
VERTEX
  5
C21
  8
LAYER_1
 10
714.4583556042284
 20
2314.998445883546
 30
0.0
  0
VERTEX
  5
C22
  8
LAYER_1
 10
715.9922183453536
 20
2311.484017247029
 30
0.0
  0
VERTEX
  5
C23
  8
LAYER_1
 10
717.5170295655869
 20
2307.967202151406
 30
0.0
  0
VERTEX
  5
C24
  8
LAYER_1
 10
719.0327917236248
 20
2304.448016091434
 30
0.0
  0
VERTEX
  5
C25
  8
LAYER_1
 10
720.5395072781639
 20
2300.926474561864
 30
0.0
  0
VERTEX
  5
C26
  8
LAYER_1
 10
722.0371786879007
 20
2297.402593057453
 30
0.0
  0
VERTEX
  5
C27
  8
LAYER_1
 10
723.5258084115318
 20
2293.876387072955
 30
0.0
  0
VERTEX
  5
C28
  8
LAYER_1
 10
725.0053989077537
 20
2290.347872103125
 30
0.0
  0
VERTEX
  5
C29
  8
LAYER_1
 10
726.4759526352631
 20
2286.817063642716
 30
0.0
  0
VERTEX
  5
C2A
  8
LAYER_1
 10
727.9374720527562
 20
2283.283977186482
 30
0.0
  0
VERTEX
  5
C2B
  8
LAYER_1
 10
729.3899596189299
 20
2279.748628229178
 30
0.0
  0
VERTEX
  5
C2C
  8
LAYER_1
 10
730.8334177924805
 20
2276.21103226556
 30
0.0
  0
VERTEX
  5
C2D
  8
LAYER_1
 10
732.2678490321048
 20
2272.67120479038
 30
0.0
  0
VERTEX
  5
C2E
  8
LAYER_1
 10
733.6932557964992
 20
2269.129161298394
 30
0.0
  0
VERTEX
  5
C2F
  8
LAYER_1
 10
735.1096405443601
 20
2265.584917284355
 30
0.0
  0
VERTEX
  5
C30
  8
LAYER_1
 10
736.5170057343844
 20
2262.038488243019
 30
0.0
  0
VERTEX
  5
C31
  8
LAYER_1
 10
737.9153538252683
 20
2258.489889669138
 30
0.0
  0
VERTEX
  5
C32
  8
LAYER_1
 10
739.3046872757086
 20
2254.93913705747
 30
0.0
  0
VERTEX
  5
C33
  8
LAYER_1
 10
740.6850085444019
 20
2251.386245902766
 30
0.0
  0
VERTEX
  5
C34
  8
LAYER_1
 10
742.0563200900444
 20
2247.831231699782
 30
0.0
  0
VERTEX
  5
C35
  8
LAYER_1
 10
743.418624371333
 20
2244.274109943271
 30
0.0
  0
VERTEX
  5
C36
  8
LAYER_1
 10
744.771923846964
 20
2240.71489612799
 30
0.0
  0
VERTEX
  5
C37
  8
LAYER_1
 10
746.1162209756342
 20
2237.153605748691
 30
0.0
  0
VERTEX
  5
C38
  8
LAYER_1
 10
747.4515182160399
 20
2233.59025430013
 30
0.0
  0
VERTEX
  5
C39
  8
LAYER_1
 10
748.7778180268779
 20
2230.02485727706
 30
0.0
  0
VERTEX
  5
C3A
  8
LAYER_1
 10
750.0951228668446
 20
2226.457430174236
 30
0.0
  0
VERTEX
  5
C3B
  8
LAYER_1
 10
751.4034351946366
 20
2222.887988486413
 30
0.0
  0
VERTEX
  5
C3C
  8
LAYER_1
 10
752.7027574689503
 20
2219.316547708345
 30
0.0
  0
VERTEX
  5
C3D
  8
LAYER_1
 10
753.9930921484823
 20
2215.743123334785
 30
0.0
  0
VERTEX
  5
C3E
  8
LAYER_1
 10
755.2744416919293
 20
2212.167730860489
 30
0.0
  0
VERTEX
  5
C3F
  8
LAYER_1
 10
756.5468085579878
 20
2208.590385780211
 30
0.0
  0
VERTEX
  5
C40
  8
LAYER_1
 10
757.8101952053544
 20
2205.011103588705
 30
0.0
  0
VERTEX
  5
C41
  8
LAYER_1
 10
759.0646040927254
 20
2201.429899780726
 30
0.0
  0
VERTEX
  5
C42
  8
LAYER_1
 10
760.3100376787976
 20
2197.846789851029
 30
0.0
  0
VERTEX
  5
C43
  8
LAYER_1
 10
761.5464984222674
 20
2194.261789294366
 30
0.0
  0
VERTEX
  5
C44
  8
LAYER_1
 10
762.7739887818315
 20
2190.674913605493
 30
0.0
  0
VERTEX
  5
C45
  8
LAYER_1
 10
763.9925112161864
 20
2187.086178279165
 30
0.0
  0
VERTEX
  5
C46
  8
LAYER_1
 10
765.2020681840286
 20
2183.495598810136
 30
0.0
  0
VERTEX
  5
C47
  8
LAYER_1
 10
766.4026621440546
 20
2179.903190693159
 30
0.0
  0
VERTEX
  5
C48
  8
LAYER_1
 10
767.594295554961
 20
2176.308969422989
 30
0.0
  0
VERTEX
  5
C49
  8
LAYER_1
 10
768.7769708754444
 20
2172.712950494382
 30
0.0
  0
VERTEX
  5
C4A
  8
LAYER_1
 10
769.9506905642013
 20
2169.115149402091
 30
0.0
  0
VERTEX
  5
C4B
  8
LAYER_1
 10
771.1154570799283
 20
2165.515581640871
 30
0.0
  0
VERTEX
  5
C4C
  8
LAYER_1
 10
772.2712728813219
 20
2161.914262705475
 30
0.0
  0
VERTEX
  5
C4D
  8
LAYER_1
 10
773.4181404270787
 20
2158.311208090659
 30
0.0
  0
VERTEX
  5
C4E
  8
LAYER_1
 10
774.5560621758952
 20
2154.706433291176
 30
0.0
  0
VERTEX
  5
C4F
  8
LAYER_1
 10
775.685040586468
 20
2151.099953801781
 30
0.0
  0
VERTEX
  5
C50
  8
LAYER_1
 10
776.8050781174936
 20
2147.491785117229
 30
0.0
  0
VERTEX
  5
C51
  8
LAYER_1
 10
777.9161772276685
 20
2143.881942732274
 30
0.0
  0
VERTEX
  5
C52
  8
LAYER_1
 10
779.0183403756894
 20
2140.27044214167
 30
0.0
  0
VERTEX
  5
C53
  8
LAYER_1
 10
780.1115700202527
 20
2136.657298840172
 30
0.0
  0
VERTEX
  5
C54
  8
LAYER_1
 10
781.1958686200551
 20
2133.042528322533
 30
0.0
  0
VERTEX
  5
C55
  8
LAYER_1
 10
782.271238633793
 20
2129.42614608351
 30
0.0
  0
VERTEX
  5
C56
  8
LAYER_1
 10
783.3376825201631
 20
2125.808167617854
 30
0.0
  0
VERTEX
  5
C57
  8
LAYER_1
 10
784.3952027378618
 20
2122.188608420323
 30
0.0
  0
VERTEX
  5
C58
  8
LAYER_1
 10
785.4438017455858
 20
2118.567483985669
 30
0.0
  0
VERTEX
  5
C59
  8
LAYER_1
 10
786.4834820020316
 20
2114.944809808647
 30
0.0
  0
VERTEX
  5
C5A
  8
LAYER_1
 10
787.5142459658956
 20
2111.320601384011
 30
0.0
  0
VERTEX
  5
C5B
  8
LAYER_1
 10
788.5360960958745
 20
2107.694874206516
 30
0.0
  0
VERTEX
  5
C5C
  8
LAYER_1
 10
789.5490348506648
 20
2104.067643770916
 30
0.0
  0
VERTEX
  5
C5D
  8
LAYER_1
 10
790.5530646889631
 20
2100.438925571965
 30
0.0
  0
VERTEX
  5
C5E
  8
LAYER_1
 10
791.5481880694658
 20
2096.808735104418
 30
0.0
  0
VERTEX
  5
C5F
  8
LAYER_1
 10
792.5344074508698
 20
2093.17708786303
 30
0.0
  0
VERTEX
  5
C60
  8
LAYER_1
 10
793.5117252918714
 20
2089.543999342554
 30
0.0
  0
VERTEX
  5
C61
  8
LAYER_1
 10
794.480144051167
 20
2085.909485037746
 30
0.0
  0
VERTEX
  5
C62
  8
LAYER_1
 10
795.4396661874534
 20
2082.273560443358
 30
0.0
  0
VERTEX
  5
C63
  8
LAYER_1
 10
796.3902941594272
 20
2078.636241054147
 30
0.0
  0
VERTEX
  5
C64
  8
LAYER_1
 10
797.3320304257848
 20
2074.997542364866
 30
0.0
  0
VERTEX
  5
C65
  8
LAYER_1
 10
798.2648774452226
 20
2071.357479870269
 30
0.0
  0
VERTEX
  5
C66
  8
LAYER_1
 10
799.1888376764375
 20
2067.716069065112
 30
0.0
  0
VERTEX
  5
C67
  8
LAYER_1
 10
800.1039135781258
 20
2064.073325444147
 30
0.0
  0
VERTEX
  5
C68
  8
LAYER_1
 10
801.0101076089841
 20
2060.429264502131
 30
0.0
  0
VERTEX
  5
C69
  8
LAYER_1
 10
801.9074222277088
 20
2056.783901733817
 30
0.0
  0
VERTEX
  5
C6A
  8
LAYER_1
 10
802.7958598929968
 20
2053.13725263396
 30
0.0
  0
VERTEX
  5
C6B
  8
LAYER_1
 10
803.6754230635445
 20
2049.489332697312
 30
0.0
  0
VERTEX
  5
C6C
  8
LAYER_1
 10
804.5461141980484
 20
2045.840157418631
 30
0.0
  0
VERTEX
  5
C6D
  8
LAYER_1
 10
805.407935755205
 20
2042.189742292669
 30
0.0
  0
VERTEX
  5
C6E
  8
LAYER_1
 10
806.260890193711
 20
2038.538102814181
 30
0.0
  0
VERTEX
  5
C6F
  8
LAYER_1
 10
807.1049799722628
 20
2034.885254477922
 30
0.0
  0
VERTEX
  5
C70
  8
LAYER_1
 10
807.940207549557
 20
2031.231212778645
 30
0.0
  0
VERTEX
  5
C71
  8
LAYER_1
 10
808.7665753842903
 20
2027.575993211105
 30
0.0
  0
VERTEX
  5
C72
  8
LAYER_1
 10
809.584085935159
 20
2023.919611270058
 30
0.0
  0
VERTEX
  5
C73
  8
LAYER_1
 10
810.3927416608599
 20
2020.262082450256
 30
0.0
  0
VERTEX
  5
C74
  8
LAYER_1
 10
811.1925450200893
 20
2016.603422246455
 30
0.0
  0
VERTEX
  5
C75
  8
LAYER_1
 10
811.983498471544
 20
2012.943646153408
 30
0.0
  0
VERTEX
  5
C76
  8
LAYER_1
 10
812.7656044739203
 20
2009.282769665871
 30
0.0
  0
VERTEX
  5
C77
  8
LAYER_1
 10
813.5388654859149
 20
2005.620808278597
 30
0.0
  0
VERTEX
  5
C78
  8
LAYER_1
 10
814.3032839662244
 20
2001.957777486341
 30
0.0
  0
VERTEX
  5
C79
  8
LAYER_1
 10
815.0588623735453
 20
1998.293692783857
 30
0.0
  0
VERTEX
  5
C7A
  8
LAYER_1
 10
815.805603166574
 20
1994.6285696659
 30
0.0
  0
VERTEX
  5
C7B
  8
LAYER_1
 10
816.5435088040073
 20
1990.962423627224
 30
0.0
  0
VERTEX
  5
C7C
  8
LAYER_1
 10
817.2725817445416
 20
1987.295270162584
 30
0.0
  0
VERTEX
  5
C7D
  8
LAYER_1
 10
817.9928244468734
 20
1983.627124766733
 30
0.0
  0
VERTEX
  5
C7E
  8
LAYER_1
 10
818.7042393696993
 20
1979.958002934427
 30
0.0
  0
VERTEX
  5
C7F
  8
LAYER_1
 10
819.406828971716
 20
1976.287920160419
 30
0.0
  0
VERTEX
  5
C80
  8
LAYER_1
 10
820.1005957116199
 20
1972.616891939464
 30
0.0
  0
VERTEX
  5
C81
  8
LAYER_1
 10
820.7855420481076
 20
1968.944933766317
 30
0.0
  0
VERTEX
  5
C82
  8
LAYER_1
 10
821.4616704398754
 20
1965.272061135732
 30
0.0
  0
VERTEX
  5
C83
  8
LAYER_1
 10
822.1289833456203
 20
1961.598289542462
 30
0.0
  0
VERTEX
  5
C84
  8
LAYER_1
 10
822.7874832240385
 20
1957.923634481263
 30
0.0
  0
VERTEX
  5
C85
  8
LAYER_1
 10
823.4371725338267
 20
1954.248111446889
 30
0.0
  0
VERTEX
  5
C86
  8
LAYER_1
 10
824.0780537336814
 20
1950.571735934095
 30
0.0
  0
VERTEX
  5
C87
  8
LAYER_1
 10
824.7101292822992
 20
1946.894523437634
 30
0.0
  0
VERTEX
  5
C88
  8
LAYER_1
 10
825.3334016383767
 20
1943.216489452261
 30
0.0
  0
VERTEX
  5
C89
  8
LAYER_1
 10
825.9478732606103
 20
1939.537649472731
 30
0.0
  0
VERTEX
  5
C8A
  8
LAYER_1
 10
826.5535466076967
 20
1935.858018993797
 30
0.0
  0
VERTEX
  5
C8B
  8
LAYER_1
 10
827.1504241383324
 20
1932.177613510215
 30
0.0
  0
VERTEX
  5
C8C
  8
LAYER_1
 10
827.7385083112138
 20
1928.496448516738
 30
0.0
  0
VERTEX
  5
C8D
  8
LAYER_1
 10
828.3178015850376
 20
1924.814539508122
 30
0.0
  0
VERTEX
  5
C8E
  8
LAYER_1
 10
828.8883064185004
 20
1921.13190197912
 30
0.0
  0
VERTEX
  5
C8F
  8
LAYER_1
 10
829.4500252702987
 20
1917.448551424487
 30
0.0
  0
VERTEX
  5
C90
  8
LAYER_1
 10
830.002960599129
 20
1913.764503338977
 30
0.0
  0
VERTEX
  5
C91
  8
LAYER_1
 10
830.5471148636877
 20
1910.079773217344
 30
0.0
  0
VERTEX
  5
C92
  8
LAYER_1
 10
831.0824905226718
 20
1906.394376554343
 30
0.0
  0
VERTEX
  5
C93
  8
LAYER_1
 10
831.6090900347774
 20
1902.708328844729
 30
0.0
  0
VERTEX
  5
C94
  8
LAYER_1
 10
832.1269158587013
 20
1899.021645583255
 30
0.0
  0
VERTEX
  5
C95
  8
LAYER_1
 10
832.6359704531399
 20
1895.334342264677
 30
0.0
  0
VERTEX
  5
C96
  8
LAYER_1
 10
833.1362562767898
 20
1891.646434383748
 30
0.0
  0
VERTEX
  5
C97
  8
LAYER_1
 10
833.6277757883477
 20
1887.957937435223
 30
0.0
  0
VERTEX
  5
C98
  8
LAYER_1
 10
834.1105314465099
 20
1884.268866913856
 30
0.0
  0
VERTEX
  5
C99
  8
LAYER_1
 10
834.5845257099731
 20
1880.579238314402
 30
0.0
  0
VERTEX
  5
C9A
  8
LAYER_1
 10
835.0497610374339
 20
1876.889067131615
 30
0.0
  0
VERTEX
  5
C9B
  8
LAYER_1
 10
835.5062398875889
 20
1873.198368860249
 30
0.0
  0
VERTEX
  5
C9C
  8
LAYER_1
 10
835.9539647191343
 20
1869.507158995059
 30
0.0
  0
VERTEX
  5
C9D
  8
LAYER_1
 10
836.392937990767
 20
1865.8154530308
 30
0.0
  0
VERTEX
  5
C9E
  8
LAYER_1
 10
836.8231621611834
 20
1862.123266462224
 30
0.0
  0
VERTEX
  5
C9F
  8
LAYER_1
 10
837.24463968908
 20
1858.430614784088
 30
0.0
  0
VERTEX
  5
CA0
  8
LAYER_1
 10
837.6573730331536
 20
1854.737513491145
 30
0.0
  0
VERTEX
  5
CA1
  8
LAYER_1
 10
838.0613646521005
 20
1851.04397807815
 30
0.0
  0
VERTEX
  5
CA2
  8
LAYER_1
 10
838.4566170046171
 20
1847.350024039858
 30
0.0
  0
VERTEX
  5
CA3
  8
LAYER_1
 10
838.8431325494005
 20
1843.655666871021
 30
0.0
  0
VERTEX
  5
CA4
  8
LAYER_1
 10
839.2209137451468
 20
1839.960922066395
 30
0.0
  0
VERTEX
  5
CA5
  8
LAYER_1
 10
839.5899630505527
 20
1836.265805120735
 30
0.0
  0
VERTEX
  5
CA6
  8
LAYER_1
 10
839.9502829243147
 20
1832.570331528795
 30
0.0
  0
VERTEX
  5
CA7
  8
LAYER_1
 10
840.3018758251293
 20
1828.874516785328
 30
0.0
  0
VERTEX
  5
CA8
  8
LAYER_1
 10
840.6447442116931
 20
1825.17837638509
 30
0.0
  0
VERTEX
  5
CA9
  8
LAYER_1
 10
840.9788905427029
 20
1821.481925822835
 30
0.0
  0
VERTEX
  5
CAA
  8
LAYER_1
 10
841.3043172768548
 20
1817.785180593317
 30
0.0
  0
VERTEX
  5
CAB
  8
LAYER_1
 10
841.6210268728457
 20
1814.08815619129
 30
0.0
  0
VERTEX
  5
CAC
  8
LAYER_1
 10
841.9290217893722
 20
1810.39086811151
 30
0.0
  0
VERTEX
  5
CAD
  8
LAYER_1
 10
842.2283044851305
 20
1806.69333184873
 30
0.0
  0
VERTEX
  5
CAE
  8
LAYER_1
 10
842.5188774188174
 20
1802.995562897704
 30
0.0
  0
VERTEX
  5
CAF
  8
LAYER_1
 10
842.8007430491292
 20
1799.297576753188
 30
0.0
  0
VERTEX
  5
CB0
  8
LAYER_1
 10
843.0739038347629
 20
1795.599388909935
 30
0.0
  0
VERTEX
  5
CB1
  8
LAYER_1
 10
843.3383622344145
 20
1791.901014862701
 30
0.0
  0
VERTEX
  5
CB2
  8
LAYER_1
 10
843.594120706781
 20
1788.202470106238
 30
0.0
  0
VERTEX
  5
CB3
  8
LAYER_1
 10
843.8411817105587
 20
1784.503770135303
 30
0.0
  0
VERTEX
  5
CB4
  8
LAYER_1
 10
844.0795477044442
 20
1780.804930444648
 30
0.0
  0
VERTEX
  5
CB5
  8
LAYER_1
 10
844.3092211471342
 20
1777.105966529028
 30
0.0
  0
VERTEX
  5
CB6
  8
LAYER_1
 10
844.530204497325
 20
1773.406893883199
 30
0.0
  0
VERTEX
  5
CB7
  8
LAYER_1
 10
844.7425002137134
 20
1769.707728001914
 30
0.0
  0
VERTEX
  5
CB8
  8
LAYER_1
 10
844.9461107549957
 20
1766.008484379927
 30
0.0
  0
VERTEX
  5
CB9
  8
LAYER_1
 10
845.1410385798687
 20
1762.309178511993
 30
0.0
  0
VERTEX
  5
CBA
  8
LAYER_1
 10
845.3272861470289
 20
1758.609825892867
 30
0.0
  0
VERTEX
  5
CBB
  8
LAYER_1
 10
845.5048559151727
 20
1754.910442017303
 30
0.0
  0
VERTEX
  5
CBC
  8
LAYER_1
 10
845.6737503429968
 20
1751.211042380054
 30
0.0
  0
VERTEX
  5
CBD
  8
LAYER_1
 10
845.8339718891974
 20
1747.511642475877
 30
0.0
  0
VERTEX
  5
CBE
  8
LAYER_1
 10
845.9855230124715
 20
1743.812257799524
 30
0.0
  0
VERTEX
  5
CBF
  8
LAYER_1
 10
846.1284061715155
 20
1740.11290384575
 30
0.0
  0
VERTEX
  5
CC0
  8
LAYER_1
 10
846.2626238250259
 20
1736.41359610931
 30
0.0
  0
VERTEX
  5
CC1
  8
LAYER_1
 10
846.3881784316993
 20
1732.714350084959
 30
0.0
  0
VERTEX
  5
CC2
  8
LAYER_1
 10
846.5050724502323
 20
1729.015181267449
 30
0.0
  0
VERTEX
  5
CC3
  8
LAYER_1
 10
846.6133083393214
 20
1725.316105151537
 30
0.0
  0
VERTEX
  5
CC4
  8
LAYER_1
 10
846.7128885576631
 20
1721.617137231975
 30
0.0
  0
VERTEX
  5
CC5
  8
LAYER_1
 10
846.8038155639538
 20
1717.91829300352
 30
0.0
  0
VERTEX
  5
CC6
  8
LAYER_1
 10
846.8860918168904
 20
1714.219587960924
 30
0.0
  0
VERTEX
  5
CC7
  8
LAYER_1
 10
846.9597197751693
 20
1710.521037598943
 30
0.0
  0
VERTEX
  5
CC8
  8
LAYER_1
 10
847.0247018974869
 20
1706.822657412331
 30
0.0
  0
VERTEX
  5
CC9
  8
LAYER_1
 10
847.0810406425401
 20
1703.124462895842
 30
0.0
  0
VERTEX
  5
CCA
  8
LAYER_1
 10
847.1287384690252
 20
1699.42646954423
 30
0.0
  0
VERTEX
  5
CCB
  8
LAYER_1
 10
847.1677978356386
 20
1695.72869285225
 30
0.0
  0
VERTEX
  5
CCC
  8
LAYER_1
 10
847.1982212010771
 20
1692.031148314657
 30
0.0
  0
VERTEX
  5
CCD
  8
LAYER_1
 10
847.2200110240371
 20
1688.333851426204
 30
0.0
  0
VERTEX
  5
CCE
  8
LAYER_1
 10
847.2331697632153
 20
1684.636817681646
 30
0.0
  0
VERTEX
  5
CCF
  8
LAYER_1
 10
847.2376998773082
 20
1680.940062575738
 30
0.0
  0
VERTEX
  5
CD0
  8
LAYER_1
 10
847.2336038250123
 20
1677.243601603234
 30
0.0
  0
VERTEX
  5
CD1
  8
LAYER_1
 10
847.2208840650244
 20
1673.547450258888
 30
0.0
  0
VERTEX
  5
CD2
  8
LAYER_1
 10
847.1995430560406
 20
1669.851624037455
 30
0.0
  0
VERTEX
  5
CD3
  8
LAYER_1
 10
847.1695832567577
 20
1666.156138433688
 30
0.0
  0
VERTEX
  5
CD4
  8
LAYER_1
 10
847.1310071258724
 20
1662.461008942344
 30
0.0
  0
VERTEX
  5
CD5
  8
LAYER_1
 10
847.083817122081
 20
1658.766251058174
 30
0.0
  0
VERTEX
  5
CD6
  8
LAYER_1
 10
847.0280157040801
 20
1655.071880275935
 30
0.0
  0
VERTEX
  5
CD7
  8
LAYER_1
 10
846.9636053305662
 20
1651.377912090381
 30
0.0
  0
VERTEX
  5
CD8
  8
LAYER_1
 10
846.890588460236
 20
1647.684361996265
 30
0.0
  0
VERTEX
  5
CD9
  8
LAYER_1
 10
846.808967551786
 20
1643.991245488343
 30
0.0
  0
VERTEX
  5
CDA
  8
LAYER_1
 10
846.7187450639127
 20
1640.298578061369
 30
0.0
  0
VERTEX
  5
CDB
  8
LAYER_1
 10
846.6199234553127
 20
1636.606375210097
 30
0.0
  0
VERTEX
  5
CDC
  8
LAYER_1
 10
846.5125051846826
 20
1632.914652429281
 30
0.0
  0
VERTEX
  5
CDD
  8
LAYER_1
 10
846.3964927107188
 20
1629.223425213676
 30
0.0
  0
VERTEX
  5
CDE
  8
LAYER_1
 10
846.2718884921179
 20
1625.532709058036
 30
0.0
  0
VERTEX
  5
CDF
  8
LAYER_1
 10
846.1386949875766
 20
1621.842519457116
 30
0.0
  0
VERTEX
  5
CE0
  8
LAYER_1
 10
845.9969146557914
 20
1618.15287190567
 30
0.0
  0
VERTEX
  5
CE1
  8
LAYER_1
 10
845.8465499554586
 20
1614.463781898453
 30
0.0
  0
VERTEX
  5
CE2
  8
LAYER_1
 10
845.687603345275
 20
1610.775264930218
 30
0.0
  0
VERTEX
  5
CE3
  8
LAYER_1
 10
845.5200772839371
 20
1607.087336495721
 30
0.0
  0
VERTEX
  5
CE4
  8
LAYER_1
 10
845.3439742301414
 20
1603.400012089715
 30
0.0
  0
VERTEX
  5
CE5
  8
LAYER_1
 10
845.1592966425844
 20
1599.713307206955
 30
0.0
  0
VERTEX
  5
CE6
  8
LAYER_1
 10
844.966046979963
 20
1596.027237342195
 30
0.0
  0
VERTEX
  5
CE7
  8
LAYER_1
 10
844.7642277009734
 20
1592.341817990191
 30
0.0
  0
VERTEX
  5
CE8
  8
LAYER_1
 10
844.553841264312
 20
1588.657064645695
 30
0.0
  0
VERTEX
  5
CE9
  8
LAYER_1
 10
844.3348901286759
 20
1584.972992803463
 30
0.0
  0
VERTEX
  5
CEA
  8
LAYER_1
 10
844.1073767527612
 20
1581.289617958248
 30
0.0
  0
VERTEX
  5
CEB
  8
LAYER_1
 10
843.8713035952645
 20
1577.606955604806
 30
0.0
  0
VERTEX
  5
CEC
  8
LAYER_1
 10
843.6266731148825
 20
1573.925021237891
 30
0.0
  0
VERTEX
  5
CED
  8
LAYER_1
 10
843.3734877703116
 20
1570.243830352257
 30
0.0
  0
VERTEX
  5
CEE
  8
LAYER_1
 10
843.1117500202486
 20
1566.563398442658
 30
0.0
  0
VERTEX
  5
CEF
  8
LAYER_1
 10
842.8414623233898
 20
1562.883741003849
 30
0.0
  0
VERTEX
  5
CF0
  8
LAYER_1
 10
842.5626271384318
 20
1559.204873530584
 30
0.0
  0
VERTEX
  5
CF1
  8
LAYER_1
 10
842.2752469240713
 20
1555.526811517618
 30
0.0
  0
VERTEX
  5
CF2
  8
LAYER_1
 10
841.9793241390047
 20
1551.849570459704
 30
0.0
  0
VERTEX
  5
CF3
  8
LAYER_1
 10
841.6748612419285
 20
1548.173165851599
 30
0.0
  0
VERTEX
  5
CF4
  8
LAYER_1
 10
841.3618606915395
 20
1544.497613188054
 30
0.0
  0
VERTEX
  5
CF5
  8
LAYER_1
 10
841.0403249465339
 20
1540.822927963826
 30
0.0
  0
VERTEX
  5
CF6
  8
LAYER_1
 10
840.7102564656084
 20
1537.149125673669
 30
0.0
  0
VERTEX
  5
CF7
  8
LAYER_1
 10
840.3716577074597
 20
1533.476221812336
 30
0.0
  0
VERTEX
  5
CF8
  8
LAYER_1
 10
840.0245311307842
 20
1529.804231874583
 30
0.0
  0
VERTEX
  5
CF9
  8
LAYER_1
 10
839.6688791942786
 20
1526.133171355164
 30
0.0
  0
VERTEX
  5
CFA
  8
LAYER_1
 10
839.3047043566393
 20
1522.463055748832
 30
0.0
  0
VERTEX
  5
CFB
  8
LAYER_1
 10
838.9320090765628
 20
1518.793900550343
 30
0.0
  0
VERTEX
  5
CFC
  8
LAYER_1
 10
838.5507958127458
 20
1515.125721254451
 30
0.0
  0
VERTEX
  5
CFD
  8
LAYER_1
 10
838.1610670238848
 20
1511.45853335591
 30
0.0
  0
VERTEX
  5
CFE
  8
LAYER_1
 10
837.7628251686763
 20
1507.792352349475
 30
0.0
  0
VERTEX
  5
CFF
  8
LAYER_1
 10
837.3560727058168
 20
1504.127193729899
 30
0.0
  0
VERTEX
  5
D00
  8
LAYER_1
 10
836.9408120940031
 20
1500.463072991939
 30
0.0
  0
VERTEX
  5
D01
  8
LAYER_1
 10
836.5170457919317
 20
1496.800005630346
 30
0.0
  0
VERTEX
  5
D02
  8
LAYER_1
 10
836.0847762582987
 20
1493.138007139877
 30
0.0
  0
VERTEX
  5
D03
  8
LAYER_1
 10
835.6440059518011
 20
1489.477093015285
 30
0.0
  0
VERTEX
  5
D04
  8
LAYER_1
 10
835.1947373311355
 20
1485.817278751326
 30
0.0
  0
VERTEX
  5
D05
  8
LAYER_1
 10
834.7369728549982
 20
1482.158579842753
 30
0.0
  0
VERTEX
  5
D06
  8
LAYER_1
 10
834.2707149820858
 20
1478.50101178432
 30
0.0
  0
VERTEX
  5
D07
  8
LAYER_1
 10
833.7959661710948
 20
1474.844590070782
 30
0.0
  0
VERTEX
  5
D08
  8
LAYER_1
 10
833.312728880722
 20
1471.189330196894
 30
0.0
  0
VERTEX
  5
D09
  8
LAYER_1
 10
832.8210055696636
 20
1467.53524765741
 30
0.0
  0
VERTEX
  5
D0A
  8
LAYER_1
 10
832.3207986966165
 20
1463.882357947084
 30
0.0
  0
VERTEX
  5
D0B
  8
LAYER_1
 10
831.8121107202771
 20
1460.230676560671
 30
0.0
  0
VERTEX
  5
D0C
  8
LAYER_1
 10
831.2949440993418
 20
1456.580218992925
 30
0.0
  0
SEQEND
  5
D2A
  8
LAYER_1
  0
ENDSEC
  0
EOF
