  0
SECTION
  2
HEADER
  9
$ACADVER
  1
AC1015
  9
$ACADMAINTVER
 70
     6
  9
$DWGCODEPAGE
  3
DOS850
  9
$INSBASE
 10
0.0
 20
0.0
 30
0.0
  9
$EXTMIN
 10
-8.3642
 20
-8.4941
 30
1.000000E 20
  9
$EXTMAX
 10
9.52354
 20
9.39364
 30
-1.000000E 20
  9
$LIMMIN
 10
0.0
 20
0.0
  9
$LIMMAX
 10
0.0
 20
0.0
  9
$ORTHOMODE
 70
     0
  9
$REGENMODE
 70
     1
  9
$FILLMODE
 70
     1
  9
$QTEXTMODE
 70
     0
  9
$MIRRTEXT
 70
     1
  9
$LTSCALE
 40
1.0
  9
$ATTMODE
 70
     1
  9
$TEXTSIZE
 40
0.2
  9
$TRACEWID
 40
0.05
  9
$TEXTSTYLE
  7
Standard
  9
$CLAYER
  8
0
  9
$CELTYPE
  6
Continuous
  9
$CECOLOR
 62
   256
  9
$CELTSCALE
 40
1.0
  9
$DISPSILH
 70
     0
  9
$DIMSCALE
 40
1.0
  9
$DIMASZ
 40
0.18
  9
$DIMEXO
 40
0.0625
  9
$DIMDLI
 40
0.38
  9
$DIMRND
 40
0.0
  9
$DIMDLE
 40
0.0
  9
$DIMEXE
 40
0.18
  9
$DIMTP
 40
0.0
  9
$DIMTM
 40
0.0
  9
$DIMTXT
 40
0.18
  9
$DIMCEN
 40
0.09
  9
$DIMTSZ
 40
0.0
  9
$DIMTOL
 70
     0
  9
$DIMLIM
 70
     0
  9
$DIMTIH
 70
     1
  9
$DIMTOH
 70
     1
  9
$DIMSE1
 70
     0
  9
$DIMSE2
 70
     0
  9
$DIMTAD
 70
     0
  9
$DIMZIN
 70
     0
  9
$DIMBLK
  1

  9
$DIMASO
 70
     1
  9
$DIMSHO
 70
     1
  9
$DIMPOST
  1

  9
$DIMAPOST
  1

  9
$DIMALT
 70
     0
  9
$DIMALTD
 70
     2
  9
$DIMALTF
 40
25.4
  9
$DIMLFAC
 40
1.0
  9
$DIMTOFL
 70
     0
  9
$DIMTVP
 40
0.0
  9
$DIMTIX
 70
     0
  9
$DIMSOXD
 70
     0
  9
$DIMSAH
 70
     0
  9
$DIMBLK1
  1

  9
$DIMBLK2
  1

  9
$DIMSTYLE
  2
Standard
  9
$DIMCLRD
 70
     0
  9
$DIMCLRE
 70
     0
  9
$DIMCLRT
 70
     0
  9
$DIMTFAC
 40
1.0
  9
$DIMGAP
 40
0.09
  9
$DIMJUST
 70
     0
  9
$DIMSD1
 70
     0
  9
$DIMSD2
 70
     0
  9
$DIMTOLJ
 70
     1
  9
$DIMTZIN
 70
     0
  9
$DIMALTZ
 70
     0
  9
$DIMALTTZ
 70
     0
  9
$DIMUPT
 70
     0
  9
$DIMDEC
 70
     4
  9
$DIMTDEC
 70
     4
  9
$DIMALTU
 70
     2
  9
$DIMALTTD
 70
     2
  9
$DIMTXSTY
  7
Standard
  9
$DIMAUNIT
 70
     0
  9
$DIMADEC
 70
     0
  9
$DIMALTRND
 40
0.0
  9
$DIMAZIN
 70
     0
  9
$DIMDSEP
 70
     0
  9
$DIMATFIT
 70
     3
  9
$DIMFRAC
 70
     0
  9
$DIMLDRBLK
  1

  9
$DIMLUNIT
 70
     2
  9
$DIMLWD
 70
     0
  9
$DIMLWE
 70
     0
  9
$DIMTMOVE
 70
     0
  9
$LUNITS
 70
     2
  9
$LUPREC
 70
     4
  9
$SKETCHINC
 40
0.1
  9
$FILLETRAD
 40
0.0
  9
$AUNITS
 70
     0
  9
$AUPREC
 70
     0
  9
$MENU
  1
acad
  9
$ELEVATION
 40
0.0
  9
$PELEVATION
 40
0.0
  9
$THICKNESS
 40
0.0
  9
$LIMCHECK
 70
     0
  9
$CHAMFERA
 40
0.0
  9
$CHAMFERB
 40
0.0
  9
$CHAMFERC
 40
0.0
  9
$CHAMFERD
 40
0.0
  9
$SKPOLY
 70
     0
  9
$TDCREATE
 40
0.000000000
  9
$TDUCREATE
 40
0.000000000
  9
$TDUPDATE
 40
0.000000000
  9
$TDUUPDATE
 40
0.000000000
  9
$TDINDWG
 40
0.0000000000
  9
$TDUSRTIMER
 40
0.0000000000
  9
$USRTIMER
 70
     1
  9
$ANGBASE
 50
0.0
  9
$ANGDIR
 70
     0
  9
$PDMODE
 70
     0
  9
$PDSIZE
 40
0.0
  9
$PLINEWID
 40
0.0
  9
$SPLFRAME
 70
     0
  9
$SPLINETYPE
 70
     6
  9
$SPLINESEGS
 70
     8
  9
$HANDSEED
  5
6D
  9
$SURFTAB1
 70
     6
  9
$SURFTAB2
 70
     6
  9
$SURFTYPE
 70
     6
  9
$SURFU
 70
     6
  9
$SURFV
 70
     6
  9
$UCSBASE
  2

  9
$UCSNAME
  2

  9
$UCSORG
 10
0.0
 20
0.0
 30
0.0
  9
$UCSXDIR
 10
1.0
 20
0.0
 30
0.0
  9
$UCSYDIR
 10
0.0
 20
1.0
 30
0.0
  9
$UCSORTHOREF
  2

  9
$UCSORTHOVIEW
 70
     0
  9
$UCSORGTOP
 10
0.0
 20
0.0
 30
0.0
  9
$UCSORGBOTTOM
 10
0.0
 20
0.0
 30
0.0
  9
$UCSORGLEFT
 10
0.0
 20
0.0
 30
0.0
  9
$UCSORGRIGHT
 10
0.0
 20
0.0
 30
0.0
  9
$UCSORGFRONT
 10
0.0
 20
0.0
 30
0.0
  9
$UCSORGBACK
 10
0.0
 20
0.0
 30
0.0
  9
$PUCSBASE
  2

  9
$PUCSNAME
  2

  9
$PUCSORG
 10
0.0
 20
0.0
 30
0.0
  9
$PUCSXDIR
 10
1.0
 20
0.0
 30
0.0
  9
$PUCSYDIR
 10
0.0
 20
1.0
 30
0.0
  9
$PUCSORTHOREF
  2

  9
$PUCSORTHOVIEW
 70
     0
  9
$PUCSORGTOP
 10
0.0
 20
0.0
 30
0.0
  9
$PUCSORGBOTTOM
 10
0.0
 20
0.0
 30
0.0
  9
$PUCSORGLEFT
 10
0.0
 20
0.0
 30
0.0
  9
$PUCSORGRIGHT
 10
0.0
 20
0.0
 30
0.0
  9
$PUCSORGFRONT
 10
0.0
 20
0.0
 30
0.0
  9
$PUCSORGBACK
 10
0.0
 20
0.0
 30
0.0
  9
$USERI1
 70
     0
  9
$USERI2
 70
     0
  9
$USERI3
 70
     0
  9
$USERI4
 70
     0
  9
$USERI5
 70
     0
  9
$USERR1
 40
0.0
  9
$USERR2
 40
0.0
  9
$USERR3
 40
0.0
  9
$USERR4
 40
0.0
  9
$USERR5
 40
0.0
  9
$WORLDVIEW
 70
     1
  9
$SHADEDGE
 70
     3
  9
$SHADEDIF
 70
    70
  9
$TILEMODE
 70
     1
  9
$MAXACTVP
 70
    16
  9
$PINSBASE
 10
0.0
 20
0.0
 30
0.0
  9
$PLIMCHECK
 70
     0
  9
$PEXTMIN
 10
1.000000E 20
 20
1.000000E 20
 30
1.000000E 20
  9
$PEXTMAX
 10
-1.000000E 20
 20
-1.000000E 20
 30
-1.000000E 20
  9
$PLIMMIN
 10
0.0
 20
0.0
  9
$PLIMMAX
 10
12.0
 20
9.0
  9
$UNITMODE
 70
     0
  9
$VISRETAIN
 70
     0
  9
$PLINEGEN
 70
     1
  9
$PSLTSCALE
 70
     0
  9
$TREEDEPTH
 70
  3020
  9
$CMLSTYLE
  2
Standard
  9
$CMLJUST
 70
     0
  9
$CMLSCALE
 40
1.0
  9
$PROXYGRAPHICS
 70
     0
  9
$MEASUREMENT
 70
     0
  9
$CELWEIGHT
370
     0
  9
$ENDCAPS
280
     0
  9
$JOINSTYLE
280
     0
  9
$LWDISPLAY
290
     0
  9
$INSUNITS
 70
     5
  9
$HYPERLINKBASE
  1

  9
$XEDIT
290
     1
  9
$CEPSNTYPE
380
     0
  9
$PSTYLEMODE
290
     1
  9
$FINGERPRINTGUID
  2

  9
$VERSIONGUID
  2

  9
$EXTNAMES
290
     1
  9
$PSVPSCALE
 40
0.0
  0
ENDSEC
  0
SECTION
  2
CLASSES
  0
CLASS
  1
LWPOLYLINE
  2
AcDbPolyline
  3
AutoCAD 2000
 90
    32768
280
     0
281
     1
  0
CLASS
  1
IMAGE
  2
AcDbRasterImage
  3
ISM
 90
    32895
280
     0
281
     1
  0
CLASS
  1
OLE2FRAME
  2
AcDbOle2Frame
  3
AutoCAD 2000
 90
    32768
280
     0
281
     1
  0
CLASS
  1
HATCH
  2
AcDbHatch
  3
AutoCAD 2000
 90
    32768
280
     0
281
     1
  0
CLASS
  1
DICTIONARYVAR
  2
AcDbDictionaryVar
  3
AutoCAD 2000
 90
    32768
280
     0
281
     0
  0
CLASS
  1
RASTERVARIABLES
  2
AcDbRasterVariables
  3
ISM
 90
    32768
280
     0
281
     0
  0
CLASS
  1
IMAGEDEF
  2
AcDbRasterImageDef
  3
ISM
 90
    32768
280
     0
281
     0
  0
CLASS
  1
IMAGEDEF_REACTOR
  2
AcDbRasterImageDefReactor
  3
ISM
 90
    32769
280
     0
281
     0
  0
CLASS
  1
IDBUFFER
  2
AcDbIdBuffer
  3
AutoCAD 2000
 90
    32768
280
     0
281
     0
  0
CLASS
  1
SPATIAL_FILTER
  2
AcDbSpatialFilter
  3
AutoCAD 2000
 90
    32768
280
     0
281
     0
  0
CLASS
  1
XRECORD
  2
AcDbXrecord
  3
AutoCAD 2000
 90
    32768
280
     0
281
     0
  0
CLASS
  1
SORTENTSTABLE
  2
AcDbSortentsTable
  3
AutoCAD 2000
 90
    32768
280
     0
281
     0
  0
CLASS
  1
LAYER_INDEX
  2
AcDbLayerIndex
  3
AutoCAD 2000
 90
    32768
280
     0
281
     0
  0
CLASS
  1
SPATIAL_INDEX
  2
AcDbSpatialIndex
  3
AutoCAD 2000
 90
    32768
280
     0
281
     0
  0
CLASS
  1
OBJECT_PTR
  2
CAseDLPNTableRecord
  3
\"ASE-LPNTableRecord\"
 90
    32769
280
     0
281
     0
  0
CLASS
  1
LAYOUT
  2
AcDbLayout
  3
AutoCAD 2000
 90
        0
280
     0
281
     0
  0
CLASS
  1
PLOTSETTINGS
  2
AcDbPlotSettings
  3
AutoCAD 2000
 90
    32768
280
     0
281
     0
  0
CLASS
  1
ACDBDICTIONARYWDFLT
  2
AcDbDictionaryWithDefault
  3
AutoCAD 2000
 90
        0
280
     0
281
     0
  0
CLASS
  1
ACDBPLACEHOLDER
  2
AcDbPlaceHolder
  3
AutoCAD 2000
 90
        0
280
     0
281
     0
  0
CLASS
  1
VBA_PROJECT
  2
AcDbVbaProject
  3
acadvba
 90
    32768
280
     0
281
     0
  0
CLASS
  1
WIPEOUT
  2
AcDbWipeout
  3
WipeOut|AutoCAD Express Tool|expresstools@autodesk.com
 90
    32895
280
     0
281
     1
  0
CLASS
  1
WIPEOUTVARIABLES
  2
AcDbWipeoutVariables
  3
WipeOut|AutoCAD Express Tool|expresstools@autodesk.com
 90
        0
280
     0
281
     0
  0
CLASS
  1
RTEXT
  2
RText
  3
RText|AutoCAD Express Tool|expresstools@autodesk.com
 90
    32768
280
     0
281
     1
  0
CLASS
  1
ARCALIGNEDTEXT
  2
AcDbArcAlignedText
  3
ATEXT|AutoCAD Express Tool|expresstools@autodesk.com
 90
    32768
280
     0
281
     1
  0
ENDSEC
  0
SECTION
  2
TABLES
  0
TABLE
  2
VPORT
  5
7
100
AcDbSymbolTable
 70
     1
  0
VPORT
  5
15
100
AcDbSymbolTableRecord
100
AcDbViewportTableRecord
  2
*ACTIVE
 70
     0
 10
0.0
 20
0.0
 11
1.0
 21
1.0
 12
6.591288
 22
4.579184
 13
0.0
 23
0.0
 14
1.0
 24
1.0
 15
0.0
 25
0.0
 16
0.0
 26
0.0
 36
1.0
 17
0.0
 27
0.0
 37
0.0
 40
9.158369
 41
0.688564
 42
50.0
 43
0.0
 44
0.0
 50
0.0
 51
0.0
 71
     0
 72
   100
 73
     1
 74
     1
 75
     0
 76
     0
 77
     0
 78
     0
281
     0
 65
     0
110
0.0
120
0.0
130
0.0
111
1.0
121
0.0
131
0.0
112
0.0
122
1.0
132
0.0
345
0
346
0
 79
     0
146
0.0
  0
ENDTAB
  0
TABLE
  2
LTYPE
  5
4
100
AcDbSymbolTable
 70
     3
  0
LTYPE
  5
11
100
AcDbSymbolTableRecord
100
AcDbLinetypeTableRecord
  2
ByBlock
 70
    64
  3

 72
    65
 73
     0
 40
0.0
  0
LTYPE
  5
12
100
AcDbSymbolTableRecord
100
AcDbLinetypeTableRecord
  2
ByLayer
 70
    64
  3

 72
    65
 73
     0
 40
0.0
  0
LTYPE
  5
13
100
AcDbSymbolTableRecord
100
AcDbLinetypeTableRecord
  2
Continuous
 70
    64
  3
Solid line
 72
    65
 73
     0
 40
0.0
  0
ENDTAB
  0
TABLE
  2
LAYER
  5
2
100
AcDbSymbolTable
 70
     2
  0
LAYER
  5
14
100
AcDbSymbolTableRecord
100
AcDbLayerTableRecord
  2
0
 70
     0
 62
     7
  6
Continuous
290
     1
370
    -3
390
1D
  0
LAYER
  5
24
100
AcDbSymbolTableRecord
100
AcDbLayerTableRecord
  2
Layer 1
 70
     0
 62
     7
  6
Continuous
290
     1
370
    -3
390
1F
  0
ENDTAB
  0
TABLE
  2
STYLE
  5
3
100
AcDbSymbolTable
 70
     1
  0
STYLE
  5
17
100
AcDbSymbolTableRecord
100
AcDbTextStyleTableRecord
  2
Standard
 70
     0
 40
0.0
 41
1.0
 50
0.0
 71
     0
 42
0.0
  3
txt
  4

  0
ENDTAB
  0
TABLE
  2
VIEW
  5
5
100
AcDbSymbolTable
 70
     0
  0
ENDTAB
  0
TABLE
  2
UCS
  5
6
100
AcDbSymbolTable
 70
     0
  0
ENDTAB
  0
TABLE
  2
APPID
  5
8
100
AcDbSymbolTable
 70
     1
  0
APPID
  5
16
100
AcDbSymbolTableRecord
100
AcDbRegAppTableRecord
  2
ACAD
 70
     0
  0
ENDTAB
  0
TABLE
  2
DIMSTYLE
  5
9
100
AcDbSymbolTable
 70
     1
100
AcDbDimStyleTable
 71
     0
  0
DIMSTYLE
105
18
100
AcDbSymbolTableRecord
100
AcDbDimStyleTableRecord
  2
Standard
 70
     0
  3

  4

 40
1.0
 41
0.18
 42
0.0625
 43
0.38
 44
0.18
 45
0.0
 46
0.0
 47
0.0
 48
0.0
 71
     0
 72
     0
 73
     1
 74
     1
 75
     0
 76
     0
 77
     0
 78
     0
 79
     0
140
0.18
141
0.09
142
0.0
143
25.4
144
1.0
145
0.0
146
1.0
147
0.09
148
0.0
170
     0
171
     2
172
     0
173
     0
174
     0
175
     0
176
     0
177
     0
178
     0
179
     0
271
     4
272
     4
273
     2
274
     2
275
     0
276
     0
277
     2
278
    46
279
     0
280
     0
281
     0
282
     0
283
     1
284
     0
285
     0
286
     0
288
     0
340
17
341
0
342
0
343
0
344
0
371
    -2
372
    -2
  0
ENDTAB
  0
TABLE
  2
BLOCK_RECORD
  5
1
100
AcDbSymbolTable
 70
     0
  0
BLOCK_RECORD
  5
A
100
AcDbSymbolTableRecord
100
AcDbBlockTableRecord
  2
*MODEL_SPACE
340
20
  0
BLOCK_RECORD
  5
B
100
AcDbSymbolTableRecord
100
AcDbBlockTableRecord
  2
*PAPER_SPACE
340
21
  0
ENDTAB
  0
ENDSEC
  0
SECTION
  2
BLOCKS
  0
BLOCK
  5
D
100
AcDbEntity
  8
0
100
AcDbBlockBegin
  2
*MODEL_SPACE
 70
     0
 10
0.0
 20
0.0
 30
0.0
  3
*MODEL_SPACE
  1

  0
ENDBLK
  5
E
100
AcDbEntity
  8
0
100
AcDbBlockEnd
  0
BLOCK
  5
F
100
AcDbEntity
 67
     1
  8
0
100
AcDbBlockBegin
  2
*PAPER_SPACE
 70
     0
 10
0.0
 20
0.0
 30
0.0
  3
*PAPER_SPACE
  1

  0
ENDBLK
  5
10
100
AcDbEntity
 67
     1
  8
0
100
AcDbBlockEnd
  0
ENDSEC
  0
SECTION
  2
ENTITIES
  0
SPLINE
  5
25
100
AcDbEntity
  8
Layer 1
 62
     0
100
AcDbSpline
210
0.0
220
0.0
230
1.0
 70
     1
 71
     3
 72
    20
 73
    16
 74
     0
 42
0.0000000001
 43
0.0000000001
 40
0.0
 40
0.0
 40
0.0
 40
0.0
 40
0.25
 40
0.25
 40
0.25
 40
0.25
 40
0.5
 40
0.5
 40
0.5
 40
0.5
 40
0.75
 40
0.75
 40
0.75
 40
0.75
 40
1.0
 40
1.0
 40
1.0
 40
1.0
 10
0.35482
 20
0.01725
 30
0.0
 10
0.39099
 20
0.34281
 30
0.0
 10
0.4533
 20
0.72668
 30
0.0
 10
0.36386
 20
1.12914
 30
0.0
 10
0.36386
 20
1.12914
 30
0.0
 10
0.30962
 20
1.37321
 30
0.0
 10
0.3277
 20
1.43649
 30
0.0
 10
0.2373
 20
1.12914
 30
0.0
 10
0.2373
 20
1.12914
 30
0.0
 10
0.1469
 20
0.82179
 30
0.0
 10
0.21018
 20
0.27037
 30
0.0
 10
0.26442
 20
-0.00083
 30
0.0
 10
0.26442
 20
-0.00083
 30
0.0
 10
0.30962
 20
-0.22682
 30
0.0
 10
0.33674
 20
-0.14546
 30
0.0
 10
0.35482
 20
0.01725
 30
0.0
  0
SPLINE
  5
26
100
AcDbEntity
  8
Layer 1
 62
     0
100
AcDbSpline
210
0.0
220
0.0
230
1.0
 70
     1
 71
     3
 72
    20
 73
    16
 74
     0
 42
0.0000000001
 43
0.0000000001
 40
0.0
 40
0.0
 40
0.0
 40
0.0
 40
0.25
 40
0.25
 40
0.25
 40
0.25
 40
0.5
 40
0.5
 40
0.5
 40
0.5
 40
0.75
 40
0.75
 40
0.75
 40
0.75
 40
1.0
 40
1.0
 40
1.0
 40
1.0
 10
-0.36807
 20
-0.22294
 30
0.0
 10
-0.61424
 20
-0.00684
 30
0.0
 10
-0.8932600000000001
 20
0.26407
 30
0.0
 10
-1.27441
 20
0.42124
 30
0.0
 10
-1.27441
 20
0.42124
 30
0.0
 10
-1.50556
 20
0.51654
 30
0.0
 10
-1.54708
 20
0.5676
 30
0.0
 10
-1.3468800000000001
 20
0.31749
 30
0.0
 10
-1.3468800000000001
 20
0.31749
 30
0.0
 10
-1.14669
 20
0.06736
 30
0.0
 10
-0.6584
 20
-0.19655
 30
0.0
 10
-0.40502
 20
-0.3074
 30
0.0
 10
-0.40502
 20
-0.3074
 30
0.0
 10
-0.19387
 20
-0.39977
 30
0.0
 10
-0.24503
 20
-0.33094
 30
0.0
 10
-0.36807
 20
-0.22294
 30
0.0
  0
SPLINE
  5
27
100
AcDbEntity
  8
Layer 1
 62
     0
100
AcDbSpline
210
0.0
220
0.0
230
1.0
 70
     1
 71
     3
 72
    20
 73
    16
 74
     0
 42
0.0000000001
 43
0.0000000001
 40
0.0
 40
0.0
 40
0.0
 40
0.0
 40
0.25
 40
0.25
 40
0.25
 40
0.25
 40
0.5
 40
0.5
 40
0.5
 40
0.5
 40
0.75
 40
0.75
 40
0.75
 40
0.75
 40
1.0
 40
1.0
 40
1.0
 40
1.0
 10
1.05789
 20
-0.24412
 30
0.0
 10
1.31128
 20
-0.13327
 30
0.0
 10
1.79956
 20
0.13064
 30
0.0
 10
1.99976
 20
0.38076
 30
0.0
 10
1.99976
 20
0.38076
 30
0.0
 10
2.1999599999999999
 20
0.63088
 30
0.0
 10
2.1584300000000001
 20
0.57982
 30
0.0
 10
1.9272800000000001
 20
0.4845
 30
0.0
 10
1.9272800000000001
 20
0.4845
 30
0.0
 10
1.54613
 20
0.32735
 30
0.0
 10
1.26712
 20
0.05643
 30
0.0
 10
1.02095
 20
-0.15966
 30
0.0
 10
1.02095
 20
-0.15966
 30
0.0
 10
0.89791
 20
-0.26767
 30
0.0
 10
0.8467400000000001
 20
-0.33649
 30
0.0
 10
1.05789
 20
-0.24412
 30
0.0
  0
SPLINE
  5
28
100
AcDbEntity
  8
Layer 1
 62
     0
100
AcDbSpline
210
0.0
220
0.0
230
1.0
 70
     1
 71
     3
 72
    20
 73
    16
 74
     0
 42
0.0000000001
 43
0.0000000001
 40
0.0
 40
0.0
 40
0.0
 40
0.0
 40
0.25
 40
0.25
 40
0.25
 40
0.25
 40
0.5
 40
0.5
 40
0.5
 40
0.5
 40
0.75
 40
0.75
 40
0.75
 40
0.75
 40
1.0
 40
1.0
 40
1.0
 40
1.0
 10
0.32246
 20
-1.3628499999999999
 30
0.0
 10
0.37188
 20
-1.3628499999999999
 30
0.0
 10
0.41195
 20
-1.1739599999999999
 30
0.0
 10
0.41195
 20
-0.94097
 30
0.0
 10
0.41195
 20
-0.94097
 30
0.0
 10
0.41195
 20
-0.70797
 30
0.0
 10
0.37188
 20
-0.5190900000000001
 30
0.0
 10
0.32246
 20
-0.5190900000000001
 30
0.0
 10
0.32246
 20
-0.5190900000000001
 30
0.0
 10
0.27304
 20
-0.5190900000000001
 30
0.0
 10
0.23297
 20
-0.70797
 30
0.0
 10
0.23297
 20
-0.94097
 30
0.0
 10
0.23297
 20
-0.94097
 30
0.0
 10
0.23297
 20
-1.1739599999999999
 30
0.0
 10
0.27304
 20
-1.3628499999999999
 30
0.0
 10
0.32246
 20
-1.3628499999999999
 30
0.0
  0
SPLINE
  5
29
100
AcDbEntity
  8
Layer 1
 62
     0
100
AcDbSpline
210
0.0
220
0.0
230
1.0
 70
     1
 71
     3
 72
   288
 73
   284
 74
     0
 42
0.0000000001
 43
0.0000000001
 40
0.0
 40
0.0
 40
0.0
 40
0.0
 40
0.0140845070422535
 40
0.0140845070422535
 40
0.0140845070422535
 40
0.0140845070422535
 40
0.028169014084507
 40
0.028169014084507
 40
0.028169014084507
 40
0.028169014084507
 40
0.0422535211267606
 40
0.0422535211267606
 40
0.0422535211267606
 40
0.0422535211267606
 40
0.0563380281690141
 40
0.0563380281690141
 40
0.0563380281690141
 40
0.0563380281690141
 40
0.0704225352112676
 40
0.0704225352112676
 40
0.0704225352112676
 40
0.0704225352112676
 40
0.0845070422535211
 40
0.0845070422535211
 40
0.0845070422535211
 40
0.0845070422535211
 40
0.0985915492957746
 40
0.0985915492957746
 40
0.0985915492957746
 40
0.0985915492957746
 40
0.1126760563380282
 40
0.1126760563380282
 40
0.1126760563380282
 40
0.1126760563380282
 40
0.1267605633802817
 40
0.1267605633802817
 40
0.1267605633802817
 40
0.1267605633802817
 40
0.1408450704225352
 40
0.1408450704225352
 40
0.1408450704225352
 40
0.1408450704225352
 40
0.1549295774647888
 40
0.1549295774647888
 40
0.1549295774647888
 40
0.1549295774647888
 40
0.1690140845070423
 40
0.1690140845070423
 40
0.1690140845070423
 40
0.1690140845070423
 40
0.1830985915492958
 40
0.1830985915492958
 40
0.1830985915492958
 40
0.1830985915492958
 40
0.1971830985915493
 40
0.1971830985915493
 40
0.1971830985915493
 40
0.1971830985915493
 40
0.2112676056338029
 40
0.2112676056338029
 40
0.2112676056338029
 40
0.2112676056338029
 40
0.2253521126760564
 40
0.2253521126760564
 40
0.2253521126760564
 40
0.2253521126760564
 40
0.2394366197183099
 40
0.2394366197183099
 40
0.2394366197183099
 40
0.2394366197183099
 40
0.2535211267605634
 40
0.2535211267605634
 40
0.2535211267605634
 40
0.2535211267605634
 40
0.2676056338028169
 40
0.2676056338028169
 40
0.2676056338028169
 40
0.2676056338028169
 40
0.2816901408450704
 40
0.2816901408450704
 40
0.2816901408450704
 40
0.2816901408450704
 40
0.2957746478873239
 40
0.2957746478873239
 40
0.2957746478873239
 40
0.2957746478873239
 40
0.3098591549295774
 40
0.3098591549295774
 40
0.3098591549295774
 40
0.3098591549295774
 40
0.3239436619718309
 40
0.3239436619718309
 40
0.3239436619718309
 40
0.3239436619718309
 40
0.3380281690140845
 40
0.3380281690140845
 40
0.3380281690140845
 40
0.3380281690140845
 40
0.352112676056338
 40
0.352112676056338
 40
0.352112676056338
 40
0.352112676056338
 40
0.3661971830985915
 40
0.3661971830985915
 40
0.3661971830985915
 40
0.3661971830985915
 40
0.380281690140845
 40
0.380281690140845
 40
0.380281690140845
 40
0.380281690140845
 40
0.3943661971830985
 40
0.3943661971830985
 40
0.3943661971830985
 40
0.3943661971830985
 40
0.408450704225352
 40
0.408450704225352
 40
0.408450704225352
 40
0.408450704225352
 40
0.4225352112676055
 40
0.4225352112676055
 40
0.4225352112676055
 40
0.4225352112676055
 40
0.436619718309859
 40
0.436619718309859
 40
0.436619718309859
 40
0.436619718309859
 40
0.4507042253521125
 40
0.4507042253521125
 40
0.4507042253521125
 40
0.4507042253521125
 40
0.464788732394366
 40
0.464788732394366
 40
0.464788732394366
 40
0.464788732394366
 40
0.4788732394366195
 40
0.4788732394366195
 40
0.4788732394366195
 40
0.4788732394366195
 40
0.492957746478873
 40
0.492957746478873
 40
0.492957746478873
 40
0.492957746478873
 40
0.5070422535211265
 40
0.5070422535211265
 40
0.5070422535211265
 40
0.5070422535211265
 40
0.52112676056338
 40
0.52112676056338
 40
0.52112676056338
 40
0.52112676056338
 40
0.5352112676056335
 40
0.5352112676056335
 40
0.5352112676056335
 40
0.5352112676056335
 40
0.549295774647887
 40
0.549295774647887
 40
0.549295774647887
 40
0.549295774647887
 40
0.5633802816901405
 40
0.5633802816901405
 40
0.5633802816901405
 40
0.5633802816901405
 40
0.577464788732394
 40
0.577464788732394
 40
0.577464788732394
 40
0.577464788732394
 40
0.5915492957746475
 40
0.5915492957746475
 40
0.5915492957746475
 40
0.5915492957746475
 40
0.6056338028169011
 40
0.6056338028169011
 40
0.6056338028169011
 40
0.6056338028169011
 40
0.6197183098591546
 40
0.6197183098591546
 40
0.6197183098591546
 40
0.6197183098591546
 40
0.6338028169014081
 40
0.6338028169014081
 40
0.6338028169014081
 40
0.6338028169014081
 40
0.6478873239436616
 40
0.6478873239436616
 40
0.6478873239436616
 40
0.6478873239436616
 40
0.6619718309859151
 40
0.6619718309859151
 40
0.6619718309859151
 40
0.6619718309859151
 40
0.6760563380281686
 40
0.6760563380281686
 40
0.6760563380281686
 40
0.6760563380281686
 40
0.6901408450704221
 40
0.6901408450704221
 40
0.6901408450704221
 40
0.6901408450704221
 40
0.7042253521126756
 40
0.7042253521126756
 40
0.7042253521126756
 40
0.7042253521126756
 40
0.7183098591549291
 40
0.7183098591549291
 40
0.7183098591549291
 40
0.7183098591549291
 40
0.7323943661971826
 40
0.7323943661971826
 40
0.7323943661971826
 40
0.7323943661971826
 40
0.7464788732394361
 40
0.7464788732394361
 40
0.7464788732394361
 40
0.7464788732394361
 40
0.7605633802816896
 40
0.7605633802816896
 40
0.7605633802816896
 40
0.7605633802816896
 40
0.7746478873239431
 40
0.7746478873239431
 40
0.7746478873239431
 40
0.7746478873239431
 40
0.7887323943661966
 40
0.7887323943661966
 40
0.7887323943661966
 40
0.7887323943661966
 40
0.8028169014084501
 40
0.8028169014084501
 40
0.8028169014084501
 40
0.8028169014084501
 40
0.8169014084507036
 40
0.8169014084507036
 40
0.8169014084507036
 40
0.8169014084507036
 40
0.8309859154929571
 40
0.8309859154929571
 40
0.8309859154929571
 40
0.8309859154929571
 40
0.8450704225352106
 40
0.8450704225352106
 40
0.8450704225352106
 40
0.8450704225352106
 40
0.8591549295774641
 40
0.8591549295774641
 40
0.8591549295774641
 40
0.8591549295774641
 40
0.8732394366197176
 40
0.8732394366197176
 40
0.8732394366197176
 40
0.8732394366197176
 40
0.8873239436619711
 40
0.8873239436619711
 40
0.8873239436619711
 40
0.8873239436619711
 40
0.9014084507042246
 40
0.9014084507042246
 40
0.9014084507042246
 40
0.9014084507042246
 40
0.9154929577464781
 40
0.9154929577464781
 40
0.9154929577464781
 40
0.9154929577464781
 40
0.9295774647887316
 40
0.9295774647887316
 40
0.9295774647887316
 40
0.9295774647887316
 40
0.9436619718309851
 40
0.9436619718309851
 40
0.9436619718309851
 40
0.9436619718309851
 40
0.9577464788732386
 40
0.9577464788732386
 40
0.9577464788732386
 40
0.9577464788732386
 40
0.9718309859154921
 40
0.9718309859154921
 40
0.9718309859154921
 40
0.9718309859154921
 40
0.9859154929577456
 40
0.9859154929577456
 40
0.9859154929577456
 40
0.9859154929577456
 40
1.0
 40
1.0
 40
1.0
 40
1.0
 10
-4.4278199999999996
 20
3.1423999999999999
 30
0.0
 10
-4.3236299999999996
 20
2.85222
 30
0.0
 10
-4.11503
 20
2.4555600000000002
 30
0.0
 10
-3.6377199999999998
 20
2.2891699999999999
 30
0.0
 10
-3.6377199999999998
 20
2.2891699999999999
 30
0.0
 10
-3.07409
 20
2.0926900000000002
 30
0.0
 10
-3.5037199999999999
 20
2.0829800000000001
 30
0.0
 10
-3.7580499999999999
 20
2.02549
 30
0.0
 10
-3.7580499999999999
 20
2.02549
 30
0.0
 10
-3.9487999999999999
 20
1.98238
 30
0.0
 10
-4.24153
 20
1.7268699999999999
 30
0.0
 10
-4.1282300000000003
 20
1.4831700000000001
 30
0.0
 10
-4.1282300000000003
 20
1.4831700000000001
 30
0.0
 10
-3.8871500000000001
 20
0.96465
 30
0.0
 10
-2.7965
 20
0.71353
 30
0.0
 10
-1.7007300000000001
 20
1.1795800000000001
 30
0.0
 10
-1.7007300000000001
 20
1.1795800000000001
 30
0.0
 10
-1.37202
 20
1.3193900000000001
 30
0.0
 10
-1.1996500000000001
 20
1.3793500000000001
 30
0.0
 10
-1.1023700000000001
 20
1.4039600000000001
 30
0.0
 10
-1.1023700000000001
 20
1.4039600000000001
 30
0.0
 10
-1.1386499999999999
 20
1.2366600000000001
 30
0.0
 10
-1.1572199999999999
 20
1.06898
 30
0.0
 10
-1.15402
 20
0.90778
 30
0.0
 10
-1.15402
 20
0.90778
 30
0.0
 10
-1.3018799999999999
 20
0.9306100000000001
 30
0.0
 10
-1.4503900000000001
 20
0.93406
 30
0.0
 10
-1.5888
 20
0.93731
 30
0.0
 10
-1.5888
 20
0.93731
 30
0.0
 10
-1.9392499999999999
 20
0.94553
 30
0.0
 10
-2.0079500000000001
 20
0.97753
 30
0.0
 10
-1.90842
 20
0.61669
 30
0.0
 10
-1.90842
 20
0.61669
 30
0.0
 10
-1.78607
 20
0.17308
 30
0.0
 10
-1.66073
 20
-0.40465
 30
0.0
 10
-0.8823800000000001
 20
-0.52337
 30
0.0
 10
-0.8823800000000001
 20
-0.52337
 30
0.0
 10
-0.67812
 20
-0.55452
 30
0.0
 10
-0.2736
 20
-0.54548
 30
0.0
 10
-0.25085
 20
-0.88673
 30
0.0
 10
-0.25085
 20
-0.88673
 30
0.0
 10
-0.23277
 20
-1.1579299999999999
 30
0.0
 10
-0.44972
 20
-1.5918300000000001
 30
0.0
 10
-0.01581
 20
-1.73647
 30
0.0
 10
-0.01581
 20
-1.73647
 30
0.0
 10
0.4181
 20
-1.8811100000000001
 30
0.0
 10
0.27346
 20
-1.6822299999999999
 30
0.0
 10
0.07459
 20
-1.62799
 30
0.0
 10
0.07459
 20
-1.62799
 30
0.0
 10
-0.12429
 20
-1.57375
 30
0.0
 10
-0.21009
 20
-1.3395699999999999
 30
0.0
 10
-0.13777
 20
-0.99606
 30
0.0
 10
-0.13777
 20
-0.99606
 30
0.0
 10
-0.0762
 20
-0.7035900000000001
 30
0.0
 10
-0.15273
 20
-0.5416800000000001
 30
0.0
 10
-0.38267
 20
-0.49979
 30
0.0
 10
-0.38267
 20
-0.49979
 30
0.0
 10
-1.3819900000000001
 20
-0.31776
 30
0.0
 10
-1.6382000000000001
 20
-0.05979
 30
0.0
 10
-1.79895
 20
0.79237
 30
0.0
 10
-1.79895
 20
0.79237
 30
0.0
 10
-1.7985500000000001
 20
0.79231
 30
0.0
 10
-1.7982100000000001
 20
0.79216
 30
0.0
 10
-1.79779
 20
0.79219
 30
0.0
 10
-1.79779
 20
0.79219
 30
0.0
 10
-1.0990200000000001
 20
0.84239
 30
0.0
 10
-0.74931
 20
0.77567
 30
0.0
 10
-0.41119
 20
0.1138
 30
0.0
 10
-0.41119
 20
0.1138
 30
0.0
 10
-0.41099
 20
0.1134
 30
0.0
 10
-0.41079
 20
0.11302
 30
0.0
 10
-0.41059
 20
0.11262
 30
0.0
 10
-0.41059
 20
0.11262
 30
0.0
 10
-0.23692
 20
-0.29182
 30
0.0
 10
-0.09299
 20
-0.24813
 30
0.0
 10
-0.26885
 20
0.17974
 30
0.0
 10
-0.26885
 20
0.17974
 30
0.0
 10
-0.26888
 20
0.17982
 30
0.0
 10
-0.2689
 20
0.17989
 30
0.0
 10
-0.26893
 20
0.17997
 30
0.0
 10
-0.26893
 20
0.17997
 30
0.0
 10
-0.31492
 20
0.31796
 30
0.0
 10
-0.34688
 20
0.42123
 30
0.0
 10
-0.36519
 20
0.5047700000000001
 30
0.0
 10
-0.36519
 20
0.5047700000000001
 30
0.0
 10
-0.47508
 20
1.0059499999999999
 30
0.0
 10
-0.16987
 20
1.1990400000000001
 30
0.0
 10
0.16715
 20
1.6586099999999999
 30
0.0
 10
0.16715
 20
1.6586099999999999
 30
0.0
 10
0.22592
 20
1.73875
 30
0.0
 10
0.32397
 20
1.7523599999999999
 30
0.0
 10
0.39074
 20
1.68658
 30
0.0
 10
0.39074
 20
1.68658
 30
0.0
 10
0.87536
 20
1.2091700000000001
 30
0.0
 10
1.09805
 20
0.93168
 30
0.0
 10
0.85048
 20
0.18901
 30
0.0
 10
0.85048
 20
0.18901
 30
0.0
 10
0.85046
 20
0.18893
 30
0.0
 10
0.85043
 20
0.18886
 30
0.0
 10
0.85041
 20
0.18879
 30
0.0
 10
0.85041
 20
0.18879
 30
0.0
 10
0.67454
 20
-0.23909
 30
0.0
 10
0.81847
 20
-0.28278
 30
0.0
 10
0.99214
 20
0.12166
 30
0.0
 10
0.99214
 20
0.12166
 30
0.0
 10
0.99234
 20
0.12206
 30
0.0
 10
0.99255
 20
0.12244
 30
0.0
 10
0.99275
 20
0.12283
 30
0.0
 10
0.99275
 20
0.12283
 30
0.0
 10
1.33087
 20
0.78471
 30
0.0
 10
1.7137100000000001
 20
0.85616
 30
0.0
 10
2.3793500000000001
 20
0.80123
 30
0.0
 10
2.3793500000000001
 20
0.80123
 30
0.0
 10
2.3797600000000001
 20
0.80119
 30
0.0
 10
2.3801000000000001
 20
0.80135
 30
0.0
 10
2.3805100000000001
 20
0.80141
 30
0.0
 10
2.3805100000000001
 20
0.80141
 30
0.0
 10
2.35812
 20
0.00906
 30
0.0
 10
1.73472
 20
-0.4085
 30
0.0
 10
0.96423
 20
-0.49075
 30
0.0
 10
0.96423
 20
-0.49075
 30
0.0
 10
0.73182
 20
-0.51556
 30
0.0
 10
0.65144
 20
-0.7198
 30
0.0
 10
0.71301
 20
-1.01227
 30
0.0
 10
0.71301
 20
-1.01227
 30
0.0
 10
0.78533
 20
-1.35578
 30
0.0
 10
0.70585
 20
-1.5647200000000001
 30
0.0
 10
0.50698
 20
-1.61896
 30
0.0
 10
0.50698
 20
-1.61896
 30
0.0
 10
0.3081
 20
-1.6732
 30
0.0
 10
0.16347
 20
-1.8720699999999999
 30
0.0
 10
0.59737
 20
-1.72743
 30
0.0
 10
0.59737
 20
-1.72743
 30
0.0
 10
1.03128
 20
-1.5828
 30
0.0
 10
0.81432
 20
-1.1488799999999999
 30
0.0
 10
0.8324
 20
-0.87769
 30
0.0
 10
0.8324
 20
-0.87769
 30
0.0
 10
0.85515
 20
-0.53644
 30
0.0
 10
1.2596700000000001
 20
-0.54548
 30
0.0
 10
1.46393
 20
-0.51433
 30
0.0
 10
1.46393
 20
-0.51433
 30
0.0
 10
2.2422900000000001
 20
-0.3956
 30
0.0
 10
2.3676200000000001
 20
0.18212
 30
0.0
 10
2.4899800000000001
 20
0.62573
 30
0.0
 10
2.4899800000000001
 20
0.62573
 30
0.0
 10
2.5895100000000002
 20
0.98657
 30
0.0
 10
2.5207999999999999
 20
0.95458
 30
0.0
 10
2.17035
 20
0.94635
 30
0.0
 10
2.17035
 20
0.94635
 30
0.0
 10
2.03925
 20
0.9432700000000001
 30
0.0
 10
1.8990800000000001
 20
0.9402
 30
0.0
 10
1.75898
 20
0.92049
 30
0.0
 10
1.75898
 20
0.92049
 30
0.0
 10
1.7611000000000001
 20
1.0849899999999999
 30
0.0
 10
1.7406900000000001
 20
1.2560100000000001
 30
0.0
 10
1.70217
 20
1.42632
 30
0.0
 10
1.70217
 20
1.42632
 30
0.0
 10
1.7972399999999999
 20
1.40358
 30
0.0
 10
1.96993
 20
1.34457
 30
0.0
 10
2.3116599999999998
 20
1.19922
 30
0.0
 10
2.3116599999999998
 20
1.19922
 30
0.0
 10
3.4074300000000002
 20
0.73317
 30
0.0
 10
4.4980799999999999
 20
0.98428
 30
0.0
 10
4.73916
 20
1.50281
 30
0.0
 10
4.73916
 20
1.50281
 30
0.0
 10
4.8524599999999998
 20
1.74651
 30
0.0
 10
4.5597300000000001
 20
2.0020099999999998
 30
0.0
 10
4.3689799999999996
 20
2.0451199999999998
 30
0.0
 10
4.3689799999999996
 20
2.0451199999999998
 30
0.0
 10
4.1146500000000001
 20
2.1026099999999999
 30
0.0
 10
3.6850200000000002
 20
2.11233
 30
0.0
 10
4.2486499999999996
 20
2.3088000000000002
 30
0.0
 10
4.2486499999999996
 20
2.3088000000000002
 30
0.0
 10
4.7259599999999997
 20
2.47519
 30
0.0
 10
4.9345600000000003
 20
2.8718599999999999
 30
0.0
 10
5.0387500000000003
 20
3.1620300000000001
 30
0.0
 10
5.0387500000000003
 20
3.1620300000000001
 30
0.0
 10
5.0930999999999997
 20
3.31338
 30
0.0
 10
5.1122100000000001
 20
3.3021600000000002
 30
0.0
 10
4.9580299999999999
 20
3.3856899999999999
 30
0.0
 10
4.9580299999999999
 20
3.3856899999999999
 30
0.0
 10
4.6867999999999999
 20
3.5326200000000001
 30
0.0
 10
4.2648799999999998
 20
3.6908400000000001
 30
0.0
 10
3.7963800000000001
 20
3.4949599999999998
 30
0.0
 10
3.7963800000000001
 20
3.4949599999999998
 30
0.0
 10
3.2456800000000001
 20
3.2647200000000001
 30
0.0
 10
3.5589300000000001
 20
3.5589200000000001
 30
0.0
 10
3.7098200000000001
 20
3.7715700000000001
 30
0.0
 10
3.7098200000000001
 20
3.7715700000000001
 30
0.0
 10
3.8229799999999998
 20
3.93106
 30
0.0
 10
3.8701699999999999
 20
4.3167400000000002
 30
0.0
 10
3.6230799999999999
 20
4.4224199999999998
 30
0.0
 10
3.6230799999999999
 20
4.4224199999999998
 30
0.0
 10
3.0973299999999999
 20
4.6473000000000004
 30
0.0
 10
2.1179100000000002
 20
4.1057199999999998
 30
0.0
 10
1.6136999999999999
 20
3.0269699999999999
 30
0.0
 10
1.6136999999999999
 20
3.0269699999999999
 30
0.0
 10
1.4103399999999999
 20
2.5918700000000001
 30
0.0
 10
1.32073
 20
2.4525999999999999
 30
0.0
 10
1.27061
 20
2.3977900000000001
 30
0.0
 10
1.27061
 20
2.3977900000000001
 30
0.0
 10
1.1435500000000001
 20
2.5773000000000001
 30
0.0
 10
0.9988899999999999
 20
2.73047
 30
0.0
 10
0.84514
 20
2.8406600000000002
 30
0.0
 10
0.84514
 20
2.8406600000000002
 30
0.0
 10
0.83206
 20
2.8500299999999998
 30
0.0
 10
0.8192
 20
2.8589799999999999
 30
0.0
 10
0.80643
 20
2.8677199999999998
 30
0.0
 10
0.80643
 20
2.8677199999999998
 30
0.0
 10
0.8531300000000001
 20
2.94319
 30
0.0
 10
0.96544
 20
3.0833699999999999
 30
0.0
 10
1.2536499999999999
 20
3.3818700000000002
 30
0.0
 10
1.2536499999999999
 20
3.3818700000000002
 30
0.0
 10
2.0807500000000001
 20
4.2385200000000003
 30
0.0
 10
2.2362700000000002
 20
5.3468499999999999
 30
0.0
 10
1.8382400000000001
 20
5.7574199999999998
 30
0.0
 10
1.8382400000000001
 20
5.7574199999999998
 30
0.0
 10
1.65117
 20
5.95038
 30
0.0
 10
1.30789
 20
5.7683799999999996
 30
0.0
 10
1.1994100000000001
 20
5.6056699999999999
 30
0.0
 10
1.1994100000000001
 20
5.6056699999999999
 30
0.0
 10
1.05477
 20
5.3887099999999997
 30
0.0
 10
0.89206
 20
4.9909600000000003
 30
0.0
 10
0.91014
 20
5.5875899999999996
 30
0.0
 10
0.91014
 20
5.5875899999999996
 30
0.0
 10
0.9255100000000001
 20
6.0951500000000003
 30
0.0
 10
0.62687
 20
6.4325900000000003
 30
0.0
 10
0.39267
 20
6.6333500000000001
 30
0.0
 10
0.39267
 20
6.6333500000000001
 30
0.0
 10
0.25953
 20
6.7474600000000002
 30
0.0
 10
0.27683
 20
6.7336200000000002
 30
0.0
 10
0.15493
 20
6.6287500000000001
 30
0.0
 10
0.15493
 20
6.6287500000000001
 30
0.0
 10
-0.07879
 20
6.4276799999999996
 30
0.0
 10
-0.37464
 20
6.0910099999999998
 30
0.0
 10
-0.35932
 20
5.5857599999999996
 30
0.0
 10
-0.35932
 20
5.5857599999999996
 30
0.0
 10
-0.34124
 20
4.9891399999999999
 30
0.0
 10
-0.50396
 20
5.3868900000000002
 30
0.0
 10
-0.6486
 20
5.6038399999999999
 30
0.0
 10
-0.6486
 20
5.6038399999999999
 30
0.0
 10
-0.75708
 20
5.7665600000000001
 30
0.0
 10
-1.1003700000000001
 20
5.9485599999999996
 30
0.0
 10
-1.2874399999999999
 20
5.7556000000000003
 30
0.0
 10
-1.2874399999999999
 20
5.7556000000000003
 30
0.0
 10
-1.68546
 20
5.3450300000000004
 30
0.0
 10
-1.5299400000000001
 20
4.2366900000000003
 30
0.0
 10
-0.70284
 20
3.3800500000000002
 30
0.0
 10
-0.70284
 20
3.3800500000000002
 30
0.0
 10
-0.37799
 20
3.0436000000000001
 30
0.0
 10
-0.27661
 20
2.90828
 30
0.0
 10
-0.24079
 20
2.8400799999999999
 30
0.0
 10
-0.24079
 20
2.8400799999999999
 30
0.0
 10
-0.24284
 20
2.8386
 30
0.0
 10
-0.24486
 20
2.8372000000000002
 30
0.0
 10
-0.24693
 20
2.8357000000000001
 30
0.0
 10
-0.24693
 20
2.8357000000000001
 30
0.0
 10
-0.40012
 20
2.72445
 30
0.0
 10
-0.54416
 20
2.5706000000000002
 30
0.0
 10
-0.67055
 20
2.39072
 30
0.0
 10
-0.67055
 20
2.39072
 30
0.0
 10
-0.7226
 20
2.4534500000000001
 30
0.0
 10
-0.81328
 20
2.6019100000000002
 30
0.0
 10
-1.0027699999999999
 20
3.0073300000000001
 30
0.0
 10
-1.0027699999999999
 20
3.0073300000000001
 30
0.0
 10
-1.50698
 20
4.0860799999999999
 30
0.0
 10
-2.4863900000000001
 20
4.6276700000000002
 30
0.0
 10
-3.0121500000000001
 20
4.4027799999999999
 30
0.0
 10
-3.0121500000000001
 20
4.4027799999999999
 30
0.0
 10
-3.2592400000000001
 20
4.2971000000000004
 30
0.0
 10
-3.2120500000000001
 20
3.9114300000000002
 30
0.0
 10
-3.0988799999999999
 20
3.7519300000000002
 30
0.0
 10
-3.0988799999999999
 20
3.7519300000000002
 30
0.0
 10
-2.948
 20
3.5392800000000002
 30
0.0
 10
-2.6347499999999999
 20
3.2450800000000002
 30
0.0
 10
-3.1854499999999999
 20
3.47533
 30
0.0
 10
-3.1854499999999999
 20
3.47533
 30
0.0
 10
-3.65395
 20
3.6711999999999998
 30
0.0
 10
-4.0758700000000001
 20
3.5129800000000002
 30
0.0
 10
-4.3471000000000002
 20
3.36605
 30
0.0
 10
-4.3471000000000002
 20
3.36605
 30
0.0
 10
-4.5012800000000004
 20
3.2825299999999999
 30
0.0
 10
-4.48217
 20
3.2937400000000001
 30
0.0
 10
-4.4278199999999996
 20
3.1423999999999999
 30
0.0
  0
SPLINE
  5
2A
100
AcDbEntity
  8
Layer 1
 62
     0
100
AcDbSpline
210
0.0
220
0.0
230
1.0
 70
     1
 71
     3
 72
    36
 73
    32
 74
     0
 42
0.0000000001
 43
0.0000000001
 40
0.0
 40
0.0
 40
0.0
 40
0.0
 40
0.125
 40
0.125
 40
0.125
 40
0.125
 40
0.25
 40
0.25
 40
0.25
 40
0.25
 40
0.375
 40
0.375
 40
0.375
 40
0.375
 40
0.5
 40
0.5
 40
0.5
 40
0.5
 40
0.625
 40
0.625
 40
0.625
 40
0.625
 40
0.75
 40
0.75
 40
0.75
 40
0.75
 40
0.875
 40
0.875
 40
0.875
 40
0.875
 40
1.0
 40
1.0
 40
1.0
 40
1.0
 10
-0.44019
 20
1.0564800000000001
 30
0.0
 10
-0.45558
 20
1.0619099999999999
 30
0.0
 10
-0.47277
 20
1.0666
 30
0.0
 10
-0.49132
 20
1.06999
 30
0.0
 10
-0.49132
 20
1.06999
 30
0.0
 10
-0.56077
 20
1.0827199999999999
 30
0.0
 10
-0.62068
 20
1.0733299999999999
 30
0.0
 10
-0.62513
 20
1.0490200000000001
 30
0.0
 10
-0.62513
 20
1.0490200000000001
 30
0.0
 10
-0.62958
 20
1.0247200000000001
 30
0.0
 10
-0.57689
 20
0.99469
 30
0.0
 10
-0.50745
 20
0.98197
 30
0.0
 10
-0.50745
 20
0.98197
 30
0.0
 10
-0.49582
 20
0.97984
 30
0.0
 10
-0.48465
 20
0.97855
 30
0.0
 10
-0.47378
 20
0.97763
 30
0.0
 10
-0.47378
 20
0.97763
 30
0.0
 10
-0.49736
 20
0.91543
 30
0.0
 10
-0.51527
 20
0.8499
 30
0.0
 10
-0.52581
 20
0.78054
 30
0.0
 10
-0.52581
 20
0.78054
 30
0.0
 10
-0.63822
 20
0.82961
 30
0.0
 10
-0.78207
 20
0.92876
 30
0.0
 10
-0.7364500000000001
 20
1.07972
 30
0.0
 10
-0.7364500000000001
 20
1.07972
 30
0.0
 10
-0.69682
 20
1.21085
 30
0.0
 10
-0.51141
 20
1.2039800000000001
 30
0.0
 10
-0.37896
 20
1.1696800000000001
 30
0.0
 10
-0.37896
 20
1.1696800000000001
 30
0.0
 10
-0.40117
 20
1.1332
 30
0.0
 10
-0.42171
 20
1.0954999999999999
 30
0.0
 10
-0.44019
 20
1.0564800000000001
 30
0.0
  0
SPLINE
  5
2B
100
AcDbEntity
  8
Layer 1
 62
     0
100
AcDbSpline
210
0.0
220
0.0
230
1.0
 70
     1
 71
     3
 72
    40
 73
    36
 74
     0
 42
0.0000000001
 43
0.0000000001
 40
0.0
 40
0.0
 40
0.0
 40
0.0
 40
0.1111111111111111
 40
0.1111111111111111
 40
0.1111111111111111
 40
0.1111111111111111
 40
0.2222222222222222
 40
0.2222222222222222
 40
0.2222222222222222
 40
0.2222222222222222
 40
0.3333333333333333
 40
0.3333333333333333
 40
0.3333333333333333
 40
0.3333333333333333
 40
0.4444444444444444
 40
0.4444444444444444
 40
0.4444444444444444
 40
0.4444444444444444
 40
0.5555555555555556
 40
0.5555555555555556
 40
0.5555555555555556
 40
0.5555555555555556
 40
0.6666666666666667
 40
0.6666666666666667
 40
0.6666666666666667
 40
0.6666666666666667
 40
0.7777777777777779
 40
0.7777777777777779
 40
0.7777777777777779
 40
0.7777777777777779
 40
0.8888888888888891
 40
0.8888888888888891
 40
0.8888888888888891
 40
0.8888888888888891
 40
1.0
 40
1.0
 40
1.0
 40
1.0
 10
-0.46173
 20
1.75858
 30
0.0
 10
-0.47594
 20
1.7464599999999999
 30
0.0
 10
-0.48926
 20
1.7321200000000001
 30
0.0
 10
-0.50121
 20
1.71465
 30
0.0
 10
-0.50121
 20
1.71465
 30
0.0
 10
-0.51536
 20
1.6939599999999999
 30
0.0
 10
-0.52586
 20
1.67337
 30
0.0
 10
-0.53382
 20
1.6529400000000001
 30
0.0
 10
-0.53382
 20
1.6529400000000001
 30
0.0
 10
-0.59133
 20
1.71973
 30
0.0
 10
-0.62578
 20
1.8035399999999999
 30
0.0
 10
-0.57848
 20
1.8937200000000001
 30
0.0
 10
-0.57848
 20
1.8937200000000001
 30
0.0
 10
-0.54715
 20
1.95346
 30
0.0
 10
-0.48735
 20
1.97366
 30
0.0
 10
-0.41998
 20
1.9718
 30
0.0
 10
-0.41998
 20
1.9718
 30
0.0
 10
-0.39523
 20
1.9094199999999999
 30
0.0
 10
-0.35606
 20
1.8523099999999999
 30
0.0
 10
-0.31678
 20
1.8072600000000001
 30
0.0
 10
-0.31678
 20
1.8072600000000001
 30
0.0
 10
-0.33625
 20
1.80752
 30
0.0
 10
-0.35527
 20
1.8057300000000001
 30
0.0
 10
-0.37365
 20
1.80176
 30
0.0
 10
-0.37365
 20
1.80176
 30
0.0
 10
-0.37625
 20
1.80437
 30
0.0
 10
-0.37914
 20
1.8069200000000001
 30
0.0
 10
-0.38247
 20
1.8093399999999999
 30
0.0
 10
-0.38247
 20
1.8093399999999999
 30
0.0
 10
-0.43959
 20
1.8508500000000001
 30
0.0
 10
-0.49767
 20
1.8683000000000001
 30
0.0
 10
-0.51219
 20
1.8483099999999999
 30
0.0
 10
-0.51219
 20
1.8483099999999999
 30
0.0
 10
-0.52426
 20
1.8317099999999999
 30
0.0
 10
-0.50219
 20
1.7945
 30
0.0
 10
-0.46173
 20
1.75858
 30
0.0
  0
SPLINE
  5
2C
100
AcDbEntity
  8
Layer 1
 62
     0
100
AcDbSpline
210
0.0
220
0.0
230
1.0
 70
     1
 71
     3
 72
    36
 73
    32
 74
     0
 42
0.0000000001
 43
0.0000000001
 40
0.0
 40
0.0
 40
0.0
 40
0.0
 40
0.125
 40
0.125
 40
0.125
 40
0.125
 40
0.25
 40
0.25
 40
0.25
 40
0.25
 40
0.375
 40
0.375
 40
0.375
 40
0.375
 40
0.5
 40
0.5
 40
0.5
 40
0.5
 40
0.625
 40
0.625
 40
0.625
 40
0.625
 40
0.75
 40
0.75
 40
0.75
 40
0.75
 40
0.875
 40
0.875
 40
0.875
 40
0.875
 40
1.0
 40
1.0
 40
1.0
 40
1.0
 10
-0.55135
 20
1.55362
 30
0.0
 10
-0.54905
 20
1.47498
 30
0.0
 10
-0.51042
 20
1.40208
 30
0.0
 10
-0.46026
 20
1.34178
 30
0.0
 10
-0.46026
 20
1.34178
 30
0.0
 10
-0.47204
 20
1.3488100000000001
 30
0.0
 10
-0.48214
 20
1.35484
 30
0.0
 10
-0.48976
 20
1.35947
 30
0.0
 10
-0.48976
 20
1.35947
 30
0.0
 10
-0.5501
 20
1.3961399999999999
 30
0.0
 10
-0.60942
 20
1.4087499999999999
 30
0.0
 10
-0.62225
 20
1.3876200000000001
 30
0.0
 10
-0.62225
 20
1.3876200000000001
 30
0.0
 10
-0.63508
 20
1.3665099999999999
 30
0.0
 10
-0.59657
 20
1.3196699999999999
 30
0.0
 10
-0.5362400000000001
 20
1.2829999999999999
 30
0.0
 10
-0.5362400000000001
 20
1.2829999999999999
 30
0.0
 10
-0.52763
 20
1.27776
 30
0.0
 10
-0.51518
 20
1.27139
 30
0.0
 10
-0.50059
 20
1.26448
 30
0.0
 10
-0.50059
 20
1.26448
 30
0.0
 10
-0.5788100000000001
 20
1.2701499999999999
 30
0.0
 10
-0.65762
 20
1.26223
 30
0.0
 10
-0.71843
 20
1.2285900000000001
 30
0.0
 10
-0.71843
 20
1.2285900000000001
 30
0.0
 10
-0.78332
 20
1.29748
 30
0.0
 10
-0.8265
 20
1.38683
 30
0.0
 10
-0.77581
 20
1.48349
 30
0.0
 10
-0.77581
 20
1.48349
 30
0.0
 10
-0.73451
 20
1.56223
 30
0.0
 10
-0.64375
 20
1.57229
 30
0.0
 10
-0.55135
 20
1.55362
 30
0.0
  0
SPLINE
  5
2D
100
AcDbEntity
  8
Layer 1
 62
     0
100
AcDbSpline
210
0.0
220
0.0
230
1.0
 70
     1
 71
     3
 72
    36
 73
    32
 74
     0
 42
0.0000000001
 43
0.0000000001
 40
0.0
 40
0.0
 40
0.0
 40
0.0
 40
0.125
 40
0.125
 40
0.125
 40
0.125
 40
0.25
 40
0.25
 40
0.25
 40
0.25
 40
0.375
 40
0.375
 40
0.375
 40
0.375
 40
0.5
 40
0.5
 40
0.5
 40
0.5
 40
0.625
 40
0.625
 40
0.625
 40
0.625
 40
0.75
 40
0.75
 40
0.75
 40
0.75
 40
0.875
 40
0.875
 40
0.875
 40
0.875
 40
1.0
 40
1.0
 40
1.0
 40
1.0
 10
-0.13086
 20
1.48929
 30
0.0
 10
-0.14647
 20
1.5065599999999999
 30
0.0
 10
-0.16871
 20
1.52495
 30
0.0
 10
-0.19572
 20
1.5413699999999999
 30
0.0
 10
-0.19572
 20
1.5413699999999999
 30
0.0
 10
-0.25605
 20
1.5780400000000001
 30
0.0
 10
-0.31537
 20
1.5906400000000001
 30
0.0
 10
-0.3282
 20
1.56952
 30
0.0
 10
-0.3282
 20
1.56952
 30
0.0
 10
-0.34104
 20
1.5484100000000001
 30
0.0
 10
-0.30253
 20
1.50156
 30
0.0
 10
-0.2422
 20
1.4649000000000001
 30
0.0
 10
-0.2422
 20
1.4649000000000001
 30
0.0
 10
-0.22036
 20
1.45163
 30
0.0
 10
-0.19873
 20
1.44163
 30
0.0
 10
-0.17932
 20
1.43512
 30
0.0
 10
-0.17932
 20
1.43512
 30
0.0
 10
-0.22
 20
1.3887100000000001
 30
0.0
 10
-0.25993
 20
1.3404199999999999
 30
0.0
 10
-0.29756
 20
1.28986
 30
0.0
 10
-0.29756
 20
1.28986
 30
0.0
 10
-0.3916
 20
1.3662799999999999
 30
0.0
 10
-0.53407
 20
1.52573
 30
0.0
 10
-0.43044
 20
1.66889
 30
0.0
 10
-0.43044
 20
1.66889
 30
0.0
 10
-0.33952
 20
1.7944800000000001
 30
0.0
 10
-0.12977
 20
1.69197
 30
0.0
 10
-0.02146
 20
1.6070199999999999
 30
0.0
 10
-0.02146
 20
1.6070199999999999
 30
0.0
 10
-0.05718
 20
1.5689
 30
0.0
 10
-0.09404
 20
1.5297400000000001
 30
0.0
 10
-0.13086
 20
1.48929
 30
0.0
  0
SPLINE
  5
2E
100
AcDbEntity
  8
Layer 1
 62
     0
100
AcDbSpline
210
0.0
220
0.0
230
1.0
 70
     1
 71
     3
 72
    40
 73
    36
 74
     0
 42
0.0000000001
 43
0.0000000001
 40
0.0
 40
0.0
 40
0.0
 40
0.0
 40
0.1111111111111111
 40
0.1111111111111111
 40
0.1111111111111111
 40
0.1111111111111111
 40
0.2222222222222222
 40
0.2222222222222222
 40
0.2222222222222222
 40
0.2222222222222222
 40
0.3333333333333333
 40
0.3333333333333333
 40
0.3333333333333333
 40
0.3333333333333333
 40
0.4444444444444444
 40
0.4444444444444444
 40
0.4444444444444444
 40
0.4444444444444444
 40
0.5555555555555556
 40
0.5555555555555556
 40
0.5555555555555556
 40
0.5555555555555556
 40
0.6666666666666667
 40
0.6666666666666667
 40
0.6666666666666667
 40
0.6666666666666667
 40
0.7777777777777779
 40
0.7777777777777779
 40
0.7777777777777779
 40
0.7777777777777779
 40
0.8888888888888891
 40
0.8888888888888891
 40
0.8888888888888891
 40
0.8888888888888891
 40
1.0
 40
1.0
 40
1.0
 40
1.0
 10
-0.08361
 20
1.92012
 30
0.0
 10
-0.05592
 20
1.8924300000000001
 30
0.0
 10
-0.01592
 20
1.8627100000000001
 30
0.0
 10
0.01744
 20
1.84433
 30
0.0
 10
0.01744
 20
1.84433
 30
0.0
 10
0.00641
 20
1.78159
 30
0.0
 10
0.00569
 20
1.72089
 30
0.0
 10
0.01002
 20
1.6761299999999999
 30
0.0
 10
0.01002
 20
1.6761299999999999
 30
0.0
 10
-0.04642
 20
1.71716
 30
0.0
 10
-0.11973
 20
1.75959
 30
0.0
 10
-0.19529
 20
1.7847500000000001
 30
0.0
 10
-0.19529
 20
1.7847500000000001
 30
0.0
 10
-0.25758
 20
1.8391
 30
0.0
 10
-0.45893
 20
2.0780500000000002
 30
0.0
 10
-0.30323
 20
2.2275999999999998
 30
0.0
 10
-0.30323
 20
2.2275999999999998
 30
0.0
 10
-0.1785
 20
2.3473799999999998
 30
0.0
 10
0.04121
 20
2.1616200000000001
 30
0.0
 10
0.11574
 20
2.0601500000000001
 30
0.0
 10
0.11574
 20
2.0601500000000001
 30
0.0
 10
0.07805
 20
2.0209199999999998
 30
0.0
 10
0.05243
 20
1.9708300000000001
 30
0.0
 10
0.03559
 20
1.9182900000000001
 30
0.0
 10
0.03559
 20
1.9182900000000001
 30
0.0
 10
0.01835
 20
1.9414199999999999
 30
0.0
 10
-0.00184
 20
1.9649099999999999
 30
0.0
 10
-0.02033
 20
1.9834000000000001
 30
0.0
 10
-0.02033
 20
1.9834000000000001
 30
0.0
 10
-0.07026
 20
2.0333199999999998
 30
0.0
 10
-0.1249
 20
2.0596299999999998
 30
0.0
 10
-0.14237
 20
2.04216
 30
0.0
 10
-0.14237
 20
2.04216
 30
0.0
 10
-0.15984
 20
2.02468
 30
0.0
 10
-0.13353
 20
1.9700500000000001
 30
0.0
 10
-0.08361
 20
1.92012
 30
0.0
  0
SPLINE
  5
2F
100
AcDbEntity
  8
Layer 1
 62
     0
100
AcDbSpline
210
0.0
220
0.0
230
1.0
 70
     1
 71
     3
 72
    48
 73
    44
 74
     0
 42
0.0000000001
 43
0.0000000001
 40
0.0
 40
0.0
 40
0.0
 40
0.0
 40
0.0909090909090909
 40
0.0909090909090909
 40
0.0909090909090909
 40
0.0909090909090909
 40
0.1818181818181818
 40
0.1818181818181818
 40
0.1818181818181818
 40
0.1818181818181818
 40
0.2727272727272727
 40
0.2727272727272727
 40
0.2727272727272727
 40
0.2727272727272727
 40
0.3636363636363637
 40
0.3636363636363637
 40
0.3636363636363637
 40
0.3636363636363637
 40
0.4545454545454546
 40
0.4545454545454546
 40
0.4545454545454546
 40
0.4545454545454546
 40
0.5454545454545455
 40
0.5454545454545455
 40
0.5454545454545455
 40
0.5454545454545455
 40
0.6363636363636365
 40
0.6363636363636365
 40
0.6363636363636365
 40
0.6363636363636365
 40
0.7272727272727274
 40
0.7272727272727274
 40
0.7272727272727274
 40
0.7272727272727274
 40
0.8181818181818183
 40
0.8181818181818183
 40
0.8181818181818183
 40
0.8181818181818183
 40
0.9090909090909093
 40
0.9090909090909093
 40
0.9090909090909093
 40
0.9090909090909093
 40
1.0
 40
1.0
 40
1.0
 40
1.0
 10
0.3051
 20
2.3598400000000002
 30
0.0
 10
0.28039
 20
2.3598400000000002
 30
0.0
 10
0.26035
 20
2.3026
 30
0.0
 10
0.26035
 20
2.2319900000000001
 30
0.0
 10
0.26035
 20
2.2319900000000001
 30
0.0
 10
0.26035
 20
2.1945700000000001
 30
0.0
 10
0.26608
 20
2.1612100000000001
 30
0.0
 10
0.27506
 20
2.1378300000000001
 30
0.0
 10
0.27506
 20
2.1378300000000001
 30
0.0
 10
0.23689
 20
2.13334
 30
0.0
 10
0.20389
 20
2.1222599999999998
 30
0.0
 10
0.17535
 20
2.1063200000000002
 30
0.0
 10
0.17535
 20
2.1063200000000002
 30
0.0
 10
0.15298
 20
2.1345200000000002
 30
0.0
 10
0.12262
 20
2.1673900000000001
 30
0.0
 10
0.08692
 20
2.1997100000000001
 30
0.0
 10
0.08692
 20
2.1997100000000001
 30
0.0
 10
0.08687
 20
2.19984
 30
0.0
 10
0.08685
 20
2.1999300000000002
 30
0.0
 10
0.08681
 20
2.2000600000000001
 30
0.0
 10
0.08681
 20
2.2000600000000001
 30
0.0
 10
0.0744
 20
2.2310699999999999
 30
0.0
 10
0.07411
 20
2.6120100000000002
 30
0.0
 10
0.31271
 20
2.6120100000000002
 30
0.0
 10
0.31271
 20
2.6120100000000002
 30
0.0
 10
0.48311
 20
2.6120100000000002
 30
0.0
 10
0.5145
 20
2.3341599999999998
 30
0.0
 10
0.49958
 20
2.20662
 30
0.0
 10
0.49958
 20
2.20662
 30
0.0
 10
0.46456
 20
2.1741899999999998
 30
0.0
 10
0.43502
 20
2.1415799999999998
 30
0.0
 10
0.41377
 20
2.1140400000000001
 30
0.0
 10
0.41377
 20
2.1140400000000001
 30
0.0
 10
0.39081
 20
2.1270099999999998
 30
0.0
 10
0.36486
 20
2.13564
 30
0.0
 10
0.33549
 20
2.1386599999999998
 30
0.0
 10
0.33549
 20
2.1386599999999998
 30
0.0
 10
0.34427
 20
2.1619999999999999
 30
0.0
 10
0.34984
 20
2.19503
 30
0.0
 10
0.34984
 20
2.2319900000000001
 30
0.0
 10
0.34984
 20
2.2319900000000001
 30
0.0
 10
0.34984
 20
2.3026
 30
0.0
 10
0.32981
 20
2.3598400000000002
 30
0.0
 10
0.3051
 20
2.3598400000000002
 30
0.0
  0
SPLINE
  5
30
100
AcDbEntity
  8
Layer 1
 62
     0
100
AcDbSpline
210
0.0
220
0.0
230
1.0
 70
     1
 71
     3
 72
    28
 73
    24
 74
     0
 42
0.0000000001
 43
0.0000000001
 40
0.0
 40
0.0
 40
0.0
 40
0.0
 40
0.1666666666666667
 40
0.1666666666666667
 40
0.1666666666666667
 40
0.1666666666666667
 40
0.3333333333333333
 40
0.3333333333333333
 40
0.3333333333333333
 40
0.3333333333333333
 40
0.5
 40
0.5
 40
0.5
 40
0.5
 40
0.6666666666666666
 40
0.6666666666666666
 40
0.6666666666666666
 40
0.6666666666666666
 40
0.8333333333333333
 40
0.8333333333333333
 40
0.8333333333333333
 40
0.8333333333333333
 40
1.0
 40
1.0
 40
1.0
 40
1.0
 10
0.33112
 20
1.8728499999999999
 30
0.0
 10
0.32799
 20
1.9347300000000001
 30
0.0
 10
0.30954
 20
1.9824200000000001
 30
0.0
 10
0.28702
 20
1.9824200000000001
 30
0.0
 10
0.28702
 20
1.9824200000000001
 30
0.0
 10
0.2644
 20
1.9824200000000001
 30
0.0
 10
0.24589
 20
1.9342999999999999
 30
0.0
 10
0.24289
 20
1.87202
 30
0.0
 10
0.24289
 20
1.87202
 30
0.0
 10
0.19589
 20
1.8499399999999999
 30
0.0
 10
0.1484
 20
1.79457
 30
0.0
 10
0.0798
 20
1.7172700000000001
 30
0.0
 10
0.0798
 20
1.7172700000000001
 30
0.0
 10
0.08484
 20
1.83663
 30
0.0
 10
0.12832
 20
2.0558100000000001
 30
0.0
 10
0.30935
 20
2.0558100000000001
 30
0.0
 10
0.30935
 20
2.0558100000000001
 30
0.0
 10
0.44992
 20
2.0558100000000001
 30
0.0
 10
0.49589
 20
1.86669
 30
0.0
 10
0.49931
 20
1.7288699999999999
 30
0.0
 10
0.49931
 20
1.7288699999999999
 30
0.0
 10
0.42757
 20
1.8089200000000001
 30
0.0
 10
0.37529
 20
1.85449
 30
0.0
 10
0.33112
 20
1.8728499999999999
 30
0.0
  0
SPLINE
  5
31
100
AcDbEntity
  8
Layer 1
 62
     0
100
AcDbSpline
210
0.0
220
0.0
230
1.0
 70
     1
 71
     3
 72
    40
 73
    36
 74
     0
 42
0.0000000001
 43
0.0000000001
 40
0.0
 40
0.0
 40
0.0
 40
0.0
 40
0.1111111111111111
 40
0.1111111111111111
 40
0.1111111111111111
 40
0.1111111111111111
 40
0.2222222222222222
 40
0.2222222222222222
 40
0.2222222222222222
 40
0.2222222222222222
 40
0.3333333333333333
 40
0.3333333333333333
 40
0.3333333333333333
 40
0.3333333333333333
 40
0.4444444444444444
 40
0.4444444444444444
 40
0.4444444444444444
 40
0.4444444444444444
 40
0.5555555555555556
 40
0.5555555555555556
 40
0.5555555555555556
 40
0.5555555555555556
 40
0.6666666666666667
 40
0.6666666666666667
 40
0.6666666666666667
 40
0.6666666666666667
 40
0.7777777777777779
 40
0.7777777777777779
 40
0.7777777777777779
 40
0.7777777777777779
 40
0.8888888888888891
 40
0.8888888888888891
 40
0.8888888888888891
 40
0.8888888888888891
 40
1.0
 40
1.0
 40
1.0
 40
1.0
 10
0.56063
 20
1.8526199999999999
 30
0.0
 10
0.59423
 20
1.87093
 30
0.0
 10
0.63496
 20
1.9010899999999999
 30
0.0
 10
0.66303
 20
1.92916
 30
0.0
 10
0.66303
 20
1.92916
 30
0.0
 10
0.71296
 20
1.97909
 30
0.0
 10
0.73926
 20
2.0337299999999998
 30
0.0
 10
0.72179
 20
2.0512000000000001
 30
0.0
 10
0.72179
 20
2.0512000000000001
 30
0.0
 10
0.70432
 20
2.06867
 30
0.0
 10
0.64968
 20
2.04237
 30
0.0
 10
0.59976
 20
1.99244
 30
0.0
 10
0.59976
 20
1.99244
 30
0.0
 10
0.58102
 20
1.9737100000000001
 30
0.0
 10
0.56053
 20
1.9498500000000001
 30
0.0
 10
0.54315
 20
1.9264399999999999
 30
0.0
 10
0.54315
 20
1.9264399999999999
 30
0.0
 10
0.52732
 20
1.97899
 30
0.0
 10
0.50444
 20
2.0278999999999998
 30
0.0
 10
0.47213
 20
2.0655899999999998
 30
0.0
 10
0.47213
 20
2.0655899999999998
 30
0.0
 10
0.54038
 20
2.16479
 30
0.0
 10
0.76878
 20
2.3642099999999999
 30
0.0
 10
0.8969
 20
2.2411599999999998
 30
0.0
 10
0.8969
 20
2.2411599999999998
 30
0.0
 10
1.0526
 20
2.0916100000000002
 30
0.0
 10
0.85125
 20
1.85266
 30
0.0
 10
0.78896
 20
1.7983100000000001
 30
0.0
 10
0.78896
 20
1.7983100000000001
 30
0.0
 10
0.70863
 20
1.77156
 30
0.0
 10
0.63083
 20
1.72529
 30
0.0
 10
0.57316
 20
1.6819500000000001
 30
0.0
 10
0.57316
 20
1.6819500000000001
 30
0.0
 10
0.5745900000000001
 20
1.7324299999999999
 30
0.0
 10
0.57135
 20
1.7926
 30
0.0
 10
0.56063
 20
1.8526199999999999
 30
0.0
  0
SPLINE
  5
32
100
AcDbEntity
  8
Layer 1
 62
     0
100
AcDbSpline
210
0.0
220
0.0
230
1.0
 70
     1
 71
     3
 72
    36
 73
    32
 74
     0
 42
0.0000000001
 43
0.0000000001
 40
0.0
 40
0.0
 40
0.0
 40
0.0
 40
0.125
 40
0.125
 40
0.125
 40
0.125
 40
0.25
 40
0.25
 40
0.25
 40
0.25
 40
0.375
 40
0.375
 40
0.375
 40
0.375
 40
0.5
 40
0.5
 40
0.5
 40
0.5
 40
0.625
 40
0.625
 40
0.625
 40
0.625
 40
0.75
 40
0.75
 40
0.75
 40
0.75
 40
0.875
 40
0.875
 40
0.875
 40
0.875
 40
1.0
 40
1.0
 40
1.0
 40
1.0
 10
1.2016800000000001
 20
1.3966700000000001
 30
0.0
 10
1.1888399999999999
 20
1.41778
 30
0.0
 10
1.1295200000000001
 20
1.4051800000000001
 30
0.0
 10
1.0691900000000001
 20
1.3685099999999999
 30
0.0
 10
1.0691900000000001
 20
1.3685099999999999
 30
0.0
 10
1.0665800000000001
 20
1.3669199999999999
 30
0.0
 10
1.06332
 20
1.36497
 30
0.0
 10
1.06016
 20
1.36307
 30
0.0
 10
1.06016
 20
1.36307
 30
0.0
 10
1.1105799999999999
 20
1.4259999999999999
 30
0.0
 10
1.1478600000000001
 20
1.5018100000000001
 30
0.0
 10
1.1450100000000001
 20
1.58324
 30
0.0
 10
1.1450100000000001
 20
1.58324
 30
0.0
 10
1.2353000000000001
 20
1.60185
 30
0.0
 10
1.32355
 20
1.59209
 30
0.0
 10
1.3652500000000001
 20
1.5154799999999999
 30
0.0
 10
1.3652500000000001
 20
1.5154799999999999
 30
0.0
 10
1.4204300000000001
 20
1.41412
 30
0.0
 10
1.3705400000000001
 20
1.31931
 30
0.0
 10
1.30063
 20
1.2479
 30
0.0
 10
1.30063
 20
1.2479
 30
0.0
 10
1.2399899999999999
 20
1.2773300000000001
 30
0.0
 10
1.1637900000000001
 20
1.2836799999999999
 30
0.0
 10
1.08847
 20
1.2775700000000001
 30
0.0
 10
1.08847
 20
1.2775700000000001
 30
0.0
 10
1.09935
 20
1.2828999999999999
 30
0.0
 10
1.10876
 20
1.2878499999999999
 30
0.0
 10
1.1156600000000001
 20
1.2920400000000001
 30
0.0
 10
1.1156600000000001
 20
1.2920400000000001
 30
0.0
 10
1.1759999999999999
 20
1.3287
 30
0.0
 10
1.21451
 20
1.3755500000000001
 30
0.0
 10
1.2016800000000001
 20
1.3966700000000001
 30
0.0
  0
SPLINE
  5
33
100
AcDbEntity
  8
Layer 1
 62
     0
100
AcDbSpline
210
0.0
220
0.0
230
1.0
 70
     1
 71
     3
 72
    40
 73
    36
 74
     0
 42
0.0000000001
 43
0.0000000001
 40
0.0
 40
0.0
 40
0.0
 40
0.0
 40
0.1111111111111111
 40
0.1111111111111111
 40
0.1111111111111111
 40
0.1111111111111111
 40
0.2222222222222222
 40
0.2222222222222222
 40
0.2222222222222222
 40
0.2222222222222222
 40
0.3333333333333333
 40
0.3333333333333333
 40
0.3333333333333333
 40
0.3333333333333333
 40
0.4444444444444444
 40
0.4444444444444444
 40
0.4444444444444444
 40
0.4444444444444444
 40
0.5555555555555556
 40
0.5555555555555556
 40
0.5555555555555556
 40
0.5555555555555556
 40
0.6666666666666667
 40
0.6666666666666667
 40
0.6666666666666667
 40
0.6666666666666667
 40
0.7777777777777779
 40
0.7777777777777779
 40
0.7777777777777779
 40
0.7777777777777779
 40
0.8888888888888891
 40
0.8888888888888891
 40
0.8888888888888891
 40
0.8888888888888891
 40
1.0
 40
1.0
 40
1.0
 40
1.0
 10
1.1180399999999999
 20
1.68798
 30
0.0
 10
1.11151
 20
1.7013400000000001
 30
0.0
 10
1.10409
 20
1.71475
 30
0.0
 10
1.0948800000000001
 20
1.72821
 30
0.0
 10
1.0948800000000001
 20
1.72821
 30
0.0
 10
1.08158
 20
1.74766
 30
0.0
 10
1.0666
 20
1.76328
 30
0.0
 10
1.05053
 20
1.77613
 30
0.0
 10
1.05053
 20
1.77613
 30
0.0
 10
1.0849899999999999
 20
1.80928
 30
0.0
 10
1.10273
 20
1.84206
 30
0.0
 10
1.09162
 20
1.8573500000000001
 30
0.0
 10
1.09162
 20
1.8573500000000001
 30
0.0
 10
1.0770900000000001
 20
1.87734
 30
0.0
 10
1.01901
 20
1.85989
 30
0.0
 10
0.9619
 20
1.8183800000000001
 30
0.0
 10
0.9619
 20
1.8183800000000001
 30
0.0
 10
0.96128
 20
1.81793
 30
0.0
 10
0.96085
 20
1.8174399999999999
 30
0.0
 10
0.96026
 20
1.81698
 30
0.0
 10
0.96026
 20
1.81698
 30
0.0
 10
0.94411
 20
1.81992
 30
0.0
 10
0.92744
 20
1.82104
 30
0.0
 10
0.91049
 20
1.8208299999999999
 30
0.0
 10
0.91049
 20
1.8208299999999999
 30
0.0
 10
0.94766
 20
1.8634599999999999
 30
0.0
 10
0.98483
 20
1.9168700000000001
 30
0.0
 10
1.0096799999999999
 20
1.97536
 30
0.0
 10
1.0096799999999999
 20
1.97536
 30
0.0
 10
1.0648
 20
1.97106
 30
0.0
 10
1.11229
 20
1.9491400000000001
 30
0.0
 10
1.1389899999999999
 20
1.8982399999999999
 30
0.0
 10
1.1389899999999999
 20
1.8982399999999999
 30
0.0
 10
1.17933
 20
1.8213299999999999
 30
0.0
 10
1.1601999999999999
 20
1.7490300000000001
 30
0.0
 10
1.1180399999999999
 20
1.68798
 30
0.0
  0
SPLINE
  5
34
100
AcDbEntity
  8
Layer 1
 62
     0
100
AcDbSpline
210
0.0
220
0.0
230
1.0
 70
     1
 71
     3
 72
    36
 73
    32
 74
     0
 42
0.0000000001
 43
0.0000000001
 40
0.0
 40
0.0
 40
0.0
 40
0.0
 40
0.125
 40
0.125
 40
0.125
 40
0.125
 40
0.25
 40
0.25
 40
0.25
 40
0.25
 40
0.375
 40
0.375
 40
0.375
 40
0.375
 40
0.5
 40
0.5
 40
0.5
 40
0.5
 40
0.625
 40
0.625
 40
0.625
 40
0.625
 40
0.75
 40
0.75
 40
0.75
 40
0.75
 40
0.875
 40
0.875
 40
0.875
 40
0.875
 40
1.0
 40
1.0
 40
1.0
 40
1.0
 10
0.88153
 20
1.29569
 30
0.0
 10
0.84303
 20
1.3476399999999999
 30
0.0
 10
0.80208
 20
1.3971800000000001
 30
0.0
 10
0.76035
 20
1.44476
 30
0.0
 10
0.76035
 20
1.44476
 30
0.0
 10
0.7793600000000001
 20
1.45129
 30
0.0
 10
0.80037
 20
1.46102
 30
0.0
 10
0.82162
 20
1.47394
 30
0.0
 10
0.82162
 20
1.47394
 30
0.0
 10
0.88195
 20
1.5105999999999999
 30
0.0
 10
0.9204599999999999
 20
1.55745
 30
0.0
 10
0.90762
 20
1.57856
 30
0.0
 10
0.90762
 20
1.57856
 30
0.0
 10
0.89479
 20
1.59968
 30
0.0
 10
0.8354700000000001
 20
1.58708
 30
0.0
 10
0.7751400000000001
 20
1.5504100000000001
 30
0.0
 10
0.7751400000000001
 20
1.5504100000000001
 30
0.0
 10
0.74874
 20
1.53437
 30
0.0
 10
0.72693
 20
1.51644
 30
0.0
 10
0.71136
 20
1.4995000000000001
 30
0.0
 10
0.71136
 20
1.4995000000000001
 30
0.0
 10
0.67583
 20
1.53851
 30
0.0
 10
0.64029
 20
1.57629
 30
0.0
 10
0.60576
 20
1.61313
 30
0.0
 10
0.60576
 20
1.61313
 30
0.0
 10
0.71092
 20
1.69929
 30
0.0
 10
0.93052
 20
1.8117300000000001
 30
0.0
 10
1.0241100000000001
 20
1.68245
 30
0.0
 10
1.0241100000000001
 20
1.68245
 30
0.0
 10
1.1313800000000001
 20
1.5342499999999999
 30
0.0
 10
0.9749600000000001
 20
1.3686100000000001
 30
0.0
 10
0.88153
 20
1.29569
 30
0.0
  0
SPLINE
  5
35
100
AcDbEntity
  8
Layer 1
 62
     0
100
AcDbSpline
210
0.0
220
0.0
230
1.0
 70
     1
 71
     3
 72
    36
 73
    32
 74
     0
 42
0.0000000001
 43
0.0000000001
 40
0.0
 40
0.0
 40
0.0
 40
0.0
 40
0.125
 40
0.125
 40
0.125
 40
0.125
 40
0.25
 40
0.25
 40
0.25
 40
0.25
 40
0.375
 40
0.375
 40
0.375
 40
0.375
 40
0.5
 40
0.5
 40
0.5
 40
0.5
 40
0.625
 40
0.625
 40
0.625
 40
0.625
 40
0.75
 40
0.75
 40
0.75
 40
0.75
 40
0.875
 40
0.875
 40
0.875
 40
0.875
 40
1.0
 40
1.0
 40
1.0
 40
1.0
 10
0.95992
 20
1.1797
 30
0.0
 10
1.0929
 20
1.2168699999999999
 30
0.0
 10
1.2891999999999999
 20
1.2287300000000001
 30
0.0
 10
1.33012
 20
1.09328
 30
0.0
 10
1.33012
 20
1.09328
 30
0.0
 10
1.37737
 20
0.9368800000000001
 30
0.0
 10
1.22126
 20
0.83607
 30
0.0
 10
1.10745
 20
0.78897
 30
0.0
 10
1.10745
 20
0.78897
 30
0.0
 10
1.0969199999999999
 20
0.8586200000000001
 30
0.0
 10
1.0789500000000001
 20
0.9244
 30
0.0
 10
1.05528
 20
0.98682
 30
0.0
 10
1.05528
 20
0.98682
 30
0.0
 10
1.06551
 20
0.98775
 30
0.0
 10
1.07599
 20
0.98902
 30
0.0
 10
1.08687
 20
0.99101
 30
0.0
 10
1.08687
 20
0.99101
 30
0.0
 10
1.15632
 20
1.0037400000000001
 30
0.0
 10
1.2090000000000001
 20
1.0337499999999999
 30
0.0
 10
1.20455
 20
1.05806
 30
0.0
 10
1.20455
 20
1.05806
 30
0.0
 10
1.2000999999999999
 20
1.0823700000000001
 30
0.0
 10
1.14019
 20
1.0917600000000001
 30
0.0
 10
1.07074
 20
1.07904
 30
0.0
 10
1.07074
 20
1.07904
 30
0.0
 10
1.0529500000000001
 20
1.07578
 30
0.0
 10
1.03633
 20
1.0713600000000001
 30
0.0
 10
1.02142
 20
1.0662199999999999
 30
0.0
 10
1.02142
 20
1.0662199999999999
 30
0.0
 10
1.0028600000000001
 20
1.1053500000000001
 30
0.0
 10
0.9822300000000001
 20
1.14314
 30
0.0
 10
0.95992
 20
1.1797
 30
0.0
  0
SPLINE
  5
36
100
AcDbEntity
  8
Layer 1
 62
     0
100
AcDbSpline
210
0.0
220
0.0
230
1.0
 70
     1
 71
     3
 72
   112
 73
   108
 74
     0
 42
0.0000000001
 43
0.0000000001
 40
0.0
 40
0.0
 40
0.0
 40
0.0
 40
0.037037037037037
 40
0.037037037037037
 40
0.037037037037037
 40
0.037037037037037
 40
0.0740740740740741
 40
0.0740740740740741
 40
0.0740740740740741
 40
0.0740740740740741
 40
0.1111111111111111
 40
0.1111111111111111
 40
0.1111111111111111
 40
0.1111111111111111
 40
0.1481481481481481
 40
0.1481481481481481
 40
0.1481481481481481
 40
0.1481481481481481
 40
0.1851851851851852
 40
0.1851851851851852
 40
0.1851851851851852
 40
0.1851851851851852
 40
0.2222222222222222
 40
0.2222222222222222
 40
0.2222222222222222
 40
0.2222222222222222
 40
0.2592592592592592
 40
0.2592592592592592
 40
0.2592592592592592
 40
0.2592592592592592
 40
0.2962962962962963
 40
0.2962962962962963
 40
0.2962962962962963
 40
0.2962962962962963
 40
0.3333333333333333
 40
0.3333333333333333
 40
0.3333333333333333
 40
0.3333333333333333
 40
0.3703703703703704
 40
0.3703703703703704
 40
0.3703703703703704
 40
0.3703703703703704
 40
0.4074074074074074
 40
0.4074074074074074
 40
0.4074074074074074
 40
0.4074074074074074
 40
0.4444444444444444
 40
0.4444444444444444
 40
0.4444444444444444
 40
0.4444444444444444
 40
0.4814814814814815
 40
0.4814814814814815
 40
0.4814814814814815
 40
0.4814814814814815
 40
0.5185185185185185
 40
0.5185185185185185
 40
0.5185185185185185
 40
0.5185185185185185
 40
0.5555555555555556
 40
0.5555555555555556
 40
0.5555555555555556
 40
0.5555555555555556
 40
0.5925925925925926
 40
0.5925925925925926
 40
0.5925925925925926
 40
0.5925925925925926
 40
0.6296296296296295
 40
0.6296296296296295
 40
0.6296296296296295
 40
0.6296296296296295
 40
0.6666666666666665
 40
0.6666666666666665
 40
0.6666666666666665
 40
0.6666666666666665
 40
0.7037037037037035
 40
0.7037037037037035
 40
0.7037037037037035
 40
0.7037037037037035
 40
0.7407407407407405
 40
0.7407407407407405
 40
0.7407407407407405
 40
0.7407407407407405
 40
0.7777777777777775
 40
0.7777777777777775
 40
0.7777777777777775
 40
0.7777777777777775
 40
0.8148148148148144
 40
0.8148148148148144
 40
0.8148148148148144
 40
0.8148148148148144
 40
0.8518518518518514
 40
0.8518518518518514
 40
0.8518518518518514
 40
0.8518518518518514
 40
0.8888888888888884
 40
0.8888888888888884
 40
0.8888888888888884
 40
0.8888888888888884
 40
0.9259259259259254
 40
0.9259259259259254
 40
0.9259259259259254
 40
0.9259259259259254
 40
0.9629629629629624
 40
0.9629629629629624
 40
0.9629629629629624
 40
0.9629629629629624
 40
1.0
 40
1.0
 40
1.0
 40
1.0
 10
1.7692399999999999
 20
2.87358
 30
0.0
 10
2.0722
 20
3.69557
 30
0.0
 10
2.7172200000000002
 20
4.1753099999999996
 30
0.0
 10
3.1893699999999998
 20
4.2370400000000004
 30
0.0
 10
3.1893699999999998
 20
4.2370400000000004
 30
0.0
 10
3.5424199999999999
 20
4.2831999999999999
 30
0.0
 10
3.7023999999999999
 20
4.08446
 30
0.0
 10
3.5021800000000001
 20
3.8082199999999999
 30
0.0
 10
3.5021800000000001
 20
3.8082199999999999
 30
0.0
 10
3.2836699999999999
 20
3.5067499999999998
 30
0.0
 10
3.1843900000000001
 20
3.3489399999999998
 30
0.0
 10
3.09687
 20
3.2528100000000002
 30
0.0
 10
3.09687
 20
3.2528100000000002
 30
0.0
 10
3.0676999999999999
 20
3.2207699999999999
 30
0.0
 10
2.8584200000000002
 20
2.9615499999999999
 30
0.0
 10
3.2065100000000002
 20
3.1142099999999999
 30
0.0
 10
3.2065100000000002
 20
3.1142099999999999
 30
0.0
 10
3.8609
 20
3.4011900000000002
 30
0.0
 10
4.5387899999999997
 20
3.4342800000000002
 30
0.0
 10
4.9200200000000001
 20
3.2466300000000001
 30
0.0
 10
4.9200200000000001
 20
3.2466300000000001
 30
0.0
 10
4.7628599999999999
 20
2.8516599999999999
 30
0.0
 10
4.2354700000000003
 20
2.4221599999999999
 30
0.0
 10
3.5553400000000002
 20
2.1981799999999998
 30
0.0
 10
3.5553400000000002
 20
2.1981799999999998
 30
0.0
 10
3.1943199999999998
 20
2.0792899999999999
 30
0.0
 10
3.5302699999999998
 20
2.0261
 30
0.0
 10
3.57863
 20
2.0204599999999999
 30
0.0
 10
3.57863
 20
2.0204599999999999
 30
0.0
 10
3.7070799999999999
 20
2.0054799999999999
 30
0.0
 10
3.8863599999999998
 20
1.95512
 30
0.0
 10
4.2389400000000004
 20
1.87917
 30
0.0
 10
4.2389400000000004
 20
1.87917
 30
0.0
 10
4.5724600000000004
 20
1.80732
 30
0.0
 10
4.5861299999999998
 20
1.5525500000000001
 30
0.0
 10
4.2925500000000003
 20
1.3510899999999999
 30
0.0
 10
4.2925500000000003
 20
1.3510899999999999
 30
0.0
 10
3.8999299999999999
 20
1.0816699999999999
 30
0.0
 10
3.0994700000000002
 20
1.0078800000000001
 30
0.0
 10
2.3249599999999999
 20
1.41727
 30
0.0
 10
2.3249599999999999
 20
1.41727
 30
0.0
 10
2.0664699999999998
 20
1.5539099999999999
 30
0.0
 10
1.7794700000000001
 20
1.5899099999999999
 30
0.0
 10
1.65682
 20
1.59934
 30
0.0
 10
1.65682
 20
1.59934
 30
0.0
 10
1.6455299999999999
 20
1.6370899999999999
 30
0.0
 10
1.6332800000000001
 20
1.6746399999999999
 30
0.0
 10
1.62033
 20
1.7119899999999999
 30
0.0
 10
1.62033
 20
1.7119899999999999
 30
0.0
 10
1.94815
 20
1.7652000000000001
 30
0.0
 10
2.4561199999999999
 20
1.7586599999999999
 30
0.0
 10
2.7709600000000001
 20
1.5076000000000001
 30
0.0
 10
2.7709600000000001
 20
1.5076000000000001
 30
0.0
 10
3.0414699999999999
 20
1.2918799999999999
 30
0.0
 10
3.0758999999999999
 20
1.3400799999999999
 30
0.0
 10
2.7522799999999998
 20
1.60693
 30
0.0
 10
2.7522799999999998
 20
1.60693
 30
0.0
 10
2.51179
 20
1.8052299999999999
 30
0.0
 10
2.3125900000000001
 20
1.84511
 30
0.0
 10
2.0101300000000002
 20
1.8260799999999999
 30
0.0
 10
2.0101300000000002
 20
1.8260799999999999
 30
0.0
 10
1.73529
 20
1.8088
 30
0.0
 10
1.7830999999999999
 20
1.9133800000000001
 30
0.0
 10
2.0649199999999999
 20
2.0116200000000002
 30
0.0
 10
2.0649199999999999
 20
2.0116200000000002
 30
0.0
 10
2.34673
 20
2.1098599999999998
 30
0.0
 10
2.7275100000000001
 20
1.97496
 30
0.0
 10
3.13686
 20
2.2962699999999998
 30
0.0
 10
3.13686
 20
2.2962699999999998
 30
0.0
 10
3.5461999999999998
 20
2.6175799999999998
 30
0.0
 10
3.2949199999999998
 20
2.5407199999999999
 30
0.0
 10
3.1025499999999999
 20
2.3605700000000001
 30
0.0
 10
3.1025499999999999
 20
2.3605700000000001
 30
0.0
 10
2.91018
 20
2.1804299999999999
 30
0.0
 10
2.4194800000000001
 20
2.1474000000000002
 30
0.0
 10
2.1656900000000001
 20
2.12765
 30
0.0
 10
2.1656900000000001
 20
2.12765
 30
0.0
 10
2.0471599999999999
 20
2.11843
 30
0.0
 10
1.9619
 20
2.1050499999999999
 30
0.0
 10
1.8986700000000001
 20
2.09111
 30
0.0
 10
1.8986700000000001
 20
2.09111
 30
0.0
 10
1.71221
 20
2.0499999999999998
 30
0.0
 10
1.65045
 20
2.2169500000000002
 30
0.0
 10
1.80667
 20
2.3076099999999999
 30
0.0
 10
1.80667
 20
2.3076099999999999
 30
0.0
 10
2.0079799999999999
 20
2.4244599999999998
 30
0.0
 10
2.3429700000000002
 20
2.63266
 30
0.0
 10
2.3790900000000001
 20
2.9353600000000002
 30
0.0
 10
2.3790900000000001
 20
2.9353600000000002
 30
0.0
 10
2.42509
 20
3.3208099999999998
 30
0.0
 10
2.3672499999999999
 20
3.2696200000000002
 30
0.0
 10
2.3194599999999999
 20
2.98997
 30
0.0
 10
2.3194599999999999
 20
2.98997
 30
0.0
 10
2.2716699999999999
 20
2.7103100000000002
 30
0.0
 10
2.0318800000000001
 20
2.5023300000000002
 30
0.0
 10
1.7597700000000001
 20
2.3787600000000002
 30
0.0
 10
1.7597700000000001
 20
2.3787600000000002
 30
0.0
 10
1.5396700000000001
 20
2.2788200000000001
 30
0.0
 10
1.4466600000000001
 20
2.2275100000000001
 30
0.0
 10
1.41493
 20
2.1689799999999999
 30
0.0
 10
1.41493
 20
2.1689799999999999
 30
0.0
 10
1.39771
 20
2.1996500000000001
 30
0.0
 10
1.3801399999999999
 20
2.2299899999999999
 30
0.0
 10
1.36192
 20
2.2596500000000002
 30
0.0
 10
1.36192
 20
2.2596500000000002
 30
0.0
 10
1.4161900000000001
 20
2.3127599999999999
 30
0.0
 10
1.65205
 20
2.5556199999999998
 30
0.0
 10
1.7692399999999999
 20
2.87358
 30
0.0
  0
SPLINE
  5
37
100
AcDbEntity
  8
Layer 1
 62
     0
100
AcDbSpline
210
0.0
220
0.0
230
1.0
 70
     1
 71
     3
 72
   112
 73
   108
 74
     0
 42
0.0000000001
 43
0.0000000001
 40
0.0
 40
0.0
 40
0.0
 40
0.0
 40
0.037037037037037
 40
0.037037037037037
 40
0.037037037037037
 40
0.037037037037037
 40
0.0740740740740741
 40
0.0740740740740741
 40
0.0740740740740741
 40
0.0740740740740741
 40
0.1111111111111111
 40
0.1111111111111111
 40
0.1111111111111111
 40
0.1111111111111111
 40
0.1481481481481481
 40
0.1481481481481481
 40
0.1481481481481481
 40
0.1481481481481481
 40
0.1851851851851852
 40
0.1851851851851852
 40
0.1851851851851852
 40
0.1851851851851852
 40
0.2222222222222222
 40
0.2222222222222222
 40
0.2222222222222222
 40
0.2222222222222222
 40
0.2592592592592592
 40
0.2592592592592592
 40
0.2592592592592592
 40
0.2592592592592592
 40
0.2962962962962963
 40
0.2962962962962963
 40
0.2962962962962963
 40
0.2962962962962963
 40
0.3333333333333333
 40
0.3333333333333333
 40
0.3333333333333333
 40
0.3333333333333333
 40
0.3703703703703704
 40
0.3703703703703704
 40
0.3703703703703704
 40
0.3703703703703704
 40
0.4074074074074074
 40
0.4074074074074074
 40
0.4074074074074074
 40
0.4074074074074074
 40
0.4444444444444444
 40
0.4444444444444444
 40
0.4444444444444444
 40
0.4444444444444444
 40
0.4814814814814815
 40
0.4814814814814815
 40
0.4814814814814815
 40
0.4814814814814815
 40
0.5185185185185185
 40
0.5185185185185185
 40
0.5185185185185185
 40
0.5185185185185185
 40
0.5555555555555556
 40
0.5555555555555556
 40
0.5555555555555556
 40
0.5555555555555556
 40
0.5925925925925926
 40
0.5925925925925926
 40
0.5925925925925926
 40
0.5925925925925926
 40
0.6296296296296295
 40
0.6296296296296295
 40
0.6296296296296295
 40
0.6296296296296295
 40
0.6666666666666665
 40
0.6666666666666665
 40
0.6666666666666665
 40
0.6666666666666665
 40
0.7037037037037035
 40
0.7037037037037035
 40
0.7037037037037035
 40
0.7037037037037035
 40
0.7407407407407405
 40
0.7407407407407405
 40
0.7407407407407405
 40
0.7407407407407405
 40
0.7777777777777775
 40
0.7777777777777775
 40
0.7777777777777775
 40
0.7777777777777775
 40
0.8148148148148144
 40
0.8148148148148144
 40
0.8148148148148144
 40
0.8148148148148144
 40
0.8518518518518514
 40
0.8518518518518514
 40
0.8518518518518514
 40
0.8518518518518514
 40
0.8888888888888884
 40
0.8888888888888884
 40
0.8888888888888884
 40
0.8888888888888884
 40
0.9259259259259254
 40
0.9259259259259254
 40
0.9259259259259254
 40
0.9259259259259254
 40
0.9629629629629624
 40
0.9629629629629624
 40
0.9629629629629624
 40
0.9629629629629624
 40
1.0
 40
1.0
 40
1.0
 40
1.0
 10
-0.50396
 20
3.47045
 30
0.0
 10
-1.16326
 20
4.0473400000000002
 30
0.0
 10
-1.3806099999999999
 20
4.8212599999999997
 30
0.0
 10
-1.2694099999999999
 20
5.2842700000000002
 30
0.0
 10
-1.2694099999999999
 20
5.2842700000000002
 30
0.0
 10
-1.1862600000000001
 20
5.6304800000000004
 30
0.0
 10
-0.94345
 20
5.7088200000000002
 30
0.0
 10
-0.75708
 20
5.4230499999999999
 30
0.0
 10
-0.75708
 20
5.4230499999999999
 30
0.0
 10
-0.56006
 20
5.1209499999999997
 30
0.0
 10
-0.44892
 20
4.9715299999999996
 30
0.0
 10
-0.38899
 20
4.8569300000000002
 30
0.0
 10
-0.38899
 20
4.8569300000000002
 30
0.0
 10
-0.36644
 20
4.81379
 30
0.0
 10
-0.19661
 20
4.5190700000000001
 30
0.0
 10
-0.21469
 20
4.8987400000000001
 30
0.0
 10
-0.21469
 20
4.8987400000000001
 30
0.0
 10
-0.24875
 20
5.6139900000000003
 30
0.0
 10
-0.03626
 20
6.2601100000000001
 30
0.0
 10
0.2764
 20
6.5481299999999996
 30
0.0
 10
0.2764
 20
6.5481299999999996
 30
0.0
 10
0.58797
 20
6.2592100000000004
 30
0.0
 10
0.79948
 20
5.6143000000000001
 30
0.0
 10
0.7655
 20
4.9005599999999996
 30
0.0
 10
0.7655
 20
4.9005599999999996
 30
0.0
 10
0.74742
 20
4.5208899999999996
 30
0.0
 10
0.91466
 20
4.8090299999999999
 30
0.0
 10
0.93415
 20
4.8477399999999999
 30
0.0
 10
0.93415
 20
4.8477399999999999
 30
0.0
 10
0.99262
 20
4.9638400000000003
 30
0.0
 10
1.10449
 20
5.1130000000000004
 30
0.0
 10
1.30789
 20
5.4248700000000003
 30
0.0
 10
1.30789
 20
5.4248700000000003
 30
0.0
 10
1.4942500000000001
 20
5.7106399999999997
 30
0.0
 10
1.73706
 20
5.6322999999999999
 30
0.0
 10
1.8202100000000001
 20
5.2860899999999997
 30
0.0
 10
1.8202100000000001
 20
5.2860899999999997
 30
0.0
 10
1.9314199999999999
 20
4.82308
 30
0.0
 10
1.71407
 20
4.0491599999999996
 30
0.0
 10
1.05477
 20
3.47227
 30
0.0
 10
1.05477
 20
3.47227
 30
0.0
 10
0.85869
 20
3.3007
 30
0.0
 10
0.72915
 20
3.0794199999999998
 30
0.0
 10
0.66599
 20
2.9545699999999999
 30
0.0
 10
0.66599
 20
2.9545699999999999
 30
0.0
 10
0.62187
 20
2.97872
 30
0.0
 10
0.57955
 20
2.9986899999999999
 30
0.0
 10
0.53875
 20
3.0145900000000001
 30
0.0
 10
0.53875
 20
3.0145900000000001
 30
0.0
 10
0.57936
 20
3.0667399999999998
 30
0.0
 10
0.5937
 20
3.1724999999999999
 30
0.0
 10
0.60793
 20
3.4071699999999998
 30
0.0
 10
0.60793
 20
3.4071699999999998
 30
0.0
 10
0.62601
 20
3.7054800000000001
 30
0.0
 10
0.73448
 20
4.0038
 30
0.0
 10
0.97855
 20
4.1484399999999999
 30
0.0
 10
0.97855
 20
4.1484399999999999
 30
0.0
 10
1.2226300000000001
 20
4.2930700000000002
 30
0.0
 10
1.2497499999999999
 20
4.3653899999999997
 30
0.0
 10
0.9062400000000001
 20
4.18459
 30
0.0
 10
0.9062400000000001
 20
4.18459
 30
0.0
 10
0.63647
 20
4.0426099999999998
 30
0.0
 10
0.56184
 20
3.6553200000000001
 30
0.0
 10
0.52472
 20
3.4255300000000002
 30
0.0
 10
0.52472
 20
3.4255300000000002
 30
0.0
 10
0.49591
 20
3.24722
 30
0.0
 10
0.31792
 20
3.24519
 30
0.0
 10
0.28963
 20
3.4340099999999998
 30
0.0
 10
0.28963
 20
3.4340099999999998
 30
0.0
 10
0.28003
 20
3.4980600000000002
 30
0.0
 10
0.26203
 20
3.5824699999999998
 30
0.0
 10
0.22826
 20
3.6964399999999999
 30
0.0
 10
0.22826
 20
3.6964399999999999
 30
0.0
 10
0.15595
 20
3.9405199999999998
 30
0.0
 10
0.01131
 20
4.41059
 30
0.0
 10
0.11074
 20
4.6546599999999998
 30
0.0
 10
0.11074
 20
4.6546599999999998
 30
0.0
 10
0.21018
 20
4.8987400000000001
 30
0.0
 10
0.1921
 20
5.1608900000000002
 30
0.0
 10
0.03843
 20
4.6637000000000004
 30
0.0
 10
0.03843
 20
4.6637000000000004
 30
0.0
 10
-0.11525
 20
4.1665099999999997
 30
0.0
 10
0.1469
 20
3.8591600000000001
 30
0.0
 10
0.15595
 20
3.5608499999999998
 30
0.0
 10
0.15595
 20
3.5608499999999998
 30
0.0
 10
0.16498
 20
3.2625299999999999
 30
0.0
 10
0.08441
 20
3.1804899999999998
 30
0.0
 10
0.00227
 20
3.44333
 30
0.0
 10
0.00227
 20
3.44333
 30
0.0
 10
-0.08813
 20
3.7326000000000001
 30
0.0
 10
-0.19661
 20
3.9043600000000001
 30
0.0
 10
-0.4678
 20
4.0580400000000001
 30
0.0
 10
-0.4678
 20
4.0580400000000001
 30
0.0
 10
-0.83273
 20
4.2648299999999999
 30
0.0
 10
-0.86544
 20
4.2154400000000001
 30
0.0
 10
-0.56724
 20
4.0399599999999998
 30
0.0
 10
-0.56724
 20
4.0399599999999998
 30
0.0
 10
-0.20908
 20
3.82918
 30
0.0
 10
-0.0209
 20
3.3336100000000002
 30
0.0
 10
0.0409
 20
3.0081699999999998
 30
0.0
 10
0.0409
 20
3.0081699999999998
 30
0.0
 10
-0.00681
 20
2.9877099999999999
 30
0.0
 10
-0.05503
 20
2.96197
 30
0.0
 10
-0.10463
 20
2.9316
 30
0.0
 10
-0.10463
 20
2.9316
 30
0.0
 10
-0.16322
 20
3.0512199999999998
 30
0.0
 10
-0.29633
 20
3.28877
 30
0.0
 10
-0.50396
 20
3.47045
 30
0.0
  0
SPLINE
  5
38
100
AcDbEntity
  8
Layer 1
 62
     0
100
AcDbSpline
210
0.0
220
0.0
230
1.0
 70
     1
 71
     3
 72
   112
 73
   108
 74
     0
 42
0.0000000001
 43
0.0000000001
 40
0.0
 40
0.0
 40
0.0
 40
0.0
 40
0.037037037037037
 40
0.037037037037037
 40
0.037037037037037
 40
0.037037037037037
 40
0.0740740740740741
 40
0.0740740740740741
 40
0.0740740740740741
 40
0.0740740740740741
 40
0.1111111111111111
 40
0.1111111111111111
 40
0.1111111111111111
 40
0.1111111111111111
 40
0.1481481481481481
 40
0.1481481481481481
 40
0.1481481481481481
 40
0.1481481481481481
 40
0.1851851851851852
 40
0.1851851851851852
 40
0.1851851851851852
 40
0.1851851851851852
 40
0.2222222222222222
 40
0.2222222222222222
 40
0.2222222222222222
 40
0.2222222222222222
 40
0.2592592592592592
 40
0.2592592592592592
 40
0.2592592592592592
 40
0.2592592592592592
 40
0.2962962962962963
 40
0.2962962962962963
 40
0.2962962962962963
 40
0.2962962962962963
 40
0.3333333333333333
 40
0.3333333333333333
 40
0.3333333333333333
 40
0.3333333333333333
 40
0.3703703703703704
 40
0.3703703703703704
 40
0.3703703703703704
 40
0.3703703703703704
 40
0.4074074074074074
 40
0.4074074074074074
 40
0.4074074074074074
 40
0.4074074074074074
 40
0.4444444444444444
 40
0.4444444444444444
 40
0.4444444444444444
 40
0.4444444444444444
 40
0.4814814814814815
 40
0.4814814814814815
 40
0.4814814814814815
 40
0.4814814814814815
 40
0.5185185185185185
 40
0.5185185185185185
 40
0.5185185185185185
 40
0.5185185185185185
 40
0.5555555555555556
 40
0.5555555555555556
 40
0.5555555555555556
 40
0.5555555555555556
 40
0.5925925925925926
 40
0.5925925925925926
 40
0.5925925925925926
 40
0.5925925925925926
 40
0.6296296296296295
 40
0.6296296296296295
 40
0.6296296296296295
 40
0.6296296296296295
 40
0.6666666666666665
 40
0.6666666666666665
 40
0.6666666666666665
 40
0.6666666666666665
 40
0.7037037037037035
 40
0.7037037037037035
 40
0.7037037037037035
 40
0.7037037037037035
 40
0.7407407407407405
 40
0.7407407407407405
 40
0.7407407407407405
 40
0.7407407407407405
 40
0.7777777777777775
 40
0.7777777777777775
 40
0.7777777777777775
 40
0.7777777777777775
 40
0.8148148148148144
 40
0.8148148148148144
 40
0.8148148148148144
 40
0.8148148148148144
 40
0.8518518518518514
 40
0.8518518518518514
 40
0.8518518518518514
 40
0.8518518518518514
 40
0.8888888888888884
 40
0.8888888888888884
 40
0.8888888888888884
 40
0.8888888888888884
 40
0.9259259259259254
 40
0.9259259259259254
 40
0.9259259259259254
 40
0.9259259259259254
 40
0.9629629629629624
 40
0.9629629629629624
 40
0.9629629629629624
 40
0.9629629629629624
 40
1.0
 40
1.0
 40
1.0
 40
1.0
 10
-0.30148
 20
2.6172800000000001
 30
0.0
 10
0.03837
 20
2.9442499999999998
 30
0.0
 10
0.36326
 20
2.9939499999999999
 30
0.0
 10
0.69322
 20
2.7863500000000001
 30
0.0
 10
0.69322
 20
2.7863500000000001
 30
0.0
 10
0.708
 20
2.7740800000000001
 30
0.0
 10
0.72284
 20
2.7635200000000002
 30
0.0
 10
0.73534
 20
2.7583899999999999
 30
0.0
 10
0.73534
 20
2.7583899999999999
 30
0.0
 10
0.78052
 20
2.72702
 30
0.0
 10
0.82581
 20
2.6910599999999998
 30
0.0
 10
0.87126
 20
2.6501399999999999
 30
0.0
 10
0.87126
 20
2.6501399999999999
 30
0.0
 10
1.30131
 20
2.2630300000000001
 30
0.0
 10
1.6009899999999999
 20
1.5136499999999999
 30
0.0
 10
1.62016
 20
0.8947000000000001
 30
0.0
 10
1.62016
 20
0.8947000000000001
 30
0.0
 10
1.4410400000000001
 20
0.85261
 30
0.0
 10
1.2292099999999999
 20
0.72153
 30
0.0
 10
1.0469299999999999
 20
0.44598
 30
0.0
 10
1.0469299999999999
 20
0.44598
 30
0.0
 10
1.04775
 20
0.47748
 30
0.0
 10
1.11805
 20
0.6834
 30
0.0
 10
1.1159699999999999
 20
0.71349
 30
0.0
 10
1.1159699999999999
 20
0.71349
 30
0.0
 10
1.2653700000000001
 20
0.76132
 30
0.0
 10
1.47383
 20
0.88699
 30
0.0
 10
1.4119600000000001
 20
1.1133900000000001
 30
0.0
 10
1.4119600000000001
 20
1.1133900000000001
 30
0.0
 10
1.40235
 20
1.14856
 30
0.0
 10
1.3864799999999999
 20
1.1770099999999999
 30
0.0
 10
1.3660000000000001
 20
1.1997899999999999
 30
0.0
 10
1.3660000000000001
 20
1.1997899999999999
 30
0.0
 10
1.4543699999999999
 20
1.28765
 30
0.0
 10
1.5138400000000001
 20
1.4096500000000001
 30
0.0
 10
1.44129
 20
1.55183
 30
0.0
 10
1.44129
 20
1.55183
 30
0.0
 10
1.3922300000000001
 20
1.6479600000000001
 30
0.0
 10
1.3017700000000001
 20
1.67537
 30
0.0
 10
1.2044299999999999
 20
1.66828
 30
0.0
 10
1.2044299999999999
 20
1.66828
 30
0.0
 10
1.2493000000000001
 20
1.74281
 30
0.0
 10
1.2650699999999999
 20
1.8326100000000001
 30
0.0
 10
1.2155800000000001
 20
1.9334100000000001
 30
0.0
 10
1.2155800000000001
 20
1.9334100000000001
 30
0.0
 10
1.17685
 20
2.0123000000000002
 30
0.0
 10
1.1098699999999999
 20
2.04582
 30
0.0
 10
1.03376
 20
2.0526499999999999
 30
0.0
 10
1.03376
 20
2.0526499999999999
 30
0.0
 10
1.0498099999999999
 20
2.1349499999999999
 30
0.0
 10
1.03454
 20
2.2216399999999998
 30
0.0
 10
0.95839
 20
2.2987899999999999
 30
0.0
 10
0.95839
 20
2.2987899999999999
 30
0.0
 10
0.84766
 20
2.4109699999999998
 30
0.0
 10
0.697
 20
2.3569399999999998
 30
0.0
 10
0.57685
 20
2.2701799999999999
 30
0.0
 10
0.57685
 20
2.2701799999999999
 30
0.0
 10
0.57495
 20
2.44529
 30
0.0
 10
0.5183100000000001
 20
2.7017600000000002
 30
0.0
 10
0.30828
 20
2.69617
 30
0.0
 10
0.30828
 20
2.69617
 30
0.0
 10
0.05419
 20
2.6893899999999999
 30
0.0
 10
0.005
 20
2.41357
 30
0.0
 10
0.01167
 20
2.26023
 30
0.0
 10
0.01167
 20
2.26023
 30
0.0
 10
-0.10762
 20
2.3448199999999999
 30
0.0
 10
-0.25555
 20
2.3958200000000001
 30
0.0
 10
-0.36472
 20
2.2852299999999999
 30
0.0
 10
-0.36472
 20
2.2852299999999999
 30
0.0
 10
-0.43773
 20
2.2112599999999998
 30
0.0
 10
-0.45484
 20
2.1285099999999999
 30
0.0
 10
-0.44198
 20
2.0492699999999999
 30
0.0
 10
-0.44198
 20
2.0492699999999999
 30
0.0
 10
-0.53078
 20
2.04941
 30
0.0
 10
-0.61111
 20
2.0184099999999998
 30
0.0
 10
-0.65507
 20
1.92889
 30
0.0
 10
-0.65507
 20
1.92889
 30
0.0
 10
-0.71012
 20
1.8167500000000001
 30
0.0
 10
-0.68455
 20
1.7181900000000001
 30
0.0
 10
-0.62783
 20
1.63917
 30
0.0
 10
-0.62783
 20
1.63917
 30
0.0
 10
-0.7212
 20
1.64212
 30
0.0
 10
-0.80654
 20
1.6120399999999999
 30
0.0
 10
-0.8524000000000001
 20
1.5186500000000001
 30
0.0
 10
-0.8524000000000001
 20
1.5186500000000001
 30
0.0
 10
-0.92047
 20
1.3799999999999999
 30
0.0
 10
-0.86525
 20
1.2621100000000001
 30
0.0
 10
-0.78031
 20
1.1762600000000001
 30
0.0
 10
-0.78031
 20
1.1762600000000001
 30
0.0
 10
-0.79685
 20
1.1552500000000001
 30
0.0
 10
-0.8100000000000001
 20
1.1301600000000001
 30
0.0
 10
-0.81829
 20
1.0998300000000001
 30
0.0
 10
-0.81829
 20
1.0998300000000001
 30
0.0
 10
-0.87849
 20
0.87954
 30
0.0
 10
-0.68268
 20
0.75452
 30
0.0
 10
-0.53443
 20
0.70387
 30
0.0
 10
-0.53443
 20
0.70387
 30
0.0
 10
-0.53649
 20
0.67396
 30
0.0
 10
-0.47092
 20
0.44458
 30
0.0
 10
-0.4701
 20
0.41327
 30
0.0
 10
-0.4701
 20
0.41327
 30
0.0
 10
-0.5939
 20
0.62073
 30
0.0
 10
-0.8446
 20
0.83636
 30
0.0
 10
-1.01555
 20
0.87976
 30
0.0
 10
-1.01555
 20
0.87976
 30
0.0
 10
-1.0012000000000001
 20
1.4845200000000001
 30
0.0
 10
-0.71597
 20
2.2185000000000001
 30
0.0
 10
-0.30148
 20
2.6172800000000001
 30
0.0
  0
SPLINE
  5
39
100
AcDbEntity
  8
Layer 1
 62
     0
100
AcDbSpline
210
0.0
220
0.0
230
1.0
 70
     1
 71
     3
 72
   112
 73
   108
 74
     0
 42
0.0000000001
 43
0.0000000001
 40
0.0
 40
0.0
 40
0.0
 40
0.0
 40
0.037037037037037
 40
0.037037037037037
 40
0.037037037037037
 40
0.037037037037037
 40
0.0740740740740741
 40
0.0740740740740741
 40
0.0740740740740741
 40
0.0740740740740741
 40
0.1111111111111111
 40
0.1111111111111111
 40
0.1111111111111111
 40
0.1111111111111111
 40
0.1481481481481481
 40
0.1481481481481481
 40
0.1481481481481481
 40
0.1481481481481481
 40
0.1851851851851852
 40
0.1851851851851852
 40
0.1851851851851852
 40
0.1851851851851852
 40
0.2222222222222222
 40
0.2222222222222222
 40
0.2222222222222222
 40
0.2222222222222222
 40
0.2592592592592592
 40
0.2592592592592592
 40
0.2592592592592592
 40
0.2592592592592592
 40
0.2962962962962963
 40
0.2962962962962963
 40
0.2962962962962963
 40
0.2962962962962963
 40
0.3333333333333333
 40
0.3333333333333333
 40
0.3333333333333333
 40
0.3333333333333333
 40
0.3703703703703704
 40
0.3703703703703704
 40
0.3703703703703704
 40
0.3703703703703704
 40
0.4074074074074074
 40
0.4074074074074074
 40
0.4074074074074074
 40
0.4074074074074074
 40
0.4444444444444444
 40
0.4444444444444444
 40
0.4444444444444444
 40
0.4444444444444444
 40
0.4814814814814815
 40
0.4814814814814815
 40
0.4814814814814815
 40
0.4814814814814815
 40
0.5185185185185185
 40
0.5185185185185185
 40
0.5185185185185185
 40
0.5185185185185185
 40
0.5555555555555556
 40
0.5555555555555556
 40
0.5555555555555556
 40
0.5555555555555556
 40
0.5925925925925926
 40
0.5925925925925926
 40
0.5925925925925926
 40
0.5925925925925926
 40
0.6296296296296295
 40
0.6296296296296295
 40
0.6296296296296295
 40
0.6296296296296295
 40
0.6666666666666665
 40
0.6666666666666665
 40
0.6666666666666665
 40
0.6666666666666665
 40
0.7037037037037035
 40
0.7037037037037035
 40
0.7037037037037035
 40
0.7037037037037035
 40
0.7407407407407405
 40
0.7407407407407405
 40
0.7407407407407405
 40
0.7407407407407405
 40
0.7777777777777775
 40
0.7777777777777775
 40
0.7777777777777775
 40
0.7777777777777775
 40
0.8148148148148144
 40
0.8148148148148144
 40
0.8148148148148144
 40
0.8148148148148144
 40
0.8518518518518514
 40
0.8518518518518514
 40
0.8518518518518514
 40
0.8518518518518514
 40
0.8888888888888884
 40
0.8888888888888884
 40
0.8888888888888884
 40
0.8888888888888884
 40
0.9259259259259254
 40
0.9259259259259254
 40
0.9259259259259254
 40
0.9259259259259254
 40
0.9629629629629624
 40
0.9629629629629624
 40
0.9629629629629624
 40
0.9629629629629624
 40
1.0
 40
1.0
 40
1.0
 40
1.0
 10
-2.5955900000000001
 20
3.09457
 30
0.0
 10
-2.24749
 20
2.94191
 30
0.0
 10
-2.4567700000000001
 20
3.20113
 30
0.0
 10
-2.4859399999999998
 20
3.2331699999999999
 30
0.0
 10
-2.4859399999999998
 20
3.2331699999999999
 30
0.0
 10
-2.5734599999999999
 20
3.3292999999999999
 30
0.0
 10
-2.6727400000000001
 20
3.4871099999999999
 30
0.0
 10
-2.8912599999999999
 20
3.7885800000000001
 30
0.0
 10
-2.8912599999999999
 20
3.7885800000000001
 30
0.0
 10
-3.0914799999999998
 20
4.0648200000000001
 30
0.0
 10
-2.9314900000000002
 20
4.26356
 30
0.0
 10
-2.5784400000000001
 20
4.2173999999999996
 30
0.0
 10
-2.5784400000000001
 20
4.2173999999999996
 30
0.0
 10
-2.10629
 20
4.1556699999999998
 30
0.0
 10
-1.4612700000000001
 20
3.6759300000000001
 30
0.0
 10
-1.15831
 20
2.8539400000000001
 30
0.0
 10
-1.15831
 20
2.8539400000000001
 30
0.0
 10
-1.0477399999999999
 20
2.5539499999999999
 30
0.0
 10
-0.83184
 20
2.3211599999999999
 30
0.0
 10
-0.76215
 20
2.2511399999999999
 30
0.0
 10
-0.76215
 20
2.2511399999999999
 30
0.0
 10
-0.7796300000000001
 20
2.2224499999999998
 30
0.0
 10
-0.79648
 20
2.19312
 30
0.0
 10
-0.81304
 20
2.1634899999999999
 30
0.0
 10
-0.81304
 20
2.1634899999999999
 30
0.0
 10
-0.8517400000000001
 20
2.2165400000000002
 30
0.0
 10
-0.94662
 20
2.2673000000000001
 30
0.0
 10
-1.14883
 20
2.3591299999999999
 30
0.0
 10
-1.14883
 20
2.3591299999999999
 30
0.0
 10
-1.4209499999999999
 20
2.4826899999999998
 30
0.0
 10
-1.6607499999999999
 20
2.6906699999999999
 30
0.0
 10
-1.7085300000000001
 20
2.9703300000000001
 30
0.0
 10
-1.7085300000000001
 20
2.9703300000000001
 30
0.0
 10
-1.7563200000000001
 20
3.2499799999999999
 30
0.0
 10
-1.81416
 20
3.3011699999999999
 30
0.0
 10
-1.76816
 20
2.9157199999999999
 30
0.0
 10
-1.76816
 20
2.9157199999999999
 30
0.0
 10
-1.73204
 20
2.6130200000000001
 30
0.0
 10
-1.39706
 20
2.40482
 30
0.0
 10
-1.19574
 20
2.2879700000000001
 30
0.0
 10
-1.19574
 20
2.2879700000000001
 30
0.0
 10
-1.0395300000000001
 20
2.1973099999999999
 30
0.0
 10
-1.10128
 20
2.0303599999999999
 30
0.0
 10
-1.28773
 20
2.0714700000000001
 30
0.0
 10
-1.28773
 20
2.0714700000000001
 30
0.0
 10
-1.35097
 20
2.0854200000000001
 30
0.0
 10
-1.43624
 20
2.0987900000000002
 30
0.0
 10
-1.5547500000000001
 20
2.1080100000000002
 30
0.0
 10
-1.5547500000000001
 20
2.1080100000000002
 30
0.0
 10
-1.8085500000000001
 20
2.1277599999999999
 30
0.0
 10
-2.2992499999999998
 20
2.16079
 30
0.0
 10
-2.4916200000000002
 20
2.3409399999999998
 30
0.0
 10
-2.4916200000000002
 20
2.3409399999999998
 30
0.0
 10
-2.6840000000000002
 20
2.52108
 30
0.0
 10
-2.9352800000000001
 20
2.59795
 30
0.0
 10
-2.5259299999999998
 20
2.27664
 30
0.0
 10
-2.5259299999999998
 20
2.27664
 30
0.0
 10
-2.1165699999999998
 20
1.9553199999999999
 30
0.0
 10
-1.7358
 20
2.09022
 30
0.0
 10
-1.4539800000000001
 20
1.9919800000000001
 30
0.0
 10
-1.4539800000000001
 20
1.9919800000000001
 30
0.0
 10
-1.1721699999999999
 20
1.89375
 30
0.0
 10
-1.12436
 20
1.7891600000000001
 30
0.0
 10
-1.3992
 20
1.8064499999999999
 30
0.0
 10
-1.3992
 20
1.8064499999999999
 30
0.0
 10
-1.70167
 20
1.8254699999999999
 30
0.0
 10
-1.90086
 20
1.78559
 30
0.0
 10
-2.1413500000000001
 20
1.5872900000000001
 30
0.0
 10
-2.1413500000000001
 20
1.5872900000000001
 30
0.0
 10
-2.4649700000000001
 20
1.3204499999999999
 30
0.0
 10
-2.4305400000000001
 20
1.2722500000000001
 30
0.0
 10
-2.1600299999999999
 20
1.48797
 30
0.0
 10
-2.1600299999999999
 20
1.48797
 30
0.0
 10
-1.84897
 20
1.7360100000000001
 30
0.0
 10
-1.3496900000000001
 20
1.74525
 30
0.0
 10
-1.0215799999999999
 20
1.6941299999999999
 30
0.0
 10
-1.0215799999999999
 20
1.6941299999999999
 30
0.0
 10
-1.03457
 20
1.6558600000000001
 30
0.0
 10
-1.04674
 20
1.61738
 30
0.0
 10
-1.0579799999999999
 20
1.5787199999999999
 30
0.0
 10
-1.0579799999999999
 20
1.5787199999999999
 30
0.0
 10
-1.18662
 20
1.5679000000000001
 30
0.0
 10
-1.4636800000000001
 20
1.5299700000000001
 30
0.0
 10
-1.7140299999999999
 20
1.39764
 30
0.0
 10
-1.7140299999999999
 20
1.39764
 30
0.0
 10
-2.48854
 20
0.98825
 30
0.0
 10
-3.2890000000000001
 20
1.06203
 30
0.0
 10
-3.6816200000000001
 20
1.3314600000000001
 30
0.0
 10
-3.6816200000000001
 20
1.3314600000000001
 30
0.0
 10
-3.9752000000000001
 20
1.5329200000000001
 30
0.0
 10
-3.9615200000000002
 20
1.7876799999999999
 30
0.0
 10
-3.6280100000000002
 20
1.8595299999999999
 30
0.0
 10
-3.6280100000000002
 20
1.8595299999999999
 30
0.0
 10
-3.2754300000000001
 20
1.9354899999999999
 30
0.0
 10
-3.0961500000000002
 20
1.98584
 30
0.0
 10
-2.9676999999999998
 20
2.00082
 30
0.0
 10
-2.9676999999999998
 20
2.00082
 30
0.0
 10
-2.91934
 20
2.0064600000000001
 30
0.0
 10
-2.58338
 20
2.05966
 30
0.0
 10
-2.94441
 20
2.17855
 30
0.0
 10
-2.94441
 20
2.17855
 30
0.0
 10
-3.6245400000000001
 20
2.40252
 30
0.0
 10
-4.1519300000000001
 20
2.8320099999999999
 30
0.0
 10
-4.3090999999999999
 20
3.2269999999999999
 30
0.0
 10
-4.3090999999999999
 20
3.2269999999999999
 30
0.0
 10
-3.9278599999999999
 20
3.41465
 30
0.0
 10
-3.2499699999999998
 20
3.3815499999999998
 30
0.0
 10
-2.5955900000000001
 20
3.09457
 30
0.0
  0
SPLINE
  5
3A
100
AcDbEntity
  8
Layer 1
 62
     0
100
AcDbSpline
210
0.0
220
0.0
230
1.0
 70
     1
 71
     3
 72
    28
 73
    24
 74
     0
 42
0.0000000001
 43
0.0000000001
 40
0.0
 40
0.0
 40
0.0
 40
0.0
 40
0.1666666666666667
 40
0.1666666666666667
 40
0.1666666666666667
 40
0.1666666666666667
 40
0.3333333333333333
 40
0.3333333333333333
 40
0.3333333333333333
 40
0.3333333333333333
 40
0.5
 40
0.5
 40
0.5
 40
0.5
 40
0.6666666666666666
 40
0.6666666666666666
 40
0.6666666666666666
 40
0.6666666666666666
 40
0.8333333333333333
 40
0.8333333333333333
 40
0.8333333333333333
 40
0.8333333333333333
 40
1.0
 40
1.0
 40
1.0
 40
1.0
 10
1.87727
 20
-4.9367200000000002
 30
0.0
 10
1.95703
 20
-4.9084099999999999
 30
0.0
 10
2.0789
 20
-4.90869
 30
0.0
 10
2.1160000000000001
 20
-4.9100299999999999
 30
0.0
 10
2.1160000000000001
 20
-4.9100299999999999
 30
0.0
 10
2.3844099999999999
 20
-3.6513599999999999
 30
0.0
 10
1.2410399999999999
 20
-3.7113200000000002
 30
0.0
 10
0.56801
 20
-3.2903600000000002
 30
0.0
 10
0.56801
 20
-3.2903600000000002
 30
0.0
 10
-0.15856
 20
-2.8359100000000002
 30
0.0
 10
0.29142
 20
-2.4284500000000002
 30
0.0
 10
0.35046
 20
-2.0231599999999998
 30
0.0
 10
0.35046
 20
-2.0231599999999998
 30
0.0
 10
0.38206
 20
-1.8061400000000001
 30
0.0
 10
0.20475
 20
-1.8057700000000001
 30
0.0
 10
0.18842
 20
-1.9745200000000001
 30
0.0
 10
0.18842
 20
-1.9745200000000001
 30
0.0
 10
0.15375
 20
-2.3330000000000002
 30
0.0
 10
-0.50576
 20
-3.1798700000000002
 30
0.0
 10
0.94675
 20
-3.6395499999999998
 30
0.0
 10
0.94675
 20
-3.6395499999999998
 30
0.0
 10
2.25291
 20
-4.0529200000000003
 30
0.0
 10
1.9684999999999999
 20
-4.6513900000000001
 30
0.0
 10
1.87727
 20
-4.9367200000000002
 30
0.0
  0
SPLINE
  5
3B
100
AcDbEntity
  8
Layer 1
 62
     0
100
AcDbSpline
210
0.0
220
0.0
230
1.0
 70
     1
 71
     3
 72
    36
 73
    32
 74
     0
 42
0.0000000001
 43
0.0000000001
 40
0.0
 40
0.0
 40
0.0
 40
0.0
 40
0.125
 40
0.125
 40
0.125
 40
0.125
 40
0.25
 40
0.25
 40
0.25
 40
0.25
 40
0.375
 40
0.375
 40
0.375
 40
0.375
 40
0.5
 40
0.5
 40
0.5
 40
0.5
 40
0.625
 40
0.625
 40
0.625
 40
0.625
 40
0.75
 40
0.75
 40
0.75
 40
0.75
 40
0.875
 40
0.875
 40
0.875
 40
0.875
 40
1.0
 40
1.0
 40
1.0
 40
1.0
 10
-0.18872
 20
-3.1230600000000002
 30
0.0
 10
0.03185
 20
-3.4098000000000002
 30
0.0
 10
0.05391
 20
-3.2664300000000002
 30
0.0
 10
-0.08946
 20
-3.0789399999999998
 30
0.0
 10
-0.08946
 20
-3.0789399999999998
 30
0.0
 10
-0.23138
 20
-2.8933599999999999
 30
0.0
 10
-0.47138
 20
-2.69563
 30
0.0
 10
-0.75351
 20
-2.5315099999999999
 30
0.0
 10
-0.75351
 20
-2.5315099999999999
 30
0.0
 10
-1.6647000000000001
 20
-2.0014599999999998
 30
0.0
 10
-1.9674400000000001
 20
-2.1213799999999998
 30
0.0
 10
-2.5835400000000002
 20
-2.34666
 30
0.0
 10
-2.5835400000000002
 20
-2.34666
 30
0.0
 10
-2.7924199999999999
 20
-2.4230499999999999
 30
0.0
 10
-2.97464
 20
-2.4777499999999999
 30
0.0
 10
-3.32084
 20
-2.4392800000000001
 30
0.0
 10
-3.32084
 20
-2.4392800000000001
 30
0.0
 10
-3.5574599999999998
 20
-2.4129999999999998
 30
0.0
 10
-3.5524399999999998
 20
-2.4613399999999999
 30
0.0
 10
-3.28775
 20
-2.5164900000000001
 30
0.0
 10
-3.28775
 20
-2.5164900000000001
 30
0.0
 10
-3.05972
 20
-2.56399
 30
0.0
 10
-2.8092299999999999
 20
-2.5101599999999999
 30
0.0
 10
-2.5789599999999999
 20
-2.4376899999999999
 30
0.0
 10
-2.5789599999999999
 20
-2.4376899999999999
 30
0.0
 10
-1.78529
 20
-2.1879
 30
0.0
 10
-1.7375100000000001
 20
-2.1665100000000002
 30
0.0
 10
-0.85477
 20
-2.61354
 30
0.0
 10
-0.85477
 20
-2.61354
 30
0.0
 10
-0.58318
 20
-2.75108
 30
0.0
 10
-0.34277
 20
-2.92279
 30
0.0
 10
-0.18872
 20
-3.1230600000000002
 30
0.0
  0
SPLINE
  5
3C
100
AcDbEntity
  8
Layer 1
 62
     0
100
AcDbSpline
210
0.0
220
0.0
230
1.0
 70
     1
 71
     3
 72
   124
 73
   120
 74
     0
 42
0.0000000001
 43
0.0000000001
 40
0.0
 40
0.0
 40
0.0
 40
0.0
 40
0.0333333333333333
 40
0.0333333333333333
 40
0.0333333333333333
 40
0.0333333333333333
 40
0.0666666666666667
 40
0.0666666666666667
 40
0.0666666666666667
 40
0.0666666666666667
 40
0.1
 40
0.1
 40
0.1
 40
0.1
 40
0.1333333333333333
 40
0.1333333333333333
 40
0.1333333333333333
 40
0.1333333333333333
 40
0.1666666666666667
 40
0.1666666666666667
 40
0.1666666666666667
 40
0.1666666666666667
 40
0.2
 40
0.2
 40
0.2
 40
0.2
 40
0.2333333333333333
 40
0.2333333333333333
 40
0.2333333333333333
 40
0.2333333333333333
 40
0.2666666666666667
 40
0.2666666666666667
 40
0.2666666666666667
 40
0.2666666666666667
 40
0.3
 40
0.3
 40
0.3
 40
0.3
 40
0.3333333333333333
 40
0.3333333333333333
 40
0.3333333333333333
 40
0.3333333333333333
 40
0.3666666666666666
 40
0.3666666666666666
 40
0.3666666666666666
 40
0.3666666666666666
 40
0.4
 40
0.4
 40
0.4
 40
0.4
 40
0.4333333333333333
 40
0.4333333333333333
 40
0.4333333333333333
 40
0.4333333333333333
 40
0.4666666666666666
 40
0.4666666666666666
 40
0.4666666666666666
 40
0.4666666666666666
 40
0.4999999999999999
 40
0.4999999999999999
 40
0.4999999999999999
 40
0.4999999999999999
 40
0.5333333333333333
 40
0.5333333333333333
 40
0.5333333333333333
 40
0.5333333333333333
 40
0.5666666666666667
 40
0.5666666666666667
 40
0.5666666666666667
 40
0.5666666666666667
 40
0.6
 40
0.6
 40
0.6
 40
0.6
 40
0.6333333333333333
 40
0.6333333333333333
 40
0.6333333333333333
 40
0.6333333333333333
 40
0.6666666666666666
 40
0.6666666666666666
 40
0.6666666666666666
 40
0.6666666666666666
 40
0.7
 40
0.7
 40
0.7
 40
0.7
 40
0.7333333333333333
 40
0.7333333333333333
 40
0.7333333333333333
 40
0.7333333333333333
 40
0.7666666666666666
 40
0.7666666666666666
 40
0.7666666666666666
 40
0.7666666666666666
 40
0.7999999999999999
 40
0.7999999999999999
 40
0.7999999999999999
 40
0.7999999999999999
 40
0.8333333333333333
 40
0.8333333333333333
 40
0.8333333333333333
 40
0.8333333333333333
 40
0.8666666666666666
 40
0.8666666666666666
 40
0.8666666666666666
 40
0.8666666666666666
 40
0.8999999999999999
 40
0.8999999999999999
 40
0.8999999999999999
 40
0.8999999999999999
 40
0.9333333333333332
 40
0.9333333333333332
 40
0.9333333333333332
 40
0.9333333333333332
 40
0.9666666666666666
 40
0.9666666666666666
 40
0.9666666666666666
 40
0.9666666666666666
 40
1.0
 40
1.0
 40
1.0
 40
1.0
 10
-3.14438
 20
-3.2333400000000001
 30
0.0
 10
-3.6627200000000002
 20
-3.75169
 30
0.0
 10
-3.14438
 20
-3.6193399999999998
 30
0.0
 10
-2.67015
 20
-3.3767100000000001
 30
0.0
 10
-2.67015
 20
-3.3767100000000001
 30
0.0
 10
-2.1959200000000001
 20
-3.13408
 30
0.0
 10
-1.1702600000000001
 20
-2.7591100000000002
 30
0.0
 10
-1.6555200000000001
 20
-3.24437
 30
0.0
 10
-1.6555200000000001
 20
-3.24437
 30
0.0
 10
-2.1407799999999999
 20
-3.7296299999999998
 30
0.0
 10
-1.7437499999999999
 20
-3.6414
 30
0.0
 10
-1.3467199999999999
 20
-3.42083
 30
0.0
 10
-1.3467199999999999
 20
-3.42083
 30
0.0
 10
-0.94969
 20
-3.2002600000000001
 30
0.0
 10
-0.9166
 20
-3.0568900000000001
 30
0.0
 10
-0.38724
 20
-3.3325999999999998
 30
0.0
 10
-0.38724
 20
-3.3325999999999998
 30
0.0
 10
0.14214
 20
-3.6083099999999999
 30
0.0
 10
0.05391
 20
-3.4649399999999999
 30
0.0
 10
-0.31003
 20
-3.27746
 30
0.0
 10
-0.31003
 20
-3.27746
 30
0.0
 10
-0.67398
 20
-3.0899700000000001
 30
0.0
 10
-0.92764
 20
-3.0238
 30
0.0
 10
-1.3687800000000001
 20
-3.2884799999999998
 30
0.0
 10
-1.3687800000000001
 20
-3.2884799999999998
 30
0.0
 10
-1.80992
 20
-3.5531700000000002
 30
0.0
 10
-1.73272
 20
-3.4539200000000001
 30
0.0
 10
-1.5121500000000001
 20
-3.2002600000000001
 30
0.0
 10
-1.5121500000000001
 20
-3.2002600000000001
 30
0.0
 10
-1.29158
 20
-2.9466000000000001
 30
0.0
 10
-1.2805500000000001
 20
-2.8252799999999998
 30
0.0
 10
-1.7988900000000001
 20
-2.9466000000000001
 30
0.0
 10
-1.7988900000000001
 20
-2.9466000000000001
 30
0.0
 10
-2.3172299999999999
 20
-3.0679099999999999
 30
0.0
 10
-2.6260300000000001
 20
-3.2553999999999998
 30
0.0
 10
-2.8466100000000001
 20
-3.3436300000000001
 30
0.0
 10
-2.8466100000000001
 20
-3.3436300000000001
 30
0.0
 10
-3.06718
 20
-3.4318599999999999
 30
0.0
 10
-3.28775
 20
-3.49803
 30
0.0
 10
-3.0230700000000001
 20
-3.2553999999999998
 30
0.0
 10
-3.0230700000000001
 20
-3.2553999999999998
 30
0.0
 10
-2.7583799999999998
 20
-3.0127700000000002
 30
0.0
 10
-2.7583799999999998
 20
-2.8032300000000001
 30
0.0
 10
-3.21055
 20
-2.8363100000000001
 30
0.0
 10
-3.21055
 20
-2.8363100000000001
 30
0.0
 10
-3.6627200000000002
 20
-2.8694000000000002
 30
0.0
 10
-3.7730100000000002
 20
-2.9355699999999998
 30
0.0
 10
-4.2472399999999997
 20
-2.8914499999999999
 30
0.0
 10
-4.2472399999999997
 20
-2.8914499999999999
 30
0.0
 10
-4.7214700000000001
 20
-2.84734
 30
0.0
 10
-4.6222099999999999
 20
-2.70397
 30
0.0
 10
-4.2913500000000004
 20
-2.67089
 30
0.0
 10
-4.2913500000000004
 20
-2.67089
 30
0.0
 10
-3.9604900000000001
 20
-2.6377999999999999
 30
0.0
 10
-3.5634600000000001
 20
-2.1856300000000002
 30
0.0
 10
-3.8281499999999999
 20
-1.96506
 30
0.0
 10
-3.8281499999999999
 20
-1.96506
 30
0.0
 10
-4.0928399999999998
 20
-1.74448
 30
0.0
 10
-4.0818099999999999
 20
-1.74448
 30
0.0
 10
-3.6406700000000001
 20
-1.8437399999999999
 30
0.0
 10
-3.6406700000000001
 20
-1.8437399999999999
 30
0.0
 10
-3.28775
 20
-1.9231499999999999
 30
0.0
 10
-2.5488400000000002
 20
-1.9922599999999999
 30
0.0
 10
-2.5488400000000002
 20
-1.4356800000000001
 30
0.0
 10
-2.5488400000000002
 20
-1.4356800000000001
 30
0.0
 10
-2.5488400000000002
 20
-1.0165999999999999
 30
0.0
 10
-2.41649
 20
-1.3033399999999999
 30
0.0
 10
-2.3392900000000001
 20
-1.39157
 30
0.0
 10
-2.3392900000000001
 20
-1.39157
 30
0.0
 10
-2.2620900000000002
 20
-1.4798
 30
0.0
 10
-1.6003799999999999
 20
-1.90991
 30
0.0
 10
-1.4900899999999999
 20
-1.60111
 30
0.0
 10
-1.4900899999999999
 20
-1.60111
 30
0.0
 10
-1.37981
 20
-1.2923100000000001
 30
0.0
 10
-1.2584900000000001
 20
-1.5569999999999999
 30
0.0
 10
-1.24746
 20
-1.6342000000000001
 30
0.0
 10
-1.24746
 20
-1.6342000000000001
 30
0.0
 10
-1.23644
 20
-1.7114
 30
0.0
 10
-1.0268900000000001
 20
-2.0643099999999999
 30
0.0
 10
-0.64089
 20
-2.3510499999999999
 30
0.0
 10
-0.64089
 20
-2.3510499999999999
 30
0.0
 10
-0.00919
 20
-2.8203200000000002
 30
0.0
 10
-0.09824
 20
-2.6846000000000001
 30
0.0
 10
-0.50855
 20
-2.3290000000000002
 30
0.0
 10
-0.50855
 20
-2.3290000000000002
 30
0.0
 10
-0.64293
 20
-2.2125300000000001
 30
0.0
 10
-1.071
 20
-1.99814
 30
0.0
 10
-1.18129
 20
-1.5459700000000001
 30
0.0
 10
-1.18129
 20
-1.5459700000000001
 30
0.0
 10
-1.29158
 20
-1.0938000000000001
 30
0.0
 10
-1.4239200000000001
 20
-1.2592300000000001
 30
0.0
 10
-1.55626
 20
-1.4908300000000001
 30
0.0
 10
-1.55626
 20
-1.4908300000000001
 30
0.0
 10
-1.6886099999999999
 20
-1.7224299999999999
 30
0.0
 10
-2.06358
 20
-1.5239100000000001
 30
0.0
 10
-2.3062100000000001
 20
-1.2702500000000001
 30
0.0
 10
-2.3062100000000001
 20
-1.2702500000000001
 30
0.0
 10
-2.5488400000000002
 20
-1.0165999999999999
 30
0.0
 10
-2.7142599999999999
 20
-1.0386500000000001
 30
0.0
 10
-2.6811799999999999
 20
-1.4136299999999999
 30
0.0
 10
-2.6811799999999999
 20
-1.4136299999999999
 30
0.0
 10
-2.6480899999999998
 20
-1.7886
 30
0.0
 10
-3.00101
 20
-1.88785
 30
0.0
 10
-3.5303800000000001
 20
-1.7334499999999999
 30
0.0
 10
-3.5303800000000001
 20
-1.7334499999999999
 30
0.0
 10
-4.0597500000000002
 20
-1.5790500000000001
 30
0.0
 10
-4.4347200000000004
 20
-1.6121399999999999
 30
0.0
 10
-4.0707800000000001
 20
-1.9209400000000001
 30
0.0
 10
-4.0707800000000001
 20
-1.9209400000000001
 30
0.0
 10
-3.7068400000000001
 20
-2.2297400000000001
 30
0.0
 10
-4.0156400000000003
 20
-2.5606
 30
0.0
 10
-4.4567800000000002
 20
-2.62677
 30
0.0
 10
-4.4567800000000002
 20
-2.62677
 30
0.0
 10
-4.8979200000000001
 20
-2.6929400000000001
 30
0.0
 10
-4.6994100000000003
 20
-3.0458500000000002
 30
0.0
 10
-4.1369499999999997
 20
-3.0348299999999999
 30
0.0
 10
-4.1369499999999997
 20
-3.0348299999999999
 30
0.0
 10
-3.5744899999999999
 20
-3.0238
 30
0.0
 10
-2.6260300000000001
 20
-2.7149999999999999
 30
0.0
 10
-3.14438
 20
-3.2333400000000001
 30
0.0
  0
SPLINE
  5
3D
100
AcDbEntity
  8
Layer 1
 62
     0
100
AcDbSpline
210
0.0
220
0.0
230
1.0
 70
     1
 71
     3
 72
    20
 73
    16
 74
     0
 42
0.0000000001
 43
0.0000000001
 40
0.0
 40
0.0
 40
0.0
 40
0.0
 40
0.25
 40
0.25
 40
0.25
 40
0.25
 40
0.5
 40
0.5
 40
0.5
 40
0.5
 40
0.75
 40
0.75
 40
0.75
 40
0.75
 40
1.0
 40
1.0
 40
1.0
 40
1.0
 10
-3.2436400000000001
 20
-2.1745999999999999
 30
0.0
 10
-3.1223200000000002
 20
-2.2297400000000001
 30
0.0
 10
-3.0782099999999999
 20
-2.2187100000000002
 30
0.0
 10
-2.8024900000000001
 20
-2.2517999999999998
 30
0.0
 10
-2.8024900000000001
 20
-2.2517999999999998
 30
0.0
 10
-2.52678
 20
-2.2848799999999998
 30
0.0
 10
-2.5157500000000002
 20
-2.2076799999999999
 30
0.0
 10
-2.6811799999999999
 20
-2.19665
 30
0.0
 10
-2.6811799999999999
 20
-2.19665
 30
0.0
 10
-2.8466100000000001
 20
-2.1856300000000002
 30
0.0
 10
-3.0672100000000002
 20
-2.15123
 30
0.0
 10
-3.1884899999999998
 20
-2.1084200000000002
 30
0.0
 10
-3.1884899999999998
 20
-2.1084200000000002
 30
0.0
 10
-3.3759800000000002
 20
-2.0422500000000001
 30
0.0
 10
-3.3649499999999999
 20
-2.1194600000000001
 30
0.0
 10
-3.2436400000000001
 20
-2.1745999999999999
 30
0.0
  0
SPLINE
  5
3E
100
AcDbEntity
  8
Layer 1
 62
     0
100
AcDbSpline
210
0.0
220
0.0
230
1.0
 70
     1
 71
     3
 72
    20
 73
    16
 74
     0
 42
0.0000000001
 43
0.0000000001
 40
0.0
 40
0.0
 40
0.0
 40
0.0
 40
0.25
 40
0.25
 40
0.25
 40
0.25
 40
0.5
 40
0.5
 40
0.5
 40
0.5
 40
0.75
 40
0.75
 40
0.75
 40
0.75
 40
1.0
 40
1.0
 40
1.0
 40
1.0
 10
-2.63706
 20
-2.0036499999999999
 30
0.0
 10
-2.5157500000000002
 20
-2.0588000000000002
 30
0.0
 10
-2.4716300000000002
 20
-2.0477699999999999
 30
0.0
 10
-2.1959200000000001
 20
-2.0808599999999999
 30
0.0
 10
-2.1959200000000001
 20
-2.0808599999999999
 30
0.0
 10
-1.9201999999999999
 20
-2.1139399999999999
 30
0.0
 10
-1.9091800000000001
 20
-2.03674
 30
0.0
 10
-2.0746099999999998
 20
-2.0257100000000001
 30
0.0
 10
-2.0746099999999998
 20
-2.0257100000000001
 30
0.0
 10
-2.24004
 20
-2.0146799999999998
 30
0.0
 10
-2.4606400000000002
 20
-1.9802900000000001
 30
0.0
 10
-2.5819200000000002
 20
-1.9374899999999999
 30
0.0
 10
-2.5819200000000002
 20
-1.9374899999999999
 30
0.0
 10
-2.7694100000000001
 20
-1.87131
 30
0.0
 10
-2.7583799999999998
 20
-1.94851
 30
0.0
 10
-2.63706
 20
-2.0036499999999999
 30
0.0
  0
SPLINE
  5
3F
100
AcDbEntity
  8
Layer 1
 62
     0
100
AcDbSpline
210
0.0
220
0.0
230
1.0
 70
     1
 71
     3
 72
    20
 73
    16
 74
     0
 42
0.0000000001
 43
0.0000000001
 40
0.0
 40
0.0
 40
0.0
 40
0.0
 40
0.25
 40
0.25
 40
0.25
 40
0.25
 40
0.5
 40
0.5
 40
0.5
 40
0.5
 40
0.75
 40
0.75
 40
0.75
 40
0.75
 40
1.0
 40
1.0
 40
1.0
 40
1.0
 10
-1.6493500000000001
 20
-2.0484300000000002
 30
0.0
 10
-1.38039
 20
-2.1175199999999998
 30
0.0
 10
-1.3593
 20
-2.04243
 30
0.0
 10
-1.5218400000000001
 20
-2.0097299999999998
 30
0.0
 10
-1.5218400000000001
 20
-2.0097299999999998
 30
0.0
 10
-1.68438
 20
-1.9770300000000001
 30
0.0
 10
-1.8985300000000001
 20
-1.9138999999999999
 30
0.0
 10
-2.0131299999999999
 20
-1.85551
 30
0.0
 10
-2.0131299999999999
 20
-1.85551
 30
0.0
 10
-2.1902699999999999
 20
-1.7652399999999999
 30
0.0
 10
-2.1894999999999998
 20
-1.84321
 30
0.0
 10
-2.0764999999999998
 20
-1.91384
 30
0.0
 10
-2.0764999999999998
 20
-1.91384
 30
0.0
 10
-1.96349
 20
-1.98447
 30
0.0
 10
-1.91831
 20
-1.9793499999999999
 30
0.0
 10
-1.6493500000000001
 20
-2.0484300000000002
 30
0.0
  0
SPLINE
  5
40
100
AcDbEntity
  8
Layer 1
 62
     0
100
AcDbSpline
210
0.0
220
0.0
230
1.0
 70
     1
 71
     3
 72
    20
 73
    16
 74
     0
 42
0.0000000001
 43
0.0000000001
 40
0.0
 40
0.0
 40
0.0
 40
0.0
 40
0.25
 40
0.25
 40
0.25
 40
0.25
 40
0.5
 40
0.5
 40
0.5
 40
0.5
 40
0.75
 40
0.75
 40
0.75
 40
0.75
 40
1.0
 40
1.0
 40
1.0
 40
1.0
 10
-2.3792800000000001
 20
-2.5168499999999998
 30
0.0
 10
-2.63687
 20
-2.62059
 30
0.0
 10
-2.6823299999999999
 20
-2.6214300000000001
 30
0.0
 10
-2.7850999999999999
 20
-2.7062599999999999
 30
0.0
 10
-2.7850999999999999
 20
-2.7062599999999999
 30
0.0
 10
-2.8878699999999999
 20
-2.7910900000000001
 30
0.0
 10
-2.8784200000000002
 20
-2.8685
 30
0.0
 10
-2.7146300000000001
 20
-2.7557900000000002
 30
0.0
 10
-2.7146300000000001
 20
-2.7557900000000002
 30
0.0
 10
-2.6086800000000001
 20
-2.6828799999999999
 30
0.0
 10
-2.4046400000000001
 20
-2.5922299999999998
 30
0.0
 10
-2.2477900000000002
 20
-2.5385
 30
0.0
 10
-2.2477900000000002
 20
-2.5385
 30
0.0
 10
-2.0909399999999998
 20
-2.4847800000000002
 30
0.0
 10
-2.1216900000000001
 20
-2.4131100000000001
 30
0.0
 10
-2.3792800000000001
 20
-2.5168499999999998
 30
0.0
  0
SPLINE
  5
41
100
AcDbEntity
  8
Layer 1
 62
     0
100
AcDbSpline
210
0.0
220
0.0
230
1.0
 70
     1
 71
     3
 72
    20
 73
    16
 74
     0
 42
0.0000000001
 43
0.0000000001
 40
0.0
 40
0.0
 40
0.0
 40
0.0
 40
0.25
 40
0.25
 40
0.25
 40
0.25
 40
0.5
 40
0.5
 40
0.5
 40
0.5
 40
0.75
 40
0.75
 40
0.75
 40
0.75
 40
1.0
 40
1.0
 40
1.0
 40
1.0
 10
-2.0954999999999999
 20
-2.7077399999999998
 30
0.0
 10
-1.9895499999999999
 20
-2.6348400000000001
 30
0.0
 10
-1.7855099999999999
 20
-2.54419
 30
0.0
 10
-1.62866
 20
-2.4904600000000001
 30
0.0
 10
-1.62866
 20
-2.4904600000000001
 30
0.0
 10
-1.4718100000000001
 20
-2.4367299999999998
 30
0.0
 10
-1.5025599999999999
 20
-2.3650699999999998
 30
0.0
 10
-1.7601500000000001
 20
-2.4688099999999999
 30
0.0
 10
-1.7601500000000001
 20
-2.4688099999999999
 30
0.0
 10
-2.0177399999999999
 20
-2.5725500000000001
 30
0.0
 10
-2.0632000000000001
 20
-2.5733899999999998
 30
0.0
 10
-2.1659700000000002
 20
-2.65821
 30
0.0
 10
-2.1659700000000002
 20
-2.65821
 30
0.0
 10
-2.2687400000000002
 20
-2.7430400000000001
 30
0.0
 10
-2.25929
 20
-2.8204500000000001
 30
0.0
 10
-2.0954999999999999
 20
-2.7077399999999998
 30
0.0
  0
SPLINE
  5
42
100
AcDbEntity
  8
Layer 1
 62
     0
100
AcDbSpline
210
0.0
220
0.0
230
1.0
 70
     1
 71
     3
 72
    20
 73
    16
 74
     0
 42
0.0000000001
 43
0.0000000001
 40
0.0
 40
0.0
 40
0.0
 40
0.0
 40
0.25
 40
0.25
 40
0.25
 40
0.25
 40
0.5
 40
0.5
 40
0.5
 40
0.5
 40
0.75
 40
0.75
 40
0.75
 40
0.75
 40
1.0
 40
1.0
 40
1.0
 40
1.0
 10
-1.73427
 20
-2.8062299999999998
 30
0.0
 10
-1.6264799999999999
 20
-2.7360600000000002
 30
0.0
 10
-1.4201900000000001
 20
-2.6506699999999999
 30
0.0
 10
-1.2620199999999999
 20
-2.6009799999999998
 30
0.0
 10
-1.2620199999999999
 20
-2.6009799999999998
 30
0.0
 10
-1.10385
 20
-2.5512999999999999
 30
0.0
 10
-1.1327499999999999
 20
-2.4788700000000001
 30
0.0
 10
-1.3929100000000001
 20
-2.5759699999999999
 30
0.0
 10
-1.3929100000000001
 20
-2.5759699999999999
 30
0.0
 10
-1.65307
 20
-2.6730700000000001
 30
0.0
 10
-1.6985399999999999
 20
-2.6727500000000002
 30
0.0
 10
-1.80345
 20
-2.7549100000000002
 30
0.0
 10
-1.80345
 20
-2.7549100000000002
 30
0.0
 10
-1.9083600000000001
 20
-2.8370799999999998
 30
0.0
 10
-1.90089
 20
-2.9147099999999999
 30
0.0
 10
-1.73427
 20
-2.8062299999999998
 30
0.0
  0
SPLINE
  5
43
100
AcDbEntity
  8
Layer 1
 62
     0
100
AcDbSpline
210
0.0
220
0.0
230
1.0
 70
     1
 71
     3
 72
    36
 73
    32
 74
     0
 42
0.0000000001
 43
0.0000000001
 40
0.0
 40
0.0
 40
0.0
 40
0.0
 40
0.125
 40
0.125
 40
0.125
 40
0.125
 40
0.25
 40
0.25
 40
0.25
 40
0.25
 40
0.375
 40
0.375
 40
0.375
 40
0.375
 40
0.5
 40
0.5
 40
0.5
 40
0.5
 40
0.625
 40
0.625
 40
0.625
 40
0.625
 40
0.75
 40
0.75
 40
0.75
 40
0.75
 40
0.875
 40
0.875
 40
0.875
 40
0.875
 40
1.0
 40
1.0
 40
1.0
 40
1.0
 10
1.2623800000000001
 20
-3.0699000000000001
 30
0.0
 10
1.1190100000000001
 20
-3.25739
 30
0.0
 10
1.14106
 20
-3.40076
 30
0.0
 10
1.36164
 20
-3.11402
 30
0.0
 10
1.36164
 20
-3.11402
 30
0.0
 10
1.51569
 20
-2.9137499999999998
 30
0.0
 10
1.7561
 20
-2.7420399999999998
 30
0.0
 10
2.0276900000000002
 20
-2.6044999999999998
 30
0.0
 10
2.0276900000000002
 20
-2.6044999999999998
 30
0.0
 10
2.9104299999999999
 20
-2.1574599999999999
 30
0.0
 10
2.9582099999999998
 20
-2.1788599999999998
 30
0.0
 10
3.7518699999999998
 20
-2.4286400000000001
 30
0.0
 10
3.7518699999999998
 20
-2.4286400000000001
 30
0.0
 10
3.9821399999999998
 20
-2.5011199999999998
 30
0.0
 10
4.2326300000000003
 20
-2.5549499999999998
 30
0.0
 10
4.4606700000000004
 20
-2.5074399999999999
 30
0.0
 10
4.4606700000000004
 20
-2.5074399999999999
 30
0.0
 10
4.7253499999999997
 20
-2.4523000000000001
 30
0.0
 10
4.7303800000000003
 20
-2.40395
 30
0.0
 10
4.49376
 20
-2.43025
 30
0.0
 10
4.49376
 20
-2.43025
 30
0.0
 10
4.1475600000000004
 20
-2.4687100000000002
 30
0.0
 10
3.9653399999999999
 20
-2.4140000000000001
 30
0.0
 10
3.7564500000000001
 20
-2.3376199999999998
 30
0.0
 10
3.7564500000000001
 20
-2.3376199999999998
 30
0.0
 10
3.1403699999999999
 20
-2.1123400000000001
 30
0.0
 10
2.8376199999999998
 20
-1.9924200000000001
 30
0.0
 10
1.9264300000000001
 20
-2.5224799999999998
 30
0.0
 10
1.9264300000000001
 20
-2.5224799999999998
 30
0.0
 10
1.6443000000000001
 20
-2.6865899999999998
 30
0.0
 10
1.4043000000000001
 20
-2.8843100000000002
 30
0.0
 10
1.2623800000000001
 20
-3.0699000000000001
 30
0.0
  0
SPLINE
  5
44
100
AcDbEntity
  8
Layer 1
 62
     0
100
AcDbSpline
210
0.0
220
0.0
230
1.0
 70
     1
 71
     3
 72
   124
 73
   120
 74
     0
 42
0.0000000001
 43
0.0000000001
 40
0.0
 40
0.0
 40
0.0
 40
0.0
 40
0.0333333333333333
 40
0.0333333333333333
 40
0.0333333333333333
 40
0.0333333333333333
 40
0.0666666666666667
 40
0.0666666666666667
 40
0.0666666666666667
 40
0.0666666666666667
 40
0.1
 40
0.1
 40
0.1
 40
0.1
 40
0.1333333333333333
 40
0.1333333333333333
 40
0.1333333333333333
 40
0.1333333333333333
 40
0.1666666666666667
 40
0.1666666666666667
 40
0.1666666666666667
 40
0.1666666666666667
 40
0.2
 40
0.2
 40
0.2
 40
0.2
 40
0.2333333333333333
 40
0.2333333333333333
 40
0.2333333333333333
 40
0.2333333333333333
 40
0.2666666666666667
 40
0.2666666666666667
 40
0.2666666666666667
 40
0.2666666666666667
 40
0.3
 40
0.3
 40
0.3
 40
0.3
 40
0.3333333333333333
 40
0.3333333333333333
 40
0.3333333333333333
 40
0.3333333333333333
 40
0.3666666666666666
 40
0.3666666666666666
 40
0.3666666666666666
 40
0.3666666666666666
 40
0.4
 40
0.4
 40
0.4
 40
0.4
 40
0.4333333333333333
 40
0.4333333333333333
 40
0.4333333333333333
 40
0.4333333333333333
 40
0.4666666666666666
 40
0.4666666666666666
 40
0.4666666666666666
 40
0.4666666666666666
 40
0.4999999999999999
 40
0.4999999999999999
 40
0.4999999999999999
 40
0.4999999999999999
 40
0.5333333333333333
 40
0.5333333333333333
 40
0.5333333333333333
 40
0.5333333333333333
 40
0.5666666666666667
 40
0.5666666666666667
 40
0.5666666666666667
 40
0.5666666666666667
 40
0.6
 40
0.6
 40
0.6
 40
0.6
 40
0.6333333333333333
 40
0.6333333333333333
 40
0.6333333333333333
 40
0.6333333333333333
 40
0.6666666666666666
 40
0.6666666666666666
 40
0.6666666666666666
 40
0.6666666666666666
 40
0.7
 40
0.7
 40
0.7
 40
0.7
 40
0.7333333333333333
 40
0.7333333333333333
 40
0.7333333333333333
 40
0.7333333333333333
 40
0.7666666666666666
 40
0.7666666666666666
 40
0.7666666666666666
 40
0.7666666666666666
 40
0.7999999999999999
 40
0.7999999999999999
 40
0.7999999999999999
 40
0.7999999999999999
 40
0.8333333333333333
 40
0.8333333333333333
 40
0.8333333333333333
 40
0.8333333333333333
 40
0.8666666666666666
 40
0.8666666666666666
 40
0.8666666666666666
 40
0.8666666666666666
 40
0.8999999999999999
 40
0.8999999999999999
 40
0.8999999999999999
 40
0.8999999999999999
 40
0.9333333333333332
 40
0.9333333333333332
 40
0.9333333333333332
 40
0.9333333333333332
 40
0.9666666666666666
 40
0.9666666666666666
 40
0.9666666666666666
 40
0.9666666666666666
 40
1.0
 40
1.0
 40
1.0
 40
1.0
 10
5.6296999999999997
 20
-2.6177299999999999
 30
0.0
 10
5.1885500000000002
 20
-2.5515599999999998
 30
0.0
 10
4.8797499999999996
 20
-2.2206999999999999
 30
0.0
 10
5.2436999999999996
 20
-1.9118999999999999
 30
0.0
 10
5.2436999999999996
 20
-1.9118999999999999
 30
0.0
 10
5.60764
 20
-1.6031
 30
0.0
 10
5.2326699999999997
 20
-1.5700099999999999
 30
0.0
 10
4.7032999999999996
 20
-1.7244200000000001
 30
0.0
 10
4.7032999999999996
 20
-1.7244200000000001
 30
0.0
 10
4.1739300000000004
 20
-1.8788199999999999
 30
0.0
 10
3.8210099999999998
 20
-1.77956
 30
0.0
 10
3.8540899999999998
 20
-1.40459
 30
0.0
 10
3.8540899999999998
 20
-1.40459
 30
0.0
 10
3.8871899999999999
 20
-1.0296099999999999
 30
0.0
 10
3.7217500000000001
 20
-1.00756
 30
0.0
 10
3.47912
 20
-1.2612099999999999
 30
0.0
 10
3.47912
 20
-1.2612099999999999
 30
0.0
 10
3.2364999999999999
 20
-1.5148699999999999
 30
0.0
 10
2.8615300000000001
 20
-1.7133799999999999
 30
0.0
 10
2.7291799999999999
 20
-1.4817899999999999
 30
0.0
 10
2.7291799999999999
 20
-1.4817899999999999
 30
0.0
 10
2.5968399999999998
 20
-1.2501899999999999
 30
0.0
 10
2.4645000000000001
 20
-1.0847599999999999
 30
0.0
 10
2.3542100000000001
 20
-1.5369299999999999
 30
0.0
 10
2.3542100000000001
 20
-1.5369299999999999
 30
0.0
 10
2.2439300000000002
 20
-1.9891000000000001
 30
0.0
 10
1.81585
 20
-2.2034899999999999
 30
0.0
 10
1.68147
 20
-2.31996
 30
0.0
 10
1.68147
 20
-2.31996
 30
0.0
 10
1.0718099999999999
 20
-2.8483200000000002
 30
0.0
 10
0.95948
 20
-2.9766499999999998
 30
0.0
 10
1.8138099999999999
 20
-2.3420100000000001
 30
0.0
 10
1.8138099999999999
 20
-2.3420100000000001
 30
0.0
 10
2.1998099999999998
 20
-2.0552700000000002
 30
0.0
 10
2.4093499999999999
 20
-1.7023600000000001
 30
0.0
 10
2.4203800000000002
 20
-1.6251599999999999
 30
0.0
 10
2.4203800000000002
 20
-1.6251599999999999
 30
0.0
 10
2.4314100000000001
 20
-1.54796
 30
0.0
 10
2.5527299999999999
 20
-1.2832699999999999
 30
0.0
 10
2.6630099999999999
 20
-1.5920700000000001
 30
0.0
 10
2.6630099999999999
 20
-1.5920700000000001
 30
0.0
 10
2.7732999999999999
 20
-1.9008799999999999
 30
0.0
 10
3.4350100000000001
 20
-1.4707600000000001
 30
0.0
 10
3.5122100000000001
 20
-1.38253
 30
0.0
 10
3.5122100000000001
 20
-1.38253
 30
0.0
 10
3.58941
 20
-1.2943
 30
0.0
 10
3.7217500000000001
 20
-1.00756
 30
0.0
 10
3.7217500000000001
 20
-1.4266399999999999
 30
0.0
 10
3.7217500000000001
 20
-1.4266399999999999
 30
0.0
 10
3.7217500000000001
 20
-1.98322
 30
0.0
 10
4.4606599999999998
 20
-1.9140999999999999
 30
0.0
 10
4.81358
 20
-1.8347
 30
0.0
 10
4.81358
 20
-1.8347
 30
0.0
 10
5.2547199999999998
 20
-1.7354400000000001
 30
0.0
 10
5.2657600000000002
 20
-1.7354400000000001
 30
0.0
 10
5.0010700000000003
 20
-1.95601
 30
0.0
 10
5.0010700000000003
 20
-1.95601
 30
0.0
 10
4.7363799999999996
 20
-2.17659
 30
0.0
 10
5.1334099999999996
 20
-2.6287600000000002
 30
0.0
 10
5.46427
 20
-2.6618400000000002
 30
0.0
 10
5.46427
 20
-2.6618400000000002
 30
0.0
 10
5.7951300000000003
 20
-2.6949299999999998
 30
0.0
 10
5.89438
 20
-2.8382999999999998
 30
0.0
 10
5.4201600000000001
 20
-2.8824200000000002
 30
0.0
 10
5.4201600000000001
 20
-2.8824200000000002
 30
0.0
 10
4.9459299999999997
 20
-2.9265300000000001
 30
0.0
 10
4.8356399999999997
 20
-2.86036
 30
0.0
 10
4.38347
 20
-2.8272699999999999
 30
0.0
 10
4.38347
 20
-2.8272699999999999
 30
0.0
 10
3.9312999999999998
 20
-2.79419
 30
0.0
 10
3.9312999999999998
 20
-3.00373
 30
0.0
 10
4.1959799999999996
 20
-3.2463600000000001
 30
0.0
 10
4.1959799999999996
 20
-3.2463600000000001
 30
0.0
 10
4.4606700000000004
 20
-3.4889899999999998
 30
0.0
 10
4.2400900000000004
 20
-3.4228200000000002
 30
0.0
 10
4.0195299999999996
 20
-3.3345899999999999
 30
0.0
 10
4.0195299999999996
 20
-3.3345899999999999
 30
0.0
 10
3.79895
 20
-3.2463600000000001
 30
0.0
 10
3.4901499999999999
 20
-3.0588799999999998
 30
0.0
 10
2.9718100000000001
 20
-2.9375599999999999
 30
0.0
 10
2.9718100000000001
 20
-2.9375599999999999
 30
0.0
 10
2.4534699999999998
 20
-2.8162500000000001
 30
0.0
 10
2.4645000000000001
 20
-2.9375599999999999
 30
0.0
 10
2.6850700000000001
 20
-3.1912199999999999
 30
0.0
 10
2.6850700000000001
 20
-3.1912199999999999
 30
0.0
 10
2.90564
 20
-3.4448699999999999
 30
0.0
 10
2.9828399999999999
 20
-3.54413
 30
0.0
 10
2.54169
 20
-3.2794500000000002
 30
0.0
 10
2.54169
 20
-3.2794500000000002
 30
0.0
 10
2.1005500000000001
 20
-3.0147599999999999
 30
0.0
 10
1.8469
 20
-3.0809299999999999
 30
0.0
 10
1.48295
 20
-3.2684199999999999
 30
0.0
 10
1.48295
 20
-3.2684199999999999
 30
0.0
 10
1.1190100000000001
 20
-3.4559000000000002
 30
0.0
 10
1.03078
 20
-3.5992700000000002
 30
0.0
 10
1.5601499999999999
 20
-3.3235600000000001
 30
0.0
 10
1.5601499999999999
 20
-3.3235600000000001
 30
0.0
 10
2.0895299999999999
 20
-3.0478399999999999
 30
0.0
 10
2.1226099999999999
 20
-3.1912199999999999
 30
0.0
 10
2.5196399999999999
 20
-3.4117899999999999
 30
0.0
 10
2.5196399999999999
 20
-3.4117899999999999
 30
0.0
 10
2.9166699999999999
 20
-3.6323599999999998
 30
0.0
 10
3.3136999999999999
 20
-3.7205900000000001
 30
0.0
 10
2.8284400000000001
 20
-3.2353299999999998
 30
0.0
 10
2.8284400000000001
 20
-3.2353299999999998
 30
0.0
 10
2.3431799999999998
 20
-2.75007
 30
0.0
 10
3.3688400000000001
 20
-3.1250499999999999
 30
0.0
 10
3.84307
 20
-3.36768
 30
0.0
 10
3.84307
 20
-3.36768
 30
0.0
 10
4.3173000000000004
 20
-3.6103000000000001
 30
0.0
 10
4.8356399999999997
 20
-3.7426499999999998
 30
0.0
 10
4.3173000000000004
 20
-3.2242999999999999
 30
0.0
 10
4.3173000000000004
 20
-3.2242999999999999
 30
0.0
 10
3.79895
 20
-2.7059600000000001
 30
0.0
 10
4.7474100000000004
 20
-3.0147599999999999
 30
0.0
 10
5.3098700000000001
 20
-3.0257900000000002
 30
0.0
 10
5.3098700000000001
 20
-3.0257900000000002
 30
0.0
 10
5.8723299999999998
 20
-3.0368200000000001
 30
0.0
 10
6.0708399999999996
 20
-2.6839
 30
0.0
 10
5.6296999999999997
 20
-2.6177299999999999
 30
0.0
  0
SPLINE
  5
45
100
AcDbEntity
  8
Layer 1
 62
     0
100
AcDbSpline
210
0.0
220
0.0
230
1.0
 70
     1
 71
     3
 72
    20
 73
    16
 74
     0
 42
0.0000000001
 43
0.0000000001
 40
0.0
 40
0.0
 40
0.0
 40
0.0
 40
0.25
 40
0.25
 40
0.25
 40
0.25
 40
0.5
 40
0.5
 40
0.5
 40
0.5
 40
0.75
 40
0.75
 40
0.75
 40
0.75
 40
1.0
 40
1.0
 40
1.0
 40
1.0
 10
3.9754100000000001
 20
-2.2427600000000001
 30
0.0
 10
4.2511299999999999
 20
-2.20967
 30
0.0
 10
4.2952399999999997
 20
-2.2206999999999999
 30
0.0
 10
4.4165599999999996
 20
-2.1655600000000002
 30
0.0
 10
4.4165599999999996
 20
-2.1655600000000002
 30
0.0
 10
4.5378699999999998
 20
-2.1104099999999999
 30
0.0
 10
4.5488999999999997
 20
-2.03322
 30
0.0
 10
4.3614100000000002
 20
-2.09938
 30
0.0
 10
4.3614100000000002
 20
-2.09938
 30
0.0
 10
4.2401299999999997
 20
-2.1421899999999998
 30
0.0
 10
4.0195299999999996
 20
-2.17659
 30
0.0
 10
3.8540899999999998
 20
-2.1876199999999999
 30
0.0
 10
3.8540899999999998
 20
-2.1876199999999999
 30
0.0
 10
3.6886700000000001
 20
-2.1986400000000001
 30
0.0
 10
3.6997
 20
-2.2758500000000002
 30
0.0
 10
3.9754100000000001
 20
-2.2427600000000001
 30
0.0
  0
SPLINE
  5
46
100
AcDbEntity
  8
Layer 1
 62
     0
100
AcDbSpline
210
0.0
220
0.0
230
1.0
 70
     1
 71
     3
 72
    20
 73
    16
 74
     0
 42
0.0000000001
 43
0.0000000001
 40
0.0
 40
0.0
 40
0.0
 40
0.0
 40
0.25
 40
0.25
 40
0.25
 40
0.25
 40
0.5
 40
0.5
 40
0.5
 40
0.5
 40
0.75
 40
0.75
 40
0.75
 40
0.75
 40
1.0
 40
1.0
 40
1.0
 40
1.0
 10
3.7548400000000002
 20
-1.9284399999999999
 30
0.0
 10
3.6335600000000001
 20
-1.9712499999999999
 30
0.0
 10
3.41296
 20
-2.0056400000000001
 30
0.0
 10
3.2475299999999998
 20
-2.01667
 30
0.0
 10
3.2475299999999998
 20
-2.01667
 30
0.0
 10
3.0821000000000001
 20
-2.0276999999999998
 30
0.0
 10
3.0931199999999999
 20
-2.1049000000000002
 30
0.0
 10
3.3688400000000001
 20
-2.0718200000000002
 30
0.0
 10
3.3688400000000001
 20
-2.0718200000000002
 30
0.0
 10
3.6445599999999998
 20
-2.0387300000000002
 30
0.0
 10
3.6886700000000001
 20
-2.04976
 30
0.0
 10
3.8099799999999999
 20
-1.9946200000000001
 30
0.0
 10
3.8099799999999999
 20
-1.9946200000000001
 30
0.0
 10
3.9312999999999998
 20
-1.93947
 30
0.0
 10
3.9423300000000001
 20
-1.8622700000000001
 30
0.0
 10
3.7548400000000002
 20
-1.9284399999999999
 30
0.0
  0
SPLINE
  5
47
100
AcDbEntity
  8
Layer 1
 62
     0
100
AcDbSpline
210
0.0
220
0.0
230
1.0
 70
     1
 71
     3
 72
    20
 73
    16
 74
     0
 42
0.0000000001
 43
0.0000000001
 40
0.0
 40
0.0
 40
0.0
 40
0.0
 40
0.25
 40
0.25
 40
0.25
 40
0.25
 40
0.5
 40
0.5
 40
0.5
 40
0.5
 40
0.75
 40
0.75
 40
0.75
 40
0.75
 40
1.0
 40
1.0
 40
1.0
 40
1.0
 10
3.1860400000000002
 20
-1.8464700000000001
 30
0.0
 10
3.07145
 20
-1.90486
 30
0.0
 10
2.8572899999999999
 20
-1.9679899999999999
 30
0.0
 10
2.69475
 20
-2.0006900000000001
 30
0.0
 10
2.69475
 20
-2.0006900000000001
 30
0.0
 10
2.5322200000000001
 20
-2.0333999999999999
 30
0.0
 10
2.5533100000000002
 20
-2.1084700000000001
 30
0.0
 10
2.8222700000000001
 20
-2.03939
 30
0.0
 10
2.8222700000000001
 20
-2.03939
 30
0.0
 10
3.0912299999999999
 20
-1.97031
 30
0.0
 10
3.1364100000000001
 20
-1.97543
 30
0.0
 10
3.2494200000000002
 20
-1.9048099999999999
 30
0.0
 10
3.2494200000000002
 20
-1.9048099999999999
 30
0.0
 10
3.3624200000000002
 20
-1.8341799999999999
 30
0.0
 10
3.3631899999999999
 20
-1.7561899999999999
 30
0.0
 10
3.1860400000000002
 20
-1.8464700000000001
 30
0.0
  0
SPLINE
  5
48
100
AcDbEntity
  8
Layer 1
 62
     0
100
AcDbSpline
210
0.0
220
0.0
230
1.0
 70
     1
 71
     3
 72
    20
 73
    16
 74
     0
 42
0.0000000001
 43
0.0000000001
 40
0.0
 40
0.0
 40
0.0
 40
0.0
 40
0.25
 40
0.25
 40
0.25
 40
0.25
 40
0.5
 40
0.5
 40
0.5
 40
0.5
 40
0.75
 40
0.75
 40
0.75
 40
0.75
 40
1.0
 40
1.0
 40
1.0
 40
1.0
 10
3.8875500000000001
 20
-2.74675
 30
0.0
 10
4.0513399999999997
 20
-2.8594599999999999
 30
0.0
 10
4.0607899999999999
 20
-2.7820499999999999
 30
0.0
 10
3.9580199999999999
 20
-2.6972200000000002
 30
0.0
 10
3.9580199999999999
 20
-2.6972200000000002
 30
0.0
 10
3.8552499999999998
 20
-2.61239
 30
0.0
 10
3.8097799999999999
 20
-2.6115499999999998
 30
0.0
 10
3.5522
 20
-2.5078100000000001
 30
0.0
 10
3.5522
 20
-2.5078100000000001
 30
0.0
 10
3.29461
 20
-2.4040699999999999
 30
0.0
 10
3.2638600000000002
 20
-2.4757400000000001
 30
0.0
 10
3.4207100000000001
 20
-2.5294699999999999
 30
0.0
 10
3.4207100000000001
 20
-2.5294699999999999
 30
0.0
 10
3.5775600000000001
 20
-2.5831900000000001
 30
0.0
 10
3.7816000000000001
 20
-2.6738400000000002
 30
0.0
 10
3.8875500000000001
 20
-2.74675
 30
0.0
  0
SPLINE
  5
49
100
AcDbEntity
  8
Layer 1
 62
     0
100
AcDbSpline
210
0.0
220
0.0
230
1.0
 70
     1
 71
     3
 72
    20
 73
    16
 74
     0
 42
0.0000000001
 43
0.0000000001
 40
0.0
 40
0.0
 40
0.0
 40
0.0
 40
0.25
 40
0.25
 40
0.25
 40
0.25
 40
0.5
 40
0.5
 40
0.5
 40
0.5
 40
0.75
 40
0.75
 40
0.75
 40
0.75
 40
1.0
 40
1.0
 40
1.0
 40
1.0
 10
3.3388900000000001
 20
-2.6491699999999998
 30
0.0
 10
3.2361200000000001
 20
-2.5643400000000001
 30
0.0
 10
3.1906500000000002
 20
-2.5634999999999999
 30
0.0
 10
2.9330699999999998
 20
-2.4597699999999998
 30
0.0
 10
2.9330699999999998
 20
-2.4597699999999998
 30
0.0
 10
2.6754799999999999
 20
-2.3560300000000001
 30
0.0
 10
2.64473
 20
-2.4277000000000002
 30
0.0
 10
2.80158
 20
-2.48142
 30
0.0
 10
2.80158
 20
-2.48142
 30
0.0
 10
2.9584299999999999
 20
-2.5351400000000002
 30
0.0
 10
3.1624699999999999
 20
-2.6257999999999999
 30
0.0
 10
3.2684199999999999
 20
-2.6987000000000001
 30
0.0
 10
3.2684199999999999
 20
-2.6987000000000001
 30
0.0
 10
3.43221
 20
-2.81141
 30
0.0
 10
3.4416600000000002
 20
-2.7340100000000001
 30
0.0
 10
3.3388900000000001
 20
-2.6491699999999998
 30
0.0
  0
SPLINE
  5
4A
100
AcDbEntity
  8
Layer 1
 62
     0
100
AcDbSpline
210
0.0
220
0.0
230
1.0
 70
     1
 71
     3
 72
    20
 73
    16
 74
     0
 42
0.0000000001
 43
0.0000000001
 40
0.0
 40
0.0
 40
0.0
 40
0.0
 40
0.25
 40
0.25
 40
0.25
 40
0.25
 40
0.5
 40
0.5
 40
0.5
 40
0.5
 40
0.75
 40
0.75
 40
0.75
 40
0.75
 40
1.0
 40
1.0
 40
1.0
 40
1.0
 10
2.5658300000000001
 20
-2.5669300000000002
 30
0.0
 10
2.3056700000000001
 20
-2.46983
 30
0.0
 10
2.2767599999999999
 20
-2.5422600000000002
 30
0.0
 10
2.4349400000000001
 20
-2.5919500000000002
 30
0.0
 10
2.4349400000000001
 20
-2.5919500000000002
 30
0.0
 10
2.5931199999999999
 20
-2.6416300000000001
 30
0.0
 10
2.7993999999999999
 20
-2.72702
 30
0.0
 10
2.9071899999999999
 20
-2.7971900000000001
 30
0.0
 10
2.9071899999999999
 20
-2.7971900000000001
 30
0.0
 10
3.0738099999999999
 20
-2.9056700000000002
 30
0.0
 10
3.08128
 20
-2.8280400000000001
 30
0.0
 10
2.9763700000000002
 20
-2.74587
 30
0.0
 10
2.9763700000000002
 20
-2.74587
 30
0.0
 10
2.8714599999999999
 20
-2.6637
 30
0.0
 10
2.82599
 20
-2.6640299999999999
 30
0.0
 10
2.5658300000000001
 20
-2.5669300000000002
 30
0.0
  0
SPLINE
  5
4B
100
AcDbEntity
  8
Layer 1
 62
     0
100
AcDbSpline
210
0.0
220
0.0
230
1.0
 70
     1
 71
     3
 72
    32
 73
    28
 74
     0
 42
0.0000000001
 43
0.0000000001
 40
0.0
 40
0.0
 40
0.0
 40
0.0
 40
0.1428571428571429
 40
0.1428571428571429
 40
0.1428571428571429
 40
0.1428571428571429
 40
0.2857142857142857
 40
0.2857142857142857
 40
0.2857142857142857
 40
0.2857142857142857
 40
0.4285714285714286
 40
0.4285714285714286
 40
0.4285714285714286
 40
0.4285714285714286
 40
0.5714285714285714
 40
0.5714285714285714
 40
0.5714285714285714
 40
0.5714285714285714
 40
0.7142857142857142
 40
0.7142857142857142
 40
0.7142857142857142
 40
0.7142857142857142
 40
0.857142857142857
 40
0.857142857142857
 40
0.857142857142857
 40
0.857142857142857
 40
1.0
 40
1.0
 40
1.0
 40
1.0
 10
1.36957
 20
-4.2540199999999997
 30
0.0
 10
1.5965400000000001
 20
-4.2560599999999997
 30
0.0
 10
1.6705399999999999
 20
-4.49512
 30
0.0
 10
1.7254499999999999
 20
-4.6486900000000002
 30
0.0
 10
1.7254499999999999
 20
-4.6486900000000002
 30
0.0
 10
1.7467699999999999
 20
-4.7082699999999997
 30
0.0
 10
1.8313200000000001
 20
-4.7836299999999996
 30
0.0
 10
1.7795700000000001
 20
-4.6389300000000002
 30
0.0
 10
1.7795700000000001
 20
-4.6389300000000002
 30
0.0
 10
1.76719
 20
-4.6043099999999999
 30
0.0
 10
1.7324200000000001
 20
-4.4921899999999999
 30
0.0
 10
1.6734599999999999
 20
-4.3765999999999998
 30
0.0
 10
1.6734599999999999
 20
-4.3765999999999998
 30
0.0
 10
1.5017199999999999
 20
-4.03993
 30
0.0
 10
1.1924300000000001
 20
-4.0561100000000003
 30
0.0
 10
1.0502800000000001
 20
-4.1239400000000002
 30
0.0
 10
1.0502800000000001
 20
-4.1239400000000002
 30
0.0
 10
0.89564
 20
-4.19773
 30
0.0
 10
0.78977
 20
-4.3409399999999998
 30
0.0
 10
0.85342
 20
-4.5189199999999996
 30
0.0
 10
0.85342
 20
-4.5189199999999996
 30
0.0
 10
0.95387
 20
-4.7998200000000004
 30
0.0
 10
1.3466499999999999
 20
-4.7169499999999998
 30
0.0
 10
1.28633
 20
-4.4409099999999997
 30
0.0
 10
1.28633
 20
-4.4409099999999997
 30
0.0
 10
1.25529
 20
-4.2988200000000001
 30
0.0
 10
1.30589
 20
-4.2534400000000003
 30
0.0
 10
1.36957
 20
-4.2540199999999997
 30
0.0
  0
SPLINE
  5
4C
100
AcDbEntity
  8
Layer 1
 62
     0
100
AcDbSpline
210
0.0
220
0.0
230
1.0
 70
     1
 71
     3
 72
    32
 73
    28
 74
     0
 42
0.0000000001
 43
0.0000000001
 40
0.0
 40
0.0
 40
0.0
 40
0.0
 40
0.1428571428571429
 40
0.1428571428571429
 40
0.1428571428571429
 40
0.1428571428571429
 40
0.2857142857142857
 40
0.2857142857142857
 40
0.2857142857142857
 40
0.2857142857142857
 40
0.4285714285714286
 40
0.4285714285714286
 40
0.4285714285714286
 40
0.4285714285714286
 40
0.5714285714285714
 40
0.5714285714285714
 40
0.5714285714285714
 40
0.5714285714285714
 40
0.7142857142857142
 40
0.7142857142857142
 40
0.7142857142857142
 40
0.7142857142857142
 40
0.857142857142857
 40
0.857142857142857
 40
0.857142857142857
 40
0.857142857142857
 40
1.0
 40
1.0
 40
1.0
 40
1.0
 10
2.9850599999999998
 20
-4.1798900000000003
 30
0.0
 10
2.8429199999999999
 20
-4.1120599999999996
 30
0.0
 10
2.53363
 20
-4.0958699999999997
 30
0.0
 10
2.3618800000000002
 20
-4.43255
 30
0.0
 10
2.3618800000000002
 20
-4.43255
 30
0.0
 10
2.3029199999999999
 20
-4.5481400000000001
 30
0.0
 10
2.2681499999999999
 20
-4.6602600000000001
 30
0.0
 10
2.2557700000000001
 20
-4.6948800000000004
 30
0.0
 10
2.2557700000000001
 20
-4.6948800000000004
 30
0.0
 10
2.2040199999999999
 20
-4.8395799999999998
 30
0.0
 10
2.2885800000000001
 20
-4.7642100000000003
 30
0.0
 10
2.3098800000000002
 20
-4.7046299999999999
 30
0.0
 10
2.3098800000000002
 20
-4.7046299999999999
 30
0.0
 10
2.3647999999999998
 20
-4.5510599999999997
 30
0.0
 10
2.4388000000000001
 20
-4.3120099999999999
 30
0.0
 10
2.6657700000000002
 20
-4.3099699999999999
 30
0.0
 10
2.6657700000000002
 20
-4.3099699999999999
 30
0.0
 10
2.7294499999999999
 20
-4.3093899999999996
 30
0.0
 10
2.7800500000000001
 20
-4.3547700000000003
 30
0.0
 10
2.7490000000000001
 20
-4.4968599999999999
 30
0.0
 10
2.7490000000000001
 20
-4.4968599999999999
 30
0.0
 10
2.6886899999999998
 20
-4.7728999999999999
 30
0.0
 10
3.0814699999999999
 20
-4.8557600000000001
 30
0.0
 10
3.1819199999999999
 20
-4.5748699999999998
 30
0.0
 10
3.1819199999999999
 20
-4.5748699999999998
 30
0.0
 10
3.2455699999999998
 20
-4.39689
 30
0.0
 10
3.13971
 20
-4.2536800000000001
 30
0.0
 10
2.9850599999999998
 20
-4.1798900000000003
 30
0.0
  0
SPLINE
  5
4D
100
AcDbEntity
  8
Layer 1
 62
     0
100
AcDbSpline
210
0.0
220
0.0
230
1.0
 70
     1
 71
     3
 72
    68
 73
    64
 74
     0
 42
0.0000000001
 43
0.0000000001
 40
0.0
 40
0.0
 40
0.0
 40
0.0
 40
0.0625
 40
0.0625
 40
0.0625
 40
0.0625
 40
0.125
 40
0.125
 40
0.125
 40
0.125
 40
0.1875
 40
0.1875
 40
0.1875
 40
0.1875
 40
0.25
 40
0.25
 40
0.25
 40
0.25
 40
0.3125
 40
0.3125
 40
0.3125
 40
0.3125
 40
0.375
 40
0.375
 40
0.375
 40
0.375
 40
0.4375
 40
0.4375
 40
0.4375
 40
0.4375
 40
0.5
 40
0.5
 40
0.5
 40
0.5
 40
0.5625
 40
0.5625
 40
0.5625
 40
0.5625
 40
0.625
 40
0.625
 40
0.625
 40
0.625
 40
0.6875
 40
0.6875
 40
0.6875
 40
0.6875
 40
0.75
 40
0.75
 40
0.75
 40
0.75
 40
0.8125
 40
0.8125
 40
0.8125
 40
0.8125
 40
0.875
 40
0.875
 40
0.875
 40
0.875
 40
0.9375
 40
0.9375
 40
0.9375
 40
0.9375
 40
1.0
 40
1.0
 40
1.0
 40
1.0
 10
7.2299300000000004
 20
5.0118
 30
0.0
 10
7.2299300000000004
 20
5.0118
 30
0.0
 10
7.2299300000000004
 20
7.1000300000000003
 30
0.0
 10
7.2299300000000004
 20
7.1000300000000003
 30
0.0
 10
7.2299300000000004
 20
7.1000300000000003
 30
0.0
 10
7.2299300000000004
 20
7.1000300000000003
 30
0.0
 10
5.1416899999999996
 20
7.1000300000000003
 30
0.0
 10
5.1416899999999996
 20
7.1000300000000003
 30
0.0
 10
5.1416899999999996
 20
7.1000300000000003
 30
0.0
 10
3.9329399999999999
 20
8.5257100000000001
 30
0.0
 10
2.3336999999999999
 20
9.3936399999999995
 30
0.0
 10
0.57966
 20
9.3936399999999995
 30
0.0
 10
0.57966
 20
9.3936399999999995
 30
0.0
 10
-1.1743600000000001
 20
9.3936399999999995
 30
0.0
 10
-2.7736100000000001
 20
8.5257100000000001
 30
0.0
 10
-3.9823599999999999
 20
7.1000300000000003
 30
0.0
 10
-3.9823599999999999
 20
7.1000300000000003
 30
0.0
 10
-3.9823599999999999
 20
7.1000300000000003
 30
0.0
 10
-6.0705900000000002
 20
7.1000300000000003
 30
0.0
 10
-6.0705900000000002
 20
7.1000300000000003
 30
0.0
 10
-6.0705900000000002
 20
7.1000300000000003
 30
0.0
 10
-6.0705900000000002
 20
7.1000300000000003
 30
0.0
 10
-6.0705900000000002
 20
5.0118
 30
0.0
 10
-6.0705900000000002
 20
5.0118
 30
0.0
 10
-6.0705900000000002
 20
5.0118
 30
0.0
 10
-7.49627
 20
3.8030400000000002
 30
0.0
 10
-8.3642000000000003
 20
2.2038000000000002
 30
0.0
 10
-8.3642000000000003
 20
0.44977
 30
0.0
 10
-8.3642000000000003
 20
0.44977
 30
0.0
 10
-8.3642000000000003
 20
-1.30426
 30
0.0
 10
-7.49627
 20
-2.9035000000000002
 30
0.0
 10
-6.0705900000000002
 20
-4.11226
 30
0.0
 10
-6.0705900000000002
 20
-4.11226
 30
0.0
 10
-6.0705900000000002
 20
-4.11226
 30
0.0
 10
-6.0705900000000002
 20
-6.2004900000000003
 30
0.0
 10
-6.0705900000000002
 20
-6.2004900000000003
 30
0.0
 10
-6.0705900000000002
 20
-6.2004900000000003
 30
0.0
 10
-6.0705900000000002
 20
-6.2004900000000003
 30
0.0
 10
-3.9823599999999999
 20
-6.2004900000000003
 30
0.0
 10
-3.9823599999999999
 20
-6.2004900000000003
 30
0.0
 10
-3.9823599999999999
 20
-6.2004900000000003
 30
0.0
 10
-2.7736100000000001
 20
-7.6261700000000001
 30
0.0
 10
-1.1743600000000001
 20
-8.4940999999999995
 30
0.0
 10
0.57966
 20
-8.4940999999999995
 30
0.0
 10
0.57966
 20
-8.4940999999999995
 30
0.0
 10
2.3336999999999999
 20
-8.4940999999999995
 30
0.0
 10
3.9329399999999999
 20
-7.6261700000000001
 30
0.0
 10
5.1416899999999996
 20
-6.2004900000000003
 30
0.0
 10
5.1416899999999996
 20
-6.2004900000000003
 30
0.0
 10
5.1416899999999996
 20
-6.2004900000000003
 30
0.0
 10
7.2299300000000004
 20
-6.2004900000000003
 30
0.0
 10
7.2299300000000004
 20
-6.2004900000000003
 30
0.0
 10
7.2299300000000004
 20
-6.2004900000000003
 30
0.0
 10
7.2299300000000004
 20
-6.2004900000000003
 30
0.0
 10
7.2299300000000004
 20
-4.11226
 30
0.0
 10
7.2299300000000004
 20
-4.11226
 30
0.0
 10
7.2299300000000004
 20
-4.11226
 30
0.0
 10
8.6556099999999994
 20
-2.9035000000000002
 30
0.0
 10
9.5235400000000006
 20
-1.30426
 30
0.0
 10
9.5235400000000006
 20
0.44977
 30
0.0
 10
9.5235400000000006
 20
0.44977
 30
0.0
 10
9.5235400000000006
 20
2.2038000000000002
 30
0.0
 10
8.6556099999999994
 20
3.8030400000000002
 30
0.0
 10
7.2299300000000004
 20
5.0118
 30
0.0
  0
SPLINE
  5
4E
100
AcDbEntity
  8
Layer 1
 62
     0
100
AcDbSpline
210
0.0
220
0.0
230
1.0
 70
     1
 71
     3
 72
   100
 73
    96
 74
     0
 42
0.0000000001
 43
0.0000000001
 40
0.0
 40
0.0
 40
0.0
 40
0.0
 40
0.0416666666666667
 40
0.0416666666666667
 40
0.0416666666666667
 40
0.0416666666666667
 40
0.0833333333333333
 40
0.0833333333333333
 40
0.0833333333333333
 40
0.0833333333333333
 40
0.125
 40
0.125
 40
0.125
 40
0.125
 40
0.1666666666666667
 40
0.1666666666666667
 40
0.1666666666666667
 40
0.1666666666666667
 40
0.2083333333333333
 40
0.2083333333333333
 40
0.2083333333333333
 40
0.2083333333333333
 40
0.25
 40
0.25
 40
0.25
 40
0.25
 40
0.2916666666666666
 40
0.2916666666666666
 40
0.2916666666666666
 40
0.2916666666666666
 40
0.3333333333333333
 40
0.3333333333333333
 40
0.3333333333333333
 40
0.3333333333333333
 40
0.375
 40
0.375
 40
0.375
 40
0.375
 40
0.4166666666666667
 40
0.4166666666666667
 40
0.4166666666666667
 40
0.4166666666666667
 40
0.4583333333333334
 40
0.4583333333333334
 40
0.4583333333333334
 40
0.4583333333333334
 40
0.5
 40
0.5
 40
0.5
 40
0.5
 40
0.5416666666666666
 40
0.5416666666666666
 40
0.5416666666666666
 40
0.5416666666666666
 40
0.5833333333333333
 40
0.5833333333333333
 40
0.5833333333333333
 40
0.5833333333333333
 40
0.6249999999999999
 40
0.6249999999999999
 40
0.6249999999999999
 40
0.6249999999999999
 40
0.6666666666666665
 40
0.6666666666666665
 40
0.6666666666666665
 40
0.6666666666666665
 40
0.7083333333333332
 40
0.7083333333333332
 40
0.7083333333333332
 40
0.7083333333333332
 40
0.7499999999999998
 40
0.7499999999999998
 40
0.7499999999999998
 40
0.7499999999999998
 40
0.7916666666666664
 40
0.7916666666666664
 40
0.7916666666666664
 40
0.7916666666666664
 40
0.833333333333333
 40
0.833333333333333
 40
0.833333333333333
 40
0.833333333333333
 40
0.8749999999999997
 40
0.8749999999999997
 40
0.8749999999999997
 40
0.8749999999999997
 40
0.9166666666666663
 40
0.9166666666666663
 40
0.9166666666666663
 40
0.9166666666666663
 40
0.9583333333333329
 40
0.9583333333333329
 40
0.9583333333333329
 40
0.9583333333333329
 40
1.0
 40
1.0
 40
1.0
 40
1.0
 10
7.0050600000000003
 20
-3.8470300000000002
 30
0.0
 10
7.0050600000000003
 20
-3.8470300000000002
 30
0.0
 10
6.8822099999999997
 20
-3.95119
 30
0.0
 10
6.8822099999999997
 20
-3.95119
 30
0.0
 10
6.8822099999999997
 20
-3.95119
 30
0.0
 10
6.8822099999999997
 20
-3.95119
 30
0.0
 10
6.8822099999999997
 20
-5.8527699999999996
 30
0.0
 10
6.8822099999999997
 20
-5.8527699999999996
 30
0.0
 10
6.8822099999999997
 20
-5.8527699999999996
 30
0.0
 10
6.8822099999999997
 20
-5.8527699999999996
 30
0.0
 10
4.9806299999999997
 20
-5.8527699999999996
 30
0.0
 10
4.9806299999999997
 20
-5.8527699999999996
 30
0.0
 10
4.9806299999999997
 20
-5.8527699999999996
 30
0.0
 10
4.9806299999999997
 20
-5.8527699999999996
 30
0.0
 10
4.8764700000000003
 20
-5.9756200000000002
 30
0.0
 10
4.8764700000000003
 20
-5.9756200000000002
 30
0.0
 10
4.8764700000000003
 20
-5.9756200000000002
 30
0.0
 10
3.6896300000000002
 20
-7.3754499999999998
 30
0.0
 10
2.1636600000000001
 20
-8.1463699999999992
 30
0.0
 10
0.57966
 20
-8.1463699999999992
 30
0.0
 10
0.57966
 20
-8.1463699999999992
 30
0.0
 10
-1.0043200000000001
 20
-8.1463699999999992
 30
0.0
 10
-2.5302899999999999
 20
-7.3754499999999998
 30
0.0
 10
-3.71713
 20
-5.9756200000000002
 30
0.0
 10
-3.71713
 20
-5.9756200000000002
 30
0.0
 10
-3.71713
 20
-5.9756200000000002
 30
0.0
 10
-3.8212899999999999
 20
-5.8527699999999996
 30
0.0
 10
-3.8212899999999999
 20
-5.8527699999999996
 30
0.0
 10
-3.8212899999999999
 20
-5.8527699999999996
 30
0.0
 10
-3.8212899999999999
 20
-5.8527699999999996
 30
0.0
 10
-5.7228700000000003
 20
-5.8527699999999996
 30
0.0
 10
-5.7228700000000003
 20
-5.8527699999999996
 30
0.0
 10
-5.7228700000000003
 20
-5.8527699999999996
 30
0.0
 10
-5.7228700000000003
 20
-5.8527699999999996
 30
0.0
 10
-5.7228700000000003
 20
-3.95119
 30
0.0
 10
-5.7228700000000003
 20
-3.95119
 30
0.0
 10
-5.7228700000000003
 20
-3.95119
 30
0.0
 10
-5.7228700000000003
 20
-3.95119
 30
0.0
 10
-5.84572
 20
-3.8470300000000002
 30
0.0
 10
-5.84572
 20
-3.8470300000000002
 30
0.0
 10
-5.84572
 20
-3.8470300000000002
 30
0.0
 10
-7.2455499999999997
 20
-2.6601900000000001
 30
0.0
 10
-8.01647
 20
-1.13422
 30
0.0
 10
-8.01647
 20
0.44977
 30
0.0
 10
-8.01647
 20
0.44977
 30
0.0
 10
-8.01647
 20
2.0337700000000001
 30
0.0
 10
-7.2455499999999997
 20
3.5597300000000001
 30
0.0
 10
-5.84572
 20
4.7465700000000002
 30
0.0
 10
-5.84572
 20
4.7465700000000002
 30
0.0
 10
-5.84572
 20
4.7465700000000002
 30
0.0
 10
-5.7228700000000003
 20
4.8507300000000004
 30
0.0
 10
-5.7228700000000003
 20
4.8507300000000004
 30
0.0
 10
-5.7228700000000003
 20
4.8507300000000004
 30
0.0
 10
-5.7228700000000003
 20
4.8507300000000004
 30
0.0
 10
-5.7228700000000003
 20
6.7523099999999996
 30
0.0
 10
-5.7228700000000003
 20
6.7523099999999996
 30
0.0
 10
-5.7228700000000003
 20
6.7523099999999996
 30
0.0
 10
-5.7228700000000003
 20
6.7523099999999996
 30
0.0
 10
-3.8212899999999999
 20
6.7523099999999996
 30
0.0
 10
-3.8212899999999999
 20
6.7523099999999996
 30
0.0
 10
-3.8212899999999999
 20
6.7523099999999996
 30
0.0
 10
-3.8212899999999999
 20
6.7523099999999996
 30
0.0
 10
-3.71713
 20
6.8751600000000002
 30
0.0
 10
-3.71713
 20
6.8751600000000002
 30
0.0
 10
-3.71713
 20
6.8751600000000002
 30
0.0
 10
-2.5302899999999999
 20
8.2749900000000007
 30
0.0
 10
-1.0043200000000001
 20
9.0459099999999992
 30
0.0
 10
0.57966
 20
9.0459099999999992
 30
0.0
 10
0.57966
 20
9.0459099999999992
 30
0.0
 10
2.1636600000000001
 20
9.0459099999999992
 30
0.0
 10
3.6896300000000002
 20
8.2749900000000007
 30
0.0
 10
4.8764700000000003
 20
6.8751600000000002
 30
0.0
 10
4.8764700000000003
 20
6.8751600000000002
 30
0.0
 10
4.8764700000000003
 20
6.8751600000000002
 30
0.0
 10
4.9806299999999997
 20
6.7523099999999996
 30
0.0
 10
4.9806299999999997
 20
6.7523099999999996
 30
0.0
 10
4.9806299999999997
 20
6.7523099999999996
 30
0.0
 10
4.9806299999999997
 20
6.7523099999999996
 30
0.0
 10
6.8822099999999997
 20
6.7523099999999996
 30
0.0
 10
6.8822099999999997
 20
6.7523099999999996
 30
0.0
 10
6.8822099999999997
 20
6.7523099999999996
 30
0.0
 10
6.8822099999999997
 20
6.7523099999999996
 30
0.0
 10
6.8822099999999997
 20
4.8507300000000004
 30
0.0
 10
6.8822099999999997
 20
4.8507300000000004
 30
0.0
 10
6.8822099999999997
 20
4.8507300000000004
 30
0.0
 10
6.8822099999999997
 20
4.8507300000000004
 30
0.0
 10
7.0050600000000003
 20
4.7465700000000002
 30
0.0
 10
7.0050600000000003
 20
4.7465700000000002
 30
0.0
 10
7.0050600000000003
 20
4.7465700000000002
 30
0.0
 10
8.40489
 20
3.5597300000000001
 30
0.0
 10
9.1758100000000002
 20
2.0337700000000001
 30
0.0
 10
9.1758100000000002
 20
0.44977
 30
0.0
 10
9.1758100000000002
 20
0.44977
 30
0.0
 10
9.1758100000000002
 20
-1.13422
 30
0.0
 10
8.40489
 20
-2.6601900000000001
 30
0.0
 10
7.0050600000000003
 20
-3.8470300000000002
 30
0.0
  0
SPLINE
  5
4F
100
AcDbEntity
  8
Layer 1
 62
     0
100
AcDbSpline
210
0.0
220
0.0
230
1.0
 70
     1
 71
     3
 72
    20
 73
    16
 74
     0
 42
0.0000000001
 43
0.0000000001
 40
0.0
 40
0.0
 40
0.0
 40
0.0
 40
0.25
 40
0.25
 40
0.25
 40
0.25
 40
0.5
 40
0.5
 40
0.5
 40
0.5
 40
0.75
 40
0.75
 40
0.75
 40
0.75
 40
1.0
 40
1.0
 40
1.0
 40
1.0
 10
-5.1665000000000001
 20
5.9688100000000004
 30
0.0
 10
-5.0578700000000003
 20
5.9688100000000004
 30
0.0
 10
-4.9698000000000002
 20
6.0568900000000001
 30
0.0
 10
-4.9698000000000002
 20
6.1655199999999999
 30
0.0
 10
-4.9698000000000002
 20
6.1655199999999999
 30
0.0
 10
-4.9698000000000002
 20
6.2741499999999997
 30
0.0
 10
-5.0578700000000003
 20
6.3622300000000003
 30
0.0
 10
-5.1665000000000001
 20
6.3622300000000003
 30
0.0
 10
-5.1665000000000001
 20
6.3622300000000003
 30
0.0
 10
-5.2751400000000004
 20
6.3622300000000003
 30
0.0
 10
-5.3632099999999996
 20
6.2741499999999997
 30
0.0
 10
-5.3632099999999996
 20
6.1655199999999999
 30
0.0
 10
-5.3632099999999996
 20
6.1655199999999999
 30
0.0
 10
-5.3632099999999996
 20
6.0568900000000001
 30
0.0
 10
-5.2751400000000004
 20
5.9688100000000004
 30
0.0
 10
-5.1665000000000001
 20
5.9688100000000004
 30
0.0
  0
SPLINE
  5
50
100
AcDbEntity
  8
Layer 1
 62
     0
100
AcDbSpline
210
0.0
220
0.0
230
1.0
 70
     1
 71
     3
 72
    20
 73
    16
 74
     0
 42
0.0000000001
 43
0.0000000001
 40
0.0
 40
0.0
 40
0.0
 40
0.0
 40
0.25
 40
0.25
 40
0.25
 40
0.25
 40
0.5
 40
0.5
 40
0.5
 40
0.5
 40
0.75
 40
0.75
 40
0.75
 40
0.75
 40
1.0
 40
1.0
 40
1.0
 40
1.0
 10
-4.5116199999999997
 20
5.7717700000000001
 30
0.0
 10
-4.4029800000000003
 20
5.7717700000000001
 30
0.0
 10
-4.3149199999999999
 20
5.8598400000000002
 30
0.0
 10
-4.3149199999999999
 20
5.9684699999999999
 30
0.0
 10
-4.3149199999999999
 20
5.9684699999999999
 30
0.0
 10
-4.3149199999999999
 20
6.0771100000000002
 30
0.0
 10
-4.4029800000000003
 20
6.1651800000000003
 30
0.0
 10
-4.5116199999999997
 20
6.1651800000000003
 30
0.0
 10
-4.5116199999999997
 20
6.1651800000000003
 30
0.0
 10
-4.6202500000000004
 20
6.1651800000000003
 30
0.0
 10
-4.7083199999999996
 20
6.0771100000000002
 30
0.0
 10
-4.7083199999999996
 20
5.9684699999999999
 30
0.0
 10
-4.7083199999999996
 20
5.9684699999999999
 30
0.0
 10
-4.7083199999999996
 20
5.8598400000000002
 30
0.0
 10
-4.6202500000000004
 20
5.7717700000000001
 30
0.0
 10
-4.5116199999999997
 20
5.7717700000000001
 30
0.0
  0
SPLINE
  5
51
100
AcDbEntity
  8
Layer 1
 62
     0
100
AcDbSpline
210
0.0
220
0.0
230
1.0
 70
     1
 71
     3
 72
    20
 73
    16
 74
     0
 42
0.0000000001
 43
0.0000000001
 40
0.0
 40
0.0
 40
0.0
 40
0.0
 40
0.25
 40
0.25
 40
0.25
 40
0.25
 40
0.5
 40
0.5
 40
0.5
 40
0.5
 40
0.75
 40
0.75
 40
0.75
 40
0.75
 40
1.0
 40
1.0
 40
1.0
 40
1.0
 10
-5.28207
 20
5.5280199999999997
 30
0.0
 10
-5.28207
 20
5.4193800000000003
 30
0.0
 10
-5.194
 20
5.3313100000000002
 30
0.0
 10
-5.0853700000000002
 20
5.3313100000000002
 30
0.0
 10
-5.0853700000000002
 20
5.3313100000000002
 30
0.0
 10
-4.9767299999999999
 20
5.3313100000000002
 30
0.0
 10
-4.8886599999999998
 20
5.4193800000000003
 30
0.0
 10
-4.8886599999999998
 20
5.5280199999999997
 30
0.0
 10
-4.8886599999999998
 20
5.5280199999999997
 30
0.0
 10
-4.8886599999999998
 20
5.6366500000000004
 30
0.0
 10
-4.9767299999999999
 20
5.7247199999999996
 30
0.0
 10
-5.0853700000000002
 20
5.7247199999999996
 30
0.0
 10
-5.0853700000000002
 20
5.7247199999999996
 30
0.0
 10
-5.194
 20
5.7247199999999996
 30
0.0
 10
-5.28207
 20
5.6366500000000004
 30
0.0
 10
-5.28207
 20
5.5280199999999997
 30
0.0
  0
SPLINE
  5
52
100
AcDbEntity
  8
Layer 1
 62
     0
100
AcDbSpline
210
0.0
220
0.0
230
1.0
 70
     1
 71
     3
 72
    20
 73
    16
 74
     0
 42
0.0000000001
 43
0.0000000001
 40
0.0
 40
0.0
 40
0.0
 40
0.0
 40
0.25
 40
0.25
 40
0.25
 40
0.25
 40
0.5
 40
0.5
 40
0.5
 40
0.5
 40
0.75
 40
0.75
 40
0.75
 40
0.75
 40
1.0
 40
1.0
 40
1.0
 40
1.0
 10
6.3548200000000001
 20
6.0122799999999996
 30
0.0
 10
6.4634600000000004
 20
6.0122799999999996
 30
0.0
 10
6.5515299999999996
 20
6.1003499999999997
 30
0.0
 10
6.5515299999999996
 20
6.20899
 30
0.0
 10
6.5515299999999996
 20
6.20899
 30
0.0
 10
6.5515299999999996
 20
6.3176199999999998
 30
0.0
 10
6.4634600000000004
 20
6.4056899999999999
 30
0.0
 10
6.3548200000000001
 20
6.4056899999999999
 30
0.0
 10
6.3548200000000001
 20
6.4056899999999999
 30
0.0
 10
6.2461900000000004
 20
6.4056899999999999
 30
0.0
 10
6.1581099999999998
 20
6.3176199999999998
 30
0.0
 10
6.1581099999999998
 20
6.20899
 30
0.0
 10
6.1581099999999998
 20
6.20899
 30
0.0
 10
6.1581099999999998
 20
6.1003499999999997
 30
0.0
 10
6.2461900000000004
 20
6.0122799999999996
 30
0.0
 10
6.3548200000000001
 20
6.0122799999999996
 30
0.0
  0
SPLINE
  5
53
100
AcDbEntity
  8
Layer 1
 62
     0
100
AcDbSpline
210
0.0
220
0.0
230
1.0
 70
     1
 71
     3
 72
    20
 73
    16
 74
     0
 42
0.0000000001
 43
0.0000000001
 40
0.0
 40
0.0
 40
0.0
 40
0.0
 40
0.25
 40
0.25
 40
0.25
 40
0.25
 40
0.5
 40
0.5
 40
0.5
 40
0.5
 40
0.75
 40
0.75
 40
0.75
 40
0.75
 40
1.0
 40
1.0
 40
1.0
 40
1.0
 10
5.6999300000000002
 20
5.8152299999999997
 30
0.0
 10
5.8085699999999996
 20
5.8152299999999997
 30
0.0
 10
5.8966399999999997
 20
5.9032999999999998
 30
0.0
 10
5.8966399999999997
 20
6.0119400000000001
 30
0.0
 10
5.8966399999999997
 20
6.0119400000000001
 30
0.0
 10
5.8966399999999997
 20
6.1205800000000004
 30
0.0
 10
5.8085699999999996
 20
6.2086399999999999
 30
0.0
 10
5.6999300000000002
 20
6.2086399999999999
 30
0.0
 10
5.6999300000000002
 20
6.2086399999999999
 30
0.0
 10
5.5913000000000004
 20
6.2086399999999999
 30
0.0
 10
5.5032300000000003
 20
6.1205800000000004
 30
0.0
 10
5.5032300000000003
 20
6.0119400000000001
 30
0.0
 10
5.5032300000000003
 20
6.0119400000000001
 30
0.0
 10
5.5032300000000003
 20
5.9032999999999998
 30
0.0
 10
5.5913000000000004
 20
5.8152299999999997
 30
0.0
 10
5.6999300000000002
 20
5.8152299999999997
 30
0.0
  0
SPLINE
  5
54
100
AcDbEntity
  8
Layer 1
 62
     0
100
AcDbSpline
210
0.0
220
0.0
230
1.0
 70
     1
 71
     3
 72
    20
 73
    16
 74
     0
 42
0.0000000001
 43
0.0000000001
 40
0.0
 40
0.0
 40
0.0
 40
0.0
 40
0.25
 40
0.25
 40
0.25
 40
0.25
 40
0.5
 40
0.5
 40
0.5
 40
0.5
 40
0.75
 40
0.75
 40
0.75
 40
0.75
 40
1.0
 40
1.0
 40
1.0
 40
1.0
 10
6.2736799999999997
 20
5.3747800000000003
 30
0.0
 10
6.38232
 20
5.3747800000000003
 30
0.0
 10
6.4703900000000001
 20
5.4628500000000004
 30
0.0
 10
6.4703900000000001
 20
5.5714800000000002
 30
0.0
 10
6.4703900000000001
 20
5.5714800000000002
 30
0.0
 10
6.4703900000000001
 20
5.6801199999999996
 30
0.0
 10
6.38232
 20
5.7681899999999997
 30
0.0
 10
6.2736799999999997
 20
5.7681899999999997
 30
0.0
 10
6.2736799999999997
 20
5.7681899999999997
 30
0.0
 10
6.1650499999999999
 20
5.7681899999999997
 30
0.0
 10
6.0769799999999998
 20
5.6801199999999996
 30
0.0
 10
6.0769799999999998
 20
5.5714800000000002
 30
0.0
 10
6.0769799999999998
 20
5.5714800000000002
 30
0.0
 10
6.0769799999999998
 20
5.4628500000000004
 30
0.0
 10
6.1650499999999999
 20
5.3747800000000003
 30
0.0
 10
6.2736799999999997
 20
5.3747800000000003
 30
0.0
  0
SPLINE
  5
55
100
AcDbEntity
  8
Layer 1
 62
     0
100
AcDbSpline
210
0.0
220
0.0
230
1.0
 70
     1
 71
     3
 72
    20
 73
    16
 74
     0
 42
0.0000000001
 43
0.0000000001
 40
0.0
 40
0.0
 40
0.0
 40
0.0
 40
0.25
 40
0.25
 40
0.25
 40
0.25
 40
0.5
 40
0.5
 40
0.5
 40
0.5
 40
0.75
 40
0.75
 40
0.75
 40
0.75
 40
1.0
 40
1.0
 40
1.0
 40
1.0
 10
-5.1665000000000001
 20
-5.22865
 30
0.0
 10
-5.2751400000000004
 20
-5.22865
 30
0.0
 10
-5.3632099999999996
 20
-5.3167200000000001
 30
0.0
 10
-5.3632099999999996
 20
-5.4253499999999999
 30
0.0
 10
-5.3632099999999996
 20
-5.4253499999999999
 30
0.0
 10
-5.3632099999999996
 20
-5.5339900000000002
 30
0.0
 10
-5.2751400000000004
 20
-5.6220600000000003
 30
0.0
 10
-5.1665000000000001
 20
-5.6220600000000003
 30
0.0
 10
-5.1665000000000001
 20
-5.6220600000000003
 30
0.0
 10
-5.0578700000000003
 20
-5.6220600000000003
 30
0.0
 10
-4.9698000000000002
 20
-5.5339900000000002
 30
0.0
 10
-4.9698000000000002
 20
-5.4253499999999999
 30
0.0
 10
-4.9698000000000002
 20
-5.4253499999999999
 30
0.0
 10
-4.9698000000000002
 20
-5.3167200000000001
 30
0.0
 10
-5.0578700000000003
 20
-5.22865
 30
0.0
 10
-5.1665000000000001
 20
-5.22865
 30
0.0
  0
SPLINE
  5
56
100
AcDbEntity
  8
Layer 1
 62
     0
100
AcDbSpline
210
0.0
220
0.0
230
1.0
 70
     1
 71
     3
 72
    20
 73
    16
 74
     0
 42
0.0000000001
 43
0.0000000001
 40
0.0
 40
0.0
 40
0.0
 40
0.0
 40
0.25
 40
0.25
 40
0.25
 40
0.25
 40
0.5
 40
0.5
 40
0.5
 40
0.5
 40
0.75
 40
0.75
 40
0.75
 40
0.75
 40
1.0
 40
1.0
 40
1.0
 40
1.0
 10
-4.5116199999999997
 20
-5.0316000000000001
 30
0.0
 10
-4.6202500000000004
 20
-5.0316000000000001
 30
0.0
 10
-4.7083199999999996
 20
-5.1196700000000002
 30
0.0
 10
-4.7083199999999996
 20
-5.2283099999999996
 30
0.0
 10
-4.7083199999999996
 20
-5.2283099999999996
 30
0.0
 10
-4.7083199999999996
 20
-5.3369400000000002
 30
0.0
 10
-4.6202500000000004
 20
-5.4250100000000003
 30
0.0
 10
-4.5116199999999997
 20
-5.4250100000000003
 30
0.0
 10
-4.5116199999999997
 20
-5.4250100000000003
 30
0.0
 10
-4.4029800000000003
 20
-5.4250100000000003
 30
0.0
 10
-4.3149199999999999
 20
-5.3369400000000002
 30
0.0
 10
-4.3149199999999999
 20
-5.2283099999999996
 30
0.0
 10
-4.3149199999999999
 20
-5.2283099999999996
 30
0.0
 10
-4.3149199999999999
 20
-5.1196700000000002
 30
0.0
 10
-4.4029800000000003
 20
-5.0316000000000001
 30
0.0
 10
-4.5116199999999997
 20
-5.0316000000000001
 30
0.0
  0
SPLINE
  5
57
100
AcDbEntity
  8
Layer 1
 62
     0
100
AcDbSpline
210
0.0
220
0.0
230
1.0
 70
     1
 71
     3
 72
    20
 73
    16
 74
     0
 42
0.0000000001
 43
0.0000000001
 40
0.0
 40
0.0
 40
0.0
 40
0.0
 40
0.25
 40
0.25
 40
0.25
 40
0.25
 40
0.5
 40
0.5
 40
0.5
 40
0.5
 40
0.75
 40
0.75
 40
0.75
 40
0.75
 40
1.0
 40
1.0
 40
1.0
 40
1.0
 10
-5.0853700000000002
 20
-4.5911499999999998
 30
0.0
 10
-5.194
 20
-4.5911499999999998
 30
0.0
 10
-5.28207
 20
-4.6792199999999999
 30
0.0
 10
-5.28207
 20
-4.7878499999999997
 30
0.0
 10
-5.28207
 20
-4.7878499999999997
 30
0.0
 10
-5.28207
 20
-4.89649
 30
0.0
 10
-5.194
 20
-4.9845600000000001
 30
0.0
 10
-5.0853700000000002
 20
-4.9845600000000001
 30
0.0
 10
-5.0853700000000002
 20
-4.9845600000000001
 30
0.0
 10
-4.9767299999999999
 20
-4.9845600000000001
 30
0.0
 10
-4.8886599999999998
 20
-4.89649
 30
0.0
 10
-4.8886599999999998
 20
-4.7878499999999997
 30
0.0
 10
-4.8886599999999998
 20
-4.7878499999999997
 30
0.0
 10
-4.8886599999999998
 20
-4.6792199999999999
 30
0.0
 10
-4.9767299999999999
 20
-4.5911499999999998
 30
0.0
 10
-5.0853700000000002
 20
-4.5911499999999998
 30
0.0
  0
SPLINE
  5
58
100
AcDbEntity
  8
Layer 1
 62
     0
100
AcDbSpline
210
0.0
220
0.0
230
1.0
 70
     1
 71
     3
 72
    20
 73
    16
 74
     0
 42
0.0000000001
 43
0.0000000001
 40
0.0
 40
0.0
 40
0.0
 40
0.0
 40
0.25
 40
0.25
 40
0.25
 40
0.25
 40
0.5
 40
0.5
 40
0.5
 40
0.5
 40
0.75
 40
0.75
 40
0.75
 40
0.75
 40
1.0
 40
1.0
 40
1.0
 40
1.0
 10
6.31135
 20
-5.1851799999999999
 30
0.0
 10
6.2027200000000002
 20
-5.1851799999999999
 30
0.0
 10
6.1146500000000001
 20
-5.27325
 30
0.0
 10
6.1146500000000001
 20
-5.3818900000000003
 30
0.0
 10
6.1146500000000001
 20
-5.3818900000000003
 30
0.0
 10
6.1146500000000001
 20
-5.4905200000000001
 30
0.0
 10
6.2027200000000002
 20
-5.5785900000000002
 30
0.0
 10
6.31135
 20
-5.5785900000000002
 30
0.0
 10
6.31135
 20
-5.5785900000000002
 30
0.0
 10
6.4199900000000003
 20
-5.5785900000000002
 30
0.0
 10
6.5080600000000004
 20
-5.4905200000000001
 30
0.0
 10
6.5080600000000004
 20
-5.3818900000000003
 30
0.0
 10
6.5080600000000004
 20
-5.3818900000000003
 30
0.0
 10
6.5080600000000004
 20
-5.27325
 30
0.0
 10
6.4199900000000003
 20
-5.1851799999999999
 30
0.0
 10
6.31135
 20
-5.1851799999999999
 30
0.0
  0
SPLINE
  5
59
100
AcDbEntity
  8
Layer 1
 62
     0
100
AcDbSpline
210
0.0
220
0.0
230
1.0
 70
     1
 71
     3
 72
    20
 73
    16
 74
     0
 42
0.0000000001
 43
0.0000000001
 40
0.0
 40
0.0
 40
0.0
 40
0.0
 40
0.25
 40
0.25
 40
0.25
 40
0.25
 40
0.5
 40
0.5
 40
0.5
 40
0.5
 40
0.75
 40
0.75
 40
0.75
 40
0.75
 40
1.0
 40
1.0
 40
1.0
 40
1.0
 10
5.6564699999999997
 20
-4.9881399999999996
 30
0.0
 10
5.5478300000000003
 20
-4.9881399999999996
 30
0.0
 10
5.4597699999999998
 20
-5.0762099999999997
 30
0.0
 10
5.4597699999999998
 20
-5.1848400000000003
 30
0.0
 10
5.4597699999999998
 20
-5.1848400000000003
 30
0.0
 10
5.4597699999999998
 20
-5.2934799999999997
 30
0.0
 10
5.5478300000000003
 20
-5.3815499999999998
 30
0.0
 10
5.6564699999999997
 20
-5.3815499999999998
 30
0.0
 10
5.6564699999999997
 20
-5.3815499999999998
 30
0.0
 10
5.7651000000000003
 20
-5.3815499999999998
 30
0.0
 10
5.8531700000000004
 20
-5.2934799999999997
 30
0.0
 10
5.8531700000000004
 20
-5.1848400000000003
 30
0.0
 10
5.8531700000000004
 20
-5.1848400000000003
 30
0.0
 10
5.8531700000000004
 20
-5.0762099999999997
 30
0.0
 10
5.7651000000000003
 20
-4.9881399999999996
 30
0.0
 10
5.6564699999999997
 20
-4.9881399999999996
 30
0.0
  0
SPLINE
  5
5A
100
AcDbEntity
  8
Layer 1
 62
     0
100
AcDbSpline
210
0.0
220
0.0
230
1.0
 70
     1
 71
     3
 72
    20
 73
    16
 74
     0
 42
0.0000000001
 43
0.0000000001
 40
0.0
 40
0.0
 40
0.0
 40
0.0
 40
0.25
 40
0.25
 40
0.25
 40
0.25
 40
0.5
 40
0.5
 40
0.5
 40
0.5
 40
0.75
 40
0.75
 40
0.75
 40
0.75
 40
1.0
 40
1.0
 40
1.0
 40
1.0
 10
6.42692
 20
-4.7443900000000001
 30
0.0
 10
6.42692
 20
-4.6357499999999998
 30
0.0
 10
6.3388499999999999
 20
-4.5476799999999997
 30
0.0
 10
6.2302200000000001
 20
-4.5476799999999997
 30
0.0
 10
6.2302200000000001
 20
-4.5476799999999997
 30
0.0
 10
6.1215799999999998
 20
-4.5476799999999997
 30
0.0
 10
6.0335099999999997
 20
-4.6357499999999998
 30
0.0
 10
6.0335099999999997
 20
-4.7443900000000001
 30
0.0
 10
6.0335099999999997
 20
-4.7443900000000001
 30
0.0
 10
6.0335099999999997
 20
-4.8530199999999999
 30
0.0
 10
6.1215799999999998
 20
-4.94109
 30
0.0
 10
6.2302200000000001
 20
-4.94109
 30
0.0
 10
6.2302200000000001
 20
-4.94109
 30
0.0
 10
6.3388499999999999
 20
-4.94109
 30
0.0
 10
6.42692
 20
-4.8530199999999999
 30
0.0
 10
6.42692
 20
-4.7443900000000001
 30
0.0
  0
SPLINE
  5
5B
100
AcDbEntity
  8
Layer 1
 62
     0
100
AcDbSpline
210
0.0
220
0.0
230
1.0
 70
     1
 71
     3
 72
    44
 73
    40
 74
     0
 42
0.0000000001
 43
0.0000000001
 40
0.0
 40
0.0
 40
0.0
 40
0.0
 40
0.1
 40
0.1
 40
0.1
 40
0.1
 40
0.2
 40
0.2
 40
0.2
 40
0.2
 40
0.3
 40
0.3
 40
0.3
 40
0.3
 40
0.4
 40
0.4
 40
0.4
 40
0.4
 40
0.5
 40
0.5
 40
0.5
 40
0.5
 40
0.6
 40
0.6
 40
0.6
 40
0.6
 40
0.7
 40
0.7
 40
0.7
 40
0.7
 40
0.7999999999999999
 40
0.7999999999999999
 40
0.7999999999999999
 40
0.7999999999999999
 40
0.8999999999999999
 40
0.8999999999999999
 40
0.8999999999999999
 40
0.8999999999999999
 40
1.0
 40
1.0
 40
1.0
 40
1.0
 10
6.7046000000000001
 20
3.4638599999999999
 30
0.0
 10
7.0956200000000003
 20
3.81406
 30
0.0
 10
7.6860999999999997
 20
3.6249199999999999
 30
0.0
 10
7.5000200000000001
 20
3.1342699999999999
 30
0.0
 10
7.5000200000000001
 20
3.1342699999999999
 30
0.0
 10
7.4976799999999999
 20
3.1432500000000001
 30
0.0
 10
7.49512
 20
3.1522399999999999
 30
0.0
 10
7.4920499999999999
 20
3.1612
 30
0.0
 10
7.4920499999999999
 20
3.1612
 30
0.0
 10
7.4363599999999996
 20
3.3239100000000001
 30
0.0
 10
7.2812999999999999
 20
3.4181900000000001
 30
0.0
 10
7.1457100000000002
 20
3.3717800000000002
 30
0.0
 10
7.1457100000000002
 20
3.3717800000000002
 30
0.0
 10
6.6882999999999999
 20
3.2152099999999999
 30
0.0
 10
7.1381300000000003
 20
2.4060000000000001
 30
0.0
 10
7.6099100000000002
 20
2.9190800000000001
 30
0.0
 10
7.6099100000000002
 20
2.9190800000000001
 30
0.0
 10
7.8062300000000002
 20
3.1325599999999998
 30
0.0
 10
7.7953900000000003
 20
3.5847000000000002
 30
0.0
 10
7.4679599999999997
 20
3.7649400000000002
 30
0.0
 10
7.4679599999999997
 20
3.7649400000000002
 30
0.0
 10
6.32714
 20
4.3929200000000002
 30
0.0
 10
4.9030500000000004
 20
1.7283200000000001
 30
0.0
 10
6.4412399999999996
 20
-0.68933
 30
0.0
 10
6.4412399999999996
 20
-0.68933
 30
0.0
 10
7.3363699999999996
 20
-2.0962499999999999
 30
0.0
 10
7.1117999999999997
 20
-2.8493400000000002
 30
0.0
 10
6.6568699999999996
 20
-3.1324000000000001
 30
0.0
 10
6.6568699999999996
 20
-3.1324000000000001
 30
0.0
 10
6.28735
 20
-3.3623099999999999
 30
0.0
 10
6.3613
 20
-3.5783399999999999
 30
0.0
 10
6.6893900000000004
 20
-3.3281299999999998
 30
0.0
 10
6.6893900000000004
 20
-3.3281299999999998
 30
0.0
 10
6.9500599999999997
 20
-3.12934
 30
0.0
 10
7.8144299999999998
 20
-2.3740100000000002
 30
0.0
 10
6.8849400000000003
 20
-0.865
 30
0.0
 10
6.8849400000000003
 20
-0.865
 30
0.0
 10
5.6440400000000004
 20
1.1495500000000001
 30
0.0
 10
6.0786699999999998
 20
2.90327
 30
0.0
 10
6.7046000000000001
 20
3.4638599999999999
 30
0.0
  0
SPLINE
  5
5C
100
AcDbEntity
  8
Layer 1
 62
     0
100
AcDbSpline
210
0.0
220
0.0
230
1.0
 70
     1
 71
     3
 72
    20
 73
    16
 74
     0
 42
0.0000000001
 43
0.0000000001
 40
0.0
 40
0.0
 40
0.0
 40
0.0
 40
0.25
 40
0.25
 40
0.25
 40
0.25
 40
0.5
 40
0.5
 40
0.5
 40
0.5
 40
0.75
 40
0.75
 40
0.75
 40
0.75
 40
1.0
 40
1.0
 40
1.0
 40
1.0
 10
7.28857
 20
0.279
 30
0.0
 10
6.8132099999999998
 20
0.12663
 30
0.0
 10
7.0883599999999998
 20
-0.7302300000000001
 30
0.0
 10
7.1498799999999996
 20
-0.94762
 30
0.0
 10
7.1498799999999996
 20
-0.94762
 30
0.0
 10
7.2486199999999998
 20
-1.29653
 30
0.0
 10
7.2783199999999999
 20
-1.1415599999999999
 30
0.0
 10
7.1769100000000003
 20
-0.84528
 30
0.0
 10
7.1769100000000003
 20
-0.84528
 30
0.0
 10
7.05783
 20
-0.49738
 30
0.0
 10
7.2055600000000002
 20
0.0481
 30
0.0
 10
7.5613000000000001
 20
-0.15517
 30
0.0
 10
7.5613000000000001
 20
-0.15517
 30
0.0
 10
7.9035700000000002
 20
-0.35074
 30
0.0
 10
7.7790499999999998
 20
0.43621
 30
0.0
 10
7.28857
 20
0.279
 30
0.0
  0
SPLINE
  5
5D
100
AcDbEntity
  8
Layer 1
 62
     0
100
AcDbSpline
210
0.0
220
0.0
230
1.0
 70
     1
 71
     3
 72
    20
 73
    16
 74
     0
 42
0.0000000001
 43
0.0000000001
 40
0.0
 40
0.0
 40
0.0
 40
0.0
 40
0.25
 40
0.25
 40
0.25
 40
0.25
 40
0.5
 40
0.5
 40
0.5
 40
0.5
 40
0.75
 40
0.75
 40
0.75
 40
0.75
 40
1.0
 40
1.0
 40
1.0
 40
1.0
 10
5.6094400000000002
 20
-0.8726
 30
0.0
 10
5.7241499999999998
 20
-0.47927
 30
0.0
 10
6.20932
 20
-0.76904
 30
0.0
 10
6.3653300000000002
 20
-1.10202
 30
0.0
 10
6.3653300000000002
 20
-1.10202
 30
0.0
 10
6.4981799999999996
 20
-1.3855900000000001
 30
0.0
 10
6.6272000000000002
 20
-1.47644
 30
0.0
 10
6.4558600000000004
 20
-1.15686
 30
0.0
 10
6.4558600000000004
 20
-1.15686
 30
0.0
 10
6.3491099999999996
 20
-0.95775
 30
0.0
 10
5.9518300000000002
 20
-0.15024
 30
0.0
 10
5.5040500000000003
 20
-0.37084
 30
0.0
 10
5.5040500000000003
 20
-0.37084
 30
0.0
 10
5.0420100000000003
 20
-0.59845
 30
0.0
 10
5.4990800000000002
 20
-1.2510399999999999
 30
0.0
 10
5.6094400000000002
 20
-0.8726
 30
0.0
  0
SPLINE
  5
5E
100
AcDbEntity
  8
Layer 1
 62
     0
100
AcDbSpline
210
0.0
220
0.0
230
1.0
 70
     1
 71
     3
 72
    44
 73
    40
 74
     0
 42
0.0000000001
 43
0.0000000001
 40
0.0
 40
0.0
 40
0.0
 40
0.0
 40
0.1
 40
0.1
 40
0.1
 40
0.1
 40
0.2
 40
0.2
 40
0.2
 40
0.2
 40
0.3
 40
0.3
 40
0.3
 40
0.3
 40
0.4
 40
0.4
 40
0.4
 40
0.4
 40
0.5
 40
0.5
 40
0.5
 40
0.5
 40
0.6
 40
0.6
 40
0.6
 40
0.6
 40
0.7
 40
0.7
 40
0.7
 40
0.7
 40
0.7999999999999999
 40
0.7999999999999999
 40
0.7999999999999999
 40
0.7999999999999999
 40
0.8999999999999999
 40
0.8999999999999999
 40
0.8999999999999999
 40
0.8999999999999999
 40
1.0
 40
1.0
 40
1.0
 40
1.0
 10
-5.6061300000000003
 20
-3.2193299999999998
 30
0.0
 10
-6.0610600000000003
 20
-2.9362699999999999
 30
0.0
 10
-6.2856300000000003
 20
-2.1831800000000001
 30
0.0
 10
-5.3905000000000003
 20
-0.77626
 30
0.0
 10
-5.3905000000000003
 20
-0.77626
 30
0.0
 10
-3.8523100000000001
 20
1.6413899999999999
 30
0.0
 10
-5.2763900000000001
 20
4.3059900000000004
 30
0.0
 10
-6.4172200000000004
 20
3.67801
 30
0.0
 10
-6.4172200000000004
 20
3.67801
 30
0.0
 10
-6.74465
 20
3.49777
 30
0.0
 10
-6.75549
 20
3.0456300000000001
 30
0.0
 10
-6.5591699999999999
 20
2.8321399999999999
 30
0.0
 10
-6.5591699999999999
 20
2.8321399999999999
 30
0.0
 10
-6.0873900000000001
 20
2.31907
 30
0.0
 10
-5.6375500000000001
 20
3.1282800000000002
 30
0.0
 10
-6.09497
 20
3.28485
 30
0.0
 10
-6.09497
 20
3.28485
 30
0.0
 10
-6.23055
 20
3.3312499999999998
 30
0.0
 10
-6.3856200000000003
 20
3.23698
 30
0.0
 10
-6.4413099999999996
 20
3.0742699999999998
 30
0.0
 10
-6.4413099999999996
 20
3.0742699999999998
 30
0.0
 10
-6.4443799999999998
 20
3.0653100000000002
 30
0.0
 10
-6.44693
 20
3.0563199999999999
 30
0.0
 10
-6.4492799999999999
 20
3.0473400000000002
 30
0.0
 10
-6.4492799999999999
 20
3.0473400000000002
 30
0.0
 10
-6.6353600000000004
 20
3.5379900000000002
 30
0.0
 10
-6.0448700000000004
 20
3.7271299999999998
 30
0.0
 10
-5.6538599999999999
 20
3.3769300000000002
 30
0.0
 10
-5.6538599999999999
 20
3.3769300000000002
 30
0.0
 10
-5.0279299999999996
 20
2.8163399999999998
 30
0.0
 10
-4.5932899999999997
 20
1.0626199999999999
 30
0.0
 10
-5.8342000000000001
 20
-0.9519300000000001
 30
0.0
 10
-5.8342000000000001
 20
-0.9519300000000001
 30
0.0
 10
-6.7636900000000004
 20
-2.4609399999999999
 30
0.0
 10
-5.8993200000000003
 20
-3.2162700000000002
 30
0.0
 10
-5.6386399999999997
 20
-3.4150700000000001
 30
0.0
 10
-5.6386399999999997
 20
-3.4150700000000001
 30
0.0
 10
-5.3105599999999997
 20
-3.6652800000000001
 30
0.0
 10
-5.2366099999999998
 20
-3.4492400000000001
 30
0.0
 10
-5.6061300000000003
 20
-3.2193299999999998
 30
0.0
  0
SPLINE
  5
5F
100
AcDbEntity
  8
Layer 1
 62
     0
100
AcDbSpline
210
0.0
220
0.0
230
1.0
 70
     1
 71
     3
 72
    20
 73
    16
 74
     0
 42
0.0000000001
 43
0.0000000001
 40
0.0
 40
0.0
 40
0.0
 40
0.0
 40
0.25
 40
0.25
 40
0.25
 40
0.25
 40
0.5
 40
0.5
 40
0.5
 40
0.5
 40
0.75
 40
0.75
 40
0.75
 40
0.75
 40
1.0
 40
1.0
 40
1.0
 40
1.0
 10
-6.1261700000000001
 20
-0.93221
 30
0.0
 10
-6.2275799999999997
 20
-1.2284900000000001
 30
0.0
 10
-6.1978799999999996
 20
-1.3834599999999999
 30
0.0
 10
-6.0991400000000002
 20
-1.0345500000000001
 30
0.0
 10
-6.0991400000000002
 20
-1.0345500000000001
 30
0.0
 10
-6.0376200000000004
 20
-0.81716
 30
0.0
 10
-5.7624700000000004
 20
0.0397
 30
0.0
 10
-6.2378299999999998
 20
0.19206
 30
0.0
 10
-6.2378299999999998
 20
0.19206
 30
0.0
 10
-6.7283099999999996
 20
0.34928
 30
0.0
 10
-6.85283
 20
-0.43767
 30
0.0
 10
-6.5105599999999999
 20
-0.2421
 30
0.0
 10
-6.5105599999999999
 20
-0.2421
 30
0.0
 10
-6.1548100000000003
 20
-0.03883
 30
0.0
 10
-6.0070899999999998
 20
-0.58431
 30
0.0
 10
-6.1261700000000001
 20
-0.93221
 30
0.0
  0
SPLINE
  5
60
100
AcDbEntity
  8
Layer 1
 62
     0
100
AcDbSpline
210
0.0
220
0.0
230
1.0
 70
     1
 71
     3
 72
    20
 73
    16
 74
     0
 42
0.0000000001
 43
0.0000000001
 40
0.0
 40
0.0
 40
0.0
 40
0.0
 40
0.25
 40
0.25
 40
0.25
 40
0.25
 40
0.5
 40
0.5
 40
0.5
 40
0.5
 40
0.75
 40
0.75
 40
0.75
 40
0.75
 40
1.0
 40
1.0
 40
1.0
 40
1.0
 10
-4.5587
 20
-0.95953
 30
0.0
 10
-4.44834
 20
-1.3379700000000001
 30
0.0
 10
-3.9912700000000001
 20
-0.6853900000000001
 30
0.0
 10
-4.4532999999999996
 20
-0.45777
 30
0.0
 10
-4.4532999999999996
 20
-0.45777
 30
0.0
 10
-4.9010899999999999
 20
-0.23717
 30
0.0
 10
-5.2983700000000002
 20
-1.0446800000000001
 30
0.0
 10
-5.4051200000000001
 20
-1.24379
 30
0.0
 10
-5.4051200000000001
 20
-1.24379
 30
0.0
 10
-5.5764500000000004
 20
-1.5633699999999999
 30
0.0
 10
-5.4474400000000003
 20
-1.4725200000000001
 30
0.0
 10
-5.3145800000000003
 20
-1.18895
 30
0.0
 10
-5.3145800000000003
 20
-1.18895
 30
0.0
 10
-5.1585799999999997
 20
-0.85597
 30
0.0
 10
-4.6734099999999996
 20
-0.5662
 30
0.0
 10
-4.5587
 20
-0.95953
 30
0.0
  0
SPLINE
  5
61
100
AcDbEntity
  8
Layer 1
 62
     0
100
AcDbSpline
210
0.0
220
0.0
230
1.0
 70
     1
 71
     3
 72
    44
 73
    40
 74
     0
 42
0.0000000001
 43
0.0000000001
 40
0.0
 40
0.0
 40
0.0
 40
0.0
 40
0.1
 40
0.1
 40
0.1
 40
0.1
 40
0.2
 40
0.2
 40
0.2
 40
0.2
 40
0.3
 40
0.3
 40
0.3
 40
0.3
 40
0.4
 40
0.4
 40
0.4
 40
0.4
 40
0.5
 40
0.5
 40
0.5
 40
0.5
 40
0.6
 40
0.6
 40
0.6
 40
0.6
 40
0.7
 40
0.7
 40
0.7
 40
0.7
 40
0.7999999999999999
 40
0.7999999999999999
 40
0.7999999999999999
 40
0.7999999999999999
 40
0.8999999999999999
 40
0.8999999999999999
 40
0.8999999999999999
 40
0.8999999999999999
 40
1.0
 40
1.0
 40
1.0
 40
1.0
 10
-3.49193
 20
6.2739399999999996
 30
0.0
 10
-3.46455
 20
6.6157599999999999
 30
0.0
 10
-3.10223
 20
6.9645999999999999
 30
0.0
 10
-2.03932
 20
6.8686999999999996
 30
0.0
 10
-2.03932
 20
6.8686999999999996
 30
0.0
 10
-0.2128
 20
6.7039
 30
0.0
 10
0.88429
 20
8.2961600000000004
 30
0.0
 10
0.19219
 20
8.76051
 30
0.0
 10
0.19219
 20
8.76051
 30
0.0
 10
-0.00644
 20
8.8937799999999996
 30
0.0
 10
-0.26674
 20
8.7671799999999998
 30
0.0
 10
-0.3305
 20
8.5928500000000003
 30
0.0
 10
-0.3305
 20
8.5928500000000003
 30
0.0
 10
-0.48374
 20
8.1738999999999997
 30
0.0
 10
0.10853
 20
8.1557200000000005
 30
0.0
 10
0.06325
 20
8.4618000000000002
 30
0.0
 10
0.06325
 20
8.4618000000000002
 30
0.0
 10
0.04982
 20
8.5525300000000009
 30
0.0
 10
-0.04932
 20
8.6130300000000002
 30
0.0
 10
-0.1582
 20
8.5969200000000008
 30
0.0
 10
-0.1582
 20
8.5969200000000008
 30
0.0
 10
-0.1642
 20
8.5960400000000003
 30
0.0
 10
-0.17006
 20
8.5948499999999992
 30
0.0
 10
-0.17586
 20
8.5935400000000008
 30
0.0
 10
-0.17586
 20
8.5935400000000008
 30
0.0
 10
0.04852
 20
8.8434399999999993
 30
0.0
 10
0.32947
 20
8.5631900000000005
 30
0.0
 10
0.24514
 20
8.2379999999999995
 30
0.0
 10
0.24514
 20
8.2379999999999995
 30
0.0
 10
0.11014
 20
7.7174399999999999
 30
0.0
 10
-0.75951
 20
6.9553200000000004
 30
0.0
 10
-2.2694999999999999
 20
7.0694299999999997
 30
0.0
 10
-2.2694999999999999
 20
7.0694299999999997
 30
0.0
 10
-3.40056
 20
7.1548999999999996
 30
0.0
 10
-3.5762800000000001
 20
6.4415699999999996
 30
0.0
 10
-3.6127799999999999
 20
6.2349600000000001
 30
0.0
 10
-3.6127799999999999
 20
6.2349600000000001
 30
0.0
 10
-3.6587299999999998
 20
5.9749100000000004
 30
0.0
 10
-3.51416
 20
5.9962999999999997
 30
0.0
 10
-3.49193
 20
6.2739399999999996
 30
0.0
  0
SPLINE
  5
62
100
AcDbEntity
  8
Layer 1
 62
     0
100
AcDbSpline
210
0.0
220
0.0
230
1.0
 70
     1
 71
     3
 72
    20
 73
    16
 74
     0
 42
0.0000000001
 43
0.0000000001
 40
0.0
 40
0.0
 40
0.0
 40
0.0
 40
0.25
 40
0.25
 40
0.25
 40
0.25
 40
0.5
 40
0.5
 40
0.5
 40
0.5
 40
0.75
 40
0.75
 40
0.75
 40
0.75
 40
1.0
 40
1.0
 40
1.0
 40
1.0
 10
-2.3942800000000002
 20
7.1958299999999999
 30
0.0
 10
-2.2525900000000001
 20
7.2246800000000002
 30
0.0
 10
-1.6845300000000001
 20
7.31982
 30
0.0
 10
-1.7374700000000001
 20
7.6348799999999999
 30
0.0
 10
-1.7374700000000001
 20
7.6348799999999999
 30
0.0
 10
-1.7921
 20
7.9599700000000002
 30
0.0
 10
-2.27617
 20
7.7996999999999996
 30
0.0
 10
-2.0644499999999999
 20
7.66249
 30
0.0
 10
-2.0644499999999999
 20
7.66249
 30
0.0
 10
-1.8444
 20
7.5198799999999997
 30
0.0
 10
-2.1112199999999999
 20
7.27569
 30
0.0
 10
-2.34402
 20
7.24125
 30
0.0
 10
-2.34402
 20
7.24125
 30
0.0
 10
-2.5422799999999999
 20
7.2119299999999997
 30
0.0
 10
-2.6216900000000001
 20
7.1495300000000004
 30
0.0
 10
-2.3942800000000002
 20
7.1958299999999999
 30
0.0
  0
SPLINE
  5
63
100
AcDbEntity
  8
Layer 1
 62
     0
100
AcDbSpline
210
0.0
220
0.0
230
1.0
 70
     1
 71
     3
 72
    20
 73
    16
 74
     0
 42
0.0000000001
 43
0.0000000001
 40
0.0
 40
0.0
 40
0.0
 40
0.0
 40
0.25
 40
0.25
 40
0.25
 40
0.25
 40
0.5
 40
0.5
 40
0.5
 40
0.5
 40
0.75
 40
0.75
 40
0.75
 40
0.75
 40
1.0
 40
1.0
 40
1.0
 40
1.0
 10
-1.58301
 20
6.4292699999999998
 30
0.0
 10
-1.5890500000000001
 20
6.7486899999999999
 30
0.0
 10
-2.1648999999999998
 20
6.7374900000000002
 30
0.0
 10
-2.3094800000000002
 20
6.7397299999999998
 30
0.0
 10
-2.3094800000000002
 20
6.7397299999999998
 30
0.0
 10
-2.5415199999999998
 20
6.7433199999999998
 30
0.0
 10
-2.4519700000000002
 20
6.6966299999999999
 30
0.0
 10
-2.2517100000000001
 20
6.7043499999999998
 30
0.0
 10
-2.2517100000000001
 20
6.7043499999999998
 30
0.0
 10
-2.0165500000000001
 20
6.7134099999999997
 30
0.0
 10
-1.7093
 20
6.5225900000000001
 30
0.0
 10
-1.8992899999999999
 20
6.3418599999999996
 30
0.0
 10
-1.8992899999999999
 20
6.3418599999999996
 30
0.0
 10
-2.08209
 20
6.16798
 30
0.0
 10
-1.57677
 20
6.0996899999999998
 30
0.0
 10
-1.58301
 20
6.4292699999999998
 30
0.0
  0
SPLINE
  5
64
100
AcDbEntity
  8
Layer 1
 62
     0
100
AcDbSpline
210
0.0
220
0.0
230
1.0
 70
     1
 71
     3
 72
    44
 73
    40
 74
     0
 42
0.0000000001
 43
0.0000000001
 40
0.0
 40
0.0
 40
0.0
 40
0.0
 40
0.1
 40
0.1
 40
0.1
 40
0.1
 40
0.2
 40
0.2
 40
0.2
 40
0.2
 40
0.3
 40
0.3
 40
0.3
 40
0.3
 40
0.4
 40
0.4
 40
0.4
 40
0.4
 40
0.5
 40
0.5
 40
0.5
 40
0.5
 40
0.6
 40
0.6
 40
0.6
 40
0.6
 40
0.7
 40
0.7
 40
0.7
 40
0.7
 40
0.7999999999999999
 40
0.7999999999999999
 40
0.7999999999999999
 40
0.7999999999999999
 40
0.8999999999999999
 40
0.8999999999999999
 40
0.8999999999999999
 40
0.8999999999999999
 40
1.0
 40
1.0
 40
1.0
 40
1.0
 10
3.1978200000000001
 20
6.8686999999999996
 30
0.0
 10
4.2607299999999997
 20
6.9645999999999999
 30
0.0
 10
4.6230500000000001
 20
6.6157599999999999
 30
0.0
 10
4.6504300000000001
 20
6.2739399999999996
 30
0.0
 10
4.6504300000000001
 20
6.2739399999999996
 30
0.0
 10
4.6726700000000001
 20
5.9962999999999997
 30
0.0
 10
4.8172300000000003
 20
5.9749100000000004
 30
0.0
 10
4.7712899999999996
 20
6.2349600000000001
 30
0.0
 10
4.7712899999999996
 20
6.2349600000000001
 30
0.0
 10
4.7347799999999998
 20
6.4415699999999996
 30
0.0
 10
4.5590599999999997
 20
7.1548999999999996
 30
0.0
 10
3.42801
 20
7.0694299999999997
 30
0.0
 10
3.42801
 20
7.0694299999999997
 30
0.0
 10
1.91801
 20
6.9553200000000004
 30
0.0
 10
1.04836
 20
7.7174399999999999
 30
0.0
 10
0.91337
 20
8.2379999999999995
 30
0.0
 10
0.91337
 20
8.2379999999999995
 30
0.0
 10
0.82904
 20
8.5631900000000005
 30
0.0
 10
1.10999
 20
8.8434399999999993
 30
0.0
 10
1.33436
 20
8.5935400000000008
 30
0.0
 10
1.33436
 20
8.5935400000000008
 30
0.0
 10
1.32857
 20
8.5948499999999992
 30
0.0
 10
1.3227
 20
8.5960400000000003
 30
0.0
 10
1.31671
 20
8.5969200000000008
 30
0.0
 10
1.31671
 20
8.5969200000000008
 30
0.0
 10
1.2078199999999999
 20
8.6130300000000002
 30
0.0
 10
1.1086800000000001
 20
8.5525300000000009
 30
0.0
 10
1.0952599999999999
 20
8.4618000000000002
 30
0.0
 10
1.0952599999999999
 20
8.4618000000000002
 30
0.0
 10
1.0499799999999999
 20
8.1557200000000005
 30
0.0
 10
1.6422399999999999
 20
8.1738999999999997
 30
0.0
 10
1.4890099999999999
 20
8.5928500000000003
 30
0.0
 10
1.4890099999999999
 20
8.5928500000000003
 30
0.0
 10
1.4252400000000001
 20
8.7671799999999998
 30
0.0
 10
1.1649499999999999
 20
8.8937799999999996
 30
0.0
 10
0.96631
 20
8.76051
 30
0.0
 10
0.96631
 20
8.76051
 30
0.0
 10
0.27421
 20
8.2961600000000004
 30
0.0
 10
1.3713
 20
6.7039
 30
0.0
 10
3.1978200000000001
 20
6.8686999999999996
 30
0.0
  0
SPLINE
  5
65
100
AcDbEntity
  8
Layer 1
 62
     0
100
AcDbSpline
210
0.0
220
0.0
230
1.0
 70
     1
 71
     3
 72
    20
 73
    16
 74
     0
 42
0.0000000001
 43
0.0000000001
 40
0.0
 40
0.0
 40
0.0
 40
0.0
 40
0.25
 40
0.25
 40
0.25
 40
0.25
 40
0.5
 40
0.5
 40
0.5
 40
0.5
 40
0.75
 40
0.75
 40
0.75
 40
0.75
 40
1.0
 40
1.0
 40
1.0
 40
1.0
 10
3.5527899999999999
 20
7.1958299999999999
 30
0.0
 10
3.7801900000000002
 20
7.1495300000000004
 30
0.0
 10
3.70079
 20
7.2119299999999997
 30
0.0
 10
3.5025200000000001
 20
7.24125
 30
0.0
 10
3.5025200000000001
 20
7.24125
 30
0.0
 10
3.26972
 20
7.27569
 30
0.0
 10
3.0028999999999999
 20
7.5198799999999997
 30
0.0
 10
3.22295
 20
7.66249
 30
0.0
 10
3.22295
 20
7.66249
 30
0.0
 10
3.4346700000000001
 20
7.7996999999999996
 30
0.0
 10
2.9506000000000001
 20
7.9599700000000002
 30
0.0
 10
2.8959800000000002
 20
7.6348799999999999
 30
0.0
 10
2.8959800000000002
 20
7.6348799999999999
 30
0.0
 10
2.8430399999999998
 20
7.31982
 30
0.0
 10
3.4110999999999998
 20
7.2246800000000002
 30
0.0
 10
3.5527899999999999
 20
7.1958299999999999
 30
0.0
  0
SPLINE
  5
66
100
AcDbEntity
  8
Layer 1
 62
     0
100
AcDbSpline
210
0.0
220
0.0
230
1.0
 70
     1
 71
     3
 72
    20
 73
    16
 74
     0
 42
0.0000000001
 43
0.0000000001
 40
0.0
 40
0.0
 40
0.0
 40
0.0
 40
0.25
 40
0.25
 40
0.25
 40
0.25
 40
0.5
 40
0.5
 40
0.5
 40
0.5
 40
0.75
 40
0.75
 40
0.75
 40
0.75
 40
1.0
 40
1.0
 40
1.0
 40
1.0
 10
3.4102100000000002
 20
6.7043499999999998
 30
0.0
 10
3.6104799999999999
 20
6.6966299999999999
 30
0.0
 10
3.7000299999999999
 20
6.7433199999999998
 30
0.0
 10
3.4679899999999999
 20
6.7397299999999998
 30
0.0
 10
3.4679899999999999
 20
6.7397299999999998
 30
0.0
 10
3.32341
 20
6.7374900000000002
 30
0.0
 10
2.7475499999999999
 20
6.7486899999999999
 30
0.0
 10
2.7415099999999999
 20
6.4292699999999998
 30
0.0
 10
2.7415099999999999
 20
6.4292699999999998
 30
0.0
 10
2.7352799999999999
 20
6.0996899999999998
 30
0.0
 10
3.2405900000000001
 20
6.16798
 30
0.0
 10
3.0577899999999998
 20
6.3418599999999996
 30
0.0
 10
3.0577899999999998
 20
6.3418599999999996
 30
0.0
 10
2.8677999999999999
 20
6.5225900000000001
 30
0.0
 10
3.1750500000000001
 20
6.7134099999999997
 30
0.0
 10
3.4102100000000002
 20
6.7043499999999998
 30
0.0
  0
SPLINE
  5
67
100
AcDbEntity
  8
Layer 1
 62
     0
100
AcDbSpline
210
0.0
220
0.0
230
1.0
 70
     1
 71
     3
 72
    44
 73
    40
 74
     0
 42
0.0000000001
 43
0.0000000001
 40
0.0
 40
0.0
 40
0.0
 40
0.0
 40
0.1
 40
0.1
 40
0.1
 40
0.1
 40
0.2
 40
0.2
 40
0.2
 40
0.2
 40
0.3
 40
0.3
 40
0.3
 40
0.3
 40
0.4
 40
0.4
 40
0.4
 40
0.4
 40
0.5
 40
0.5
 40
0.5
 40
0.5
 40
0.6
 40
0.6
 40
0.6
 40
0.6
 40
0.7
 40
0.7
 40
0.7
 40
0.7
 40
0.7999999999999999
 40
0.7999999999999999
 40
0.7999999999999999
 40
0.7999999999999999
 40
0.8999999999999999
 40
0.8999999999999999
 40
0.8999999999999999
 40
0.8999999999999999
 40
1.0
 40
1.0
 40
1.0
 40
1.0
 10
-2.04941
 20
-5.7794800000000004
 30
0.0
 10
-3.11232
 20
-5.8753799999999998
 30
0.0
 10
-3.4746299999999999
 20
-5.5265399999999998
 30
0.0
 10
-3.5020199999999999
 20
-5.1847200000000004
 30
0.0
 10
-3.5020199999999999
 20
-5.1847200000000004
 30
0.0
 10
-3.5242599999999999
 20
-4.9070799999999997
 30
0.0
 10
-3.6688200000000002
 20
-4.8856900000000003
 30
0.0
 10
-3.6228799999999999
 20
-5.14574
 30
0.0
 10
-3.6228799999999999
 20
-5.14574
 30
0.0
 10
-3.5863700000000001
 20
-5.3523399999999999
 30
0.0
 10
-3.41065
 20
-6.0656800000000004
 30
0.0
 10
-2.2795899999999998
 20
-5.9802099999999996
 30
0.0
 10
-2.2795899999999998
 20
-5.9802099999999996
 30
0.0
 10
-0.7696
 20
-5.8661000000000003
 30
0.0
 10
0.10006
 20
-6.6282199999999998
 30
0.0
 10
0.23505
 20
-7.1487800000000004
 30
0.0
 10
0.23505
 20
-7.1487800000000004
 30
0.0
 10
0.31938
 20
-7.4739699999999996
 30
0.0
 10
0.03843
 20
-7.7542200000000001
 30
0.0
 10
-0.18595
 20
-7.5043300000000004
 30
0.0
 10
-0.18595
 20
-7.5043300000000004
 30
0.0
 10
-0.18016
 20
-7.50563
 30
0.0
 10
-0.17429
 20
-7.5068200000000003
 30
0.0
 10
-0.16829
 20
-7.5076999999999998
 30
0.0
 10
-0.16829
 20
-7.5076999999999998
 30
0.0
 10
-0.05941
 20
-7.5238100000000001
 30
0.0
 10
0.03973
 20
-7.4633200000000004
 30
0.0
 10
0.05315
 20
-7.3725899999999998
 30
0.0
 10
0.05315
 20
-7.3725899999999998
 30
0.0
 10
0.09844
 20
-7.0664899999999999
 30
0.0
 10
-0.49382
 20
-7.0846900000000002
 30
0.0
 10
-0.34059
 20
-7.5036300000000002
 30
0.0
 10
-0.34059
 20
-7.5036300000000002
 30
0.0
 10
-0.27683
 20
-7.6779599999999997
 30
0.0
 10
-0.01653
 20
-7.8045600000000004
 30
0.0
 10
0.1821
 20
-7.6712899999999999
 30
0.0
 10
0.1821
 20
-7.6712899999999999
 30
0.0
 10
0.8742
 20
-7.2069400000000003
 30
0.0
 10
-0.22289
 20
-5.6146799999999999
 30
0.0
 10
-2.04941
 20
-5.7794800000000004
 30
0.0
  0
SPLINE
  5
68
100
AcDbEntity
  8
Layer 1
 62
     0
100
AcDbSpline
210
0.0
220
0.0
230
1.0
 70
     1
 71
     3
 72
    20
 73
    16
 74
     0
 42
0.0000000001
 43
0.0000000001
 40
0.0
 40
0.0
 40
0.0
 40
0.0
 40
0.25
 40
0.25
 40
0.25
 40
0.25
 40
0.5
 40
0.5
 40
0.5
 40
0.5
 40
0.75
 40
0.75
 40
0.75
 40
0.75
 40
1.0
 40
1.0
 40
1.0
 40
1.0
 10
-2.4043700000000001
 20
-6.1066099999999999
 30
0.0
 10
-2.63178
 20
-6.0603100000000003
 30
0.0
 10
-2.5523699999999998
 20
-6.1227
 30
0.0
 10
-2.3541099999999999
 20
-6.1520299999999999
 30
0.0
 10
-2.3541099999999999
 20
-6.1520299999999999
 30
0.0
 10
-2.1213099999999998
 20
-6.1864699999999999
 30
0.0
 10
-1.85449
 20
-6.4306599999999996
 30
0.0
 10
-2.0745399999999998
 20
-6.5732699999999999
 30
0.0
 10
-2.0745399999999998
 20
-6.5732699999999999
 30
0.0
 10
-2.28626
 20
-6.7104799999999996
 30
0.0
 10
-1.80219
 20
-6.8707500000000001
 30
0.0
 10
-1.74756
 20
-6.5456599999999998
 30
0.0
 10
-1.74756
 20
-6.5456599999999998
 30
0.0
 10
-1.69462
 20
-6.2305999999999999
 30
0.0
 10
-2.26268
 20
-6.1354600000000001
 30
0.0
 10
-2.4043700000000001
 20
-6.1066099999999999
 30
0.0
  0
SPLINE
  5
69
100
AcDbEntity
  8
Layer 1
 62
     0
100
AcDbSpline
210
0.0
220
0.0
230
1.0
 70
     1
 71
     3
 72
    20
 73
    16
 74
     0
 42
0.0000000001
 43
0.0000000001
 40
0.0
 40
0.0
 40
0.0
 40
0.0
 40
0.25
 40
0.25
 40
0.25
 40
0.25
 40
0.5
 40
0.5
 40
0.5
 40
0.5
 40
0.75
 40
0.75
 40
0.75
 40
0.75
 40
1.0
 40
1.0
 40
1.0
 40
1.0
 10
-2.2618
 20
-5.6151299999999997
 30
0.0
 10
-2.4620600000000001
 20
-5.6074099999999998
 30
0.0
 10
-2.5516100000000002
 20
-5.6540999999999997
 30
0.0
 10
-2.3195700000000001
 20
-5.6505000000000001
 30
0.0
 10
-2.3195700000000001
 20
-5.6505000000000001
 30
0.0
 10
-2.1749999999999998
 20
-5.6482700000000001
 30
0.0
 10
-1.59914
 20
-5.6594600000000002
 30
0.0
 10
-1.5931
 20
-5.3400499999999997
 30
0.0
 10
-1.5931
 20
-5.3400499999999997
 30
0.0
 10
-1.5868599999999999
 20
-5.0104699999999998
 30
0.0
 10
-2.0921799999999999
 20
-5.0787599999999999
 30
0.0
 10
-1.9093800000000001
 20
-5.2526400000000004
 30
0.0
 10
-1.9093800000000001
 20
-5.2526400000000004
 30
0.0
 10
-1.71939
 20
-5.43337
 30
0.0
 10
-2.02664
 20
-5.6241899999999996
 30
0.0
 10
-2.2618
 20
-5.6151299999999997
 30
0.0
  0
SPLINE
  5
6A
100
AcDbEntity
  8
Layer 1
 62
     0
100
AcDbSpline
210
0.0
220
0.0
230
1.0
 70
     1
 71
     3
 72
    44
 73
    40
 74
     0
 42
0.0000000001
 43
0.0000000001
 40
0.0
 40
0.0
 40
0.0
 40
0.0
 40
0.1
 40
0.1
 40
0.1
 40
0.1
 40
0.2
 40
0.2
 40
0.2
 40
0.2
 40
0.3
 40
0.3
 40
0.3
 40
0.3
 40
0.4
 40
0.4
 40
0.4
 40
0.4
 40
0.5
 40
0.5
 40
0.5
 40
0.5
 40
0.6
 40
0.6
 40
0.6
 40
0.6
 40
0.7
 40
0.7
 40
0.7
 40
0.7
 40
0.7999999999999999
 40
0.7999999999999999
 40
0.7999999999999999
 40
0.7999999999999999
 40
0.8999999999999999
 40
0.8999999999999999
 40
0.8999999999999999
 40
0.8999999999999999
 40
1.0
 40
1.0
 40
1.0
 40
1.0
 10
4.6403400000000001
 20
-5.1847200000000004
 30
0.0
 10
4.6129600000000002
 20
-5.5265399999999998
 30
0.0
 10
4.2506500000000003
 20
-5.8753799999999998
 30
0.0
 10
3.1877300000000002
 20
-5.7794800000000004
 30
0.0
 10
3.1877300000000002
 20
-5.7794800000000004
 30
0.0
 10
1.3612200000000001
 20
-5.6146799999999999
 30
0.0
 10
0.26412
 20
-7.2069400000000003
 30
0.0
 10
0.95622
 20
-7.6712899999999999
 30
0.0
 10
0.95622
 20
-7.6712899999999999
 30
0.0
 10
1.15486
 20
-7.8045600000000004
 30
0.0
 10
1.41516
 20
-7.6779599999999997
 30
0.0
 10
1.4789099999999999
 20
-7.5036300000000002
 30
0.0
 10
1.4789099999999999
 20
-7.5036300000000002
 30
0.0
 10
1.63215
 20
-7.0846900000000002
 30
0.0
 10
1.03989
 20
-7.0664899999999999
 30
0.0
 10
1.08517
 20
-7.3725899999999998
 30
0.0
 10
1.08517
 20
-7.3725899999999998
 30
0.0
 10
1.09859
 20
-7.4633200000000004
 30
0.0
 10
1.19773
 20
-7.5238100000000001
 30
0.0
 10
1.30661
 20
-7.5076999999999998
 30
0.0
 10
1.30661
 20
-7.5076999999999998
 30
0.0
 10
1.3126100000000001
 20
-7.5068200000000003
 30
0.0
 10
1.3184800000000001
 20
-7.50563
 30
0.0
 10
1.3242700000000001
 20
-7.5043300000000004
 30
0.0
 10
1.3242700000000001
 20
-7.5043300000000004
 30
0.0
 10
1.0999000000000001
 20
-7.7542200000000001
 30
0.0
 10
0.81895
 20
-7.4739699999999996
 30
0.0
 10
0.90328
 20
-7.1487800000000004
 30
0.0
 10
0.90328
 20
-7.1487800000000004
 30
0.0
 10
1.03827
 20
-6.6282199999999998
 30
0.0
 10
1.9079200000000001
 20
-5.8661000000000003
 30
0.0
 10
3.41791
 20
-5.9802099999999996
 30
0.0
 10
3.41791
 20
-5.9802099999999996
 30
0.0
 10
4.5489800000000002
 20
-6.0656800000000004
 30
0.0
 10
4.7246899999999998
 20
-5.3523399999999999
 30
0.0
 10
4.7611999999999997
 20
-5.14574
 30
0.0
 10
4.7611999999999997
 20
-5.14574
 30
0.0
 10
4.8071400000000004
 20
-4.8856900000000003
 30
0.0
 10
4.6625800000000002
 20
-4.9070799999999997
 30
0.0
 10
4.6403400000000001
 20
-5.1847200000000004
 30
0.0
  0
SPLINE
  5
6B
100
AcDbEntity
  8
Layer 1
 62
     0
100
AcDbSpline
210
0.0
220
0.0
230
1.0
 70
     1
 71
     3
 72
    20
 73
    16
 74
     0
 42
0.0000000001
 43
0.0000000001
 40
0.0
 40
0.0
 40
0.0
 40
0.0
 40
0.25
 40
0.25
 40
0.25
 40
0.25
 40
0.5
 40
0.5
 40
0.5
 40
0.5
 40
0.75
 40
0.75
 40
0.75
 40
0.75
 40
1.0
 40
1.0
 40
1.0
 40
1.0
 10
3.5426899999999999
 20
-6.1066099999999999
 30
0.0
 10
3.4010099999999999
 20
-6.1354600000000001
 30
0.0
 10
2.8329499999999999
 20
-6.2305999999999999
 30
0.0
 10
2.8858899999999998
 20
-6.5456599999999998
 30
0.0
 10
2.8858899999999998
 20
-6.5456599999999998
 30
0.0
 10
2.9405100000000002
 20
-6.8707500000000001
 30
0.0
 10
3.4245800000000002
 20
-6.7104799999999996
 30
0.0
 10
3.21286
 20
-6.5732699999999999
 30
0.0
 10
3.21286
 20
-6.5732699999999999
 30
0.0
 10
2.99281
 20
-6.4306599999999996
 30
0.0
 10
3.25963
 20
-6.1864699999999999
 30
0.0
 10
3.4924300000000001
 20
-6.1520299999999999
 30
0.0
 10
3.4924300000000001
 20
-6.1520299999999999
 30
0.0
 10
3.6907000000000001
 20
-6.1227
 30
0.0
 10
3.7700999999999998
 20
-6.0603100000000003
 30
0.0
 10
3.5426899999999999
 20
-6.1066099999999999
 30
0.0
  0
SPLINE
  5
6C
100
AcDbEntity
  8
Layer 1
 62
     0
100
AcDbSpline
210
0.0
220
0.0
230
1.0
 70
     1
 71
     3
 72
    20
 73
    16
 74
     0
 42
0.0000000001
 43
0.0000000001
 40
0.0
 40
0.0
 40
0.0
 40
0.0
 40
0.25
 40
0.25
 40
0.25
 40
0.25
 40
0.5
 40
0.5
 40
0.5
 40
0.5
 40
0.75
 40
0.75
 40
0.75
 40
0.75
 40
1.0
 40
1.0
 40
1.0
 40
1.0
 10
2.73142
 20
-5.3400499999999997
 30
0.0
 10
2.73746
 20
-5.6594600000000002
 30
0.0
 10
3.31332
 20
-5.6482700000000001
 30
0.0
 10
3.4578899999999999
 20
-5.6505000000000001
 30
0.0
 10
3.4578899999999999
 20
-5.6505000000000001
 30
0.0
 10
3.68994
 20
-5.6540999999999997
 30
0.0
 10
3.60039
 20
-5.6074099999999998
 30
0.0
 10
3.4001199999999998
 20
-5.6151299999999997
 30
0.0
 10
3.4001199999999998
 20
-5.6151299999999997
 30
0.0
 10
3.1649600000000002
 20
-5.6241899999999996
 30
0.0
 10
2.85771
 20
-5.43337
 30
0.0
 10
3.0476999999999999
 20
-5.2526400000000004
 30
0.0
 10
3.0476999999999999
 20
-5.2526400000000004
 30
0.0
 10
3.2305000000000001
 20
-5.0787599999999999
 30
0.0
 10
2.7251799999999999
 20
-5.0104699999999998
 30
0.0
 10
2.73142
 20
-5.3400499999999997
 30
0.0
  0
ENDSEC
  0
SECTION
  2
OBJECTS
  0
DICTIONARY
  5
19
100
AcDbDictionary
280
     0
281
     1
  3
ACAD_GROUP
350
1A
  3
ACAD_MLINESTYLE
350
1B
  3
ACAD_LAYOUT
350
1E
  3
ACAD_PLOTSETTINGS
350
22
  3
ACAD_PLOTSTYLENAME
350
1F
  3
ACAD_WIPEOUT_VARS
350
23
  0
DICTIONARY
  5
1A
102
{ACAD_REACTORS
330
19
102
}
100
AcDbDictionary
280
     0
281
     1
  0
DICTIONARY
  5
1B
102
{ACAD_REACTORS
330
19
102
}
100
AcDbDictionary
280
     0
281
     1
  3
Standard
350
1C
  0
MLINESTYLE
  5
1C
102
{ACAD_REACTORS
330
1B
102
}
100
AcDbMlineStyle
  2
Standard
 70
     0
  3

 62
     0
 51
90.0
 52
90.0
 71
     2
 49
0.5
 62
   256
  6
BYLAYER
 49
-0.5
 62
   256
  6
BYLAYER
  0
ACDBDICTIONARYWDFLT
  5
1F
102
{ACAD_REACTORS
330
19
102
}
100
AcDbDictionary
281
     1
  3
Normal
350
1D
100
AcDbDictionaryWithDefault
340
1D
  0
ACDBPLACEHOLDER
  5
1D
102
{ACAD_REACTORS
330
1F
102
}
  0
LAYOUT
  5
20
102
{ACAD_REACTORS
330
1E
102
}
100
AcDbPlotSettings
  1

  2

  4

  6

 40
0.0
 41
0.0
 42
0.0
 43
0.0
 44
0.0
 45
0.0
 46
0.0
 47
0.0
 48
0.0
 49
0.0
140
0.0
141
0.0
142
1.0
143
1.0
 70
  1024
 72
     0
 73
     0
 74
     0
  7

 75
     0
147
1.0
148
0.0
149
0.0
100
AcDbLayout
  1
Model
 70
     0
 71
     0
 10
0.0
 20
0.0
 11
0.0
 21
0.0
 12
0.0
 22
0.0
 32
0.0
 14
0.0
 24
0.0
 34
0.0
 15
0.0
 25
0.0
 35
0.0
146
0.0
 13
0.0
 23
0.0
 33
0.0
 16
0.0
 26
0.0
 36
0.0
 17
0.0
 27
0.0
 37
0.0
 76
     0
330
A
331
0
345
0
346
0
  0
LAYOUT
  5
21
102
{ACAD_REACTORS
330
1E
102
}
100
AcDbPlotSettings
  1

  2

  4

  6

 40
0.0
 41
0.0
 42
0.0
 43
0.0
 44
0.0
 45
0.0
 46
0.0
 47
0.0
 48
0.0
 49
0.0
140
0.0
141
0.0
142
1.0
143
1.0
 70
     0
 72
     0
 73
     0
 74
     0
  7

 75
     0
147
1.0
148
0.0
149
0.0
100
AcDbLayout
  1
Layout1
 70
     0
 71
     0
 10
0.0
 20
0.0
 11
0.0
 21
0.0
 12
0.0
 22
0.0
 32
0.0
 14
0.0
 24
0.0
 34
0.0
 15
0.0
 25
0.0
 35
0.0
146
0.0
 13
0.0
 23
0.0
 33
0.0
 16
0.0
 26
0.0
 36
0.0
 17
0.0
 27
0.0
 37
0.0
 76
     0
330
B
331
0
345
0
346
0
  0
DICTIONARY
  5
1E
102
{ACAD_REACTORS
330
19
102
}
100
AcDbDictionary
280
     0
281
     1
  3
Layout1
350
21
  3
Model
350
20
  0
DICTIONARY
  5
22
102
{ACAD_REACTORS
330
19
102
}
100
AcDbDictionary
280
     0
281
     1
  0
WIPEOUTVARIABLES
  5
23
100
AcDbWipeoutVariables
 70
     1
  0
ENDSEC
  0
EOF
