  0
SECTION
  2
HEADER
  9
$ACADVER
  1
AC1014
  9
$HANDSEED
  5
FFFF
  9
$MEASUREMENT
 70
     1
  0
ENDSEC
  0
SECTION
  2
TABLES
  0
TABLE
  2
VPORT
  5
8
330
0
100
AcDbSymbolTable
 70
     4
  0
VPORT
  5
2E
330
8
100
AcDbSymbolTableRecord
100
AcDbViewportTableRecord
  2
*ACTIVE
 70
     0
 10
0.0
 20
0.0
 11
1.0
 21
1.0
 12
210.0
 22
148.5
 13
0.0
 23
0.0
 14
10.0
 24
10.0
 15
10.0
 25
10.0
 16
0.0
 26
0.0
 36
1.0
 17
0.0
 27
0.0
 37
0.0
 40
341.0
 41
1.24
 42
50.0
 43
0.0
 44
0.0
 50
0.0
 51
0.0
 71
     0
 72
   100
 73
     1
 74
     3
 75
     0
 76
     0
 77
     0
 78
     0
  0
ENDTAB
  0
TABLE
  2
LTYPE
  5
5
330
0
100
AcDbSymbolTable
 70
     1
  0
LTYPE
  5
14
330
5
100
AcDbSymbolTableRecord
100
AcDbLinetypeTableRecord
  2
BYBLOCK
 70
     0
  3

 72
    65
 73
     0
 40
0.0
  0
LTYPE
  5
15
330
5
100
AcDbSymbolTableRecord
100
AcDbLinetypeTableRecord
  2
BYLAYER
 70
     0
  3

 72
    65
 73
     0
 40
0.0
  0
LTYPE
  5
16
330
5
100
AcDbSymbolTableRecord
100
AcDbLinetypeTableRecord
  2
CONTINUOUS
 70
     0
  3
Solid line
 72
    65
 73
     0
 40
0.0
  0
ENDTAB
  0
TABLE
  2
LAYER
  5
2
100
AcDbSymbolTable
 70
1
  0
LAYER
  5
50
100
AcDbSymbolTableRecord
100
AcDbLayerTableRecord
  2
0
 70
0
  6
CONTINUOUS
  0
ENDTAB
  0
TABLE
  2
STYLE
  5
3
330
0
100
AcDbSymbolTable
 70
     1
  0
STYLE
  5
11
330
3
100
AcDbSymbolTableRecord
100
AcDbTextStyleTableRecord
  2
STANDARD
 70
     0
 40
0.0
 41
1.0
 50
0.0
 71
     0
 42
2.5
  3
txt
  4

  0
ENDTAB
  0
TABLE
  2
VIEW
  5
6
330
0
100
AcDbSymbolTable
 70
     0
  0
ENDTAB
  0
TABLE
  2
UCS
  5
7
330
0
100
AcDbSymbolTable
 70
     0
  0
ENDTAB
  0
TABLE
  2
APPID
  5
9
330
0
100
AcDbSymbolTable
 70
     2
  0
APPID
  5
12
330
9
100
AcDbSymbolTableRecord
100
AcDbRegAppTableRecord
  2
ACAD
 70
     0
  0
ENDTAB
  0
TABLE
  2
DIMSTYLE
  5
A
330
0
100
AcDbSymbolTable
 70
     1
  0
DIMSTYLE
105
27
330
A
100
AcDbSymbolTableRecord
100
AcDbDimStyleTableRecord
  2
ISO-25
 70
     0
  3

  4

  5

  6

  7

 40
1.0
 41
2.5
 42
0.625
 43
3.75
 44
1.25
 45
0.0
 46
0.0
 47
0.0
 48
0.0
140
2.5
141
2.5
142
0.0
143
0.03937007874016
144
1.0
145
0.0
146
1.0
147
0.625
 71
     0
 72
     0
 73
     0
 74
     0
 75
     0
 76
     0
 77
     1
 78
     8
170
     0
171
     3
172
     1
173
     0
174
     0
175
     0
176
     0
177
     0
178
     0
270
     2
271
     2
272
     2
273
     2
274
     3
340
11
275
     0
280
     0
281
     0
282
     0
283
     0
284
     8
285
     0
286
     0
287
     3
288
     0
  0
ENDTAB
  0
TABLE
  2
BLOCK_RECORD
  5
1
330
0
100
AcDbSymbolTable
 70
     1
  0
BLOCK_RECORD
  5
1F
330
1
100
AcDbSymbolTableRecord
100
AcDbBlockTableRecord
  2
*MODEL_SPACE
  0
BLOCK_RECORD
  5
1B
330
1
100
AcDbSymbolTableRecord
100
AcDbBlockTableRecord
  2
*PAPER_SPACE
  0
ENDTAB
  0
ENDSEC
  0
SECTION
  2
BLOCKS
  0
BLOCK
  5
20
330
1F
100
AcDbEntity
  8
0
100
AcDbBlockBegin
  2
*MODEL_SPACE
 70
     0
 10
0.0
 20
0.0
 30
0.0
  3
*MODEL_SPACE
  1

  0
ENDBLK
  5
21
330
1F
100
AcDbEntity
  8
0
100
AcDbBlockEnd
  0
BLOCK
  5
1C
330
1B
100
AcDbEntity
 67
     1
  8
0
100
AcDbBlockBegin
  2
*PAPER_SPACE
  1

  0
ENDBLK
  5
1D
330
1B
100
AcDbEntity
 67
     1
  8
0
100
AcDbBlockEnd
  0
ENDSEC
  0
SECTION
  2
ENTITIES
  0
SPLINE
  5
100
100
AcDbEntity
  8
0
 62
7
100
AcDbSpline
 70
8
 71
3
 72
8
 73
4
 74
0
 40
0
 40
0
 40
0
 40
0
 40
1
 40
1
 40
1
 40
1
 10
34.463101
 20
5.116772
 30
0.0
 10
30.572443
 20
5.822453
 30
0.0
 10
27.178122
 20
7.200598
 30
0.0
 10
23.406202
 20
9.606042
 30
0.0
  0
SPLINE
  5
101
100
AcDbEntity
  8
0
 62
7
100
AcDbSpline
 70
8
 71
3
 72
8
 73
4
 74
0
 40
0
 40
0
 40
0
 40
0
 40
1
 40
1
 40
1
 40
1
 10
23.406202
 20
9.606042
 30
0.0
 10
16.986670
 20
13.699929
 30
0.0
 10
11.174520
 20
21.454237
 30
0.0
 10
8.547684
 20
29.429602
 30
0.0
  0
SPLINE
  5
102
100
AcDbEntity
  8
0
 62
7
100
AcDbSpline
 70
8
 71
3
 72
8
 73
4
 74
0
 40
0
 40
0
 40
0
 40
0
 40
1
 40
1
 40
1
 40
1
 10
8.547684
 20
29.429602
 30
0.0
 10
6.216498
 20
36.507343
 30
0.0
 10
5.732962
 20
39.622537
 30
0.0
 10
5.734507
 20
47.553560
 30
0.0
  0
SPLINE
  5
103
100
AcDbEntity
  8
0
 62
7
100
AcDbSpline
 70
8
 71
3
 72
8
 73
4
 74
0
 40
0
 40
0
 40
0
 40
0
 40
1
 40
1
 40
1
 40
1
 10
5.734507
 20
47.553560
 30
0.0
 10
5.735565
 20
53.247195
 30
0.0
 10
5.812453
 20
54.451216
 30
0.0
 10
6.366051
 20
57.449908
 30
0.0
  0
SPLINE
  5
104
100
AcDbEntity
  8
0
 62
7
100
AcDbSpline
 70
8
 71
3
 72
8
 73
4
 74
0
 40
0
 40
0
 40
0
 40
0
 40
1
 40
1
 40
1
 40
1
 10
6.366051
 20
57.449908
 30
0.0
 10
7.412153
 20
63.116352
 30
0.0
 10
10.888349
 20
71.831626
 30
0.0
 10
13.833882
 20
76.172732
 30
0.0
  0
SPLINE
  5
105
100
AcDbEntity
  8
0
 62
7
100
AcDbSpline
 70
8
 71
3
 72
8
 73
4
 74
0
 40
0
 40
0
 40
0
 40
0
 40
1
 40
1
 40
1
 40
1
 10
13.833882
 20
76.172732
 30
0.0
 10
15.431790
 20
78.527719
 30
0.0
 10
20.326630
 20
88.220113
 30
0.0
 10
21.096861
 20
90.554342
 30
0.0
  0
SPLINE
  5
106
100
AcDbEntity
  8
0
 62
7
100
AcDbSpline
 70
8
 71
3
 72
8
 73
4
 74
0
 40
0
 40
0
 40
0
 40
0
 40
1
 40
1
 40
1
 40
1
 10
21.096861
 20
90.554342
 30
0.0
 10
22.238072
 20
94.012835
 30
0.0
 10
21.819081
 20
96.722988
 30
0.0
 10
19.420696
 20
101.396268
 30
0.0
  0
SPLINE
  5
107
100
AcDbEntity
  8
0
 62
7
100
AcDbSpline
 70
8
 71
3
 72
8
 73
4
 74
0
 40
0
 40
0
 40
0
 40
0
 40
1
 40
1
 40
1
 40
1
 10
19.420696
 20
101.396268
 30
0.0
 10
17.141213
 20
105.837874
 30
0.0
 10
13.451551
 20
110.469831
 30
0.0
 10
10.877015
 20
112.121908
 30
0.0
  0
SPLINE
  5
108
100
AcDbEntity
  8
0
 62
7
100
AcDbSpline
 70
8
 71
3
 72
8
 73
4
 74
0
 40
0
 40
0
 40
0
 40
0
 40
1
 40
1
 40
1
 40
1
 10
10.877015
 20
112.121908
 30
0.0
 10
10.148858
 20
112.589164
 30
0.0
 10
9.437769
 20
113.186951
 30
0.0
 10
9.296815
 20
113.450325
 30
0.0
  0
SPLINE
  5
109
100
AcDbEntity
  8
0
 62
7
100
AcDbSpline
 70
8
 71
3
 72
8
 73
4
 74
0
 40
0
 40
0
 40
0
 40
0
 40
1
 40
1
 40
1
 40
1
 10
9.296815
 20
113.450325
 30
0.0
 10
8.443385
 20
115.044977
 30
0.0
 10
9.540438
 20
116.193983
 30
0.0
 10
14.094753
 20
118.475485
 30
0.0
  0
SPLINE
  5
10a
100
AcDbEntity
  8
0
 62
7
100
AcDbSpline
 70
8
 71
3
 72
8
 73
4
 74
0
 40
0
 40
0
 40
0
 40
0
 40
1
 40
1
 40
1
 40
1
 10
14.094753
 20
118.475485
 30
0.0
 10
16.105070
 20
119.482563
 30
0.0
 10
18.379884
 20
120.712661
 30
0.0
 10
19.149895
 20
121.209041
 30
0.0
  0
SPLINE
  5
10b
100
AcDbEntity
  8
0
 62
7
100
AcDbSpline
 70
8
 71
3
 72
8
 73
4
 74
0
 40
0
 40
0
 40
0
 40
0
 40
1
 40
1
 40
1
 40
1
 10
19.149895
 20
121.209041
 30
0.0
 10
21.757383
 20
122.889933
 30
0.0
 10
25.776935
 20
126.487539
 30
0.0
 10
27.887038
 20
129.029021
 30
0.0
  0
SPLINE
  5
10c
100
AcDbEntity
  8
0
 62
7
100
AcDbSpline
 70
8
 71
3
 72
8
 73
4
 74
0
 40
0
 40
0
 40
0
 40
0
 40
1
 40
1
 40
1
 40
1
 10
27.887038
 20
129.029021
 30
0.0
 10
31.313927
 20
133.156486
 30
0.0
 10
32.052670
 20
134.370215
 30
0.0
 10
38.284007
 20
146.110852
 30
0.0
  0
SPLINE
  5
10d
100
AcDbEntity
  8
0
 62
7
100
AcDbSpline
 70
8
 71
3
 72
8
 73
4
 74
0
 40
0
 40
0
 40
0
 40
0
 40
1
 40
1
 40
1
 40
1
 10
38.284007
 20
146.110852
 30
0.0
 10
40.473604
 20
150.236331
 30
0.0
 10
43.116495
 20
153.859261
 30
0.0
 10
46.214496
 20
156.982134
 30
0.0
  0
SPLINE
  5
10e
100
AcDbEntity
  8
0
 62
7
100
AcDbSpline
 70
8
 71
3
 72
8
 73
4
 74
0
 40
0
 40
0
 40
0
 40
0
 40
1
 40
1
 40
1
 40
1
 10
46.214496
 20
156.982134
 30
0.0
 10
52.506065
 20
163.324212
 30
0.0
 10
58.459008
 20
165.926450
 30
0.0
 10
66.719704
 20
165.945674
 30
0.0
  0
SPLINE
  5
10f
100
AcDbEntity
  8
0
 62
7
100
AcDbSpline
 70
8
 71
3
 72
8
 73
4
 74
0
 40
0
 40
0
 40
0
 40
0
 40
1
 40
1
 40
1
 40
1
 10
66.719704
 20
165.945674
 30
0.0
 10
70.231606
 20
165.953847
 30
0.0
 10
70.663943
 20
165.901537
 30
0.0
 10
71.830192
 20
165.327333
 30
0.0
  0
SPLINE
  5
110
100
AcDbEntity
  8
0
 62
7
100
AcDbSpline
 70
8
 71
3
 72
8
 73
4
 74
0
 40
0
 40
0
 40
0
 40
0
 40
1
 40
1
 40
1
 40
1
 10
71.830192
 20
165.327333
 30
0.0
 10
74.599416
 20
163.963902
 30
0.0
 10
78.209217
 20
159.340092
 30
0.0
 10
79.342909
 20
155.704260
 30
0.0
  0
SPLINE
  5
111
100
AcDbEntity
  8
0
 62
7
100
AcDbSpline
 70
8
 71
3
 72
8
 73
4
 74
0
 40
0
 40
0
 40
0
 40
0
 40
1
 40
1
 40
1
 40
1
 10
79.342909
 20
155.704260
 30
0.0
 10
79.603428
 20
154.868759
 30
0.0
 10
79.949598
 20
154.184150
 30
0.0
 10
80.112179
 20
154.182906
 30
0.0
  0
SPLINE
  5
112
100
AcDbEntity
  8
0
 62
7
100
AcDbSpline
 70
8
 71
3
 72
8
 73
4
 74
0
 40
0
 40
0
 40
0
 40
0
 40
1
 40
1
 40
1
 40
1
 10
80.112179
 20
154.182906
 30
0.0
 10
80.274761
 20
154.181662
 30
0.0
 10
81.227261
 20
154.974226
 30
0.0
 10
82.228846
 20
155.944161
 30
0.0
  0
SPLINE
  5
113
100
AcDbEntity
  8
0
 62
7
100
AcDbSpline
 70
8
 71
3
 72
8
 73
4
 74
0
 40
0
 40
0
 40
0
 40
0
 40
1
 40
1
 40
1
 40
1
 10
82.228846
 20
155.944161
 30
0.0
 10
85.850090
 20
159.450967
 30
0.0
 10
90.635286
 20
162.511348
 30
0.0
 10
94.911706
 20
164.055510
 30
0.0
  0
SPLINE
  5
114
100
AcDbEntity
  8
0
 62
7
100
AcDbSpline
 70
8
 71
3
 72
8
 73
4
 74
0
 40
0
 40
0
 40
0
 40
0
 40
1
 40
1
 40
1
 40
1
 10
94.911706
 20
164.055510
 30
0.0
 10
97.004603
 20
164.811228
 30
0.0
 10
98.085563
 20
165.038614
 30
0.0
 10
100.189496
 20
165.165721
 30
0.0
  0
SPLINE
  5
115
100
AcDbEntity
  8
0
 62
7
100
AcDbSpline
 70
8
 71
3
 72
8
 73
4
 74
0
 40
0
 40
0
 40
0
 40
0
 40
1
 40
1
 40
1
 40
1
 10
100.189496
 20
165.165721
 30
0.0
 10
103.729965
 20
165.379616
 30
0.0
 10
107.024339
 20
165.004774
 30
0.0
 10
108.816756
 20
164.184091
 30
0.0
  0
SPLINE
  5
116
100
AcDbEntity
  8
0
 62
7
100
AcDbSpline
 70
8
 71
3
 72
8
 73
4
 74
0
 40
0
 40
0
 40
0
 40
0
 40
1
 40
1
 40
1
 40
1
 10
108.816756
 20
164.184091
 30
0.0
 10
112.500640
 20
162.497377
 30
0.0
 10
115.299580
 20
158.022809
 30
0.0
 10
118.963443
 20
147.962936
 30
0.0
  0
SPLINE
  5
117
100
AcDbEntity
  8
0
 62
7
100
AcDbSpline
 70
8
 71
3
 72
8
 73
4
 74
0
 40
0
 40
0
 40
0
 40
0
 40
1
 40
1
 40
1
 40
1
 10
118.963443
 20
147.962936
 30
0.0
 10
119.440439
 20
146.653248
 30
0.0
 10
120.131353
 20
144.807779
 30
0.0
 10
120.498812
 20
143.861893
 30
0.0
  0
SPLINE
  5
118
100
AcDbEntity
  8
0
 62
7
100
AcDbSpline
 70
8
 71
3
 72
8
 73
4
 74
0
 40
0
 40
0
 40
0
 40
0
 40
1
 40
1
 40
1
 40
1
 10
120.498812
 20
143.861893
 30
0.0
 10
120.866268
 20
142.916008
 30
0.0
 10
121.493251
 20
141.249133
 30
0.0
 10
121.892108
 20
140.157727
 30
0.0
  0
SPLINE
  5
119
100
AcDbEntity
  8
0
 62
7
100
AcDbSpline
 70
8
 71
3
 72
8
 73
4
 74
0
 40
0
 40
0
 40
0
 40
0
 40
1
 40
1
 40
1
 40
1
 10
121.892108
 20
140.157727
 30
0.0
 10
125.079522
 20
131.435856
 30
0.0
 10
127.996289
 20
126.469881
 30
0.0
 10
132.278591
 20
122.474093
 30
0.0
  0
SPLINE
  5
11a
100
AcDbEntity
  8
0
 62
7
100
AcDbSpline
 70
8
 71
3
 72
8
 73
4
 74
0
 40
0
 40
0
 40
0
 40
0
 40
1
 40
1
 40
1
 40
1
 10
132.278591
 20
122.474093
 30
0.0
 10
134.044362
 20
120.826464
 30
0.0
 10
139.801695
 20
115.937506
 30
0.0
 10
141.957359
 20
114.255169
 30
0.0
  0
SPLINE
  5
11b
100
AcDbEntity
  8
0
 62
7
100
AcDbSpline
 70
8
 71
3
 72
8
 73
4
 74
0
 40
0
 40
0
 40
0
 40
0
 40
1
 40
1
 40
1
 40
1
 10
141.957359
 20
114.255169
 30
0.0
 10
142.777689
 20
113.614959
 30
0.0
 10
143.448871
 20
112.940632
 30
0.0
 10
143.448871
 20
112.756664
 30
0.0
  0
SPLINE
  5
11c
100
AcDbEntity
  8
0
 62
7
100
AcDbSpline
 70
8
 71
3
 72
8
 73
4
 74
0
 40
0
 40
0
 40
0
 40
0
 40
1
 40
1
 40
1
 40
1
 10
143.448871
 20
112.756664
 30
0.0
 10
143.448871
 20
112.162611
 30
0.0
 10
140.303718
 20
108.598922
 30
0.0
 10
132.441876
 20
100.284931
 30
0.0
  0
SPLINE
  5
11d
100
AcDbEntity
  8
0
 62
7
100
AcDbSpline
 70
8
 71
3
 72
8
 73
4
 74
0
 40
0
 40
0
 40
0
 40
0
 40
1
 40
1
 40
1
 40
1
 10
132.441876
 20
100.284931
 30
0.0
 10
128.488895
 20
96.104609
 30
0.0
 10
126.394366
 20
93.629805
 30
0.0
 10
122.543612
 20
88.589593
 30
0.0
  0
SPLINE
  5
11e
100
AcDbEntity
  8
0
 62
7
100
AcDbSpline
 70
8
 71
3
 72
8
 73
4
 74
0
 40
0
 40
0
 40
0
 40
0
 40
1
 40
1
 40
1
 40
1
 10
122.543612
 20
88.589593
 30
0.0
 10
121.609593
 20
87.367062
 30
0.0
 10
118.202242
 20
82.103502
 30
0.0
 10
117.586673
 20
80.932282
 30
0.0
  0
SPLINE
  5
11f
100
AcDbEntity
  8
0
 62
7
100
AcDbSpline
 70
8
 71
3
 72
8
 73
4
 74
0
 40
0
 40
0
 40
0
 40
0
 40
1
 40
1
 40
1
 40
1
 10
117.586673
 20
80.932282
 30
0.0
 10
117.405224
 20
80.587046
 30
0.0
 10
117.025473
 20
79.870991
 30
0.0
 10
116.742782
 20
79.341049
 30
0.0
  0
SPLINE
  5
120
100
AcDbEntity
  8
0
 62
7
100
AcDbSpline
 70
8
 71
3
 72
8
 73
4
 74
0
 40
0
 40
0
 40
0
 40
0
 40
1
 40
1
 40
1
 40
1
 10
116.742782
 20
79.341049
 30
0.0
 10
115.198078
 20
76.445311
 30
0.0
 10
114.247874
 20
73.957987
 30
0.0
 10
112.483286
 20
68.191060
 30
0.0
  0
SPLINE
  5
121
100
AcDbEntity
  8
0
 62
7
100
AcDbSpline
 70
8
 71
3
 72
8
 73
4
 74
0
 40
0
 40
0
 40
0
 40
0
 40
1
 40
1
 40
1
 40
1
 10
112.483286
 20
68.191060
 30
0.0
 10
109.304275
 20
57.801589
 30
0.0
 10
105.058517
 20
49.052684
 30
0.0
 10
99.835914
 20
42.129602
 30
0.0
  0
SPLINE
  5
122
100
AcDbEntity
  8
0
 62
7
100
AcDbSpline
 70
8
 71
3
 72
8
 73
4
 74
0
 40
0
 40
0
 40
0
 40
0
 40
1
 40
1
 40
1
 40
1
 10
99.835914
 20
42.129602
 30
0.0
 10
97.052985
 20
38.440550
 30
0.0
 10
90.284737
 20
32.186994
 30
0.0
 10
87.409652
 20
30.648296
 30
0.0
  0
SPLINE
  5
123
100
AcDbEntity
  8
0
 62
7
100
AcDbSpline
 70
8
 71
3
 72
8
 73
4
 74
0
 40
0
 40
0
 40
0
 40
0
 40
1
 40
1
 40
1
 40
1
 10
87.409652
 20
30.648296
 30
0.0
 10
86.550090
 20
30.188270
 30
0.0
 10
86.393615
 20
30.851411
 30
0.0
 10
86.927769
 20
32.690533
 30
0.0
  0
SPLINE
  5
124
100
AcDbEntity
  8
0
 62
7
100
AcDbSpline
 70
8
 71
3
 72
8
 73
4
 74
0
 40
0
 40
0
 40
0
 40
0
 40
1
 40
1
 40
1
 40
1
 10
86.927769
 20
32.690533
 30
0.0
 10
87.167633
 20
33.516395
 30
0.0
 10
87.470054
 20
34.846945
 30
0.0
 10
87.599814
 20
35.647310
 30
0.0
  0
SPLINE
  5
125
100
AcDbEntity
  8
0
 62
7
100
AcDbSpline
 70
8
 71
3
 72
8
 73
4
 74
0
 40
0
 40
0
 40
0
 40
0
 40
1
 40
1
 40
1
 40
1
 10
87.599814
 20
35.647310
 30
0.0
 10
87.970140
 20
37.931500
 30
0.0
 10
88.605894
 20
40.881692
 30
0.0
 10
89.224784
 20
43.187935
 30
0.0
  0
SPLINE
  5
126
100
AcDbEntity
  8
0
 62
7
100
AcDbSpline
 70
8
 71
3
 72
8
 73
4
 74
0
 40
0
 40
0
 40
0
 40
0
 40
1
 40
1
 40
1
 40
1
 10
89.224784
 20
43.187935
 30
0.0
 10
89.537193
 20
44.352102
 30
0.0
 10
89.885229
 20
45.721320
 30
0.0
 10
89.998195
 20
46.230643
 30
0.0
  0
SPLINE
  5
127
100
AcDbEntity
  8
0
 62
7
100
AcDbSpline
 70
8
 71
3
 72
8
 73
4
 74
0
 40
0
 40
0
 40
0
 40
0
 40
1
 40
1
 40
1
 40
1
 10
89.998195
 20
46.230643
 30
0.0
 10
90.383815
 20
47.969273
 30
0.0
 10
92.618751
 20
55.354731
 30
0.0
 10
93.320944
 20
57.210852
 30
0.0
  0
SPLINE
  5
128
100
AcDbEntity
  8
0
 62
7
100
AcDbSpline
 70
8
 71
3
 72
8
 73
4
 74
0
 40
0
 40
0
 40
0
 40
0
 40
1
 40
1
 40
1
 40
1
 10
93.320944
 20
57.210852
 30
0.0
 10
93.706312
 20
58.229497
 30
0.0
 10
94.491260
 20
60.432154
 30
0.0
 10
95.065271
 20
62.105643
 30
0.0
  0
SPLINE
  5
129
100
AcDbEntity
  8
0
 62
7
100
AcDbSpline
 70
8
 71
3
 72
8
 73
4
 74
0
 40
0
 40
0
 40
0
 40
0
 40
1
 40
1
 40
1
 40
1
 10
95.065271
 20
62.105643
 30
0.0
 10
95.639281
 20
63.779133
 30
0.0
 10
96.282915
 20
65.594836
 30
0.0
 10
96.495566
 20
66.140539
 30
0.0
  0
SPLINE
  5
12a
100
AcDbEntity
  8
0
 62
7
100
AcDbSpline
 70
8
 71
3
 72
8
 73
4
 74
0
 40
0
 40
0
 40
0
 40
0
 40
1
 40
1
 40
1
 40
1
 10
96.495566
 20
66.140539
 30
0.0
 10
96.708217
 20
66.686242
 30
0.0
 10
97.053792
 20
67.579211
 30
0.0
 10
97.263511
 20
68.124914
 30
0.0
  0
SPLINE
  5
12b
100
AcDbEntity
  8
0
 62
7
100
AcDbSpline
 70
8
 71
3
 72
8
 73
4
 74
0
 40
0
 40
0
 40
0
 40
0
 40
1
 40
1
 40
1
 40
1
 10
97.263511
 20
68.124914
 30
0.0
 10
98.424852
 20
71.146813
 30
0.0
 10
102.553003
 20
80.497005
 30
0.0
 10
103.431277
 20
82.094795
 30
0.0
  0
SPLINE
  5
12c
100
AcDbEntity
  8
0
 62
7
100
AcDbSpline
 70
8
 71
3
 72
8
 73
4
 74
0
 40
0
 40
0
 40
0
 40
0
 40
1
 40
1
 40
1
 40
1
 10
103.431277
 20
82.094795
 30
0.0
 10
105.942069
 20
86.662540
 30
0.0
 10
109.036488
 20
90.385448
 30
0.0
 10
117.388166
 20
98.886375
 30
0.0
  0
SPLINE
  5
12d
100
AcDbEntity
  8
0
 62
7
100
AcDbSpline
 70
8
 71
3
 72
8
 73
4
 74
0
 40
0
 40
0
 40
0
 40
0
 40
1
 40
1
 40
1
 40
1
 10
117.388166
 20
98.886375
 30
0.0
 10
123.483690
 20
105.090830
 30
0.0
 10
128.103037
 20
110.450670
 30
0.0
 10
128.103037
 20
111.318865
 30
0.0
  0
SPLINE
  5
12e
100
AcDbEntity
  8
0
 62
7
100
AcDbSpline
 70
8
 71
3
 72
8
 73
4
 74
0
 40
0
 40
0
 40
0
 40
0
 40
1
 40
1
 40
1
 40
1
 10
128.103037
 20
111.318865
 30
0.0
 10
128.103037
 20
111.463989
 30
0.0
 10
127.597022
 20
111.585108
 30
0.0
 10
126.978558
 20
111.588016
 30
0.0
  0
SPLINE
  5
12f
100
AcDbEntity
  8
0
 62
7
100
AcDbSpline
 70
8
 71
3
 72
8
 73
4
 74
0
 40
0
 40
0
 40
0
 40
0
 40
1
 40
1
 40
1
 40
1
 10
126.978558
 20
111.588016
 30
0.0
 10
125.022433
 20
111.597223
 30
0.0
 10
121.687021
 20
112.267037
 30
0.0
 10
119.768662
 20
113.035908
 30
0.0
  0
SPLINE
  5
130
100
AcDbEntity
  8
0
 62
7
100
AcDbSpline
 70
8
 71
3
 72
8
 73
4
 74
0
 40
0
 40
0
 40
0
 40
0
 40
1
 40
1
 40
1
 40
1
 10
119.768662
 20
113.035908
 30
0.0
 10
115.413443
 20
114.781468
 30
0.0
 10
112.802794
 20
117.445573
 30
0.0
 10
109.310739
 20
123.707964
 30
0.0
  0
SPLINE
  5
131
100
AcDbEntity
  8
0
 62
7
100
AcDbSpline
 70
8
 71
3
 72
8
 73
4
 74
0
 40
0
 40
0
 40
0
 40
0
 40
1
 40
1
 40
1
 40
1
 10
109.310739
 20
123.707964
 30
0.0
 10
107.957850
 20
126.134135
 30
0.0
 10
106.407003
 20
128.721461
 30
0.0
 10
105.864409
 20
129.457580
 30
0.0
  0
SPLINE
  5
132
100
AcDbEntity
  8
0
 62
7
100
AcDbSpline
 70
8
 71
3
 72
8
 73
4
 74
0
 40
0
 40
0
 40
0
 40
0
 40
1
 40
1
 40
1
 40
1
 10
105.864409
 20
129.457580
 30
0.0
 10
103.930289
 20
132.081524
 30
0.0
 10
101.516460
 20
133.815172
 30
0.0
 10
98.105709
 20
135.029988
 30
0.0
  0
SPLINE
  5
133
100
AcDbEntity
  8
0
 62
7
100
AcDbSpline
 70
8
 71
3
 72
8
 73
4
 74
0
 40
0
 40
0
 40
0
 40
0
 40
1
 40
1
 40
1
 40
1
 10
98.105709
 20
135.029988
 30
0.0
 10
97.518739
 20
135.239051
 30
0.0
 10
96.047182
 20
135.395227
 30
0.0
 10
94.664265
 20
135.395227
 30
0.0
  0
SPLINE
  5
134
100
AcDbEntity
  8
0
 62
7
100
AcDbSpline
 70
8
 71
3
 72
8
 73
4
 74
0
 40
0
 40
0
 40
0
 40
0
 40
1
 40
1
 40
1
 40
1
 10
94.664265
 20
135.395227
 30
0.0
 10
92.318700
 20
135.395227
 30
0.0
 10
91.043440
 20
135.133186
 30
0.0
 10
86.232725
 20
133.662711
 30
0.0
  0
SPLINE
  5
135
100
AcDbEntity
  8
0
 62
7
100
AcDbSpline
 70
8
 71
3
 72
8
 73
4
 74
0
 40
0
 40
0
 40
0
 40
0
 40
1
 40
1
 40
1
 40
1
 10
86.232725
 20
133.662711
 30
0.0
 10
85.541501
 20
133.451428
 30
0.0
 10
84.410407
 20
133.107269
 30
0.0
 10
83.719183
 20
132.897912
 30
0.0
  0
SPLINE
  5
136
100
AcDbEntity
  8
0
 62
7
100
AcDbSpline
 70
8
 71
3
 72
8
 73
4
 74
0
 40
0
 40
0
 40
0
 40
0
 40
1
 40
1
 40
1
 40
1
 10
83.719183
 20
132.897912
 30
0.0
 10
83.027959
 20
132.688555
 30
0.0
 10
81.509912
 20
132.211641
 30
0.0
 10
80.345746
 20
131.838102
 30
0.0
  0
SPLINE
  5
137
100
AcDbEntity
  8
0
 62
7
100
AcDbSpline
 70
8
 71
3
 72
8
 73
4
 74
0
 40
0
 40
0
 40
0
 40
0
 40
1
 40
1
 40
1
 40
1
 10
80.345746
 20
131.838102
 30
0.0
 10
77.237185
 20
130.840673
 30
0.0
 10
73.554016
 20
130.454392
 30
0.0
 10
70.875115
 20
130.844846
 30
0.0
  0
SPLINE
  5
138
100
AcDbEntity
  8
0
 62
7
100
AcDbSpline
 70
8
 71
3
 72
8
 73
4
 74
0
 40
0
 40
0
 40
0
 40
0
 40
1
 40
1
 40
1
 40
1
 10
70.875115
 20
130.844846
 30
0.0
 10
69.042235
 20
131.111993
 30
0.0
 10
68.127814
 20
131.459237
 30
0.0
 10
64.753149
 20
133.169618
 30
0.0
  0
SPLINE
  5
139
100
AcDbEntity
  8
0
 62
7
100
AcDbSpline
 70
8
 71
3
 72
8
 73
4
 74
0
 40
0
 40
0
 40
0
 40
0
 40
1
 40
1
 40
1
 40
1
 10
64.753149
 20
133.169618
 30
0.0
 10
59.906702
 20
135.625943
 30
0.0
 10
58.715312
 20
136.073576
 30
0.0
 10
55.995266
 20
136.460166
 30
0.0
  0
SPLINE
  5
13a
100
AcDbEntity
  8
0
 62
7
100
AcDbSpline
 70
8
 71
3
 72
8
 73
4
 74
0
 40
0
 40
0
 40
0
 40
0
 40
1
 40
1
 40
1
 40
1
 10
55.995266
 20
136.460166
 30
0.0
 10
52.428111
 20
136.967153
 30
0.0
 10
48.764293
 20
136.239914
 30
0.0
 10
44.230121
 20
134.124883
 30
0.0
  0
SPLINE
  5
13b
100
AcDbEntity
  8
0
 62
7
100
AcDbSpline
 70
8
 71
3
 72
8
 73
4
 74
0
 40
0
 40
0
 40
0
 40
0
 40
1
 40
1
 40
1
 40
1
 10
44.230121
 20
134.124883
 30
0.0
 10
42.042995
 20
133.104665
 30
0.0
 10
36.314441
 20
129.429944
 30
0.0
 10
33.911371
 20
127.505669
 30
0.0
  0
SPLINE
  5
13c
100
AcDbEntity
  8
0
 62
7
100
AcDbSpline
 70
8
 71
3
 72
8
 73
4
 74
0
 40
0
 40
0
 40
0
 40
0
 40
1
 40
1
 40
1
 40
1
 10
33.911371
 20
127.505669
 30
0.0
 10
28.689848
 20
123.324496
 30
0.0
 10
20.153037
 20
115.247367
 30
0.0
 10
20.153037
 20
114.488177
 30
0.0
  0
SPLINE
  5
13d
100
AcDbEntity
  8
0
 62
7
100
AcDbSpline
 70
8
 71
3
 72
8
 73
4
 74
0
 40
0
 40
0
 40
0
 40
0
 40
1
 40
1
 40
1
 40
1
 10
20.153037
 20
114.488177
 30
0.0
 10
20.153037
 20
114.100335
 30
0.0
 10
26.435660
 20
103.611908
 30
0.0
 10
27.020568
 20
103.023284
 30
0.0
  0
SPLINE
  5
13e
100
AcDbEntity
  8
0
 62
7
100
AcDbSpline
 70
8
 71
3
 72
8
 73
4
 74
0
 40
0
 40
0
 40
0
 40
0
 40
1
 40
1
 40
1
 40
1
 10
27.020568
 20
103.023284
 30
0.0
 10
27.143575
 20
102.899496
 30
0.0
 10
28.893154
 20
103.872988
 30
0.0
 10
30.908522
 20
105.186596
 30
0.0
  0
SPLINE
  5
13f
100
AcDbEntity
  8
0
 62
7
100
AcDbSpline
 70
8
 71
3
 72
8
 73
4
 74
0
 40
0
 40
0
 40
0
 40
0
 40
1
 40
1
 40
1
 40
1
 10
30.908522
 20
105.186596
 30
0.0
 10
32.923890
 20
106.500208
 30
0.0
 10
36.928396
 20
109.101800
 30
0.0
 10
39.807425
 20
110.967914
 30
0.0
  0
SPLINE
  5
140
100
AcDbEntity
  8
0
 62
7
100
AcDbSpline
 70
8
 71
3
 72
8
 73
4
 74
0
 40
0
 40
0
 40
0
 40
0
 40
1
 40
1
 40
1
 40
1
 10
39.807425
 20
110.967914
 30
0.0
 10
42.686452
 20
112.834031
 30
0.0
 10
46.198795
 20
115.171307
 30
0.0
 10
47.612633
 20
116.161862
 30
0.0
  0
SPLINE
  5
141
100
AcDbEntity
  8
0
 62
7
100
AcDbSpline
 70
8
 71
3
 72
8
 73
4
 74
0
 40
0
 40
0
 40
0
 40
0
 40
1
 40
1
 40
1
 40
1
 10
50.831459
 20
117.087904
 30
0.0
 10
51.952837
 20
115.574247
 30
0.0
 10
54.153668
 20
113.594687
 30
0.0
 10
55.538180
 20
112.854388
 30
0.0
  0
SPLINE
  5
142
100
AcDbEntity
  8
0
 62
7
100
AcDbSpline
 70
8
 71
3
 72
8
 73
4
 74
0
 40
0
 40
0
 40
0
 40
0
 40
1
 40
1
 40
1
 40
1
 10
55.538180
 20
112.854388
 30
0.0
 10
57.366236
 20
111.876927
 30
0.0
 10
59.935070
 20
111.242901
 30
0.0
 10
61.200861
 20
111.456756
 30
0.0
  0
SPLINE
  5
143
100
AcDbEntity
  8
0
 62
7
100
AcDbSpline
 70
8
 71
3
 72
8
 73
4
 74
0
 40
0
 40
0
 40
0
 40
0
 40
1
 40
1
 40
1
 40
1
 10
61.200861
 20
111.456756
 30
0.0
 10
62.983197
 20
111.757878
 30
0.0
 10
62.525997
 20
110.865171
 30
0.0
 10
58.473303
 20
106.131035
 30
0.0
  0
SPLINE
  5
144
100
AcDbEntity
  8
0
 62
7
100
AcDbSpline
 70
8
 71
3
 72
8
 73
4
 74
0
 40
0
 40
0
 40
0
 40
0
 40
1
 40
1
 40
1
 40
1
 10
58.473303
 20
106.131035
 30
0.0
 10
54.933853
 20
101.996441
 30
0.0
 10
49.103145
 20
93.652822
 30
0.0
 10
46.429777
 20
88.897002
 30
0.0
  0
SPLINE
  5
145
100
AcDbEntity
  8
0
 62
7
100
AcDbSpline
 70
8
 71
3
 72
8
 73
4
 74
0
 40
0
 40
0
 40
0
 40
0
 40
1
 40
1
 40
1
 40
1
 10
46.429777
 20
88.897002
 30
0.0
 10
43.836545
 20
84.283740
 30
0.0
 10
41.246401
 20
78.674775
 30
0.0
 10
40.289125
 20
75.599393
 30
0.0
  0
SPLINE
  5
146
100
AcDbEntity
  8
0
 62
7
100
AcDbSpline
 70
8
 71
3
 72
8
 73
4
 74
0
 40
0
 40
0
 40
0
 40
0
 40
1
 40
1
 40
1
 40
1
 10
40.289125
 20
75.599393
 30
0.0
 10
39.013032
 20
71.499770
 30
0.0
 10
38.196877
 20
67.050711
 30
0.0
 10
37.990301
 20
63.067930
 30
0.0
  0
SPLINE
  5
147
100
AcDbEntity
  8
0
 62
7
100
AcDbSpline
 70
8
 71
3
 72
8
 73
4
 74
0
 40
0
 40
0
 40
0
 40
0
 40
1
 40
1
 40
1
 40
1
 10
37.990301
 20
63.067930
 30
0.0
 10
37.822656
 20
59.835767
 30
0.0
 10
37.847995
 20
59.459810
 30
0.0
 10
38.233472
 20
59.459810
 30
0.0
  0
SPLINE
  5
148
100
AcDbEntity
  8
0
 62
7
100
AcDbSpline
 70
8
 71
3
 72
8
 73
4
 74
0
 40
0
 40
0
 40
0
 40
0
 40
1
 40
1
 40
1
 40
1
 10
38.233472
 20
59.459810
 30
0.0
 10
38.485747
 20
59.459810
 30
0.0
 10
38.733378
 20
59.760855
 30
0.0
 10
38.831980
 20
60.187414
 30
0.0
  0
SPLINE
  5
149
100
AcDbEntity
  8
0
 62
7
100
AcDbSpline
 70
8
 71
3
 72
8
 73
4
 74
0
 40
0
 40
0
 40
0
 40
0
 40
1
 40
1
 40
1
 40
1
 10
38.831980
 20
60.187414
 30
0.0
 10
39.054484
 20
61.149960
 30
0.0
 10
42.957475
 20
70.685578
 30
0.0
 10
44.815321
 20
74.805643
 30
0.0
  0
SPLINE
  5
14a
100
AcDbEntity
  8
0
 62
7
100
AcDbSpline
 70
8
 71
3
 72
8
 73
4
 74
0
 40
0
 40
0
 40
0
 40
0
 40
1
 40
1
 40
1
 40
1
 10
44.815321
 20
74.805643
 30
0.0
 10
46.745316
 20
79.085715
 30
0.0
 10
50.181671
 20
85.592849
 30
0.0
 10
52.430275
 20
89.225435
 30
0.0
  0
SPLINE
  5
14b
100
AcDbEntity
  8
0
 62
7
100
AcDbSpline
 70
8
 71
3
 72
8
 73
4
 74
0
 40
0
 40
0
 40
0
 40
0
 40
1
 40
1
 40
1
 40
1
 10
52.430275
 20
89.225435
 30
0.0
 10
56.869089
 20
96.396276
 30
0.0
 10
59.133441
 20
99.373801
 30
0.0
 10
63.721713
 20
104.073193
 30
0.0
  0
SPLINE
  5
14c
100
AcDbEntity
  8
0
 62
7
100
AcDbSpline
 70
8
 71
3
 72
8
 73
4
 74
0
 40
0
 40
0
 40
0
 40
0
 40
1
 40
1
 40
1
 40
1
 10
63.721713
 20
104.073193
 30
0.0
 10
69.063211
 20
109.544054
 30
0.0
 10
70.473901
 20
110.270954
 30
0.0
 10
75.697413
 20
110.244038
 30
0.0
  0
SPLINE
  5
14d
100
AcDbEntity
  8
0
 62
7
100
AcDbSpline
 70
8
 71
3
 72
8
 73
4
 74
0
 40
0
 40
0
 40
0
 40
0
 40
1
 40
1
 40
1
 40
1
 10
75.697413
 20
110.244038
 30
0.0
 10
77.380872
 20
110.235360
 30
0.0
 10
79.353558
 20
110.122340
 30
0.0
 10
80.081162
 20
109.992874
 30
0.0
  0
SPLINE
  5
14e
100
AcDbEntity
  8
0
 62
7
100
AcDbSpline
 70
8
 71
3
 72
8
 73
4
 74
0
 40
0
 40
0
 40
0
 40
0
 40
1
 40
1
 40
1
 40
1
 10
80.081162
 20
109.992874
 30
0.0
 10
80.808767
 20
109.863411
 30
0.0
 10
83.130485
 20
109.674708
 30
0.0
 10
85.240537
 20
109.573539
 30
0.0
  0
SPLINE
  5
14f
100
AcDbEntity
  8
0
 62
7
100
AcDbSpline
 70
8
 71
3
 72
8
 73
4
 74
0
 40
0
 40
0
 40
0
 40
0
 40
1
 40
1
 40
1
 40
1
 10
85.240537
 20
109.573539
 30
0.0
 10
89.858662
 20
109.352114
 30
0.0
 10
91.134062
 20
109.635147
 30
0.0
 10
94.405408
 20
111.607388
 30
0.0
  0
SPLINE
  5
150
100
AcDbEntity
  8
0
 62
7
100
AcDbSpline
 70
8
 71
3
 72
8
 73
4
 74
0
 40
0
 40
0
 40
0
 40
0
 40
1
 40
1
 40
1
 40
1
 10
94.405408
 20
111.607388
 30
0.0
 10
95.589783
 20
112.321427
 30
0.0
 10
96.758625
 20
112.905643
 30
0.0
 10
97.002835
 20
112.905643
 30
0.0
  0
SPLINE
  5
151
100
AcDbEntity
  8
0
 62
7
100
AcDbSpline
 70
8
 71
3
 72
8
 73
4
 74
0
 40
0
 40
0
 40
0
 40
0
 40
1
 40
1
 40
1
 40
1
 10
97.002835
 20
112.905643
 30
0.0
 10
97.247043
 20
112.905643
 30
0.0
 10
98.941239
 20
112.161503
 30
0.0
 10
100.767716
 20
111.251997
 30
0.0
  0
SPLINE
  5
152
100
AcDbEntity
  8
0
 62
7
100
AcDbSpline
 70
8
 71
3
 72
8
 73
4
 74
0
 40
0
 40
0
 40
0
 40
0
 40
1
 40
1
 40
1
 40
1
 10
100.767716
 20
111.251997
 30
0.0
 10
104.069743
 20
109.607731
 30
0.0
 10
104.101535
 20
109.598352
 30
0.0
 10
106.372372
 20
109.598352
 30
0.0
  0
SPLINE
  5
153
100
AcDbEntity
  8
0
 62
7
100
AcDbSpline
 70
8
 71
3
 72
8
 73
4
 74
0
 40
0
 40
0
 40
0
 40
0
 40
1
 40
1
 40
1
 40
1
 10
106.372372
 20
109.598352
 30
0.0
 10
108.419186
 20
109.598352
 30
0.0
 10
108.772986
 20
109.674287
 30
0.0
 10
109.782015
 20
110.330141
 30
0.0
  0
SPLINE
  5
154
100
AcDbEntity
  8
0
 62
7
100
AcDbSpline
 70
8
 71
3
 72
8
 73
4
 74
0
 40
0
 40
0
 40
0
 40
0
 40
1
 40
1
 40
1
 40
1
 10
109.782015
 20
110.330141
 30
0.0
 10
110.786339
 20
110.982940
 30
0.0
 10
112.264923
 20
112.670889
 30
0.0
 10
112.574565
 20
113.518109
 30
0.0
  0
SPLINE
  5
155
100
AcDbEntity
  8
0
 62
7
100
AcDbSpline
 70
8
 71
3
 72
8
 73
4
 74
0
 40
0
 40
0
 40
0
 40
0
 40
1
 40
1
 40
1
 40
1
 10
112.574565
 20
113.518109
 30
0.0
 10
112.662491
 20
113.758692
 30
0.0
 10
112.804869
 20
113.757247
 30
0.0
 10
113.186207
 20
113.511917
 30
0.0
  0
SPLINE
  5
156
100
AcDbEntity
  8
0
 62
7
100
AcDbSpline
 70
8
 71
3
 72
8
 73
4
 74
0
 40
0
 40
0
 40
0
 40
0
 40
1
 40
1
 40
1
 40
1
 10
113.186207
 20
113.511917
 30
0.0
 10
115.665120
 20
111.917086
 30
0.0
 10
119.772491
 20
110.452535
 30
0.0
 10
121.863234
 20
110.417980
 30
0.0
  0
SPLINE
  5
157
100
AcDbEntity
  8
0
 62
7
100
AcDbSpline
 70
8
 71
3
 72
8
 73
4
 74
0
 40
0
 40
0
 40
0
 40
0
 40
1
 40
1
 40
1
 40
1
 10
121.863234
 20
110.417980
 30
0.0
 10
122.787675
 20
110.402714
 30
0.0
 10
123.470247
 20
110.267340
 30
0.0
 10
123.530257
 20
110.087397
 30
0.0
  0
SPLINE
  5
158
100
AcDbEntity
  8
0
 62
7
100
AcDbSpline
 70
8
 71
3
 72
8
 73
4
 74
0
 40
0
 40
0
 40
0
 40
0
 40
1
 40
1
 40
1
 40
1
 10
123.530257
 20
110.087397
 30
0.0
 10
123.629005
 20
109.791286
 30
0.0
 10
120.638075
 20
107.113792
 30
0.0
 10
116.329079
 20
103.640871
 30
0.0
  0
SPLINE
  5
159
100
AcDbEntity
  8
0
 62
7
100
AcDbSpline
 70
8
 71
3
 72
8
 73
4
 74
0
 40
0
 40
0
 40
0
 40
0
 40
1
 40
1
 40
1
 40
1
 10
116.329079
 20
103.640871
 30
0.0
 10
113.529308
 20
101.384343
 30
0.0
 10
106.416927
 20
94.267769
 30
0.0
 10
104.301986
 20
91.606690
 30
0.0
  0
SPLINE
  5
15a
100
AcDbEntity
  8
0
 62
7
100
AcDbSpline
 70
8
 71
3
 72
8
 73
4
 74
0
 40
0
 40
0
 40
0
 40
0
 40
1
 40
1
 40
1
 40
1
 10
104.301986
 20
91.606690
 30
0.0
 10
101.704595
 20
88.338578
 30
0.0
 10
99.036629
 20
84.083239
 30
0.0
 10
98.171288
 20
81.828375
 30
0.0
  0
SPLINE
  5
15b
100
AcDbEntity
  8
0
 62
7
100
AcDbSpline
 70
8
 71
3
 72
8
 73
4
 74
0
 40
0
 40
0
 40
0
 40
0
 40
1
 40
1
 40
1
 40
1
 10
98.171288
 20
81.828375
 30
0.0
 10
97.694930
 20
80.587104
 30
0.0
 10
95.676466
 20
75.686542
 30
0.0
 10
94.897318
 20
73.879607
 30
0.0
  0
SPLINE
  5
15c
100
AcDbEntity
  8
0
 62
7
100
AcDbSpline
 70
8
 71
3
 72
8
 73
4
 74
0
 40
0
 40
0
 40
0
 40
0
 40
1
 40
1
 40
1
 40
1
 10
94.897318
 20
73.879607
 30
0.0
 10
94.223769
 20
72.317570
 30
0.0
 10
90.829175
 20
63.530422
 30
0.0
 10
90.297775
 20
61.973357
 30
0.0
  0
SPLINE
  5
15d
100
AcDbEntity
  8
0
 62
7
100
AcDbSpline
 70
8
 71
3
 72
8
 73
4
 74
0
 40
0
 40
0
 40
0
 40
0
 40
1
 40
1
 40
1
 40
1
 10
90.297775
 20
61.973357
 30
0.0
 10
89.999791
 20
61.100232
 30
0.0
 10
89.087897
 20
58.659451
 30
0.0
 10
88.271342
 20
56.549398
 30
0.0
  0
SPLINE
  5
15e
100
AcDbEntity
  8
0
 62
7
100
AcDbSpline
 70
8
 71
3
 72
8
 73
4
 74
0
 40
0
 40
0
 40
0
 40
0
 40
1
 40
1
 40
1
 40
1
 10
88.271342
 20
56.549398
 30
0.0
 10
87.454788
 20
54.439346
 30
0.0
 10
86.724633
 20
52.474815
 30
0.0
 10
86.648774
 20
52.183773
 30
0.0
  0
SPLINE
  5
15f
100
AcDbEntity
  8
0
 62
7
100
AcDbSpline
 70
8
 71
3
 72
8
 73
4
 74
0
 40
0
 40
0
 40
0
 40
0
 40
1
 40
1
 40
1
 40
1
 10
86.648774
 20
52.183773
 30
0.0
 10
86.572916
 20
51.892732
 30
0.0
 10
86.353899
 20
51.297419
 30
0.0
 10
86.162071
 20
50.860857
 30
0.0
  0
SPLINE
  5
160
100
AcDbEntity
  8
0
 62
7
100
AcDbSpline
 70
8
 71
3
 72
8
 73
4
 74
0
 40
0
 40
0
 40
0
 40
0
 40
1
 40
1
 40
1
 40
1
 10
86.162071
 20
50.860857
 30
0.0
 10
85.970242
 20
50.424294
 30
0.0
 10
85.318611
 20
48.816951
 30
0.0
 10
84.713998
 20
47.288982
 30
0.0
  0
SPLINE
  5
161
100
AcDbEntity
  8
0
 62
7
100
AcDbSpline
 70
8
 71
3
 72
8
 73
4
 74
0
 40
0
 40
0
 40
0
 40
0
 40
1
 40
1
 40
1
 40
1
 10
84.713998
 20
47.288982
 30
0.0
 10
77.931288
 20
30.147797
 30
0.0
 10
72.805293
 20
21.097608
 30
0.0
 10
66.702617
 20
15.489034
 30
0.0
  0
SPLINE
  5
162
100
AcDbEntity
  8
0
 62
7
100
AcDbSpline
 70
8
 71
3
 72
8
 73
4
 74
0
 40
0
 40
0
 40
0
 40
0
 40
1
 40
1
 40
1
 40
1
 10
66.702617
 20
15.489034
 30
0.0
 10
63.957226
 20
12.965925
 30
0.0
 10
62.558578
 20
11.965207
 30
0.0
 10
59.103427
 20
10.051907
 30
0.0
  0
SPLINE
  5
163
100
AcDbEntity
  8
0
 62
7
100
AcDbSpline
 70
8
 71
3
 72
8
 73
4
 74
0
 40
0
 40
0
 40
0
 40
0
 40
1
 40
1
 40
1
 40
1
 10
59.103427
 20
10.051907
 30
0.0
 10
56.437641
 20
8.575717
 30
0.0
 10
55.990651
 20
8.359532
 30
0.0
 10
54.019704
 20
7.593182
 30
0.0
  0
SPLINE
  5
164
100
AcDbEntity
  8
0
 62
7
100
AcDbSpline
 70
8
 71
3
 72
8
 73
4
 74
0
 40
0
 40
0
 40
0
 40
0
 40
1
 40
1
 40
1
 40
1
 10
54.019704
 20
7.593182
 30
0.0
 10
53.219339
 20
7.281982
 30
0.0
 10
52.173502
 20
6.858884
 30
0.0
 10
51.695623
 20
6.652964
 30
0.0
  0
SPLINE
  5
165
100
AcDbEntity
  8
0
 62
7
100
AcDbSpline
 70
8
 71
3
 72
8
 73
4
 74
0
 40
0
 40
0
 40
0
 40
0
 40
1
 40
1
 40
1
 40
1
 10
51.695623
 20
6.652964
 30
0.0
 10
51.217743
 20
6.447044
 30
0.0
 10
50.584838
 20
6.278565
 30
0.0
 10
50.289166
 20
6.278565
 30
0.0
  0
SPLINE
  5
166
100
AcDbEntity
  8
0
 62
7
100
AcDbSpline
 70
8
 71
3
 72
8
 73
4
 74
0
 40
0
 40
0
 40
0
 40
0
 40
1
 40
1
 40
1
 40
1
 10
50.289166
 20
6.278565
 30
0.0
 10
49.993494
 20
6.278565
 30
0.0
 10
49.543780
 20
6.167353
 30
0.0
 10
49.289798
 20
6.031426
 30
0.0
  0
SPLINE
  5
167
100
AcDbEntity
  8
0
 62
7
100
AcDbSpline
 70
8
 71
3
 72
8
 73
4
 74
0
 40
0
 40
0
 40
0
 40
0
 40
1
 40
1
 40
1
 40
1
 10
49.289798
 20
6.031426
 30
0.0
 10
49.035814
 20
5.895499
 30
0.0
 10
47.314649
 20
5.538311
 30
0.0
 10
45.464984
 20
5.237676
 30
0.0
  0
SPLINE
  5
168
100
AcDbEntity
  8
0
 62
7
100
AcDbSpline
 70
8
 71
3
 72
8
 73
4
 74
0
 40
0
 40
0
 40
0
 40
0
 40
1
 40
1
 40
1
 40
1
 10
45.464984
 20
5.237676
 30
0.0
 10
41.635294
 20
4.615217
 30
0.0
 10
37.480116
 20
4.569555
 30
0.0
 10
34.463101
 20
5.116777
 30
0.0
  0
LWPOLYLINE
  5
169
100
AcDbEntity
  8
0
 62
7
100
AcDbPolyline
 90
3
 70
0
 10
47.612633
 20
116.161862
 30
0.0
 10
50.183246
 20
117.962873
 30
0.0
 10
50.831459
 20
117.087904
 30
0.0
  0
SPLINE
  5
16a
100
AcDbEntity
  8
0
 62
7
100
AcDbSpline
 70
8
 71
3
 72
8
 73
4
 74
0
 40
0
 40
0
 40
0
 40
0
 40
1
 40
1
 40
1
 40
1
 10
62.980927
 20
26.237499
 30
0.0
 10
65.259617
 20
27.627726
 30
0.0
 10
66.908865
 20
29.492977
 30
0.0
 10
68.376750
 20
32.340018
 30
0.0
  0
SPLINE
  5
16b
100
AcDbEntity
  8
0
 62
7
100
AcDbSpline
 70
8
 71
3
 72
8
 73
4
 74
0
 40
0
 40
0
 40
0
 40
0
 40
1
 40
1
 40
1
 40
1
 10
68.376750
 20
32.340018
 30
0.0
 10
69.269359
 20
34.071277
 30
0.0
 10
71.031592
 20
39.804258
 30
0.0
 10
73.093834
 20
47.685852
 30
0.0
  0
SPLINE
  5
16c
100
AcDbEntity
  8
0
 62
7
100
AcDbSpline
 70
8
 71
3
 72
8
 73
4
 74
0
 40
0
 40
0
 40
0
 40
0
 40
1
 40
1
 40
1
 40
1
 10
73.093834
 20
47.685852
 30
0.0
 10
74.188807
 20
51.870679
 30
0.0
 10
74.766421
 20
53.968343
 30
0.0
 10
75.680210
 20
57.078560
 30
0.0
  0
SPLINE
  5
16d
100
AcDbEntity
  8
0
 62
7
100
AcDbSpline
 70
8
 71
3
 72
8
 73
4
 74
0
 40
0
 40
0
 40
0
 40
0
 40
1
 40
1
 40
1
 40
1
 10
75.680210
 20
57.078560
 30
0.0
 10
75.958115
 20
58.024445
 30
0.0
 10
76.445467
 20
59.750852
 30
0.0
 10
76.763216
 20
60.915018
 30
0.0
  0
SPLINE
  5
16e
100
AcDbEntity
  8
0
 62
7
100
AcDbSpline
 70
8
 71
3
 72
8
 73
4
 74
0
 40
0
 40
0
 40
0
 40
0
 40
1
 40
1
 40
1
 40
1
 10
76.763216
 20
60.915018
 30
0.0
 10
77.460581
 20
63.470023
 30
0.0
 10
79.611061
 20
70.105987
 30
0.0
 10
80.126755
 20
71.294241
 30
0.0
  0
SPLINE
  5
16f
100
AcDbEntity
  8
0
 62
7
100
AcDbSpline
 70
8
 71
3
 72
8
 73
4
 74
0
 40
0
 40
0
 40
0
 40
0
 40
1
 40
1
 40
1
 40
1
 10
80.126755
 20
71.294241
 30
0.0
 10
80.330654
 20
71.764067
 30
0.0
 10
80.782967
 20
72.906935
 30
0.0
 10
81.131897
 20
73.833950
 30
0.0
  0
SPLINE
  5
170
100
AcDbEntity
  8
0
 62
7
100
AcDbSpline
 70
8
 71
3
 72
8
 73
4
 74
0
 40
0
 40
0
 40
0
 40
0
 40
1
 40
1
 40
1
 40
1
 10
81.131897
 20
73.833950
 30
0.0
 10
82.087889
 20
76.373792
 30
0.0
 10
84.498244
 20
81.271726
 30
0.0
 10
86.037081
 20
83.801477
 30
0.0
  0
SPLINE
  5
171
100
AcDbEntity
  8
0
 62
7
100
AcDbSpline
 70
8
 71
3
 72
8
 73
4
 74
0
 40
0
 40
0
 40
0
 40
0
 40
1
 40
1
 40
1
 40
1
 10
86.037081
 20
83.801477
 30
0.0
 10
88.029841
 20
87.077449
 30
0.0
 10
89.818506
 20
89.370847
 30
0.0
 10
93.034297
 20
92.773190
 30
0.0
  0
SPLINE
  5
172
100
AcDbEntity
  8
0
 62
7
100
AcDbSpline
 70
8
 71
3
 72
8
 73
4
 74
0
 40
0
 40
0
 40
0
 40
0
 40
1
 40
1
 40
1
 40
1
 10
93.034297
 20
92.773190
 30
0.0
 10
96.755109
 20
96.709852
 30
0.0
 10
97.580635
 20
98.465457
 30
0.0
 10
96.286892
 20
99.690306
 30
0.0
  0
SPLINE
  5
173
100
AcDbEntity
  8
0
 62
7
100
AcDbSpline
 70
8
 71
3
 72
8
 73
4
 74
0
 40
0
 40
0
 40
0
 40
0
 40
1
 40
1
 40
1
 40
1
 10
96.286892
 20
99.690306
 30
0.0
 10
95.795830
 20
100.155219
 30
0.0
 10
95.474663
 20
100.229083
 30
0.0
 10
94.452903
 20
100.112097
 30
0.0
  0
SPLINE
  5
174
100
AcDbEntity
  8
0
 62
7
100
AcDbSpline
 70
8
 71
3
 72
8
 73
4
 74
0
 40
0
 40
0
 40
0
 40
0
 40
1
 40
1
 40
1
 40
1
 10
94.452903
 20
100.112097
 30
0.0
 10
91.771872
 20
99.805138
 30
0.0
 10
89.069376
 20
97.690189
 30
0.0
 10
85.238103
 20
92.900675
 30
0.0
  0
SPLINE
  5
175
100
AcDbEntity
  8
0
 62
7
100
AcDbSpline
 70
8
 71
3
 72
8
 73
4
 74
0
 40
0
 40
0
 40
0
 40
0
 40
1
 40
1
 40
1
 40
1
 10
85.238103
 20
92.900675
 30
0.0
 10
78.382926
 20
84.330950
 30
0.0
 10
74.751681
 20
77.215333
 30
0.0
 10
68.307566
 20
59.724393
 30
0.0
  0
SPLINE
  5
176
100
AcDbEntity
  8
0
 62
7
100
AcDbSpline
 70
8
 71
3
 72
8
 73
4
 74
0
 40
0
 40
0
 40
0
 40
0
 40
1
 40
1
 40
1
 40
1
 10
68.307566
 20
59.724393
 30
0.0
 10
67.851851
 20
58.487466
 30
0.0
 10
67.317689
 20
57.058716
 30
0.0
 10
67.120540
 20
56.549393
 30
0.0
  0
SPLINE
  5
177
100
AcDbEntity
  8
0
 62
7
100
AcDbSpline
 70
8
 71
3
 72
8
 73
4
 74
0
 40
0
 40
0
 40
0
 40
0
 40
1
 40
1
 40
1
 40
1
 10
67.120540
 20
56.549393
 30
0.0
 10
66.923391
 20
56.040070
 30
0.0
 10
66.224883
 20
54.135070
 30
0.0
 10
65.568298
 20
52.316060
 30
0.0
  0
SPLINE
  5
178
100
AcDbEntity
  8
0
 62
7
100
AcDbSpline
 70
8
 71
3
 72
8
 73
4
 74
0
 40
0
 40
0
 40
0
 40
0
 40
1
 40
1
 40
1
 40
1
 10
65.568298
 20
52.316060
 30
0.0
 10
63.859415
 20
47.581749
 30
0.0
 10
63.063922
 20
45.748583
 30
0.0
 10
61.033112
 20
41.865018
 30
0.0
  0
SPLINE
  5
179
100
AcDbEntity
  8
0
 62
7
100
AcDbSpline
 70
8
 71
3
 72
8
 73
4
 74
0
 40
0
 40
0
 40
0
 40
0
 40
1
 40
1
 40
1
 40
1
 10
61.033112
 20
41.865018
 30
0.0
 10
57.732263
 20
35.552719
 30
0.0
 10
57.132223
 20
34.205571
 30
0.0
 10
56.707252
 20
32.153048
 30
0.0
  0
SPLINE
  5
17a
100
AcDbEntity
  8
0
 62
7
100
AcDbSpline
 70
8
 71
3
 72
8
 73
4
 74
0
 40
0
 40
0
 40
0
 40
0
 40
1
 40
1
 40
1
 40
1
 10
56.707252
 20
32.153048
 30
0.0
 10
56.353239
 20
30.443239
 30
0.0
 10
56.338592
 20
29.909212
 30
0.0
 10
56.616547
 20
28.845756
 30
0.0
  0
SPLINE
  5
17b
100
AcDbEntity
  8
0
 62
7
100
AcDbSpline
 70
8
 71
3
 72
8
 73
4
 74
0
 40
0
 40
0
 40
0
 40
0
 40
1
 40
1
 40
1
 40
1
 10
56.616547
 20
28.845756
 30
0.0
 10
57.036372
 20
27.239494
 30
0.0
 10
57.653121
 20
26.377315
 30
0.0
 10
58.801011
 20
25.791991
 30
0.0
  0
SPLINE
  5
17c
100
AcDbEntity
  8
0
 62
7
100
AcDbSpline
 70
8
 71
3
 72
8
 73
4
 74
0
 40
0
 40
0
 40
0
 40
0
 40
1
 40
1
 40
1
 40
1
 10
58.801011
 20
25.791991
 30
0.0
 10
60.178762
 20
25.089459
 30
0.0
 10
61.294039
 20
25.208328
 30
0.0
 10
62.980927
 20
26.237499
 30
0.0
  0
LWPOLYLINE
  5
17d
100
AcDbEntity
  8
0
 62
7
100
AcDbPolyline
 90
1
 70
1
 10
34.463101
 20
5.116777
 30
0.0
  0
SPLINE
  5
17e
100
AcDbEntity
  8
0
 62
7
100
AcDbSpline
 70
8
 71
3
 72
8
 73
4
 74
0
 40
0
 40
0
 40
0
 40
0
 40
1
 40
1
 40
1
 40
1
 10
24.183217
 20
42.254794
 30
0.0
 10
24.954451
 20
42.933662
 30
0.0
 10
25.576053
 20
43.800572
 30
0.0
 10
25.938072
 20
44.702190
 30
0.0
  0
SPLINE
  5
17f
100
AcDbEntity
  8
0
 62
7
100
AcDbSpline
 70
8
 71
3
 72
8
 73
4
 74
0
 40
0
 40
0
 40
0
 40
0
 40
1
 40
1
 40
1
 40
1
 10
25.938072
 20
44.702190
 30
0.0
 10
26.721379
 20
46.653024
 30
0.0
 10
27.561156
 20
50.980369
 30
0.0
 10
27.562495
 20
53.072789
 30
0.0
  0
SPLINE
  5
180
100
AcDbEntity
  8
0
 62
7
100
AcDbSpline
 70
8
 71
3
 72
8
 73
4
 74
0
 40
0
 40
0
 40
0
 40
0
 40
1
 40
1
 40
1
 40
1
 10
27.562495
 20
53.072789
 30
0.0
 10
27.563553
 20
54.602147
 30
0.0
 10
28.162316
 20
58.526675
 30
0.0
 10
29.142674
 20
63.428560
 30
0.0
  0
SPLINE
  5
181
100
AcDbEntity
  8
0
 62
7
100
AcDbSpline
 70
8
 71
3
 72
8
 73
4
 74
0
 40
0
 40
0
 40
0
 40
0
 40
1
 40
1
 40
1
 40
1
 10
29.142674
 20
63.428560
 30
0.0
 10
29.961475
 20
67.522638
 30
0.0
 10
32.899898
 20
75.517650
 30
0.0
 10
35.123109
 20
79.700435
 30
0.0
  0
SPLINE
  5
182
100
AcDbEntity
  8
0
 62
7
100
AcDbSpline
 70
8
 71
3
 72
8
 73
4
 74
0
 40
0
 40
0
 40
0
 40
0
 40
1
 40
1
 40
1
 40
1
 10
35.123109
 20
79.700435
 30
0.0
 10
37.716042
 20
84.578820
 30
0.0
 10
41.916720
 20
90.007318
 30
0.0
 10
48.635933
 20
97.162935
 30
0.0
  0
SPLINE
  5
183
100
AcDbEntity
  8
0
 62
7
100
AcDbSpline
 70
8
 71
3
 72
8
 73
4
 74
0
 40
0
 40
0
 40
0
 40
0
 40
1
 40
1
 40
1
 40
1
 10
48.635933
 20
97.162935
 30
0.0
 10
50.406086
 20
99.048054
 30
0.0
 10
51.162215
 20
100.223325
 30
0.0
 10
51.005811
 20
100.846488
 30
0.0
  0
SPLINE
  5
184
100
AcDbEntity
  8
0
 62
7
100
AcDbSpline
 70
8
 71
3
 72
8
 73
4
 74
0
 40
0
 40
0
 40
0
 40
0
 40
1
 40
1
 40
1
 40
1
 10
51.005811
 20
100.846488
 30
0.0
 10
50.733195
 20
101.932679
 30
0.0
 10
50.002755
 20
101.902265
 30
0.0
 10
47.490158
 20
100.700104
 30
0.0
  0
SPLINE
  5
185
100
AcDbEntity
  8
0
 62
7
100
AcDbSpline
 70
8
 71
3
 72
8
 73
4
 74
0
 40
0
 40
0
 40
0
 40
0
 40
1
 40
1
 40
1
 40
1
 10
47.490158
 20
100.700104
 30
0.0
 10
45.432308
 20
99.715521
 30
0.0
 10
44.794779
 20
99.221081
 30
0.0
 10
42.101730
 20
96.521082
 30
0.0
  0
SPLINE
  5
186
100
AcDbEntity
  8
0
 62
7
100
AcDbSpline
 70
8
 71
3
 72
8
 73
4
 74
0
 40
0
 40
0
 40
0
 40
0
 40
1
 40
1
 40
1
 40
1
 10
42.101730
 20
96.521082
 30
0.0
 10
38.127133
 20
92.536230
 30
0.0
 10
31.678242
 20
84.771061
 30
0.0
 10
27.912626
 20
79.435852
 30
0.0
  0
SPLINE
  5
187
100
AcDbEntity
  8
0
 62
7
100
AcDbSpline
 70
8
 71
3
 72
8
 73
4
 74
0
 40
0
 40
0
 40
0
 40
0
 40
1
 40
1
 40
1
 40
1
 10
27.912626
 20
79.435852
 30
0.0
 10
22.583467
 20
71.885381
 30
0.0
 10
19.238774
 20
64.395265
 30
0.0
 10
18.285726
 20
57.877345
 30
0.0
  0
SPLINE
  5
188
100
AcDbEntity
  8
0
 62
7
100
AcDbSpline
 70
8
 71
3
 72
8
 73
4
 74
0
 40
0
 40
0
 40
0
 40
0
 40
1
 40
1
 40
1
 40
1
 10
18.285726
 20
57.877345
 30
0.0
 10
17.643519
 20
53.485256
 30
0.0
 10
18.378497
 20
46.248921
 30
0.0
 10
19.732796
 20
43.629990
 30
0.0
  0
SPLINE
  5
189
100
AcDbEntity
  8
0
 62
7
100
AcDbSpline
 70
8
 71
3
 72
8
 73
4
 74
0
 40
0
 40
0
 40
0
 40
0
 40
1
 40
1
 40
1
 40
1
 10
19.732796
 20
43.629990
 30
0.0
 10
20.243307
 20
42.642774
 30
0.0
 10
21.888349
 20
41.203560
 30
0.0
 10
22.506243
 20
41.203560
 30
0.0
  0
SPLINE
  5
18a
100
AcDbEntity
  8
0
 62
7
100
AcDbSpline
 70
8
 71
3
 72
8
 73
4
 74
0
 40
0
 40
0
 40
0
 40
0
 40
1
 40
1
 40
1
 40
1
 10
22.506243
 20
41.203560
 30
0.0
 10
22.771732
 20
41.203560
 30
0.0
 10
23.526371
 20
41.676616
 30
0.0
 10
24.183217
 20
42.254794
 30
0.0
  0
LWPOLYLINE
  5
18b
100
AcDbEntity
  8
0
 62
7
100
AcDbPolyline
 90
1
 70
1
 10
62.980927
 20
26.237499
 30
0.0
  0
SPLINE
  5
18c
100
AcDbEntity
  8
0
 62
7
100
AcDbSpline
 70
8
 71
3
 72
8
 73
4
 74
0
 40
0
 40
0
 40
0
 40
0
 40
1
 40
1
 40
1
 40
1
 10
69.486952
 20
149.259619
 30
0.0
 10
70.768125
 20
150.236815
 30
0.0
 10
71.218785
 20
151.225609
 30
0.0
 10
71.211308
 20
153.043026
 30
0.0
  0
SPLINE
  5
18d
100
AcDbEntity
  8
0
 62
7
100
AcDbSpline
 70
8
 71
3
 72
8
 73
4
 74
0
 40
0
 40
0
 40
0
 40
0
 40
1
 40
1
 40
1
 40
1
 10
71.211308
 20
153.043026
 30
0.0
 10
71.200142
 20
155.757591
 30
0.0
 10
70.884949
 20
156.548271
 30
0.0
 10
69.198175
 20
158.093084
 30
0.0
  0
SPLINE
  5
18e
100
AcDbEntity
  8
0
 62
7
100
AcDbSpline
 70
8
 71
3
 72
8
 73
4
 74
0
 40
0
 40
0
 40
0
 40
0
 40
1
 40
1
 40
1
 40
1
 10
69.198175
 20
158.093084
 30
0.0
 10
65.110733
 20
161.836520
 30
0.0
 10
60.295814
 20
162.351107
 30
0.0
 10
56.122636
 20
159.490510
 30
0.0
  0
SPLINE
  5
18f
100
AcDbEntity
  8
0
 62
7
100
AcDbSpline
 70
8
 71
3
 72
8
 73
4
 74
0
 40
0
 40
0
 40
0
 40
0
 40
1
 40
1
 40
1
 40
1
 10
56.122636
 20
159.490510
 30
0.0
 10
53.310724
 20
157.563023
 30
0.0
 10
49.925184
 20
152.754646
 30
0.0
 10
50.100489
 20
150.937445
 30
0.0
  0
SPLINE
  5
190
100
AcDbEntity
  8
0
 62
7
100
AcDbSpline
 70
8
 71
3
 72
8
 73
4
 74
0
 40
0
 40
0
 40
0
 40
0
 40
1
 40
1
 40
1
 40
1
 10
50.100489
 20
150.937445
 30
0.0
 10
50.179526
 20
150.118157
 30
0.0
 10
50.238610
 20
150.076025
 30
0.0
 10
51.415061
 20
149.999979
 30
0.0
  0
SPLINE
  5
191
100
AcDbEntity
  8
0
 62
7
100
AcDbSpline
 70
8
 71
3
 72
8
 73
4
 74
0
 40
0
 40
0
 40
0
 40
0
 40
1
 40
1
 40
1
 40
1
 10
51.415061
 20
149.999979
 30
0.0
 10
52.447243
 20
149.933259
 30
0.0
 10
53.092511
 20
150.136938
 30
0.0
 10
55.396619
 20
151.256750
 30
0.0
  0
SPLINE
  5
192
100
AcDbEntity
  8
0
 62
7
100
AcDbSpline
 70
8
 71
3
 72
8
 73
4
 74
0
 40
0
 40
0
 40
0
 40
0
 40
1
 40
1
 40
1
 40
1
 10
55.396619
 20
151.256750
 30
0.0
 10
56.908978
 20
151.991766
 30
0.0
 10
58.450255
 20
152.593144
 30
0.0
 10
58.821677
 20
152.593144
 30
0.0
  0
SPLINE
  5
193
100
AcDbEntity
  8
0
 62
7
100
AcDbSpline
 70
8
 71
3
 72
8
 73
4
 74
0
 40
0
 40
0
 40
0
 40
0
 40
1
 40
1
 40
1
 40
1
 10
58.821677
 20
152.593144
 30
0.0
 10
60.100686
 20
152.593144
 30
0.0
 10
61.299648
 20
151.981746
 30
0.0
 10
62.805921
 20
150.561422
 30
0.0
  0
SPLINE
  5
194
100
AcDbEntity
  8
0
 62
7
100
AcDbSpline
 70
8
 71
3
 72
8
 73
4
 74
0
 40
0
 40
0
 40
0
 40
0
 40
1
 40
1
 40
1
 40
1
 10
62.805921
 20
150.561422
 30
0.0
 10
63.636517
 20
149.778218
 30
0.0
 10
64.708080
 20
148.960523
 30
0.0
 10
65.187171
 20
148.744322
 30
0.0
  0
SPLINE
  5
195
100
AcDbEntity
  8
0
 62
7
100
AcDbSpline
 70
8
 71
3
 72
8
 73
4
 74
0
 40
0
 40
0
 40
0
 40
0
 40
1
 40
1
 40
1
 40
1
 10
65.187171
 20
148.744322
 30
0.0
 10
66.470956
 20
148.164979
 30
0.0
 10
68.346495
 20
148.389748
 30
0.0
 10
69.486952
 20
149.259619
 30
0.0
  0
LWPOLYLINE
  5
196
100
AcDbEntity
  8
0
 62
7
100
AcDbPolyline
 90
1
 70
1
 10
24.183217
 20
42.254794
 30
0.0
  0
SPLINE
  5
197
100
AcDbEntity
  8
0
 62
7
100
AcDbSpline
 70
8
 71
3
 72
8
 73
4
 74
0
 40
0
 40
0
 40
0
 40
0
 40
1
 40
1
 40
1
 40
1
 10
105.661886
 20
149.606649
 30
0.0
 10
107.040183
 20
150.984946
 30
0.0
 10
107.458584
 20
152.230188
 30
0.0
 10
107.139251
 20
154.003555
 30
0.0
  0
SPLINE
  5
198
100
AcDbEntity
  8
0
 62
7
100
AcDbSpline
 70
8
 71
3
 72
8
 73
4
 74
0
 40
0
 40
0
 40
0
 40
0
 40
1
 40
1
 40
1
 40
1
 10
107.139251
 20
154.003555
 30
0.0
 10
106.750723
 20
156.161169
 30
0.0
 10
106.207758
 20
157.017843
 30
0.0
 10
104.420411
 20
158.293267
 30
0.0
  0
SPLINE
  5
199
100
AcDbEntity
  8
0
 62
7
100
AcDbSpline
 70
8
 71
3
 72
8
 73
4
 74
0
 40
0
 40
0
 40
0
 40
0
 40
1
 40
1
 40
1
 40
1
 10
104.420411
 20
158.293267
 30
0.0
 10
101.712115
 20
160.225868
 30
0.0
 10
100.021364
 20
160.879195
 30
0.0
 10
97.832857
 20
160.838780
 30
0.0
  0
SPLINE
  5
19a
100
AcDbEntity
  8
0
 62
7
100
AcDbSpline
 70
8
 71
3
 72
8
 73
4
 74
0
 40
0
 40
0
 40
0
 40
0
 40
1
 40
1
 40
1
 40
1
 10
97.832857
 20
160.838780
 30
0.0
 10
96.310045
 20
160.810659
 30
0.0
 10
95.636681
 20
160.646859
 30
0.0
 10
94.237829
 20
159.964264
 30
0.0
  0
SPLINE
  5
19b
100
AcDbEntity
  8
0
 62
7
100
AcDbSpline
 70
8
 71
3
 72
8
 73
4
 74
0
 40
0
 40
0
 40
0
 40
0
 40
1
 40
1
 40
1
 40
1
 10
94.237829
 20
159.964264
 30
0.0
 10
91.812039
 20
158.780558
 30
0.0
 10
89.143851
 20
156.023938
 30
0.0
 10
87.660633
 20
153.169082
 30
0.0
  0
SPLINE
  5
19c
100
AcDbEntity
  8
0
 62
7
100
AcDbSpline
 70
8
 71
3
 72
8
 73
4
 74
0
 40
0
 40
0
 40
0
 40
0
 40
1
 40
1
 40
1
 40
1
 10
87.660633
 20
153.169082
 30
0.0
 10
86.563515
 20
151.057378
 30
0.0
 10
86.535464
 20
150.945949
 30
0.0
 10
86.977863
 20
150.457105
 30
0.0
  0
SPLINE
  5
19d
100
AcDbEntity
  8
0
 62
7
100
AcDbSpline
 70
8
 71
3
 72
8
 73
4
 74
0
 40
0
 40
0
 40
0
 40
0
 40
1
 40
1
 40
1
 40
1
 10
86.977863
 20
150.457105
 30
0.0
 10
87.723493
 20
149.633189
 30
0.0
 10
89.069516
 20
149.821086
 30
0.0
 10
91.855121
 20
151.137936
 30
0.0
  0
SPLINE
  5
19e
100
AcDbEntity
  8
0
 62
7
100
AcDbSpline
 70
8
 71
3
 72
8
 73
4
 74
0
 40
0
 40
0
 40
0
 40
0
 40
1
 40
1
 40
1
 40
1
 10
91.855121
 20
151.137936
 30
0.0
 10
95.517512
 20
152.869274
 30
0.0
 10
96.805612
 20
152.751767
 30
0.0
 10
99.131162
 20
150.474178
 30
0.0
  0
SPLINE
  5
19f
100
AcDbEntity
  8
0
 62
7
100
AcDbSpline
 70
8
 71
3
 72
8
 73
4
 74
0
 40
0
 40
0
 40
0
 40
0
 40
1
 40
1
 40
1
 40
1
 10
99.131162
 20
150.474178
 30
0.0
 10
101.636253
 20
148.020752
 30
0.0
 10
103.789903
 20
147.734666
 30
0.0
 10
105.661886
 20
149.606649
 30
0.0
  0
LWPOLYLINE
  5
1a0
100
AcDbEntity
  8
0
 62
7
100
AcDbPolyline
 90
1
 70
1
 10
69.486952
 20
149.259619
 30
0.0
  0
LWPOLYLINE
  5
1a1
100
AcDbEntity
  8
0
 62
7
100
AcDbPolyline
 90
1
 70
1
 10
105.661886
 20
149.606649
 30
0.0
  0
ENDSEC
  0
SECTION
  2
OBJECTS
  0
DICTIONARY
  5
C
330
0
100
AcDbDictionary
  3
ACAD_GROUP
350
D
  3
ACAD_MLINESTYLE
350
17
  0
DICTIONARY
  5
D
330
C
100
AcDbDictionary
  0
DICTIONARY
  5
1A
330
C
100
AcDbDictionary
  0
DICTIONARY
  5
17
330
C
100
AcDbDictionary
  3
STANDARD
350
18
  0
DICTIONARY
  5
19
330
C
100
AcDbDictionary
  0
ENDSEC
  0
EOF
