  0
SECTION
  2
HEADER
  9
$ACADVER
  1
AC1021
  9
$ACADMAINTVER
 70
    25
  9
$DWGCODEPAGE
  3
ANSI_1251
  9
$INSBASE
 10
0.0
 20
0.0
 30
0.0
  9
$EXTMIN
 10
-313.4248
 20
-435.0062
 30
0.0
  9
$EXTMAX
 10
313.425
 20
435.0644
 30
0.0
  9
$LIMMIN
 10
0.0
 20
0.0
  9
$LIMMAX
 10
12.0
 20
9.0
  9
$ORTHOMODE
 70
     0
  9
$REGENMODE
 70
     1
  9
$FILLMODE
 70
     1
  9
$QTEXTMODE
 70
     0
  9
$MIRRTEXT
 70
     1
  9
$LTSCALE
 40
1.0
  9
$ATTMODE
 70
     1
  9
$TEXTSIZE
 40
0.2
  9
$TRACEWID
 40
0.05
  9
$TEXTSTYLE
  7
Standard
  9
$CLAYER
  8
0
  9
$CELTYPE
  6
ByLayer
  9
$CECOLOR
 62
   256
  9
$CELTSCALE
 40
1.0
  9
$DISPSILH
 70
     0
  9
$DIMSCALE
 40
1.0
  9
$DIMASZ
 40
0.18
  9
$DIMEXO
 40
0.0625
  9
$DIMDLI
 40
0.38
  9
$DIMRND
 40
0.0
  9
$DIMDLE
 40
0.0
  9
$DIMEXE
 40
0.18
  9
$DIMTP
 40
0.0
  9
$DIMTM
 40
0.0
  9
$DIMTXT
 40
0.18
  9
$DIMCEN
 40
0.09
  9
$DIMTSZ
 40
0.0
  9
$DIMTOL
 70
     0
  9
$DIMLIM
 70
     0
  9
$DIMTIH
 70
     1
  9
$DIMTOH
 70
     1
  9
$DIMSE1
 70
     0
  9
$DIMSE2
 70
     0
  9
$DIMTAD
 70
     0
  9
$DIMZIN
 70
     0
  9
$DIMBLK
  1

  9
$DIMASO
 70
     1
  9
$DIMSHO
 70
     1
  9
$DIMPOST
  1

  9
$DIMAPOST
  1

  9
$DIMALT
 70
     0
  9
$DIMALTD
 70
     2
  9
$DIMALTF
 40
25.4
  9
$DIMLFAC
 40
1.0
  9
$DIMTOFL
 70
     0
  9
$DIMTVP
 40
0.0
  9
$DIMTIX
 70
     0
  9
$DIMSOXD
 70
     0
  9
$DIMSAH
 70
     0
  9
$DIMBLK1
  1

  9
$DIMBLK2
  1

  9
$DIMSTYLE
  2
Standard
  9
$DIMCLRD
 70
     0
  9
$DIMCLRE
 70
     0
  9
$DIMCLRT
 70
     0
  9
$DIMTFAC
 40
1.0
  9
$DIMGAP
 40
0.09
  9
$DIMJUST
 70
     0
  9
$DIMSD1
 70
     0
  9
$DIMSD2
 70
     0
  9
$DIMTOLJ
 70
     1
  9
$DIMTZIN
 70
     0
  9
$DIMALTZ
 70
     0
  9
$DIMALTTZ
 70
     0
  9
$DIMUPT
 70
     0
  9
$DIMDEC
 70
     4
  9
$DIMTDEC
 70
     4
  9
$DIMALTU
 70
     2
  9
$DIMALTTD
 70
     2
  9
$DIMTXSTY
  7
Standard
  9
$DIMAUNIT
 70
     0
  9
$DIMADEC
 70
     0
  9
$DIMALTRND
 40
0.0
  9
$DIMAZIN
 70
     0
  9
$DIMDSEP
 70
    46
  9
$DIMATFIT
 70
     3
  9
$DIMFRAC
 70
     0
  9
$DIMLDRBLK
  1

  9
$DIMLUNIT
 70
     2
  9
$DIMLWD
 70
    -2
  9
$DIMLWE
 70
    -2
  9
$DIMTMOVE
 70
     0
  9
$DIMFXL
 40
1.0
  9
$DIMFXLON
 70
     0
  9
$DIMJOGANG
 40
0.7853981633974483
  9
$DIMTFILL
 70
     0
  9
$DIMTFILLCLR
 70
     0
  9
$DIMARCSYM
 70
     0
  9
$DIMLTYPE
  6

  9
$DIMLTEX1
  6

  9
$DIMLTEX2
  6

  9
$LUNITS
 70
     2
  9
$LUPREC
 70
     4
  9
$SKETCHINC
 40
0.1
  9
$FILLETRAD
 40
0.5
  9
$AUNITS
 70
     0
  9
$AUPREC
 70
     0
  9
$MENU
  1
.
  9
$ELEVATION
 40
0.0
  9
$PELEVATION
 40
0.0
  9
$THICKNESS
 40
0.0
  9
$LIMCHECK
 70
     0
  9
$CHAMFERA
 40
0.0
  9
$CHAMFERB
 40
0.0
  9
$CHAMFERC
 40
0.0
  9
$CHAMFERD
 40
0.0
  9
$SKPOLY
 70
     0
  9
$TDCREATE
 40
2456840.518700521
  9
$TDUCREATE
 40
2456840.185367187
  9
$TDUPDATE
 40
2456840.518703241
  9
$TDUUPDATE
 40
2456840.185369907
  9
$TDINDWG
 40
0.0000000116
  9
$TDUSRTIMER
 40
0.0000000116
  9
$USRTIMER
 70
     1
  9
$ANGBASE
 50
0.0
  9
$ANGDIR
 70
     0
  9
$PDMODE
 70
     0
  9
$PDSIZE
 40
0.0
  9
$PLINEWID
 40
0.0
  9
$SPLFRAME
 70
     0
  9
$SPLINETYPE
 70
     6
  9
$SPLINESEGS
 70
     8
  9
$HANDSEED
  5
B8
  9
$SURFTAB1
 70
     6
  9
$SURFTAB2
 70
     6
  9
$SURFTYPE
 70
     6
  9
$SURFU
 70
     6
  9
$SURFV
 70
     6
  9
$UCSBASE
  2

  9
$UCSNAME
  2

  9
$UCSORG
 10
0.0
 20
0.0
 30
0.0
  9
$UCSXDIR
 10
1.0
 20
0.0
 30
0.0
  9
$UCSYDIR
 10
0.0
 20
1.0
 30
0.0
  9
$UCSORTHOREF
  2

  9
$UCSORTHOVIEW
 70
     0
  9
$UCSORGTOP
 10
0.0
 20
0.0
 30
0.0
  9
$UCSORGBOTTOM
 10
0.0
 20
0.0
 30
0.0
  9
$UCSORGLEFT
 10
0.0
 20
0.0
 30
0.0
  9
$UCSORGRIGHT
 10
0.0
 20
0.0
 30
0.0
  9
$UCSORGFRONT
 10
0.0
 20
0.0
 30
0.0
  9
$UCSORGBACK
 10
0.0
 20
0.0
 30
0.0
  9
$PUCSBASE
  2

  9
$PUCSNAME
  2

  9
$PUCSORG
 10
0.0
 20
0.0
 30
0.0
  9
$PUCSXDIR
 10
1.0
 20
0.0
 30
0.0
  9
$PUCSYDIR
 10
0.0
 20
1.0
 30
0.0
  9
$PUCSORTHOREF
  2

  9
$PUCSORTHOVIEW
 70
     0
  9
$PUCSORGTOP
 10
0.0
 20
0.0
 30
0.0
  9
$PUCSORGBOTTOM
 10
0.0
 20
0.0
 30
0.0
  9
$PUCSORGLEFT
 10
0.0
 20
0.0
 30
0.0
  9
$PUCSORGRIGHT
 10
0.0
 20
0.0
 30
0.0
  9
$PUCSORGFRONT
 10
0.0
 20
0.0
 30
0.0
  9
$PUCSORGBACK
 10
0.0
 20
0.0
 30
0.0
  9
$USERI1
 70
     0
  9
$USERI2
 70
     0
  9
$USERI3
 70
     0
  9
$USERI4
 70
     0
  9
$USERI5
 70
     0
  9
$USERR1
 40
0.0
  9
$USERR2
 40
0.0
  9
$USERR3
 40
0.0
  9
$USERR4
 40
0.0
  9
$USERR5
 40
0.0
  9
$WORLDVIEW
 70
     1
  9
$SHADEDGE
 70
     3
  9
$SHADEDIF
 70
    70
  9
$TILEMODE
 70
     1
  9
$MAXACTVP
 70
    64
  9
$PINSBASE
 10
0.0
 20
0.0
 30
0.0
  9
$PLIMCHECK
 70
     0
  9
$PEXTMIN
 10
1.000000000000000E 20
 20
1.000000000000000E 20
 30
1.000000000000000E 20
  9
$PEXTMAX
 10
-1.000000000000000E 20
 20
-1.000000000000000E 20
 30
-1.000000000000000E 20
  9
$PLIMMIN
 10
0.0
 20
0.0
  9
$PLIMMAX
 10
12.0
 20
9.0
  9
$UNITMODE
 70
     0
  9
$VISRETAIN
 70
     1
  9
$PLINEGEN
 70
     0
  9
$PSLTSCALE
 70
     1
  9
$TREEDEPTH
 70
  3020
  9
$CMLSTYLE
  2
Standard
  9
$CMLJUST
 70
     0
  9
$CMLSCALE
 40
1.0
  9
$PROXYGRAPHICS
 70
     1
  9
$MEASUREMENT
 70
     0
  9
$CELWEIGHT
370
    -1
  9
$ENDCAPS
280
     0
  9
$JOINSTYLE
280
     0
  9
$LWDISPLAY
290
     0
  9
$INSUNITS
 70
     4
  9
$HYPERLINKBASE
  1

  9
$STYLESHEET
  1

  9
$XEDIT
290
     1
  9
$CEPSNTYPE
380
     0
  9
$PSTYLEMODE
290
     1
  9
$FINGERPRINTGUID
  2
{6E6AB4D7-0FEA-460F-AD19-9F4FB42BA37B}
  9
$VERSIONGUID
  2
{FAEB1C32-E019-11D5-929B-00C0DF256EC4}
  9
$EXTNAMES
290
     1
  9
$PSVPSCALE
 40
0.0
  9
$OLESTARTUP
290
     0
  9
$SORTENTS
280
   127
  9
$INDEXCTL
280
     0
  9
$HIDETEXT
280
     1
  9
$XCLIPFRAME
290
     0
  9
$HALOGAP
280
     0
  9
$OBSCOLOR
 70
   257
  9
$OBSLTYPE
280
     0
  9
$INTERSECTIONDISPLAY
280
     0
  9
$INTERSECTIONCOLOR
 70
   257
  9
$DIMASSOC
280
     2
  9
$PROJECTNAME
  1

  9
$CAMERADISPLAY
290
     0
  9
$LENSLENGTH
 40
50.0
  9
$CAMERAHEIGHT
 40
0.0
  9
$STEPSPERSEC
 40
2.0
  9
$STEPSIZE
 40
6.0
  9
$3DDWFPREC
 40
2.0
  9
$PSOLWIDTH
 40
0.25
  9
$PSOLHEIGHT
 40
4.0
  9
$LOFTANG1
 40
1.570796326794897
  9
$LOFTANG2
 40
1.570796326794897
  9
$LOFTMAG1
 40
0.0
  9
$LOFTMAG2
 40
0.0
  9
$LOFTPARAM
 70
     7
  9
$LOFTNORMALS
280
     1
  9
$LATITUDE
 40
37.795
  9
$LONGITUDE
 40
-122.394
  9
$NORTHDIRECTION
 40
0.0
  9
$TIMEZONE
 70
 -8000
  9
$LIGHTGLYPHDISPLAY
280
     1
  9
$TILEMODELIGHTSYNCH
280
     1
  9
$CMATERIAL
347
44
  9
$SOLIDHIST
280
     1
  9
$SHOWHIST
280
     1
  9
$DWFFRAME
280
     2
  9
$DGNFRAME
280
     2
  9
$REALWORLDSCALE
290
     1
  9
$INTERFERECOLOR
 62
   256
  9
$CSHADOW
280
     0
  9
$SHADOWPLANELOCATION
 40
0.0
  0
ENDSEC
  0
SECTION
  2
CLASSES
  0
CLASS
  1
ACDBDICTIONARYWDFLT
  2
AcDbDictionaryWithDefault
  3
ObjectDBX Classes
 90
        0
 91
        4
280
     0
281
     0
  0
CLASS
  1
VISUALSTYLE
  2
AcDbVisualStyle
  3
ObjectDBX Classes
 90
     4095
 91
        4
280
     0
281
     0
  0
CLASS
  1
MATERIAL
  2
AcDbMaterial
  3
ObjectDBX Classes
 90
     1153
 91
        4
280
     0
281
     0
  0
CLASS
  1
SCALE
  2
AcDbScale
  3
ObjectDBX Classes
 90
     1153
 91
        4
280
     0
281
     0
  0
CLASS
  1
SUN
  2
AcDbSun
  3
SCENEOE
 90
     1153
 91
        4
280
     0
281
     0
  0
CLASS
  1
DICTIONARYVAR
  2
AcDbDictionaryVar
  3
ObjectDBX Classes
 90
        0
 91
        4
280
     0
281
     0
  0
ENDSEC
  0
SECTION
  2
TABLES
  0
TABLE
  2
VPORT
  5
8
330
0
100
AcDbSymbolTable
 70
     1
  0
VPORT
  5
29
330
8
100
AcDbSymbolTableRecord
100
AcDbViewportTableRecord
  2
*Active
 70
     0
 10
0.0
 20
0.0
 11
1.0
 21
1.0
 12
10.42990654205607
 22
4.5
 13
0.0
 23
0.0
 14
0.5
 24
0.5
 15
0.5
 25
0.5
 16
0.0
 26
0.0
 36
1.0
 17
0.0
 27
0.0
 37
0.0
 40
9.0
 41
1.972972972850329
 42
50.0
 43
0.0
 44
0.0
 50
0.0
 51
0.0
 71
     0
 72
   100
 73
     1
 74
     3
 75
     0
 76
     0
 77
     0
 78
     0
281
     0
 65
     1
110
0.0
120
0.0
130
0.0
111
1.0
121
0.0
131
0.0
112
0.0
122
1.0
132
0.0
 79
     0
146
0.0
 60
     3
 61
     5
292
     1
282
     1
141
0.0
142
0.0
 63
   250
361
69
  0
ENDTAB
  0
TABLE
  2
LTYPE
  5
5
330
0
100
AcDbSymbolTable
 70
     1
  0
LTYPE
  5
14
330
5
100
AcDbSymbolTableRecord
100
AcDbLinetypeTableRecord
  2
ByBlock
 70
     0
  3

 72
    65
 73
     0
 40
0.0
  0
LTYPE
  5
15
330
5
100
AcDbSymbolTableRecord
100
AcDbLinetypeTableRecord
  2
ByLayer
 70
     0
  3

 72
    65
 73
     0
 40
0.0
  0
LTYPE
  5
16
330
5
100
AcDbSymbolTableRecord
100
AcDbLinetypeTableRecord
  2
Continuous
 70
     0
  3
Solid line
 72
    65
 73
     0
 40
0.0
  0
ENDTAB
  0
TABLE
  2
LAYER
  5
2
330
0
100
AcDbSymbolTable
 70
     2
  0
LAYER
  5
10
330
2
100
AcDbSymbolTableRecord
100
AcDbLayerTableRecord
  2
0
 70
     0
 62
     7
  6
Continuous
370
    -3
390
F
347
46
  0
LAYER
  5
6B
330
2
100
AcDbSymbolTableRecord
100
AcDbLayerTableRecord
  2
layer 1
 70
     0
 62
     7
  6
Continuous
370
    -3
390
F
347
46
  0
ENDTAB
  0
TABLE
  2
STYLE
  5
3
330
0
100
AcDbSymbolTable
 70
     1
  0
STYLE
  5
11
330
3
100
AcDbSymbolTableRecord
100
AcDbTextStyleTableRecord
  2
Standard
 70
     0
 40
0.0
 41
1.0
 50
0.0
 71
     0
 42
0.2
  3
txt
  4

  0
ENDTAB
  0
TABLE
  2
VIEW
  5
6
330
0
100
AcDbSymbolTable
 70
     0
  0
ENDTAB
  0
TABLE
  2
UCS
  5
7
330
0
100
AcDbSymbolTable
 70
     0
  0
ENDTAB
  0
TABLE
  2
APPID
  5
9
330
0
100
AcDbSymbolTable
 70
     2
  0
APPID
  5
12
330
9
100
AcDbSymbolTableRecord
100
AcDbRegAppTableRecord
  2
ACAD
 70
     0
  0
APPID
  5
6A
330
9
100
AcDbSymbolTableRecord
100
AcDbRegAppTableRecord
  2
ODA
 70
     0
  0
ENDTAB
  0
TABLE
  2
DIMSTYLE
  5
A
330
0
100
AcDbSymbolTable
 70
     1
100
AcDbDimStyleTable
  0
DIMSTYLE
105
27
330
A
100
AcDbSymbolTableRecord
100
AcDbDimStyleTableRecord
  2
Standard
 70
     0
178
     0
340
11
  0
ENDTAB
  0
TABLE
  2
BLOCK_RECORD
  5
1
330
0
100
AcDbSymbolTable
 70
     1
  0
BLOCK_RECORD
  5
1F
330
1
100
AcDbSymbolTableRecord
100
AcDbBlockTableRecord
  2
*Model_Space
340
22
 70
     0
280
     1
281
     0
  0
BLOCK_RECORD
  5
1B
330
1
100
AcDbSymbolTableRecord
100
AcDbBlockTableRecord
  2
*Paper_Space
340
1E
 70
     0
280
     1
281
     0
  0
BLOCK_RECORD
  5
23
330
1
100
AcDbSymbolTableRecord
100
AcDbBlockTableRecord
  2
*Paper_Space0
340
26
 70
     0
280
     1
281
     0
  0
ENDTAB
  0
ENDSEC
  0
SECTION
  2
BLOCKS
  0
BLOCK
  5
20
330
1F
100
AcDbEntity
  8
0
100
AcDbBlockBegin
  2
*Model_Space
 70
     0
 10
0.0
 20
0.0
 30
0.0
  3
*Model_Space
  1
*Model_Space
  0
ENDBLK
  5
21
330
1F
100
AcDbEntity
  8
0
100
AcDbBlockEnd
  0
BLOCK
  5
1C
330
1B
100
AcDbEntity
 67
     1
  8
0
100
AcDbBlockBegin
  2
*Paper_Space
 70
     0
 10
0.0
 20
0.0
 30
0.0
  3
*Paper_Space
  1
*Paper_Space
  0
ENDBLK
  5
1D
330
1B
100
AcDbEntity
 67
     1
  8
0
100
AcDbBlockEnd
  0
BLOCK
  5
24
330
23
100
AcDbEntity
  8
0
100
AcDbBlockBegin
  2
*Paper_Space0
 70
     0
 10
0.0
 20
0.0
 30
0.0
  3
*Paper_Space0
  1
*Paper_Space0
  0
ENDBLK
  5
25
330
23
100
AcDbEntity
  8
0
100
AcDbBlockEnd
  0
ENDSEC
  0
SECTION
  2
ENTITIES
  0
SPLINE
  5
6C
330
1F
100
AcDbEntity
  8
layer 1
 62
   250
370
     9
100
AcDbSpline
210
0.0
220
0.0
230
1.0
 70
    11
 71
     3
 72
  1124
 73
  1120
 74
     0
 42
0.000000001
 43
0.0000000001
 40
0.0
 40
0.0
 40
0.0
 40
0.0
 40
0.00355871886121
 40
0.00355871886121
 40
0.00355871886121
 40
0.00355871886121
 40
0.0071174377224199
 40
0.0071174377224199
 40
0.0071174377224199
 40
0.0071174377224199
 40
0.0106761565836299
 40
0.0106761565836299
 40
0.0106761565836299
 40
0.0106761565836299
 40
0.0142348754448399
 40
0.0142348754448399
 40
0.0142348754448399
 40
0.0142348754448399
 40
0.0177935943060498
 40
0.0177935943060498
 40
0.0177935943060498
 40
0.0177935943060498
 40
0.0213523131672598
 40
0.0213523131672598
 40
0.0213523131672598
 40
0.0213523131672598
 40
0.0249110320284698
 40
0.0249110320284698
 40
0.0249110320284698
 40
0.0249110320284698
 40
0.0284697508896797
 40
0.0284697508896797
 40
0.0284697508896797
 40
0.0284697508896797
 40
0.0320284697508897
 40
0.0320284697508897
 40
0.0320284697508897
 40
0.0320284697508897
 40
0.0355871886120996
 40
0.0355871886120996
 40
0.0355871886120996
 40
0.0355871886120996
 40
0.0391459074733096
 40
0.0391459074733096
 40
0.0391459074733096
 40
0.0391459074733096
 40
0.0427046263345196
 40
0.0427046263345196
 40
0.0427046263345196
 40
0.0427046263345196
 40
0.0462633451957295
 40
0.0462633451957295
 40
0.0462633451957295
 40
0.0462633451957295
 40
0.0498220640569395
 40
0.0498220640569395
 40
0.0498220640569395
 40
0.0498220640569395
 40
0.0533807829181495
 40
0.0533807829181495
 40
0.0533807829181495
 40
0.0533807829181495
 40
0.0569395017793594
 40
0.0569395017793594
 40
0.0569395017793594
 40
0.0569395017793594
 40
0.0604982206405694
 40
0.0604982206405694
 40
0.0604982206405694
 40
0.0604982206405694
 40
0.0640569395017794
 40
0.0640569395017794
 40
0.0640569395017794
 40
0.0640569395017794
 40
0.0676156583629893
 40
0.0676156583629893
 40
0.0676156583629893
 40
0.0676156583629893
 40
0.0711743772241993
 40
0.0711743772241993
 40
0.0711743772241993
 40
0.0711743772241993
 40
0.0747330960854092
 40
0.0747330960854092
 40
0.0747330960854092
 40
0.0747330960854092
 40
0.0782918149466192
 40
0.0782918149466192
 40
0.0782918149466192
 40
0.0782918149466192
 40
0.0818505338078292
 40
0.0818505338078292
 40
0.0818505338078292
 40
0.0818505338078292
 40
0.0854092526690391
 40
0.0854092526690391
 40
0.0854092526690391
 40
0.0854092526690391
 40
0.0889679715302491
 40
0.0889679715302491
 40
0.0889679715302491
 40
0.0889679715302491
 40
0.0925266903914591
 40
0.0925266903914591
 40
0.0925266903914591
 40
0.0925266903914591
 40
0.096085409252669
 40
0.096085409252669
 40
0.096085409252669
 40
0.096085409252669
 40
0.099644128113879
 40
0.099644128113879
 40
0.099644128113879
 40
0.099644128113879
 40
0.103202846975089
 40
0.103202846975089
 40
0.103202846975089
 40
0.103202846975089
 40
0.1067615658362989
 40
0.1067615658362989
 40
0.1067615658362989
 40
0.1067615658362989
 40
0.1103202846975089
 40
0.1103202846975089
 40
0.1103202846975089
 40
0.1103202846975089
 40
0.1138790035587189
 40
0.1138790035587189
 40
0.1138790035587189
 40
0.1138790035587189
 40
0.1174377224199288
 40
0.1174377224199288
 40
0.1174377224199288
 40
0.1174377224199288
 40
0.1209964412811388
 40
0.1209964412811388
 40
0.1209964412811388
 40
0.1209964412811388
 40
0.1245551601423488
 40
0.1245551601423488
 40
0.1245551601423488
 40
0.1245551601423488
 40
0.1281138790035587
 40
0.1281138790035587
 40
0.1281138790035587
 40
0.1281138790035587
 40
0.1316725978647687
 40
0.1316725978647687
 40
0.1316725978647687
 40
0.1316725978647687
 40
0.1352313167259787
 40
0.1352313167259787
 40
0.1352313167259787
 40
0.1352313167259787
 40
0.1387900355871886
 40
0.1387900355871886
 40
0.1387900355871886
 40
0.1387900355871886
 40
0.1423487544483986
 40
0.1423487544483986
 40
0.1423487544483986
 40
0.1423487544483986
 40
0.1459074733096085
 40
0.1459074733096085
 40
0.1459074733096085
 40
0.1459074733096085
 40
0.1494661921708185
 40
0.1494661921708185
 40
0.1494661921708185
 40
0.1494661921708185
 40
0.1530249110320285
 40
0.1530249110320285
 40
0.1530249110320285
 40
0.1530249110320285
 40
0.1565836298932384
 40
0.1565836298932384
 40
0.1565836298932384
 40
0.1565836298932384
 40
0.1601423487544484
 40
0.1601423487544484
 40
0.1601423487544484
 40
0.1601423487544484
 40
0.1637010676156584
 40
0.1637010676156584
 40
0.1637010676156584
 40
0.1637010676156584
 40
0.1672597864768683
 40
0.1672597864768683
 40
0.1672597864768683
 40
0.1672597864768683
 40
0.1708185053380783
 40
0.1708185053380783
 40
0.1708185053380783
 40
0.1708185053380783
 40
0.1743772241992882
 40
0.1743772241992882
 40
0.1743772241992882
 40
0.1743772241992882
 40
0.1779359430604982
 40
0.1779359430604982
 40
0.1779359430604982
 40
0.1779359430604982
 40
0.1814946619217082
 40
0.1814946619217082
 40
0.1814946619217082
 40
0.1814946619217082
 40
0.1850533807829181
 40
0.1850533807829181
 40
0.1850533807829181
 40
0.1850533807829181
 40
0.1886120996441281
 40
0.1886120996441281
 40
0.1886120996441281
 40
0.1886120996441281
 40
0.1921708185053381
 40
0.1921708185053381
 40
0.1921708185053381
 40
0.1921708185053381
 40
0.1957295373665481
 40
0.1957295373665481
 40
0.1957295373665481
 40
0.1957295373665481
 40
0.199288256227758
 40
0.199288256227758
 40
0.199288256227758
 40
0.199288256227758
 40
0.202846975088968
 40
0.202846975088968
 40
0.202846975088968
 40
0.202846975088968
 40
0.2064056939501779
 40
0.2064056939501779
 40
0.2064056939501779
 40
0.2064056939501779
 40
0.2099644128113879
 40
0.2099644128113879
 40
0.2099644128113879
 40
0.2099644128113879
 40
0.2135231316725979
 40
0.2135231316725979
 40
0.2135231316725979
 40
0.2135231316725979
 40
0.2170818505338078
 40
0.2170818505338078
 40
0.2170818505338078
 40
0.2170818505338078
 40
0.2206405693950178
 40
0.2206405693950178
 40
0.2206405693950178
 40
0.2206405693950178
 40
0.2241992882562278
 40
0.2241992882562278
 40
0.2241992882562278
 40
0.2241992882562278
 40
0.2277580071174377
 40
0.2277580071174377
 40
0.2277580071174377
 40
0.2277580071174377
 40
0.2313167259786477
 40
0.2313167259786477
 40
0.2313167259786477
 40
0.2313167259786477
 40
0.2348754448398576
 40
0.2348754448398576
 40
0.2348754448398576
 40
0.2348754448398576
 40
0.2384341637010676
 40
0.2384341637010676
 40
0.2384341637010676
 40
0.2384341637010676
 40
0.2419928825622776
 40
0.2419928825622776
 40
0.2419928825622776
 40
0.2419928825622776
 40
0.2455516014234875
 40
0.2455516014234875
 40
0.2455516014234875
 40
0.2455516014234875
 40
0.2491103202846975
 40
0.2491103202846975
 40
0.2491103202846975
 40
0.2491103202846975
 40
0.2526690391459075
 40
0.2526690391459075
 40
0.2526690391459075
 40
0.2526690391459075
 40
0.2562277580071174
 40
0.2562277580071174
 40
0.2562277580071174
 40
0.2562277580071174
 40
0.2597864768683274
 40
0.2597864768683274
 40
0.2597864768683274
 40
0.2597864768683274
 40
0.2633451957295374
 40
0.2633451957295374
 40
0.2633451957295374
 40
0.2633451957295374
 40
0.2669039145907473
 40
0.2669039145907473
 40
0.2669039145907473
 40
0.2669039145907473
 40
0.2704626334519573
 40
0.2704626334519573
 40
0.2704626334519573
 40
0.2704626334519573
 40
0.2740213523131673
 40
0.2740213523131673
 40
0.2740213523131673
 40
0.2740213523131673
 40
0.2775800711743772
 40
0.2775800711743772
 40
0.2775800711743772
 40
0.2775800711743772
 40
0.2811387900355872
 40
0.2811387900355872
 40
0.2811387900355872
 40
0.2811387900355872
 40
0.2846975088967972
 40
0.2846975088967972
 40
0.2846975088967972
 40
0.2846975088967972
 40
0.2882562277580071
 40
0.2882562277580071
 40
0.2882562277580071
 40
0.2882562277580071
 40
0.2918149466192171
 40
0.2918149466192171
 40
0.2918149466192171
 40
0.2918149466192171
 40
0.295373665480427
 40
0.295373665480427
 40
0.295373665480427
 40
0.295373665480427
 40
0.298932384341637
 40
0.298932384341637
 40
0.298932384341637
 40
0.298932384341637
 40
0.302491103202847
 40
0.302491103202847
 40
0.302491103202847
 40
0.302491103202847
 40
0.306049822064057
 40
0.306049822064057
 40
0.306049822064057
 40
0.306049822064057
 40
0.3096085409252669
 40
0.3096085409252669
 40
0.3096085409252669
 40
0.3096085409252669
 40
0.3131672597864769
 40
0.3131672597864769
 40
0.3131672597864769
 40
0.3131672597864769
 40
0.3167259786476868
 40
0.3167259786476868
 40
0.3167259786476868
 40
0.3167259786476868
 40
0.3202846975088968
 40
0.3202846975088968
 40
0.3202846975088968
 40
0.3202846975088968
 40
0.3238434163701068
 40
0.3238434163701068
 40
0.3238434163701068
 40
0.3238434163701068
 40
0.3274021352313167
 40
0.3274021352313167
 40
0.3274021352313167
 40
0.3274021352313167
 40
0.3309608540925267
 40
0.3309608540925267
 40
0.3309608540925267
 40
0.3309608540925267
 40
0.3345195729537366
 40
0.3345195729537366
 40
0.3345195729537366
 40
0.3345195729537366
 40
0.3380782918149466
 40
0.3380782918149466
 40
0.3380782918149466
 40
0.3380782918149466
 40
0.3416370106761566
 40
0.3416370106761566
 40
0.3416370106761566
 40
0.3416370106761566
 40
0.3451957295373665
 40
0.3451957295373665
 40
0.3451957295373665
 40
0.3451957295373665
 40
0.3487544483985765
 40
0.3487544483985765
 40
0.3487544483985765
 40
0.3487544483985765
 40
0.3523131672597865
 40
0.3523131672597865
 40
0.3523131672597865
 40
0.3523131672597865
 40
0.3558718861209965
 40
0.3558718861209965
 40
0.3558718861209965
 40
0.3558718861209965
 40
0.3594306049822064
 40
0.3594306049822064
 40
0.3594306049822064
 40
0.3594306049822064
 40
0.3629893238434164
 40
0.3629893238434164
 40
0.3629893238434164
 40
0.3629893238434164
 40
0.3665480427046263
 40
0.3665480427046263
 40
0.3665480427046263
 40
0.3665480427046263
 40
0.3701067615658363
 40
0.3701067615658363
 40
0.3701067615658363
 40
0.3701067615658363
 40
0.3736654804270463
 40
0.3736654804270463
 40
0.3736654804270463
 40
0.3736654804270463
 40
0.3772241992882562
 40
0.3772241992882562
 40
0.3772241992882562
 40
0.3772241992882562
 40
0.3807829181494662
 40
0.3807829181494662
 40
0.3807829181494662
 40
0.3807829181494662
 40
0.3843416370106761
 40
0.3843416370106761
 40
0.3843416370106761
 40
0.3843416370106761
 40
0.3879003558718861
 40
0.3879003558718861
 40
0.3879003558718861
 40
0.3879003558718861
 40
0.3914590747330961
 40
0.3914590747330961
 40
0.3914590747330961
 40
0.3914590747330961
 40
0.3950177935943061
 40
0.3950177935943061
 40
0.3950177935943061
 40
0.3950177935943061
 40
0.398576512455516
 40
0.398576512455516
 40
0.398576512455516
 40
0.398576512455516
 40
0.402135231316726
 40
0.402135231316726
 40
0.402135231316726
 40
0.402135231316726
 40
0.405693950177936
 40
0.405693950177936
 40
0.405693950177936
 40
0.405693950177936
 40
0.4092526690391459
 40
0.4092526690391459
 40
0.4092526690391459
 40
0.4092526690391459
 40
0.4128113879003559
 40
0.4128113879003559
 40
0.4128113879003559
 40
0.4128113879003559
 40
0.4163701067615658
 40
0.4163701067615658
 40
0.4163701067615658
 40
0.4163701067615658
 40
0.4199288256227758
 40
0.4199288256227758
 40
0.4199288256227758
 40
0.4199288256227758
 40
0.4234875444839858
 40
0.4234875444839858
 40
0.4234875444839858
 40
0.4234875444839858
 40
0.4270462633451957
 40
0.4270462633451957
 40
0.4270462633451957
 40
0.4270462633451957
 40
0.4306049822064057
 40
0.4306049822064057
 40
0.4306049822064057
 40
0.4306049822064057
 40
0.4341637010676156
 40
0.4341637010676156
 40
0.4341637010676156
 40
0.4341637010676156
 40
0.4377224199288256
 40
0.4377224199288256
 40
0.4377224199288256
 40
0.4377224199288256
 40
0.4412811387900356
 40
0.4412811387900356
 40
0.4412811387900356
 40
0.4412811387900356
 40
0.4448398576512456
 40
0.4448398576512456
 40
0.4448398576512456
 40
0.4448398576512456
 40
0.4483985765124555
 40
0.4483985765124555
 40
0.4483985765124555
 40
0.4483985765124555
 40
0.4519572953736655
 40
0.4519572953736655
 40
0.4519572953736655
 40
0.4519572953736655
 40
0.4555160142348754
 40
0.4555160142348754
 40
0.4555160142348754
 40
0.4555160142348754
 40
0.4590747330960854
 40
0.4590747330960854
 40
0.4590747330960854
 40
0.4590747330960854
 40
0.4626334519572954
 40
0.4626334519572954
 40
0.4626334519572954
 40
0.4626334519572954
 40
0.4661921708185053
 40
0.4661921708185053
 40
0.4661921708185053
 40
0.4661921708185053
 40
0.4697508896797153
 40
0.4697508896797153
 40
0.4697508896797153
 40
0.4697508896797153
 40
0.4733096085409252
 40
0.4733096085409252
 40
0.4733096085409252
 40
0.4733096085409252
 40
0.4768683274021353
 40
0.4768683274021353
 40
0.4768683274021353
 40
0.4768683274021353
 40
0.4804270462633452
 40
0.4804270462633452
 40
0.4804270462633452
 40
0.4804270462633452
 40
0.4839857651245552
 40
0.4839857651245552
 40
0.4839857651245552
 40
0.4839857651245552
 40
0.4875444839857651
 40
0.4875444839857651
 40
0.4875444839857651
 40
0.4875444839857651
 40
0.4911032028469751
 40
0.4911032028469751
 40
0.4911032028469751
 40
0.4911032028469751
 40
0.4946619217081851
 40
0.4946619217081851
 40
0.4946619217081851
 40
0.4946619217081851
 40
0.498220640569395
 40
0.498220640569395
 40
0.498220640569395
 40
0.498220640569395
 40
0.501779359430605
 40
0.501779359430605
 40
0.501779359430605
 40
0.501779359430605
 40
0.505338078291815
 40
0.505338078291815
 40
0.505338078291815
 40
0.505338078291815
 40
0.5088967971530249
 40
0.5088967971530249
 40
0.5088967971530249
 40
0.5088967971530249
 40
0.5124555160142349
 40
0.5124555160142349
 40
0.5124555160142349
 40
0.5124555160142349
 40
0.5160142348754448
 40
0.5160142348754448
 40
0.5160142348754448
 40
0.5160142348754448
 40
0.5195729537366548
 40
0.5195729537366548
 40
0.5195729537366548
 40
0.5195729537366548
 40
0.5231316725978647
 40
0.5231316725978647
 40
0.5231316725978647
 40
0.5231316725978647
 40
0.5266903914590747
 40
0.5266903914590747
 40
0.5266903914590747
 40
0.5266903914590747
 40
0.5302491103202847
 40
0.5302491103202847
 40
0.5302491103202847
 40
0.5302491103202847
 40
0.5338078291814946
 40
0.5338078291814946
 40
0.5338078291814946
 40
0.5338078291814946
 40
0.5373665480427047
 40
0.5373665480427047
 40
0.5373665480427047
 40
0.5373665480427047
 40
0.5409252669039146
 40
0.5409252669039146
 40
0.5409252669039146
 40
0.5409252669039146
 40
0.5444839857651246
 40
0.5444839857651246
 40
0.5444839857651246
 40
0.5444839857651246
 40
0.5480427046263345
 40
0.5480427046263345
 40
0.5480427046263345
 40
0.5480427046263345
 40
0.5516014234875445
 40
0.5516014234875445
 40
0.5516014234875445
 40
0.5516014234875445
 40
0.5551601423487544
 40
0.5551601423487544
 40
0.5551601423487544
 40
0.5551601423487544
 40
0.5587188612099644
 40
0.5587188612099644
 40
0.5587188612099644
 40
0.5587188612099644
 40
0.5622775800711743
 40
0.5622775800711743
 40
0.5622775800711743
 40
0.5622775800711743
 40
0.5658362989323843
 40
0.5658362989323843
 40
0.5658362989323843
 40
0.5658362989323843
 40
0.5693950177935944
 40
0.5693950177935944
 40
0.5693950177935944
 40
0.5693950177935944
 40
0.5729537366548043
 40
0.5729537366548043
 40
0.5729537366548043
 40
0.5729537366548043
 40
0.5765124555160143
 40
0.5765124555160143
 40
0.5765124555160143
 40
0.5765124555160143
 40
0.5800711743772242
 40
0.5800711743772242
 40
0.5800711743772242
 40
0.5800711743772242
 40
0.5836298932384342
 40
0.5836298932384342
 40
0.5836298932384342
 40
0.5836298932384342
 40
0.5871886120996441
 40
0.5871886120996441
 40
0.5871886120996441
 40
0.5871886120996441
 40
0.5907473309608541
 40
0.5907473309608541
 40
0.5907473309608541
 40
0.5907473309608541
 40
0.594306049822064
 40
0.594306049822064
 40
0.594306049822064
 40
0.594306049822064
 40
0.597864768683274
 40
0.597864768683274
 40
0.597864768683274
 40
0.597864768683274
 40
0.6014234875444839
 40
0.6014234875444839
 40
0.6014234875444839
 40
0.6014234875444839
 40
0.604982206405694
 40
0.604982206405694
 40
0.604982206405694
 40
0.604982206405694
 40
0.608540925266904
 40
0.608540925266904
 40
0.608540925266904
 40
0.608540925266904
 40
0.6120996441281139
 40
0.6120996441281139
 40
0.6120996441281139
 40
0.6120996441281139
 40
0.6156583629893239
 40
0.6156583629893239
 40
0.6156583629893239
 40
0.6156583629893239
 40
0.6192170818505338
 40
0.6192170818505338
 40
0.6192170818505338
 40
0.6192170818505338
 40
0.6227758007117438
 40
0.6227758007117438
 40
0.6227758007117438
 40
0.6227758007117438
 40
0.6263345195729537
 40
0.6263345195729537
 40
0.6263345195729537
 40
0.6263345195729537
 40
0.6298932384341637
 40
0.6298932384341637
 40
0.6298932384341637
 40
0.6298932384341637
 40
0.6334519572953736
 40
0.6334519572953736
 40
0.6334519572953736
 40
0.6334519572953736
 40
0.6370106761565836
 40
0.6370106761565836
 40
0.6370106761565836
 40
0.6370106761565836
 40
0.6405693950177936
 40
0.6405693950177936
 40
0.6405693950177936
 40
0.6405693950177936
 40
0.6441281138790036
 40
0.6441281138790036
 40
0.6441281138790036
 40
0.6441281138790036
 40
0.6476868327402135
 40
0.6476868327402135
 40
0.6476868327402135
 40
0.6476868327402135
 40
0.6512455516014235
 40
0.6512455516014235
 40
0.6512455516014235
 40
0.6512455516014235
 40
0.6548042704626335
 40
0.6548042704626335
 40
0.6548042704626335
 40
0.6548042704626335
 40
0.6583629893238434
 40
0.6583629893238434
 40
0.6583629893238434
 40
0.6583629893238434
 40
0.6619217081850534
 40
0.6619217081850534
 40
0.6619217081850534
 40
0.6619217081850534
 40
0.6654804270462633
 40
0.6654804270462633
 40
0.6654804270462633
 40
0.6654804270462633
 40
0.6690391459074733
 40
0.6690391459074733
 40
0.6690391459074733
 40
0.6690391459074733
 40
0.6725978647686833
 40
0.6725978647686833
 40
0.6725978647686833
 40
0.6725978647686833
 40
0.6761565836298933
 40
0.6761565836298933
 40
0.6761565836298933
 40
0.6761565836298933
 40
0.6797153024911032
 40
0.6797153024911032
 40
0.6797153024911032
 40
0.6797153024911032
 40
0.6832740213523132
 40
0.6832740213523132
 40
0.6832740213523132
 40
0.6832740213523132
 40
0.6868327402135231
 40
0.6868327402135231
 40
0.6868327402135231
 40
0.6868327402135231
 40
0.6903914590747331
 40
0.6903914590747331
 40
0.6903914590747331
 40
0.6903914590747331
 40
0.693950177935943
 40
0.693950177935943
 40
0.693950177935943
 40
0.693950177935943
 40
0.697508896797153
 40
0.697508896797153
 40
0.697508896797153
 40
0.697508896797153
 40
0.701067615658363
 40
0.701067615658363
 40
0.701067615658363
 40
0.701067615658363
 40
0.7046263345195729
 40
0.7046263345195729
 40
0.7046263345195729
 40
0.7046263345195729
 40
0.708185053380783
 40
0.708185053380783
 40
0.708185053380783
 40
0.708185053380783
 40
0.7117437722419929
 40
0.7117437722419929
 40
0.7117437722419929
 40
0.7117437722419929
 40
0.7153024911032029
 40
0.7153024911032029
 40
0.7153024911032029
 40
0.7153024911032029
 40
0.7188612099644128
 40
0.7188612099644128
 40
0.7188612099644128
 40
0.7188612099644128
 40
0.7224199288256228
 40
0.7224199288256228
 40
0.7224199288256228
 40
0.7224199288256228
 40
0.7259786476868327
 40
0.7259786476868327
 40
0.7259786476868327
 40
0.7259786476868327
 40
0.7295373665480427
 40
0.7295373665480427
 40
0.7295373665480427
 40
0.7295373665480427
 40
0.7330960854092526
 40
0.7330960854092526
 40
0.7330960854092526
 40
0.7330960854092526
 40
0.7366548042704626
 40
0.7366548042704626
 40
0.7366548042704626
 40
0.7366548042704626
 40
0.7402135231316725
 40
0.7402135231316725
 40
0.7402135231316725
 40
0.7402135231316725
 40
0.7437722419928826
 40
0.7437722419928826
 40
0.7437722419928826
 40
0.7437722419928826
 40
0.7473309608540926
 40
0.7473309608540926
 40
0.7473309608540926
 40
0.7473309608540926
 40
0.7508896797153025
 40
0.7508896797153025
 40
0.7508896797153025
 40
0.7508896797153025
 40
0.7544483985765125
 40
0.7544483985765125
 40
0.7544483985765125
 40
0.7544483985765125
 40
0.7580071174377224
 40
0.7580071174377224
 40
0.7580071174377224
 40
0.7580071174377224
 40
0.7615658362989324
 40
0.7615658362989324
 40
0.7615658362989324
 40
0.7615658362989324
 40
0.7651245551601423
 40
0.7651245551601423
 40
0.7651245551601423
 40
0.7651245551601423
 40
0.7686832740213523
 40
0.7686832740213523
 40
0.7686832740213523
 40
0.7686832740213523
 40
0.7722419928825622
 40
0.7722419928825622
 40
0.7722419928825622
 40
0.7722419928825622
 40
0.7758007117437722
 40
0.7758007117437722
 40
0.7758007117437722
 40
0.7758007117437722
 40
0.7793594306049823
 40
0.7793594306049823
 40
0.7793594306049823
 40
0.7793594306049823
 40
0.7829181494661922
 40
0.7829181494661922
 40
0.7829181494661922
 40
0.7829181494661922
 40
0.7864768683274022
 40
0.7864768683274022
 40
0.7864768683274022
 40
0.7864768683274022
 40
0.7900355871886121
 40
0.7900355871886121
 40
0.7900355871886121
 40
0.7900355871886121
 40
0.7935943060498221
 40
0.7935943060498221
 40
0.7935943060498221
 40
0.7935943060498221
 40
0.797153024911032
 40
0.797153024911032
 40
0.797153024911032
 40
0.797153024911032
 40
0.800711743772242
 40
0.800711743772242
 40
0.800711743772242
 40
0.800711743772242
 40
0.8042704626334519
 40
0.8042704626334519
 40
0.8042704626334519
 40
0.8042704626334519
 40
0.8078291814946619
 40
0.8078291814946619
 40
0.8078291814946619
 40
0.8078291814946619
 40
0.8113879003558719
 40
0.8113879003558719
 40
0.8113879003558719
 40
0.8113879003558719
 40
0.8149466192170819
 40
0.8149466192170819
 40
0.8149466192170819
 40
0.8149466192170819
 40
0.8185053380782918
 40
0.8185053380782918
 40
0.8185053380782918
 40
0.8185053380782918
 40
0.8220640569395018
 40
0.8220640569395018
 40
0.8220640569395018
 40
0.8220640569395018
 40
0.8256227758007118
 40
0.8256227758007118
 40
0.8256227758007118
 40
0.8256227758007118
 40
0.8291814946619217
 40
0.8291814946619217
 40
0.8291814946619217
 40
0.8291814946619217
 40
0.8327402135231317
 40
0.8327402135231317
 40
0.8327402135231317
 40
0.8327402135231317
 40
0.8362989323843416
 40
0.8362989323843416
 40
0.8362989323843416
 40
0.8362989323843416
 40
0.8398576512455516
 40
0.8398576512455516
 40
0.8398576512455516
 40
0.8398576512455516
 40
0.8434163701067615
 40
0.8434163701067615
 40
0.8434163701067615
 40
0.8434163701067615
 40
0.8469750889679716
 40
0.8469750889679716
 40
0.8469750889679716
 40
0.8469750889679716
 40
0.8505338078291815
 40
0.8505338078291815
 40
0.8505338078291815
 40
0.8505338078291815
 40
0.8540925266903915
 40
0.8540925266903915
 40
0.8540925266903915
 40
0.8540925266903915
 40
0.8576512455516014
 40
0.8576512455516014
 40
0.8576512455516014
 40
0.8576512455516014
 40
0.8612099644128114
 40
0.8612099644128114
 40
0.8612099644128114
 40
0.8612099644128114
 40
0.8647686832740213
 40
0.8647686832740213
 40
0.8647686832740213
 40
0.8647686832740213
 40
0.8683274021352313
 40
0.8683274021352313
 40
0.8683274021352313
 40
0.8683274021352313
 40
0.8718861209964412
 40
0.8718861209964412
 40
0.8718861209964412
 40
0.8718861209964412
 40
0.8754448398576512
 40
0.8754448398576512
 40
0.8754448398576512
 40
0.8754448398576512
 40
0.8790035587188612
 40
0.8790035587188612
 40
0.8790035587188612
 40
0.8790035587188612
 40
0.8825622775800712
 40
0.8825622775800712
 40
0.8825622775800712
 40
0.8825622775800712
 40
0.8861209964412812
 40
0.8861209964412812
 40
0.8861209964412812
 40
0.8861209964412812
 40
0.8896797153024911
 40
0.8896797153024911
 40
0.8896797153024911
 40
0.8896797153024911
 40
0.8932384341637011
 40
0.8932384341637011
 40
0.8932384341637011
 40
0.8932384341637011
 40
0.896797153024911
 40
0.896797153024911
 40
0.896797153024911
 40
0.896797153024911
 40
0.900355871886121
 40
0.900355871886121
 40
0.900355871886121
 40
0.900355871886121
 40
0.9039145907473309
 40
0.9039145907473309
 40
0.9039145907473309
 40
0.9039145907473309
 40
0.9074733096085409
 40
0.9074733096085409
 40
0.9074733096085409
 40
0.9074733096085409
 40
0.9110320284697508
 40
0.9110320284697508
 40
0.9110320284697508
 40
0.9110320284697508
 40
0.9145907473309609
 40
0.9145907473309609
 40
0.9145907473309609
 40
0.9145907473309609
 40
0.9181494661921709
 40
0.9181494661921709
 40
0.9181494661921709
 40
0.9181494661921709
 40
0.9217081850533808
 40
0.9217081850533808
 40
0.9217081850533808
 40
0.9217081850533808
 40
0.9252669039145908
 40
0.9252669039145908
 40
0.9252669039145908
 40
0.9252669039145908
 40
0.9288256227758007
 40
0.9288256227758007
 40
0.9288256227758007
 40
0.9288256227758007
 40
0.9323843416370107
 40
0.9323843416370107
 40
0.9323843416370107
 40
0.9323843416370107
 40
0.9359430604982206
 40
0.9359430604982206
 40
0.9359430604982206
 40
0.9359430604982206
 40
0.9395017793594306
 40
0.9395017793594306
 40
0.9395017793594306
 40
0.9395017793594306
 40
0.9430604982206405
 40
0.9430604982206405
 40
0.9430604982206405
 40
0.9430604982206405
 40
0.9466192170818505
 40
0.9466192170818505
 40
0.9466192170818505
 40
0.9466192170818505
 40
0.9501779359430605
 40
0.9501779359430605
 40
0.9501779359430605
 40
0.9501779359430605
 40
0.9537366548042705
 40
0.9537366548042705
 40
0.9537366548042705
 40
0.9537366548042705
 40
0.9572953736654805
 40
0.9572953736654805
 40
0.9572953736654805
 40
0.9572953736654805
 40
0.9608540925266904
 40
0.9608540925266904
 40
0.9608540925266904
 40
0.9608540925266904
 40
0.9644128113879004
 40
0.9644128113879004
 40
0.9644128113879004
 40
0.9644128113879004
 40
0.9679715302491103
 40
0.9679715302491103
 40
0.9679715302491103
 40
0.9679715302491103
 40
0.9715302491103203
 40
0.9715302491103203
 40
0.9715302491103203
 40
0.9715302491103203
 40
0.9750889679715302
 40
0.9750889679715302
 40
0.9750889679715302
 40
0.9750889679715302
 40
0.9786476868327402
 40
0.9786476868327402
 40
0.9786476868327402
 40
0.9786476868327402
 40
0.9822064056939501
 40
0.9822064056939501
 40
0.9822064056939501
 40
0.9822064056939501
 40
0.9857651245551602
 40
0.9857651245551602
 40
0.9857651245551602
 40
0.9857651245551602
 40
0.9893238434163701
 40
0.9893238434163701
 40
0.9893238434163701
 40
0.9893238434163701
 40
0.9928825622775801
 40
0.9928825622775801
 40
0.9928825622775801
 40
0.9928825622775801
 40
1.0
 40
1.0
 40
1.0
 40
1.0
 10
-33.2389
 20
350.026
 30
0.0
 10
-34.7552
 20
345.4774
 30
0.0
 10
-35.8923
 20
339.4127
 30
0.0
 10
-35.8923
 20
339.4127
 30
0.0
 10
-35.8923
 20
339.4127
 30
0.0
 10
-35.8923
 20
339.4127
 30
0.0
 10
-34.3763
 20
335.4328
 30
0.0
 10
-31.7231
 20
334.4852
 30
0.0
 10
-31.7231
 20
334.4852
 30
0.0
 10
-29.0697
 20
333.5375
 30
0.0
 10
-28.3117
 20
330.1262
 30
0.0
 10
-28.3117
 20
328.7995
 30
0.0
 10
-28.3117
 20
328.7995
 30
0.0
 10
-28.3117
 20
327.4727
 30
0.0
 10
-29.2592
 20
321.9766
 30
0.0
 10
-31.5334
 20
318.7548
 30
0.0
 10
-31.5334
 20
318.7548
 30
0.0
 10
-33.8077
 20
315.5329
 30
0.0
 10
-36.7888
 20
308.8295
 30
0.0
 10
-36.5557
 20
308.8048
 30
0.0
 10
-36.5557
 20
308.8048
 30
0.0
 10
-34.499
 20
308.588
 30
0.0
 10
-26.6066
 20
311.2455
 30
0.0
 10
-17.5086
 20
303.7823
 30
0.0
 10
-17.5086
 20
303.7823
 30
0.0
 10
-17.5086
 20
303.7823
 30
0.0
 10
-21.6783
 20
303.4033
 30
0.0
 10
-25.6583
 20
301.5082
 30
0.0
 10
-25.6583
 20
301.5082
 30
0.0
 10
-29.6381
 20
299.6129
 30
0.0
 10
-32.9075
 20
295.9646
 30
0.0
 10
-32.9075
 20
295.9646
 30
0.0
 10
-32.9075
 20
295.9646
 30
0.0
 10
-32.9075
 20
295.9646
 30
0.0
 10
-19.0252
 20
295.2538
 30
0.0
 10
-14.6663
 20
280.8501
 30
0.0
 10
-14.6663
 20
280.8501
 30
0.0
 10
-10.3072
 20
266.4462
 30
0.0
 10
-11.6339
 20
252.9902
 30
0.0
 10
-11.6339
 20
252.9902
 30
0.0
 10
-11.6339
 20
252.9902
 30
0.0
 10
-11.6339
 20
252.9902
 30
0.0
 10
-15.0457
 20
260.0022
 30
0.0
 10
-19.2151
 20
263.2242
 30
0.0
 10
-19.2151
 20
263.2242
 30
0.0
 10
-23.3845
 20
266.4461
 30
0.0
 10
-28.8808
 20
267.2041
 30
0.0
 10
-28.8808
 20
267.2041
 30
0.0
 10
-28.8808
 20
267.2041
 30
0.0
 10
-28.8808
 20
267.2041
 30
0.0
 10
-24.1432
 20
259.0544
 30
0.0
 10
-23.0061
 20
251.6631
 30
0.0
 10
-23.0061
 20
251.6631
 30
0.0
 10
-21.3222
 20
240.7192
 30
0.0
 10
-18.9661
 20
222.8852
 30
0.0
 10
-5.5699
 20
219.8232
 30
0.0
 10
-5.5699
 20
219.8232
 30
0.0
 10
1.0636
 20
218.3072
 30
0.0
 10
10.35
 20
218.8757
 30
0.0
 10
10.35
 20
218.8757
 30
0.0
 10
10.35
 20
218.8757
 30
0.0
 10
10.35
 20
218.8757
 30
0.0
 10
7.0329
 20
214.2321
 30
0.0
 10
2.4845
 20
213.0949
 30
0.0
 10
2.4845
 20
213.0949
 30
0.0
 10
-2.0642
 20
211.9577
 30
0.0
 10
-6.044
 20
212.0525
 30
0.0
 10
-6.044
 20
212.0525
 30
0.0
 10
-6.044
 20
212.0525
 30
0.0
 10
14.7269
 20
202.1185
 30
0.0
 10
14.9285
 20
199.1561
 30
0.0
 10
19.8256
 20
176.8957
 30
0.0
 10
19.8256
 20
176.8957
 30
0.0
 10
19.8256
 20
176.8957
 30
0.0
 10
17.2668
 20
184.1925
 30
0.0
 10
10.9179
 20
187.9829
 30
0.0
 10
10.9179
 20
187.9829
 30
0.0
 10
4.569
 20
191.7734
 30
0.0
 10
-0.643
 20
192.4366
 30
0.0
 10
-0.643
 20
192.4366
 30
0.0
 10
-0.643
 20
192.4366
 30
0.0
 10
14.1239
 20
174.756
 30
0.0
 10
10.2758
 20
166.4609
 30
0.0
 10
0.0007
 20
147.5382
 30
0.0
 10
0.0007
 20
147.5382
 30
0.0
 10
0.0007
 20
147.5382
 30
0.0
 10
2.7681
 20
156.4268
 30
0.0
 10
-0.3589
 20
161.4495
 30
0.0
 10
-0.3589
 20
161.4495
 30
0.0
 10
-3.4859
 20
166.4719
 30
0.0
 10
-7.1817
 20
168.2724
 30
0.0
 10
-7.1817
 20
168.2724
 30
0.0
 10
-7.1817
 20
168.2724
 30
0.0
 10
-7.1817
 20
168.2724
 30
0.0
 10
-7.9406
 20
152.0676
 30
0.0
 10
-5.8561
 20
147.8983
 30
0.0
 10
-5.8561
 20
147.8983
 30
0.0
 10
-0.674
 20
137.5344
 30
0.0
 10
29.7423
 20
141.141
 30
0.0
 10
39.1557
 20
141.6441
 30
0.0
 10
39.1557
 20
141.6441
 30
0.0
 10
39.1557
 20
141.6441
 30
0.0
 10
31.5748
 20
135.2
 30
0.0
 10
25.6996
 20
133.3047
 30
0.0
 10
25.6996
 20
133.3047
 30
0.0
 10
19.8243
 20
131.4098
 30
0.0
 10
13.9493
 20
129.7041
 30
0.0
 10
13.9493
 20
129.7041
 30
0.0
 10
13.9493
 20
129.7041
 30
0.0
 10
40.6679
 20
125.8503
 30
0.0
 10
42.1435
 20
119.626
 30
0.0
 10
59.8139
 20
100.5175
 30
0.0
 10
59.8139
 20
100.5175
 30
0.0
 10
50.4567
 20
106.4529
 30
0.0
 10
41.7429
 20
106.4071
 30
0.0
 10
31.3842
 20
103.3604
 30
0.0
 10
31.3842
 20
103.3604
 30
0.0
 10
50.8415
 20
96.5122
 30
0.0
 10
52.5961
 20
93.3119
 30
0.0
 10
65.0246
 20
78.059
 30
0.0
 10
65.0246
 20
78.059
 30
0.0
 10
59.0391
 20
81.0515
 30
0.0
 10
53.2407
 20
79.3992
 30
0.0
 10
47.0197
 20
82.5129
 30
0.0
 10
47.0197
 20
82.5129
 30
0.0
 10
46.8643
 20
82.5904
 30
0.0
 10
76.7406
 20
44.3406
 30
0.0
 10
97.8113
 20
29.9203
 30
0.0
 10
97.8113
 20
29.9203
 30
0.0
 10
118.882
 20
15.5001
 30
0.0
 10
138.3691
 20
-18.9773
 30
0.0
 10
145.9501
 20
-22.7679
 30
0.0
 10
145.9501
 20
-22.7679
 30
0.0
 10
211.9801
 20
-55.7821
 30
0.0
 10
196.3974
 20
81.0479
 30
0.0
 10
94.5895
 20
62.8965
 30
0.0
 10
94.5895
 20
62.8965
 30
0.0
 10
94.5895
 20
62.8965
 30
0.0
 10
95.5368
 20
71.4249
 30
0.0
 10
105.392
 20
75.7841
 30
0.0
 10
105.392
 20
75.7841
 30
0.0
 10
115.2473
 20
80.1431
 30
0.0
 10
125.292
 20
84.8813
 30
0.0
 10
125.292
 20
84.8813
 30
0.0
 10
125.292
 20
84.8813
 30
0.0
 10
104.823
 20
92.8126
 30
0.0
 10
93.5276
 20
85.4799
 30
0.0
 10
74.4998
 20
77.8688
 30
0.0
 10
74.4998
 20
77.8688
 30
0.0
 10
87.6828
 20
106.9712
 30
0.0
 10
104.7251
 20
103.3979
 30
0.0
 10
129.6507
 20
115.2048
 30
0.0
 10
129.6507
 20
115.2048
 30
0.0
 10
129.6507
 20
115.2048
 30
0.0
 10
126.8077
 20
117.4788
 30
0.0
 10
119.0373
 20
116.9104
 30
0.0
 10
119.0373
 20
116.9104
 30
0.0
 10
111.267
 20
116.3421
 30
0.0
 10
107.6661
 20
114.4467
 30
0.0
 10
107.6661
 20
114.4467
 30
0.0
 10
107.6661
 20
114.4467
 30
0.0
 10
158.5606
 20
151.5014
 30
0.0
 10
239.8622
 20
131.4985
 30
0.0
 10
273.3089
 20
79.0057
 30
0.0
 10
273.3089
 20
79.0057
 30
0.0
 10
294.0062
 20
46.5226
 30
0.0
 10
298.2063
 20
22.1894
 30
0.0
 10
292.0716
 20
-14.6186
 30
0.0
 10
292.0716
 20
-14.6186
 30
0.0
 10
292.0716
 20
-14.6186
 30
0.0
 10
298.3257
 20
-10.0702
 30
0.0
 10
301.1687
 20
1.4908
 30
0.0
 10
301.1687
 20
1.4908
 30
0.0
 10
304.0116
 20
13.0517
 30
0.0
 10
305.5277
 20
26.8868
 30
0.0
 10
305.5277
 20
26.8868
 30
0.0
 10
305.5277
 20
26.8868
 30
0.0
 10
316.1277
 20
-0.2769
 30
0.0
 10
317.7211
 20
-29.8399
 30
0.0
 10
299.4627
 20
-54.4185
 30
0.0
 10
299.4627
 20
-54.4185
 30
0.0
 10
289.6075
 20
-67.6851
 30
0.0
 10
269.1391
 20
-91.1859
 30
0.0
 10
269.1391
 20
-91.1859
 30
0.0
 10
269.1391
 20
-91.1859
 30
0.0
 10
269.1391
 20
-91.1859
 30
0.0
 10
273.6875
 20
-91.944
 30
0.0
 10
281.6476
 20
-88.343
 30
0.0
 10
281.6476
 20
-88.343
 30
0.0
 10
289.6075
 20
-84.7422
 30
0.0
 10
296.6199
 20
-77.3508
 30
0.0
 10
296.6199
 20
-77.3508
 30
0.0
 10
296.6199
 20
-77.3508
 30
0.0
 10
296.6199
 20
-77.3508
 30
0.0
 10
289.6164
 20
-96.7058
 30
0.0
 10
271.4221
 20
-109.0247
 30
0.0
 10
271.4221
 20
-109.0247
 30
0.0
 10
253.2277
 20
-121.3435
 30
0.0
 10
219.2947
 20
-116.5819
 30
0.0
 10
217.7783
 20
-116.7715
 30
0.0
 10
217.7783
 20
-116.7715
 30
0.0
 10
216.2621
 20
-116.9611
 30
0.0
 10
218.3468
 20
-119.8039
 30
0.0
 10
225.5487
 20
-123.2153
 30
0.0
 10
225.5487
 20
-123.2153
 30
0.0
 10
232.7505
 20
-126.6268
 30
0.0
 10
239.9525
 20
-128.7114
 30
0.0
 10
239.9525
 20
-128.7114
 30
0.0
 10
239.9525
 20
-128.7114
 30
0.0
 10
211.2456
 20
-130.8186
 30
0.0
 10
201.3132
 20
-123.7846
 30
0.0
 10
177.0302
 20
-110.138
 30
0.0
 10
177.0302
 20
-110.138
 30
0.0
 10
177.0302
 20
-110.138
 30
0.0
 10
174.7561
 20
-118.8557
 30
0.0
 10
177.2198
 20
-124.7312
 30
0.0
 10
177.2198
 20
-124.7312
 30
0.0
 10
179.6835
 20
-130.6064
 30
0.0
 10
187.0749
 20
-139.3244
 30
0.0
 10
187.0749
 20
-139.3244
 30
0.0
 10
187.0749
 20
-139.3244
 30
0.0
 10
177.2909
 20
-140.0579
 30
0.0
 10
173.1606
 20
-135.3639
 30
0.0
 10
165.2794
 20
-130.9855
 30
0.0
 10
165.2794
 20
-130.9855
 30
0.0
 10
165.2794
 20
-130.9855
 30
0.0
 10
173.9973
 20
-139.7035
 30
0.0
 10
174.7554
 20
-157.1395
 30
0.0
 10
174.7554
 20
-157.1395
 30
0.0
 10
175.5133
 20
-174.5755
 30
0.0
 10
172.86
 20
-185.5679
 30
0.0
 10
172.86
 20
-185.5679
 30
0.0
 10
172.86
 20
-185.5679
 30
0.0
 10
172.86
 20
-185.5679
 30
0.0
 10
172.86
 20
-177.0396
 30
0.0
 10
168.6906
 20
-171.3538
 30
0.0
 10
168.6906
 20
-171.3538
 30
0.0
 10
164.521
 20
-165.668
 30
0.0
 10
156.3715
 20
-165.289
 30
0.0
 10
156.3715
 20
-165.289
 30
0.0
 10
156.3715
 20
-165.289
 30
0.0
 10
156.3715
 20
-165.289
 30
0.0
 10
154.6657
 20
-182.7249
 30
0.0
 10
161.4884
 20
-196.3706
 30
0.0
 10
161.4884
 20
-196.3706
 30
0.0
 10
168.3113
 20
-210.0163
 30
0.0
 10
175.5128
 20
-221.956
 30
0.0
 10
175.5128
 20
-221.956
 30
0.0
 10
175.5128
 20
-221.956
 30
0.0
 10
175.5128
 20
-221.956
 30
0.0
 10
175.1335
 20
-226.3148
 30
0.0
 10
179.6819
 20
-235.791
 30
0.0
 10
179.6819
 20
-235.791
 30
0.0
 10
184.2304
 20
-245.2671
 30
0.0
 10
188.0209
 20
-250.1949
 30
0.0
 10
188.779
 20
-257.3967
 30
0.0
 10
188.779
 20
-257.3967
 30
0.0
 10
189.537
 20
-264.5986
 30
0.0
 10
206.2143
 20
-365.4246
 30
0.0
 10
210.3838
 20
-377.1751
 30
0.0
 10
210.3838
 20
-377.1751
 30
0.0
 10
214.5533
 20
-388.9255
 30
0.0
 10
218.3436
 20
-397.6434
 30
0.0
 10
217.2064
 20
-403.3293
 30
0.0
 10
217.2064
 20
-403.3293
 30
0.0
 10
216.0692
 20
-409.015
 30
0.0
 10
214.8372
 20
-414.8901
 30
0.0
 10
213.2262
 20
-416.596
 30
0.0
 10
213.2262
 20
-416.596
 30
0.0
 10
211.6152
 20
-418.3018
 30
0.0
 10
210.5729
 20
-419.3442
 30
0.0
 10
210.5729
 20
-419.3442
 30
0.0
 10
210.5729
 20
-419.3442
 30
0.0
 10
210.5729
 20
-419.3442
 30
0.0
 10
208.2039
 20
-424.6506
 30
0.0
 10
208.2039
 20
-424.6506
 30
0.0
 10
208.2039
 20
-424.6506
 30
0.0
 10
208.2039
 20
-424.6506
 30
0.0
 10
206.2138
 20
-420.0075
 30
0.0
 10
206.2138
 20
-420.0075
 30
0.0
 10
206.2138
 20
-420.0075
 30
0.0
 10
206.2138
 20
-420.0075
 30
0.0
 10
204.7924
 20
-416.2169
 30
0.0
 10
203.4658
 20
-417.1645
 30
0.0
 10
203.4658
 20
-417.1645
 30
0.0
 10
202.1391
 20
-418.1122
 30
0.0
 10
202.5181
 20
-422.2815
 30
0.0
 10
201.9495
 20
-423.3241
 30
0.0
 10
201.9495
 20
-423.3241
 30
0.0
 10
201.381
 20
-424.3664
 30
0.0
 10
197.022
 20
-428.7255
 30
0.0
 10
193.6105
 20
-429.294
 30
0.0
 10
193.6105
 20
-429.294
 30
0.0
 10
190.1991
 20
-429.8627
 30
0.0
 10
188.9672
 20
-430.3364
 30
0.0
 10
188.9672
 20
-430.3364
 30
0.0
 10
188.9672
 20
-430.3364
 30
0.0
 10
188.9672
 20
-430.3364
 30
0.0
 10
187.072
 20
-434.9797
 30
0.0
 10
187.072
 20
-434.9797
 30
0.0
 10
187.072
 20
-434.9797
 30
0.0
 10
187.072
 20
-434.9797
 30
0.0
 10
184.5134
 20
-431.4736
 30
0.0
 10
184.5134
 20
-431.4736
 30
0.0
 10
184.5134
 20
-431.4736
 30
0.0
 10
184.5134
 20
-431.4736
 30
0.0
 10
182.3337
 20
-429.5783
 30
0.0
 10
180.4385
 20
-429.294
 30
0.0
 10
180.4385
 20
-429.294
 30
0.0
 10
178.5435
 20
-429.0099
 30
0.0
 10
175.511
 20
-429.4837
 30
0.0
 10
174.8478
 20
-428.8203
 30
0.0
 10
174.8478
 20
-428.8203
 30
0.0
 10
174.1843
 20
-428.157
 30
0.0
 10
174.3742
 20
-427.6831
 30
0.0
 10
172.2893
 20
-427.0198
 30
0.0
 10
172.2893
 20
-427.0198
 30
0.0
 10
170.2044
 20
-426.3565
 30
0.0
 10
167.551
 20
-427.399
 30
0.0
 10
167.0773
 20
-428.157
 30
0.0
 10
167.0773
 20
-428.157
 30
0.0
 10
166.6035
 20
-428.915
 30
0.0
 10
165.5611
 20
-434.5059
 30
0.0
 10
165.5611
 20
-434.5059
 30
0.0
 10
165.5611
 20
-434.5059
 30
0.0
 10
165.5611
 20
-434.5059
 30
0.0
 10
160.8232
 20
-429.4837
 30
0.0
 10
160.8232
 20
-429.4837
 30
0.0
 10
160.8232
 20
-429.4837
 30
0.0
 10
160.8232
 20
-429.4837
 30
0.0
 10
158.8331
 20
-428.3465
 30
0.0
 10
155.8955
 20
-427.4937
 30
0.0
 10
155.8955
 20
-427.4937
 30
0.0
 10
152.958
 20
-426.6408
 30
0.0
 10
151.9156
 20
-423.9874
 30
0.0
 10
150.3994
 20
-424.8403
 30
0.0
 10
150.3994
 20
-424.8403
 30
0.0
 10
148.8832
 20
-425.6931
 30
0.0
 10
146.7039
 20
-427.6832
 30
0.0
 10
146.7039
 20
-427.6832
 30
0.0
 10
146.7039
 20
-427.6832
 30
0.0
 10
146.7039
 20
-427.6832
 30
0.0
 10
144.619
 20
-423.7031
 30
0.0
 10
142.629
 20
-422.8503
 30
0.0
 10
142.629
 20
-422.8503
 30
0.0
 10
140.639
 20
-421.9975
 30
0.0
 10
137.7962
 20
-421.7133
 30
0.0
 10
135.9957
 20
-419.9127
 30
0.0
 10
135.9957
 20
-419.9127
 30
0.0
 10
134.1952
 20
-418.1122
 30
0.0
 10
133.7215
 20
-415.1748
 30
0.0
 10
133.7215
 20
-413.09
 30
0.0
 10
133.7215
 20
-413.09
 30
0.0
 10
133.7215
 20
-411.005
 30
0.0
 10
131.6365
 20
-389.6835
 30
0.0
 10
135.2377
 20
-387.0302
 30
0.0
 10
135.2377
 20
-387.0302
 30
0.0
 10
138.8386
 20
-384.377
 30
0.0
 10
141.5865
 20
-382.4819
 30
0.0
 10
146.0404
 20
-382.1028
 30
0.0
 10
146.0404
 20
-382.1028
 30
0.0
 10
150.4941
 20
-381.7237
 30
0.0
 10
151.8209
 20
-379.165
 30
0.0
 10
152.4841
 20
-377.4594
 30
0.0
 10
152.4841
 20
-377.4594
 30
0.0
 10
153.1475
 20
-375.7538
 30
0.0
 10
153.526
 20
-337.7543
 30
0.0
 10
143.6708
 20
-308.5679
 30
0.0
 10
143.6708
 20
-308.5679
 30
0.0
 10
133.8156
 20
-279.3814
 30
0.0
 10
107.6613
 20
-236.9283
 30
0.0
 10
103.1126
 20
-234.8437
 30
0.0
 10
103.1126
 20
-234.8437
 30
0.0
 10
98.5642
 20
-232.759
 30
0.0
 10
98.5642
 20
-232.759
 30
0.0
 10
98.5642
 20
-232.759
 30
0.0
 10
98.5642
 20
-232.759
 30
0.0
 10
98.5642
 20
-232.759
 30
0.0
 10
96.1004
 20
-230.1056
 30
0.0
 10
96.1004
 20
-230.1056
 30
0.0
 10
96.1004
 20
-230.1056
 30
0.0
 10
96.1004
 20
-230.1056
 30
0.0
 10
94.205
 20
-238.634
 30
0.0
 10
97.4271
 20
-248.6787
 30
0.0
 10
97.4271
 20
-248.6787
 30
0.0
 10
100.6488
 20
-258.7236
 30
0.0
 10
103.8707
 20
-266.115
 30
0.0
 10
103.8707
 20
-266.115
 30
0.0
 10
103.8707
 20
-266.115
 30
0.0
 10
103.8707
 20
-266.115
 30
0.0
 10
87.3822
 20
-255.8806
 30
0.0
 10
83.023
 20
-248.8683
 30
0.0
 10
83.023
 20
-248.8683
 30
0.0
 10
78.6641
 20
-241.856
 30
0.0
 10
72.0309
 20
-224.799
 30
0.0
 10
72.0309
 20
-224.799
 30
0.0
 10
72.0309
 20
-224.799
 30
0.0
 10
72.0309
 20
-224.799
 30
0.0
 10
69.9461
 20
-231.2428
 30
0.0
 10
70.7042
 20
-238.2551
 30
0.0
 10
70.7042
 20
-238.2551
 30
0.0
 10
71.4622
 20
-245.2674
 30
0.0
 10
75.2527
 20
-253.0378
 30
0.0
 10
75.2527
 20
-253.0378
 30
0.0
 10
75.2527
 20
-253.0378
 30
0.0
 10
75.2527
 20
-253.0378
 30
0.0
 10
55.7311
 20
-227.4521
 30
0.0
 10
55.3521
 20
-211.153
 30
0.0
 10
55.3521
 20
-211.153
 30
0.0
 10
54.973
 20
-194.8542
 30
0.0
 10
50.8035
 20
-197.5076
 30
0.0
 10
50.8035
 20
-197.5076
 30
0.0
 10
50.8035
 20
-197.5076
 30
0.0
 10
50.8035
 20
-197.5076
 30
0.0
 10
48.3394
 20
-198.0762
 30
0.0
 10
47.771
 20
-204.1407
 30
0.0
 10
47.771
 20
-204.1407
 30
0.0
 10
47.2027
 20
-210.2054
 30
0.0
 10
45.3073
 20
-213.617
 30
0.0
 10
45.3073
 20
-213.617
 30
0.0
 10
45.3073
 20
-213.617
 30
0.0
 10
45.3073
 20
-213.617
 30
0.0
 10
39.2423
 20
-203.1931
 30
0.0
 10
38.674
 20
-198.4551
 30
0.0
 10
38.674
 20
-198.4551
 30
0.0
 10
38.1054
 20
-193.7169
 30
0.0
 10
36.5892
 20
-186.1362
 30
0.0
 10
32.9881
 20
-177.9866
 30
0.0
 10
32.9881
 20
-177.9866
 30
0.0
 10
29.3873
 20
-169.837
 30
0.0
 10
20.4797
 20
-163.0143
 30
0.0
 10
20.4797
 20
-163.0143
 30
0.0
 10
20.4797
 20
-163.0143
 30
0.0
 10
20.4797
 20
-163.0143
 30
0.0
 10
18.2056
 20
-170.0266
 30
0.0
 10
19.7217
 20
-175.5228
 30
0.0
 10
19.7217
 20
-175.5228
 30
0.0
 10
21.2379
 20
-181.0191
 30
0.0
 10
25.4073
 20
-188.9789
 30
0.0
 10
25.4073
 20
-188.9789
 30
0.0
 10
25.4073
 20
-188.9789
 30
0.0
 10
25.4073
 20
-188.9789
 30
0.0
 10
15.1729
 20
-179.3133
 30
0.0
 10
15.1729
 20
-179.3133
 30
0.0
 10
15.1729
 20
-179.3133
 30
0.0
 10
15.1729
 20
-179.3133
 30
0.0
 10
11.9508
 20
-182.9144
 30
0.0
 10
13.0881
 20
-186.1362
 30
0.0
 10
13.0881
 20
-186.1362
 30
0.0
 10
14.2253
 20
-189.358
 30
0.0
 10
23.1328
 20
-195.4228
 30
0.0
 10
23.1328
 20
-195.4228
 30
0.0
 10
23.1328
 20
-195.4228
 30
0.0
 10
23.1328
 20
-195.4228
 30
0.0
 10
21.427
 20
-197.6971
 30
0.0
 10
14.7939
 20
-194.8542
 30
0.0
 10
14.7939
 20
-194.8542
 30
0.0
 10
8.1605
 20
-192.0113
 30
0.0
 10
4.5596
 20
-191.2533
 30
0.0
 10
4.5596
 20
-191.2533
 30
0.0
 10
4.5596
 20
-191.2533
 30
0.0
 10
4.5596
 20
-191.2533
 30
0.0
 10
5.8864
 20
-194.2857
 30
0.0
 10
6.6443
 20
-198.4553
 30
0.0
 10
6.6443
 20
-198.4553
 30
0.0
 10
7.4024
 20
-202.6246
 30
0.0
 10
7.0235
 20
-206.6046
 30
0.0
 10
7.0235
 20
-206.6046
 30
0.0
 10
7.0235
 20
-206.6046
 30
0.0
 10
7.0235
 20
-206.6046
 30
0.0
 10
2.4743
 20
-195.8018
 30
0.0
 10
-6.0543
 20
-192.5798
 30
0.0
 10
-6.0543
 20
-192.5798
 30
0.0
 10
-14.5828
 20
-189.3581
 30
0.0
 10
-18.5626
 20
-188.0314
 30
0.0
 10
-19.3208
 20
-191.2533
 30
0.0
 10
-19.3208
 20
-191.2533
 30
0.0
 10
-20.0789
 20
-194.4751
 30
0.0
 10
-19.5101
 20
-204.5199
 30
0.0
 10
-9.6552
 20
-209.8265
 30
0.0
 10
-9.6552
 20
-209.8265
 30
0.0
 10
0.1999
 20
-215.1333
 30
0.0
 10
7.5914
 20
-215.1333
 30
0.0
 10
10.4342
 20
-221.1979
 30
0.0
 10
10.4342
 20
-221.1979
 30
0.0
 10
13.2771
 20
-227.2625
 30
0.0
 10
12.3294
 20
-236.5491
 30
0.0
 10
12.3294
 20
-236.5491
 30
0.0
 10
12.3294
 20
-236.5491
 30
0.0
 10
12.3294
 20
-236.5491
 30
0.0
 10
11.3815
 20
-231.8108
 30
0.0
 10
8.7282
 20
-229.9157
 30
0.0
 10
8.7282
 20
-229.9157
 30
0.0
 10
6.0748
 20
-228.0205
 30
0.0
 10
4.5586
 20
-228.5888
 30
0.0
 10
4.5586
 20
-228.5888
 30
0.0
 10
4.5586
 20
-228.5888
 30
0.0
 10
4.5586
 20
-228.5888
 30
0.0
 10
9.107
 20
-235.6011
 30
0.0
 10
7.97
 20
-241.0974
 30
0.0
 10
7.97
 20
-241.0974
 30
0.0
 10
6.833
 20
-246.5938
 30
0.0
 10
1.7158
 20
-254.5536
 30
0.0
 10
1.7158
 20
-254.5536
 30
0.0
 10
1.7158
 20
-254.5536
 30
0.0
 10
1.7158
 20
-254.5536
 30
0.0
 10
1.1473
 20
-251.7107
 30
0.0
 10
0.0102
 20
-249.0574
 30
0.0
 10
0.0102
 20
-249.0574
 30
0.0
 10
-1.127
 20
-246.4041
 30
0.0
 10
-2.8327
 20
-245.8356
 30
0.0
 10
-2.8327
 20
-245.8356
 30
0.0
 10
-2.8327
 20
-245.8356
 30
0.0
 10
-2.8327
 20
-245.8356
 30
0.0
 10
-0.9378
 20
-254.1745
 30
0.0
 10
-9.6558
 20
-263.2717
 30
0.0
 10
-9.6558
 20
-263.2717
 30
0.0
 10
-18.3739
 20
-272.3687
 30
0.0
 10
-28.4188
 20
-282.9818
 30
0.0
 10
-37.516
 20
-289.6153
 30
0.0
 10
-37.516
 20
-289.6153
 30
0.0
 10
-46.613
 20
-296.2486
 30
0.0
 10
-61.9649
 20
-308.5675
 30
0.0
 10
-68.5982
 20
-311.7892
 30
0.0
 10
-68.5982
 20
-311.7892
 30
0.0
 10
-75.2315
 20
-315.0109
 30
0.0
 10
-83.3809
 20
-317.2853
 30
0.0
 10
-86.603
 20
-318.0434
 30
0.0
 10
-86.603
 20
-318.0434
 30
0.0
 10
-89.8248
 20
-318.8016
 30
0.0
 10
-89.8246
 20
-320.3177
 30
0.0
 10
-91.1515
 20
-322.4024
 30
0.0
 10
-91.1515
 20
-322.4024
 30
0.0
 10
-92.4781
 20
-324.4872
 30
0.0
 10
-103.0911
 20
-328.0879
 30
0.0
 10
-112.9466
 20
-328.6565
 30
0.0
 10
-112.9466
 20
-328.6565
 30
0.0
 10
-122.8017
 20
-329.2252
 30
0.0
 10
-126.0236
 20
-329.7937
 30
0.0
 10
-127.1607
 20
-327.3299
 30
0.0
 10
-127.1607
 20
-327.3299
 30
0.0
 10
-128.2977
 20
-324.8661
 30
0.0
 10
-127.1605
 20
-321.6443
 30
0.0
 10
-130.5721
 20
-322.5919
 30
0.0
 10
-130.5721
 20
-322.5919
 30
0.0
 10
-133.9834
 20
-323.5393
 30
0.0
 10
-138.3425
 20
-327.709
 30
0.0
 10
-138.3425
 20
-327.709
 30
0.0
 10
-138.3425
 20
-327.709
 30
0.0
 10
-138.3425
 20
-327.709
 30
0.0
 10
-137.9634
 20
-320.8863
 30
0.0
 10
-137.9634
 20
-320.8863
 30
0.0
 10
-137.9634
 20
-320.8863
 30
0.0
 10
-137.9634
 20
-320.8863
 30
0.0
 10
-145.1653
 20
-322.0234
 30
0.0
 10
-148.7664
 20
-320.8863
 30
0.0
 10
-148.7664
 20
-320.8863
 30
0.0
 10
-152.3671
 20
-319.749
 30
0.0
 10
-158.8112
 20
-315.769
 30
0.0
 10
-159.7586
 20
-313.1156
 30
0.0
 10
-159.7586
 20
-313.1156
 30
0.0
 10
-160.7061
 20
-310.4624
 30
0.0
 10
-162.6013
 20
-310.273
 30
0.0
 10
-163.1699
 20
-311.5996
 30
0.0
 10
-163.1699
 20
-311.5996
 30
0.0
 10
-163.7386
 20
-312.9262
 30
0.0
 10
-169.4243
 20
-317.8538
 30
0.0
 10
-169.4243
 20
-317.8538
 30
0.0
 10
-169.4243
 20
-317.8538
 30
0.0
 10
-169.4243
 20
-317.8538
 30
0.0
 10
-172.4564
 20
-308.5673
 30
0.0
 10
-170.1822
 20
-306.2931
 30
0.0
 10
-170.1822
 20
-306.2931
 30
0.0
 10
-167.9078
 20
-304.0187
 30
0.0
 10
-166.3917
 20
-301.3653
 30
0.0
 10
-164.1176
 20
-299.2807
 30
0.0
 10
-164.1176
 20
-299.2807
 30
0.0
 10
-161.8432
 20
-297.1959
 30
0.0
 10
-162.9804
 20
-292.4578
 30
0.0
 10
-160.8955
 20
-290.7522
 30
0.0
 10
-160.8955
 20
-290.7522
 30
0.0
 10
-158.8107
 20
-289.0466
 30
0.0
 10
-154.0728
 20
-289.2359
 30
0.0
 10
-152.5566
 20
-287.9094
 30
0.0
 10
-152.5566
 20
-287.9094
 30
0.0
 10
-151.0403
 20
-286.5827
 30
0.0
 10
-146.6815
 20
-273.695
 30
0.0
 10
-141.9434
 20
-272.1789
 30
0.0
 10
-141.9434
 20
-272.1789
 30
0.0
 10
-137.2052
 20
-270.6629
 30
0.0
 10
-133.4147
 20
-269.1467
 30
0.0
 10
-129.6245
 20
-270.8524
 30
0.0
 10
-129.6245
 20
-270.8524
 30
0.0
 10
-125.8339
 20
-272.558
 30
0.0
 10
-117.8737
 20
-276.538
 30
0.0
 10
-105.7445
 20
-276.7275
 30
0.0
 10
-105.7445
 20
-276.7275
 30
0.0
 10
-93.6152
 20
-276.917
 30
0.0
 10
-71.8201
 20
-269.5257
 30
0.0
 10
-68.0295
 20
-256.4485
 30
0.0
 10
-68.0295
 20
-256.4485
 30
0.0
 10
-64.2389
 20
-243.3716
 30
0.0
 10
-65.7552
 20
-241.8554
 30
0.0
 10
-70.1142
 20
-236.7383
 30
0.0
 10
-70.1142
 20
-236.7383
 30
0.0
 10
-74.4732
 20
-231.6212
 30
0.0
 10
-89.4452
 20
-223.6609
 30
0.0
 10
-94.9415
 20
-218.7334
 30
0.0
 10
-94.9415
 20
-218.7334
 30
0.0
 10
-100.4375
 20
-213.8058
 30
0.0
 10
-109.3451
 20
-205.6563
 30
0.0
 10
-109.3451
 20
-205.6563
 30
0.0
 10
-109.3451
 20
-205.6563
 30
0.0
 10
-109.3451
 20
-205.6563
 30
0.0
 10
-109.9137
 20
-209.8259
 30
0.0
 10
-107.6396
 20
-214.5639
 30
0.0
 10
-107.6396
 20
-214.5639
 30
0.0
 10
-105.3652
 20
-219.302
 30
0.0
 10
-103.2805
 20
-223.8506
 30
0.0
 10
-103.2805
 20
-223.8506
 30
0.0
 10
-103.2805
 20
-223.8506
 30
0.0
 10
-103.2805
 20
-223.8506
 30
0.0
 10
-121.0952
 20
-215.3219
 30
0.0
 10
-127.16
 20
-205.2772
 30
0.0
 10
-127.16
 20
-205.2772
 30
0.0
 10
-133.2247
 20
-195.2323
 30
0.0
 10
-133.7932
 20
-178.9332
 30
0.0
 10
-133.2247
 20
-176.0905
 30
0.0
 10
-133.2247
 20
-176.0905
 30
0.0
 10
-132.6561
 20
-173.2478
 30
0.0
 10
-131.7085
 20
-166.425
 30
0.0
 10
-131.7085
 20
-166.425
 30
0.0
 10
-131.7085
 20
-166.425
 30
0.0
 10
-131.7085
 20
-166.425
 30
0.0
 10
-134.5514
 20
-167.3725
 30
0.0
 10
-137.3942
 20
-172.3001
 30
0.0
 10
-137.3942
 20
-172.3001
 30
0.0
 10
-140.2371
 20
-177.2277
 30
0.0
 10
-141.1847
 20
-181.5868
 30
0.0
 10
-141.1847
 20
-181.5868
 30
0.0
 10
-141.1847
 20
-181.5868
 30
0.0
 10
-141.1847
 20
-181.5868
 30
0.0
 10
-146.8702
 20
-163.3922
 30
0.0
 10
-130.9502
 20
-142.7342
 30
0.0
 10
-130.9502
 20
-142.7342
 30
0.0
 10
-115.0305
 20
-122.0761
 30
0.0
 10
-108.9653
 20
-113.0742
 30
0.0
 10
-109.5339
 20
-102.6503
 30
0.0
 10
-109.5339
 20
-102.6503
 30
0.0
 10
-110.1026
 20
-92.2264
 30
0.0
 10
-113.2297
 20
-76.0222
 30
0.0
 10
-117.3991
 20
-72.0423
 30
0.0
 10
-117.3991
 20
-72.0423
 30
0.0
 10
-121.5686
 20
-68.0623
 30
0.0
 10
-118.631
 20
-69.3891
 30
0.0
 10
-121.0949
 20
-66.8303
 30
0.0
 10
-121.0949
 20
-66.8303
 30
0.0
 10
-123.5587
 20
-64.2717
 30
0.0
 10
-128.4862
 20
-60.7656
 30
0.0
 10
-128.4862
 20
-60.7656
 30
0.0
 10
-128.4862
 20
-60.7656
 30
0.0
 10
-128.4862
 20
-60.7656
 30
0.0
 10
-145.4485
 20
-73.3688
 30
0.0
 10
-154.1665
 20
-79.4334
 30
0.0
 10
-154.1665
 20
-79.4334
 30
0.0
 10
-162.8847
 20
-85.4981
 30
0.0
 10
-169.5178
 20
-87.3934
 30
0.0
 10
-174.0664
 20
-94.4058
 30
0.0
 10
-174.0664
 20
-94.4058
 30
0.0
 10
-178.6149
 20
-101.4182
 30
0.0
 10
-180.8893
 20
-99.9021
 30
0.0
 10
-180.3208
 20
-108.6201
 30
0.0
 10
-180.3208
 20
-108.6201
 30
0.0
 10
-179.7521
 20
-117.3381
 30
0.0
 10
-178.8045
 20
-123.9713
 30
0.0
 10
-178.8045
 20
-123.9713
 30
0.0
 10
-178.8045
 20
-123.9713
 30
0.0
 10
-178.8045
 20
-123.9713
 30
0.0
 10
-186.2434
 20
-115.0165
 30
0.0
 10
-186.2434
 20
-115.0165
 30
0.0
 10
-186.2434
 20
-115.0165
 30
0.0
 10
-186.2434
 20
-115.0165
 30
0.0
 10
-188.47
 20
-117.8591
 30
0.0
 10
-186.7643
 20
-124.682
 30
0.0
 10
-186.7643
 20
-124.682
 30
0.0
 10
-185.0585
 20
-131.5048
 30
0.0
 10
-182.0261
 20
-138.7067
 30
0.0
 10
-182.0261
 20
-138.7067
 30
0.0
 10
-182.0261
 20
-138.7067
 30
0.0
 10
-182.0261
 20
-138.7067
 30
0.0
 10
-187.712
 20
-131.884
 30
0.0
 10
-187.712
 20
-131.884
 30
0.0
 10
-187.712
 20
-131.884
 30
0.0
 10
-187.712
 20
-131.884
 30
0.0
 10
-187.5222
 20
-139.6544
 30
0.0
 10
-186.9538
 20
-150.6466
 30
0.0
 10
-186.9538
 20
-150.6466
 30
0.0
 10
-186.3853
 20
-161.6389
 30
0.0
 10
-186.0062
 20
-161.8283
 30
0.0
 10
-188.091
 20
-168.8406
 30
0.0
 10
-188.091
 20
-168.8406
 30
0.0
 10
-190.1757
 20
-175.8529
 30
0.0
 10
-188.8491
 20
-177.9374
 30
0.0
 10
-196.051
 20
-185.8975
 30
0.0
 10
-196.051
 20
-185.8975
 30
0.0
 10
-203.2528
 20
-193.8574
 30
0.0
 10
-207.2328
 20
-197.8374
 30
0.0
 10
-207.2328
 20
-197.8374
 30
0.0
 10
-207.2328
 20
-197.8374
 30
0.0
 10
-207.2328
 20
-197.8374
 30
0.0
 10
-205.7163
 20
-204.471
 30
0.0
 10
-205.7163
 20
-204.471
 30
0.0
 10
-205.7163
 20
-204.471
 30
0.0
 10
-205.7163
 20
-204.471
 30
0.0
 10
-211.9707
 20
-201.628
 30
0.0
 10
-211.9707
 20
-201.628
 30
0.0
 10
-211.9707
 20
-201.628
 30
0.0
 10
-211.9707
 20
-201.628
 30
0.0
 10
-213.6765
 20
-196.3215
 30
0.0
 10
-213.866
 20
-200.4909
 30
0.0
 10
-213.866
 20
-200.4909
 30
0.0
 10
-214.0556
 20
-204.6604
 30
0.0
 10
-214.4344
 20
-207.8823
 30
0.0
 10
-219.9306
 20
-211.4832
 30
0.0
 10
-219.9306
 20
-211.4832
 30
0.0
 10
-225.4268
 20
-215.084
 30
0.0
 10
-225.6163
 20
-216.9792
 30
0.0
 10
-230.1649
 20
-217.7374
 30
0.0
 10
-230.1649
 20
-217.7374
 30
0.0
 10
-234.7134
 20
-218.4955
 30
0.0
 10
-236.4191
 20
-220.0116
 30
0.0
 10
-236.4191
 20
-220.0116
 30
0.0
 10
-236.4191
 20
-220.0116
 30
0.0
 10
-236.4191
 20
-220.0116
 30
0.0
 10
-237.3666
 20
-223.8021
 30
0.0
 10
-237.3666
 20
-223.8021
 30
0.0
 10
-237.3666
 20
-223.8021
 30
0.0
 10
-237.3666
 20
-223.8021
 30
0.0
 10
-239.8306
 20
-219.7276
 30
0.0
 10
-239.8306
 20
-219.7276
 30
0.0
 10
-239.8306
 20
-219.7276
 30
0.0
 10
-239.8306
 20
-219.7276
 30
0.0
 10
-240.0201
 20
-217.3584
 30
0.0
 10
-240.0201
 20
-217.3584
 30
0.0
 10
-240.0201
 20
-217.3584
 30
0.0
 10
-240.0201
 20
-217.3584
 30
0.0
 10
-244.0
 20
-215.9371
 30
0.0
 10
-245.8006
 20
-216.2215
 30
0.0
 10
-245.8006
 20
-216.2215
 30
0.0
 10
-247.6011
 20
-216.5058
 30
0.0
 10
-248.7384
 20
-215.3688
 30
0.0
 10
-249.7806
 20
-216.8849
 30
0.0
 10
-249.7806
 20
-216.8849
 30
0.0
 10
-250.823
 20
-218.4009
 30
0.0
 10
-251.9601
 20
-222.4758
 30
0.0
 10
-251.9601
 20
-222.4758
 30
0.0
 10
-251.9601
 20
-222.4758
 30
0.0
 10
-251.9601
 20
-222.4758
 30
0.0
 10
-256.6982
 20
-214.9896
 30
0.0
 10
-259.541
 20
-212.052
 30
0.0
 10
-259.541
 20
-212.052
 30
0.0
 10
-262.3839
 20
-209.1143
 30
0.0
 10
-262.0996
 20
-198.6908
 30
0.0
 10
-261.9102
 20
-195.8478
 30
0.0
 10
-261.9102
 20
-195.8478
 30
0.0
 10
-261.7205
 20
-193.0048
 30
0.0
 10
-258.8779
 20
-177.085
 30
0.0
 10
-252.2446
 20
-164.2923
 30
0.0
 10
-252.2446
 20
-164.2923
 30
0.0
 10
-245.6113
 20
-151.4994
 30
0.0
 10
-243.7163
 20
-151.5938
 30
0.0
 10
-242.2001
 20
-142.1177
 30
0.0
 10
-242.2001
 20
-142.1177
 30
0.0
 10
-240.6837
 20
-132.6415
 30
0.0
 10
-238.0304
 20
-116.5322
 30
0.0
 10
-237.2723
 20
-101.56
 30
0.0
 10
-237.2723
 20
-101.56
 30
0.0
 10
-236.5142
 20
-86.5876
 30
0.0
 10
-235.1877
 20
-84.5028
 30
0.0
 10
-232.9135
 20
-81.6599
 30
0.0
 10
-232.9135
 20
-81.6599
 30
0.0
 10
-230.6391
 20
-78.817
 30
0.0
 10
-187.4276
 20
-37.312
 30
0.0
 10
-182.879
 20
-33.3317
 30
0.0
 10
-182.879
 20
-33.3317
 30
0.0
 10
-178.3306
 20
-29.3516
 30
0.0
 10
-173.4028
 20
-21.7708
 30
0.0
 10
-173.4028
 20
-21.7708
 30
0.0
 10
-173.4028
 20
-21.7708
 30
0.0
 10
-173.4028
 20
-21.7708
 30
0.0
 10
-179.2775
 20
-15.5159
 30
0.0
 10
-181.5518
 20
-7.177
 30
0.0
 10
-181.5518
 20
-7.177
 30
0.0
 10
-183.8261
 20
1.1621
 30
0.0
 10
-186.8584
 20
14.8075
 30
0.0
 10
-186.8584
 20
14.8075
 30
0.0
 10
-186.8584
 20
14.8075
 30
0.0
 10
-186.8584
 20
14.8075
 30
0.0
 10
-193.6812
 20
12.1542
 30
0.0
 10
-194.4393
 20
1.541
 30
0.0
 10
-194.4393
 20
1.541
 30
0.0
 10
-195.1974
 20
-9.0722
 30
0.0
 10
-197.4717
 20
-21.5807
 30
0.0
 10
-197.4717
 20
-21.5807
 30
0.0
 10
-197.4717
 20
-21.5807
 30
0.0
 10
-197.4717
 20
-21.5807
 30
0.0
 10
-206.9478
 20
-12.8628
 30
0.0
 10
-208.843
 20
-0.3542
 30
0.0
 10
-208.843
 20
-0.3542
 30
0.0
 10
-210.7382
 20
12.1543
 30
0.0
 10
-211.4964
 20
30.7276
 30
0.0
 10
-211.4964
 20
30.7276
 30
0.0
 10
-211.4964
 20
30.7276
 30
0.0
 10
-211.4964
 20
30.7276
 30
0.0
 10
-214.1497
 20
28.8322
 30
0.0
 10
-219.0773
 20
17.4609
 30
0.0
 10
-219.0773
 20
17.4609
 30
0.0
 10
-224.0049
 20
6.0896
 30
0.0
 10
-225.142
 20
-6.7979
 30
0.0
 10
-225.142
 20
-6.7979
 30
0.0
 10
-225.142
 20
-6.7979
 30
0.0
 10
-225.142
 20
-6.7979
 30
0.0
 10
-233.4811
 20
10.2592
 30
0.0
 10
-232.344
 20
23.1467
 30
0.0
 10
-232.344
 20
23.1467
 30
0.0
 10
-231.2067
 20
36.0341
 30
0.0
 10
-225.9002
 20
50.0589
 30
0.0
 10
-225.9002
 20
50.0589
 30
0.0
 10
-225.9002
 20
50.0589
 30
0.0
 10
-225.9002
 20
50.0589
 30
0.0
 10
-224.7628
 20
49.3008
 30
0.0
 10
-233.481
 20
45.1313
 30
0.0
 10
-233.481
 20
45.1313
 30
0.0
 10
-242.1991
 20
40.9618
 30
0.0
 10
-246.7476
 20
39.4455
 30
0.0
 10
-246.7476
 20
39.4455
 30
0.0
 10
-246.7476
 20
39.4455
 30
0.0
 10
-246.7476
 20
39.4455
 30
0.0
 10
-249.5904
 20
39.4457
 30
0.0
 10
-250.7275
 20
37.5505
 30
0.0
 10
-250.7275
 20
37.5505
 30
0.0
 10
-251.8645
 20
35.6554
 30
0.0
 10
-253.1911
 20
31.8649
 30
0.0
 10
-252.054
 20
28.6431
 30
0.0
 10
-252.054
 20
28.6431
 30
0.0
 10
-250.9171
 20
25.4211
 30
0.0
 10
-248.6428
 20
20.1143
 30
0.0
 10
-248.6428
 20
20.1143
 30
0.0
 10
-248.6428
 20
20.1143
 30
0.0
 10
-248.6428
 20
20.1143
 30
0.0
 10
-254.1389
 20
20.683
 30
0.0
 10
-255.4655
 20
23.5258
 30
0.0
 10
-255.4655
 20
23.5258
 30
0.0
 10
-256.7922
 20
26.3687
 30
0.0
 10
-260.014
 20
27.8849
 30
0.0
 10
-260.014
 20
27.8849
 30
0.0
 10
-260.014
 20
27.8849
 30
0.0
 10
-260.014
 20
27.8849
 30
0.0
 10
-262.0987
 20
25.6107
 30
0.0
 10
-260.393
 20
20.683
 30
0.0
 10
-260.393
 20
20.683
 30
0.0
 10
-258.6874
 20
15.7554
 30
0.0
 10
-256.9817
 20
11.7756
 30
0.0
 10
-256.9817
 20
11.7756
 30
0.0
 10
-256.9817
 20
11.7756
 30
0.0
 10
-256.9817
 20
11.7756
 30
0.0
 10
-261.1512
 20
13.8601
 30
0.0
 10
-262.0988
 20
14.2393
 30
0.0
 10
-262.0988
 20
14.2393
 30
0.0
 10
-263.0463
 20
14.6183
 30
0.0
 10
-264.1836
 20
14.9974
 30
0.0
 10
-264.1836
 20
11.3964
 30
0.0
 10
-264.1836
 20
11.3964
 30
0.0
 10
-264.1836
 20
7.7955
 30
0.0
 10
-263.6151
 20
3.8151
 30
0.0
 10
-263.0465
 20
-1.302
 30
0.0
 10
-263.0465
 20
-1.302
 30
0.0
 10
-262.4778
 20
-6.4191
 30
0.0
 10
-259.8243
 20
-12.8628
 30
0.0
 10
-259.0664
 20
-22.718
 30
0.0
 10
-259.0664
 20
-22.718
 30
0.0
 10
-258.3085
 20
-32.5733
 30
0.0
 10
-259.0666
 20
-33.3311
 30
0.0
 10
-257.9294
 20
-39.5857
 30
0.0
 10
-257.9294
 20
-39.5857
 30
0.0
 10
-256.7922
 20
-45.84
 30
0.0
 10
-254.7071
 20
-45.2715
 30
0.0
 10
-256.4129
 20
-50.5782
 30
0.0
 10
-256.4129
 20
-50.5782
 30
0.0
 10
-258.1187
 20
-55.8847
 30
0.0
 10
-258.1185
 20
-58.3486
 30
0.0
 10
-258.6872
 20
-64.9819
 30
0.0
 10
-258.6872
 20
-64.9819
 30
0.0
 10
-259.2558
 20
-71.6151
 30
0.0
 10
-257.3605
 20
-78.6275
 30
0.0
 10
-265.3203
 20
-83.9342
 30
0.0
 10
-265.3203
 20
-83.9342
 30
0.0
 10
-273.2802
 20
-89.2409
 30
0.0
 10
-276.1232
 20
-91.5151
 30
0.0
 10
-279.5344
 20
-90.5676
 30
0.0
 10
-279.5344
 20
-90.5676
 30
0.0
 10
-282.9459
 20
-89.62
 30
0.0
 10
-286.1678
 20
-88.1037
 30
0.0
 10
-286.1678
 20
-88.1037
 30
0.0
 10
-286.1678
 20
-88.1037
 30
0.0
 10
-286.1678
 20
-88.1037
 30
0.0
 10
-287.3048
 20
-87.9145
 30
0.0
 10
-285.5991
 20
-92.0837
 30
0.0
 10
-285.5991
 20
-92.0837
 30
0.0
 10
-283.8934
 20
-96.2531
 30
0.0
 10
-281.8086
 20
-100.0438
 30
0.0
 10
-281.8086
 20
-100.0438
 30
0.0
 10
-281.8086
 20
-100.0438
 30
0.0
 10
-281.8086
 20
-100.0438
 30
0.0
 10
-294.6961
 20
-95.1161
 30
0.0
 10
-296.4019
 20
-91.5153
 30
0.0
 10
-296.4019
 20
-91.5153
 30
0.0
 10
-298.1076
 20
-87.9145
 30
0.0
 10
-304.1724
 20
-83.9343
 30
0.0
 10
-303.9828
 20
-78.4382
 30
0.0
 10
-303.9828
 20
-78.4382
 30
0.0
 10
-303.7934
 20
-72.942
 30
0.0
 10
-302.4666
 20
-70.8571
 30
0.0
 10
-303.9828
 20
-66.4981
 30
0.0
 10
-303.9828
 20
-66.4981
 30
0.0
 10
-305.4991
 20
-62.1392
 30
0.0
 10
-312.5113
 20
-59.4859
 30
0.0
 10
-312.7009
 20
-55.6954
 30
0.0
 10
-312.7009
 20
-55.6954
 30
0.0
 10
-312.8903
 20
-51.905
 30
0.0
 10
-314.596
 20
-42.0497
 30
0.0
 10
-310.995
 20
-34.4689
 30
0.0
 10
-310.995
 20
-34.4689
 30
0.0
 10
-307.3942
 20
-26.888
 30
0.0
 10
-307.015
 20
-20.0648
 30
0.0
 10
-305.6884
 20
-11.9155
 30
0.0
 10
-305.6884
 20
-11.9155
 30
0.0
 10
-304.3619
 20
-3.7661
 30
0.0
 10
-306.0678
 20
16.7024
 30
0.0
 10
-307.9628
 20
25.4202
 30
0.0
 10
-307.9628
 20
25.4202
 30
0.0
 10
-309.858
 20
34.1382
 30
0.0
 10
-314.975
 20
47.2152
 30
0.0
 10
-312.8903
 20
51.7638
 30
0.0
 10
-312.8903
 20
51.7638
 30
0.0
 10
-310.8057
 20
56.3124
 30
0.0
 10
-300.0027
 20
80.382
 30
0.0
 10
-291.8533
 20
83.7933
 30
0.0
 10
-291.8533
 20
83.7933
 30
0.0
 10
-283.7039
 20
87.2047
 30
0.0
 10
-279.724
 20
83.7933
 30
0.0
 10
-271.9535
 20
85.499
 30
0.0
 10
-271.9535
 20
85.499
 30
0.0
 10
-264.1829
 20
87.2047
 30
0.0
 10
-258.3078
 20
92.8903
 30
0.0
 10
-257.9287
 20
95.5437
 30
0.0
 10
-257.9287
 20
95.5437
 30
0.0
 10
-257.5496
 20
98.1969
 30
0.0
 10
-259.4449
 20
108.2418
 30
0.0
 10
-257.1705
 20
114.4961
 30
0.0
 10
-257.1705
 20
114.4961
 30
0.0
 10
-254.8963
 20
120.7503
 30
0.0
 10
-249.7791
 20
131.932
 30
0.0
 10
-249.7791
 20
131.932
 30
0.0
 10
-249.7791
 20
131.932
 30
0.0
 10
-249.7791
 20
131.932
 30
0.0
 10
-257.7393
 20
130.6054
 30
0.0
 10
-262.8564
 20
123.593
 30
0.0
 10
-262.8564
 20
123.593
 30
0.0
 10
-267.9734
 20
116.5807
 30
0.0
 10
-271.764
 20
103.5036
 30
0.0
 10
-271.764
 20
103.5036
 30
0.0
 10
-271.764
 20
103.5036
 30
0.0
 10
-271.764
 20
103.5036
 30
0.0
 10
-277.0705
 20
117.3387
 30
0.0
 10
-274.7962
 20
129.6578
 30
0.0
 10
-274.7962
 20
129.6578
 30
0.0
 10
-272.5219
 20
141.9767
 30
0.0
 10
-267.4048
 20
155.0538
 30
0.0
 10
-267.4048
 20
155.0538
 30
0.0
 10
-267.4048
 20
155.0538
 30
0.0
 10
-267.4048
 20
155.0538
 30
0.0
 10
-272.5219
 20
153.9167
 30
0.0
 10
-276.1228
 20
149.9366
 30
0.0
 10
-276.1228
 20
149.9366
 30
0.0
 10
-279.7236
 20
145.9569
 30
0.0
 10
-284.6513
 20
139.3235
 30
0.0
 10
-284.6513
 20
139.3235
 30
0.0
 10
-284.6513
 20
139.3235
 30
0.0
 10
-284.6513
 20
139.3235
 30
0.0
 10
-284.8408
 20
156.5699
 30
0.0
 10
-275.1752
 20
164.151
 30
0.0
 10
-275.1752
 20
164.151
 30
0.0
 10
-265.5096
 20
171.7318
 30
0.0
 10
-258.4972
 20
179.6918
 30
0.0
 10
-258.4972
 20
179.6918
 30
0.0
 10
-258.4972
 20
179.6918
 30
0.0
 10
-258.4972
 20
179.6918
 30
0.0
 10
-256.6019
 20
181.3976
 30
0.0
 10
-264.1827
 20
180.829
 30
0.0
 10
-264.1827
 20
180.829
 30
0.0
 10
-271.7638
 20
180.2604
 30
0.0
 10
-275.3647
 20
179.8813
 30
0.0
 10
-275.3647
 20
179.8813
 30
0.0
 10
-275.3647
 20
179.8813
 30
0.0
 10
-275.3647
 20
179.8813
 30
0.0
 10
-256.602
 20
189.5468
 30
0.0
 10
-248.8316
 20
199.9704
 30
0.0
 10
-248.8316
 20
199.9704
 30
0.0
 10
-241.0611
 20
210.3941
 30
0.0
 10
-231.5848
 20
226.1247
 30
0.0
 10
-236.5125
 20
241.6655
 30
0.0
 10
-236.5125
 20
241.6655
 30
0.0
 10
-241.4401
 20
257.2063
 30
0.0
 10
-246.9363
 20
264.029
 30
0.0
 10
-246.5572
 20
270.4728
 30
0.0
 10
-246.5572
 20
270.4728
 30
0.0
 10
-246.1782
 20
276.9167
 30
0.0
 10
-243.8093
 20
283.1708
 30
0.0
 10
-241.9141
 20
285.0661
 30
0.0
 10
-241.9141
 20
285.0661
 30
0.0
 10
-240.0188
 20
286.9614
 30
0.0
 10
-241.0611
 20
289.8043
 30
0.0
 10
-241.0611
 20
289.8043
 30
0.0
 10
-241.0611
 20
289.8043
 30
0.0
 10
-241.0611
 20
289.8043
 30
0.0
 10
-241.8193
 20
291.8889
 30
0.0
 10
-246.5572
 20
287.3404
 30
0.0
 10
-246.5572
 20
287.3404
 30
0.0
 10
-251.2953
 20
282.7918
 30
0.0
 10
-253.1906
 20
280.5177
 30
0.0
 10
-253.1906
 20
280.5177
 30
0.0
 10
-253.1906
 20
280.5177
 30
0.0
 10
-252.2268
 20
298.1001
 30
0.0
 10
-242.4498
 20
303.0539
 30
0.0
 10
-227.4152
 20
308.7565
 30
0.0
 10
-227.4152
 20
308.7565
 30
0.0
 10
-230.5742
 20
313.3736
 30
0.0
 10
-237.2432
 20
315.2002
 30
0.0
 10
-242.0085
 20
319.37
 30
0.0
 10
-242.0085
 20
319.37
 30
0.0
 10
-235.8396
 20
321.8708
 30
0.0
 10
-232.1316
 20
322.178
 30
0.0
 10
-226.8467
 20
317.8537
 30
0.0
 10
-226.8467
 20
317.8537
 30
0.0
 10
-226.8467
 20
317.8537
 30
0.0
 10
-229.2155
 20
319.9384
 30
0.0
 10
-229.9736
 20
330.1725
 30
0.0
 10
-229.9736
 20
330.1725
 30
0.0
 10
-230.7318
 20
340.4066
 30
0.0
 10
-227.4151
 20
348.5561
 30
0.0
 10
-227.4151
 20
348.5561
 30
0.0
 10
-227.4151
 20
348.5561
 30
0.0
 10
-227.4151
 20
348.5561
 30
0.0
 10
-226.4674
 20
341.1647
 30
0.0
 10
-224.3828
 20
336.8057
 30
0.0
 10
-224.3828
 20
336.8057
 30
0.0
 10
-222.2981
 20
332.4468
 30
0.0
 10
-218.5075
 20
330.9307
 30
0.0
 10
-218.5075
 20
330.9307
 30
0.0
 10
-218.5075
 20
330.9307
 30
0.0
 10
-218.5075
 20
330.9307
 30
0.0
 10
-218.6178
 20
342.5493
 30
0.0
 10
-218.1284
 20
349.1247
 30
0.0
 10
-218.1284
 20
349.1247
 30
0.0
 10
-217.639
 20
355.7001
 30
0.0
 10
-212.7154
 20
364.3057
 30
0.0
 10
-211.4951
 20
365.613
 30
0.0
 10
-211.4951
 20
365.613
 30
0.0
 10
-210.2748
 20
366.9207
 30
0.0
 10
-212.8214
 20
358.4114
 30
0.0
 10
-210.5471
 20
354.8104
 30
0.0
 10
-210.5471
 20
354.8104
 30
0.0
 10
-208.2728
 20
351.2095
 30
0.0
 10
-207.1357
 20
350.6408
 30
0.0
 10
-205.6195
 20
351.399
 30
0.0
 10
-205.6195
 20
351.399
 30
0.0
 10
-204.1032
 20
352.1571
 30
0.0
 10
-203.2503
 20
354.7157
 30
0.0
 10
-204.2928
 20
363.5285
 30
0.0
 10
-204.2928
 20
363.5285
 30
0.0
 10
-205.3351
 20
372.3411
 30
0.0
 10
-193.3001
 20
399.9168
 30
0.0
 10
-184.0135
 20
412.994
 30
0.0
 10
-184.0135
 20
412.994
 30
0.0
 10
-174.727
 20
426.0711
 30
0.0
 10
-166.9564
 20
435.7368
 30
0.0
 10
-162.5976
 20
434.9786
 30
0.0
 10
-162.5976
 20
434.9786
 30
0.0
 10
-158.2385
 20
434.2206
 30
0.0
 10
-155.5853
 20
419.4377
 30
0.0
 10
-153.1213
 20
414.6997
 30
0.0
 10
-153.1213
 20
414.6997
 30
0.0
 10
-150.6575
 20
409.9616
 30
0.0
 10
-146.867
 20
398.7798
 30
0.0
 10
-142.8869
 20
391.9569
 30
0.0
 10
-142.8869
 20
391.9569
 30
0.0
 10
-138.9072
 20
385.1342
 30
0.0
 10
-137.0114
 20
373.1944
 30
0.0
 10
-120.1439
 20
371.8677
 30
0.0
 10
-120.1439
 20
371.8677
 30
0.0
 10
-103.2766
 20
370.541
 30
0.0
 10
-99.2965
 20
370.1619
 30
0.0
 10
-93.9899
 20
372.4362
 30
0.0
 10
-93.9899
 20
372.4362
 30
0.0
 10
-88.6833
 20
374.7107
 30
0.0
 10
-74.4684
 20
390.8201
 30
0.0
 10
-69.5411
 20
401.4333
 30
0.0
 10
-69.5411
 20
401.4333
 30
0.0
 10
-64.6136
 20
412.0466
 30
0.0
 10
-61.9601
 20
414.3208
 30
0.0
 10
-58.5487
 20
421.5227
 30
0.0
 10
-58.5487
 20
421.5227
 30
0.0
 10
-55.1374
 20
428.7246
 30
0.0
 10
-54.1897
 20
428.914
 30
0.0
 10
-51.7259
 20
427.5874
 30
0.0
 10
-51.7259
 20
427.5874
 30
0.0
 10
-35.414
 20
418.8045
 30
0.0
 10
-28.4188
 20
364.4868
 30
0.0
 10
-33.2389
 20
350.026
 30
0.0
  0
SPLINE
  5
6D
330
1F
100
AcDbEntity
  8
layer 1
 62
   250
370
     9
100
AcDbSpline
210
0.0
220
0.0
230
1.0
 70
    11
 71
     3
 72
    24
 73
    20
 74
     0
 42
0.000000001
 43
0.0000000001
 40
0.0
 40
0.0
 40
0.0
 40
0.0
 40
0.1666666666666667
 40
0.1666666666666667
 40
0.1666666666666667
 40
0.1666666666666667
 40
0.3333333333333333
 40
0.3333333333333333
 40
0.3333333333333333
 40
0.3333333333333333
 40
0.5
 40
0.5
 40
0.5
 40
0.5
 40
0.6666666666666666
 40
0.6666666666666666
 40
0.6666666666666666
 40
0.6666666666666666
 40
1.0
 40
1.0
 40
1.0
 40
1.0
 10
161.9555
 20
111.0739
 30
0.0
 10
215.0964
 20
119.829
 30
0.0
 10
246.6228
 20
90.3685
 30
0.0
 10
271.8786
 20
47.2048
 30
0.0
 10
271.8786
 20
47.2048
 30
0.0
 10
271.8786
 20
47.2048
 30
0.0
 10
265.8136
 20
56.8705
 30
0.0
 10
256.9062
 20
57.0601
 30
0.0
 10
256.9062
 20
57.0601
 30
0.0
 10
247.9986
 20
57.2496
 30
0.0
 10
242.5026
 20
53.6486
 30
0.0
 10
242.5026
 20
53.6486
 30
0.0
 10
242.5026
 20
53.6486
 30
0.0
 10
242.5026
 20
53.6486
 30
0.0
 10
238.9015
 20
77.1497
 30
0.0
 10
213.8846
 20
91.7427
 30
0.0
 10
213.8846
 20
91.7427
 30
0.0
 10
188.8675
 20
106.3359
 30
0.0
 10
161.9555
 20
111.0739
 30
0.0
 10
161.9555
 20
111.0739
 30
0.0
  0
SPLINE
  5
6E
330
1F
100
AcDbEntity
  8
layer 1
 62
   250
370
     9
100
AcDbSpline
210
0.0
220
0.0
230
1.0
 70
    11
 71
     3
 72
    44
 73
    40
 74
     0
 42
0.000000001
 43
0.0000000001
 40
0.0
 40
0.0
 40
0.0
 40
0.0
 40
0.0909090909090909
 40
0.0909090909090909
 40
0.0909090909090909
 40
0.0909090909090909
 40
0.1818181818181818
 40
0.1818181818181818
 40
0.1818181818181818
 40
0.1818181818181818
 40
0.2727272727272727
 40
0.2727272727272727
 40
0.2727272727272727
 40
0.2727272727272727
 40
0.3636363636363636
 40
0.3636363636363636
 40
0.3636363636363636
 40
0.3636363636363636
 40
0.4545454545454545
 40
0.4545454545454545
 40
0.4545454545454545
 40
0.4545454545454545
 40
0.5454545454545454
 40
0.5454545454545454
 40
0.5454545454545454
 40
0.5454545454545454
 40
0.6363636363636364
 40
0.6363636363636364
 40
0.6363636363636364
 40
0.6363636363636364
 40
0.7272727272727273
 40
0.7272727272727273
 40
0.7272727272727273
 40
0.7272727272727273
 40
0.8181818181818182
 40
0.8181818181818182
 40
0.8181818181818182
 40
0.8181818181818182
 40
1.0
 40
1.0
 40
1.0
 40
1.0
 10
186.4039
 20
72.1503
 30
0.0
 10
186.4039
 20
72.1503
 30
0.0
 10
210.6627
 20
71.3918
 30
0.0
 10
219.7598
 20
49.4075
 30
0.0
 10
219.7598
 20
49.4075
 30
0.0
 10
228.857
 20
27.4228
 30
0.0
 10
230.3732
 20
-9.3446
 30
0.0
 10
230.3732
 20
-9.3446
 30
0.0
 10
230.3732
 20
-9.3446
 30
0.0
 10
230.3732
 20
-9.3446
 30
0.0
 10
234.9216
 20
19.842
 30
0.0
 10
246.672
 20
22.8744
 30
0.0
 10
246.672
 20
22.8744
 30
0.0
 10
286.6224
 20
33.1841
 30
0.0
 10
286.0508
 20
-20.1493
 30
0.0
 10
259.9386
 20
-42.7006
 30
0.0
 10
259.9386
 20
-42.7006
 30
0.0
 10
243.2606
 20
-57.1044
 30
0.0
 10
211.4209
 20
-73.4032
 30
0.0
 10
211.4209
 20
-73.4032
 30
0.0
 10
211.4209
 20
-73.4032
 30
0.0
 10
230.3802
 20
-80.7423
 30
0.0
 10
252.4911
 20
-66.302
 30
0.0
 10
268.6567
 20
-57.1044
 30
0.0
 10
268.6567
 20
-57.1044
 30
0.0
 10
230.4796
 20
-118.7647
 30
0.0
 10
184.6474
 20
-104.5591
 30
0.0
 10
158.7336
 20
-42.7006
 30
0.0
 10
158.7336
 20
-42.7006
 30
0.0
 10
158.7336
 20
-42.7006
 30
0.0
 10
176.1696
 20
-48.7654
 30
0.0
 10
190.1943
 20
-32.8454
 30
0.0
 10
190.1943
 20
-32.8454
 30
0.0
 10
204.219
 20
-16.9255
 30
0.0
 10
214.0743
 20
1.6478
 30
0.0
 10
209.5257
 20
26.2858
 30
0.0
 10
209.5257
 20
26.2858
 30
0.0
 10
204.9771
 20
50.9237
 30
0.0
 10
186.4039
 20
72.1503
 30
0.0
 10
186.4039
 20
72.1503
 30
0.0
  0
SPLINE
  5
6F
330
1F
100
AcDbEntity
  8
layer 1
 62
   250
370
     9
100
AcDbSpline
210
0.0
220
0.0
230
1.0
 70
    11
 71
     3
 72
    28
 73
    24
 74
     0
 42
0.000000001
 43
0.0000000001
 40
0.0
 40
0.0
 40
0.0
 40
0.0
 40
0.1428571428571428
 40
0.1428571428571428
 40
0.1428571428571428
 40
0.1428571428571428
 40
0.2857142857142857
 40
0.2857142857142857
 40
0.2857142857142857
 40
0.2857142857142857
 40
0.4285714285714285
 40
0.4285714285714285
 40
0.4285714285714285
 40
0.4285714285714285
 40
0.5714285714285714
 40
0.5714285714285714
 40
0.5714285714285714
 40
0.5714285714285714
 40
0.7142857142857143
 40
0.7142857142857143
 40
0.7142857142857143
 40
0.7142857142857143
 40
1.0
 40
1.0
 40
1.0
 40
1.0
 10
93.2567
 20
-155.3841
 30
0.0
 10
93.2567
 20
-155.3841
 30
0.0
 10
103.8701
 20
-174.3362
 30
0.0
 10
105.3863
 20
-186.8448
 30
0.0
 10
105.3863
 20
-186.8448
 30
0.0
 10
106.9024
 20
-199.3534
 30
0.0
 10
106.5233
 20
-212.999
 30
0.0
 10
106.5233
 20
-212.999
 30
0.0
 10
106.5233
 20
-212.999
 30
0.0
 10
106.5233
 20
-212.999
 30
0.0
 10
105.007
 20
-202.3857
 30
0.0
 10
97.0471
 20
-197.8372
 30
0.0
 10
97.0471
 20
-197.8372
 30
0.0
 10
89.0871
 20
-193.2887
 30
0.0
 10
82.2644
 20
-189.1192
 30
0.0
 10
82.2644
 20
-189.1192
 30
0.0
 10
82.2644
 20
-189.1192
 30
0.0
 10
82.2644
 20
-189.1192
 30
0.0
 10
90.6032
 20
-179.6427
 30
0.0
 10
91.7404
 20
-174.7154
 30
0.0
 10
91.7404
 20
-174.7154
 30
0.0
 10
92.8776
 20
-169.7879
 30
0.0
 10
93.2567
 20
-155.3841
 30
0.0
 10
93.2567
 20
-155.3841
 30
0.0
  0
SPLINE
  5
70
330
1F
100
AcDbEntity
  8
layer 1
 62
   250
370
     9
100
AcDbSpline
210
0.0
220
0.0
230
1.0
 70
    11
 71
     3
 72
    48
 73
    44
 74
     0
 42
0.000000001
 43
0.0000000001
 40
0.0
 40
0.0
 40
0.0
 40
0.0
 40
0.0833333333333333
 40
0.0833333333333333
 40
0.0833333333333333
 40
0.0833333333333333
 40
0.1666666666666667
 40
0.1666666666666667
 40
0.1666666666666667
 40
0.1666666666666667
 40
0.25
 40
0.25
 40
0.25
 40
0.25
 40
0.3333333333333333
 40
0.3333333333333333
 40
0.3333333333333333
 40
0.3333333333333333
 40
0.4166666666666667
 40
0.4166666666666667
 40
0.4166666666666667
 40
0.4166666666666667
 40
0.5
 40
0.5
 40
0.5
 40
0.5
 40
0.5833333333333334
 40
0.5833333333333334
 40
0.5833333333333334
 40
0.5833333333333334
 40
0.6666666666666666
 40
0.6666666666666666
 40
0.6666666666666666
 40
0.6666666666666666
 40
0.75
 40
0.75
 40
0.75
 40
0.75
 40
0.8333333333333334
 40
0.8333333333333334
 40
0.8333333333333334
 40
0.8333333333333334
 40
1.0
 40
1.0
 40
1.0
 40
1.0
 10
-129.6233
 20
346.2831
 30
0.0
 10
-129.6233
 20
346.2831
 30
0.0
 10
-137.0146
 20
317.0965
 30
0.0
 10
-136.8251
 20
304.7777
 30
0.0
 10
-136.8251
 20
304.7777
 30
0.0
 10
-136.6356
 20
292.4587
 30
0.0
 10
-135.8774
 20
288.0998
 30
0.0
 10
-133.0346
 20
282.7931
 30
0.0
 10
-133.0346
 20
282.7931
 30
0.0
 10
-126.9098
 20
271.3594
 30
0.0
 10
-128.828
 20
264.8939
 30
0.0
 10
-130.5707
 20
250.9532
 30
0.0
 10
-130.5707
 20
250.9532
 30
0.0
 10
-131.1393
 20
246.4047
 30
0.0
 10
-133.9822
 20
240.5295
 30
0.0
 10
-133.9822
 20
240.5295
 30
0.0
 10
-133.9822
 20
240.5295
 30
0.0
 10
-133.9822
 20
240.5295
 30
0.0
 10
-132.0869
 20
253.796
 30
0.0
 10
-133.9822
 20
263.6513
 30
0.0
 10
-133.9822
 20
263.6513
 30
0.0
 10
-135.8774
 20
273.5065
 30
0.0
 10
-137.9619
 20
278.4341
 30
0.0
 10
-144.2163
 20
278.4341
 30
0.0
 10
-144.2163
 20
278.4341
 30
0.0
 10
-150.4707
 20
278.4341
 30
0.0
 10
-157.4829
 20
274.2647
 30
0.0
 10
-160.5154
 20
268.5788
 30
0.0
 10
-160.5154
 20
268.5788
 30
0.0
 10
-163.5478
 20
262.8932
 30
0.0
 10
-170.5601
 20
248.2999
 30
0.0
 10
-170.5601
 20
248.2999
 30
0.0
 10
-170.5601
 20
248.2999
 30
0.0
 10
-168.7252
 20
275.8224
 30
0.0
 10
-161.9819
 20
272.6932
 30
0.0
 10
-148.9545
 20
291.5109
 30
0.0
 10
-148.9545
 20
291.5109
 30
0.0
 10
-145.5431
 20
296.4387
 30
0.0
 10
-141.1839
 20
309.3262
 30
0.0
 10
-140.2364
 20
313.8748
 30
0.0
 10
-140.2364
 20
313.8748
 30
0.0
 10
-139.289
 20
318.4231
 30
0.0
 10
-129.6233
 20
346.2831
 30
0.0
 10
-129.6233
 20
346.2831
 30
0.0
  0
SPLINE
  5
71
330
1F
100
AcDbEntity
  8
layer 1
 62
   250
370
     9
100
AcDbSpline
210
0.0
220
0.0
230
1.0
 70
    11
 71
     3
 72
    24
 73
    20
 74
     0
 42
0.000000001
 43
0.0000000001
 40
0.0
 40
0.0
 40
0.0
 40
0.0
 40
0.1666666666666667
 40
0.1666666666666667
 40
0.1666666666666667
 40
0.1666666666666667
 40
0.3333333333333333
 40
0.3333333333333333
 40
0.3333333333333333
 40
0.3333333333333333
 40
0.5
 40
0.5
 40
0.5
 40
0.5
 40
0.6666666666666666
 40
0.6666666666666666
 40
0.6666666666666666
 40
0.6666666666666666
 40
1.0
 40
1.0
 40
1.0
 40
1.0
 10
-111.9976
 20
326.9517
 30
0.0
 10
-111.9976
 20
326.9517
 30
0.0
 10
-110.5759
 20
316.3387
 30
0.0
 10
-108.8702
 20
314.159
 30
0.0
 10
-108.8702
 20
314.159
 30
0.0
 10
-107.1645
 20
311.9794
 30
0.0
 10
-104.6057
 20
307.3358
 30
0.0
 10
-104.2269
 20
307.3358
 30
0.0
 10
-104.2269
 20
307.3358
 30
0.0
 10
-103.8479
 20
307.3358
 30
0.0
 10
-107.0697
 20
308.094
 30
0.0
 10
-109.5336
 20
305.4409
 30
0.0
 10
-109.5336
 20
305.4409
 30
0.0
 10
-111.9973
 20
302.7874
 30
0.0
 10
-114.4611
 20
299.9445
 30
0.0
 10
-114.4611
 20
299.9445
 30
0.0
 10
-114.4611
 20
299.9445
 30
0.0
 10
-114.4611
 20
299.9445
 30
0.0
 10
-111.9976
 20
326.9517
 30
0.0
 10
-111.9976
 20
326.9517
 30
0.0
  0
SPLINE
  5
72
330
1F
100
AcDbEntity
  8
layer 1
 62
   250
370
     9
100
AcDbSpline
210
0.0
220
0.0
230
1.0
 70
    11
 71
     3
 72
    28
 73
    24
 74
     0
 42
0.000000001
 43
0.0000000001
 40
0.0
 40
0.0
 40
0.0
 40
0.0
 40
0.1428571428571428
 40
0.1428571428571428
 40
0.1428571428571428
 40
0.1428571428571428
 40
0.2857142857142857
 40
0.2857142857142857
 40
0.2857142857142857
 40
0.2857142857142857
 40
0.4285714285714285
 40
0.4285714285714285
 40
0.4285714285714285
 40
0.4285714285714285
 40
0.5714285714285714
 40
0.5714285714285714
 40
0.5714285714285714
 40
0.5714285714285714
 40
0.7142857142857143
 40
0.7142857142857143
 40
0.7142857142857143
 40
0.7142857142857143
 40
1.0
 40
1.0
 40
1.0
 40
1.0
 10
-152.1763
 20
332.7322
 30
0.0
 10
-152.1763
 20
332.7322
 30
0.0
 10
-157.6723
 20
323.9195
 30
0.0
 10
-158.8095
 20
319.655
 30
0.0
 10
-158.8095
 20
319.655
 30
0.0
 10
-159.9466
 20
315.3909
 30
0.0
 10
-161.2734
 20
306.3886
 30
0.0
 10
-161.2734
 20
306.3886
 30
0.0
 10
-161.2734
 20
306.3886
 30
0.0
 10
-161.2734
 20
306.3886
 30
0.0
 10
-161.9366
 20
309.2313
 30
0.0
 10
-164.969
 20
311.8846
 30
0.0
 10
-164.969
 20
311.8846
 30
0.0
 10
-168.0014
 20
314.538
 30
0.0
 10
-169.7071
 20
315.8648
 30
0.0
 10
-169.7071
 20
315.8648
 30
0.0
 10
-169.7071
 20
315.8648
 30
0.0
 10
-169.7071
 20
315.8648
 30
0.0
 10
-165.0636
 20
317.1913
 30
0.0
 10
-161.7471
 20
320.7923
 30
0.0
 10
-161.7471
 20
320.7923
 30
0.0
 10
-158.4304
 20
324.3933
 30
0.0
 10
-152.1763
 20
332.7322
 30
0.0
 10
-152.1763
 20
332.7322
 30
0.0
  0
SPLINE
  5
73
330
1F
100
AcDbEntity
  8
layer 1
 62
   250
370
     9
100
AcDbSpline
210
0.0
220
0.0
230
1.0
 70
    11
 71
     3
 72
    48
 73
    44
 74
     0
 42
0.000000001
 43
0.0000000001
 40
0.0
 40
0.0
 40
0.0
 40
0.0
 40
0.0833333333333333
 40
0.0833333333333333
 40
0.0833333333333333
 40
0.0833333333333333
 40
0.1666666666666667
 40
0.1666666666666667
 40
0.1666666666666667
 40
0.1666666666666667
 40
0.25
 40
0.25
 40
0.25
 40
0.25
 40
0.3333333333333333
 40
0.3333333333333333
 40
0.3333333333333333
 40
0.3333333333333333
 40
0.4166666666666667
 40
0.4166666666666667
 40
0.4166666666666667
 40
0.4166666666666667
 40
0.5
 40
0.5
 40
0.5
 40
0.5
 40
0.5833333333333334
 40
0.5833333333333334
 40
0.5833333333333334
 40
0.5833333333333334
 40
0.6666666666666666
 40
0.6666666666666666
 40
0.6666666666666666
 40
0.6666666666666666
 40
0.75
 40
0.75
 40
0.75
 40
0.75
 40
0.8333333333333334
 40
0.8333333333333334
 40
0.8333333333333334
 40
0.8333333333333334
 40
1.0
 40
1.0
 40
1.0
 40
1.0
 10
-121.7578
 20
275.7806
 30
0.0
 10
-121.7578
 20
275.7806
 30
0.0
 10
-118.8204
 20
287.1519
 30
0.0
 10
-114.4613
 20
289.6159
 30
0.0
 10
-114.4613
 20
289.6159
 30
0.0
 10
-113.0275
 20
290.426
 30
0.0
 10
-111.3789
 20
291.021
 30
0.0
 10
-109.6734
 20
291.4446
 30
0.0
 10
-109.6734
 20
291.4446
 30
0.0
 10
-109.8594
 20
290.9916
 30
0.0
 10
-109.9608
 20
290.5028
 30
0.0
 10
-109.9608
 20
289.993
 30
0.0
 10
-109.9608
 20
289.993
 30
0.0
 10
-109.9608
 20
287.638
 30
0.0
 10
-107.7971
 20
285.7288
 30
0.0
 10
-105.1279
 20
285.7288
 30
0.0
 10
-105.1279
 20
285.7288
 30
0.0
 10
-102.4588
 20
285.7288
 30
0.0
 10
-100.2952
 20
287.638
 30
0.0
 10
-100.2952
 20
289.993
 30
0.0
 10
-100.2952
 20
289.993
 30
0.0
 10
-100.2952
 20
290.8558
 30
0.0
 10
-100.5857
 20
291.6587
 30
0.0
 10
-101.085
 20
292.3297
 30
0.0
 10
-101.085
 20
292.3297
 30
0.0
 10
-100.6583
 20
292.3177
 30
0.0
 10
-100.251
 20
292.2971
 30
0.0
 10
-99.8681
 20
292.2691
 30
0.0
 10
-99.8681
 20
292.2691
 30
0.0
 10
-95.9827
 20
291.9848
 30
0.0
 10
-91.908
 20
292.0794
 30
0.0
 10
-91.908
 20
292.0794
 30
0.0
 10
-91.908
 20
292.0794
 30
0.0
 10
-91.908
 20
292.0794
 30
0.0
 10
-97.025
 20
284.9724
 30
0.0
 10
-103.8479
 20
282.2243
 30
0.0
 10
-103.8479
 20
282.2243
 30
0.0
 10
-110.6709
 20
279.4764
 30
0.0
 10
-112.7558
 20
281.1821
 30
0.0
 10
-114.3665
 20
279.8553
 30
0.0
 10
-114.3665
 20
279.8553
 30
0.0
 10
-115.9774
 20
278.5286
 30
0.0
 10
-121.7578
 20
275.7806
 30
0.0
 10
-121.7578
 20
275.7806
 30
0.0
  0
SPLINE
  5
74
330
1F
100
AcDbEntity
  8
layer 1
 62
   250
370
     9
100
AcDbSpline
210
0.0
220
0.0
230
1.0
 70
    11
 71
     3
 72
    44
 73
    40
 74
     0
 42
0.000000001
 43
0.0000000001
 40
0.0
 40
0.0
 40
0.0
 40
0.0
 40
0.0909090909090909
 40
0.0909090909090909
 40
0.0909090909090909
 40
0.0909090909090909
 40
0.1818181818181818
 40
0.1818181818181818
 40
0.1818181818181818
 40
0.1818181818181818
 40
0.2727272727272727
 40
0.2727272727272727
 40
0.2727272727272727
 40
0.2727272727272727
 40
0.3636363636363636
 40
0.3636363636363636
 40
0.3636363636363636
 40
0.3636363636363636
 40
0.4545454545454545
 40
0.4545454545454545
 40
0.4545454545454545
 40
0.4545454545454545
 40
0.5454545454545454
 40
0.5454545454545454
 40
0.5454545454545454
 40
0.5454545454545454
 40
0.6363636363636364
 40
0.6363636363636364
 40
0.6363636363636364
 40
0.6363636363636364
 40
0.7272727272727273
 40
0.7272727272727273
 40
0.7272727272727273
 40
0.7272727272727273
 40
0.8181818181818182
 40
0.8181818181818182
 40
0.8181818181818182
 40
0.8181818181818182
 40
1.0
 40
1.0
 40
1.0
 40
1.0
 10
-160.8945
 20
284.6409
 30
0.0
 10
-160.8945
 20
284.6409
 30
0.0
 10
-160.9891
 20
296.0124
 30
0.0
 10
-164.9691
 20
299.4236
 30
0.0
 10
-164.9691
 20
299.4236
 30
0.0
 10
-165.3691
 20
299.7663
 30
0.0
 10
-165.7666
 20
300.0877
 30
0.0
 10
-166.1624
 20
300.39
 30
0.0
 10
-166.1624
 20
300.39
 30
0.0
 10
-167.0976
 20
297.9028
 30
0.0
 10
-169.2934
 20
296.1566
 30
0.0
 10
-171.853
 20
296.1566
 30
0.0
 10
-171.853
 20
296.1566
 30
0.0
 10
-175.2617
 20
296.1566
 30
0.0
 10
-178.0252
 20
299.2539
 30
0.0
 10
-178.0252
 20
303.0744
 30
0.0
 10
-178.0252
 20
303.0744
 30
0.0
 10
-178.0252
 20
303.9469
 30
0.0
 10
-177.8808
 20
304.7814
 30
0.0
 10
-177.6176
 20
305.5503
 30
0.0
 10
-177.6176
 20
305.5503
 30
0.0
 10
-181.101
 20
306.5258
 30
0.0
 10
-186.0062
 20
307.8575
 30
0.0
 10
-186.0062
 20
307.8575
 30
0.0
 10
-186.0062
 20
307.8575
 30
0.0
 10
-186.0062
 20
307.8575
 30
0.0
 10
-183.6371
 20
304.8252
 30
0.0
 10
-181.8368
 20
303.1194
 30
0.0
 10
-181.8368
 20
303.1194
 30
0.0
 10
-180.0362
 20
301.4135
 30
0.0
 10
-178.141
 20
295.9173
 30
0.0
 10
-176.4354
 20
294.2118
 30
0.0
 10
-176.4354
 20
294.2118
 30
0.0
 10
-174.7296
 20
292.506
 30
0.0
 10
-169.8021
 20
290.6108
 30
0.0
 10
-168.0016
 20
290.0423
 30
0.0
 10
-168.0016
 20
290.0423
 30
0.0
 10
-166.201
 20
289.4736
 30
0.0
 10
-160.8945
 20
284.6409
 30
0.0
 10
-160.8945
 20
284.6409
 30
0.0
  0
SPLINE
  5
75
330
1F
100
AcDbEntity
  8
layer 1
 62
   250
370
     9
100
AcDbSpline
210
0.0
220
0.0
230
1.0
 70
    11
 71
     3
 72
   108
 73
   104
 74
     0
 42
0.000000001
 43
0.0000000001
 40
0.0
 40
0.0
 40
0.0
 40
0.0
 40
0.037037037037037
 40
0.037037037037037
 40
0.037037037037037
 40
0.037037037037037
 40
0.0740740740740741
 40
0.0740740740740741
 40
0.0740740740740741
 40
0.0740740740740741
 40
0.1111111111111111
 40
0.1111111111111111
 40
0.1111111111111111
 40
0.1111111111111111
 40
0.1481481481481481
 40
0.1481481481481481
 40
0.1481481481481481
 40
0.1481481481481481
 40
0.1851851851851852
 40
0.1851851851851852
 40
0.1851851851851852
 40
0.1851851851851852
 40
0.2222222222222222
 40
0.2222222222222222
 40
0.2222222222222222
 40
0.2222222222222222
 40
0.2592592592592592
 40
0.2592592592592592
 40
0.2592592592592592
 40
0.2592592592592592
 40
0.2962962962962963
 40
0.2962962962962963
 40
0.2962962962962963
 40
0.2962962962962963
 40
0.3333333333333333
 40
0.3333333333333333
 40
0.3333333333333333
 40
0.3333333333333333
 40
0.3703703703703703
 40
0.3703703703703703
 40
0.3703703703703703
 40
0.3703703703703703
 40
0.4074074074074074
 40
0.4074074074074074
 40
0.4074074074074074
 40
0.4074074074074074
 40
0.4444444444444444
 40
0.4444444444444444
 40
0.4444444444444444
 40
0.4444444444444444
 40
0.4814814814814815
 40
0.4814814814814815
 40
0.4814814814814815
 40
0.4814814814814815
 40
0.5185185185185185
 40
0.5185185185185185
 40
0.5185185185185185
 40
0.5185185185185185
 40
0.5555555555555556
 40
0.5555555555555556
 40
0.5555555555555556
 40
0.5555555555555556
 40
0.5925925925925926
 40
0.5925925925925926
 40
0.5925925925925926
 40
0.5925925925925926
 40
0.6296296296296297
 40
0.6296296296296297
 40
0.6296296296296297
 40
0.6296296296296297
 40
0.6666666666666666
 40
0.6666666666666666
 40
0.6666666666666666
 40
0.6666666666666666
 40
0.7037037037037037
 40
0.7037037037037037
 40
0.7037037037037037
 40
0.7037037037037037
 40
0.7407407407407407
 40
0.7407407407407407
 40
0.7407407407407407
 40
0.7407407407407407
 40
0.7777777777777778
 40
0.7777777777777778
 40
0.7777777777777778
 40
0.7777777777777778
 40
0.8148148148148148
 40
0.8148148148148148
 40
0.8148148148148148
 40
0.8148148148148148
 40
0.8518518518518519
 40
0.8518518518518519
 40
0.8518518518518519
 40
0.8518518518518519
 40
0.8888888888888888
 40
0.8888888888888888
 40
0.8888888888888888
 40
0.8888888888888888
 40
0.9259259259259259
 40
0.9259259259259259
 40
0.9259259259259259
 40
0.9259259259259259
 40
1.0
 40
1.0
 40
1.0
 40
1.0
 10
-188.8491
 20
269.3841
 30
0.0
 10
-188.8656
 20
269.3679
 30
0.0
 10
-182.3766
 20
263.1362
 30
0.0
 10
-181.7421
 20
260.4765
 30
0.0
 10
-181.7421
 20
260.4765
 30
0.0
 10
-181.1074
 20
257.8169
 30
0.0
 10
-180.7945
 20
252.3272
 30
0.0
 10
-181.5527
 20
248.8209
 30
0.0
 10
-181.5527
 20
248.8209
 30
0.0
 10
-183.8434
 20
238.2271
 30
0.0
 10
-190.0822
 20
208.8468
 30
0.0
 10
-173.3085
 20
206.1784
 30
0.0
 10
-173.3085
 20
206.1784
 30
0.0
 10
-171.7548
 20
205.9313
 30
0.0
 10
-161.832
 20
207.864
 30
0.0
 10
-158.9046
 20
208.2633
 30
0.0
 10
-158.9046
 20
208.2633
 30
0.0
 10
-158.9046
 20
208.2633
 30
0.0
 10
-158.0517
 20
213.096
 30
0.0
 10
-158.0517
 20
213.096
 30
0.0
 10
-158.0517
 20
213.096
 30
0.0
 10
-158.0517
 20
213.096
 30
0.0
 10
-158.5256
 20
215.56
 30
0.0
 10
-161.5578
 20
216.9813
 30
0.0
 10
-161.5578
 20
216.9813
 30
0.0
 10
-165.6969
 20
218.9215
 30
0.0
 10
-173.7186
 20
223.1311
 30
0.0
 10
-171.6977
 20
230.6269
 30
0.0
 10
-171.6977
 20
230.6269
 30
0.0
 10
-169.734
 20
237.9093
 30
0.0
 10
-157.1995
 20
236.0147
 30
0.0
 10
-151.3238
 20
235.1755
 30
0.0
 10
-151.3238
 20
235.1755
 30
0.0
 10
-142.6016
 20
233.9297
 30
0.0
 10
-127.2677
 20
231.0993
 30
0.0
 10
-135.0249
 20
218.6871
 30
0.0
 10
-135.0249
 20
218.6871
 30
0.0
 10
-135.9724
 20
217.1708
 30
0.0
 10
-140.2368
 20
213.6646
 30
0.0
 10
-143.9324
 20
213.4751
 30
0.0
 10
-143.9324
 20
213.4751
 30
0.0
 10
-147.6281
 20
213.2856
 30
0.0
 10
-153.5034
 20
213.8542
 30
0.0
 10
-154.4509
 20
212.8117
 30
0.0
 10
-154.4509
 20
212.8117
 30
0.0
 10
-155.3985
 20
211.7696
 30
0.0
 10
-155.5881
 20
209.4953
 30
0.0
 10
-155.4933
 20
208.358
 30
0.0
 10
-155.4933
 20
208.358
 30
0.0
 10
-155.3985
 20
207.2209
 30
0.0
 10
-153.5981
 20
206.7469
 30
0.0
 10
-149.9025
 20
205.3255
 30
0.0
 10
-149.9025
 20
205.3255
 30
0.0
 10
-146.2067
 20
203.9039
 30
0.0
 10
-143.9324
 20
202.5775
 30
0.0
 10
-141.4685
 20
201.156
 30
0.0
 10
-141.4685
 20
201.156
 30
0.0
 10
-139.0048
 20
199.7346
 30
0.0
 10
-138.2467
 20
199.5449
 30
0.0
 10
-134.551
 20
199.2607
 30
0.0
 10
-134.551
 20
199.2607
 30
0.0
 10
-119.426
 20
198.0975
 30
0.0
 10
-115.1982
 20
215.5609
 30
0.0
 10
-113.0517
 20
226.5318
 30
0.0
 10
-113.0517
 20
226.5318
 30
0.0
 10
-110.3851
 20
240.1616
 30
0.0
 10
-110.1322
 20
252.0716
 30
0.0
 10
-94.6565
 20
252.0425
 30
0.0
 10
-94.6565
 20
252.0425
 30
0.0
 10
-94.6565
 20
252.0425
 30
0.0
 10
-100.8159
 20
251.8531
 30
0.0
 10
-103.8482
 20
242.3772
 30
0.0
 10
-103.8482
 20
242.3772
 30
0.0
 10
-111.3899
 20
218.8093
 30
0.0
 10
-104.579
 20
213.9871
 30
0.0
 10
-122.5163
 20
196.7967
 30
0.0
 10
-122.5163
 20
196.7967
 30
0.0
 10
-124.7903
 20
194.6172
 30
0.0
 10
-127.823
 20
192.5322
 30
0.0
 10
-132.1821
 20
191.9637
 30
0.0
 10
-132.1821
 20
191.9637
 30
0.0
 10
-136.5411
 20
191.3953
 30
0.0
 10
-140.3321
 20
197.0811
 30
0.0
 10
-146.2069
 20
199.3551
 30
0.0
 10
-146.2069
 20
199.3551
 30
0.0
 10
-150.2144
 20
200.9062
 30
0.0
 10
-161.9887
 20
202.4596
 30
0.0
 10
-166.6754
 20
202.7663
 30
0.0
 10
-166.6754
 20
202.7663
 30
0.0
 10
-171.005
 20
203.0494
 30
0.0
 10
-173.3085
 20
199.8285
 30
0.0
 10
-178.2361
 20
202.8608
 30
0.0
 10
-178.2361
 20
202.8608
 30
0.0
 10
-189.0428
 20
209.5105
 30
0.0
 10
-191.745
 20
231.3779
 30
0.0
 10
-187.3337
 20
241.8552
 30
0.0
 10
-187.3337
 20
241.8552
 30
0.0
 10
-185.4385
 20
246.3562
 30
0.0
 10
-183.8787
 20
253.7789
 30
0.0
 10
-185.1543
 20
258.2489
 30
0.0
 10
-185.1543
 20
258.2489
 30
0.0
 10
-186.43
 20
262.7189
 30
0.0
 10
-188.8491
 20
269.3841
 30
0.0
 10
-188.8491
 20
269.3841
 30
0.0
  0
SPLINE
  5
76
330
1F
100
AcDbEntity
  8
layer 1
 62
   250
370
     9
100
AcDbSpline
210
0.0
220
0.0
230
1.0
 70
    11
 71
     3
 72
    28
 73
    24
 74
     0
 42
0.000000001
 43
0.0000000001
 40
0.0
 40
0.0
 40
0.0
 40
0.0
 40
0.1428571428571428
 40
0.1428571428571428
 40
0.1428571428571428
 40
0.1428571428571428
 40
0.2857142857142857
 40
0.2857142857142857
 40
0.2857142857142857
 40
0.2857142857142857
 40
0.4285714285714285
 40
0.4285714285714285
 40
0.4285714285714285
 40
0.4285714285714285
 40
0.5714285714285714
 40
0.5714285714285714
 40
0.5714285714285714
 40
0.5714285714285714
 40
0.7142857142857143
 40
0.7142857142857143
 40
0.7142857142857143
 40
0.7142857142857143
 40
1.0
 40
1.0
 40
1.0
 40
1.0
 10
-132.5129
 20
372.0548
 30
0.0
 10
-132.5129
 20
372.0548
 30
0.0
 10
-126.8271
 20
367.1275
 30
0.0
 10
-120.0043
 20
366.7484
 30
0.0
 10
-120.0043
 20
366.7484
 30
0.0
 10
-113.1816
 20
366.3693
 30
0.0
 10
-100.8625
 20
368.6435
 30
0.0
 10
-100.8625
 20
368.6435
 30
0.0
 10
-100.8625
 20
368.6435
 30
0.0
 10
-100.8625
 20
368.6435
 30
0.0
 10
-106.7376
 20
366.1798
 30
0.0
 10
-114.1291
 20
362.2
 30
0.0
 10
-114.1291
 20
362.2
 30
0.0
 10
-121.5204
 20
358.2198
 30
0.0
 10
-126.069
 20
352.9133
 30
0.0
 10
-126.069
 20
352.9133
 30
0.0
 10
-126.069
 20
352.9133
 30
0.0
 10
-126.069
 20
352.9133
 30
0.0
 10
-125.3109
 20
360.8733
 30
0.0
 10
-127.5852
 20
364.4741
 30
0.0
 10
-127.5852
 20
364.4741
 30
0.0
 10
-129.8595
 20
368.075
 30
0.0
 10
-132.5129
 20
372.0548
 30
0.0
 10
-132.5129
 20
372.0548
 30
0.0
  0
SPLINE
  5
77
330
1F
100
AcDbEntity
  8
layer 1
 62
   250
370
     9
100
AcDbSpline
210
0.0
220
0.0
230
1.0
 70
    11
 71
     3
 72
    20
 73
    16
 74
     0
 42
0.000000001
 43
0.0000000001
 40
0.0
 40
0.0
 40
0.0
 40
0.0
 40
0.2
 40
0.2
 40
0.2
 40
0.2
 40
0.4
 40
0.4
 40
0.4
 40
0.4
 40
0.6
 40
0.6
 40
0.6
 40
0.6
 40
1.0
 40
1.0
 40
1.0
 40
1.0
 10
-176.8608
 20
199.4943
 30
0.0
 10
-176.8608
 20
199.4943
 30
0.0
 10
-174.5867
 20
180.3526
 30
0.0
 10
-159.8039
 20
177.8888
 30
0.0
 10
-159.8039
 20
177.8888
 30
0.0
 10
-145.0211
 20
175.4251
 30
0.0
 10
-130.0487
 20
189.6391
 30
0.0
 10
-130.0487
 20
189.6391
 30
0.0
 10
-130.0487
 20
189.6391
 30
0.0
 10
-130.0487
 20
189.6391
 30
0.0
 10
-144.8827
 20
181.4972
 30
0.0
 10
-159.0457
 20
183.5744
 30
0.0
 10
-159.0457
 20
183.5744
 30
0.0
 10
-173.2089
 20
185.6516
 30
0.0
 10
-176.8608
 20
199.4943
 30
0.0
 10
-176.8608
 20
199.4943
 30
0.0
  0
SPLINE
  5
78
330
1F
100
AcDbEntity
  8
layer 1
 62
   250
370
     9
100
AcDbSpline
210
0.0
220
0.0
230
1.0
 70
    11
 71
     3
 72
   120
 73
   116
 74
     0
 42
0.000000001
 43
0.0000000001
 40
0.0
 40
0.0
 40
0.0
 40
0.0
 40
0.0333333333333333
 40
0.0333333333333333
 40
0.0333333333333333
 40
0.0333333333333333
 40
0.0666666666666667
 40
0.0666666666666667
 40
0.0666666666666667
 40
0.0666666666666667
 40
0.1
 40
0.1
 40
0.1
 40
0.1
 40
0.1333333333333333
 40
0.1333333333333333
 40
0.1333333333333333
 40
0.1333333333333333
 40
0.1666666666666667
 40
0.1666666666666667
 40
0.1666666666666667
 40
0.1666666666666667
 40
0.2
 40
0.2
 40
0.2
 40
0.2
 40
0.2333333333333333
 40
0.2333333333333333
 40
0.2333333333333333
 40
0.2333333333333333
 40
0.2666666666666667
 40
0.2666666666666667
 40
0.2666666666666667
 40
0.2666666666666667
 40
0.3
 40
0.3
 40
0.3
 40
0.3
 40
0.3333333333333333
 40
0.3333333333333333
 40
0.3333333333333333
 40
0.3333333333333333
 40
0.3666666666666666
 40
0.3666666666666666
 40
0.3666666666666666
 40
0.3666666666666666
 40
0.4
 40
0.4
 40
0.4
 40
0.4
 40
0.4333333333333333
 40
0.4333333333333333
 40
0.4333333333333333
 40
0.4333333333333333
 40
0.4666666666666667
 40
0.4666666666666667
 40
0.4666666666666667
 40
0.4666666666666667
 40
0.5
 40
0.5
 40
0.5
 40
0.5
 40
0.5333333333333333
 40
0.5333333333333333
 40
0.5333333333333333
 40
0.5333333333333333
 40
0.5666666666666667
 40
0.5666666666666667
 40
0.5666666666666667
 40
0.5666666666666667
 40
0.6
 40
0.6
 40
0.6
 40
0.6
 40
0.6333333333333333
 40
0.6333333333333333
 40
0.6333333333333333
 40
0.6333333333333333
 40
0.6666666666666666
 40
0.6666666666666666
 40
0.6666666666666666
 40
0.6666666666666666
 40
0.7
 40
0.7
 40
0.7
 40
0.7
 40
0.7333333333333333
 40
0.7333333333333333
 40
0.7333333333333333
 40
0.7333333333333333
 40
0.7666666666666667
 40
0.7666666666666667
 40
0.7666666666666667
 40
0.7666666666666667
 40
0.8
 40
0.8
 40
0.8
 40
0.8
 40
0.8333333333333334
 40
0.8333333333333334
 40
0.8333333333333334
 40
0.8333333333333334
 40
0.8666666666666667
 40
0.8666666666666667
 40
0.8666666666666667
 40
0.8666666666666667
 40
0.9
 40
0.9
 40
0.9
 40
0.9
 40
0.9333333333333333
 40
0.9333333333333333
 40
0.9333333333333333
 40
0.9333333333333333
 40
1.0
 40
1.0
 40
1.0
 40
1.0
 10
-86.3707
 20
340.2963
 30
0.0
 10
-77.0767
 20
327.4743
 30
0.0
 10
-59.3053
 20
308.5525
 30
0.0
 10
-42.0222
 20
322.955
 30
0.0
 10
-42.0222
 20
322.955
 30
0.0
 10
-42.0222
 20
322.955
 30
0.0
 10
-42.4013
 20
311.4887
 30
0.0
 10
-45.0545
 20
308.6459
 30
0.0
 10
-45.0545
 20
308.6459
 30
0.0
 10
-47.708
 20
305.8032
 30
0.0
 10
-49.7928
 20
304.0975
 30
0.0
 10
-49.7928
 20
304.0975
 30
0.0
 10
-49.7928
 20
304.0975
 30
0.0
 10
-49.7928
 20
304.0975
 30
0.0
 10
-48.2766
 20
305.6136
 30
0.0
 10
-42.5909
 20
299.549
 30
0.0
 10
-42.5909
 20
299.549
 30
0.0
 10
-36.9051
 20
293.4841
 30
0.0
 10
-30.0823
 20
281.1652
 30
0.0
 10
-30.0823
 20
281.1652
 30
0.0
 10
-30.0823
 20
281.1652
 30
0.0
 10
-30.0823
 20
281.1652
 30
0.0
 10
-40.8849
 20
284.5766
 30
0.0
 10
-40.8849
 20
284.5766
 30
0.0
 10
-40.8849
 20
284.5766
 30
0.0
 10
-35.5055
 20
271.8
 30
0.0
 10
-28.6511
 20
240.3234
 30
0.0
 10
-32.5456
 20
227.3406
 30
0.0
 10
-32.5456
 20
227.3406
 30
0.0
 10
-35.3884
 20
217.8644
 30
0.0
 10
-40.1266
 20
212.3683
 30
0.0
 10
-40.1266
 20
212.3683
 30
0.0
 10
-40.1266
 20
212.3683
 30
0.0
 10
-40.1266
 20
212.3683
 30
0.0
 10
-38.4211
 20
219.9493
 30
0.0
 10
-39.1791
 20
226.014
 30
0.0
 10
-39.1791
 20
226.014
 30
0.0
 10
-39.9369
 20
232.0786
 30
0.0
 10
-44.8646
 20
233.7844
 30
0.0
 10
-44.8646
 20
233.7844
 30
0.0
 10
-44.8646
 20
233.7844
 30
0.0
 10
-44.8646
 20
233.7844
 30
0.0
 10
-43.7274
 20
224.8767
 30
0.0
 10
-54.3408
 20
213.1263
 30
0.0
 10
-54.3408
 20
213.1263
 30
0.0
 10
-64.9541
 20
201.3759
 30
0.0
 10
-81.2531
 20
189.2463
 30
0.0
 10
-81.2531
 20
189.2463
 30
0.0
 10
-81.2531
 20
189.2463
 30
0.0
 10
-81.2531
 20
189.2463
 30
0.0
 10
-76.0412
 20
208.6727
 30
0.0
 10
-82.6743
 20
212.6526
 30
0.0
 10
-82.6743
 20
212.6526
 30
0.0
 10
-89.3077
 20
216.6323
 30
0.0
 10
-101.4372
 20
209.7148
 30
0.0
 10
-101.4372
 20
209.7148
 30
0.0
 10
-101.4372
 20
209.7148
 30
0.0
 10
-101.4372
 20
209.7148
 30
0.0
 10
-95.8463
 20
212.9369
 30
0.0
 10
-93.3825
 20
220.2334
 30
0.0
 10
-93.3825
 20
220.2334
 30
0.0
 10
-90.9188
 20
227.53
 30
0.0
 10
-92.4348
 20
233.7844
 30
0.0
 10
-92.4348
 20
233.7844
 30
0.0
 10
-92.4348
 20
233.7844
 30
0.0
 10
-92.4348
 20
233.7844
 30
0.0
 10
-89.5921
 20
231.3206
 30
0.0
 10
-83.3378
 20
237.3853
 30
0.0
 10
-83.3378
 20
237.3853
 30
0.0
 10
-77.0836
 20
243.45
 30
0.0
 10
-75.1883
 20
252.547
 30
0.0
 10
-75.1883
 20
252.547
 30
0.0
 10
-75.1883
 20
252.547
 30
0.0
 10
-75.1883
 20
252.547
 30
0.0
 10
-71.019
 20
249.1356
 30
0.0
 10
-69.5026
 20
243.6395
 30
0.0
 10
-69.5026
 20
243.6395
 30
0.0
 10
-67.9863
 20
238.1433
 30
0.0
 10
-67.0387
 20
231.8891
 30
0.0
 10
-67.0387
 20
231.8891
 30
0.0
 10
-67.0387
 20
231.8891
 30
0.0
 10
-67.0387
 20
231.8891
 30
0.0
 10
-54.7197
 20
240.9862
 30
0.0
 10
-53.9616
 20
248.5671
 30
0.0
 10
-53.9616
 20
248.5671
 30
0.0
 10
-53.2038
 20
256.148
 30
0.0
 10
-53.0139
 20
265.0556
 30
0.0
 10
-57.7521
 20
270.1728
 30
0.0
 10
-57.7521
 20
270.1728
 30
0.0
 10
-62.4902
 20
275.2898
 30
0.0
 10
-68.3655
 20
279.0804
 30
0.0
 10
-68.3655
 20
279.0804
 30
0.0
 10
-68.3655
 20
279.0804
 30
0.0
 10
-68.3655
 20
279.0804
 30
0.0
 10
-65.712
 20
281.9232
 30
0.0
 10
-59.2683
 20
281.7338
 30
0.0
 10
-59.2683
 20
281.7338
 30
0.0
 10
-52.8246
 20
281.5441
 30
0.0
 10
-49.0341
 20
279.4595
 30
0.0
 10
-49.0341
 20
279.4595
 30
0.0
 10
-49.0341
 20
279.4595
 30
0.0
 10
-49.0341
 20
279.4595
 30
0.0
 10
-50.9294
 20
288.367
 30
0.0
 10
-56.8045
 20
291.2097
 30
0.0
 10
-56.8045
 20
291.2097
 30
0.0
 10
-62.6796
 20
294.0527
 30
0.0
 10
-79.3577
 20
290.2621
 30
0.0
 10
-79.3577
 20
290.2621
 30
0.0
 10
-79.3577
 20
290.2621
 30
0.0
 10
-79.3577
 20
290.2621
 30
0.0
 10
-70.8292
 20
296.1374
 30
0.0
 10
-72.5348
 20
309.2144
 30
0.0
 10
-72.5348
 20
309.2144
 30
0.0
 10
-74.2405
 20
322.2916
 30
0.0
 10
-86.3707
 20
340.2963
 30
0.0
 10
-86.3707
 20
340.2963
 30
0.0
  0
SPLINE
  5
79
330
1F
100
AcDbEntity
  8
layer 1
 62
   250
370
     9
100
AcDbSpline
210
0.0
220
0.0
230
1.0
 70
    11
 71
     3
 72
    96
 73
    92
 74
     0
 42
0.000000001
 43
0.0000000001
 40
0.0
 40
0.0
 40
0.0
 40
0.0
 40
0.0416666666666667
 40
0.0416666666666667
 40
0.0416666666666667
 40
0.0416666666666667
 40
0.0833333333333333
 40
0.0833333333333333
 40
0.0833333333333333
 40
0.0833333333333333
 40
0.125
 40
0.125
 40
0.125
 40
0.125
 40
0.1666666666666667
 40
0.1666666666666667
 40
0.1666666666666667
 40
0.1666666666666667
 40
0.2083333333333333
 40
0.2083333333333333
 40
0.2083333333333333
 40
0.2083333333333333
 40
0.25
 40
0.25
 40
0.25
 40
0.25
 40
0.2916666666666667
 40
0.2916666666666667
 40
0.2916666666666667
 40
0.2916666666666667
 40
0.3333333333333333
 40
0.3333333333333333
 40
0.3333333333333333
 40
0.3333333333333333
 40
0.375
 40
0.375
 40
0.375
 40
0.375
 40
0.4166666666666667
 40
0.4166666666666667
 40
0.4166666666666667
 40
0.4166666666666667
 40
0.4583333333333333
 40
0.4583333333333333
 40
0.4583333333333333
 40
0.4583333333333333
 40
0.5
 40
0.5
 40
0.5
 40
0.5
 40
0.5416666666666666
 40
0.5416666666666666
 40
0.5416666666666666
 40
0.5416666666666666
 40
0.5833333333333334
 40
0.5833333333333334
 40
0.5833333333333334
 40
0.5833333333333334
 40
0.625
 40
0.625
 40
0.625
 40
0.625
 40
0.6666666666666666
 40
0.6666666666666666
 40
0.6666666666666666
 40
0.6666666666666666
 40
0.7083333333333334
 40
0.7083333333333334
 40
0.7083333333333334
 40
0.7083333333333334
 40
0.75
 40
0.75
 40
0.75
 40
0.75
 40
0.7916666666666666
 40
0.7916666666666666
 40
0.7916666666666666
 40
0.7916666666666666
 40
0.8333333333333334
 40
0.8333333333333334
 40
0.8333333333333334
 40
0.8333333333333334
 40
0.875
 40
0.875
 40
0.875
 40
0.875
 40
0.9166666666666666
 40
0.9166666666666666
 40
0.9166666666666666
 40
0.9166666666666666
 40
1.0
 40
1.0
 40
1.0
 40
1.0
 10
-168.7152
 20
348.7278
 30
0.0
 10
-168.7152
 20
348.7278
 30
0.0
 10
-183.3086
 20
336.409
 30
0.0
 10
-188.9942
 20
326.5538
 30
0.0
 10
-188.9942
 20
326.5538
 30
0.0
 10
-194.6798
 20
316.6985
 30
0.0
 10
-191.4579
 20
309.3073
 30
0.0
 10
-191.4579
 20
309.3073
 30
0.0
 10
-191.4579
 20
309.3073
 30
0.0
 10
-191.4579
 20
309.3073
 30
0.0
 10
-197.3331
 20
312.1499
 30
0.0
 10
-202.0713
 20
311.771
 30
0.0
 10
-202.0713
 20
311.771
 30
0.0
 10
-206.8093
 20
311.3921
 30
0.0
 10
-213.8215
 20
306.0854
 30
0.0
 10
-213.8215
 20
306.0854
 30
0.0
 10
-213.8215
 20
306.0854
 30
0.0
 10
-205.3667
 20
306.463
 30
0.0
 10
-203.1589
 20
305.8708
 30
0.0
 10
-198.2807
 20
299.073
 30
0.0
 10
-198.2807
 20
299.073
 30
0.0
 10
-222.9662
 20
300.2827
 30
0.0
 10
-226.2724
 20
290.4107
 30
0.0
 10
-228.0359
 20
267.991
 30
0.0
 10
-228.0359
 20
267.991
 30
0.0
 10
-228.0359
 20
267.991
 30
0.0
 10
-224.8138
 20
272.1602
 30
0.0
 10
-219.3178
 20
273.1081
 30
0.0
 10
-219.3178
 20
273.1081
 30
0.0
 10
-213.8217
 20
274.0557
 30
0.0
 10
-206.9988
 20
274.4346
 30
0.0
 10
-206.9988
 20
274.4346
 30
0.0
 10
-206.9988
 20
274.4346
 30
0.0
 10
-209.0482
 20
260.7724
 30
0.0
 10
-206.0014
 20
257.8
 30
0.0
 10
-196.954
 20
248.4701
 30
0.0
 10
-196.954
 20
248.4701
 30
0.0
 10
-196.954
 20
248.4701
 30
0.0
 10
-196.0064
 20
225.7275
 30
0.0
 10
-196.0064
 20
225.7275
 30
0.0
 10
-196.0064
 20
225.7275
 30
0.0
 10
-196.0064
 20
225.7275
 30
0.0
 10
-198.0911
 20
225.917
 30
0.0
 10
-200.1758
 20
221.5579
 30
0.0
 10
-200.1758
 20
221.5579
 30
0.0
 10
-202.2608
 20
217.1989
 30
0.0
 10
-203.5874
 20
204.3113
 30
0.0
 10
-203.5874
 20
204.3113
 30
0.0
 10
-203.5874
 20
204.3113
 30
0.0
 10
-203.5874
 20
204.3113
 30
0.0
 10
-208.1359
 20
218.1462
 30
0.0
 10
-215.7167
 20
224.7799
 30
0.0
 10
-215.7167
 20
224.7799
 30
0.0
 10
-223.2976
 20
231.4131
 30
0.0
 10
-228.9832
 20
235.9615
 30
0.0
 10
-229.7414
 20
243.5425
 30
0.0
 10
-229.7414
 20
243.5425
 30
0.0
 10
-232.5946
 20
272.0723
 30
0.0
 10
-246.6328
 20
260.3623
 30
0.0
 10
-228.0355
 20
297.5563
 30
0.0
 10
-228.0355
 20
297.5563
 30
0.0
 10
-228.0355
 20
297.5563
 30
0.0
 10
-237.3221
 20
295.661
 30
0.0
 10
-237.3221
 20
295.661
 30
0.0
 10
-237.3221
 20
295.661
 30
0.0
 10
-237.3221
 20
295.661
 30
0.0
 10
-228.7937
 20
304.379
 30
0.0
 10
-224.4347
 20
306.4639
 30
0.0
 10
-224.4347
 20
306.4639
 30
0.0
 10
-215.5409
 20
310.7173
 30
0.0
 10
-221.193
 20
318.0944
 30
0.0
 10
-223.961
 20
324.184
 30
0.0
 10
-223.961
 20
324.184
 30
0.0
 10
-223.961
 20
324.184
 30
0.0
 10
-218.7493
 20
320.2041
 30
0.0
 10
-214.9587
 20
321.815
 30
0.0
 10
-214.9587
 20
321.815
 30
0.0
 10
-211.1683
 20
323.4258
 30
0.0
 10
-210.2209
 20
331.765
 30
0.0
 10
-210.5999
 20
334.134
 30
0.0
 10
-210.5999
 20
334.134
 30
0.0
 10
-210.9789
 20
336.5029
 30
0.0
 10
-212.2109
 20
341.9993
 30
0.0
 10
-212.2109
 20
341.9993
 30
0.0
 10
-212.2109
 20
341.9993
 30
0.0
 10
-212.2109
 20
341.9993
 30
0.0
 10
-207.5676
 20
336.3135
 30
0.0
 10
-201.5028
 20
336.6925
 30
0.0
 10
-201.5028
 20
336.6925
 30
0.0
 10
-195.438
 20
337.0714
 30
0.0
 10
-168.7152
 20
348.7278
 30
0.0
 10
-168.7152
 20
348.7278
 30
0.0
  0
SPLINE
  5
7A
330
1F
100
AcDbEntity
  8
layer 1
 62
   250
370
     9
100
AcDbSpline
210
0.0
220
0.0
230
1.0
 70
    11
 71
     3
 72
    20
 73
    16
 74
     0
 42
0.000000001
 43
0.0000000001
 40
0.0
 40
0.0
 40
0.0
 40
0.0
 40
0.2
 40
0.2
 40
0.2
 40
0.2
 40
0.4
 40
0.4
 40
0.4
 40
0.4
 40
0.6
 40
0.6
 40
0.6
 40
0.6
 40
1.0
 40
1.0
 40
1.0
 40
1.0
 10
-169.639
 20
199.0507
 30
0.0
 10
-169.639
 20
199.0507
 30
0.0
 10
-163.4795
 20
190.9015
 30
0.0
 10
-157.6991
 20
190.238
 30
0.0
 10
-157.6991
 20
190.238
 30
0.0
 10
-151.9187
 20
189.5746
 30
0.0
 10
-139.0311
 20
191.8489
 30
0.0
 10
-139.0311
 20
191.8489
 30
0.0
 10
-139.0311
 20
191.8489
 30
0.0
 10
-139.0311
 20
191.8489
 30
0.0
 10
-152.9611
 20
185.6895
 30
0.0
 10
-159.9735
 20
187.3003
 30
0.0
 10
-159.9735
 20
187.3003
 30
0.0
 10
-166.9858
 20
188.9112
 30
0.0
 10
-169.639
 20
199.0507
 30
0.0
 10
-169.639
 20
199.0507
 30
0.0
  0
SPLINE
  5
7B
330
1F
100
AcDbEntity
  8
layer 1
 62
   250
370
     9
100
AcDbSpline
210
0.0
220
0.0
230
1.0
 70
    11
 71
     3
 72
    36
 73
    32
 74
     0
 42
0.000000001
 43
0.0000000001
 40
0.0
 40
0.0
 40
0.0
 40
0.0
 40
0.1111111111111111
 40
0.1111111111111111
 40
0.1111111111111111
 40
0.1111111111111111
 40
0.2222222222222222
 40
0.2222222222222222
 40
0.2222222222222222
 40
0.2222222222222222
 40
0.3333333333333333
 40
0.3333333333333333
 40
0.3333333333333333
 40
0.3333333333333333
 40
0.4444444444444444
 40
0.4444444444444444
 40
0.4444444444444444
 40
0.4444444444444444
 40
0.5555555555555556
 40
0.5555555555555556
 40
0.5555555555555556
 40
0.5555555555555556
 40
0.6666666666666666
 40
0.6666666666666666
 40
0.6666666666666666
 40
0.6666666666666666
 40
0.7777777777777778
 40
0.7777777777777778
 40
0.7777777777777778
 40
0.7777777777777778
 40
1.0
 40
1.0
 40
1.0
 40
1.0
 10
-188.0282
 20
351.8157
 30
0.0
 10
-184.664
 20
360.7869
 30
0.0
 10
-188.1946
 20
370.4948
 30
0.0
 10
-191.1552
 20
379.107
 30
0.0
 10
-191.1552
 20
379.107
 30
0.0
 10
-191.1552
 20
379.107
 30
0.0
 10
-188.9759
 20
379.1071
 30
0.0
 10
-184.9957
 20
374.1796
 30
0.0
 10
-184.9957
 20
374.1796
 30
0.0
 10
-181.0159
 20
369.2519
 30
0.0
 10
-178.173
 20
367.3567
 30
0.0
 10
-178.173
 20
367.3567
 30
0.0
 10
-178.173
 20
367.3567
 30
0.0
 10
-180.4882
 20
383.1777
 30
0.0
 10
-180.987
 20
392.5899
 30
0.0
 10
-170.9711
 20
406.0193
 30
0.0
 10
-170.9711
 20
406.0193
 30
0.0
 10
-172.7989
 20
387.4617
 30
0.0
 10
-167.3937
 20
355.2467
 30
0.0
 10
-141.9741
 20
367.5461
 30
0.0
 10
-141.9741
 20
367.5461
 30
0.0
 10
-141.9741
 20
367.5461
 30
0.0
 10
-147.4704
 20
358.6384
 30
0.0
 10
-153.535
 20
357.1225
 30
0.0
 10
-153.535
 20
357.1225
 30
0.0
 10
-159.5997
 20
355.6064
 30
0.0
 10
-161.1161
 20
358.6384
 30
0.0
 10
-169.455
 20
356.7434
 30
0.0
 10
-169.455
 20
356.7434
 30
0.0
 10
-177.794
 20
354.8482
 30
0.0
 10
-188.0282
 20
351.8157
 30
0.0
 10
-188.0282
 20
351.8157
 30
0.0
  0
SPLINE
  5
7C
330
1F
100
AcDbEntity
  8
layer 1
 62
   250
370
     9
100
AcDbSpline
210
0.0
220
0.0
230
1.0
 70
    11
 71
     3
 72
    52
 73
    48
 74
     0
 42
0.000000001
 43
0.0000000001
 40
0.0
 40
0.0
 40
0.0
 40
0.0
 40
0.0769230769230769
 40
0.0769230769230769
 40
0.0769230769230769
 40
0.0769230769230769
 40
0.1538461538461539
 40
0.1538461538461539
 40
0.1538461538461539
 40
0.1538461538461539
 40
0.2307692307692308
 40
0.2307692307692308
 40
0.2307692307692308
 40
0.2307692307692308
 40
0.3076923076923077
 40
0.3076923076923077
 40
0.3076923076923077
 40
0.3076923076923077
 40
0.3846153846153846
 40
0.3846153846153846
 40
0.3846153846153846
 40
0.3846153846153846
 40
0.4615384615384616
 40
0.4615384615384616
 40
0.4615384615384616
 40
0.4615384615384616
 40
0.5384615384615384
 40
0.5384615384615384
 40
0.5384615384615384
 40
0.5384615384615384
 40
0.6153846153846154
 40
0.6153846153846154
 40
0.6153846153846154
 40
0.6153846153846154
 40
0.6923076923076923
 40
0.6923076923076923
 40
0.6923076923076923
 40
0.6923076923076923
 40
0.7692307692307693
 40
0.7692307692307693
 40
0.7692307692307693
 40
0.7692307692307693
 40
0.8461538461538461
 40
0.8461538461538461
 40
0.8461538461538461
 40
0.8461538461538461
 40
1.0
 40
1.0
 40
1.0
 40
1.0
 10
-84.4525
 20
352.6686
 30
0.0
 10
-84.4525
 20
352.6686
 30
0.0
 10
-72.6608
 20
355.1148
 30
0.0
 10
-68.681
 20
361.1795
 30
0.0
 10
-68.681
 20
361.1795
 30
0.0
 10
-64.701
 20
367.2443
 30
0.0
 10
-61.1413
 20
382.6133
 30
0.0
 10
-61.1413
 20
382.6133
 30
0.0
 10
-61.1413
 20
382.6133
 30
0.0
 10
-61.1413
 20
382.6133
 30
0.0
 10
-58.488
 20
377.496
 30
0.0
 10
-58.8672
 20
370.4837
 30
0.0
 10
-58.8672
 20
370.4837
 30
0.0
 10
-59.2462
 20
363.4715
 30
0.0
 10
-60.0041
 20
357.0278
 30
0.0
 10
-60.0041
 20
357.0278
 30
0.0
 10
-60.0041
 20
357.0278
 30
0.0
 10
-60.0041
 20
357.0278
 30
0.0
 10
-56.024
 20
356.6485
 30
0.0
 10
-52.9918
 20
359.4913
 30
0.0
 10
-52.9918
 20
359.4913
 30
0.0
 10
-49.9595
 20
362.3343
 30
0.0
 10
-46.9271
 20
365.1771
 30
0.0
 10
-46.9271
 20
365.1771
 30
0.0
 10
-46.9271
 20
365.1771
 30
0.0
 10
-46.9271
 20
365.1771
 30
0.0
 10
-51.665
 20
351.1523
 30
0.0
 10
-55.4557
 20
346.4144
 30
0.0
 10
-55.4557
 20
346.4144
 30
0.0
 10
-59.2462
 20
341.6762
 30
0.0
 10
-61.1413
 20
337.5067
 30
0.0
 10
-60.5728
 20
334.6639
 30
0.0
 10
-60.5728
 20
334.6639
 30
0.0
 10
-60.0041
 20
331.821
 30
0.0
 10
-58.4876
 20
328.7886
 30
0.0
 10
-58.4876
 20
328.7886
 30
0.0
 10
-58.4876
 20
328.7886
 30
0.0
 10
-58.4876
 20
328.7886
 30
0.0
 10
-63.4152
 20
330.1154
 30
0.0
 10
-67.2057
 20
335.6116
 30
0.0
 10
-67.2057
 20
335.6116
 30
0.0
 10
-70.9963
 20
341.1078
 30
0.0
 10
-70.4277
 20
344.1401
 30
0.0
 10
-75.1657
 20
346.4145
 30
0.0
 10
-75.1657
 20
346.4145
 30
0.0
 10
-79.904
 20
348.6889
 30
0.0
 10
-84.4525
 20
352.6686
 30
0.0
 10
-84.4525
 20
352.6686
 30
0.0
  0
SPLINE
  5
7D
330
1F
100
AcDbEntity
  8
layer 1
 62
   250
370
     9
100
AcDbSpline
210
0.0
220
0.0
230
1.0
 70
    11
 71
     3
 72
   368
 73
   364
 74
     0
 42
0.000000001
 43
0.0000000001
 40
0.0
 40
0.0
 40
0.0
 40
0.0
 40
0.0108695652173913
 40
0.0108695652173913
 40
0.0108695652173913
 40
0.0108695652173913
 40
0.0217391304347826
 40
0.0217391304347826
 40
0.0217391304347826
 40
0.0217391304347826
 40
0.0326086956521739
 40
0.0326086956521739
 40
0.0326086956521739
 40
0.0326086956521739
 40
0.0434782608695652
 40
0.0434782608695652
 40
0.0434782608695652
 40
0.0434782608695652
 40
0.0543478260869565
 40
0.0543478260869565
 40
0.0543478260869565
 40
0.0543478260869565
 40
0.0652173913043478
 40
0.0652173913043478
 40
0.0652173913043478
 40
0.0652173913043478
 40
0.0760869565217391
 40
0.0760869565217391
 40
0.0760869565217391
 40
0.0760869565217391
 40
0.0869565217391304
 40
0.0869565217391304
 40
0.0869565217391304
 40
0.0869565217391304
 40
0.0978260869565217
 40
0.0978260869565217
 40
0.0978260869565217
 40
0.0978260869565217
 40
0.108695652173913
 40
0.108695652173913
 40
0.108695652173913
 40
0.108695652173913
 40
0.1195652173913044
 40
0.1195652173913044
 40
0.1195652173913044
 40
0.1195652173913044
 40
0.1304347826086956
 40
0.1304347826086956
 40
0.1304347826086956
 40
0.1304347826086956
 40
0.1413043478260869
 40
0.1413043478260869
 40
0.1413043478260869
 40
0.1413043478260869
 40
0.1521739130434783
 40
0.1521739130434783
 40
0.1521739130434783
 40
0.1521739130434783
 40
0.1630434782608696
 40
0.1630434782608696
 40
0.1630434782608696
 40
0.1630434782608696
 40
0.1739130434782609
 40
0.1739130434782609
 40
0.1739130434782609
 40
0.1739130434782609
 40
0.1847826086956522
 40
0.1847826086956522
 40
0.1847826086956522
 40
0.1847826086956522
 40
0.1956521739130435
 40
0.1956521739130435
 40
0.1956521739130435
 40
0.1956521739130435
 40
0.2065217391304348
 40
0.2065217391304348
 40
0.2065217391304348
 40
0.2065217391304348
 40
0.2173913043478261
 40
0.2173913043478261
 40
0.2173913043478261
 40
0.2173913043478261
 40
0.2282608695652174
 40
0.2282608695652174
 40
0.2282608695652174
 40
0.2282608695652174
 40
0.2391304347826087
 40
0.2391304347826087
 40
0.2391304347826087
 40
0.2391304347826087
 40
0.25
 40
0.25
 40
0.25
 40
0.25
 40
0.2608695652173913
 40
0.2608695652173913
 40
0.2608695652173913
 40
0.2608695652173913
 40
0.2717391304347826
 40
0.2717391304347826
 40
0.2717391304347826
 40
0.2717391304347826
 40
0.2826086956521739
 40
0.2826086956521739
 40
0.2826086956521739
 40
0.2826086956521739
 40
0.2934782608695652
 40
0.2934782608695652
 40
0.2934782608695652
 40
0.2934782608695652
 40
0.3043478260869565
 40
0.3043478260869565
 40
0.3043478260869565
 40
0.3043478260869565
 40
0.3152173913043478
 40
0.3152173913043478
 40
0.3152173913043478
 40
0.3152173913043478
 40
0.3260869565217391
 40
0.3260869565217391
 40
0.3260869565217391
 40
0.3260869565217391
 40
0.3369565217391304
 40
0.3369565217391304
 40
0.3369565217391304
 40
0.3369565217391304
 40
0.3478260869565217
 40
0.3478260869565217
 40
0.3478260869565217
 40
0.3478260869565217
 40
0.358695652173913
 40
0.358695652173913
 40
0.358695652173913
 40
0.358695652173913
 40
0.3695652173913043
 40
0.3695652173913043
 40
0.3695652173913043
 40
0.3695652173913043
 40
0.3804347826086957
 40
0.3804347826086957
 40
0.3804347826086957
 40
0.3804347826086957
 40
0.391304347826087
 40
0.391304347826087
 40
0.391304347826087
 40
0.391304347826087
 40
0.4021739130434783
 40
0.4021739130434783
 40
0.4021739130434783
 40
0.4021739130434783
 40
0.4130434782608696
 40
0.4130434782608696
 40
0.4130434782608696
 40
0.4130434782608696
 40
0.4239130434782609
 40
0.4239130434782609
 40
0.4239130434782609
 40
0.4239130434782609
 40
0.4347826086956522
 40
0.4347826086956522
 40
0.4347826086956522
 40
0.4347826086956522
 40
0.4456521739130435
 40
0.4456521739130435
 40
0.4456521739130435
 40
0.4456521739130435
 40
0.4565217391304348
 40
0.4565217391304348
 40
0.4565217391304348
 40
0.4565217391304348
 40
0.4673913043478261
 40
0.4673913043478261
 40
0.4673913043478261
 40
0.4673913043478261
 40
0.4782608695652174
 40
0.4782608695652174
 40
0.4782608695652174
 40
0.4782608695652174
 40
0.4891304347826087
 40
0.4891304347826087
 40
0.4891304347826087
 40
0.4891304347826087
 40
0.5
 40
0.5
 40
0.5
 40
0.5
 40
0.5108695652173914
 40
0.5108695652173914
 40
0.5108695652173914
 40
0.5108695652173914
 40
0.5217391304347826
 40
0.5217391304347826
 40
0.5217391304347826
 40
0.5217391304347826
 40
0.532608695652174
 40
0.532608695652174
 40
0.532608695652174
 40
0.532608695652174
 40
0.5434782608695652
 40
0.5434782608695652
 40
0.5434782608695652
 40
0.5434782608695652
 40
0.5543478260869565
 40
0.5543478260869565
 40
0.5543478260869565
 40
0.5543478260869565
 40
0.5652173913043478
 40
0.5652173913043478
 40
0.5652173913043478
 40
0.5652173913043478
 40
0.5760869565217391
 40
0.5760869565217391
 40
0.5760869565217391
 40
0.5760869565217391
 40
0.5869565217391305
 40
0.5869565217391305
 40
0.5869565217391305
 40
0.5869565217391305
 40
0.5978260869565217
 40
0.5978260869565217
 40
0.5978260869565217
 40
0.5978260869565217
 40
0.6086956521739131
 40
0.6086956521739131
 40
0.6086956521739131
 40
0.6086956521739131
 40
0.6195652173913043
 40
0.6195652173913043
 40
0.6195652173913043
 40
0.6195652173913043
 40
0.6304347826086957
 40
0.6304347826086957
 40
0.6304347826086957
 40
0.6304347826086957
 40
0.6413043478260869
 40
0.6413043478260869
 40
0.6413043478260869
 40
0.6413043478260869
 40
0.6521739130434783
 40
0.6521739130434783
 40
0.6521739130434783
 40
0.6521739130434783
 40
0.6630434782608695
 40
0.6630434782608695
 40
0.6630434782608695
 40
0.6630434782608695
 40
0.6739130434782609
 40
0.6739130434782609
 40
0.6739130434782609
 40
0.6739130434782609
 40
0.6847826086956522
 40
0.6847826086956522
 40
0.6847826086956522
 40
0.6847826086956522
 40
0.6956521739130435
 40
0.6956521739130435
 40
0.6956521739130435
 40
0.6956521739130435
 40
0.7065217391304348
 40
0.7065217391304348
 40
0.7065217391304348
 40
0.7065217391304348
 40
0.717391304347826
 40
0.717391304347826
 40
0.717391304347826
 40
0.717391304347826
 40
0.7282608695652174
 40
0.7282608695652174
 40
0.7282608695652174
 40
0.7282608695652174
 40
0.7391304347826086
 40
0.7391304347826086
 40
0.7391304347826086
 40
0.7391304347826086
 40
0.75
 40
0.75
 40
0.75
 40
0.75
 40
0.7608695652173914
 40
0.7608695652173914
 40
0.7608695652173914
 40
0.7608695652173914
 40
0.7717391304347826
 40
0.7717391304347826
 40
0.7717391304347826
 40
0.7717391304347826
 40
0.782608695652174
 40
0.782608695652174
 40
0.782608695652174
 40
0.782608695652174
 40
0.7934782608695652
 40
0.7934782608695652
 40
0.7934782608695652
 40
0.7934782608695652
 40
0.8043478260869565
 40
0.8043478260869565
 40
0.8043478260869565
 40
0.8043478260869565
 40
0.8152173913043478
 40
0.8152173913043478
 40
0.8152173913043478
 40
0.8152173913043478
 40
0.8260869565217391
 40
0.8260869565217391
 40
0.8260869565217391
 40
0.8260869565217391
 40
0.8369565217391305
 40
0.8369565217391305
 40
0.8369565217391305
 40
0.8369565217391305
 40
0.8478260869565217
 40
0.8478260869565217
 40
0.8478260869565217
 40
0.8478260869565217
 40
0.8586956521739131
 40
0.8586956521739131
 40
0.8586956521739131
 40
0.8586956521739131
 40
0.8695652173913043
 40
0.8695652173913043
 40
0.8695652173913043
 40
0.8695652173913043
 40
0.8804347826086957
 40
0.8804347826086957
 40
0.8804347826086957
 40
0.8804347826086957
 40
0.8913043478260869
 40
0.8913043478260869
 40
0.8913043478260869
 40
0.8913043478260869
 40
0.9021739130434783
 40
0.9021739130434783
 40
0.9021739130434783
 40
0.9021739130434783
 40
0.9130434782608695
 40
0.9130434782608695
 40
0.9130434782608695
 40
0.9130434782608695
 40
0.9239130434782609
 40
0.9239130434782609
 40
0.9239130434782609
 40
0.9239130434782609
 40
0.9347826086956522
 40
0.9347826086956522
 40
0.9347826086956522
 40
0.9347826086956522
 40
0.9456521739130435
 40
0.9456521739130435
 40
0.9456521739130435
 40
0.9456521739130435
 40
0.9565217391304348
 40
0.9565217391304348
 40
0.9565217391304348
 40
0.9565217391304348
 40
0.967391304347826
 40
0.967391304347826
 40
0.967391304347826
 40
0.967391304347826
 40
0.9782608695652174
 40
0.9782608695652174
 40
0.9782608695652174
 40
0.9782608695652174
 40
1.0
 40
1.0
 40
1.0
 40
1.0
 10
-231.1408
 20
211.5446
 30
0.0
 10
-231.1408
 20
211.5446
 30
0.0
 10
-224.3179
 20
206.9962
 30
0.0
 10
-231.1407
 20
190.3182
 30
0.0
 10
-231.1407
 20
190.3182
 30
0.0
 10
-237.9635
 20
173.6401
 30
0.0
 10
-243.2702
 20
166.4381
 30
0.0
 10
-243.2702
 20
166.4381
 30
0.0
 10
-243.2702
 20
166.4381
 30
0.0
 10
-243.2702
 20
166.4381
 30
0.0
 10
-234.1731
 20
167.5754
 30
0.0
 10
-226.2132
 20
175.9144
 30
0.0
 10
-226.2132
 20
175.9144
 30
0.0
 10
-218.2531
 20
184.2533
 30
0.0
 10
-213.4516
 20
189.2839
 30
0.0
 10
-213.4516
 20
189.2839
 30
0.0
 10
-213.4516
 20
189.2839
 30
0.0
 10
-213.4516
 20
189.2839
 30
0.0
 10
-215.5998
 20
172.5031
 30
0.0
 10
-220.9065
 20
160.3736
 30
0.0
 10
-220.9065
 20
160.3736
 30
0.0
 10
-226.2132
 20
148.244
 30
0.0
 10
-233.7941
 20
143.6956
 30
0.0
 10
-228.4875
 20
129.6709
 30
0.0
 10
-228.4875
 20
129.6709
 30
0.0
 10
-223.1808
 20
115.6462
 30
0.0
 10
-199.6798
 20
108.8233
 30
0.0
 10
-199.6798
 20
108.8233
 30
0.0
 10
-199.6798
 20
108.8233
 30
0.0
 10
-199.6798
 20
108.8233
 30
0.0
 10
-203.8797
 20
100.1006
 30
0.0
 10
-203.5007
 20
82.6645
 30
0.0
 10
-203.5007
 20
82.6645
 30
0.0
 10
-203.1217
 20
65.2284
 30
0.0
 10
-184.8972
 20
48.176
 30
0.0
 10
-184.8972
 20
48.176
 30
0.0
 10
-184.8972
 20
48.176
 30
0.0
 10
-191.1838
 20
91.6996
 30
0.0
 10
-174.5054
 20
106.0786
 30
0.0
 10
-145.4765
 20
134.5984
 30
0.0
 10
-145.4765
 20
134.5984
 30
0.0
 10
-145.4765
 20
134.5984
 30
0.0
 10
-152.6782
 20
124.5536
 30
0.0
 10
-141.6859
 20
121.7108
 30
0.0
 10
-141.6859
 20
121.7108
 30
0.0
 10
-130.6939
 20
118.868
 30
0.0
 10
-106.4347
 20
141.4212
 30
0.0
 10
-106.4347
 20
141.4212
 30
0.0
 10
-106.4347
 20
141.4212
 30
0.0
 10
-106.4347
 20
141.4212
 30
0.0
 10
-98.8537
 20
137.631
 30
0.0
 10
-114.0156
 20
123.6061
 30
0.0
 10
-114.0156
 20
123.6061
 30
0.0
 10
-129.1775
 20
109.5815
 30
0.0
 10
-157.9849
 20
98.2101
 30
0.0
 10
-157.9849
 20
98.2101
 30
0.0
 10
-157.9849
 20
98.2101
 30
0.0
 10
-157.9849
 20
98.2101
 30
0.0
 10
-144.7184
 20
95.5568
 30
0.0
 10
-144.7184
 20
95.5568
 30
0.0
 10
-144.7184
 20
95.5568
 30
0.0
 10
-144.7184
 20
95.5568
 30
0.0
 10
-156.4687
 20
94.4197
 30
0.0
 10
-160.6383
 20
81.5321
 30
0.0
 10
-160.6383
 20
81.5321
 30
0.0
 10
-164.8076
 20
68.6444
 30
0.0
 10
-164.8076
 20
60.3056
 30
0.0
 10
-164.8076
 20
60.3056
 30
0.0
 10
-164.8076
 20
60.3056
 30
0.0
 10
-164.8076
 20
60.3056
 30
0.0
 10
-161.7753
 20
64.8539
 30
0.0
 10
-157.6058
 20
68.6444
 30
0.0
 10
-157.6058
 20
68.6444
 30
0.0
 10
-153.4365
 20
72.4349
 30
0.0
 10
-146.2345
 20
74.7092
 30
0.0
 10
-146.2345
 20
74.7092
 30
0.0
 10
-146.2345
 20
74.7092
 30
0.0
 10
-146.2345
 20
74.7092
 30
0.0
 10
-150.7829
 20
56.1358
 30
0.0
 10
-143.96
 20
34.1512
 30
0.0
 10
-143.96
 20
34.1512
 30
0.0
 10
-137.137
 20
12.1666
 30
0.0
 10
-124.2496
 20
4.9648
 30
0.0
 10
-124.2496
 20
4.9648
 30
0.0
 10
-124.2496
 20
4.9648
 30
0.0
 10
-124.2496
 20
4.9648
 30
0.0
 10
-120.459
 20
35.2883
 30
0.0
 10
-100.7489
 20
58.4103
 30
0.0
 10
-100.7489
 20
58.4103
 30
0.0
 10
-81.0384
 20
81.5319
 30
0.0
 10
-71.5622
 20
88.7337
 30
0.0
 10
-71.5622
 20
88.7337
 30
0.0
 10
-71.5622
 20
88.7337
 30
0.0
 10
-71.5622
 20
88.7337
 30
0.0
 10
-87.1029
 20
66.749
 30
0.0
 10
-84.0709
 20
45.5225
 30
0.0
 10
-84.0709
 20
45.5225
 30
0.0
 10
-81.0384
 20
24.2962
 30
0.0
 10
-74.2156
 20
11.0294
 30
0.0
 10
-67.0138
 20
7.239
 30
0.0
 10
-67.0138
 20
7.239
 30
0.0
 10
-59.8118
 20
3.4486
 30
0.0
 10
-52.61
 20
-0.7211
 30
0.0
 10
-49.9567
 20
-7.544
 30
0.0
 10
-49.9567
 20
-7.544
 30
0.0
 10
-47.3034
 20
-14.3667
 30
0.0
 10
-46.5453
 20
-21.1896
 30
0.0
 10
-46.5453
 20
-21.1896
 30
0.0
 10
-46.5453
 20
-21.1896
 30
0.0
 10
-46.5453
 20
-21.1896
 30
0.0
 10
-33.6578
 20
-9.8182
 30
0.0
 10
-39.3436
 20
1.9322
 30
0.0
 10
-39.3436
 20
1.9322
 30
0.0
 10
-45.029
 20
13.6828
 30
0.0
 10
-59.4331
 20
20.8847
 30
0.0
 10
-55.6424
 20
36.0465
 30
0.0
 10
-55.6424
 20
36.0465
 30
0.0
 10
-51.8518
 20
51.2082
 30
0.0
 10
-36.6901
 20
70.9185
 30
0.0
 10
-36.6901
 20
70.9185
 30
0.0
 10
-36.6901
 20
70.9185
 30
0.0
 10
-36.6901
 20
70.9185
 30
0.0
 10
-42.7144
 20
40.2919
 30
0.0
 10
-34.321
 20
34.0565
 30
0.0
 10
-34.321
 20
34.0565
 30
0.0
 10
-11.2763
 20
16.9361
 30
0.0
 10
1.5942
 20
57.2709
 30
0.0
 10
1.5934
 20
57.2729
 30
0.0
 10
1.5934
 20
57.2729
 30
0.0
 10
0.9816
 20
58.986
 30
0.0
 10
27.0063
 20
4.2591
 30
0.0
 10
-38.5842
 20
-42.7953
 30
0.0
 10
-38.5842
 20
-42.7953
 30
0.0
 10
-56.0202
 20
-55.3039
 30
0.0
 10
-61.3269
 20
-76.9094
 30
0.0
 10
-61.3269
 20
-76.9094
 30
0.0
 10
-61.3269
 20
-76.9094
 30
0.0
 10
-61.3269
 20
-76.9094
 30
0.0
 10
-55.2622
 20
-64.022
 30
0.0
 10
-41.2375
 20
-68.1914
 30
0.0
 10
-41.2375
 20
-68.1914
 30
0.0
 10
-27.2128
 20
-72.3608
 30
0.0
 10
-19.6317
 20
-82.5954
 30
0.0
 10
-18.1156
 20
-90.1765
 30
0.0
 10
-18.1156
 20
-90.1765
 30
0.0
 10
-16.5992
 20
-97.7572
 30
0.0
 10
-16.5992
 20
-112.5402
 30
0.0
 10
-16.5992
 20
-112.5402
 30
0.0
 10
-16.5992
 20
-112.5402
 30
0.0
 10
7.061
 20
-103.4789
 30
0.0
 10
0.8153
 20
-77.7213
 30
0.0
 10
-1.0583
 20
-57.5786
 30
0.0
 10
-1.0583
 20
-57.5786
 30
0.0
 10
-1.0583
 20
-57.5786
 30
0.0
 10
6.1439
 20
-66.4861
 30
0.0
 10
8.7972
 20
-80.7005
 30
0.0
 10
8.7972
 20
-80.7005
 30
0.0
 10
11.4506
 20
-94.9147
 30
0.0
 10
8.7972
 20
-125.4278
 30
0.0
 10
8.7972
 20
-125.4278
 30
0.0
 10
8.7972
 20
-125.4278
 30
0.0
 10
8.7972
 20
-125.4278
 30
0.0
 10
17.5152
 20
-118.9839
 30
0.0
 10
20.5475
 20
-111.024
 30
0.0
 10
20.5475
 20
-111.024
 30
0.0
 10
23.5801
 20
-103.0641
 30
0.0
 10
27.7495
 20
-87.5233
 30
0.0
 10
27.7495
 20
-87.5233
 30
0.0
 10
27.7495
 20
-87.5233
 30
0.0
 10
27.7495
 20
-87.5233
 30
0.0
 10
27.6916
 20
-92.8896
 30
0.0
 10
36.4678
 20
-111.0241
 30
0.0
 10
36.4678
 20
-111.0241
 30
0.0
 10
47.6952
 20
-134.2237
 30
0.0
 10
48.8603
 20
-163.8755
 30
0.0
 10
53.9043
 20
-183.422
 30
0.0
 10
53.9043
 20
-183.422
 30
0.0
 10
53.9043
 20
-183.422
 30
0.0
 10
63.0016
 20
-170.5344
 30
0.0
 10
72.4776
 20
-153.8564
 30
0.0
 10
72.4776
 20
-153.8564
 30
0.0
 10
81.9538
 20
-137.1783
 30
0.0
 10
92.9463
 20
-112.5406
 30
0.0
 10
92.5671
 20
-99.653
 30
0.0
 10
92.5671
 20
-99.653
 30
0.0
 10
92.1881
 20
-86.7654
 30
0.0
 10
86.5022
 20
-69.7083
 30
0.0
 10
86.5022
 20
-69.7083
 30
0.0
 10
86.5022
 20
-69.7083
 30
0.0
 10
86.5022
 20
-69.7083
 30
0.0
 10
105.0755
 20
-76.9103
 30
0.0
 10
108.8661
 20
-92.8302
 30
0.0
 10
108.8661
 20
-92.8302
 30
0.0
 10
112.6565
 20
-108.7501
 30
0.0
 10
114.1728
 20
-148.1709
 30
0.0
 10
114.1728
 20
-148.1709
 30
0.0
 10
114.1728
 20
-148.1709
 30
0.0
 10
114.1728
 20
-148.1709
 30
0.0
 10
141.4642
 20
-111.4033
 30
0.0
 10
127.0604
 20
-80.3216
 30
0.0
 10
127.0604
 20
-80.3216
 30
0.0
 10
112.6565
 20
-49.24
 30
0.0
 10
97.8738
 20
-33.32
 30
0.0
 10
82.333
 20
-32.562
 30
0.0
 10
82.333
 20
-32.562
 30
0.0
 10
66.7921
 20
-31.8038
 30
0.0
 10
50.1138
 20
-36.7314
 30
0.0
 10
51.251
 20
-51.8931
 30
0.0
 10
51.251
 20
-51.8931
 30
0.0
 10
52.3882
 20
-67.0549
 30
0.0
 10
59.5903
 20
-83.7331
 30
0.0
 10
59.5903
 20
-83.7331
 30
0.0
 10
59.5903
 20
-83.7331
 30
0.0
 10
59.5903
 20
-83.7331
 30
0.0
 10
23.2013
 20
-43.9334
 30
0.0
 10
32.2985
 20
-21.9488
 30
0.0
 10
32.2985
 20
-21.9488
 30
0.0
 10
41.3955
 20
0.0361
 30
0.0
 10
71.3403
 20
8.7542
 30
0.0
 10
89.1553
 20
2.3103
 30
0.0
 10
89.1553
 20
2.3103
 30
0.0
 10
106.9705
 20
-4.1335
 30
0.0
 10
119.4793
 20
-12.8514
 30
0.0
 10
119.4793
 20
-12.8514
 30
0.0
 10
119.4793
 20
-12.8514
 30
0.0
 10
93.5475
 20
41.2998
 30
0.0
 10
49.3622
 20
27.4986
 30
0.0
 10
14.8628
 20
-8.3028
 30
0.0
 10
14.8628
 20
-8.3028
 30
0.0
 10
14.8628
 20
-8.3028
 30
0.0
 10
32.6781
 20
22.3997
 30
0.0
 10
32.2992
 20
41.7311
 30
0.0
 10
32.2992
 20
41.7311
 30
0.0
 10
31.92
 20
61.0624
 30
0.0
 10
26.2345
 20
84.1842
 30
0.0
 10
26.2345
 20
84.1842
 30
0.0
 10
26.2345
 20
84.1842
 30
0.0
 10
26.2345
 20
84.1842
 30
0.0
 10
25.1445
 20
77.361
 30
0.0
 10
23.344
 20
70.6332
 30
0.0
 10
23.344
 20
70.6332
 30
0.0
 10
21.5438
 20
63.9052
 30
0.0
 10
18.2743
 20
59.1672
 30
0.0
 10
18.2743
 20
59.1672
 30
0.0
 10
18.2743
 20
59.1672
 30
0.0
 10
18.2743
 20
59.1672
 30
0.0
 10
27.3714
 20
77.7404
 30
0.0
 10
9.1773
 20
84.5633
 30
0.0
 10
9.1773
 20
84.5633
 30
0.0
 10
-9.0168
 20
91.386
 30
0.0
 10
-20.0092
 20
90.6277
 30
0.0
 10
-20.0092
 20
90.6277
 30
0.0
 10
-20.0092
 20
90.6277
 30
0.0
 10
-20.0092
 20
90.6277
 30
0.0
 10
-7.1213
 20
97.4508
 30
0.0
 10
-8.6376
 20
114.5078
 30
0.0
 10
-8.6376
 20
114.5078
 30
0.0
 10
-10.1538
 20
131.5647
 30
0.0
 10
-12.428
 20
135.7345
 30
0.0
 10
-12.428
 20
135.7345
 30
0.0
 10
-12.428
 20
135.7345
 30
0.0
 10
-12.428
 20
135.7345
 30
0.0
 10
-12.4281
 20
133.46
 30
0.0
 10
-22.6622
 20
125.8792
 30
0.0
 10
-22.6622
 20
125.8792
 30
0.0
 10
-32.8964
 20
118.2983
 30
0.0
 10
-40.0982
 20
116.7821
 30
0.0
 10
-40.0982
 20
116.7821
 30
0.0
 10
-40.0982
 20
116.7821
 30
0.0
 10
-40.0982
 20
116.7821
 30
0.0
 10
-34.4125
 20
119.0562
 30
0.0
 10
-32.1383
 20
127.3951
 30
0.0
 10
-32.1383
 20
127.3951
 30
0.0
 10
-29.8639
 20
135.7345
 30
0.0
 10
-32.1383
 20
141.0409
 30
0.0
 10
-32.1383
 20
141.0409
 30
0.0
 10
-32.1383
 20
141.0409
 30
0.0
 10
-32.1383
 20
141.0409
 30
0.0
 10
-35.1705
 20
125.1209
 30
0.0
 10
-48.4371
 20
120.1933
 30
0.0
 10
-48.4371
 20
120.1933
 30
0.0
 10
-61.7039
 20
115.2659
 30
0.0
 10
-82.1721
 20
114.8869
 30
0.0
 10
-82.1721
 20
114.8869
 30
0.0
 10
-82.1721
 20
114.8869
 30
0.0
 10
-82.1721
 20
114.8869
 30
0.0
 10
-52.397
 20
124.8282
 30
0.0
 10
-54.8808
 20
143.6946
 30
0.0
 10
-54.8808
 20
143.6946
 30
0.0
 10
-58.143
 20
168.4733
 30
0.0
 10
-95.1541
 20
158.0981
 30
0.0
 10
-95.1541
 20
158.0981
 30
0.0
 10
-95.1541
 20
158.0981
 30
0.0
 10
-86.4079
 20
173.2563
 30
0.0
 10
-54.7302
 20
190.8811
 30
0.0
 10
-38.6754
 20
178.187
 30
0.0
 10
-38.6754
 20
178.187
 30
0.0
 10
-30.5258
 20
171.7435
 30
0.0
 10
-31.0945
 20
160.3719
 30
0.0
 10
-31.0945
 20
160.3719
 30
0.0
 10
-31.0945
 20
160.3719
 30
0.0
 10
-31.0945
 20
160.3719
 30
0.0
 10
-22.3763
 20
167.7635
 30
0.0
 10
-22.3763
 20
175.3444
 30
0.0
 10
-22.3763
 20
175.3444
 30
0.0
 10
-22.3763
 20
200.8278
 30
0.0
 10
-52.7677
 20
199.1162
 30
0.0
 10
-64.8295
 20
191.0748
 30
0.0
 10
-64.8295
 20
191.0748
 30
0.0
 10
-73.9266
 20
185.0101
 30
0.0
 10
-80.3703
 20
179.7033
 30
0.0
 10
-92.8789
 20
174.7757
 30
0.0
 10
-92.8789
 20
174.7757
 30
0.0
 10
-105.3874
 20
169.8482
 30
0.0
 10
-117.5167
 20
168.3321
 30
0.0
 10
-120.5492
 20
159.235
 30
0.0
 10
-120.5492
 20
159.235
 30
0.0
 10
-123.5816
 20
150.1376
 30
0.0
 10
-125.856
 20
144.4521
 30
0.0
 10
-125.856
 20
144.4521
 30
0.0
 10
-125.856
 20
144.4521
 30
0.0
 10
-125.856
 20
144.4521
 30
0.0
 10
-120.9282
 20
158.0978
 30
0.0
 10
-130.4044
 20
163.4042
 30
0.0
 10
-130.4044
 20
163.4042
 30
0.0
 10
-139.8806
 20
168.7109
 30
0.0
 10
-137.9852
 20
171.3645
 30
0.0
 10
-145.5659
 20
166.8158
 30
0.0
 10
-145.5659
 20
166.8158
 30
0.0
 10
-153.1469
 20
162.2671
 30
0.0
 10
-160.7279
 20
142.9359
 30
0.0
 10
-160.7279
 20
142.9359
 30
0.0
 10
-160.7279
 20
142.9359
 30
0.0
 10
-160.7279
 20
142.9359
 30
0.0
 10
-168.688
 20
147.8635
 30
0.0
 10
-167.9299
 20
157.3398
 30
0.0
 10
-167.9299
 20
157.3398
 30
0.0
 10
-167.1717
 20
166.8158
 30
0.0
 10
-173.6154
 20
170.9854
 30
0.0
 10
-173.6154
 20
170.9854
 30
0.0
 10
-173.6154
 20
170.9854
 30
0.0
 10
-173.6154
 20
170.9854
 30
0.0
 10
-181.5754
 20
173.2596
 30
0.0
 10
-185.7449
 20
163.7835
 30
0.0
 10
-185.7449
 20
163.7835
 30
0.0
 10
-189.9144
 20
154.3073
 30
0.0
 10
-194.8418
 20
144.4521
 30
0.0
 10
-189.1562
 20
140.2826
 30
0.0
 10
-189.1562
 20
140.2826
 30
0.0
 10
-183.4707
 20
136.1131
 30
0.0
 10
-189.9144
 20
131.1857
 30
0.0
 10
-189.9144
 20
131.1857
 30
0.0
 10
-189.9144
 20
131.1857
 30
0.0
 10
-189.9144
 20
131.1857
 30
0.0
 10
-208.1087
 20
145.5892
 30
0.0
 10
-204.6971
 20
159.614
 30
0.0
 10
-204.6971
 20
159.614
 30
0.0
 10
-201.2858
 20
173.6387
 30
0.0
 10
-199.0115
 20
177.05
 30
0.0
 10
-203.1809
 20
188.8004
 30
0.0
 10
-203.1809
 20
188.8004
 30
0.0
 10
-207.3504
 20
200.5509
 30
0.0
 10
-231.1408
 20
211.5446
 30
0.0
 10
-231.1408
 20
211.5446
 30
0.0
  0
SPLINE
  5
7E
330
1F
100
AcDbEntity
  8
layer 1
 62
   250
370
     9
100
AcDbSpline
210
0.0
220
0.0
230
1.0
 70
    11
 71
     3
 72
    76
 73
    72
 74
     0
 42
0.000000001
 43
0.0000000001
 40
0.0
 40
0.0
 40
0.0
 40
0.0
 40
0.0526315789473684
 40
0.0526315789473684
 40
0.0526315789473684
 40
0.0526315789473684
 40
0.1052631578947368
 40
0.1052631578947368
 40
0.1052631578947368
 40
0.1052631578947368
 40
0.1578947368421053
 40
0.1578947368421053
 40
0.1578947368421053
 40
0.1578947368421053
 40
0.2105263157894737
 40
0.2105263157894737
 40
0.2105263157894737
 40
0.2105263157894737
 40
0.2631578947368421
 40
0.2631578947368421
 40
0.2631578947368421
 40
0.2631578947368421
 40
0.3157894736842105
 40
0.3157894736842105
 40
0.3157894736842105
 40
0.3157894736842105
 40
0.3684210526315789
 40
0.3684210526315789
 40
0.3684210526315789
 40
0.3684210526315789
 40
0.4210526315789473
 40
0.4210526315789473
 40
0.4210526315789473
 40
0.4210526315789473
 40
0.4736842105263158
 40
0.4736842105263158
 40
0.4736842105263158
 40
0.4736842105263158
 40
0.5263157894736842
 40
0.5263157894736842
 40
0.5263157894736842
 40
0.5263157894736842
 40
0.5789473684210527
 40
0.5789473684210527
 40
0.5789473684210527
 40
0.5789473684210527
 40
0.631578947368421
 40
0.631578947368421
 40
0.631578947368421
 40
0.631578947368421
 40
0.6842105263157895
 40
0.6842105263157895
 40
0.6842105263157895
 40
0.6842105263157895
 40
0.7368421052631579
 40
0.7368421052631579
 40
0.7368421052631579
 40
0.7368421052631579
 40
0.7894736842105263
 40
0.7894736842105263
 40
0.7894736842105263
 40
0.7894736842105263
 40
0.8421052631578947
 40
0.8421052631578947
 40
0.8421052631578947
 40
0.8421052631578947
 40
0.8947368421052632
 40
0.8947368421052632
 40
0.8947368421052632
 40
0.8947368421052632
 40
1.0
 40
1.0
 40
1.0
 40
1.0
 10
142.0012
 20
-213.9946
 30
0.0
 10
142.0012
 20
-213.9946
 30
0.0
 10
158.6794
 20
-247.3505
 30
0.0
 10
166.6393
 20
-251.8991
 30
0.0
 10
166.6393
 20
-251.8991
 30
0.0
 10
174.5991
 20
-256.4475
 30
0.0
 10
178.7687
 20
-256.0684
 30
0.0
 10
181.043
 20
-263.2704
 30
0.0
 10
181.043
 20
-263.2704
 30
0.0
 10
183.3171
 20
-270.4723
 30
0.0
 10
188.6238
 20
-316.3367
 30
0.0
 10
188.6238
 20
-316.3367
 30
0.0
 10
188.6238
 20
-316.3367
 30
0.0
 10
188.6238
 20
-316.3367
 30
0.0
 10
189.0027
 20
-309.1347
 30
0.0
 10
184.075
 20
-306.1023
 30
0.0
 10
184.075
 20
-306.1023
 30
0.0
 10
179.1475
 20
-303.07
 30
0.0
 10
174.5989
 20
-296.2471
 30
0.0
 10
174.5989
 20
-296.2471
 30
0.0
 10
174.5989
 20
-296.2471
 30
0.0
 10
174.5989
 20
-296.2471
 30
0.0
 10
174.2198
 20
-309.1347
 30
0.0
 10
178.3894
 20
-320.8853
 30
0.0
 10
178.3894
 20
-320.8853
 30
0.0
 10
182.5587
 20
-332.6356
 30
0.0
 10
190.8976
 20
-348.1763
 30
0.0
 10
192.4138
 20
-365.6126
 30
0.0
 10
192.4138
 20
-365.6126
 30
0.0
 10
193.9299
 20
-383.0488
 30
0.0
 10
193.5508
 20
-395.9363
 30
0.0
 10
193.5508
 20
-395.9363
 30
0.0
 10
193.5508
 20
-395.9363
 30
0.0
 10
193.5508
 20
-395.9363
 30
0.0
 10
193.551
 20
-393.662
 30
0.0
 10
185.2119
 20
-394.0411
 30
0.0
 10
185.2119
 20
-394.0411
 30
0.0
 10
176.8726
 20
-394.4202
 30
0.0
 10
172.3242
 20
-399.3476
 30
0.0
 10
172.3242
 20
-399.3476
 30
0.0
 10
172.3242
 20
-399.3476
 30
0.0
 10
172.3242
 20
-399.3476
 30
0.0
 10
170.05
 20
-391.7667
 30
0.0
 10
162.8481
 20
-392.9039
 30
0.0
 10
162.8481
 20
-392.9039
 30
0.0
 10
155.6463
 20
-394.0411
 30
0.0
 10
151.0979
 20
-396.3154
 30
0.0
 10
151.0979
 20
-396.3154
 30
0.0
 10
151.0979
 20
-396.3154
 30
0.0
 10
151.0979
 20
-396.3154
 30
0.0
 10
153.3718
 20
-394.7992
 30
0.0
 10
156.4044
 20
-386.8391
 30
0.0
 10
156.4044
 20
-386.8391
 30
0.0
 10
159.4367
 20
-378.8792
 30
0.0
 10
159.0577
 20
-365.6126
 30
0.0
 10
159.0577
 20
-365.6126
 30
0.0
 10
159.0577
 20
-365.6126
 30
0.0
 10
159.0577
 20
-365.6126
 30
0.0
 10
163.6062
 20
-374.7097
 30
0.0
 10
167.0177
 20
-372.4354
 30
0.0
 10
167.0177
 20
-372.4354
 30
0.0
 10
170.429
 20
-370.1611
 30
0.0
 10
181.0422
 20
-358.0318
 30
0.0
 10
171.945
 20
-332.6356
 30
0.0
 10
171.945
 20
-332.6356
 30
0.0
 10
162.8479
 20
-307.2397
 30
0.0
 10
145.0329
 20
-277.674
 30
0.0
 10
144.6537
 20
-262.8913
 30
0.0
 10
144.6537
 20
-262.8913
 30
0.0
 10
144.2747
 20
-248.1086
 30
0.0
 10
142.0012
 20
-213.9946
 30
0.0
 10
142.0012
 20
-213.9946
 30
0.0
  0
SPLINE
  5
7F
330
1F
100
AcDbEntity
  8
layer 1
 62
   250
370
     9
100
AcDbSpline
210
0.0
220
0.0
230
1.0
 70
    11
 71
     3
 72
    40
 73
    36
 74
     0
 42
0.000000001
 43
0.0000000001
 40
0.0
 40
0.0
 40
0.0
 40
0.0
 40
0.1
 40
0.1
 40
0.1
 40
0.1
 40
0.2
 40
0.2
 40
0.2
 40
0.2
 40
0.3
 40
0.3
 40
0.3
 40
0.3
 40
0.4
 40
0.4
 40
0.4
 40
0.4
 40
0.5
 40
0.5
 40
0.5
 40
0.5
 40
0.6
 40
0.6
 40
0.6
 40
0.6
 40
0.7
 40
0.7
 40
0.7
 40
0.7
 40
0.8
 40
0.8
 40
0.8
 40
0.8
 40
1.0
 40
1.0
 40
1.0
 40
1.0
 10
-165.1895
 20
-32.9425
 30
0.0
 10
-165.1895
 20
-32.9425
 30
0.0
 10
-146.9951
 20
-8.684
 30
0.0
 10
-131.4543
 20
-4.8933
 30
0.0
 10
-131.4543
 20
-4.8933
 30
0.0
 10
-115.9135
 20
-1.1028
 30
0.0
 10
-107.9537
 20
-1.8608
 30
0.0
 10
-105.3003
 20
-7.5465
 30
0.0
 10
-105.3003
 20
-7.5465
 30
0.0
 10
-102.6471
 20
-13.2324
 30
0.0
 10
-105.6794
 20
-28.7731
 30
0.0
 10
-110.2279
 20
-35.5959
 30
0.0
 10
-110.2279
 20
-35.5959
 30
0.0
 10
-114.7764
 20
-42.4188
 30
0.0
 10
-134.4868
 20
-56.8223
 30
0.0
 10
-146.2371
 20
-62.8872
 30
0.0
 10
-146.2371
 20
-62.8872
 30
0.0
 10
-157.9876
 20
-68.9519
 30
0.0
 10
-191.7227
 20
-87.5252
 30
0.0
 10
-198.9243
 20
-99.2757
 30
0.0
 10
-198.9243
 20
-99.2757
 30
0.0
 10
-206.1262
 20
-111.026
 30
0.0
 10
-211.812
 20
-131.4945
 30
0.0
 10
-211.812
 20
-131.4945
 30
0.0
 10
-211.812
 20
-131.4945
 30
0.0
 10
-217.0466
 20
-67.7198
 30
0.0
 10
-156.8624
 20
-70.5044
 30
0.0
 10
-145.4788
 20
-45.8302
 30
0.0
 10
-145.4788
 20
-45.8302
 30
0.0
 10
-137.0603
 20
-27.5824
 30
0.0
 10
-149.6659
 20
-26.9671
 30
0.0
 10
-167.8426
 20
-37.1121
 30
0.0
 10
-167.8426
 20
-37.1121
 30
0.0
 10
-167.8426
 20
-37.1121
 30
0.0
 10
-165.1895
 20
-32.9425
 30
0.0
 10
-165.1895
 20
-32.9425
 30
0.0
  0
SPLINE
  5
80
330
1F
100
AcDbEntity
  8
layer 1
 62
   250
370
     9
100
AcDbSpline
210
0.0
220
0.0
230
1.0
 70
    11
 71
     3
 72
   108
 73
   104
 74
     0
 42
0.000000001
 43
0.0000000001
 40
0.0
 40
0.0
 40
0.0
 40
0.0
 40
0.037037037037037
 40
0.037037037037037
 40
0.037037037037037
 40
0.037037037037037
 40
0.0740740740740741
 40
0.0740740740740741
 40
0.0740740740740741
 40
0.0740740740740741
 40
0.1111111111111111
 40
0.1111111111111111
 40
0.1111111111111111
 40
0.1111111111111111
 40
0.1481481481481481
 40
0.1481481481481481
 40
0.1481481481481481
 40
0.1481481481481481
 40
0.1851851851851852
 40
0.1851851851851852
 40
0.1851851851851852
 40
0.1851851851851852
 40
0.2222222222222222
 40
0.2222222222222222
 40
0.2222222222222222
 40
0.2222222222222222
 40
0.2592592592592592
 40
0.2592592592592592
 40
0.2592592592592592
 40
0.2592592592592592
 40
0.2962962962962963
 40
0.2962962962962963
 40
0.2962962962962963
 40
0.2962962962962963
 40
0.3333333333333333
 40
0.3333333333333333
 40
0.3333333333333333
 40
0.3333333333333333
 40
0.3703703703703703
 40
0.3703703703703703
 40
0.3703703703703703
 40
0.3703703703703703
 40
0.4074074074074074
 40
0.4074074074074074
 40
0.4074074074074074
 40
0.4074074074074074
 40
0.4444444444444444
 40
0.4444444444444444
 40
0.4444444444444444
 40
0.4444444444444444
 40
0.4814814814814815
 40
0.4814814814814815
 40
0.4814814814814815
 40
0.4814814814814815
 40
0.5185185185185185
 40
0.5185185185185185
 40
0.5185185185185185
 40
0.5185185185185185
 40
0.5555555555555556
 40
0.5555555555555556
 40
0.5555555555555556
 40
0.5555555555555556
 40
0.5925925925925926
 40
0.5925925925925926
 40
0.5925925925925926
 40
0.5925925925925926
 40
0.6296296296296297
 40
0.6296296296296297
 40
0.6296296296296297
 40
0.6296296296296297
 40
0.6666666666666666
 40
0.6666666666666666
 40
0.6666666666666666
 40
0.6666666666666666
 40
0.7037037037037037
 40
0.7037037037037037
 40
0.7037037037037037
 40
0.7037037037037037
 40
0.7407407407407407
 40
0.7407407407407407
 40
0.7407407407407407
 40
0.7407407407407407
 40
0.7777777777777778
 40
0.7777777777777778
 40
0.7777777777777778
 40
0.7777777777777778
 40
0.8148148148148148
 40
0.8148148148148148
 40
0.8148148148148148
 40
0.8148148148148148
 40
0.8518518518518519
 40
0.8518518518518519
 40
0.8518518518518519
 40
0.8518518518518519
 40
0.8888888888888888
 40
0.8888888888888888
 40
0.8888888888888888
 40
0.8888888888888888
 40
0.9259259259259259
 40
0.9259259259259259
 40
0.9259259259259259
 40
0.9259259259259259
 40
1.0
 40
1.0
 40
1.0
 40
1.0
 10
-94.5939
 20
-97.5692
 30
0.0
 10
-94.5939
 20
-97.5692
 30
0.0
 10
-93.0778
 20
-110.8355
 30
0.0
 10
-84.7388
 20
-119.1746
 30
0.0
 10
-84.7388
 20
-119.1746
 30
0.0
 10
-76.3995
 20
-127.5136
 30
0.0
 10
-69.5769
 20
-132.0622
 30
0.0
 10
-69.5769
 20
-132.0622
 30
0.0
 10
-69.5769
 20
-132.0622
 30
0.0
 10
-69.5769
 20
-132.0622
 30
0.0
 10
-74.8836
 20
-115.0053
 30
0.0
 10
-74.5045
 20
-107.8032
 30
0.0
 10
-74.5045
 20
-107.8032
 30
0.0
 10
-74.1255
 20
-100.6013
 30
0.0
 10
-75.2626
 20
-96.811
 30
0.0
 10
-75.2626
 20
-96.811
 30
0.0
 10
-75.2626
 20
-96.811
 30
0.0
 10
-75.2626
 20
-96.811
 30
0.0
 10
-67.6818
 20
-113.11
 30
0.0
 10
-59.7216
 20
-118.0375
 30
0.0
 10
-59.7216
 20
-118.0375
 30
0.0
 10
-51.7617
 20
-122.9652
 30
0.0
 10
-51.3827
 20
-127.8926
 30
0.0
 10
-51.3827
 20
-127.8926
 30
0.0
 10
-51.3827
 20
-127.8926
 30
0.0
 10
-51.3827
 20
-127.8926
 30
0.0
 10
-57.4474
 20
-112.7309
 30
0.0
 10
-53.657
 20
-104.0128
 30
0.0
 10
-53.657
 20
-104.0128
 30
0.0
 10
-49.8666
 20
-95.2948
 30
0.0
 10
-44.1809
 20
-88.0929
 30
0.0
 10
-38.8743
 20
-94.5367
 30
0.0
 10
-38.8743
 20
-94.5367
 30
0.0
 10
-33.5676
 20
-100.9805
 30
0.0
 10
-32.0514
 20
-114.6261
 30
0.0
 10
-26.3656
 20
-128.6507
 30
0.0
 10
-26.3656
 20
-128.6507
 30
0.0
 10
-20.6801
 20
-142.6753
 30
0.0
 10
-6.2761
 20
-155.6578
 30
0.0
 10
-5.1391
 20
-158.5953
 30
0.0
 10
-5.1391
 20
-158.5953
 30
0.0
 10
-4.0022
 20
-161.5329
 30
0.0
 10
-9.6878
 20
-165.7975
 30
0.0
 10
-19.5432
 20
-163.144
 30
0.0
 10
-19.5432
 20
-163.144
 30
0.0
 10
-29.3984
 20
-160.4904
 30
0.0
 10
-37.7373
 20
-133.1995
 30
0.0
 10
-37.7373
 20
-133.1995
 30
0.0
 10
-37.7373
 20
-133.1995
 30
0.0
 10
-37.7373
 20
-133.1995
 30
0.0
 10
-34.3259
 20
-154.426
 30
0.0
 10
-35.4631
 20
-173.3782
 30
0.0
 10
-35.4631
 20
-173.3782
 30
0.0
 10
-36.6002
 20
-192.3306
 30
0.0
 10
-43.4232
 20
-207.4923
 30
0.0
 10
-43.4232
 20
-207.4923
 30
0.0
 10
-43.4232
 20
-207.4923
 30
0.0
 10
-43.4232
 20
-207.4923
 30
0.0
 10
-23.713
 20
-209.0088
 30
0.0
 10
-21.0598
 20
-219.243
 30
0.0
 10
-21.0598
 20
-219.243
 30
0.0
 10
-10.9131
 20
-258.3801
 30
0.0
 10
-39.3436
 20
-271.3539
 30
0.0
 10
-66.5462
 20
-291.6407
 30
0.0
 10
-66.5462
 20
-291.6407
 30
0.0
 10
-66.5462
 20
-291.6407
 30
0.0
 10
-63.0401
 20
-287.4712
 30
0.0
 10
-57.4494
 20
-280.2694
 30
0.0
 10
-57.4494
 20
-280.2694
 30
0.0
 10
-51.8582
 20
-273.0675
 30
0.0
 10
-51.7634
 20
-266.6237
 30
0.0
 10
-51.7634
 20
-266.6237
 30
0.0
 10
-51.7634
 20
-266.6237
 30
0.0
 10
-60.067
 20
-272.4847
 30
0.0
 10
-65.5024
 20
-278.2279
 30
0.0
 10
-76.4015
 20
-277.2369
 30
0.0
 10
-76.4015
 20
-277.2369
 30
0.0
 10
-61.8499
 20
-267.618
 30
0.0
 10
-37.9325
 20
-252.9702
 30
0.0
 10
-48.7313
 20
-231.3724
 30
0.0
 10
-48.7313
 20
-231.3724
 30
0.0
 10
-54.796
 20
-219.243
 30
0.0
 10
-67.3044
 20
-218.485
 30
0.0
 10
-73.7482
 20
-204.4603
 30
0.0
 10
-73.7482
 20
-204.4603
 30
0.0
 10
-80.192
 20
-190.4355
 30
0.0
 10
-89.6684
 20
-161.2491
 30
0.0
 10
-89.6684
 20
-161.2491
 30
0.0
 10
-89.6684
 20
-161.2491
 30
0.0
 10
-102.9305
 20
-166.754
 30
0.0
 10
-98.6278
 20
-169.6982
 30
0.0
 10
-104.4511
 20
-179.6325
 30
0.0
 10
-104.4511
 20
-179.6325
 30
0.0
 10
-104.4511
 20
-179.6325
 30
0.0
 10
-109.0
 20
-161.3435
 30
0.0
 10
-101.7982
 20
-147.6979
 30
0.0
 10
-101.7982
 20
-147.6979
 30
0.0
 10
-94.5963
 20
-134.0523
 30
0.0
 10
-94.975
 20
-120.975
 30
0.0
 10
-95.1645
 20
-113.7733
 30
0.0
 10
-95.1645
 20
-113.7733
 30
0.0
 10
-95.3542
 20
-106.5716
 30
0.0
 10
-94.5939
 20
-97.5692
 30
0.0
 10
-94.5939
 20
-97.5692
 30
0.0
  0
SPLINE
  5
81
330
1F
100
AcDbEntity
  8
layer 1
 62
   250
370
     9
100
AcDbSpline
210
0.0
220
0.0
230
1.0
 70
    11
 71
     3
 72
    36
 73
    32
 74
     0
 42
0.000000001
 43
0.0000000001
 40
0.0
 40
0.0
 40
0.0
 40
0.0
 40
0.1111111111111111
 40
0.1111111111111111
 40
0.1111111111111111
 40
0.1111111111111111
 40
0.2222222222222222
 40
0.2222222222222222
 40
0.2222222222222222
 40
0.2222222222222222
 40
0.3333333333333333
 40
0.3333333333333333
 40
0.3333333333333333
 40
0.3333333333333333
 40
0.4444444444444444
 40
0.4444444444444444
 40
0.4444444444444444
 40
0.4444444444444444
 40
0.5555555555555556
 40
0.5555555555555556
 40
0.5555555555555556
 40
0.5555555555555556
 40
0.6666666666666666
 40
0.6666666666666666
 40
0.6666666666666666
 40
0.6666666666666666
 40
0.7777777777777778
 40
0.7777777777777778
 40
0.7777777777777778
 40
0.7777777777777778
 40
1.0
 40
1.0
 40
1.0
 40
1.0
 10
-240.9668
 20
84.9426
 30
0.0
 10
-240.9668
 20
84.9426
 30
0.0
 10
-246.8421
 20
71.1072
 30
0.0
 10
-257.6449
 20
63.3368
 30
0.0
 10
-257.6449
 20
63.3368
 30
0.0
 10
-273.3294
 20
52.0551
 30
0.0
 10
-284.2048
 20
56.8542
 30
0.0
 10
-275.2704
 20
34.3399
 30
0.0
 10
-275.2704
 20
34.3399
 30
0.0
 10
-270.5323
 20
22.3999
 30
0.0
 10
-267.8789
 20
17.283
 30
0.0
 10
-267.8789
 20
17.283
 30
0.0
 10
-267.8789
 20
17.283
 30
0.0
 10
-267.8789
 20
17.283
 30
0.0
 10
-263.3304
 20
32.8237
 30
0.0
 10
-263.5201
 20
37.3723
 30
0.0
 10
-263.5201
 20
37.3723
 30
0.0
 10
-263.7095
 20
41.9208
 30
0.0
 10
-261.6246
 20
40.5939
 30
0.0
 10
-259.7295
 20
37.5617
 30
0.0
 10
-259.7295
 20
37.5617
 30
0.0
 10
-257.8344
 20
34.5295
 30
0.0
 10
-256.6972
 20
30.3599
 30
0.0
 10
-256.6972
 20
30.3599
 30
0.0
 10
-256.6972
 20
30.3599
 30
0.0
 10
-256.6972
 20
30.3599
 30
0.0
 10
-252.9067
 20
56.8931
 30
0.0
 10
-247.6001
 20
61.8208
 30
0.0
 10
-247.6001
 20
61.8208
 30
0.0
 10
-242.2933
 20
66.7484
 30
0.0
 10
-240.9668
 20
84.9426
 30
0.0
 10
-240.9668
 20
84.9426
 30
0.0
  0
ENDSEC
  0
SECTION
  2
OBJECTS
  0
DICTIONARY
  5
C
330
0
100
AcDbDictionary
281
     1
  3
ACAD_DETAILVIEWSTYLE
350
B6
  3
ACAD_GROUP
350
D
  3
ACAD_LAYOUT
350
1A
  3
ACAD_MATERIAL
350
43
  3
ACAD_MLEADERSTYLE
350
B5
  3
ACAD_MLINESTYLE
350
17
  3
ACAD_PLOTSETTINGS
350
19
  3
ACAD_PLOTSTYLENAME
350
E
  3
ACAD_SCALELIST
350
47
  3
ACAD_SECTIONVIEWSTYLE
350
B7
  3
ACAD_TABLESTYLE
350
B4
  3
ACAD_VISUALSTYLE
350
2A
  3
AcDbVariableDictionary
350
82
  0
SUN
  5
69
330
29
100
AcDbSun
 90
        1
290
     0
 63
     7
421
 16777215
 40
1.0
291
     1
 91
  2455826
 92
 54000000
292
     0
 70
     2
 71
   256
280
     1
  0
DICTIONARY
  5
B6
102
{ACAD_REACTORS
330
C
102
}
330
C
100
AcDbDictionary
281
     1
  0
DICTIONARY
  5
D
102
{ACAD_REACTORS
330
C
102
}
330
C
100
AcDbDictionary
281
     1
  0
DICTIONARY
  5
1A
102
{ACAD_REACTORS
330
C
102
}
330
C
100
AcDbDictionary
281
     1
  3
Layout1
350
1E
  3
Layout2
350
26
  3
Model
350
22
  0
DICTIONARY
  5
43
102
{ACAD_REACTORS
330
C
102
}
330
C
100
AcDbDictionary
281
     1
  3
ByBlock
350
45
  3
ByLayer
350
44
  3
Global
350
46
  0
DICTIONARY
  5
B5
102
{ACAD_REACTORS
330
C
102
}
330
C
100
AcDbDictionary
281
     1
  0
DICTIONARY
  5
17
102
{ACAD_REACTORS
330
C
102
}
330
C
100
AcDbDictionary
281
     1
  3
Standard
350
18
  0
DICTIONARY
  5
19
102
{ACAD_REACTORS
330
C
102
}
330
C
100
AcDbDictionary
281
     1
  0
ACDBDICTIONARYWDFLT
  5
E
102
{ACAD_REACTORS
330
C
102
}
330
C
100
AcDbDictionary
281
     1
  3
Normal
350
F
100
AcDbDictionaryWithDefault
340
F
  0
DICTIONARY
  5
47
102
{ACAD_REACTORS
330
C
102
}
330
C
100
AcDbDictionary
281
     1
  3
A0
350
48
  3
A1
350
49
  3
A2
350
4A
  3
A3
350
4B
  3
A4
350
4C
  3
A5
350
4D
  3
A6
350
4E
  3
A7
350
4F
  3
A8
350
50
  3
A9
350
51
  3
B0
350
52
  3
B1
350
53
  3
B2
350
54
  3
B3
350
55
  3
B4
350
56
  3
B5
350
57
  3
B6
350
58
  3
B7
350
59
  3
B8
350
5A
  3
B9
350
5B
  3
C0
350
5C
  3
C1
350
5D
  3
C2
350
5E
  3
C3
350
5F
  3
C4
350
60
  3
C5
350
61
  3
C6
350
62
  3
C7
350
63
  3
C8
350
64
  3
C9
350
65
  3
D0
350
66
  3
D1
350
67
  3
D2
350
68
  0
DICTIONARY
  5
B7
102
{ACAD_REACTORS
330
C
102
}
330
C
100
AcDbDictionary
281
     1
  0
DICTIONARY
  5
B4
102
{ACAD_REACTORS
330
C
102
}
330
C
100
AcDbDictionary
281
     1
  0
DICTIONARY
  5
2A
102
{ACAD_REACTORS
330
C
102
}
330
C
100
AcDbDictionary
281
     1
  3
2dWireframe
350
2F
  3
Basic
350
32
  3
Brighten
350
36
  3
ColorChange
350
3A
  3
Conceptual
350
34
  3
Dim
350
35
  3
EdgeColorOff
350
3D
  3
Facepattern
350
39
  3
Flat
350
2B
  3
FlatWithEdges
350
2C
  3
Gouraud
350
2D
  3
GouraudWithEdges
350
2E
  3
Hidden
350
31
  3
JitterOff
350
3B
  3
Linepattern
350
38
  3
OverhangOff
350
3C
  3
Realistic
350
33
  3
Shaded
350
42
  3
Shaded with edges
350
41
  3
Shades of Gray
350
3E
  3
Sketchy
350
3F
  3
Thicken
350
37
  3
Wireframe
350
30
  3
X-Ray
350
40
  0
DICTIONARY
  5
82
102
{ACAD_REACTORS
330
C
102
}
330
C
100
AcDbDictionary
281
     1
  3
CANNOSCALE
350
83
  0
LAYOUT
  5
1E
102
{ACAD_REACTORS
330
1A
102
}
330
1A
100
AcDbPlotSettings
  1

  2
none_device
  4

  6

 40
0.0
 41
0.0
 42
0.0
 43
0.0
 44
0.0
 45
0.0
 46
0.0
 47
0.0
 48
0.0
 49
0.0
140
0.0
141
0.0
142
1.0
143
1.0
 70
   688
 72
     0
 73
     0
 74
     5
  7

 75
    16
 76
     0
 77
     2
 78
   300
147
1.0
148
0.0
149
0.0
100
AcDbLayout
  1
Layout1
 70
     1
 71
     1
 10
0.0
 20
0.0
 11
12.0
 21
9.0
 12
0.0
 22
0.0
 32
0.0
 14
1.000000000000000E 20
 24
1.000000000000000E 20
 34
1.000000000000000E 20
 15
-1.000000000000000E 20
 25
-1.000000000000000E 20
 35
-1.000000000000000E 20
146
0.0
 13
0.0
 23
0.0
 33
0.0
 16
1.0
 26
0.0
 36
0.0
 17
0.0
 27
1.0
 37
0.0
 76
     0
330
1B
  0
LAYOUT
  5
26
102
{ACAD_REACTORS
330
1A
102
}
330
1A
100
AcDbPlotSettings
  1

  2
none_device
  4

  6

 40
0.0
 41
0.0
 42
0.0
 43
0.0
 44
0.0
 45
0.0
 46
0.0
 47
0.0
 48
0.0
 49
0.0
140
0.0
141
0.0
142
1.0
143
1.0
 70
   688
 72
     0
 73
     0
 74
     5
  7

 75
    16
 76
     0
 77
     2
 78
   300
147
1.0
148
0.0
149
0.0
100
AcDbLayout
  1
Layout2
 70
     1
 71
     2
 10
0.0
 20
0.0
 11
0.0
 21
0.0
 12
0.0
 22
0.0
 32
0.0
 14
0.0
 24
0.0
 34
0.0
 15
0.0
 25
0.0
 35
0.0
146
0.0
 13
0.0
 23
0.0
 33
0.0
 16
1.0
 26
0.0
 36
0.0
 17
0.0
 27
1.0
 37
0.0
 76
     0
330
23
  0
LAYOUT
  5
22
102
{ACAD_REACTORS
330
1A
102
}
330
1A
100
AcDbPlotSettings
  1

  2
none_device
  4
Letter_(8.50_x_11.00_Inches)
  6

 40
6.35
 41
6.35
 42
6.35000508
 43
6.35000508
 44
215.9
 45
279.4
 46
0.0
 47
0.0
 48
0.0
 49
0.0
140
0.0
141
0.0
142
1.0
143
1.0
 70
  1712
 72
     0
 73
     0
 74
     0
  7

 75
     0
 76
     0
 77
     2
 78
   300
147
1.0
148
0.0
149
0.0
100
AcDbLayout
  1
Model
 70
     1
 71
     0
 10
0.0
 20
0.0
 11
12.0
 21
9.0
 12
0.0
 22
0.0
 32
0.0
 14
-313.4248
 24
-435.0062
 34
0.0
 15
313.425
 25
435.0644
 35
0.0
146
0.0
 13
0.0
 23
0.0
 33
0.0
 16
1.0
 26
0.0
 36
0.0
 17
0.0
 27
1.0
 37
0.0
 76
     0
330
1F
331
29
  0
MATERIAL
  5
45
102
{ACAD_REACTORS
330
43
102
}
330
43
100
AcDbMaterial
  1
ByBlock
 72
     1
 94
      127
  0
MATERIAL
  5
44
102
{ACAD_REACTORS
330
43
102
}
330
43
100
AcDbMaterial
  1
ByLayer
 72
     1
 94
      127
  0
MATERIAL
  5
46
102
{ACAD_REACTORS
330
43
102
}
330
43
100
AcDbMaterial
  1
Global
 72
     1
 94
      127
  0
MLINESTYLE
  5
18
102
{ACAD_REACTORS
330
17
102
}
330
17
100
AcDbMlineStyle
  2
Standard
 70
     0
  3

 62
   256
 51
90.0
 52
90.0
 71
     2
 49
0.5
 62
   256
  6
BYLAYER
 49
-0.5
 62
   256
  6
BYLAYER
  0
ACDBPLACEHOLDER
  5
F
102
{ACAD_REACTORS
330
E
102
}
330
E
  0
SCALE
  5
48
102
{ACAD_REACTORS
330
47
102
}
330
47
100
AcDbScale
 70
     0
300
1:1
140
1.0
141
1.0
290
     1
  0
SCALE
  5
49
102
{ACAD_REACTORS
330
47
102
}
330
47
100
AcDbScale
 70
     0
300
1:2
140
1.0
141
2.0
290
     0
  0
SCALE
  5
4A
102
{ACAD_REACTORS
330
47
102
}
330
47
100
AcDbScale
 70
     0
300
1:4
140
1.0
141
4.0
290
     0
  0
SCALE
  5
4B
102
{ACAD_REACTORS
330
47
102
}
330
47
100
AcDbScale
 70
     0
300
1:5
140
1.0
141
5.0
290
     0
  0
SCALE
  5
4C
102
{ACAD_REACTORS
330
47
102
}
330
47
100
AcDbScale
 70
     0
300
1:8
140
1.0
141
8.0
290
     0
  0
SCALE
  5
4D
102
{ACAD_REACTORS
330
47
102
}
330
47
100
AcDbScale
 70
     0
300
1:10
140
1.0
141
10.0
290
     0
  0
SCALE
  5
4E
102
{ACAD_REACTORS
330
47
102
}
330
47
100
AcDbScale
 70
     0
300
1:16
140
1.0
141
16.0
290
     0
  0
SCALE
  5
4F
102
{ACAD_REACTORS
330
47
102
}
330
47
100
AcDbScale
 70
     0
300
1:20
140
1.0
141
20.0
290
     0
  0
SCALE
  5
50
102
{ACAD_REACTORS
330
47
102
}
330
47
100
AcDbScale
 70
     0
300
1:30
140
1.0
141
30.0
290
     0
  0
SCALE
  5
51
102
{ACAD_REACTORS
330
47
102
}
330
47
100
AcDbScale
 70
     0
300
1:40
140
1.0
141
40.0
290
     0
  0
SCALE
  5
52
102
{ACAD_REACTORS
330
47
102
}
330
47
100
AcDbScale
 70
     0
300
1:50
140
1.0
141
50.0
290
     0
  0
SCALE
  5
53
102
{ACAD_REACTORS
330
47
102
}
330
47
100
AcDbScale
 70
     0
300
1:100
140
1.0
141
100.0
290
     0
  0
SCALE
  5
54
102
{ACAD_REACTORS
330
47
102
}
330
47
100
AcDbScale
 70
     0
300
2:1
140
2.0
141
1.0
290
     0
  0
SCALE
  5
55
102
{ACAD_REACTORS
330
47
102
}
330
47
100
AcDbScale
 70
     0
300
4:1
140
4.0
141
1.0
290
     0
  0
SCALE
  5
56
102
{ACAD_REACTORS
330
47
102
}
330
47
100
AcDbScale
 70
     0
300
8:1
140
8.0
141
1.0
290
     0
  0
SCALE
  5
57
102
{ACAD_REACTORS
330
47
102
}
330
47
100
AcDbScale
 70
     0
300
10:1
140
10.0
141
1.0
290
     0
  0
SCALE
  5
58
102
{ACAD_REACTORS
330
47
102
}
330
47
100
AcDbScale
 70
     0
300
100:1
140
100.0
141
1.0
290
     0
  0
SCALE
  5
59
102
{ACAD_REACTORS
330
47
102
}
330
47
100
AcDbScale
 70
     0
300
1/128\" = 1\'-0\"
140
0.0078125
141
12.0
290
     0
  0
SCALE
  5
5A
102
{ACAD_REACTORS
330
47
102
}
330
47
100
AcDbScale
 70
     0
300
1/64\" = 1\'-0\"
140
0.015625
141
12.0
290
     0
  0
SCALE
  5
5B
102
{ACAD_REACTORS
330
47
102
}
330
47
100
AcDbScale
 70
     0
300
1/32\" = 1\'-0\"
140
0.03125
141
12.0
290
     0
  0
SCALE
  5
5C
102
{ACAD_REACTORS
330
47
102
}
330
47
100
AcDbScale
 70
     0
300
1/16\" = 1\'-0\"
140
0.0625
141
12.0
290
     0
  0
SCALE
  5
5D
102
{ACAD_REACTORS
330
47
102
}
330
47
100
AcDbScale
 70
     0
300
3/32\" = 1\'-0\"
140
0.09375
141
12.0
290
     0
  0
SCALE
  5
5E
102
{ACAD_REACTORS
330
47
102
}
330
47
100
AcDbScale
 70
     0
300
1/8\" = 1\'-0\"
140
0.125
141
12.0
290
     0
  0
SCALE
  5
5F
102
{ACAD_REACTORS
330
47
102
}
330
47
100
AcDbScale
 70
     0
300
3/16\" = 1\'-0\"
140
0.1875
141
12.0
290
     0
  0
SCALE
  5
60
102
{ACAD_REACTORS
330
47
102
}
330
47
100
AcDbScale
 70
     0
300
1/4\" = 1\'-0\"
140
0.25
141
12.0
290
     0
  0
SCALE
  5
61
102
{ACAD_REACTORS
330
47
102
}
330
47
100
AcDbScale
 70
     0
300
3/8\" = 1\'-0\"
140
0.375
141
12.0
290
     0
  0
SCALE
  5
62
102
{ACAD_REACTORS
330
47
102
}
330
47
100
AcDbScale
 70
     0
300
1/2\" = 1\'-0\"
140
0.5
141
12.0
290
     0
  0
SCALE
  5
63
102
{ACAD_REACTORS
330
47
102
}
330
47
100
AcDbScale
 70
     0
300
3/4\" = 1\'-0\"
140
0.75
141
12.0
290
     0
  0
SCALE
  5
64
102
{ACAD_REACTORS
330
47
102
}
330
47
100
AcDbScale
 70
     0
300
1\" = 1\'-0\"
140
1.0
141
12.0
290
     0
  0
SCALE
  5
65
102
{ACAD_REACTORS
330
47
102
}
330
47
100
AcDbScale
 70
     0
300
1-1/2\" = 1\'-0\"
140
1.5
141
12.0
290
     0
  0
SCALE
  5
66
102
{ACAD_REACTORS
330
47
102
}
330
47
100
AcDbScale
 70
     0
300
3\" = 1\'-0\"
140
3.0
141
12.0
290
     0
  0
SCALE
  5
67
102
{ACAD_REACTORS
330
47
102
}
330
47
100
AcDbScale
 70
     0
300
6\" = 1\'-0\"
140
6.0
141
12.0
290
     0
  0
SCALE
  5
68
102
{ACAD_REACTORS
330
47
102
}
330
47
100
AcDbScale
 70
     0
300
1\'-0\" = 1\'-0\"
140
12.0
141
12.0
290
     0
  0
VISUALSTYLE
  5
2F
102
{ACAD_REACTORS
330
2A
102
}
102
{ACAD_XDICTIONARY
360
8C
102
}
330
2A
100
AcDbVisualStyle
  2
2dWireframe
 70
     4
 71
     0
 72
     2
 73
     0
 90
        0
 40
0.6
 41
30.0
 62
     5
 63
     7
421
 16777215
 74
     1
 91
        4
 64
     7
 65
   257
 75
     1
175
     1
 42
1.0
 92
        0
 66
   257
 43
1.0
 76
     1
 77
     6
 78
     2
 67
     7
 79
     5
170
     0
171
     0
290
     0
174
     0
 93
        1
 44
0.0
173
     0
291
     0
 45
0.0
  0
VISUALSTYLE
  5
32
102
{ACAD_REACTORS
330
2A
102
}
102
{ACAD_XDICTIONARY
360
92
102
}
330
2A
100
AcDbVisualStyle
  2
Basic
 70
     7
 71
     1
 72
     0
 73
     1
 90
        0
 40
0.6
 41
30.0
 62
     5
 63
     7
421
 16777215
 74
     0
 91
        4
 64
     7
 65
   257
 75
     1
175
     1
 42
1.0
 92
        8
 66
     7
 43
1.0
 76
     1
 77
     6
 78
     2
 67
     7
 79
     5
170
     0
171
     0
290
     0
174
     0
 93
        1
 44
0.0
173
     0
291
     1
 45
0.0
  0
VISUALSTYLE
  5
36
102
{ACAD_REACTORS
330
2A
102
}
102
{ACAD_XDICTIONARY
360
9A
102
}
330
2A
100
AcDbVisualStyle
  2
Brighten
 70
    12
 71
     2
 72
     2
 73
     0
 90
        0
 40
0.6
 41
30.0
 62
     5
 63
     7
421
 16777215
 74
     1
 91
        4
 64
     7
 65
   257
 75
     1
175
     1
 42
1.0
 92
        8
 66
     7
 43
1.0
 76
     1
 77
     6
 78
     2
 67
     7
 79
     5
170
     0
171
     0
290
     0
174
     0
 93
        1
 44
50.0
173
     0
291
     1
 45
0.0
  0
VISUALSTYLE
  5
3A
102
{ACAD_REACTORS
330
2A
102
}
102
{ACAD_XDICTIONARY
360
A2
102
}
330
2A
100
AcDbVisualStyle
  2
ColorChange
 70
    16
 71
     2
 72
     2
 73
     3
 90
        0
 40
0.6
 41
30.0
 62
     5
 63
     8
421
  8421504
 74
     1
 91
        4
 64
     7
 65
   257
 75
     1
175
     1
 42
1.0
 92
        8
 66
     8
424
  8421504
 43
1.0
 76
     1
 77
     6
 78
     2
 67
     7
 79
     5
170
     0
171
     0
290
     0
174
     0
 93
        1
 44
0.0
173
     0
291
     1
 45
0.0
  0
VISUALSTYLE
  5
34
102
{ACAD_REACTORS
330
2A
102
}
102
{ACAD_XDICTIONARY
360
96
102
}
330
2A
100
AcDbVisualStyle
  2
Conceptual
 70
     9
 71
     3
 72
     2
 73
     0
 90
        0
 40
0.6
 41
30.0
 62
     5
 63
     7
421
 16777215
 74
     2
 91
        2
 64
     7
 65
   257
 75
     1
175
     1
 42
179.0
 92
        8
 66
     7
 43
1.0
 76
     1
 77
     6
 78
     2
 67
     7
 79
     3
170
     0
171
     0
290
     0
174
     0
 93
        1
 44
0.0
173
     0
291
     0
 45
0.0
  0
VISUALSTYLE
  5
35
102
{ACAD_REACTORS
330
2A
102
}
102
{ACAD_XDICTIONARY
360
98
102
}
330
2A
100
AcDbVisualStyle
  2
Dim
 70
    11
 71
     2
 72
     2
 73
     0
 90
        0
 40
0.6
 41
30.0
 62
     5
 63
     7
421
 16777215
 74
     1
 91
        4
 64
     7
 65
   257
 75
     1
175
     1
 42
1.0
 92
        8
 66
     7
 43
1.0
 76
     1
 77
     6
 78
     2
 67
     7
 79
     5
170
     0
171
     0
290
     0
174
     0
 93
        1
 44
-50.0
173
     0
291
     1
 45
0.0
  0
VISUALSTYLE
  5
3D
102
{ACAD_REACTORS
330
2A
102
}
102
{ACAD_XDICTIONARY
360
A8
102
}
330
2A
100
AcDbVisualStyle
  2
EdgeColorOff
 70
    22
 71
     2
 72
     2
 73
     0
 90
        0
 40
0.6
 41
30.0
 62
     5
 63
     7
421
 16777215
 74
     1
 91
        4
 64
     7
 65
   257
 75
     1
175
     1
 42
1.0
 92
        8
 66
     7
 43
1.0
 76
     1
 77
     6
 78
     2
 67
     7
 79
     5
170
     0
171
     0
290
     0
174
     0
 93
        1
 44
0.0
173
     0
291
     1
 45
0.0
  0
VISUALSTYLE
  5
39
102
{ACAD_REACTORS
330
2A
102
}
102
{ACAD_XDICTIONARY
360
A0
102
}
330
2A
100
AcDbVisualStyle
  2
Facepattern
 70
    15
 71
     2
 72
     2
 73
     0
 90
        0
 40
0.6
 41
30.0
 62
     5
 63
     7
421
 16777215
 74
     1
 91
        4
 64
     7
 65
   257
 75
     1
175
     1
 42
1.0
 92
        8
 66
     7
 43
1.0
 76
     1
 77
     6
 78
     2
 67
     7
 79
     5
170
     0
171
     0
290
     0
174
     0
 93
        1
 44
0.0
173
     0
291
     1
 45
0.0
  0
VISUALSTYLE
  5
2B
102
{ACAD_REACTORS
330
2A
102
}
102
{ACAD_XDICTIONARY
360
84
102
}
330
2A
100
AcDbVisualStyle
  2
Flat
 70
     0
 71
     2
 72
     1
 73
     1
 90
        2
 40
0.6
 41
30.0
 62
     5
 63
     7
421
 16777215
 74
     0
 91
        0
 64
     7
 65
   257
 75
     1
175
     1
 42
1.0
 92
        8
 66
     7
 43
1.0
 76
     1
 77
     6
 78
     2
 67
     7
 79
     5
170
     0
171
     0
290
     0
174
     0
 93
       13
 44
0.0
173
     0
291
     1
 45
0.0
  0
VISUALSTYLE
  5
2C
102
{ACAD_REACTORS
330
2A
102
}
102
{ACAD_XDICTIONARY
360
86
102
}
330
2A
100
AcDbVisualStyle
  2
FlatWithEdges
 70
     1
 71
     2
 72
     1
 73
     1
 90
        2
 40
0.6
 41
30.0
 62
     5
 63
     7
421
 16777215
 74
     1
 91
        0
 64
     7
 65
   257
 75
     1
175
     1
 42
1.0
 92
        0
 66
   257
 43
1.0
 76
     1
 77
     6
 78
     2
 67
     7
 79
     5
170
     0
171
     0
290
     0
174
     0
 93
       13
 44
0.0
173
     0
291
     1
 45
0.0
  0
VISUALSTYLE
  5
2D
102
{ACAD_REACTORS
330
2A
102
}
102
{ACAD_XDICTIONARY
360
88
102
}
330
2A
100
AcDbVisualStyle
  2
Gouraud
 70
     2
 71
     2
 72
     2
 73
     1
 90
        2
 40
0.6
 41
30.0
 62
     5
 63
     7
421
 16777215
 74
     0
 91
        0
 64
     7
 65
   257
 75
     1
175
     1
 42
1.0
 92
        0
 66
     7
 43
1.0
 76
     1
 77
     6
 78
     2
 67
     7
 79
     5
170
     0
171
     0
290
     0
174
     0
 93
       13
 44
0.0
173
     0
291
     1
 45
0.0
  0
VISUALSTYLE
  5
2E
102
{ACAD_REACTORS
330
2A
102
}
102
{ACAD_XDICTIONARY
360
8A
102
}
330
2A
100
AcDbVisualStyle
  2
GouraudWithEdges
 70
     3
 71
     2
 72
     2
 73
     1
 90
        2
 40
0.6
 41
30.0
 62
     5
 63
     7
421
 16777215
 74
     1
 91
        0
 64
     7
 65
   257
 75
     1
175
     1
 42
1.0
 92
        0
 66
   257
 43
1.0
 76
     1
 77
     6
 78
     2
 67
     7
 79
     5
170
     0
171
     0
290
     0
174
     0
 93
       13
 44
0.0
173
     0
291
     1
 45
0.0
  0
VISUALSTYLE
  5
31
102
{ACAD_REACTORS
330
2A
102
}
102
{ACAD_XDICTIONARY
360
90
102
}
330
2A
100
AcDbVisualStyle
  2
Hidden
 70
     6
 71
     1
 72
     2
 73
     2
 90
        0
 40
0.6
 41
30.0
 62
     5
 63
     7
421
 16777215
 74
     2
 91
        2
 64
     7
 65
   257
 75
     2
175
     1
 42
40.0
 92
        0
 66
   257
 43
1.0
 76
     1
 77
     6
 78
     2
 67
     7
 79
     3
170
     0
171
     0
290
     0
174
     0
 93
        1
 44
0.0
173
     0
291
     0
 45
0.0
  0
VISUALSTYLE
  5
3B
102
{ACAD_REACTORS
330
2A
102
}
102
{ACAD_XDICTIONARY
360
A4
102
}
330
2A
100
AcDbVisualStyle
  2
JitterOff
 70
    20
 71
     2
 72
     2
 73
     0
 90
        0
 40
0.6
 41
30.0
 62
     5
 63
     7
421
 16777215
 74
     1
 91
        4
 64
     7
 65
   257
 75
     1
175
     1
 42
1.0
 92
       10
 66
     7
 43
1.0
 76
     1
 77
     6
 78
     2
 67
     7
 79
     5
170
     0
171
     0
290
     0
174
     0
 93
        1
 44
0.0
173
     0
291
     1
 45
0.0
  0
VISUALSTYLE
  5
38
102
{ACAD_REACTORS
330
2A
102
}
102
{ACAD_XDICTIONARY
360
9E
102
}
330
2A
100
AcDbVisualStyle
  2
Linepattern
 70
    14
 71
     2
 72
     2
 73
     0
 90
        0
 40
0.6
 41
30.0
 62
     5
 63
     7
421
 16777215
 74
     1
 91
        4
 64
     7
 65
   257
 75
     7
175
     7
 42
1.0
 92
        8
 66
     7
 43
1.0
 76
     1
 77
     6
 78
     2
 67
     7
 79
     5
170
     0
171
     0
290
     0
174
     0
 93
        1
 44
0.0
173
     0
291
     1
 45
0.0
  0
VISUALSTYLE
  5
3C
102
{ACAD_REACTORS
330
2A
102
}
102
{ACAD_XDICTIONARY
360
A6
102
}
330
2A
100
AcDbVisualStyle
  2
OverhangOff
 70
    21
 71
     2
 72
     2
 73
     0
 90
        0
 40
0.6
 41
30.0
 62
     5
 63
     7
421
 16777215
 74
     1
 91
        4
 64
     7
 65
   257
 75
     1
175
     1
 42
1.0
 92
        9
 66
     7
 43
1.0
 76
     1
 77
     6
 78
     2
 67
     7
 79
     5
170
     0
171
     0
290
     0
174
     0
 93
        1
 44
0.0
173
     0
291
     1
 45
0.0
  0
VISUALSTYLE
  5
33
102
{ACAD_REACTORS
330
2A
102
}
102
{ACAD_XDICTIONARY
360
94
102
}
330
2A
100
AcDbVisualStyle
  2
Realistic
 70
     8
 71
     2
 72
     3
 73
     0
 90
        2
 40
0.6
 41
30.0
 62
     5
 63
     7
421
 16777215
 74
     0
 91
        0
 64
     7
 65
   257
 75
     1
175
     1
 42
1.0
 92
        8
 66
   257
 43
1.0
 76
     1
 77
     6
 78
     2
 67
     7
 79
     3
170
     0
171
     0
290
     0
174
     0
 93
       13
 44
0.0
173
     0
291
     0
 45
0.0
  0
VISUALSTYLE
  5
42
102
{ACAD_REACTORS
330
2A
102
}
102
{ACAD_XDICTIONARY
360
B2
102
}
330
2A
100
AcDbVisualStyle
  2
Shaded
 70
    27
 71
     2
 72
     2
 73
     1
 90
        2
 40
0.6
 41
30.0
 62
     5
 63
     7
421
 16777215
 74
     0
 91
        4
 64
     7
 65
   257
 75
     1
175
     1
 42
1.0
 92
        8
 66
   257
 43
1.0
 76
     1
 77
     6
 78
     2
 67
     8
425
  7895160
 79
     3
170
     0
171
     0
290
     0
174
     0
 93
        5
 44
0.0
173
     0
291
     0
 45
0.0
  0
VISUALSTYLE
  5
41
102
{ACAD_REACTORS
330
2A
102
}
102
{ACAD_XDICTIONARY
360
B0
102
}
330
2A
100
AcDbVisualStyle
  2
Shaded with edges
 70
    26
 71
     2
 72
     2
 73
     1
 90
        2
 40
0.6
 41
30.0
 62
     5
 63
     7
421
 16777215
 74
     1
 91
       10
 64
     7
 65
   257
 75
     2
175
     1
 42
1.0
 92
        8
 66
   257
 43
1.0
 76
     1
 77
     6
 78
     2
 67
     7
 79
     3
170
     0
171
     0
290
     0
174
     0
 93
        5
 44
0.0
173
     0
291
     0
 45
0.0
  0
VISUALSTYLE
  5
3E
102
{ACAD_REACTORS
330
2A
102
}
102
{ACAD_XDICTIONARY
360
AA
102
}
330
2A
100
AcDbVisualStyle
  2
Shades of Gray
 70
    23
 71
     2
 72
     2
 73
     3
 90
        0
 40
0.6
 41
30.0
 62
     5
 63
     7
421
 16777215
 74
     2
 91
        2
 64
     7
 65
     7
 75
     1
175
     1
 42
40.0
 92
        8
 66
     7
 43
1.0
 76
     1
 77
     6
 78
     2
 67
     7
 79
     3
170
     0
171
     0
290
     0
174
     0
 93
        1
 44
0.0
173
     0
291
     0
 45
0.0
  0
VISUALSTYLE
  5
3F
102
{ACAD_REACTORS
330
2A
102
}
102
{ACAD_XDICTIONARY
360
AC
102
}
330
2A
100
AcDbVisualStyle
  2
Sketchy
 70
    24
 71
     1
 72
     2
 73
     2
 90
        0
 40
0.6
 41
30.0
 62
     5
 63
     7
421
 16777215
 74
     2
 91
        2
 64
     7
 65
     7
 75
     1
175
     1
 42
40.0
 92
       11
 66
     7
 43
1.0
 76
     1
 77
     6
 78
     2
 67
     7
 79
     6
170
     0
171
     0
290
     0
174
     0
 93
        1
 44
0.0
173
     0
291
     0
 45
0.0
  0
VISUALSTYLE
  5
37
102
{ACAD_REACTORS
330
2A
102
}
102
{ACAD_XDICTIONARY
360
9C
102
}
330
2A
100
AcDbVisualStyle
  2
Thicken
 70
    13
 71
     2
 72
     2
 73
     0
 90
        0
 40
0.6
 41
30.0
 62
     5
 63
     7
421
 16777215
 74
     1
 91
        4
 64
     7
 65
   257
 75
     1
175
     1
 42
1.0
 92
       12
 66
     7
 43
1.0
 76
     1
 77
     6
 78
     2
 67
     7
 79
     5
170
     0
171
     0
290
     0
174
     0
 93
        1
 44
0.0
173
     0
291
     1
 45
0.0
  0
VISUALSTYLE
  5
30
102
{ACAD_REACTORS
330
2A
102
}
102
{ACAD_XDICTIONARY
360
8E
102
}
330
2A
100
AcDbVisualStyle
  2
Wireframe
 70
     5
 71
     0
 72
     2
 73
     0
 90
        0
 40
0.6
 41
30.0
 62
     5
 63
     7
421
 16777215
 74
     1
 91
        4
 64
     7
 65
   257
 75
     1
175
     1
 42
1.0
 92
        0
 66
   257
 43
1.0
 76
     1
 77
     6
 78
     2
 67
     7
 79
     3
170
     0
171
     0
290
     0
174
     0
 93
        1
 44
0.0
173
     0
291
     0
 45
0.0
  0
VISUALSTYLE
  5
40
102
{ACAD_REACTORS
330
2A
102
}
102
{ACAD_XDICTIONARY
360
AE
102
}
330
2A
100
AcDbVisualStyle
  2
X-Ray
 70
    25
 71
     2
 72
     2
 73
     1
 90
        1
 40
0.5
 41
30.0
 62
     5
 63
     7
421
 16777215
 74
     1
 91
        0
 64
     7
 65
   257
 75
     1
175
     1
 42
1.0
 92
        8
 66
     7
 43
1.0
 76
     1
 77
     6
 78
     2
 67
     7
 79
     3
170
     0
171
     0
290
     0
174
     0
 93
       13
 44
0.0
173
     0
291
     0
 45
0.0
  0
DICTIONARYVAR
  5
83
102
{ACAD_REACTORS
330
82
102
}
330
82
100
DictionaryVariables
280
     0
  1
1:1
  0
DICTIONARY
  5
8C
330
2F
100
AcDbDictionary
280
     1
281
     1
  3
ACAD_XREC_ROUNDTRIP
360
8D
  0
DICTIONARY
  5
92
330
32
100
AcDbDictionary
280
     1
281
     1
  3
ACAD_XREC_ROUNDTRIP
360
93
  0
DICTIONARY
  5
9A
330
36
100
AcDbDictionary
280
     1
281
     1
  3
ACAD_XREC_ROUNDTRIP
360
9B
  0
DICTIONARY
  5
A2
330
3A
100
AcDbDictionary
280
     1
281
     1
  3
ACAD_XREC_ROUNDTRIP
360
A3
  0
DICTIONARY
  5
96
330
34
100
AcDbDictionary
280
     1
281
     1
  3
ACAD_XREC_ROUNDTRIP
360
97
  0
DICTIONARY
  5
98
330
35
100
AcDbDictionary
280
     1
281
     1
  3
ACAD_XREC_ROUNDTRIP
360
99
  0
DICTIONARY
  5
A8
330
3D
100
AcDbDictionary
280
     1
281
     1
  3
ACAD_XREC_ROUNDTRIP
360
A9
  0
DICTIONARY
  5
A0
330
39
100
AcDbDictionary
280
     1
281
     1
  3
ACAD_XREC_ROUNDTRIP
360
A1
  0
DICTIONARY
  5
84
330
2B
100
AcDbDictionary
280
     1
281
     1
  3
ACAD_XREC_ROUNDTRIP
360
85
  0
DICTIONARY
  5
86
330
2C
100
AcDbDictionary
280
     1
281
     1
  3
ACAD_XREC_ROUNDTRIP
360
87
  0
DICTIONARY
  5
88
330
2D
100
AcDbDictionary
280
     1
281
     1
  3
ACAD_XREC_ROUNDTRIP
360
89
  0
DICTIONARY
  5
8A
330
2E
100
AcDbDictionary
280
     1
281
     1
  3
ACAD_XREC_ROUNDTRIP
360
8B
  0
DICTIONARY
  5
90
330
31
100
AcDbDictionary
280
     1
281
     1
  3
ACAD_XREC_ROUNDTRIP
360
91
  0
DICTIONARY
  5
A4
330
3B
100
AcDbDictionary
280
     1
281
     1
  3
ACAD_XREC_ROUNDTRIP
360
A5
  0
DICTIONARY
  5
9E
330
38
100
AcDbDictionary
280
     1
281
     1
  3
ACAD_XREC_ROUNDTRIP
360
9F
  0
DICTIONARY
  5
A6
330
3C
100
AcDbDictionary
280
     1
281
     1
  3
ACAD_XREC_ROUNDTRIP
360
A7
  0
DICTIONARY
  5
94
330
33
100
AcDbDictionary
280
     1
281
     1
  3
ACAD_XREC_ROUNDTRIP
360
95
  0
DICTIONARY
  5
B2
330
42
100
AcDbDictionary
280
     1
281
     1
  3
ACAD_XREC_ROUNDTRIP
360
B3
  0
DICTIONARY
  5
B0
330
41
100
AcDbDictionary
280
     1
281
     1
  3
ACAD_XREC_ROUNDTRIP
360
B1
  0
DICTIONARY
  5
AA
330
3E
100
AcDbDictionary
280
     1
281
     1
  3
ACAD_XREC_ROUNDTRIP
360
AB
  0
DICTIONARY
  5
AC
330
3F
100
AcDbDictionary
280
     1
281
     1
  3
ACAD_XREC_ROUNDTRIP
360
AD
  0
DICTIONARY
  5
9C
330
37
100
AcDbDictionary
280
     1
281
     1
  3
ACAD_XREC_ROUNDTRIP
360
9D
  0
DICTIONARY
  5
8E
330
30
100
AcDbDictionary
280
     1
281
     1
  3
ACAD_XREC_ROUNDTRIP
360
8F
  0
DICTIONARY
  5
AE
330
40
100
AcDbDictionary
280
     1
281
     1
  3
ACAD_XREC_ROUNDTRIP
360
AF
  0
XRECORD
  5
8D
102
{ACAD_REACTORS
330
8C
102
}
330
8C
100
AcDbXrecord
280
     1
102
RTVSPropertyOp0
 70
     1
102
RTVSPropertyOp1
 70
     1
102
RTVSPropertyOp2
 70
     1
102
RTVSPropertyOp3
 70
     1
102
RTVSPropertyOp4
 70
     1
102
RTVSPropertyOp5
 70
     1
102
RTVSPropertyOp6
 70
     1
102
RTVSPropertyOp7
 70
     1
102
RTVSPropertyOp8
 70
     1
102
RTVSPropertyOp9
 70
     1
102
RTVSPropertyOp10
 70
     1
102
RTVSPropertyOp11
 70
     1
102
RTVSPropertyOp12
 70
     1
102
RTVSPropertyOp13
 70
     1
102
RTVSPropertyOp14
 70
     1
102
RTVSPropertyOp15
 70
     1
102
RTVSPropertyOp16
 70
     1
102
RTVSPropertyOp17
 70
     1
102
RTVSPropertyOp18
 70
     1
102
RTVSPropertyOp19
 70
     1
102
RTVSPropertyOp20
 70
     1
102
RTVSPropertyOp21
 70
     1
102
RTVSPropertyOp22
 70
     1
102
RTVSPropertyOp23
 70
     1
102
RTVSPropertyOp24
 70
     1
102
RTVSPropertyOp25
 70
     1
102
RTVSPropertyOp26
 70
     1
102
RTVSPropertyOp27
 70
     1
102
RTVSPropertyOp28
 70
     1
102
RTVSPropertyOp29
 70
     1
102
RTVSPropertyOp30
 70
     1
102
RTVSPropertyOp31
 70
     1
102
RTVSPropertyOp32
 70
     1
102
RTVSPropertyOp33
 70
     1
102
RTVSPropertyOp34
 70
     1
102
RTVSPropertyOp35
 70
     1
102
RTVSPropertyOp36
 70
     1
102
RTVSPropertyOp37
 70
     1
102
RTVSPropertyOp38
 70
     1
102
RTVSPropertyOp39
 70
     1
102
RTVSPropertyOp40
 70
     1
102
RTVSPropertyOp41
 70
     1
102
RTVSPropertyOp42
 70
     1
102
RTVSPropertyOp43
 70
     1
102
RTVSPropertyOp44
 70
     1
102
RTVSPropertyOp45
 70
     1
102
RTVSPropertyOp46
 70
     1
102
RTVSPropertyOp47
 70
     1
102
RTVSPropertyOp48
 70
     1
102
RTVSPropertyOp49
 70
     1
102
RTVSPropertyOp50
 70
     1
102
RTVSPropertyOp51
 70
     0
102
RTVSPropertyOp52
 70
     0
102
RTVSPropertyOp53
 70
     1
102
RTVSPropertyOp54
 70
     1
102
RTVSPropertyOp55
 70
     1
102
RTVSPropertyOp56
 70
     1
102
RTVSPropertyOp57
 70
     1
102
RTVSPost2010Prop28
280
     1
102
RTVSPost2010PropOp28
 70
     1
102
RTVSPost2010Prop29
280
     1
102
RTVSPost2010PropOp29
 70
     1
102
RTVSPost2010Prop30
280
     0
102
RTVSPost2010PropOp30
 70
     1
102
RTVSPost2010Prop31
280
     0
102
RTVSPost2010PropOp31
 70
     1
102
RTVSPost2010Prop32
280
     0
102
RTVSPost2010PropOp32
 70
     1
102
RTVSPost2010Prop33
280
     0
102
RTVSPost2010PropOp33
 70
     1
102
RTVSPost2010Prop34
280
     0
102
RTVSPost2010PropOp34
 70
     1
102
RTVSPost2010Prop35
280
     0
102
RTVSPost2010PropOp35
 70
     1
102
RTVSPost2010Prop36
280
     0
102
RTVSPost2010PropOp36
 70
     1
102
RTVSPost2010Prop37
 90
       50
102
RTVSPost2010PropOp37
 70
     1
102
RTVSPost2010Prop38
140
0.0
102
RTVSPost2010PropOp38
 70
     1
102
RTVSPost2010Prop39
140
1.0
102
RTVSPost2010PropOp39
 70
     1
102
RTVSPost2010Prop40
 90
        0
102
RTVSPost2010PropOp40
 70
     1
102
RTVSPost2010Prop41ColorIndex
 90
       18
102
RTVSPost2010Prop41ColorRGB
 90
        0
102
RTVSPost2010PropOp41
 70
     1
102
RTVSPost2010Prop42
 90
       50
102
RTVSPost2010PropOp42
 70
     1
102
RTVSPost2010Prop43
 90
        3
102
RTVSPost2010PropOp43
 70
     1
102
RTVSPost2010Prop44ColorIndex
 90
        5
102
RTVSPost2010Prop44ColorRGB
 90
      255
102
RTVSPost2010PropOp44
 70
     1
102
RTVSPost2010Prop45
280
     0
102
RTVSPost2010PropOp45
 70
     1
102
RTVSPost2010Prop46
 90
       50
102
RTVSPost2010PropOp46
 70
     1
102
RTVSPost2010Prop47
 90
       50
102
RTVSPost2010PropOp47
 70
     1
102
RTVSPost2010Prop48
 90
       50
102
RTVSPost2010PropOp48
 70
     1
102
RTVSPost2010Prop49
280
     0
102
RTVSPost2010PropOp49
 70
     1
102
RTVSPost2010Prop50
 90
       50
102
RTVSPost2010PropOp50
 70
     1
102
RTVSPost2010Prop51ColorIndex
 90
      256
102
RTVSPost2010Prop51ColorRGB
 90
-16777216
102
RTVSPost2010PropOp51
 70
     0
102
RTVSPost2010Prop52
140
1.0
102
RTVSPost2010PropOp52
 70
     0
102
RTVSPost2010Prop53
 90
        2
102
RTVSPost2010PropOp53
 70
     1
102
RTVSPost2010Prop54
  1
strokes_ogs.tif
102
RTVSPost2010PropOp54
 70
     1
102
RTVSPost2010Prop55
280
     0
102
RTVSPost2010PropOp55
 70
     1
102
RTVSPost2010Prop56
140
1.0
102
RTVSPost2010PropOp56
 70
     1
102
RTVSPost2010Prop57
140
1.0
102
RTVSPost2010PropOp57
 70
     1
  0
XRECORD
  5
93
102
{ACAD_REACTORS
330
92
102
}
330
92
100
AcDbXrecord
280
     1
102
RTVSPropertyOp0
 70
     1
102
RTVSPropertyOp1
 70
     1
102
RTVSPropertyOp2
 70
     1
102
RTVSPropertyOp3
 70
     1
102
RTVSPropertyOp4
 70
     1
102
RTVSPropertyOp5
 70
     1
102
RTVSPropertyOp6
 70
     1
102
RTVSPropertyOp7
 70
     1
102
RTVSPropertyOp8
 70
     1
102
RTVSPropertyOp9
 70
     1
102
RTVSPropertyOp10
 70
     1
102
RTVSPropertyOp11
 70
     1
102
RTVSPropertyOp12
 70
     1
102
RTVSPropertyOp13
 70
     1
102
RTVSPropertyOp14
 70
     1
102
RTVSPropertyOp15
 70
     1
102
RTVSPropertyOp16
 70
     1
102
RTVSPropertyOp17
 70
     1
102
RTVSPropertyOp18
 70
     1
102
RTVSPropertyOp19
 70
     1
102
RTVSPropertyOp20
 70
     1
102
RTVSPropertyOp21
 70
     1
102
RTVSPropertyOp22
 70
     1
102
RTVSPropertyOp23
 70
     1
102
RTVSPropertyOp24
 70
     1
102
RTVSPropertyOp25
 70
     1
102
RTVSPropertyOp26
 70
     1
102
RTVSPropertyOp27
 70
     1
102
RTVSPropertyOp28
 70
     1
102
RTVSPropertyOp29
 70
     1
102
RTVSPropertyOp30
 70
     1
102
RTVSPropertyOp31
 70
     1
102
RTVSPropertyOp32
 70
     1
102
RTVSPropertyOp33
 70
     1
102
RTVSPropertyOp34
 70
     1
102
RTVSPropertyOp35
 70
     1
102
RTVSPropertyOp36
 70
     1
102
RTVSPropertyOp37
 70
     1
102
RTVSPropertyOp38
 70
     1
102
RTVSPropertyOp39
 70
     1
102
RTVSPropertyOp40
 70
     1
102
RTVSPropertyOp41
 70
     1
102
RTVSPropertyOp42
 70
     1
102
RTVSPropertyOp43
 70
     1
102
RTVSPropertyOp44
 70
     1
102
RTVSPropertyOp45
 70
     1
102
RTVSPropertyOp46
 70
     1
102
RTVSPropertyOp47
 70
     1
102
RTVSPropertyOp48
 70
     1
102
RTVSPropertyOp49
 70
     1
102
RTVSPropertyOp50
 70
     1
102
RTVSPropertyOp51
 70
     0
102
RTVSPropertyOp52
 70
     0
102
RTVSPropertyOp53
 70
     1
102
RTVSPropertyOp54
 70
     1
102
RTVSPropertyOp55
 70
     1
102
RTVSPropertyOp56
 70
     1
102
RTVSPropertyOp57
 70
     1
102
RTVSPost2010Prop28
280
     0
102
RTVSPost2010PropOp28
 70
     1
102
RTVSPost2010Prop29
280
     1
102
RTVSPost2010PropOp29
 70
     1
102
RTVSPost2010Prop30
280
     1
102
RTVSPost2010PropOp30
 70
     1
102
RTVSPost2010Prop31
280
     0
102
RTVSPost2010PropOp31
 70
     1
102
RTVSPost2010Prop32
280
     0
102
RTVSPost2010PropOp32
 70
     1
102
RTVSPost2010Prop33
280
     0
102
RTVSPost2010PropOp33
 70
     1
102
RTVSPost2010Prop34
280
     0
102
RTVSPost2010PropOp34
 70
     1
102
RTVSPost2010Prop35
280
     0
102
RTVSPost2010PropOp35
 70
     1
102
RTVSPost2010Prop36
280
     0
102
RTVSPost2010PropOp36
 70
     1
102
RTVSPost2010Prop37
 90
       50
102
RTVSPost2010PropOp37
 70
     1
102
RTVSPost2010Prop38
140
0.0
102
RTVSPost2010PropOp38
 70
     1
102
RTVSPost2010Prop39
140
1.0
102
RTVSPost2010PropOp39
 70
     1
102
RTVSPost2010Prop40
 90
        0
102
RTVSPost2010PropOp40
 70
     1
102
RTVSPost2010Prop41ColorIndex
 90
       18
102
RTVSPost2010Prop41ColorRGB
 90
        0
102
RTVSPost2010PropOp41
 70
     1
102
RTVSPost2010Prop42
 90
       50
102
RTVSPost2010PropOp42
 70
     1
102
RTVSPost2010Prop43
 90
        3
102
RTVSPost2010PropOp43
 70
     1
102
RTVSPost2010Prop44ColorIndex
 90
        5
102
RTVSPost2010Prop44ColorRGB
 90
      255
102
RTVSPost2010PropOp44
 70
     1
102
RTVSPost2010Prop45
280
     0
102
RTVSPost2010PropOp45
 70
     1
102
RTVSPost2010Prop46
 90
       50
102
RTVSPost2010PropOp46
 70
     1
102
RTVSPost2010Prop47
 90
       50
102
RTVSPost2010PropOp47
 70
     1
102
RTVSPost2010Prop48
 90
       50
102
RTVSPost2010PropOp48
 70
     1
102
RTVSPost2010Prop49
280
     0
102
RTVSPost2010PropOp49
 70
     1
102
RTVSPost2010Prop50
 90
       50
102
RTVSPost2010PropOp50
 70
     1
102
RTVSPost2010Prop51ColorIndex
 90
      256
102
RTVSPost2010Prop51ColorRGB
 90
-16777216
102
RTVSPost2010PropOp51
 70
     0
102
RTVSPost2010Prop52
140
1.0
102
RTVSPost2010PropOp52
 70
     0
102
RTVSPost2010Prop53
 90
        2
102
RTVSPost2010PropOp53
 70
     1
102
RTVSPost2010Prop54
  1
strokes_ogs.tif
102
RTVSPost2010PropOp54
 70
     1
102
RTVSPost2010Prop55
280
     0
102
RTVSPost2010PropOp55
 70
     1
102
RTVSPost2010Prop56
140
1.0
102
RTVSPost2010PropOp56
 70
     1
102
RTVSPost2010Prop57
140
1.0
102
RTVSPost2010PropOp57
 70
     1
  0
XRECORD
  5
9B
102
{ACAD_REACTORS
330
9A
102
}
330
9A
100
AcDbXrecord
280
     1
102
RTVSPropertyOp0
 70
     1
102
RTVSPropertyOp1
 70
     1
102
RTVSPropertyOp2
 70
     1
102
RTVSPropertyOp3
 70
     1
102
RTVSPropertyOp4
 70
     1
102
RTVSPropertyOp5
 70
     1
102
RTVSPropertyOp6
 70
     1
102
RTVSPropertyOp7
 70
     1
102
RTVSPropertyOp8
 70
     1
102
RTVSPropertyOp9
 70
     1
102
RTVSPropertyOp10
 70
     1
102
RTVSPropertyOp11
 70
     1
102
RTVSPropertyOp12
 70
     1
102
RTVSPropertyOp13
 70
     1
102
RTVSPropertyOp14
 70
     1
102
RTVSPropertyOp15
 70
     1
102
RTVSPropertyOp16
 70
     1
102
RTVSPropertyOp17
 70
     1
102
RTVSPropertyOp18
 70
     1
102
RTVSPropertyOp19
 70
     1
102
RTVSPropertyOp20
 70
     1
102
RTVSPropertyOp21
 70
     1
102
RTVSPropertyOp22
 70
     1
102
RTVSPropertyOp23
 70
     1
102
RTVSPropertyOp24
 70
     1
102
RTVSPropertyOp25
 70
     1
102
RTVSPropertyOp26
 70
     1
102
RTVSPropertyOp27
 70
     1
102
RTVSPropertyOp28
 70
     1
102
RTVSPropertyOp29
 70
     1
102
RTVSPropertyOp30
 70
     1
102
RTVSPropertyOp31
 70
     1
102
RTVSPropertyOp32
 70
     1
102
RTVSPropertyOp33
 70
     1
102
RTVSPropertyOp34
 70
     1
102
RTVSPropertyOp35
 70
     1
102
RTVSPropertyOp36
 70
     1
102
RTVSPropertyOp37
 70
     1
102
RTVSPropertyOp38
 70
     1
102
RTVSPropertyOp39
 70
     1
102
RTVSPropertyOp40
 70
     1
102
RTVSPropertyOp41
 70
     1
102
RTVSPropertyOp42
 70
     1
102
RTVSPropertyOp43
 70
     1
102
RTVSPropertyOp44
 70
     1
102
RTVSPropertyOp45
 70
     1
102
RTVSPropertyOp46
 70
     1
102
RTVSPropertyOp47
 70
     1
102
RTVSPropertyOp48
 70
     1
102
RTVSPropertyOp49
 70
     1
102
RTVSPropertyOp50
 70
     1
102
RTVSPropertyOp51
 70
     0
102
RTVSPropertyOp52
 70
     0
102
RTVSPropertyOp53
 70
     1
102
RTVSPropertyOp54
 70
     1
102
RTVSPropertyOp55
 70
     1
102
RTVSPropertyOp56
 70
     1
102
RTVSPropertyOp57
 70
     1
102
RTVSPost2010Prop28
280
     0
102
RTVSPost2010PropOp28
 70
     1
102
RTVSPost2010Prop29
280
     1
102
RTVSPost2010PropOp29
 70
     1
102
RTVSPost2010Prop30
280
     1
102
RTVSPost2010PropOp30
 70
     1
102
RTVSPost2010Prop31
280
     0
102
RTVSPost2010PropOp31
 70
     1
102
RTVSPost2010Prop32
280
     0
102
RTVSPost2010PropOp32
 70
     1
102
RTVSPost2010Prop33
280
     0
102
RTVSPost2010PropOp33
 70
     1
102
RTVSPost2010Prop34
280
     0
102
RTVSPost2010PropOp34
 70
     1
102
RTVSPost2010Prop35
280
     0
102
RTVSPost2010PropOp35
 70
     1
102
RTVSPost2010Prop36
280
     0
102
RTVSPost2010PropOp36
 70
     1
102
RTVSPost2010Prop37
 90
       50
102
RTVSPost2010PropOp37
 70
     1
102
RTVSPost2010Prop38
140
0.0
102
RTVSPost2010PropOp38
 70
     1
102
RTVSPost2010Prop39
140
1.0
102
RTVSPost2010PropOp39
 70
     1
102
RTVSPost2010Prop40
 90
        0
102
RTVSPost2010PropOp40
 70
     1
102
RTVSPost2010Prop41ColorIndex
 90
       18
102
RTVSPost2010Prop41ColorRGB
 90
        0
102
RTVSPost2010PropOp41
 70
     1
102
RTVSPost2010Prop42
 90
       50
102
RTVSPost2010PropOp42
 70
     1
102
RTVSPost2010Prop43
 90
        3
102
RTVSPost2010PropOp43
 70
     1
102
RTVSPost2010Prop44ColorIndex
 90
        5
102
RTVSPost2010Prop44ColorRGB
 90
      255
102
RTVSPost2010PropOp44
 70
     1
102
RTVSPost2010Prop45
280
     0
102
RTVSPost2010PropOp45
 70
     1
102
RTVSPost2010Prop46
 90
       50
102
RTVSPost2010PropOp46
 70
     1
102
RTVSPost2010Prop47
 90
       50
102
RTVSPost2010PropOp47
 70
     1
102
RTVSPost2010Prop48
 90
       50
102
RTVSPost2010PropOp48
 70
     1
102
RTVSPost2010Prop49
280
     0
102
RTVSPost2010PropOp49
 70
     1
102
RTVSPost2010Prop50
 90
       50
102
RTVSPost2010PropOp50
 70
     1
102
RTVSPost2010Prop51ColorIndex
 90
      256
102
RTVSPost2010Prop51ColorRGB
 90
-16777216
102
RTVSPost2010PropOp51
 70
     0
102
RTVSPost2010Prop52
140
1.0
102
RTVSPost2010PropOp52
 70
     0
102
RTVSPost2010Prop53
 90
        2
102
RTVSPost2010PropOp53
 70
     1
102
RTVSPost2010Prop54
  1
strokes_ogs.tif
102
RTVSPost2010PropOp54
 70
     1
102
RTVSPost2010Prop55
280
     0
102
RTVSPost2010PropOp55
 70
     1
102
RTVSPost2010Prop56
140
1.0
102
RTVSPost2010PropOp56
 70
     1
102
RTVSPost2010Prop57
140
1.0
102
RTVSPost2010PropOp57
 70
     1
  0
XRECORD
  5
A3
102
{ACAD_REACTORS
330
A2
102
}
330
A2
100
AcDbXrecord
280
     1
102
RTVSPropertyOp0
 70
     1
102
RTVSPropertyOp1
 70
     1
102
RTVSPropertyOp2
 70
     1
102
RTVSPropertyOp3
 70
     1
102
RTVSPropertyOp4
 70
     1
102
RTVSPropertyOp5
 70
     1
102
RTVSPropertyOp6
 70
     1
102
RTVSPropertyOp7
 70
     1
102
RTVSPropertyOp8
 70
     1
102
RTVSPropertyOp9
 70
     1
102
RTVSPropertyOp10
 70
     1
102
RTVSPropertyOp11
 70
     1
102
RTVSPropertyOp12
 70
     1
102
RTVSPropertyOp13
 70
     1
102
RTVSPropertyOp14
 70
     1
102
RTVSPropertyOp15
 70
     1
102
RTVSPropertyOp16
 70
     1
102
RTVSPropertyOp17
 70
     1
102
RTVSPropertyOp18
 70
     1
102
RTVSPropertyOp19
 70
     1
102
RTVSPropertyOp20
 70
     1
102
RTVSPropertyOp21
 70
     1
102
RTVSPropertyOp22
 70
     1
102
RTVSPropertyOp23
 70
     1
102
RTVSPropertyOp24
 70
     1
102
RTVSPropertyOp25
 70
     1
102
RTVSPropertyOp26
 70
     1
102
RTVSPropertyOp27
 70
     1
102
RTVSPropertyOp28
 70
     1
102
RTVSPropertyOp29
 70
     1
102
RTVSPropertyOp30
 70
     1
102
RTVSPropertyOp31
 70
     1
102
RTVSPropertyOp32
 70
     1
102
RTVSPropertyOp33
 70
     1
102
RTVSPropertyOp34
 70
     1
102
RTVSPropertyOp35
 70
     1
102
RTVSPropertyOp36
 70
     1
102
RTVSPropertyOp37
 70
     1
102
RTVSPropertyOp38
 70
     1
102
RTVSPropertyOp39
 70
     1
102
RTVSPropertyOp40
 70
     1
102
RTVSPropertyOp41
 70
     1
102
RTVSPropertyOp42
 70
     1
102
RTVSPropertyOp43
 70
     1
102
RTVSPropertyOp44
 70
     1
102
RTVSPropertyOp45
 70
     1
102
RTVSPropertyOp46
 70
     1
102
RTVSPropertyOp47
 70
     1
102
RTVSPropertyOp48
 70
     1
102
RTVSPropertyOp49
 70
     1
102
RTVSPropertyOp50
 70
     1
102
RTVSPropertyOp51
 70
     0
102
RTVSPropertyOp52
 70
     0
102
RTVSPropertyOp53
 70
     1
102
RTVSPropertyOp54
 70
     1
102
RTVSPropertyOp55
 70
     1
102
RTVSPropertyOp56
 70
     1
102
RTVSPropertyOp57
 70
     1
102
RTVSPost2010Prop28
280
     0
102
RTVSPost2010PropOp28
 70
     1
102
RTVSPost2010Prop29
280
     1
102
RTVSPost2010PropOp29
 70
     1
102
RTVSPost2010Prop30
280
     1
102
RTVSPost2010PropOp30
 70
     1
102
RTVSPost2010Prop31
280
     0
102
RTVSPost2010PropOp31
 70
     1
102
RTVSPost2010Prop32
280
     0
102
RTVSPost2010PropOp32
 70
     1
102
RTVSPost2010Prop33
280
     0
102
RTVSPost2010PropOp33
 70
     1
102
RTVSPost2010Prop34
280
     0
102
RTVSPost2010PropOp34
 70
     1
102
RTVSPost2010Prop35
280
     0
102
RTVSPost2010PropOp35
 70
     1
102
RTVSPost2010Prop36
280
     0
102
RTVSPost2010PropOp36
 70
     1
102
RTVSPost2010Prop37
 90
       50
102
RTVSPost2010PropOp37
 70
     1
102
RTVSPost2010Prop38
140
0.0
102
RTVSPost2010PropOp38
 70
     1
102
RTVSPost2010Prop39
140
1.0
102
RTVSPost2010PropOp39
 70
     1
102
RTVSPost2010Prop40
 90
        0
102
RTVSPost2010PropOp40
 70
     1
102
RTVSPost2010Prop41ColorIndex
 90
       18
102
RTVSPost2010Prop41ColorRGB
 90
        0
102
RTVSPost2010PropOp41
 70
     1
102
RTVSPost2010Prop42
 90
       50
102
RTVSPost2010PropOp42
 70
     1
102
RTVSPost2010Prop43
 90
        3
102
RTVSPost2010PropOp43
 70
     1
102
RTVSPost2010Prop44ColorIndex
 90
        5
102
RTVSPost2010Prop44ColorRGB
 90
      255
102
RTVSPost2010PropOp44
 70
     1
102
RTVSPost2010Prop45
280
     0
102
RTVSPost2010PropOp45
 70
     1
102
RTVSPost2010Prop46
 90
       50
102
RTVSPost2010PropOp46
 70
     1
102
RTVSPost2010Prop47
 90
       50
102
RTVSPost2010PropOp47
 70
     1
102
RTVSPost2010Prop48
 90
       50
102
RTVSPost2010PropOp48
 70
     1
102
RTVSPost2010Prop49
280
     0
102
RTVSPost2010PropOp49
 70
     1
102
RTVSPost2010Prop50
 90
       50
102
RTVSPost2010PropOp50
 70
     1
102
RTVSPost2010Prop51ColorIndex
 90
      256
102
RTVSPost2010Prop51ColorRGB
 90
-16777216
102
RTVSPost2010PropOp51
 70
     0
102
RTVSPost2010Prop52
140
1.0
102
RTVSPost2010PropOp52
 70
     0
102
RTVSPost2010Prop53
 90
        2
102
RTVSPost2010PropOp53
 70
     1
102
RTVSPost2010Prop54
  1
strokes_ogs.tif
102
RTVSPost2010PropOp54
 70
     1
102
RTVSPost2010Prop55
280
     0
102
RTVSPost2010PropOp55
 70
     1
102
RTVSPost2010Prop56
140
1.0
102
RTVSPost2010PropOp56
 70
     1
102
RTVSPost2010Prop57
140
1.0
102
RTVSPost2010PropOp57
 70
     1
  0
XRECORD
  5
97
102
{ACAD_REACTORS
330
96
102
}
330
96
100
AcDbXrecord
280
     1
102
RTVSPropertyOp0
 70
     1
102
RTVSPropertyOp1
 70
     1
102
RTVSPropertyOp2
 70
     1
102
RTVSPropertyOp3
 70
     1
102
RTVSPropertyOp4
 70
     1
102
RTVSPropertyOp5
 70
     1
102
RTVSPropertyOp6
 70
     1
102
RTVSPropertyOp7
 70
     1
102
RTVSPropertyOp8
 70
     1
102
RTVSPropertyOp9
 70
     1
102
RTVSPropertyOp10
 70
     1
102
RTVSPropertyOp11
 70
     1
102
RTVSPropertyOp12
 70
     1
102
RTVSPropertyOp13
 70
     1
102
RTVSPropertyOp14
 70
     1
102
RTVSPropertyOp15
 70
     1
102
RTVSPropertyOp16
 70
     1
102
RTVSPropertyOp17
 70
     1
102
RTVSPropertyOp18
 70
     1
102
RTVSPropertyOp19
 70
     1
102
RTVSPropertyOp20
 70
     1
102
RTVSPropertyOp21
 70
     1
102
RTVSPropertyOp22
 70
     1
102
RTVSPropertyOp23
 70
     1
102
RTVSPropertyOp24
 70
     1
102
RTVSPropertyOp25
 70
     1
102
RTVSPropertyOp26
 70
     1
102
RTVSPropertyOp27
 70
     1
102
RTVSPropertyOp28
 70
     1
102
RTVSPropertyOp29
 70
     1
102
RTVSPropertyOp30
 70
     1
102
RTVSPropertyOp31
 70
     1
102
RTVSPropertyOp32
 70
     1
102
RTVSPropertyOp33
 70
     1
102
RTVSPropertyOp34
 70
     1
102
RTVSPropertyOp35
 70
     1
102
RTVSPropertyOp36
 70
     1
102
RTVSPropertyOp37
 70
     1
102
RTVSPropertyOp38
 70
     1
102
RTVSPropertyOp39
 70
     1
102
RTVSPropertyOp40
 70
     1
102
RTVSPropertyOp41
 70
     1
102
RTVSPropertyOp42
 70
     1
102
RTVSPropertyOp43
 70
     1
102
RTVSPropertyOp44
 70
     1
102
RTVSPropertyOp45
 70
     1
102
RTVSPropertyOp46
 70
     1
102
RTVSPropertyOp47
 70
     1
102
RTVSPropertyOp48
 70
     1
102
RTVSPropertyOp49
 70
     1
102
RTVSPropertyOp50
 70
     1
102
RTVSPropertyOp51
 70
     0
102
RTVSPropertyOp52
 70
     0
102
RTVSPropertyOp53
 70
     1
102
RTVSPropertyOp54
 70
     1
102
RTVSPropertyOp55
 70
     1
102
RTVSPropertyOp56
 70
     1
102
RTVSPropertyOp57
 70
     1
102
RTVSPost2010Prop28
280
     0
102
RTVSPost2010PropOp28
 70
     1
102
RTVSPost2010Prop29
280
     1
102
RTVSPost2010PropOp29
 70
     1
102
RTVSPost2010Prop30
280
     1
102
RTVSPost2010PropOp30
 70
     1
102
RTVSPost2010Prop31
280
     0
102
RTVSPost2010PropOp31
 70
     1
102
RTVSPost2010Prop32
280
     0
102
RTVSPost2010PropOp32
 70
     1
102
RTVSPost2010Prop33
280
     0
102
RTVSPost2010PropOp33
 70
     1
102
RTVSPost2010Prop34
280
     0
102
RTVSPost2010PropOp34
 70
     1
102
RTVSPost2010Prop35
280
     0
102
RTVSPost2010PropOp35
 70
     1
102
RTVSPost2010Prop36
280
     0
102
RTVSPost2010PropOp36
 70
     1
102
RTVSPost2010Prop37
 90
       50
102
RTVSPost2010PropOp37
 70
     1
102
RTVSPost2010Prop38
140
0.0
102
RTVSPost2010PropOp38
 70
     1
102
RTVSPost2010Prop39
140
1.0
102
RTVSPost2010PropOp39
 70
     1
102
RTVSPost2010Prop40
 90
        0
102
RTVSPost2010PropOp40
 70
     1
102
RTVSPost2010Prop41ColorIndex
 90
       18
102
RTVSPost2010Prop41ColorRGB
 90
        0
102
RTVSPost2010PropOp41
 70
     1
102
RTVSPost2010Prop42
 90
       50
102
RTVSPost2010PropOp42
 70
     1
102
RTVSPost2010Prop43
 90
        3
102
RTVSPost2010PropOp43
 70
     1
102
RTVSPost2010Prop44ColorIndex
 90
        5
102
RTVSPost2010Prop44ColorRGB
 90
      255
102
RTVSPost2010PropOp44
 70
     1
102
RTVSPost2010Prop45
280
     0
102
RTVSPost2010PropOp45
 70
     1
102
RTVSPost2010Prop46
 90
       50
102
RTVSPost2010PropOp46
 70
     1
102
RTVSPost2010Prop47
 90
       50
102
RTVSPost2010PropOp47
 70
     1
102
RTVSPost2010Prop48
 90
       50
102
RTVSPost2010PropOp48
 70
     1
102
RTVSPost2010Prop49
280
     0
102
RTVSPost2010PropOp49
 70
     1
102
RTVSPost2010Prop50
 90
       50
102
RTVSPost2010PropOp50
 70
     1
102
RTVSPost2010Prop51ColorIndex
 90
      256
102
RTVSPost2010Prop51ColorRGB
 90
-16777216
102
RTVSPost2010PropOp51
 70
     0
102
RTVSPost2010Prop52
140
1.0
102
RTVSPost2010PropOp52
 70
     0
102
RTVSPost2010Prop53
 90
        2
102
RTVSPost2010PropOp53
 70
     1
102
RTVSPost2010Prop54
  1
strokes_ogs.tif
102
RTVSPost2010PropOp54
 70
     1
102
RTVSPost2010Prop55
280
     0
102
RTVSPost2010PropOp55
 70
     1
102
RTVSPost2010Prop56
140
1.0
102
RTVSPost2010PropOp56
 70
     1
102
RTVSPost2010Prop57
140
1.0
102
RTVSPost2010PropOp57
 70
     1
  0
XRECORD
  5
99
102
{ACAD_REACTORS
330
98
102
}
330
98
100
AcDbXrecord
280
     1
102
RTVSPropertyOp0
 70
     1
102
RTVSPropertyOp1
 70
     1
102
RTVSPropertyOp2
 70
     1
102
RTVSPropertyOp3
 70
     1
102
RTVSPropertyOp4
 70
     1
102
RTVSPropertyOp5
 70
     1
102
RTVSPropertyOp6
 70
     1
102
RTVSPropertyOp7
 70
     1
102
RTVSPropertyOp8
 70
     1
102
RTVSPropertyOp9
 70
     1
102
RTVSPropertyOp10
 70
     1
102
RTVSPropertyOp11
 70
     1
102
RTVSPropertyOp12
 70
     1
102
RTVSPropertyOp13
 70
     1
102
RTVSPropertyOp14
 70
     1
102
RTVSPropertyOp15
 70
     1
102
RTVSPropertyOp16
 70
     1
102
RTVSPropertyOp17
 70
     1
102
RTVSPropertyOp18
 70
     1
102
RTVSPropertyOp19
 70
     1
102
RTVSPropertyOp20
 70
     1
102
RTVSPropertyOp21
 70
     1
102
RTVSPropertyOp22
 70
     1
102
RTVSPropertyOp23
 70
     1
102
RTVSPropertyOp24
 70
     1
102
RTVSPropertyOp25
 70
     1
102
RTVSPropertyOp26
 70
     1
102
RTVSPropertyOp27
 70
     1
102
RTVSPropertyOp28
 70
     1
102
RTVSPropertyOp29
 70
     1
102
RTVSPropertyOp30
 70
     1
102
RTVSPropertyOp31
 70
     1
102
RTVSPropertyOp32
 70
     1
102
RTVSPropertyOp33
 70
     1
102
RTVSPropertyOp34
 70
     1
102
RTVSPropertyOp35
 70
     1
102
RTVSPropertyOp36
 70
     1
102
RTVSPropertyOp37
 70
     1
102
RTVSPropertyOp38
 70
     1
102
RTVSPropertyOp39
 70
     1
102
RTVSPropertyOp40
 70
     1
102
RTVSPropertyOp41
 70
     1
102
RTVSPropertyOp42
 70
     1
102
RTVSPropertyOp43
 70
     1
102
RTVSPropertyOp44
 70
     1
102
RTVSPropertyOp45
 70
     1
102
RTVSPropertyOp46
 70
     1
102
RTVSPropertyOp47
 70
     1
102
RTVSPropertyOp48
 70
     1
102
RTVSPropertyOp49
 70
     1
102
RTVSPropertyOp50
 70
     1
102
RTVSPropertyOp51
 70
     0
102
RTVSPropertyOp52
 70
     0
102
RTVSPropertyOp53
 70
     1
102
RTVSPropertyOp54
 70
     1
102
RTVSPropertyOp55
 70
     1
102
RTVSPropertyOp56
 70
     1
102
RTVSPropertyOp57
 70
     1
102
RTVSPost2010Prop28
280
     0
102
RTVSPost2010PropOp28
 70
     1
102
RTVSPost2010Prop29
280
     1
102
RTVSPost2010PropOp29
 70
     1
102
RTVSPost2010Prop30
280
     1
102
RTVSPost2010PropOp30
 70
     1
102
RTVSPost2010Prop31
280
     0
102
RTVSPost2010PropOp31
 70
     1
102
RTVSPost2010Prop32
280
     0
102
RTVSPost2010PropOp32
 70
     1
102
RTVSPost2010Prop33
280
     0
102
RTVSPost2010PropOp33
 70
     1
102
RTVSPost2010Prop34
280
     0
102
RTVSPost2010PropOp34
 70
     1
102
RTVSPost2010Prop35
280
     0
102
RTVSPost2010PropOp35
 70
     1
102
RTVSPost2010Prop36
280
     0
102
RTVSPost2010PropOp36
 70
     1
102
RTVSPost2010Prop37
 90
       50
102
RTVSPost2010PropOp37
 70
     1
102
RTVSPost2010Prop38
140
0.0
102
RTVSPost2010PropOp38
 70
     1
102
RTVSPost2010Prop39
140
1.0
102
RTVSPost2010PropOp39
 70
     1
102
RTVSPost2010Prop40
 90
        0
102
RTVSPost2010PropOp40
 70
     1
102
RTVSPost2010Prop41ColorIndex
 90
       18
102
RTVSPost2010Prop41ColorRGB
 90
        0
102
RTVSPost2010PropOp41
 70
     1
102
RTVSPost2010Prop42
 90
       50
102
RTVSPost2010PropOp42
 70
     1
102
RTVSPost2010Prop43
 90
        3
102
RTVSPost2010PropOp43
 70
     1
102
RTVSPost2010Prop44ColorIndex
 90
        5
102
RTVSPost2010Prop44ColorRGB
 90
      255
102
RTVSPost2010PropOp44
 70
     1
102
RTVSPost2010Prop45
280
     0
102
RTVSPost2010PropOp45
 70
     1
102
RTVSPost2010Prop46
 90
       50
102
RTVSPost2010PropOp46
 70
     1
102
RTVSPost2010Prop47
 90
       50
102
RTVSPost2010PropOp47
 70
     1
102
RTVSPost2010Prop48
 90
       50
102
RTVSPost2010PropOp48
 70
     1
102
RTVSPost2010Prop49
280
     0
102
RTVSPost2010PropOp49
 70
     1
102
RTVSPost2010Prop50
 90
       50
102
RTVSPost2010PropOp50
 70
     1
102
RTVSPost2010Prop51ColorIndex
 90
      256
102
RTVSPost2010Prop51ColorRGB
 90
-16777216
102
RTVSPost2010PropOp51
 70
     0
102
RTVSPost2010Prop52
140
1.0
102
RTVSPost2010PropOp52
 70
     0
102
RTVSPost2010Prop53
 90
        2
102
RTVSPost2010PropOp53
 70
     1
102
RTVSPost2010Prop54
  1
strokes_ogs.tif
102
RTVSPost2010PropOp54
 70
     1
102
RTVSPost2010Prop55
280
     0
102
RTVSPost2010PropOp55
 70
     1
102
RTVSPost2010Prop56
140
1.0
102
RTVSPost2010PropOp56
 70
     1
102
RTVSPost2010Prop57
140
1.0
102
RTVSPost2010PropOp57
 70
     1
  0
XRECORD
  5
A9
102
{ACAD_REACTORS
330
A8
102
}
330
A8
100
AcDbXrecord
280
     1
102
RTVSPropertyOp0
 70
     0
102
RTVSPropertyOp1
 70
     0
102
RTVSPropertyOp2
 70
     0
102
RTVSPropertyOp3
 70
     0
102
RTVSPropertyOp4
 70
     0
102
RTVSPropertyOp5
 70
     0
102
RTVSPropertyOp6
 70
     0
102
RTVSPropertyOp7
 70
     0
102
RTVSPropertyOp8
 70
     0
102
RTVSPropertyOp9
 70
     0
102
RTVSPropertyOp10
 70
     0
102
RTVSPropertyOp11
 70
     0
102
RTVSPropertyOp12
 70
     0
102
RTVSPropertyOp13
 70
     0
102
RTVSPropertyOp14
 70
     2
102
RTVSPropertyOp15
 70
     0
102
RTVSPropertyOp16
 70
     0
102
RTVSPropertyOp17
 70
     0
102
RTVSPropertyOp18
 70
     0
102
RTVSPropertyOp19
 70
     0
102
RTVSPropertyOp20
 70
     0
102
RTVSPropertyOp21
 70
     0
102
RTVSPropertyOp22
 70
     0
102
RTVSPropertyOp23
 70
     0
102
RTVSPropertyOp24
 70
     0
102
RTVSPropertyOp25
 70
     0
102
RTVSPropertyOp26
 70
     0
102
RTVSPropertyOp27
 70
     0
102
RTVSPropertyOp28
 70
     0
102
RTVSPropertyOp29
 70
     0
102
RTVSPropertyOp30
 70
     0
102
RTVSPropertyOp31
 70
     0
102
RTVSPropertyOp32
 70
     0
102
RTVSPropertyOp33
 70
     0
102
RTVSPropertyOp34
 70
     0
102
RTVSPropertyOp35
 70
     0
102
RTVSPropertyOp36
 70
     0
102
RTVSPropertyOp37
 70
     0
102
RTVSPropertyOp38
 70
     0
102
RTVSPropertyOp39
 70
     0
102
RTVSPropertyOp40
 70
     0
102
RTVSPropertyOp41
 70
     0
102
RTVSPropertyOp42
 70
     0
102
RTVSPropertyOp43
 70
     0
102
RTVSPropertyOp44
 70
     0
102
RTVSPropertyOp45
 70
     0
102
RTVSPropertyOp46
 70
     0
102
RTVSPropertyOp47
 70
     0
102
RTVSPropertyOp48
 70
     0
102
RTVSPropertyOp49
 70
     0
102
RTVSPropertyOp50
 70
     0
102
RTVSPropertyOp51
 70
     0
102
RTVSPropertyOp52
 70
     0
102
RTVSPropertyOp53
 70
     0
102
RTVSPropertyOp54
 70
     0
102
RTVSPropertyOp55
 70
     0
102
RTVSPropertyOp56
 70
     0
102
RTVSPropertyOp57
 70
     0
102
RTVSPost2010Prop28
280
     0
102
RTVSPost2010PropOp28
 70
     0
102
RTVSPost2010Prop29
280
     1
102
RTVSPost2010PropOp29
 70
     0
102
RTVSPost2010Prop30
280
     1
102
RTVSPost2010PropOp30
 70
     0
102
RTVSPost2010Prop31
280
     0
102
RTVSPost2010PropOp31
 70
     0
102
RTVSPost2010Prop32
280
     0
102
RTVSPost2010PropOp32
 70
     0
102
RTVSPost2010Prop33
280
     0
102
RTVSPost2010PropOp33
 70
     0
102
RTVSPost2010Prop34
280
     0
102
RTVSPost2010PropOp34
 70
     0
102
RTVSPost2010Prop35
280
     0
102
RTVSPost2010PropOp35
 70
     0
102
RTVSPost2010Prop36
280
     0
102
RTVSPost2010PropOp36
 70
     0
102
RTVSPost2010Prop37
 90
       50
102
RTVSPost2010PropOp37
 70
     0
102
RTVSPost2010Prop38
140
0.0
102
RTVSPost2010PropOp38
 70
     0
102
RTVSPost2010Prop39
140
1.0
102
RTVSPost2010PropOp39
 70
     0
102
RTVSPost2010Prop40
 90
        0
102
RTVSPost2010PropOp40
 70
     0
102
RTVSPost2010Prop41ColorIndex
 90
       18
102
RTVSPost2010Prop41ColorRGB
 90
        0
102
RTVSPost2010PropOp41
 70
     0
102
RTVSPost2010Prop42
 90
       50
102
RTVSPost2010PropOp42
 70
     0
102
RTVSPost2010Prop43
 90
        3
102
RTVSPost2010PropOp43
 70
     0
102
RTVSPost2010Prop44ColorIndex
 90
        5
102
RTVSPost2010Prop44ColorRGB
 90
      255
102
RTVSPost2010PropOp44
 70
     0
102
RTVSPost2010Prop45
280
     0
102
RTVSPost2010PropOp45
 70
     0
102
RTVSPost2010Prop46
 90
       50
102
RTVSPost2010PropOp46
 70
     0
102
RTVSPost2010Prop47
 90
       50
102
RTVSPost2010PropOp47
 70
     0
102
RTVSPost2010Prop48
 90
       50
102
RTVSPost2010PropOp48
 70
     0
102
RTVSPost2010Prop49
280
     0
102
RTVSPost2010PropOp49
 70
     0
102
RTVSPost2010Prop50
 90
       50
102
RTVSPost2010PropOp50
 70
     0
102
RTVSPost2010Prop51ColorIndex
 90
      256
102
RTVSPost2010Prop51ColorRGB
 90
-16777216
102
RTVSPost2010PropOp51
 70
     0
102
RTVSPost2010Prop52
140
1.0
102
RTVSPost2010PropOp52
 70
     0
102
RTVSPost2010Prop53
 90
        2
102
RTVSPost2010PropOp53
 70
     0
102
RTVSPost2010Prop54
  1
strokes_ogs.tif
102
RTVSPost2010PropOp54
 70
     0
102
RTVSPost2010Prop55
280
     0
102
RTVSPost2010PropOp55
 70
     0
102
RTVSPost2010Prop56
140
1.0
102
RTVSPost2010PropOp56
 70
     0
102
RTVSPost2010Prop57
140
1.0
102
RTVSPost2010PropOp57
 70
     0
  0
XRECORD
  5
A1
102
{ACAD_REACTORS
330
A0
102
}
330
A0
100
AcDbXrecord
280
     1
102
RTVSPropertyOp0
 70
     1
102
RTVSPropertyOp1
 70
     1
102
RTVSPropertyOp2
 70
     1
102
RTVSPropertyOp3
 70
     1
102
RTVSPropertyOp4
 70
     1
102
RTVSPropertyOp5
 70
     1
102
RTVSPropertyOp6
 70
     1
102
RTVSPropertyOp7
 70
     1
102
RTVSPropertyOp8
 70
     1
102
RTVSPropertyOp9
 70
     1
102
RTVSPropertyOp10
 70
     1
102
RTVSPropertyOp11
 70
     1
102
RTVSPropertyOp12
 70
     1
102
RTVSPropertyOp13
 70
     1
102
RTVSPropertyOp14
 70
     1
102
RTVSPropertyOp15
 70
     1
102
RTVSPropertyOp16
 70
     1
102
RTVSPropertyOp17
 70
     1
102
RTVSPropertyOp18
 70
     1
102
RTVSPropertyOp19
 70
     1
102
RTVSPropertyOp20
 70
     1
102
RTVSPropertyOp21
 70
     1
102
RTVSPropertyOp22
 70
     1
102
RTVSPropertyOp23
 70
     1
102
RTVSPropertyOp24
 70
     1
102
RTVSPropertyOp25
 70
     1
102
RTVSPropertyOp26
 70
     1
102
RTVSPropertyOp27
 70
     1
102
RTVSPropertyOp28
 70
     1
102
RTVSPropertyOp29
 70
     1
102
RTVSPropertyOp30
 70
     1
102
RTVSPropertyOp31
 70
     1
102
RTVSPropertyOp32
 70
     1
102
RTVSPropertyOp33
 70
     1
102
RTVSPropertyOp34
 70
     1
102
RTVSPropertyOp35
 70
     1
102
RTVSPropertyOp36
 70
     1
102
RTVSPropertyOp37
 70
     1
102
RTVSPropertyOp38
 70
     1
102
RTVSPropertyOp39
 70
     1
102
RTVSPropertyOp40
 70
     1
102
RTVSPropertyOp41
 70
     1
102
RTVSPropertyOp42
 70
     1
102
RTVSPropertyOp43
 70
     1
102
RTVSPropertyOp44
 70
     1
102
RTVSPropertyOp45
 70
     1
102
RTVSPropertyOp46
 70
     1
102
RTVSPropertyOp47
 70
     1
102
RTVSPropertyOp48
 70
     1
102
RTVSPropertyOp49
 70
     1
102
RTVSPropertyOp50
 70
     1
102
RTVSPropertyOp51
 70
     0
102
RTVSPropertyOp52
 70
     0
102
RTVSPropertyOp53
 70
     1
102
RTVSPropertyOp54
 70
     1
102
RTVSPropertyOp55
 70
     1
102
RTVSPropertyOp56
 70
     1
102
RTVSPropertyOp57
 70
     1
102
RTVSPost2010Prop28
280
     0
102
RTVSPost2010PropOp28
 70
     1
102
RTVSPost2010Prop29
280
     1
102
RTVSPost2010PropOp29
 70
     1
102
RTVSPost2010Prop30
280
     1
102
RTVSPost2010PropOp30
 70
     1
102
RTVSPost2010Prop31
280
     0
102
RTVSPost2010PropOp31
 70
     1
102
RTVSPost2010Prop32
280
     0
102
RTVSPost2010PropOp32
 70
     1
102
RTVSPost2010Prop33
280
     0
102
RTVSPost2010PropOp33
 70
     1
102
RTVSPost2010Prop34
280
     0
102
RTVSPost2010PropOp34
 70
     1
102
RTVSPost2010Prop35
280
     0
102
RTVSPost2010PropOp35
 70
     1
102
RTVSPost2010Prop36
280
     0
102
RTVSPost2010PropOp36
 70
     1
102
RTVSPost2010Prop37
 90
       50
102
RTVSPost2010PropOp37
 70
     1
102
RTVSPost2010Prop38
140
0.0
102
RTVSPost2010PropOp38
 70
     1
102
RTVSPost2010Prop39
140
1.0
102
RTVSPost2010PropOp39
 70
     1
102
RTVSPost2010Prop40
 90
        0
102
RTVSPost2010PropOp40
 70
     1
102
RTVSPost2010Prop41ColorIndex
 90
       18
102
RTVSPost2010Prop41ColorRGB
 90
        0
102
RTVSPost2010PropOp41
 70
     1
102
RTVSPost2010Prop42
 90
       50
102
RTVSPost2010PropOp42
 70
     1
102
RTVSPost2010Prop43
 90
        3
102
RTVSPost2010PropOp43
 70
     1
102
RTVSPost2010Prop44ColorIndex
 90
        5
102
RTVSPost2010Prop44ColorRGB
 90
      255
102
RTVSPost2010PropOp44
 70
     1
102
RTVSPost2010Prop45
280
     0
102
RTVSPost2010PropOp45
 70
     1
102
RTVSPost2010Prop46
 90
       50
102
RTVSPost2010PropOp46
 70
     1
102
RTVSPost2010Prop47
 90
       50
102
RTVSPost2010PropOp47
 70
     1
102
RTVSPost2010Prop48
 90
       50
102
RTVSPost2010PropOp48
 70
     1
102
RTVSPost2010Prop49
280
     0
102
RTVSPost2010PropOp49
 70
     1
102
RTVSPost2010Prop50
 90
       50
102
RTVSPost2010PropOp50
 70
     1
102
RTVSPost2010Prop51ColorIndex
 90
      256
102
RTVSPost2010Prop51ColorRGB
 90
-16777216
102
RTVSPost2010PropOp51
 70
     0
102
RTVSPost2010Prop52
140
1.0
102
RTVSPost2010PropOp52
 70
     0
102
RTVSPost2010Prop53
 90
        2
102
RTVSPost2010PropOp53
 70
     1
102
RTVSPost2010Prop54
  1
strokes_ogs.tif
102
RTVSPost2010PropOp54
 70
     1
102
RTVSPost2010Prop55
280
     0
102
RTVSPost2010PropOp55
 70
     1
102
RTVSPost2010Prop56
140
1.0
102
RTVSPost2010PropOp56
 70
     1
102
RTVSPost2010Prop57
140
1.0
102
RTVSPost2010PropOp57
 70
     1
  0
XRECORD
  5
85
102
{ACAD_REACTORS
330
84
102
}
330
84
100
AcDbXrecord
280
     1
102
RTVSPropertyOp0
 70
     1
102
RTVSPropertyOp1
 70
     1
102
RTVSPropertyOp2
 70
     1
102
RTVSPropertyOp3
 70
     1
102
RTVSPropertyOp4
 70
     1
102
RTVSPropertyOp5
 70
     1
102
RTVSPropertyOp6
 70
     1
102
RTVSPropertyOp7
 70
     1
102
RTVSPropertyOp8
 70
     1
102
RTVSPropertyOp9
 70
     1
102
RTVSPropertyOp10
 70
     1
102
RTVSPropertyOp11
 70
     1
102
RTVSPropertyOp12
 70
     1
102
RTVSPropertyOp13
 70
     1
102
RTVSPropertyOp14
 70
     1
102
RTVSPropertyOp15
 70
     1
102
RTVSPropertyOp16
 70
     1
102
RTVSPropertyOp17
 70
     1
102
RTVSPropertyOp18
 70
     1
102
RTVSPropertyOp19
 70
     1
102
RTVSPropertyOp20
 70
     1
102
RTVSPropertyOp21
 70
     1
102
RTVSPropertyOp22
 70
     1
102
RTVSPropertyOp23
 70
     1
102
RTVSPropertyOp24
 70
     1
102
RTVSPropertyOp25
 70
     1
102
RTVSPropertyOp26
 70
     1
102
RTVSPropertyOp27
 70
     1
102
RTVSPropertyOp28
 70
     1
102
RTVSPropertyOp29
 70
     1
102
RTVSPropertyOp30
 70
     1
102
RTVSPropertyOp31
 70
     1
102
RTVSPropertyOp32
 70
     1
102
RTVSPropertyOp33
 70
     1
102
RTVSPropertyOp34
 70
     1
102
RTVSPropertyOp35
 70
     1
102
RTVSPropertyOp36
 70
     1
102
RTVSPropertyOp37
 70
     1
102
RTVSPropertyOp38
 70
     1
102
RTVSPropertyOp39
 70
     1
102
RTVSPropertyOp40
 70
     1
102
RTVSPropertyOp41
 70
     1
102
RTVSPropertyOp42
 70
     1
102
RTVSPropertyOp43
 70
     1
102
RTVSPropertyOp44
 70
     1
102
RTVSPropertyOp45
 70
     1
102
RTVSPropertyOp46
 70
     1
102
RTVSPropertyOp47
 70
     1
102
RTVSPropertyOp48
 70
     1
102
RTVSPropertyOp49
 70
     1
102
RTVSPropertyOp50
 70
     1
102
RTVSPropertyOp51
 70
     0
102
RTVSPropertyOp52
 70
     0
102
RTVSPropertyOp53
 70
     1
102
RTVSPropertyOp54
 70
     1
102
RTVSPropertyOp55
 70
     1
102
RTVSPropertyOp56
 70
     1
102
RTVSPropertyOp57
 70
     1
102
RTVSPost2010Prop28
280
     0
102
RTVSPost2010PropOp28
 70
     1
102
RTVSPost2010Prop29
280
     1
102
RTVSPost2010PropOp29
 70
     1
102
RTVSPost2010Prop30
280
     1
102
RTVSPost2010PropOp30
 70
     1
102
RTVSPost2010Prop31
280
     0
102
RTVSPost2010PropOp31
 70
     1
102
RTVSPost2010Prop32
280
     0
102
RTVSPost2010PropOp32
 70
     1
102
RTVSPost2010Prop33
280
     0
102
RTVSPost2010PropOp33
 70
     1
102
RTVSPost2010Prop34
280
     0
102
RTVSPost2010PropOp34
 70
     1
102
RTVSPost2010Prop35
280
     0
102
RTVSPost2010PropOp35
 70
     1
102
RTVSPost2010Prop36
280
     0
102
RTVSPost2010PropOp36
 70
     1
102
RTVSPost2010Prop37
 90
       50
102
RTVSPost2010PropOp37
 70
     1
102
RTVSPost2010Prop38
140
0.0
102
RTVSPost2010PropOp38
 70
     1
102
RTVSPost2010Prop39
140
1.0
102
RTVSPost2010PropOp39
 70
     1
102
RTVSPost2010Prop40
 90
        0
102
RTVSPost2010PropOp40
 70
     1
102
RTVSPost2010Prop41ColorIndex
 90
       18
102
RTVSPost2010Prop41ColorRGB
 90
        0
102
RTVSPost2010PropOp41
 70
     1
102
RTVSPost2010Prop42
 90
       50
102
RTVSPost2010PropOp42
 70
     1
102
RTVSPost2010Prop43
 90
        3
102
RTVSPost2010PropOp43
 70
     1
102
RTVSPost2010Prop44ColorIndex
 90
        5
102
RTVSPost2010Prop44ColorRGB
 90
      255
102
RTVSPost2010PropOp44
 70
     1
102
RTVSPost2010Prop45
280
     0
102
RTVSPost2010PropOp45
 70
     1
102
RTVSPost2010Prop46
 90
       50
102
RTVSPost2010PropOp46
 70
     1
102
RTVSPost2010Prop47
 90
       50
102
RTVSPost2010PropOp47
 70
     1
102
RTVSPost2010Prop48
 90
       50
102
RTVSPost2010PropOp48
 70
     1
102
RTVSPost2010Prop49
280
     0
102
RTVSPost2010PropOp49
 70
     1
102
RTVSPost2010Prop50
 90
       50
102
RTVSPost2010PropOp50
 70
     1
102
RTVSPost2010Prop51ColorIndex
 90
      256
102
RTVSPost2010Prop51ColorRGB
 90
-16777216
102
RTVSPost2010PropOp51
 70
     0
102
RTVSPost2010Prop52
140
1.0
102
RTVSPost2010PropOp52
 70
     0
102
RTVSPost2010Prop53
 90
        2
102
RTVSPost2010PropOp53
 70
     1
102
RTVSPost2010Prop54
  1
strokes_ogs.tif
102
RTVSPost2010PropOp54
 70
     1
102
RTVSPost2010Prop55
280
     0
102
RTVSPost2010PropOp55
 70
     1
102
RTVSPost2010Prop56
140
1.0
102
RTVSPost2010PropOp56
 70
     1
102
RTVSPost2010Prop57
140
1.0
102
RTVSPost2010PropOp57
 70
     1
  0
XRECORD
  5
87
102
{ACAD_REACTORS
330
86
102
}
330
86
100
AcDbXrecord
280
     1
102
RTVSPropertyOp0
 70
     1
102
RTVSPropertyOp1
 70
     1
102
RTVSPropertyOp2
 70
     1
102
RTVSPropertyOp3
 70
     1
102
RTVSPropertyOp4
 70
     1
102
RTVSPropertyOp5
 70
     1
102
RTVSPropertyOp6
 70
     1
102
RTVSPropertyOp7
 70
     1
102
RTVSPropertyOp8
 70
     1
102
RTVSPropertyOp9
 70
     1
102
RTVSPropertyOp10
 70
     1
102
RTVSPropertyOp11
 70
     1
102
RTVSPropertyOp12
 70
     1
102
RTVSPropertyOp13
 70
     1
102
RTVSPropertyOp14
 70
     1
102
RTVSPropertyOp15
 70
     1
102
RTVSPropertyOp16
 70
     1
102
RTVSPropertyOp17
 70
     1
102
RTVSPropertyOp18
 70
     1
102
RTVSPropertyOp19
 70
     1
102
RTVSPropertyOp20
 70
     1
102
RTVSPropertyOp21
 70
     1
102
RTVSPropertyOp22
 70
     1
102
RTVSPropertyOp23
 70
     1
102
RTVSPropertyOp24
 70
     1
102
RTVSPropertyOp25
 70
     1
102
RTVSPropertyOp26
 70
     1
102
RTVSPropertyOp27
 70
     1
102
RTVSPropertyOp28
 70
     1
102
RTVSPropertyOp29
 70
     1
102
RTVSPropertyOp30
 70
     1
102
RTVSPropertyOp31
 70
     1
102
RTVSPropertyOp32
 70
     1
102
RTVSPropertyOp33
 70
     1
102
RTVSPropertyOp34
 70
     1
102
RTVSPropertyOp35
 70
     1
102
RTVSPropertyOp36
 70
     1
102
RTVSPropertyOp37
 70
     1
102
RTVSPropertyOp38
 70
     1
102
RTVSPropertyOp39
 70
     1
102
RTVSPropertyOp40
 70
     1
102
RTVSPropertyOp41
 70
     1
102
RTVSPropertyOp42
 70
     1
102
RTVSPropertyOp43
 70
     1
102
RTVSPropertyOp44
 70
     1
102
RTVSPropertyOp45
 70
     1
102
RTVSPropertyOp46
 70
     1
102
RTVSPropertyOp47
 70
     1
102
RTVSPropertyOp48
 70
     1
102
RTVSPropertyOp49
 70
     1
102
RTVSPropertyOp50
 70
     1
102
RTVSPropertyOp51
 70
     0
102
RTVSPropertyOp52
 70
     0
102
RTVSPropertyOp53
 70
     1
102
RTVSPropertyOp54
 70
     1
102
RTVSPropertyOp55
 70
     1
102
RTVSPropertyOp56
 70
     1
102
RTVSPropertyOp57
 70
     1
102
RTVSPost2010Prop28
280
     0
102
RTVSPost2010PropOp28
 70
     1
102
RTVSPost2010Prop29
280
     1
102
RTVSPost2010PropOp29
 70
     1
102
RTVSPost2010Prop30
280
     1
102
RTVSPost2010PropOp30
 70
     1
102
RTVSPost2010Prop31
280
     0
102
RTVSPost2010PropOp31
 70
     1
102
RTVSPost2010Prop32
280
     0
102
RTVSPost2010PropOp32
 70
     1
102
RTVSPost2010Prop33
280
     0
102
RTVSPost2010PropOp33
 70
     1
102
RTVSPost2010Prop34
280
     0
102
RTVSPost2010PropOp34
 70
     1
102
RTVSPost2010Prop35
280
     0
102
RTVSPost2010PropOp35
 70
     1
102
RTVSPost2010Prop36
280
     0
102
RTVSPost2010PropOp36
 70
     1
102
RTVSPost2010Prop37
 90
       50
102
RTVSPost2010PropOp37
 70
     1
102
RTVSPost2010Prop38
140
0.0
102
RTVSPost2010PropOp38
 70
     1
102
RTVSPost2010Prop39
140
1.0
102
RTVSPost2010PropOp39
 70
     1
102
RTVSPost2010Prop40
 90
        0
102
RTVSPost2010PropOp40
 70
     1
102
RTVSPost2010Prop41ColorIndex
 90
       18
102
RTVSPost2010Prop41ColorRGB
 90
        0
102
RTVSPost2010PropOp41
 70
     1
102
RTVSPost2010Prop42
 90
       50
102
RTVSPost2010PropOp42
 70
     1
102
RTVSPost2010Prop43
 90
        3
102
RTVSPost2010PropOp43
 70
     1
102
RTVSPost2010Prop44ColorIndex
 90
        5
102
RTVSPost2010Prop44ColorRGB
 90
      255
102
RTVSPost2010PropOp44
 70
     1
102
RTVSPost2010Prop45
280
     0
102
RTVSPost2010PropOp45
 70
     1
102
RTVSPost2010Prop46
 90
       50
102
RTVSPost2010PropOp46
 70
     1
102
RTVSPost2010Prop47
 90
       50
102
RTVSPost2010PropOp47
 70
     1
102
RTVSPost2010Prop48
 90
       50
102
RTVSPost2010PropOp48
 70
     1
102
RTVSPost2010Prop49
280
     0
102
RTVSPost2010PropOp49
 70
     1
102
RTVSPost2010Prop50
 90
       50
102
RTVSPost2010PropOp50
 70
     1
102
RTVSPost2010Prop51ColorIndex
 90
      256
102
RTVSPost2010Prop51ColorRGB
 90
-16777216
102
RTVSPost2010PropOp51
 70
     0
102
RTVSPost2010Prop52
140
1.0
102
RTVSPost2010PropOp52
 70
     0
102
RTVSPost2010Prop53
 90
        2
102
RTVSPost2010PropOp53
 70
     1
102
RTVSPost2010Prop54
  1
strokes_ogs.tif
102
RTVSPost2010PropOp54
 70
     1
102
RTVSPost2010Prop55
280
     0
102
RTVSPost2010PropOp55
 70
     1
102
RTVSPost2010Prop56
140
1.0
102
RTVSPost2010PropOp56
 70
     1
102
RTVSPost2010Prop57
140
1.0
102
RTVSPost2010PropOp57
 70
     1
  0
XRECORD
  5
89
102
{ACAD_REACTORS
330
88
102
}
330
88
100
AcDbXrecord
280
     1
102
RTVSPropertyOp0
 70
     1
102
RTVSPropertyOp1
 70
     1
102
RTVSPropertyOp2
 70
     1
102
RTVSPropertyOp3
 70
     1
102
RTVSPropertyOp4
 70
     1
102
RTVSPropertyOp5
 70
     1
102
RTVSPropertyOp6
 70
     1
102
RTVSPropertyOp7
 70
     1
102
RTVSPropertyOp8
 70
     1
102
RTVSPropertyOp9
 70
     1
102
RTVSPropertyOp10
 70
     1
102
RTVSPropertyOp11
 70
     1
102
RTVSPropertyOp12
 70
     1
102
RTVSPropertyOp13
 70
     1
102
RTVSPropertyOp14
 70
     1
102
RTVSPropertyOp15
 70
     1
102
RTVSPropertyOp16
 70
     1
102
RTVSPropertyOp17
 70
     1
102
RTVSPropertyOp18
 70
     1
102
RTVSPropertyOp19
 70
     1
102
RTVSPropertyOp20
 70
     1
102
RTVSPropertyOp21
 70
     1
102
RTVSPropertyOp22
 70
     1
102
RTVSPropertyOp23
 70
     1
102
RTVSPropertyOp24
 70
     1
102
RTVSPropertyOp25
 70
     1
102
RTVSPropertyOp26
 70
     1
102
RTVSPropertyOp27
 70
     1
102
RTVSPropertyOp28
 70
     1
102
RTVSPropertyOp29
 70
     1
102
RTVSPropertyOp30
 70
     1
102
RTVSPropertyOp31
 70
     1
102
RTVSPropertyOp32
 70
     1
102
RTVSPropertyOp33
 70
     1
102
RTVSPropertyOp34
 70
     1
102
RTVSPropertyOp35
 70
     1
102
RTVSPropertyOp36
 70
     1
102
RTVSPropertyOp37
 70
     1
102
RTVSPropertyOp38
 70
     1
102
RTVSPropertyOp39
 70
     1
102
RTVSPropertyOp40
 70
     1
102
RTVSPropertyOp41
 70
     1
102
RTVSPropertyOp42
 70
     1
102
RTVSPropertyOp43
 70
     1
102
RTVSPropertyOp44
 70
     1
102
RTVSPropertyOp45
 70
     1
102
RTVSPropertyOp46
 70
     1
102
RTVSPropertyOp47
 70
     1
102
RTVSPropertyOp48
 70
     1
102
RTVSPropertyOp49
 70
     1
102
RTVSPropertyOp50
 70
     1
102
RTVSPropertyOp51
 70
     0
102
RTVSPropertyOp52
 70
     0
102
RTVSPropertyOp53
 70
     1
102
RTVSPropertyOp54
 70
     1
102
RTVSPropertyOp55
 70
     1
102
RTVSPropertyOp56
 70
     1
102
RTVSPropertyOp57
 70
     1
102
RTVSPost2010Prop28
280
     0
102
RTVSPost2010PropOp28
 70
     1
102
RTVSPost2010Prop29
280
     1
102
RTVSPost2010PropOp29
 70
     1
102
RTVSPost2010Prop30
280
     1
102
RTVSPost2010PropOp30
 70
     1
102
RTVSPost2010Prop31
280
     0
102
RTVSPost2010PropOp31
 70
     1
102
RTVSPost2010Prop32
280
     0
102
RTVSPost2010PropOp32
 70
     1
102
RTVSPost2010Prop33
280
     0
102
RTVSPost2010PropOp33
 70
     1
102
RTVSPost2010Prop34
280
     0
102
RTVSPost2010PropOp34
 70
     1
102
RTVSPost2010Prop35
280
     0
102
RTVSPost2010PropOp35
 70
     1
102
RTVSPost2010Prop36
280
     0
102
RTVSPost2010PropOp36
 70
     1
102
RTVSPost2010Prop37
 90
       50
102
RTVSPost2010PropOp37
 70
     1
102
RTVSPost2010Prop38
140
0.0
102
RTVSPost2010PropOp38
 70
     1
102
RTVSPost2010Prop39
140
1.0
102
RTVSPost2010PropOp39
 70
     1
102
RTVSPost2010Prop40
 90
        0
102
RTVSPost2010PropOp40
 70
     1
102
RTVSPost2010Prop41ColorIndex
 90
       18
102
RTVSPost2010Prop41ColorRGB
 90
        0
102
RTVSPost2010PropOp41
 70
     1
102
RTVSPost2010Prop42
 90
       50
102
RTVSPost2010PropOp42
 70
     1
102
RTVSPost2010Prop43
 90
        3
102
RTVSPost2010PropOp43
 70
     1
102
RTVSPost2010Prop44ColorIndex
 90
        5
102
RTVSPost2010Prop44ColorRGB
 90
      255
102
RTVSPost2010PropOp44
 70
     1
102
RTVSPost2010Prop45
280
     0
102
RTVSPost2010PropOp45
 70
     1
102
RTVSPost2010Prop46
 90
       50
102
RTVSPost2010PropOp46
 70
     1
102
RTVSPost2010Prop47
 90
       50
102
RTVSPost2010PropOp47
 70
     1
102
RTVSPost2010Prop48
 90
       50
102
RTVSPost2010PropOp48
 70
     1
102
RTVSPost2010Prop49
280
     0
102
RTVSPost2010PropOp49
 70
     1
102
RTVSPost2010Prop50
 90
       50
102
RTVSPost2010PropOp50
 70
     1
102
RTVSPost2010Prop51ColorIndex
 90
      256
102
RTVSPost2010Prop51ColorRGB
 90
-16777216
102
RTVSPost2010PropOp51
 70
     0
102
RTVSPost2010Prop52
140
1.0
102
RTVSPost2010PropOp52
 70
     0
102
RTVSPost2010Prop53
 90
        2
102
RTVSPost2010PropOp53
 70
     1
102
RTVSPost2010Prop54
  1
strokes_ogs.tif
102
RTVSPost2010PropOp54
 70
     1
102
RTVSPost2010Prop55
280
     0
102
RTVSPost2010PropOp55
 70
     1
102
RTVSPost2010Prop56
140
1.0
102
RTVSPost2010PropOp56
 70
     1
102
RTVSPost2010Prop57
140
1.0
102
RTVSPost2010PropOp57
 70
     1
  0
XRECORD
  5
8B
102
{ACAD_REACTORS
330
8A
102
}
330
8A
100
AcDbXrecord
280
     1
102
RTVSPropertyOp0
 70
     1
102
RTVSPropertyOp1
 70
     1
102
RTVSPropertyOp2
 70
     1
102
RTVSPropertyOp3
 70
     1
102
RTVSPropertyOp4
 70
     1
102
RTVSPropertyOp5
 70
     1
102
RTVSPropertyOp6
 70
     1
102
RTVSPropertyOp7
 70
     1
102
RTVSPropertyOp8
 70
     1
102
RTVSPropertyOp9
 70
     1
102
RTVSPropertyOp10
 70
     1
102
RTVSPropertyOp11
 70
     1
102
RTVSPropertyOp12
 70
     1
102
RTVSPropertyOp13
 70
     1
102
RTVSPropertyOp14
 70
     1
102
RTVSPropertyOp15
 70
     1
102
RTVSPropertyOp16
 70
     1
102
RTVSPropertyOp17
 70
     1
102
RTVSPropertyOp18
 70
     1
102
RTVSPropertyOp19
 70
     1
102
RTVSPropertyOp20
 70
     1
102
RTVSPropertyOp21
 70
     1
102
RTVSPropertyOp22
 70
     1
102
RTVSPropertyOp23
 70
     1
102
RTVSPropertyOp24
 70
     1
102
RTVSPropertyOp25
 70
     1
102
RTVSPropertyOp26
 70
     1
102
RTVSPropertyOp27
 70
     1
102
RTVSPropertyOp28
 70
     1
102
RTVSPropertyOp29
 70
     1
102
RTVSPropertyOp30
 70
     1
102
RTVSPropertyOp31
 70
     1
102
RTVSPropertyOp32
 70
     1
102
RTVSPropertyOp33
 70
     1
102
RTVSPropertyOp34
 70
     1
102
RTVSPropertyOp35
 70
     1
102
RTVSPropertyOp36
 70
     1
102
RTVSPropertyOp37
 70
     1
102
RTVSPropertyOp38
 70
     1
102
RTVSPropertyOp39
 70
     1
102
RTVSPropertyOp40
 70
     1
102
RTVSPropertyOp41
 70
     1
102
RTVSPropertyOp42
 70
     1
102
RTVSPropertyOp43
 70
     1
102
RTVSPropertyOp44
 70
     1
102
RTVSPropertyOp45
 70
     1
102
RTVSPropertyOp46
 70
     1
102
RTVSPropertyOp47
 70
     1
102
RTVSPropertyOp48
 70
     1
102
RTVSPropertyOp49
 70
     1
102
RTVSPropertyOp50
 70
     1
102
RTVSPropertyOp51
 70
     0
102
RTVSPropertyOp52
 70
     0
102
RTVSPropertyOp53
 70
     1
102
RTVSPropertyOp54
 70
     1
102
RTVSPropertyOp55
 70
     1
102
RTVSPropertyOp56
 70
     1
102
RTVSPropertyOp57
 70
     1
102
RTVSPost2010Prop28
280
     0
102
RTVSPost2010PropOp28
 70
     1
102
RTVSPost2010Prop29
280
     1
102
RTVSPost2010PropOp29
 70
     1
102
RTVSPost2010Prop30
280
     1
102
RTVSPost2010PropOp30
 70
     1
102
RTVSPost2010Prop31
280
     0
102
RTVSPost2010PropOp31
 70
     1
102
RTVSPost2010Prop32
280
     0
102
RTVSPost2010PropOp32
 70
     1
102
RTVSPost2010Prop33
280
     0
102
RTVSPost2010PropOp33
 70
     1
102
RTVSPost2010Prop34
280
     0
102
RTVSPost2010PropOp34
 70
     1
102
RTVSPost2010Prop35
280
     0
102
RTVSPost2010PropOp35
 70
     1
102
RTVSPost2010Prop36
280
     0
102
RTVSPost2010PropOp36
 70
     1
102
RTVSPost2010Prop37
 90
       50
102
RTVSPost2010PropOp37
 70
     1
102
RTVSPost2010Prop38
140
0.0
102
RTVSPost2010PropOp38
 70
     1
102
RTVSPost2010Prop39
140
1.0
102
RTVSPost2010PropOp39
 70
     1
102
RTVSPost2010Prop40
 90
        0
102
RTVSPost2010PropOp40
 70
     1
102
RTVSPost2010Prop41ColorIndex
 90
       18
102
RTVSPost2010Prop41ColorRGB
 90
        0
102
RTVSPost2010PropOp41
 70
     1
102
RTVSPost2010Prop42
 90
       50
102
RTVSPost2010PropOp42
 70
     1
102
RTVSPost2010Prop43
 90
        3
102
RTVSPost2010PropOp43
 70
     1
102
RTVSPost2010Prop44ColorIndex
 90
        5
102
RTVSPost2010Prop44ColorRGB
 90
      255
102
RTVSPost2010PropOp44
 70
     1
102
RTVSPost2010Prop45
280
     0
102
RTVSPost2010PropOp45
 70
     1
102
RTVSPost2010Prop46
 90
       50
102
RTVSPost2010PropOp46
 70
     1
102
RTVSPost2010Prop47
 90
       50
102
RTVSPost2010PropOp47
 70
     1
102
RTVSPost2010Prop48
 90
       50
102
RTVSPost2010PropOp48
 70
     1
102
RTVSPost2010Prop49
280
     0
102
RTVSPost2010PropOp49
 70
     1
102
RTVSPost2010Prop50
 90
       50
102
RTVSPost2010PropOp50
 70
     1
102
RTVSPost2010Prop51ColorIndex
 90
      256
102
RTVSPost2010Prop51ColorRGB
 90
-16777216
102
RTVSPost2010PropOp51
 70
     0
102
RTVSPost2010Prop52
140
1.0
102
RTVSPost2010PropOp52
 70
     0
102
RTVSPost2010Prop53
 90
        2
102
RTVSPost2010PropOp53
 70
     1
102
RTVSPost2010Prop54
  1
strokes_ogs.tif
102
RTVSPost2010PropOp54
 70
     1
102
RTVSPost2010Prop55
280
     0
102
RTVSPost2010PropOp55
 70
     1
102
RTVSPost2010Prop56
140
1.0
102
RTVSPost2010PropOp56
 70
     1
102
RTVSPost2010Prop57
140
1.0
102
RTVSPost2010PropOp57
 70
     1
  0
XRECORD
  5
91
102
{ACAD_REACTORS
330
90
102
}
330
90
100
AcDbXrecord
280
     1
102
RTVSPropertyOp0
 70
     1
102
RTVSPropertyOp1
 70
     1
102
RTVSPropertyOp2
 70
     1
102
RTVSPropertyOp3
 70
     1
102
RTVSPropertyOp4
 70
     1
102
RTVSPropertyOp5
 70
     1
102
RTVSPropertyOp6
 70
     1
102
RTVSPropertyOp7
 70
     1
102
RTVSPropertyOp8
 70
     1
102
RTVSPropertyOp9
 70
     1
102
RTVSPropertyOp10
 70
     1
102
RTVSPropertyOp11
 70
     1
102
RTVSPropertyOp12
 70
     1
102
RTVSPropertyOp13
 70
     1
102
RTVSPropertyOp14
 70
     1
102
RTVSPropertyOp15
 70
     1
102
RTVSPropertyOp16
 70
     1
102
RTVSPropertyOp17
 70
     1
102
RTVSPropertyOp18
 70
     1
102
RTVSPropertyOp19
 70
     1
102
RTVSPropertyOp20
 70
     1
102
RTVSPropertyOp21
 70
     1
102
RTVSPropertyOp22
 70
     1
102
RTVSPropertyOp23
 70
     1
102
RTVSPropertyOp24
 70
     1
102
RTVSPropertyOp25
 70
     1
102
RTVSPropertyOp26
 70
     1
102
RTVSPropertyOp27
 70
     1
102
RTVSPropertyOp28
 70
     1
102
RTVSPropertyOp29
 70
     1
102
RTVSPropertyOp30
 70
     1
102
RTVSPropertyOp31
 70
     1
102
RTVSPropertyOp32
 70
     1
102
RTVSPropertyOp33
 70
     1
102
RTVSPropertyOp34
 70
     1
102
RTVSPropertyOp35
 70
     1
102
RTVSPropertyOp36
 70
     1
102
RTVSPropertyOp37
 70
     1
102
RTVSPropertyOp38
 70
     1
102
RTVSPropertyOp39
 70
     1
102
RTVSPropertyOp40
 70
     1
102
RTVSPropertyOp41
 70
     1
102
RTVSPropertyOp42
 70
     1
102
RTVSPropertyOp43
 70
     1
102
RTVSPropertyOp44
 70
     1
102
RTVSPropertyOp45
 70
     1
102
RTVSPropertyOp46
 70
     1
102
RTVSPropertyOp47
 70
     1
102
RTVSPropertyOp48
 70
     1
102
RTVSPropertyOp49
 70
     1
102
RTVSPropertyOp50
 70
     1
102
RTVSPropertyOp51
 70
     0
102
RTVSPropertyOp52
 70
     0
102
RTVSPropertyOp53
 70
     1
102
RTVSPropertyOp54
 70
     1
102
RTVSPropertyOp55
 70
     1
102
RTVSPropertyOp56
 70
     1
102
RTVSPropertyOp57
 70
     1
102
RTVSPost2010Prop28
280
     0
102
RTVSPost2010PropOp28
 70
     1
102
RTVSPost2010Prop29
280
     1
102
RTVSPost2010PropOp29
 70
     1
102
RTVSPost2010Prop30
280
     1
102
RTVSPost2010PropOp30
 70
     1
102
RTVSPost2010Prop31
280
     0
102
RTVSPost2010PropOp31
 70
     1
102
RTVSPost2010Prop32
280
     0
102
RTVSPost2010PropOp32
 70
     1
102
RTVSPost2010Prop33
280
     0
102
RTVSPost2010PropOp33
 70
     1
102
RTVSPost2010Prop34
280
     0
102
RTVSPost2010PropOp34
 70
     1
102
RTVSPost2010Prop35
280
     0
102
RTVSPost2010PropOp35
 70
     1
102
RTVSPost2010Prop36
280
     0
102
RTVSPost2010PropOp36
 70
     1
102
RTVSPost2010Prop37
 90
       50
102
RTVSPost2010PropOp37
 70
     1
102
RTVSPost2010Prop38
140
0.0
102
RTVSPost2010PropOp38
 70
     1
102
RTVSPost2010Prop39
140
1.0
102
RTVSPost2010PropOp39
 70
     1
102
RTVSPost2010Prop40
 90
        0
102
RTVSPost2010PropOp40
 70
     1
102
RTVSPost2010Prop41ColorIndex
 90
       18
102
RTVSPost2010Prop41ColorRGB
 90
        0
102
RTVSPost2010PropOp41
 70
     1
102
RTVSPost2010Prop42
 90
       50
102
RTVSPost2010PropOp42
 70
     1
102
RTVSPost2010Prop43
 90
        3
102
RTVSPost2010PropOp43
 70
     1
102
RTVSPost2010Prop44ColorIndex
 90
        5
102
RTVSPost2010Prop44ColorRGB
 90
      255
102
RTVSPost2010PropOp44
 70
     1
102
RTVSPost2010Prop45
280
     0
102
RTVSPost2010PropOp45
 70
     1
102
RTVSPost2010Prop46
 90
       50
102
RTVSPost2010PropOp46
 70
     1
102
RTVSPost2010Prop47
 90
       50
102
RTVSPost2010PropOp47
 70
     1
102
RTVSPost2010Prop48
 90
       50
102
RTVSPost2010PropOp48
 70
     1
102
RTVSPost2010Prop49
280
     0
102
RTVSPost2010PropOp49
 70
     1
102
RTVSPost2010Prop50
 90
       50
102
RTVSPost2010PropOp50
 70
     1
102
RTVSPost2010Prop51ColorIndex
 90
      256
102
RTVSPost2010Prop51ColorRGB
 90
-16777216
102
RTVSPost2010PropOp51
 70
     0
102
RTVSPost2010Prop52
140
1.0
102
RTVSPost2010PropOp52
 70
     0
102
RTVSPost2010Prop53
 90
        2
102
RTVSPost2010PropOp53
 70
     1
102
RTVSPost2010Prop54
  1
strokes_ogs.tif
102
RTVSPost2010PropOp54
 70
     1
102
RTVSPost2010Prop55
280
     0
102
RTVSPost2010PropOp55
 70
     1
102
RTVSPost2010Prop56
140
1.0
102
RTVSPost2010PropOp56
 70
     1
102
RTVSPost2010Prop57
140
1.0
102
RTVSPost2010PropOp57
 70
     1
  0
XRECORD
  5
A5
102
{ACAD_REACTORS
330
A4
102
}
330
A4
100
AcDbXrecord
280
     1
102
RTVSPropertyOp0
 70
     0
102
RTVSPropertyOp1
 70
     0
102
RTVSPropertyOp2
 70
     0
102
RTVSPropertyOp3
 70
     0
102
RTVSPropertyOp4
 70
     0
102
RTVSPropertyOp5
 70
     0
102
RTVSPropertyOp6
 70
     0
102
RTVSPropertyOp7
 70
     0
102
RTVSPropertyOp8
 70
     0
102
RTVSPropertyOp9
 70
     0
102
RTVSPropertyOp10
 70
     0
102
RTVSPropertyOp11
 70
     0
102
RTVSPropertyOp12
 70
     0
102
RTVSPropertyOp13
 70
     0
102
RTVSPropertyOp14
 70
     2
102
RTVSPropertyOp15
 70
     0
102
RTVSPropertyOp16
 70
     0
102
RTVSPropertyOp17
 70
     0
102
RTVSPropertyOp18
 70
     0
102
RTVSPropertyOp19
 70
     0
102
RTVSPropertyOp20
 70
     0
102
RTVSPropertyOp21
 70
     0
102
RTVSPropertyOp22
 70
     0
102
RTVSPropertyOp23
 70
     0
102
RTVSPropertyOp24
 70
     0
102
RTVSPropertyOp25
 70
     0
102
RTVSPropertyOp26
 70
     0
102
RTVSPropertyOp27
 70
     0
102
RTVSPropertyOp28
 70
     0
102
RTVSPropertyOp29
 70
     0
102
RTVSPropertyOp30
 70
     0
102
RTVSPropertyOp31
 70
     0
102
RTVSPropertyOp32
 70
     0
102
RTVSPropertyOp33
 70
     0
102
RTVSPropertyOp34
 70
     0
102
RTVSPropertyOp35
 70
     0
102
RTVSPropertyOp36
 70
     0
102
RTVSPropertyOp37
 70
     0
102
RTVSPropertyOp38
 70
     0
102
RTVSPropertyOp39
 70
     0
102
RTVSPropertyOp40
 70
     0
102
RTVSPropertyOp41
 70
     0
102
RTVSPropertyOp42
 70
     0
102
RTVSPropertyOp43
 70
     0
102
RTVSPropertyOp44
 70
     0
102
RTVSPropertyOp45
 70
     0
102
RTVSPropertyOp46
 70
     0
102
RTVSPropertyOp47
 70
     0
102
RTVSPropertyOp48
 70
     0
102
RTVSPropertyOp49
 70
     0
102
RTVSPropertyOp50
 70
     0
102
RTVSPropertyOp51
 70
     0
102
RTVSPropertyOp52
 70
     0
102
RTVSPropertyOp53
 70
     0
102
RTVSPropertyOp54
 70
     0
102
RTVSPropertyOp55
 70
     0
102
RTVSPropertyOp56
 70
     0
102
RTVSPropertyOp57
 70
     0
102
RTVSPost2010Prop28
280
     0
102
RTVSPost2010PropOp28
 70
     0
102
RTVSPost2010Prop29
280
     1
102
RTVSPost2010PropOp29
 70
     0
102
RTVSPost2010Prop30
280
     1
102
RTVSPost2010PropOp30
 70
     0
102
RTVSPost2010Prop31
280
     0
102
RTVSPost2010PropOp31
 70
     0
102
RTVSPost2010Prop32
280
     0
102
RTVSPost2010PropOp32
 70
     0
102
RTVSPost2010Prop33
280
     0
102
RTVSPost2010PropOp33
 70
     0
102
RTVSPost2010Prop34
280
     0
102
RTVSPost2010PropOp34
 70
     0
102
RTVSPost2010Prop35
280
     0
102
RTVSPost2010PropOp35
 70
     0
102
RTVSPost2010Prop36
280
     0
102
RTVSPost2010PropOp36
 70
     0
102
RTVSPost2010Prop37
 90
       50
102
RTVSPost2010PropOp37
 70
     0
102
RTVSPost2010Prop38
140
0.0
102
RTVSPost2010PropOp38
 70
     0
102
RTVSPost2010Prop39
140
1.0
102
RTVSPost2010PropOp39
 70
     0
102
RTVSPost2010Prop40
 90
        0
102
RTVSPost2010PropOp40
 70
     0
102
RTVSPost2010Prop41ColorIndex
 90
       18
102
RTVSPost2010Prop41ColorRGB
 90
        0
102
RTVSPost2010PropOp41
 70
     0
102
RTVSPost2010Prop42
 90
       50
102
RTVSPost2010PropOp42
 70
     0
102
RTVSPost2010Prop43
 90
        3
102
RTVSPost2010PropOp43
 70
     0
102
RTVSPost2010Prop44ColorIndex
 90
        5
102
RTVSPost2010Prop44ColorRGB
 90
      255
102
RTVSPost2010PropOp44
 70
     0
102
RTVSPost2010Prop45
280
     0
102
RTVSPost2010PropOp45
 70
     0
102
RTVSPost2010Prop46
 90
       50
102
RTVSPost2010PropOp46
 70
     0
102
RTVSPost2010Prop47
 90
       50
102
RTVSPost2010PropOp47
 70
     0
102
RTVSPost2010Prop48
 90
       50
102
RTVSPost2010PropOp48
 70
     0
102
RTVSPost2010Prop49
280
     0
102
RTVSPost2010PropOp49
 70
     0
102
RTVSPost2010Prop50
 90
       50
102
RTVSPost2010PropOp50
 70
     0
102
RTVSPost2010Prop51ColorIndex
 90
      256
102
RTVSPost2010Prop51ColorRGB
 90
-16777216
102
RTVSPost2010PropOp51
 70
     0
102
RTVSPost2010Prop52
140
1.0
102
RTVSPost2010PropOp52
 70
     0
102
RTVSPost2010Prop53
 90
        2
102
RTVSPost2010PropOp53
 70
     0
102
RTVSPost2010Prop54
  1
strokes_ogs.tif
102
RTVSPost2010PropOp54
 70
     0
102
RTVSPost2010Prop55
280
     0
102
RTVSPost2010PropOp55
 70
     0
102
RTVSPost2010Prop56
140
1.0
102
RTVSPost2010PropOp56
 70
     0
102
RTVSPost2010Prop57
140
1.0
102
RTVSPost2010PropOp57
 70
     0
  0
XRECORD
  5
9F
102
{ACAD_REACTORS
330
9E
102
}
330
9E
100
AcDbXrecord
280
     1
102
RTVSPropertyOp0
 70
     1
102
RTVSPropertyOp1
 70
     1
102
RTVSPropertyOp2
 70
     1
102
RTVSPropertyOp3
 70
     1
102
RTVSPropertyOp4
 70
     1
102
RTVSPropertyOp5
 70
     1
102
RTVSPropertyOp6
 70
     1
102
RTVSPropertyOp7
 70
     1
102
RTVSPropertyOp8
 70
     1
102
RTVSPropertyOp9
 70
     1
102
RTVSPropertyOp10
 70
     1
102
RTVSPropertyOp11
 70
     1
102
RTVSPropertyOp12
 70
     1
102
RTVSPropertyOp13
 70
     1
102
RTVSPropertyOp14
 70
     1
102
RTVSPropertyOp15
 70
     1
102
RTVSPropertyOp16
 70
     1
102
RTVSPropertyOp17
 70
     1
102
RTVSPropertyOp18
 70
     1
102
RTVSPropertyOp19
 70
     1
102
RTVSPropertyOp20
 70
     1
102
RTVSPropertyOp21
 70
     1
102
RTVSPropertyOp22
 70
     1
102
RTVSPropertyOp23
 70
     1
102
RTVSPropertyOp24
 70
     1
102
RTVSPropertyOp25
 70
     1
102
RTVSPropertyOp26
 70
     1
102
RTVSPropertyOp27
 70
     1
102
RTVSPropertyOp28
 70
     1
102
RTVSPropertyOp29
 70
     1
102
RTVSPropertyOp30
 70
     1
102
RTVSPropertyOp31
 70
     1
102
RTVSPropertyOp32
 70
     1
102
RTVSPropertyOp33
 70
     1
102
RTVSPropertyOp34
 70
     1
102
RTVSPropertyOp35
 70
     1
102
RTVSPropertyOp36
 70
     1
102
RTVSPropertyOp37
 70
     1
102
RTVSPropertyOp38
 70
     1
102
RTVSPropertyOp39
 70
     1
102
RTVSPropertyOp40
 70
     1
102
RTVSPropertyOp41
 70
     1
102
RTVSPropertyOp42
 70
     1
102
RTVSPropertyOp43
 70
     1
102
RTVSPropertyOp44
 70
     1
102
RTVSPropertyOp45
 70
     1
102
RTVSPropertyOp46
 70
     1
102
RTVSPropertyOp47
 70
     1
102
RTVSPropertyOp48
 70
     1
102
RTVSPropertyOp49
 70
     1
102
RTVSPropertyOp50
 70
     1
102
RTVSPropertyOp51
 70
     0
102
RTVSPropertyOp52
 70
     0
102
RTVSPropertyOp53
 70
     1
102
RTVSPropertyOp54
 70
     1
102
RTVSPropertyOp55
 70
     1
102
RTVSPropertyOp56
 70
     1
102
RTVSPropertyOp57
 70
     1
102
RTVSPost2010Prop28
280
     0
102
RTVSPost2010PropOp28
 70
     1
102
RTVSPost2010Prop29
280
     1
102
RTVSPost2010PropOp29
 70
     1
102
RTVSPost2010Prop30
280
     1
102
RTVSPost2010PropOp30
 70
     1
102
RTVSPost2010Prop31
280
     0
102
RTVSPost2010PropOp31
 70
     1
102
RTVSPost2010Prop32
280
     0
102
RTVSPost2010PropOp32
 70
     1
102
RTVSPost2010Prop33
280
     0
102
RTVSPost2010PropOp33
 70
     1
102
RTVSPost2010Prop34
280
     0
102
RTVSPost2010PropOp34
 70
     1
102
RTVSPost2010Prop35
280
     0
102
RTVSPost2010PropOp35
 70
     1
102
RTVSPost2010Prop36
280
     0
102
RTVSPost2010PropOp36
 70
     1
102
RTVSPost2010Prop37
 90
       50
102
RTVSPost2010PropOp37
 70
     1
102
RTVSPost2010Prop38
140
0.0
102
RTVSPost2010PropOp38
 70
     1
102
RTVSPost2010Prop39
140
1.0
102
RTVSPost2010PropOp39
 70
     1
102
RTVSPost2010Prop40
 90
        0
102
RTVSPost2010PropOp40
 70
     1
102
RTVSPost2010Prop41ColorIndex
 90
       18
102
RTVSPost2010Prop41ColorRGB
 90
        0
102
RTVSPost2010PropOp41
 70
     1
102
RTVSPost2010Prop42
 90
       50
102
RTVSPost2010PropOp42
 70
     1
102
RTVSPost2010Prop43
 90
        3
102
RTVSPost2010PropOp43
 70
     1
102
RTVSPost2010Prop44ColorIndex
 90
        5
102
RTVSPost2010Prop44ColorRGB
 90
      255
102
RTVSPost2010PropOp44
 70
     1
102
RTVSPost2010Prop45
280
     0
102
RTVSPost2010PropOp45
 70
     1
102
RTVSPost2010Prop46
 90
       50
102
RTVSPost2010PropOp46
 70
     1
102
RTVSPost2010Prop47
 90
       50
102
RTVSPost2010PropOp47
 70
     1
102
RTVSPost2010Prop48
 90
       50
102
RTVSPost2010PropOp48
 70
     1
102
RTVSPost2010Prop49
280
     0
102
RTVSPost2010PropOp49
 70
     1
102
RTVSPost2010Prop50
 90
       50
102
RTVSPost2010PropOp50
 70
     1
102
RTVSPost2010Prop51ColorIndex
 90
      256
102
RTVSPost2010Prop51ColorRGB
 90
-16777216
102
RTVSPost2010PropOp51
 70
     0
102
RTVSPost2010Prop52
140
1.0
102
RTVSPost2010PropOp52
 70
     0
102
RTVSPost2010Prop53
 90
        2
102
RTVSPost2010PropOp53
 70
     1
102
RTVSPost2010Prop54
  1
strokes_ogs.tif
102
RTVSPost2010PropOp54
 70
     1
102
RTVSPost2010Prop55
280
     0
102
RTVSPost2010PropOp55
 70
     1
102
RTVSPost2010Prop56
140
1.0
102
RTVSPost2010PropOp56
 70
     1
102
RTVSPost2010Prop57
140
1.0
102
RTVSPost2010PropOp57
 70
     1
  0
XRECORD
  5
A7
102
{ACAD_REACTORS
330
A6
102
}
330
A6
100
AcDbXrecord
280
     1
102
RTVSPropertyOp0
 70
     0
102
RTVSPropertyOp1
 70
     0
102
RTVSPropertyOp2
 70
     0
102
RTVSPropertyOp3
 70
     0
102
RTVSPropertyOp4
 70
     0
102
RTVSPropertyOp5
 70
     0
102
RTVSPropertyOp6
 70
     0
102
RTVSPropertyOp7
 70
     0
102
RTVSPropertyOp8
 70
     0
102
RTVSPropertyOp9
 70
     0
102
RTVSPropertyOp10
 70
     0
102
RTVSPropertyOp11
 70
     0
102
RTVSPropertyOp12
 70
     0
102
RTVSPropertyOp13
 70
     0
102
RTVSPropertyOp14
 70
     2
102
RTVSPropertyOp15
 70
     0
102
RTVSPropertyOp16
 70
     0
102
RTVSPropertyOp17
 70
     0
102
RTVSPropertyOp18
 70
     0
102
RTVSPropertyOp19
 70
     0
102
RTVSPropertyOp20
 70
     0
102
RTVSPropertyOp21
 70
     0
102
RTVSPropertyOp22
 70
     0
102
RTVSPropertyOp23
 70
     0
102
RTVSPropertyOp24
 70
     0
102
RTVSPropertyOp25
 70
     0
102
RTVSPropertyOp26
 70
     0
102
RTVSPropertyOp27
 70
     0
102
RTVSPropertyOp28
 70
     0
102
RTVSPropertyOp29
 70
     0
102
RTVSPropertyOp30
 70
     0
102
RTVSPropertyOp31
 70
     0
102
RTVSPropertyOp32
 70
     0
102
RTVSPropertyOp33
 70
     0
102
RTVSPropertyOp34
 70
     0
102
RTVSPropertyOp35
 70
     0
102
RTVSPropertyOp36
 70
     0
102
RTVSPropertyOp37
 70
     0
102
RTVSPropertyOp38
 70
     0
102
RTVSPropertyOp39
 70
     0
102
RTVSPropertyOp40
 70
     0
102
RTVSPropertyOp41
 70
     0
102
RTVSPropertyOp42
 70
     0
102
RTVSPropertyOp43
 70
     0
102
RTVSPropertyOp44
 70
     0
102
RTVSPropertyOp45
 70
     0
102
RTVSPropertyOp46
 70
     0
102
RTVSPropertyOp47
 70
     0
102
RTVSPropertyOp48
 70
     0
102
RTVSPropertyOp49
 70
     0
102
RTVSPropertyOp50
 70
     0
102
RTVSPropertyOp51
 70
     0
102
RTVSPropertyOp52
 70
     0
102
RTVSPropertyOp53
 70
     0
102
RTVSPropertyOp54
 70
     0
102
RTVSPropertyOp55
 70
     0
102
RTVSPropertyOp56
 70
     0
102
RTVSPropertyOp57
 70
     0
102
RTVSPost2010Prop28
280
     0
102
RTVSPost2010PropOp28
 70
     0
102
RTVSPost2010Prop29
280
     1
102
RTVSPost2010PropOp29
 70
     0
102
RTVSPost2010Prop30
280
     1
102
RTVSPost2010PropOp30
 70
     0
102
RTVSPost2010Prop31
280
     0
102
RTVSPost2010PropOp31
 70
     0
102
RTVSPost2010Prop32
280
     0
102
RTVSPost2010PropOp32
 70
     0
102
RTVSPost2010Prop33
280
     0
102
RTVSPost2010PropOp33
 70
     0
102
RTVSPost2010Prop34
280
     0
102
RTVSPost2010PropOp34
 70
     0
102
RTVSPost2010Prop35
280
     0
102
RTVSPost2010PropOp35
 70
     0
102
RTVSPost2010Prop36
280
     0
102
RTVSPost2010PropOp36
 70
     0
102
RTVSPost2010Prop37
 90
       50
102
RTVSPost2010PropOp37
 70
     0
102
RTVSPost2010Prop38
140
0.0
102
RTVSPost2010PropOp38
 70
     0
102
RTVSPost2010Prop39
140
1.0
102
RTVSPost2010PropOp39
 70
     0
102
RTVSPost2010Prop40
 90
        0
102
RTVSPost2010PropOp40
 70
     0
102
RTVSPost2010Prop41ColorIndex
 90
       18
102
RTVSPost2010Prop41ColorRGB
 90
        0
102
RTVSPost2010PropOp41
 70
     0
102
RTVSPost2010Prop42
 90
       50
102
RTVSPost2010PropOp42
 70
     0
102
RTVSPost2010Prop43
 90
        3
102
RTVSPost2010PropOp43
 70
     0
102
RTVSPost2010Prop44ColorIndex
 90
        5
102
RTVSPost2010Prop44ColorRGB
 90
      255
102
RTVSPost2010PropOp44
 70
     0
102
RTVSPost2010Prop45
280
     0
102
RTVSPost2010PropOp45
 70
     0
102
RTVSPost2010Prop46
 90
       50
102
RTVSPost2010PropOp46
 70
     0
102
RTVSPost2010Prop47
 90
       50
102
RTVSPost2010PropOp47
 70
     0
102
RTVSPost2010Prop48
 90
       50
102
RTVSPost2010PropOp48
 70
     0
102
RTVSPost2010Prop49
280
     0
102
RTVSPost2010PropOp49
 70
     0
102
RTVSPost2010Prop50
 90
       50
102
RTVSPost2010PropOp50
 70
     0
102
RTVSPost2010Prop51ColorIndex
 90
      256
102
RTVSPost2010Prop51ColorRGB
 90
-16777216
102
RTVSPost2010PropOp51
 70
     0
102
RTVSPost2010Prop52
140
1.0
102
RTVSPost2010PropOp52
 70
     0
102
RTVSPost2010Prop53
 90
        2
102
RTVSPost2010PropOp53
 70
     0
102
RTVSPost2010Prop54
  1
strokes_ogs.tif
102
RTVSPost2010PropOp54
 70
     0
102
RTVSPost2010Prop55
280
     0
102
RTVSPost2010PropOp55
 70
     0
102
RTVSPost2010Prop56
140
1.0
102
RTVSPost2010PropOp56
 70
     0
102
RTVSPost2010Prop57
140
1.0
102
RTVSPost2010PropOp57
 70
     0
  0
XRECORD
  5
95
102
{ACAD_REACTORS
330
94
102
}
330
94
100
AcDbXrecord
280
     1
102
RTVSPropertyOp0
 70
     1
102
RTVSPropertyOp1
 70
     1
102
RTVSPropertyOp2
 70
     1
102
RTVSPropertyOp3
 70
     1
102
RTVSPropertyOp4
 70
     1
102
RTVSPropertyOp5
 70
     1
102
RTVSPropertyOp6
 70
     1
102
RTVSPropertyOp7
 70
     1
102
RTVSPropertyOp8
 70
     1
102
RTVSPropertyOp9
 70
     1
102
RTVSPropertyOp10
 70
     1
102
RTVSPropertyOp11
 70
     1
102
RTVSPropertyOp12
 70
     1
102
RTVSPropertyOp13
 70
     1
102
RTVSPropertyOp14
 70
     1
102
RTVSPropertyOp15
 70
     1
102
RTVSPropertyOp16
 70
     1
102
RTVSPropertyOp17
 70
     1
102
RTVSPropertyOp18
 70
     1
102
RTVSPropertyOp19
 70
     1
102
RTVSPropertyOp20
 70
     1
102
RTVSPropertyOp21
 70
     1
102
RTVSPropertyOp22
 70
     1
102
RTVSPropertyOp23
 70
     1
102
RTVSPropertyOp24
 70
     1
102
RTVSPropertyOp25
 70
     1
102
RTVSPropertyOp26
 70
     1
102
RTVSPropertyOp27
 70
     1
102
RTVSPropertyOp28
 70
     1
102
RTVSPropertyOp29
 70
     1
102
RTVSPropertyOp30
 70
     1
102
RTVSPropertyOp31
 70
     1
102
RTVSPropertyOp32
 70
     1
102
RTVSPropertyOp33
 70
     1
102
RTVSPropertyOp34
 70
     1
102
RTVSPropertyOp35
 70
     1
102
RTVSPropertyOp36
 70
     1
102
RTVSPropertyOp37
 70
     1
102
RTVSPropertyOp38
 70
     1
102
RTVSPropertyOp39
 70
     1
102
RTVSPropertyOp40
 70
     1
102
RTVSPropertyOp41
 70
     1
102
RTVSPropertyOp42
 70
     1
102
RTVSPropertyOp43
 70
     1
102
RTVSPropertyOp44
 70
     1
102
RTVSPropertyOp45
 70
     1
102
RTVSPropertyOp46
 70
     1
102
RTVSPropertyOp47
 70
     1
102
RTVSPropertyOp48
 70
     1
102
RTVSPropertyOp49
 70
     1
102
RTVSPropertyOp50
 70
     1
102
RTVSPropertyOp51
 70
     0
102
RTVSPropertyOp52
 70
     0
102
RTVSPropertyOp53
 70
     1
102
RTVSPropertyOp54
 70
     1
102
RTVSPropertyOp55
 70
     1
102
RTVSPropertyOp56
 70
     1
102
RTVSPropertyOp57
 70
     1
102
RTVSPost2010Prop28
280
     0
102
RTVSPost2010PropOp28
 70
     1
102
RTVSPost2010Prop29
280
     1
102
RTVSPost2010PropOp29
 70
     1
102
RTVSPost2010Prop30
280
     1
102
RTVSPost2010PropOp30
 70
     1
102
RTVSPost2010Prop31
280
     0
102
RTVSPost2010PropOp31
 70
     1
102
RTVSPost2010Prop32
280
     0
102
RTVSPost2010PropOp32
 70
     1
102
RTVSPost2010Prop33
280
     0
102
RTVSPost2010PropOp33
 70
     1
102
RTVSPost2010Prop34
280
     0
102
RTVSPost2010PropOp34
 70
     1
102
RTVSPost2010Prop35
280
     0
102
RTVSPost2010PropOp35
 70
     1
102
RTVSPost2010Prop36
280
     0
102
RTVSPost2010PropOp36
 70
     1
102
RTVSPost2010Prop37
 90
       50
102
RTVSPost2010PropOp37
 70
     1
102
RTVSPost2010Prop38
140
0.0
102
RTVSPost2010PropOp38
 70
     1
102
RTVSPost2010Prop39
140
1.0
102
RTVSPost2010PropOp39
 70
     1
102
RTVSPost2010Prop40
 90
        0
102
RTVSPost2010PropOp40
 70
     1
102
RTVSPost2010Prop41ColorIndex
 90
       18
102
RTVSPost2010Prop41ColorRGB
 90
        0
102
RTVSPost2010PropOp41
 70
     1
102
RTVSPost2010Prop42
 90
       50
102
RTVSPost2010PropOp42
 70
     1
102
RTVSPost2010Prop43
 90
        3
102
RTVSPost2010PropOp43
 70
     1
102
RTVSPost2010Prop44ColorIndex
 90
        5
102
RTVSPost2010Prop44ColorRGB
 90
      255
102
RTVSPost2010PropOp44
 70
     1
102
RTVSPost2010Prop45
280
     0
102
RTVSPost2010PropOp45
 70
     1
102
RTVSPost2010Prop46
 90
       50
102
RTVSPost2010PropOp46
 70
     1
102
RTVSPost2010Prop47
 90
       50
102
RTVSPost2010PropOp47
 70
     1
102
RTVSPost2010Prop48
 90
       50
102
RTVSPost2010PropOp48
 70
     1
102
RTVSPost2010Prop49
280
     0
102
RTVSPost2010PropOp49
 70
     1
102
RTVSPost2010Prop50
 90
       50
102
RTVSPost2010PropOp50
 70
     1
102
RTVSPost2010Prop51ColorIndex
 90
      256
102
RTVSPost2010Prop51ColorRGB
 90
-16777216
102
RTVSPost2010PropOp51
 70
     0
102
RTVSPost2010Prop52
140
1.0
102
RTVSPost2010PropOp52
 70
     0
102
RTVSPost2010Prop53
 90
        2
102
RTVSPost2010PropOp53
 70
     1
102
RTVSPost2010Prop54
  1
strokes_ogs.tif
102
RTVSPost2010PropOp54
 70
     1
102
RTVSPost2010Prop55
280
     0
102
RTVSPost2010PropOp55
 70
     1
102
RTVSPost2010Prop56
140
1.0
102
RTVSPost2010PropOp56
 70
     1
102
RTVSPost2010Prop57
140
1.0
102
RTVSPost2010PropOp57
 70
     1
  0
XRECORD
  5
B3
102
{ACAD_REACTORS
330
B2
102
}
330
B2
100
AcDbXrecord
280
     1
102
RTVSPropertyOp0
 70
     1
102
RTVSPropertyOp1
 70
     1
102
RTVSPropertyOp2
 70
     1
102
RTVSPropertyOp3
 70
     1
102
RTVSPropertyOp4
 70
     1
102
RTVSPropertyOp5
 70
     1
102
RTVSPropertyOp6
 70
     1
102
RTVSPropertyOp7
 70
     1
102
RTVSPropertyOp8
 70
     1
102
RTVSPropertyOp9
 70
     1
102
RTVSPropertyOp10
 70
     1
102
RTVSPropertyOp11
 70
     1
102
RTVSPropertyOp12
 70
     1
102
RTVSPropertyOp13
 70
     1
102
RTVSPropertyOp14
 70
     1
102
RTVSPropertyOp15
 70
     1
102
RTVSPropertyOp16
 70
     1
102
RTVSPropertyOp17
 70
     1
102
RTVSPropertyOp18
 70
     1
102
RTVSPropertyOp19
 70
     1
102
RTVSPropertyOp20
 70
     1
102
RTVSPropertyOp21
 70
     1
102
RTVSPropertyOp22
 70
     1
102
RTVSPropertyOp23
 70
     1
102
RTVSPropertyOp24
 70
     1
102
RTVSPropertyOp25
 70
     1
102
RTVSPropertyOp26
 70
     1
102
RTVSPropertyOp27
 70
     1
102
RTVSPropertyOp28
 70
     1
102
RTVSPropertyOp29
 70
     1
102
RTVSPropertyOp30
 70
     1
102
RTVSPropertyOp31
 70
     1
102
RTVSPropertyOp32
 70
     1
102
RTVSPropertyOp33
 70
     1
102
RTVSPropertyOp34
 70
     1
102
RTVSPropertyOp35
 70
     1
102
RTVSPropertyOp36
 70
     1
102
RTVSPropertyOp37
 70
     1
102
RTVSPropertyOp38
 70
     1
102
RTVSPropertyOp39
 70
     1
102
RTVSPropertyOp40
 70
     1
102
RTVSPropertyOp41
 70
     1
102
RTVSPropertyOp42
 70
     1
102
RTVSPropertyOp43
 70
     1
102
RTVSPropertyOp44
 70
     1
102
RTVSPropertyOp45
 70
     1
102
RTVSPropertyOp46
 70
     1
102
RTVSPropertyOp47
 70
     1
102
RTVSPropertyOp48
 70
     1
102
RTVSPropertyOp49
 70
     1
102
RTVSPropertyOp50
 70
     1
102
RTVSPropertyOp51
 70
     0
102
RTVSPropertyOp52
 70
     0
102
RTVSPropertyOp53
 70
     1
102
RTVSPropertyOp54
 70
     1
102
RTVSPropertyOp55
 70
     1
102
RTVSPropertyOp56
 70
     1
102
RTVSPropertyOp57
 70
     1
102
RTVSPost2010Prop28
280
     0
102
RTVSPost2010PropOp28
 70
     1
102
RTVSPost2010Prop29
280
     1
102
RTVSPost2010PropOp29
 70
     1
102
RTVSPost2010Prop30
280
     1
102
RTVSPost2010PropOp30
 70
     1
102
RTVSPost2010Prop31
280
     0
102
RTVSPost2010PropOp31
 70
     1
102
RTVSPost2010Prop32
280
     0
102
RTVSPost2010PropOp32
 70
     1
102
RTVSPost2010Prop33
280
     0
102
RTVSPost2010PropOp33
 70
     1
102
RTVSPost2010Prop34
280
     0
102
RTVSPost2010PropOp34
 70
     1
102
RTVSPost2010Prop35
280
     0
102
RTVSPost2010PropOp35
 70
     1
102
RTVSPost2010Prop36
280
     0
102
RTVSPost2010PropOp36
 70
     1
102
RTVSPost2010Prop37
 90
       50
102
RTVSPost2010PropOp37
 70
     1
102
RTVSPost2010Prop38
140
0.0
102
RTVSPost2010PropOp38
 70
     1
102
RTVSPost2010Prop39
140
1.0
102
RTVSPost2010PropOp39
 70
     1
102
RTVSPost2010Prop40
 90
        0
102
RTVSPost2010PropOp40
 70
     1
102
RTVSPost2010Prop41ColorIndex
 90
       18
102
RTVSPost2010Prop41ColorRGB
 90
        0
102
RTVSPost2010PropOp41
 70
     1
102
RTVSPost2010Prop42
 90
       50
102
RTVSPost2010PropOp42
 70
     1
102
RTVSPost2010Prop43
 90
        3
102
RTVSPost2010PropOp43
 70
     1
102
RTVSPost2010Prop44ColorIndex
 90
        5
102
RTVSPost2010Prop44ColorRGB
 90
      255
102
RTVSPost2010PropOp44
 70
     1
102
RTVSPost2010Prop45
280
     0
102
RTVSPost2010PropOp45
 70
     1
102
RTVSPost2010Prop46
 90
       50
102
RTVSPost2010PropOp46
 70
     1
102
RTVSPost2010Prop47
 90
       50
102
RTVSPost2010PropOp47
 70
     1
102
RTVSPost2010Prop48
 90
       50
102
RTVSPost2010PropOp48
 70
     1
102
RTVSPost2010Prop49
280
     0
102
RTVSPost2010PropOp49
 70
     1
102
RTVSPost2010Prop50
 90
       50
102
RTVSPost2010PropOp50
 70
     1
102
RTVSPost2010Prop51ColorIndex
 90
      256
102
RTVSPost2010Prop51ColorRGB
 90
-16777216
102
RTVSPost2010PropOp51
 70
     0
102
RTVSPost2010Prop52
140
1.0
102
RTVSPost2010PropOp52
 70
     0
102
RTVSPost2010Prop53
 90
        2
102
RTVSPost2010PropOp53
 70
     1
102
RTVSPost2010Prop54
  1
strokes_ogs.tif
102
RTVSPost2010PropOp54
 70
     1
102
RTVSPost2010Prop55
280
     0
102
RTVSPost2010PropOp55
 70
     1
102
RTVSPost2010Prop56
140
1.0
102
RTVSPost2010PropOp56
 70
     1
102
RTVSPost2010Prop57
140
1.0
102
RTVSPost2010PropOp57
 70
     1
  0
XRECORD
  5
B1
102
{ACAD_REACTORS
330
B0
102
}
330
B0
100
AcDbXrecord
280
     1
102
RTVSPropertyOp0
 70
     1
102
RTVSPropertyOp1
 70
     1
102
RTVSPropertyOp2
 70
     1
102
RTVSPropertyOp3
 70
     1
102
RTVSPropertyOp4
 70
     1
102
RTVSPropertyOp5
 70
     1
102
RTVSPropertyOp6
 70
     1
102
RTVSPropertyOp7
 70
     1
102
RTVSPropertyOp8
 70
     1
102
RTVSPropertyOp9
 70
     1
102
RTVSPropertyOp10
 70
     1
102
RTVSPropertyOp11
 70
     1
102
RTVSPropertyOp12
 70
     1
102
RTVSPropertyOp13
 70
     1
102
RTVSPropertyOp14
 70
     1
102
RTVSPropertyOp15
 70
     1
102
RTVSPropertyOp16
 70
     1
102
RTVSPropertyOp17
 70
     1
102
RTVSPropertyOp18
 70
     1
102
RTVSPropertyOp19
 70
     1
102
RTVSPropertyOp20
 70
     1
102
RTVSPropertyOp21
 70
     1
102
RTVSPropertyOp22
 70
     1
102
RTVSPropertyOp23
 70
     1
102
RTVSPropertyOp24
 70
     1
102
RTVSPropertyOp25
 70
     1
102
RTVSPropertyOp26
 70
     1
102
RTVSPropertyOp27
 70
     1
102
RTVSPropertyOp28
 70
     1
102
RTVSPropertyOp29
 70
     1
102
RTVSPropertyOp30
 70
     1
102
RTVSPropertyOp31
 70
     1
102
RTVSPropertyOp32
 70
     1
102
RTVSPropertyOp33
 70
     1
102
RTVSPropertyOp34
 70
     1
102
RTVSPropertyOp35
 70
     1
102
RTVSPropertyOp36
 70
     1
102
RTVSPropertyOp37
 70
     1
102
RTVSPropertyOp38
 70
     1
102
RTVSPropertyOp39
 70
     1
102
RTVSPropertyOp40
 70
     1
102
RTVSPropertyOp41
 70
     1
102
RTVSPropertyOp42
 70
     1
102
RTVSPropertyOp43
 70
     1
102
RTVSPropertyOp44
 70
     1
102
RTVSPropertyOp45
 70
     1
102
RTVSPropertyOp46
 70
     1
102
RTVSPropertyOp47
 70
     1
102
RTVSPropertyOp48
 70
     1
102
RTVSPropertyOp49
 70
     1
102
RTVSPropertyOp50
 70
     1
102
RTVSPropertyOp51
 70
     0
102
RTVSPropertyOp52
 70
     0
102
RTVSPropertyOp53
 70
     1
102
RTVSPropertyOp54
 70
     1
102
RTVSPropertyOp55
 70
     1
102
RTVSPropertyOp56
 70
     1
102
RTVSPropertyOp57
 70
     1
102
RTVSPost2010Prop28
280
     0
102
RTVSPost2010PropOp28
 70
     1
102
RTVSPost2010Prop29
280
     1
102
RTVSPost2010PropOp29
 70
     1
102
RTVSPost2010Prop30
280
     1
102
RTVSPost2010PropOp30
 70
     1
102
RTVSPost2010Prop31
280
     0
102
RTVSPost2010PropOp31
 70
     1
102
RTVSPost2010Prop32
280
     0
102
RTVSPost2010PropOp32
 70
     1
102
RTVSPost2010Prop33
280
     0
102
RTVSPost2010PropOp33
 70
     1
102
RTVSPost2010Prop34
280
     0
102
RTVSPost2010PropOp34
 70
     1
102
RTVSPost2010Prop35
280
     0
102
RTVSPost2010PropOp35
 70
     1
102
RTVSPost2010Prop36
280
     0
102
RTVSPost2010PropOp36
 70
     1
102
RTVSPost2010Prop37
 90
       50
102
RTVSPost2010PropOp37
 70
     1
102
RTVSPost2010Prop38
140
0.0
102
RTVSPost2010PropOp38
 70
     1
102
RTVSPost2010Prop39
140
1.0
102
RTVSPost2010PropOp39
 70
     1
102
RTVSPost2010Prop40
 90
        0
102
RTVSPost2010PropOp40
 70
     1
102
RTVSPost2010Prop41ColorIndex
 90
       18
102
RTVSPost2010Prop41ColorRGB
 90
        0
102
RTVSPost2010PropOp41
 70
     1
102
RTVSPost2010Prop42
 90
       50
102
RTVSPost2010PropOp42
 70
     1
102
RTVSPost2010Prop43
 90
        3
102
RTVSPost2010PropOp43
 70
     1
102
RTVSPost2010Prop44ColorIndex
 90
        5
102
RTVSPost2010Prop44ColorRGB
 90
      255
102
RTVSPost2010PropOp44
 70
     1
102
RTVSPost2010Prop45
280
     0
102
RTVSPost2010PropOp45
 70
     1
102
RTVSPost2010Prop46
 90
       50
102
RTVSPost2010PropOp46
 70
     1
102
RTVSPost2010Prop47
 90
       50
102
RTVSPost2010PropOp47
 70
     1
102
RTVSPost2010Prop48
 90
       50
102
RTVSPost2010PropOp48
 70
     1
102
RTVSPost2010Prop49
280
     0
102
RTVSPost2010PropOp49
 70
     1
102
RTVSPost2010Prop50
 90
       50
102
RTVSPost2010PropOp50
 70
     1
102
RTVSPost2010Prop51ColorIndex
 90
      256
102
RTVSPost2010Prop51ColorRGB
 90
-16777216
102
RTVSPost2010PropOp51
 70
     0
102
RTVSPost2010Prop52
140
1.0
102
RTVSPost2010PropOp52
 70
     0
102
RTVSPost2010Prop53
 90
        2
102
RTVSPost2010PropOp53
 70
     1
102
RTVSPost2010Prop54
  1
strokes_ogs.tif
102
RTVSPost2010PropOp54
 70
     1
102
RTVSPost2010Prop55
280
     0
102
RTVSPost2010PropOp55
 70
     1
102
RTVSPost2010Prop56
140
1.0
102
RTVSPost2010PropOp56
 70
     1
102
RTVSPost2010Prop57
140
1.0
102
RTVSPost2010PropOp57
 70
     1
  0
XRECORD
  5
AB
102
{ACAD_REACTORS
330
AA
102
}
330
AA
100
AcDbXrecord
280
     1
102
RTVSPropertyOp0
 70
     1
102
RTVSPropertyOp1
 70
     1
102
RTVSPropertyOp2
 70
     1
102
RTVSPropertyOp3
 70
     1
102
RTVSPropertyOp4
 70
     1
102
RTVSPropertyOp5
 70
     1
102
RTVSPropertyOp6
 70
     1
102
RTVSPropertyOp7
 70
     1
102
RTVSPropertyOp8
 70
     1
102
RTVSPropertyOp9
 70
     1
102
RTVSPropertyOp10
 70
     1
102
RTVSPropertyOp11
 70
     1
102
RTVSPropertyOp12
 70
     1
102
RTVSPropertyOp13
 70
     1
102
RTVSPropertyOp14
 70
     1
102
RTVSPropertyOp15
 70
     1
102
RTVSPropertyOp16
 70
     1
102
RTVSPropertyOp17
 70
     1
102
RTVSPropertyOp18
 70
     1
102
RTVSPropertyOp19
 70
     1
102
RTVSPropertyOp20
 70
     1
102
RTVSPropertyOp21
 70
     1
102
RTVSPropertyOp22
 70
     1
102
RTVSPropertyOp23
 70
     1
102
RTVSPropertyOp24
 70
     1
102
RTVSPropertyOp25
 70
     1
102
RTVSPropertyOp26
 70
     1
102
RTVSPropertyOp27
 70
     1
102
RTVSPropertyOp28
 70
     1
102
RTVSPropertyOp29
 70
     1
102
RTVSPropertyOp30
 70
     1
102
RTVSPropertyOp31
 70
     1
102
RTVSPropertyOp32
 70
     1
102
RTVSPropertyOp33
 70
     1
102
RTVSPropertyOp34
 70
     1
102
RTVSPropertyOp35
 70
     1
102
RTVSPropertyOp36
 70
     1
102
RTVSPropertyOp37
 70
     1
102
RTVSPropertyOp38
 70
     1
102
RTVSPropertyOp39
 70
     1
102
RTVSPropertyOp40
 70
     1
102
RTVSPropertyOp41
 70
     1
102
RTVSPropertyOp42
 70
     1
102
RTVSPropertyOp43
 70
     1
102
RTVSPropertyOp44
 70
     1
102
RTVSPropertyOp45
 70
     1
102
RTVSPropertyOp46
 70
     1
102
RTVSPropertyOp47
 70
     1
102
RTVSPropertyOp48
 70
     1
102
RTVSPropertyOp49
 70
     1
102
RTVSPropertyOp50
 70
     1
102
RTVSPropertyOp51
 70
     0
102
RTVSPropertyOp52
 70
     0
102
RTVSPropertyOp53
 70
     1
102
RTVSPropertyOp54
 70
     1
102
RTVSPropertyOp55
 70
     1
102
RTVSPropertyOp56
 70
     1
102
RTVSPropertyOp57
 70
     1
102
RTVSPost2010Prop28
280
     0
102
RTVSPost2010PropOp28
 70
     1
102
RTVSPost2010Prop29
280
     1
102
RTVSPost2010PropOp29
 70
     1
102
RTVSPost2010Prop30
280
     1
102
RTVSPost2010PropOp30
 70
     1
102
RTVSPost2010Prop31
280
     0
102
RTVSPost2010PropOp31
 70
     1
102
RTVSPost2010Prop32
280
     0
102
RTVSPost2010PropOp32
 70
     1
102
RTVSPost2010Prop33
280
     0
102
RTVSPost2010PropOp33
 70
     1
102
RTVSPost2010Prop34
280
     0
102
RTVSPost2010PropOp34
 70
     1
102
RTVSPost2010Prop35
280
     0
102
RTVSPost2010PropOp35
 70
     1
102
RTVSPost2010Prop36
280
     0
102
RTVSPost2010PropOp36
 70
     1
102
RTVSPost2010Prop37
 90
       50
102
RTVSPost2010PropOp37
 70
     1
102
RTVSPost2010Prop38
140
0.0
102
RTVSPost2010PropOp38
 70
     1
102
RTVSPost2010Prop39
140
1.0
102
RTVSPost2010PropOp39
 70
     1
102
RTVSPost2010Prop40
 90
        0
102
RTVSPost2010PropOp40
 70
     1
102
RTVSPost2010Prop41ColorIndex
 90
       18
102
RTVSPost2010Prop41ColorRGB
 90
        0
102
RTVSPost2010PropOp41
 70
     1
102
RTVSPost2010Prop42
 90
       50
102
RTVSPost2010PropOp42
 70
     1
102
RTVSPost2010Prop43
 90
        3
102
RTVSPost2010PropOp43
 70
     1
102
RTVSPost2010Prop44ColorIndex
 90
        5
102
RTVSPost2010Prop44ColorRGB
 90
      255
102
RTVSPost2010PropOp44
 70
     1
102
RTVSPost2010Prop45
280
     0
102
RTVSPost2010PropOp45
 70
     1
102
RTVSPost2010Prop46
 90
       50
102
RTVSPost2010PropOp46
 70
     1
102
RTVSPost2010Prop47
 90
       50
102
RTVSPost2010PropOp47
 70
     1
102
RTVSPost2010Prop48
 90
       50
102
RTVSPost2010PropOp48
 70
     1
102
RTVSPost2010Prop49
280
     0
102
RTVSPost2010PropOp49
 70
     1
102
RTVSPost2010Prop50
 90
       50
102
RTVSPost2010PropOp50
 70
     1
102
RTVSPost2010Prop51ColorIndex
 90
      256
102
RTVSPost2010Prop51ColorRGB
 90
-16777216
102
RTVSPost2010PropOp51
 70
     0
102
RTVSPost2010Prop52
140
1.0
102
RTVSPost2010PropOp52
 70
     0
102
RTVSPost2010Prop53
 90
        2
102
RTVSPost2010PropOp53
 70
     1
102
RTVSPost2010Prop54
  1
strokes_ogs.tif
102
RTVSPost2010PropOp54
 70
     1
102
RTVSPost2010Prop55
280
     0
102
RTVSPost2010PropOp55
 70
     1
102
RTVSPost2010Prop56
140
1.0
102
RTVSPost2010PropOp56
 70
     1
102
RTVSPost2010Prop57
140
1.0
102
RTVSPost2010PropOp57
 70
     1
  0
XRECORD
  5
AD
102
{ACAD_REACTORS
330
AC
102
}
330
AC
100
AcDbXrecord
280
     1
102
RTVSPropertyOp0
 70
     1
102
RTVSPropertyOp1
 70
     1
102
RTVSPropertyOp2
 70
     1
102
RTVSPropertyOp3
 70
     1
102
RTVSPropertyOp4
 70
     1
102
RTVSPropertyOp5
 70
     1
102
RTVSPropertyOp6
 70
     1
102
RTVSPropertyOp7
 70
     1
102
RTVSPropertyOp8
 70
     1
102
RTVSPropertyOp9
 70
     1
102
RTVSPropertyOp10
 70
     1
102
RTVSPropertyOp11
 70
     1
102
RTVSPropertyOp12
 70
     1
102
RTVSPropertyOp13
 70
     1
102
RTVSPropertyOp14
 70
     1
102
RTVSPropertyOp15
 70
     1
102
RTVSPropertyOp16
 70
     1
102
RTVSPropertyOp17
 70
     1
102
RTVSPropertyOp18
 70
     1
102
RTVSPropertyOp19
 70
     1
102
RTVSPropertyOp20
 70
     1
102
RTVSPropertyOp21
 70
     1
102
RTVSPropertyOp22
 70
     1
102
RTVSPropertyOp23
 70
     1
102
RTVSPropertyOp24
 70
     1
102
RTVSPropertyOp25
 70
     1
102
RTVSPropertyOp26
 70
     1
102
RTVSPropertyOp27
 70
     1
102
RTVSPropertyOp28
 70
     1
102
RTVSPropertyOp29
 70
     1
102
RTVSPropertyOp30
 70
     1
102
RTVSPropertyOp31
 70
     1
102
RTVSPropertyOp32
 70
     1
102
RTVSPropertyOp33
 70
     1
102
RTVSPropertyOp34
 70
     1
102
RTVSPropertyOp35
 70
     1
102
RTVSPropertyOp36
 70
     1
102
RTVSPropertyOp37
 70
     1
102
RTVSPropertyOp38
 70
     1
102
RTVSPropertyOp39
 70
     1
102
RTVSPropertyOp40
 70
     1
102
RTVSPropertyOp41
 70
     1
102
RTVSPropertyOp42
 70
     1
102
RTVSPropertyOp43
 70
     1
102
RTVSPropertyOp44
 70
     1
102
RTVSPropertyOp45
 70
     1
102
RTVSPropertyOp46
 70
     1
102
RTVSPropertyOp47
 70
     1
102
RTVSPropertyOp48
 70
     1
102
RTVSPropertyOp49
 70
     1
102
RTVSPropertyOp50
 70
     1
102
RTVSPropertyOp51
 70
     0
102
RTVSPropertyOp52
 70
     0
102
RTVSPropertyOp53
 70
     1
102
RTVSPropertyOp54
 70
     1
102
RTVSPropertyOp55
 70
     1
102
RTVSPropertyOp56
 70
     1
102
RTVSPropertyOp57
 70
     1
102
RTVSPost2010Prop28
280
     0
102
RTVSPost2010PropOp28
 70
     1
102
RTVSPost2010Prop29
280
     1
102
RTVSPost2010PropOp29
 70
     1
102
RTVSPost2010Prop30
280
     1
102
RTVSPost2010PropOp30
 70
     1
102
RTVSPost2010Prop31
280
     0
102
RTVSPost2010PropOp31
 70
     1
102
RTVSPost2010Prop32
280
     0
102
RTVSPost2010PropOp32
 70
     1
102
RTVSPost2010Prop33
280
     0
102
RTVSPost2010PropOp33
 70
     1
102
RTVSPost2010Prop34
280
     0
102
RTVSPost2010PropOp34
 70
     1
102
RTVSPost2010Prop35
280
     0
102
RTVSPost2010PropOp35
 70
     1
102
RTVSPost2010Prop36
280
     0
102
RTVSPost2010PropOp36
 70
     1
102
RTVSPost2010Prop37
 90
       50
102
RTVSPost2010PropOp37
 70
     1
102
RTVSPost2010Prop38
140
0.0
102
RTVSPost2010PropOp38
 70
     1
102
RTVSPost2010Prop39
140
1.0
102
RTVSPost2010PropOp39
 70
     1
102
RTVSPost2010Prop40
 90
        0
102
RTVSPost2010PropOp40
 70
     1
102
RTVSPost2010Prop41ColorIndex
 90
       18
102
RTVSPost2010Prop41ColorRGB
 90
        0
102
RTVSPost2010PropOp41
 70
     1
102
RTVSPost2010Prop42
 90
       50
102
RTVSPost2010PropOp42
 70
     1
102
RTVSPost2010Prop43
 90
        3
102
RTVSPost2010PropOp43
 70
     1
102
RTVSPost2010Prop44ColorIndex
 90
        5
102
RTVSPost2010Prop44ColorRGB
 90
      255
102
RTVSPost2010PropOp44
 70
     1
102
RTVSPost2010Prop45
280
     0
102
RTVSPost2010PropOp45
 70
     1
102
RTVSPost2010Prop46
 90
       50
102
RTVSPost2010PropOp46
 70
     1
102
RTVSPost2010Prop47
 90
       50
102
RTVSPost2010PropOp47
 70
     1
102
RTVSPost2010Prop48
 90
       50
102
RTVSPost2010PropOp48
 70
     1
102
RTVSPost2010Prop49
280
     0
102
RTVSPost2010PropOp49
 70
     1
102
RTVSPost2010Prop50
 90
       50
102
RTVSPost2010PropOp50
 70
     1
102
RTVSPost2010Prop51ColorIndex
 90
      256
102
RTVSPost2010Prop51ColorRGB
 90
-16777216
102
RTVSPost2010PropOp51
 70
     0
102
RTVSPost2010Prop52
140
1.0
102
RTVSPost2010PropOp52
 70
     0
102
RTVSPost2010Prop53
 90
        2
102
RTVSPost2010PropOp53
 70
     1
102
RTVSPost2010Prop54
  1
strokes_ogs.tif
102
RTVSPost2010PropOp54
 70
     1
102
RTVSPost2010Prop55
280
     0
102
RTVSPost2010PropOp55
 70
     1
102
RTVSPost2010Prop56
140
1.0
102
RTVSPost2010PropOp56
 70
     1
102
RTVSPost2010Prop57
140
1.0
102
RTVSPost2010PropOp57
 70
     1
  0
XRECORD
  5
9D
102
{ACAD_REACTORS
330
9C
102
}
330
9C
100
AcDbXrecord
280
     1
102
RTVSPropertyOp0
 70
     1
102
RTVSPropertyOp1
 70
     1
102
RTVSPropertyOp2
 70
     1
102
RTVSPropertyOp3
 70
     1
102
RTVSPropertyOp4
 70
     1
102
RTVSPropertyOp5
 70
     1
102
RTVSPropertyOp6
 70
     1
102
RTVSPropertyOp7
 70
     1
102
RTVSPropertyOp8
 70
     1
102
RTVSPropertyOp9
 70
     1
102
RTVSPropertyOp10
 70
     1
102
RTVSPropertyOp11
 70
     1
102
RTVSPropertyOp12
 70
     1
102
RTVSPropertyOp13
 70
     1
102
RTVSPropertyOp14
 70
     1
102
RTVSPropertyOp15
 70
     1
102
RTVSPropertyOp16
 70
     1
102
RTVSPropertyOp17
 70
     1
102
RTVSPropertyOp18
 70
     1
102
RTVSPropertyOp19
 70
     1
102
RTVSPropertyOp20
 70
     1
102
RTVSPropertyOp21
 70
     1
102
RTVSPropertyOp22
 70
     1
102
RTVSPropertyOp23
 70
     1
102
RTVSPropertyOp24
 70
     1
102
RTVSPropertyOp25
 70
     1
102
RTVSPropertyOp26
 70
     1
102
RTVSPropertyOp27
 70
     1
102
RTVSPropertyOp28
 70
     1
102
RTVSPropertyOp29
 70
     1
102
RTVSPropertyOp30
 70
     1
102
RTVSPropertyOp31
 70
     1
102
RTVSPropertyOp32
 70
     1
102
RTVSPropertyOp33
 70
     1
102
RTVSPropertyOp34
 70
     1
102
RTVSPropertyOp35
 70
     1
102
RTVSPropertyOp36
 70
     1
102
RTVSPropertyOp37
 70
     1
102
RTVSPropertyOp38
 70
     1
102
RTVSPropertyOp39
 70
     1
102
RTVSPropertyOp40
 70
     1
102
RTVSPropertyOp41
 70
     1
102
RTVSPropertyOp42
 70
     1
102
RTVSPropertyOp43
 70
     1
102
RTVSPropertyOp44
 70
     1
102
RTVSPropertyOp45
 70
     1
102
RTVSPropertyOp46
 70
     1
102
RTVSPropertyOp47
 70
     1
102
RTVSPropertyOp48
 70
     1
102
RTVSPropertyOp49
 70
     1
102
RTVSPropertyOp50
 70
     1
102
RTVSPropertyOp51
 70
     0
102
RTVSPropertyOp52
 70
     0
102
RTVSPropertyOp53
 70
     1
102
RTVSPropertyOp54
 70
     1
102
RTVSPropertyOp55
 70
     1
102
RTVSPropertyOp56
 70
     1
102
RTVSPropertyOp57
 70
     1
102
RTVSPost2010Prop28
280
     0
102
RTVSPost2010PropOp28
 70
     1
102
RTVSPost2010Prop29
280
     1
102
RTVSPost2010PropOp29
 70
     1
102
RTVSPost2010Prop30
280
     1
102
RTVSPost2010PropOp30
 70
     1
102
RTVSPost2010Prop31
280
     0
102
RTVSPost2010PropOp31
 70
     1
102
RTVSPost2010Prop32
280
     0
102
RTVSPost2010PropOp32
 70
     1
102
RTVSPost2010Prop33
280
     0
102
RTVSPost2010PropOp33
 70
     1
102
RTVSPost2010Prop34
280
     0
102
RTVSPost2010PropOp34
 70
     1
102
RTVSPost2010Prop35
280
     0
102
RTVSPost2010PropOp35
 70
     1
102
RTVSPost2010Prop36
280
     0
102
RTVSPost2010PropOp36
 70
     1
102
RTVSPost2010Prop37
 90
       50
102
RTVSPost2010PropOp37
 70
     1
102
RTVSPost2010Prop38
140
0.0
102
RTVSPost2010PropOp38
 70
     1
102
RTVSPost2010Prop39
140
1.0
102
RTVSPost2010PropOp39
 70
     1
102
RTVSPost2010Prop40
 90
        0
102
RTVSPost2010PropOp40
 70
     1
102
RTVSPost2010Prop41ColorIndex
 90
       18
102
RTVSPost2010Prop41ColorRGB
 90
        0
102
RTVSPost2010PropOp41
 70
     1
102
RTVSPost2010Prop42
 90
       50
102
RTVSPost2010PropOp42
 70
     1
102
RTVSPost2010Prop43
 90
        3
102
RTVSPost2010PropOp43
 70
     1
102
RTVSPost2010Prop44ColorIndex
 90
        5
102
RTVSPost2010Prop44ColorRGB
 90
      255
102
RTVSPost2010PropOp44
 70
     1
102
RTVSPost2010Prop45
280
     0
102
RTVSPost2010PropOp45
 70
     1
102
RTVSPost2010Prop46
 90
       50
102
RTVSPost2010PropOp46
 70
     1
102
RTVSPost2010Prop47
 90
       50
102
RTVSPost2010PropOp47
 70
     1
102
RTVSPost2010Prop48
 90
       50
102
RTVSPost2010PropOp48
 70
     1
102
RTVSPost2010Prop49
280
     0
102
RTVSPost2010PropOp49
 70
     1
102
RTVSPost2010Prop50
 90
       50
102
RTVSPost2010PropOp50
 70
     1
102
RTVSPost2010Prop51ColorIndex
 90
      256
102
RTVSPost2010Prop51ColorRGB
 90
-16777216
102
RTVSPost2010PropOp51
 70
     0
102
RTVSPost2010Prop52
140
1.0
102
RTVSPost2010PropOp52
 70
     0
102
RTVSPost2010Prop53
 90
        2
102
RTVSPost2010PropOp53
 70
     1
102
RTVSPost2010Prop54
  1
strokes_ogs.tif
102
RTVSPost2010PropOp54
 70
     1
102
RTVSPost2010Prop55
280
     0
102
RTVSPost2010PropOp55
 70
     1
102
RTVSPost2010Prop56
140
1.0
102
RTVSPost2010PropOp56
 70
     1
102
RTVSPost2010Prop57
140
1.0
102
RTVSPost2010PropOp57
 70
     1
  0
XRECORD
  5
8F
102
{ACAD_REACTORS
330
8E
102
}
330
8E
100
AcDbXrecord
280
     1
102
RTVSPropertyOp0
 70
     1
102
RTVSPropertyOp1
 70
     1
102
RTVSPropertyOp2
 70
     1
102
RTVSPropertyOp3
 70
     1
102
RTVSPropertyOp4
 70
     1
102
RTVSPropertyOp5
 70
     1
102
RTVSPropertyOp6
 70
     1
102
RTVSPropertyOp7
 70
     1
102
RTVSPropertyOp8
 70
     1
102
RTVSPropertyOp9
 70
     1
102
RTVSPropertyOp10
 70
     1
102
RTVSPropertyOp11
 70
     1
102
RTVSPropertyOp12
 70
     1
102
RTVSPropertyOp13
 70
     1
102
RTVSPropertyOp14
 70
     1
102
RTVSPropertyOp15
 70
     1
102
RTVSPropertyOp16
 70
     1
102
RTVSPropertyOp17
 70
     1
102
RTVSPropertyOp18
 70
     1
102
RTVSPropertyOp19
 70
     1
102
RTVSPropertyOp20
 70
     1
102
RTVSPropertyOp21
 70
     1
102
RTVSPropertyOp22
 70
     1
102
RTVSPropertyOp23
 70
     1
102
RTVSPropertyOp24
 70
     1
102
RTVSPropertyOp25
 70
     1
102
RTVSPropertyOp26
 70
     1
102
RTVSPropertyOp27
 70
     1
102
RTVSPropertyOp28
 70
     1
102
RTVSPropertyOp29
 70
     1
102
RTVSPropertyOp30
 70
     1
102
RTVSPropertyOp31
 70
     1
102
RTVSPropertyOp32
 70
     1
102
RTVSPropertyOp33
 70
     1
102
RTVSPropertyOp34
 70
     1
102
RTVSPropertyOp35
 70
     1
102
RTVSPropertyOp36
 70
     1
102
RTVSPropertyOp37
 70
     1
102
RTVSPropertyOp38
 70
     1
102
RTVSPropertyOp39
 70
     1
102
RTVSPropertyOp40
 70
     1
102
RTVSPropertyOp41
 70
     1
102
RTVSPropertyOp42
 70
     1
102
RTVSPropertyOp43
 70
     1
102
RTVSPropertyOp44
 70
     1
102
RTVSPropertyOp45
 70
     1
102
RTVSPropertyOp46
 70
     1
102
RTVSPropertyOp47
 70
     1
102
RTVSPropertyOp48
 70
     1
102
RTVSPropertyOp49
 70
     1
102
RTVSPropertyOp50
 70
     1
102
RTVSPropertyOp51
 70
     0
102
RTVSPropertyOp52
 70
     0
102
RTVSPropertyOp53
 70
     1
102
RTVSPropertyOp54
 70
     1
102
RTVSPropertyOp55
 70
     1
102
RTVSPropertyOp56
 70
     1
102
RTVSPropertyOp57
 70
     1
102
RTVSPost2010Prop28
280
     0
102
RTVSPost2010PropOp28
 70
     1
102
RTVSPost2010Prop29
280
     1
102
RTVSPost2010PropOp29
 70
     1
102
RTVSPost2010Prop30
280
     1
102
RTVSPost2010PropOp30
 70
     1
102
RTVSPost2010Prop31
280
     0
102
RTVSPost2010PropOp31
 70
     1
102
RTVSPost2010Prop32
280
     0
102
RTVSPost2010PropOp32
 70
     1
102
RTVSPost2010Prop33
280
     0
102
RTVSPost2010PropOp33
 70
     1
102
RTVSPost2010Prop34
280
     0
102
RTVSPost2010PropOp34
 70
     1
102
RTVSPost2010Prop35
280
     0
102
RTVSPost2010PropOp35
 70
     1
102
RTVSPost2010Prop36
280
     0
102
RTVSPost2010PropOp36
 70
     1
102
RTVSPost2010Prop37
 90
       50
102
RTVSPost2010PropOp37
 70
     1
102
RTVSPost2010Prop38
140
0.0
102
RTVSPost2010PropOp38
 70
     1
102
RTVSPost2010Prop39
140
1.0
102
RTVSPost2010PropOp39
 70
     1
102
RTVSPost2010Prop40
 90
        0
102
RTVSPost2010PropOp40
 70
     1
102
RTVSPost2010Prop41ColorIndex
 90
       18
102
RTVSPost2010Prop41ColorRGB
 90
        0
102
RTVSPost2010PropOp41
 70
     1
102
RTVSPost2010Prop42
 90
       50
102
RTVSPost2010PropOp42
 70
     1
102
RTVSPost2010Prop43
 90
        3
102
RTVSPost2010PropOp43
 70
     1
102
RTVSPost2010Prop44ColorIndex
 90
        5
102
RTVSPost2010Prop44ColorRGB
 90
      255
102
RTVSPost2010PropOp44
 70
     1
102
RTVSPost2010Prop45
280
     0
102
RTVSPost2010PropOp45
 70
     1
102
RTVSPost2010Prop46
 90
       50
102
RTVSPost2010PropOp46
 70
     1
102
RTVSPost2010Prop47
 90
       50
102
RTVSPost2010PropOp47
 70
     1
102
RTVSPost2010Prop48
 90
       50
102
RTVSPost2010PropOp48
 70
     1
102
RTVSPost2010Prop49
280
     0
102
RTVSPost2010PropOp49
 70
     1
102
RTVSPost2010Prop50
 90
       50
102
RTVSPost2010PropOp50
 70
     1
102
RTVSPost2010Prop51ColorIndex
 90
      256
102
RTVSPost2010Prop51ColorRGB
 90
-16777216
102
RTVSPost2010PropOp51
 70
     0
102
RTVSPost2010Prop52
140
1.0
102
RTVSPost2010PropOp52
 70
     0
102
RTVSPost2010Prop53
 90
        2
102
RTVSPost2010PropOp53
 70
     1
102
RTVSPost2010Prop54
  1
strokes_ogs.tif
102
RTVSPost2010PropOp54
 70
     1
102
RTVSPost2010Prop55
280
     0
102
RTVSPost2010PropOp55
 70
     1
102
RTVSPost2010Prop56
140
1.0
102
RTVSPost2010PropOp56
 70
     1
102
RTVSPost2010Prop57
140
1.0
102
RTVSPost2010PropOp57
 70
     1
  0
XRECORD
  5
AF
102
{ACAD_REACTORS
330
AE
102
}
330
AE
100
AcDbXrecord
280
     1
102
RTVSPropertyOp0
 70
     1
102
RTVSPropertyOp1
 70
     1
102
RTVSPropertyOp2
 70
     1
102
RTVSPropertyOp3
 70
     1
102
RTVSPropertyOp4
 70
     1
102
RTVSPropertyOp5
 70
     1
102
RTVSPropertyOp6
 70
     1
102
RTVSPropertyOp7
 70
     1
102
RTVSPropertyOp8
 70
     1
102
RTVSPropertyOp9
 70
     1
102
RTVSPropertyOp10
 70
     1
102
RTVSPropertyOp11
 70
     1
102
RTVSPropertyOp12
 70
     1
102
RTVSPropertyOp13
 70
     1
102
RTVSPropertyOp14
 70
     1
102
RTVSPropertyOp15
 70
     1
102
RTVSPropertyOp16
 70
     1
102
RTVSPropertyOp17
 70
     1
102
RTVSPropertyOp18
 70
     1
102
RTVSPropertyOp19
 70
     1
102
RTVSPropertyOp20
 70
     1
102
RTVSPropertyOp21
 70
     1
102
RTVSPropertyOp22
 70
     1
102
RTVSPropertyOp23
 70
     1
102
RTVSPropertyOp24
 70
     1
102
RTVSPropertyOp25
 70
     1
102
RTVSPropertyOp26
 70
     1
102
RTVSPropertyOp27
 70
     1
102
RTVSPropertyOp28
 70
     1
102
RTVSPropertyOp29
 70
     1
102
RTVSPropertyOp30
 70
     1
102
RTVSPropertyOp31
 70
     1
102
RTVSPropertyOp32
 70
     1
102
RTVSPropertyOp33
 70
     1
102
RTVSPropertyOp34
 70
     1
102
RTVSPropertyOp35
 70
     1
102
RTVSPropertyOp36
 70
     1
102
RTVSPropertyOp37
 70
     1
102
RTVSPropertyOp38
 70
     1
102
RTVSPropertyOp39
 70
     1
102
RTVSPropertyOp40
 70
     1
102
RTVSPropertyOp41
 70
     1
102
RTVSPropertyOp42
 70
     1
102
RTVSPropertyOp43
 70
     1
102
RTVSPropertyOp44
 70
     1
102
RTVSPropertyOp45
 70
     1
102
RTVSPropertyOp46
 70
     1
102
RTVSPropertyOp47
 70
     1
102
RTVSPropertyOp48
 70
     1
102
RTVSPropertyOp49
 70
     1
102
RTVSPropertyOp50
 70
     1
102
RTVSPropertyOp51
 70
     0
102
RTVSPropertyOp52
 70
     0
102
RTVSPropertyOp53
 70
     1
102
RTVSPropertyOp54
 70
     1
102
RTVSPropertyOp55
 70
     1
102
RTVSPropertyOp56
 70
     1
102
RTVSPropertyOp57
 70
     1
102
RTVSPost2010Prop28
280
     0
102
RTVSPost2010PropOp28
 70
     1
102
RTVSPost2010Prop29
280
     1
102
RTVSPost2010PropOp29
 70
     1
102
RTVSPost2010Prop30
280
     1
102
RTVSPost2010PropOp30
 70
     1
102
RTVSPost2010Prop31
280
     0
102
RTVSPost2010PropOp31
 70
     1
102
RTVSPost2010Prop32
280
     0
102
RTVSPost2010PropOp32
 70
     1
102
RTVSPost2010Prop33
280
     0
102
RTVSPost2010PropOp33
 70
     1
102
RTVSPost2010Prop34
280
     0
102
RTVSPost2010PropOp34
 70
     1
102
RTVSPost2010Prop35
280
     0
102
RTVSPost2010PropOp35
 70
     1
102
RTVSPost2010Prop36
280
     0
102
RTVSPost2010PropOp36
 70
     1
102
RTVSPost2010Prop37
 90
       50
102
RTVSPost2010PropOp37
 70
     1
102
RTVSPost2010Prop38
140
0.0
102
RTVSPost2010PropOp38
 70
     1
102
RTVSPost2010Prop39
140
1.0
102
RTVSPost2010PropOp39
 70
     1
102
RTVSPost2010Prop40
 90
        0
102
RTVSPost2010PropOp40
 70
     1
102
RTVSPost2010Prop41ColorIndex
 90
       18
102
RTVSPost2010Prop41ColorRGB
 90
        0
102
RTVSPost2010PropOp41
 70
     1
102
RTVSPost2010Prop42
 90
       50
102
RTVSPost2010PropOp42
 70
     1
102
RTVSPost2010Prop43
 90
        3
102
RTVSPost2010PropOp43
 70
     1
102
RTVSPost2010Prop44ColorIndex
 90
        5
102
RTVSPost2010Prop44ColorRGB
 90
      255
102
RTVSPost2010PropOp44
 70
     1
102
RTVSPost2010Prop45
280
     0
102
RTVSPost2010PropOp45
 70
     1
102
RTVSPost2010Prop46
 90
       50
102
RTVSPost2010PropOp46
 70
     1
102
RTVSPost2010Prop47
 90
       50
102
RTVSPost2010PropOp47
 70
     1
102
RTVSPost2010Prop48
 90
       50
102
RTVSPost2010PropOp48
 70
     1
102
RTVSPost2010Prop49
280
     0
102
RTVSPost2010PropOp49
 70
     1
102
RTVSPost2010Prop50
 90
       50
102
RTVSPost2010PropOp50
 70
     1
102
RTVSPost2010Prop51ColorIndex
 90
      256
102
RTVSPost2010Prop51ColorRGB
 90
-16777216
102
RTVSPost2010PropOp51
 70
     0
102
RTVSPost2010Prop52
140
1.0
102
RTVSPost2010PropOp52
 70
     0
102
RTVSPost2010Prop53
 90
        2
102
RTVSPost2010PropOp53
 70
     1
102
RTVSPost2010Prop54
  1
strokes_ogs.tif
102
RTVSPost2010PropOp54
 70
     1
102
RTVSPost2010Prop55
280
     0
102
RTVSPost2010PropOp55
 70
     1
102
RTVSPost2010Prop56
140
1.0
102
RTVSPost2010PropOp56
 70
     1
102
RTVSPost2010Prop57
140
1.0
102
RTVSPost2010PropOp57
 70
     1
  0
ENDSEC
  0
EOF
