  0
SECTION
  2
HEADER
  9
$ACADVER
  1
AC1018
  9
$ACADMAINTVER
 70
     0
  9
$DWGCODEPAGE
  3
ANSI_1256
  9
$INSBASE
 10
0.0
 20
0.0
 30
0.0
  9
$EXTMIN
 10
0.0
 20
0.0
 30
0.0
  9
$EXTMAX
 10
89.916
 20
179.832
 30
0.0
  9
$LIMMIN
 10
0.0
 20
0.0
  9
$LIMMAX
 10
12.0
 20
9.0
  9
$ORTHOMODE
 70
     0
  9
$REGENMODE
 70
     1
  9
$FILLMODE
 70
     1
  9
$QTEXTMODE
 70
     0
  9
$MIRRTEXT
 70
     1
  9
$LTSCALE
 40
1.0
  9
$ATTMODE
 70
     1
  9
$TEXTSIZE
 40
0.2
  9
$TRACEWID
 40
0.05
  9
$TEXTSTYLE
  7
Standard
  9
$CLAYER
  8
0
  9
$CELTYPE
  6
ByBlock
  9
$CECOLOR
 62
   256
  9
$CELTSCALE
 40
1.0
  9
$DISPSILH
 70
     0
  9
$DIMSCALE
 40
1.0
  9
$DIMASZ
 40
0.18
  9
$DIMEXO
 40
0.0625
  9
$DIMDLI
 40
0.38
  9
$DIMRND
 40
0.0
  9
$DIMDLE
 40
0.0
  9
$DIMEXE
 40
0.18
  9
$DIMTP
 40
0.0
  9
$DIMTM
 40
0.0
  9
$DIMTXT
 40
0.18
  9
$DIMCEN
 40
0.09
  9
$DIMTSZ
 40
0.0
  9
$DIMTOL
 70
     0
  9
$DIMLIM
 70
     0
  9
$DIMTIH
 70
     1
  9
$DIMTOH
 70
     1
  9
$DIMSE1
 70
     0
  9
$DIMSE2
 70
     0
  9
$DIMTAD
 70
     0
  9
$DIMZIN
 70
     0
  9
$DIMBLK
  1

  9
$DIMASO
 70
     1
  9
$DIMSHO
 70
     1
  9
$DIMPOST
  1

  9
$DIMAPOST
  1

  9
$DIMALT
 70
     0
  9
$DIMALTD
 70
     2
  9
$DIMALTF
 40
25.4
  9
$DIMLFAC
 40
1.0
  9
$DIMTOFL
 70
     0
  9
$DIMTVP
 40
0.0
  9
$DIMTIX
 70
     0
  9
$DIMSOXD
 70
     0
  9
$DIMSAH
 70
     0
  9
$DIMBLK1
  1

  9
$DIMBLK2
  1

  9
$DIMSTYLE
  2
Standard
  9
$DIMCLRD
 70
     0
  9
$DIMCLRE
 70
     0
  9
$DIMCLRT
 70
     0
  9
$DIMTFAC
 40
1.0
  9
$DIMGAP
 40
0.09
  9
$DIMJUST
 70
     0
  9
$DIMSD1
 70
     0
  9
$DIMSD2
 70
     0
  9
$DIMTOLJ
 70
     1
  9
$DIMTZIN
 70
     0
  9
$DIMALTZ
 70
     0
  9
$DIMALTTZ
 70
     0
  9
$DIMUPT
 70
     0
  9
$DIMDEC
 70
     4
  9
$DIMTDEC
 70
     4
  9
$DIMALTU
 70
     2
  9
$DIMALTTD
 70
     2
  9
$DIMTXSTY
  7
Standard
  9
$DIMAUNIT
 70
     0
  9
$DIMADEC
 70
     0
  9
$DIMALTRND
 40
0.0
  9
$DIMAZIN
 70
     0
  9
$DIMDSEP
 70
    46
  9
$DIMATFIT
 70
     3
  9
$DIMFRAC
 70
     0
  9
$DIMLDRBLK
  1

  9
$DIMLUNIT
 70
     2
  9
$DIMLWD
 70
    -2
  9
$DIMLWE
 70
    -2
  9
$DIMTMOVE
 70
     2
  9
$LUNITS
 70
     2
  9
$LUPREC
 70
     4
  9
$SKETCHINC
 40
0.1
  9
$FILLETRAD
 40
0.5
  9
$AUNITS
 70
     0
  9
$AUPREC
 70
     0
  9
$MENU
  1
.
  9
$ELEVATION
 40
0.0
  9
$PELEVATION
 40
0.0
  9
$THICKNESS
 40
0.0
  9
$LIMCHECK
 70
     0
  9
$CHAMFERA
 40
0.0
  9
$CHAMFERB
 40
0.0
  9
$CHAMFERC
 40
0.0
  9
$CHAMFERD
 40
0.0
  9
$SKPOLY
 70
     0
  9
$TDCREATE
 40
2457954.702203692
  9
$TDUCREATE
 40
2457954.577203692
  9
$TDUPDATE
 40
2457954.702204097
  9
$TDUUPDATE
 40
2457954.577204097
  9
$TDINDWG
 40
0.0000000116
  9
$TDUSRTIMER
 40
0.0000000116
  9
$USRTIMER
 70
     1
  9
$ANGBASE
 50
0.0
  9
$ANGDIR
 70
     0
  9
$PDMODE
 70
     0
  9
$PDSIZE
 40
0.0
  9
$PLINEWID
 40
0.0
  9
$SPLFRAME
 70
     0
  9
$SPLINETYPE
 70
     6
  9
$SPLINESEGS
 70
     8
  9
$HANDSEED
  5
940
  9
$SURFTAB1
 70
     6
  9
$SURFTAB2
 70
     6
  9
$SURFTYPE
 70
     6
  9
$SURFU
 70
     6
  9
$SURFV
 70
     6
  9
$UCSBASE
  2

  9
$UCSNAME
  2

  9
$UCSORG
 10
0.0
 20
0.0
 30
0.0
  9
$UCSXDIR
 10
1.0
 20
0.0
 30
0.0
  9
$UCSYDIR
 10
0.0
 20
1.0
 30
0.0
  9
$UCSORTHOREF
  2

  9
$UCSORTHOVIEW
 70
     0
  9
$UCSORGTOP
 10
0.0
 20
0.0
 30
0.0
  9
$UCSORGBOTTOM
 10
0.0
 20
0.0
 30
0.0
  9
$UCSORGLEFT
 10
0.0
 20
0.0
 30
0.0
  9
$UCSORGRIGHT
 10
0.0
 20
0.0
 30
0.0
  9
$UCSORGFRONT
 10
0.0
 20
0.0
 30
0.0
  9
$UCSORGBACK
 10
0.0
 20
0.0
 30
0.0
  9
$PUCSBASE
  2

  9
$PUCSNAME
  2

  9
$PUCSORG
 10
0.0
 20
0.0
 30
0.0
  9
$PUCSXDIR
 10
1.0
 20
0.0
 30
0.0
  9
$PUCSYDIR
 10
0.0
 20
1.0
 30
0.0
  9
$PUCSORTHOREF
  2

  9
$PUCSORTHOVIEW
 70
     0
  9
$PUCSORGTOP
 10
0.0
 20
0.0
 30
0.0
  9
$PUCSORGBOTTOM
 10
0.0
 20
0.0
 30
0.0
  9
$PUCSORGLEFT
 10
0.0
 20
0.0
 30
0.0
  9
$PUCSORGRIGHT
 10
0.0
 20
0.0
 30
0.0
  9
$PUCSORGFRONT
 10
0.0
 20
0.0
 30
0.0
  9
$PUCSORGBACK
 10
0.0
 20
0.0
 30
0.0
  9
$USERI1
 70
     0
  9
$USERI2
 70
     0
  9
$USERI3
 70
     0
  9
$USERI4
 70
     0
  9
$USERI5
 70
     0
  9
$USERR1
 40
0.0
  9
$USERR2
 40
0.0
  9
$USERR3
 40
0.0
  9
$USERR4
 40
0.0
  9
$USERR5
 40
0.0
  9
$WORLDVIEW
 70
     1
  9
$SHADEDGE
 70
     3
  9
$SHADEDIF
 70
    70
  9
$TILEMODE
 70
     1
  9
$MAXACTVP
 70
    64
  9
$PINSBASE
 10
0.0
 20
0.0
 30
0.0
  9
$PLIMCHECK
 70
     0
  9
$PEXTMIN
 10
1.000000000000000E+20
 20
1.000000000000000E+20
 30
1.000000000000000E+20
  9
$PEXTMAX
 10
-1.000000000000000E+20
 20
-1.000000000000000E+20
 30
-1.000000000000000E+20
  9
$PLIMMIN
 10
0.0
 20
0.0
  9
$PLIMMAX
 10
12.0
 20
9.0
  9
$UNITMODE
 70
     0
  9
$VISRETAIN
 70
     1
  9
$PLINEGEN
 70
     0
  9
$PSLTSCALE
 70
     1
  9
$TREEDEPTH
 70
  3020
  9
$CMLSTYLE
  2
Standard
  9
$CMLJUST
 70
     0
  9
$CMLSCALE
 40
1.0
  9
$PROXYGRAPHICS
 70
     1
  9
$MEASUREMENT
 70
     0
  9
$CELWEIGHT
370
    -1
  9
$ENDCAPS
280
     0
  9
$JOINSTYLE
280
     0
  9
$LWDISPLAY
290
     0
  9
$INSUNITS
 70
     0
  9
$HYPERLINKBASE
  1

  9
$STYLESHEET
  1

  9
$XEDIT
290
     1
  9
$CEPSNTYPE
380
     0
  9
$PSTYLEMODE
290
     1
  9
$FINGERPRINTGUID
  2
{2EA2E521-3D36-443B-9F71-3B91808FC603}
  9
$VERSIONGUID
  2
{FAEB1C32-E019-11D5-929B-00C0DF256EC4}
  9
$EXTNAMES
290
     1
  9
$PSVPSCALE
 40
0.0
  9
$OLESTARTUP
290
     0
  9
$SORTENTS
280
   127
  9
$INDEXCTL
280
     0
  9
$HIDETEXT
280
     1
  9
$XCLIPFRAME
290
     0
  9
$HALOGAP
280
     0
  9
$OBSCOLOR
 70
   257
  9
$OBSLTYPE
280
     0
  9
$INTERSECTIONDISPLAY
280
     0
  9
$INTERSECTIONCOLOR
 70
   257
  9
$DIMASSOC
280
     2
  9
$PROJECTNAME
  1

  0
ENDSEC
  0
SECTION
  2
CLASSES
  0
CLASS
  1
ACDBDICTIONARYWDFLT
  2
AcDbDictionaryWithDefault
  3
ObjectDBX Classes
 90
        0
 91
        4
280
     0
281
     0
  0
CLASS
  1
SCALE
  2
AcDbScale
  3
ObjectDBX Classes
 90
     1153
 91
        4
280
     0
281
     0
  0
CLASS
  1
VISUALSTYLE
  2
AcDbVisualStyle
  3
ObjectDBX Classes
 90
     4095
 91
        4
280
     0
281
     0
  0
CLASS
  1
MATERIAL
  2
AcDbMaterial
  3
ObjectDBX Classes
 90
     1153
 91
        4
280
     0
281
     0
  0
CLASS
  1
TABLESTYLE
  2
AcDbTableStyle
  3
ObjectDBX Classes
 90
     4095
 91
        4
280
     0
281
     0
  0
CLASS
  1
MLEADERSTYLE
  2
AcDbMLeaderStyle
  3
ACDB_MLEADERSTYLE_CLASS
 90
     4095
 91
        4
280
     0
281
     0
  0
CLASS
  1
DICTIONARYVAR
  2
AcDbDictionaryVar
  3
ObjectDBX Classes
 90
        0
 91
        4
280
     0
281
     0
  0
CLASS
  1
CELLSTYLEMAP
  2
AcDbCellStyleMap
  3
ObjectDBX Classes
 90
     1152
 91
        4
280
     0
281
     0
  0
ENDSEC
  0
SECTION
  2
TABLES
  0
TABLE
  2
VPORT
  5
8
102
{ACAD_XDICTIONARY
360
8F9
102
}
330
0
100
AcDbSymbolTable
 70
     1
  0
VPORT
  5
21
330
8
100
AcDbSymbolTableRecord
100
AcDbViewportTableRecord
  2
*Active
 70
     0
 10
0.0
 20
0.0
 11
1.0
 21
1.0
 12
10.42990654205607
 22
4.5
 13
0.0
 23
0.0
 14
0.5
 24
0.5
 15
0.5
 25
0.5
 16
0.0
 26
0.0
 36
1.0
 17
0.0
 27
0.0
 37
0.0
 40
9.0
 41
1.972972972850329
 42
50.0
 43
0.0
 44
0.0
 50
0.0
 51
0.0
 71
     0
 72
   100
 73
     1
 74
     3
 75
     0
 76
     0
 77
     0
 78
     0
281
     0
 65
     1
110
0.0
120
0.0
130
0.0
111
1.0
121
0.0
131
0.0
112
0.0
122
1.0
132
0.0
 79
     0
146
0.0
  0
ENDTAB
  0
TABLE
  2
LTYPE
  5
5
330
0
100
AcDbSymbolTable
 70
     1
  0
LTYPE
  5
14
330
5
100
AcDbSymbolTableRecord
100
AcDbLinetypeTableRecord
  2
ByBlock
 70
     0
  3

 72
    65
 73
     0
 40
0.0
  0
LTYPE
  5
15
330
5
100
AcDbSymbolTableRecord
100
AcDbLinetypeTableRecord
  2
ByLayer
 70
     0
  3

 72
    65
 73
     0
 40
0.0
  0
LTYPE
  5
16
330
5
100
AcDbSymbolTableRecord
100
AcDbLinetypeTableRecord
  2
Continuous
 70
     0
  3
Solid line
 72
    65
 73
     0
 40
0.0
  0
ENDTAB
  0
TABLE
  2
LAYER
  5
2
330
0
100
AcDbSymbolTable
 70
     1
  0
LAYER
  5
10
330
2
100
AcDbSymbolTableRecord
100
AcDbLayerTableRecord
  2
0
 70
     0
 62
     7
  6
Continuous
370
    -3
390
F
  0
ENDTAB
  0
TABLE
  2
STYLE
  5
3
330
0
100
AcDbSymbolTable
 70
     1
  0
STYLE
  5
11
330
3
100
AcDbSymbolTableRecord
100
AcDbTextStyleTableRecord
  2
Standard
 70
     0
 40
0.0
 41
1.0
 50
0.0
 71
     0
 42
0.2
  3
txt
  4

  0
ENDTAB
  0
TABLE
  2
VIEW
  5
6
330
0
100
AcDbSymbolTable
 70
     0
  0
ENDTAB
  0
TABLE
  2
UCS
  5
7
330
0
100
AcDbSymbolTable
 70
     0
  0
ENDTAB
  0
TABLE
  2
APPID
  5
9
330
0
100
AcDbSymbolTable
 70
     2
  0
APPID
  5
12
330
9
100
AcDbSymbolTableRecord
100
AcDbRegAppTableRecord
  2
ACAD
 70
     0
  0
APPID
  5
937
330
9
100
AcDbSymbolTableRecord
100
AcDbRegAppTableRecord
  2
ACAD_MLEADERVER
 70
     0
  0
ENDTAB
  0
TABLE
  2
DIMSTYLE
  5
A
330
0
100
AcDbSymbolTable
 70
     1
100
AcDbDimStyleTable
  0
DIMSTYLE
105
20
330
A
100
AcDbSymbolTableRecord
100
AcDbDimStyleTableRecord
  2
Standard
 70
     0
178
     0
340
11
  0
ENDTAB
  0
TABLE
  2
BLOCK_RECORD
  5
1
330
0
100
AcDbSymbolTable
 70
     0
  0
BLOCK_RECORD
  5
1D
330
1
100
AcDbSymbolTableRecord
100
AcDbBlockTableRecord
  2
*Model_Space
340
1E
  0
BLOCK_RECORD
  5
1B
330
1
100
AcDbSymbolTableRecord
100
AcDbBlockTableRecord
  2
*Paper_Space
340
1C
  0
ENDTAB
  0
ENDSEC
  0
SECTION
  2
BLOCKS
  0
BLOCK
  5
8D4
330
1D
100
AcDbEntity
  8
0
100
AcDbBlockBegin
  2
*Model_Space
 70
     0
 10
0.0
 20
0.0
 30
0.0
  3
*Model_Space
  1

  0
ENDBLK
  5
8D5
330
1D
100
AcDbEntity
  8
0
100
AcDbBlockEnd
  0
BLOCK
  5
8D6
330
1B
100
AcDbEntity
 67
     1
  8
0
100
AcDbBlockBegin
  2
*Paper_Space
 70
     0
 10
0.0
 20
0.0
 30
0.0
  3
*Paper_Space
  1

  0
ENDBLK
  5
8D7
330
1B
100
AcDbEntity
 67
     1
  8
0
100
AcDbBlockEnd
  0
ENDSEC
  0
SECTION
  2
ENTITIES
  0
LWPOLYLINE
  5
22
330
1D
100
AcDbEntity
  8
0
100
AcDbPolyline
 90
        8
 70
     1
 43
0.0
 10
44.958
 20
179.832
 10
0.0
 20
179.832
 10
0.0
 20
89.916
 10
0.0
 20
0.0
 10
44.958
 20
0.0
 10
89.916
 20
0.0
 10
89.916
 20
89.916
 10
89.916
 20
179.832
  0
LWPOLYLINE
  5
2C
330
1D
100
AcDbEntity
  8
0
100
AcDbPolyline
 90
       16
 70
     1
 43
0.0
 10
7.916333
 20
174.752
 42
-0.003264
 10
8.996772
 20
174.744947
 42
-0.005764
 10
9.888405
 20
174.723025
 42
-0.001958
 10
10.632134
 20
174.693242
 42
-0.665014
 10
10.646833
 20
174.653362
 42
-0.050723
 10
10.560277
 20
174.587717
 42
-0.000652
 10
9.975189
 20
174.23205
 42
-0.001889
 10
9.295424
 20
173.823548
 42
-0.001237
 10
8.509
 20
173.357619
 42
-0.001637
 10
7.679824
 20
172.87278
 42
-0.00177
 10
6.868716
 20
172.405891
 42
-0.001666
 10
6.170342
 20
172.010259
 42
-0.00855
 10
5.7785
 20
171.798735
 10
5.08
 20
171.436954
 10
5.08
 20
173.094477
 10
5.08
 20
174.752
  0
LWPOLYLINE
  5
3E
330
1D
100
AcDbEntity
  8
0
100
AcDbPolyline
 90
       18
 70
     1
 43
0.0
 10
27.171199
 20
174.69241
 10
34.622885
 20
174.625
 10
38.277177
 20
168.306901
 42
-0.001233
 10
39.673047
 20
165.879713
 42
-0.002049
 10
40.836214
 20
163.826073
 42
-0.000172
 10
41.867948
 20
161.98546
 42
-0.357472
 10
41.857234
 20
161.925242
 42
-0.316183
 10
41.792289
 20
161.919013
 42
-0.000056
 10
38.611648
 20
163.72735
 42
-0.001143
 10
35.086141
 20
165.742957
 42
-0.000688
 10
30.912675
 20
168.149332
 42
-0.000439
 10
26.733506
 20
170.571562
 42
-0.000713
 10
23.188092
 20
172.637402
 42
-0.00008
 10
20.025005
 20
174.487193
 42
-0.064104
 10
19.880932
 20
174.598401
 42
-0.662529
 10
19.907239
 20
174.663347
 42
-0.000692
 10
21.955863
 20
174.692602
 42
-0.003472
 10
24.324787
 20
174.706698
 42
-0.002013
  0
LWPOLYLINE
  5
52
330
1D
100
AcDbEntity
  8
0
100
AcDbPolyline
 90
       10
 70
     1
 43
0.0
 10
40.252477
 20
174.752
 10
43.688
 20
174.752
 10
43.688
 20
168.726083
 10
43.688
 20
162.700167
 10
40.615793
 20
168.027583
 42
-0.000516
 10
39.412453
 20
170.119241
 42
-0.000717
 10
38.339323
 20
171.995256
 42
-0.000437
 10
37.439331
 20
173.577053
 42
-0.009197
 10
37.18027
 20
174.0535
 10
36.816954
 20
174.752
  0
LWPOLYLINE
  5
5E
330
1D
100
AcDbEntity
  8
0
100
AcDbPolyline
 90
       10
 70
     1
 43
0.0
 10
49.663523
 20
174.752
 10
53.099046
 20
174.752
 10
52.73573
 20
174.0535
 42
-0.009197
 10
52.476669
 20
173.577053
 42
-0.000437
 10
51.576677
 20
171.995256
 42
-0.000717
 10
50.503547
 20
170.119241
 42
-0.000516
 10
49.300207
 20
168.027583
 10
46.228
 20
162.700167
 10
46.228
 20
168.726083
 10
46.228
 20
174.752
  0
LWPOLYLINE
  5
6A
330
1D
100
AcDbEntity
  8
0
100
AcDbPolyline
 90
       22
 70
     1
 43
0.0
 10
62.788642
 20
174.752
 42
-0.001996
 10
65.615503
 20
174.740713
 42
-0.00344
 10
67.968641
 20
174.705732
 42
-0.000673
 10
70.00548
 20
174.65869
 42
-0.659377
 10
70.031158
 20
174.594491
 42
-0.064136
 10
69.890479
 20
174.485917
 42
-0.000076
 10
66.72676
 20
172.636254
 42
-0.000697
 10
63.182228
 20
170.57129
 42
-0.000428
 10
59.003325
 20
168.149332
 42
-0.000678
 10
54.829924
 20
165.742891
 42
-0.001127
 10
51.304622
 20
163.72708
 42
-0.000054
 10
48.123803
 20
161.91821
 42
-0.315925
 10
48.059686
 20
161.924322
 42
-0.355081
 10
48.048881
 20
161.983244
 42
-0.00041
 10
48.690874
 20
163.153261
 42
-0.003163
 10
49.425151
 20
164.469075
 42
-0.001908
 10
50.311364
 20
166.019981
 42
-0.000347
 10
51.302372
 20
167.736268
 42
-0.000289
 10
52.357628
 20
169.558466
 42
-0.000292
 10
53.325252
 20
171.224874
 42
-0.000796
 10
54.012487
 20
172.4025
 10
55.388618
 20
174.752
  0
LWPOLYLINE
  5
82
330
1D
100
AcDbEntity
  8
0
100
AcDbPolyline
 90
       16
 70
     1
 43
0.0
 10
81.999667
 20
174.752
 10
84.836
 20
174.752
 10
84.836
 20
173.094477
 10
84.836
 20
171.436954
 10
84.1375
 20
171.798735
 42
-0.00855
 10
83.745658
 20
172.010259
 42
-0.001666
 10
83.047284
 20
172.405891
 42
-0.00177
 10
82.236176
 20
172.87278
 42
-0.001637
 10
81.407
 20
173.357619
 42
-0.001237
 10
80.620576
 20
173.823548
 42
-0.001889
 10
79.940811
 20
174.23205
 42
-0.000652
 10
79.355723
 20
174.587717
 42
-0.050723
 10
79.269167
 20
174.653362
 42
-0.665014
 10
79.283866
 20
174.693242
 42
-0.001958
 10
80.027595
 20
174.723025
 42
-0.005764
 10
80.919228
 20
174.744947
 42
-0.003264
  0
LWPOLYLINE
  5
94
330
1D
100
AcDbEntity
  8
0
100
AcDbPolyline
 90
       16
 70
     1
 43
0.0
 10
12.022216
 20
172.461197
 42
-0.466031
 10
12.069458
 20
172.407477
 42
-0.04882
 10
12.02243
 20
172.222099
 42
-0.033931
 10
11.906
 20
171.957012
 42
-0.017295
 10
11.726342
 20
171.6405
 42
0.005794
 10
11.395772
 20
171.088108
 42
0.000386
 10
10.466507
 20
169.490805
 42
0.000557
 10
9.362333
 20
167.584601
 42
0.000416
 10
8.149626
 20
165.481604
 10
5.08
 20
160.148208
 10
5.08
 20
164.345047
 10
5.08
 20
168.541886
 10
8.4455
 20
170.49914
 42
-0.002449
 10
9.750715
 20
171.249677
 42
-0.003805
 10
10.884429
 20
171.882862
 42
-0.00119
 10
11.870945
 20
172.420979
 42
-0.11912
  0
LWPOLYLINE
  5
A6
330
1D
100
AcDbEntity
  8
0
100
AcDbPolyline
 90
       22
 70
     1
 43
0.0
 10
18.402175
 20
172.466
 42
-0.129951
 10
18.511529
 20
172.43709
 42
-0.000063
 10
21.693033
 20
170.627986
 42
-0.000884
 10
25.22982
 20
168.607979
 42
-0.000538
 10
29.402665
 20
166.208929
 42
-0.000523
 10
33.581945
 20
163.794365
 42
-0.00084
 10
37.140833
 20
161.725269
 42
-0.000132
 10
40.29241
 20
159.884771
 42
-0.052615
 10
40.5003
 20
159.731929
 42
-0.671809
 10
40.466776
 20
159.640492
 42
-0.001518
 10
38.506872
 20
159.57532
 42
-0.004934
 10
36.146453
 20
159.527312
 42
-0.002617
 10
33.220962
 20
159.512
 10
25.700324
 20
159.512
 10
22.086669
 20
165.7985
 42
-0.000022
 10
20.693641
 20
168.222134
 42
-0.000036
 10
19.502947
 20
170.2943
 42
-0.000006
 10
18.451014
 20
172.125339
 42
-0.001925
 10
18.365516
 20
172.2755
 42
-0.05777
 10
18.334801
 20
172.348488
 42
-0.118812
 10
18.331942
 20
172.410041
 42
-0.180824
 10
18.356453
 20
172.450208
 42
-0.167831
  0
LWPOLYLINE
  5
BE
330
1D
100
AcDbEntity
  8
0
100
AcDbPolyline
 90
       22
 70
     1
 43
0.0
 10
71.45249
 20
172.450574
 42
-0.100772
 10
71.522505
 20
172.44171
 42
-0.185513
 10
71.566041
 20
172.405509
 42
-0.17214
 10
71.576027
 20
172.347101
 42
-0.085746
 10
71.550484
 20
172.2755
 42
-0.001925
 10
71.464986
 20
172.125339
 42
-0.000006
 10
70.413053
 20
170.2943
 42
-0.000036
 10
69.222359
 20
168.222134
 42
-0.000022
 10
67.829331
 20
165.7985
 10
64.215676
 20
159.512
 10
56.703504
 20
159.512
 42
-0.00214
 10
53.83458
 20
159.524279
 42
-0.003696
 10
51.448381
 20
159.562348
 42
-0.000777
 10
49.390566
 20
159.613596
 42
-0.658654
 10
49.36273
 20
159.683396
 42
-0.063844
 10
49.515405
 20
159.801371
 42
-0.000089
 10
52.672857
 20
161.652185
 42
-0.000755
 10
56.21604
 20
163.721076
 42
-0.000465
 10
60.390563
 20
166.144971
 42
-0.000669
 10
64.567682
 20
168.557717
 42
-0.001091
 10
68.118284
 20
170.59194
 42
-0.00011
 10
71.297537
 20
172.403271
 42
-0.111134
  0
LWPOLYLINE
  5
D6
330
1D
100
AcDbEntity
  8
0
100
AcDbPolyline
 90
       16
 70
     1
 43
0.0
 10
77.870493
 20
172.466
 42
-0.125031
 10
78.006294
 20
172.431502
 42
-0.000987
 10
78.998672
 20
171.889984
 42
-0.003522
 10
80.134694
 20
171.256722
 42
-0.002247
 10
81.447209
 20
170.505096
 10
84.836
 20
168.544192
 10
84.836
 20
164.3462
 10
84.836
 20
160.148208
 10
81.766374
 20
165.481604
 42
0.000416
 10
80.553667
 20
167.584601
 42
0.000557
 10
79.449493
 20
169.490805
 42
0.000386
 10
78.520228
 20
171.088108
 42
0.005794
 10
78.189658
 20
171.6405
 42
-0.015589
 10
78.008401
 20
171.957308
 42
-0.029902
 10
77.886728
 20
172.223509
 42
-0.038364
 10
77.829208
 20
172.414699
 42
-0.478852
  0
LWPOLYLINE
  5
E8
330
1D
100
AcDbEntity
  8
0
100
AcDbPolyline
 90
       16
 70
     1
 43
0.0
 10
13.910824
 20
165.181254
 42
-0.001682
 10
13.931981
 20
162.259336
 42
-0.000969
 10
13.938802
 20
158.741134
 42
-0.000968
 10
13.93196
 20
155.208584
 42
-0.001621
 10
13.910824
 20
152.238702
 10
13.843
 20
145.691898
 10
10.182361
 20
152.030449
 42
-0.001614
 10
8.779018
 20
154.478612
 42
-0.002573
 10
7.596789
 20
156.581663
 42
-0.000534
 10
6.569407
 20
158.436151
 42
-0.126048
 10
6.520886
 20
158.623
 42
-0.127504
 10
6.56868
 20
158.809903
 42
-0.000539
 10
7.595854
 20
160.6677
 42
-0.002597
 10
8.777981
 20
162.774445
 42
-0.001628
 10
10.181525
 20
165.227
 10
13.843
 20
171.577
  0
LWPOLYLINE
  5
FA
330
1D
100
AcDbEntity
  8
0
100
AcDbPolyline
 90
       22
 70
     1
 43
0.0
 10
17.347523
 20
170.18
 42
-0.003057
 10
17.83471
 20
169.354689
 42
-0.000477
 10
18.785323
 20
167.718005
 42
-0.000531
 10
19.90236
 20
165.785832
 42
-0.000463
 10
21.0679
 20
163.760484
 42
-0.002191
 10
22.785968
 20
160.738016
 42
-0.021114
 10
23.455726
 20
159.420424
 42
-0.0537
 10
23.715226
 20
158.63935
 42
-0.161634
 10
23.656012
 20
158.088214
 42
-0.021218
 10
23.427358
 20
157.638029
 42
-0.000747
 10
22.467748
 20
155.937992
 42
-0.001385
 10
21.325204
 20
153.933882
 42
-0.000969
 10
20.026586
 20
151.68073
 42
-0.000369
 10
18.742048
 20
149.465727
 42
-0.000597
 10
17.64548
 20
147.583245
 42
-0.000077
 10
16.666543
 20
145.907897
 42
-0.046156
 10
16.601604
 20
145.817167
 42
-0.691775
 10
16.563985
 20
145.831028
 42
-0.000077
 10
16.537101
 20
149.541442
 42
-0.001121
 10
16.516978
 20
153.692257
 42
-0.000664
 10
16.510653
 20
158.644167
 10
16.511306
 20
171.577
  0
LWPOLYLINE
  5
112
330
1D
100
AcDbEntity
  8
0
100
AcDbPolyline
 90
       16
 70
     1
 43
0.0
 10
73.346824
 20
165.110577
 42
-0.0017
 10
73.367981
 20
162.220996
 42
-0.00098
 10
73.374802
 20
158.741827
 42
-0.000979
 10
73.36796
 20
155.248534
 42
-0.00164
 10
73.346824
 20
152.311738
 10
73.279
 20
145.837969
 10
69.724547
 20
151.976485
 42
-0.003337
 10
68.362255
 20
154.365786
 42
-0.005076
 10
67.213896
 20
156.461036
 42
-0.002021
 10
66.257081
 20
158.26717
 42
-0.120831
 10
66.16901
 20
158.623
 42
-0.121656
 10
66.256121
 20
158.978979
 42
-0.002028
 10
67.212684
 20
160.78902
 42
-0.005099
 10
68.36091
 20
162.888727
 42
-0.003351
 10
69.723463
 20
165.283323
 10
73.279
 20
171.435647
  0
LWPOLYLINE
  5
124
330
1D
100
AcDbEntity
  8
0
100
AcDbPolyline
 90
       24
 70
     1
 43
0.0
 10
76.167458
 20
171.3103
 42
-0.052401
 10
76.317034
 20
171.108495
 42
-0.000402
 10
77.353126
 20
169.34957
 42
-0.001486
 10
78.533774
 20
167.327814
 42
-0.000953
 10
79.892791
 20
164.974323
 42
-0.001695
 10
81.235949
 20
162.619577
 42
-0.002698
 10
82.367343
 20
160.594956
 42
-0.000585
 10
83.348475
 20
158.81184
 42
-0.126331
 10
83.396461
 20
158.624323
 42
-0.126081
 10
83.348258
 20
158.43683
 42
-0.000583
 10
82.365451
 20
156.653301
 42
-0.002691
 10
81.232205
 20
154.628253
 42
-0.001692
 10
79.886927
 20
152.273
 42
-0.000885
 10
78.526225
 20
149.918994
 42
-0.001381
 10
77.345072
 20
147.896818
 42
-0.00037
 10
76.308545
 20
146.136427
 42
-0.049235
 10
76.161799
 20
145.9357
 42
-0.681634
 10
76.073637
 20
145.968428
 42
-0.000437
 10
76.009375
 20
149.562068
 42
-0.002687
 10
75.961464
 20
153.680622
 42
-0.001564
 10
75.946
 20
158.623
 42
-0.001513
 10
75.961332
 20
163.690898
 42
-0.002851
 10
76.009403
 20
167.781106
 42
-0.000512
 10
76.073964
 20
171.274946
 42
-0.676656
  0
LWPOLYLINE
  5
13E
330
1D
100
AcDbEntity
  8
0
100
AcDbPolyline
 90
       18
 70
     1
 43
0.0
 10
33.218889
 20
157.734
 42
-0.002681
 10
36.08715
 20
157.718621
 42
-0.004697
 10
38.460922
 20
157.67086
 42
-0.001334
 10
40.468833
 20
157.606226
 42
-0.676475
 10
40.5003
 20
157.519055
 42
-0.04993
 10
40.293406
 20
157.368864
 42
-0.000123
 10
37.13078
 20
155.524754
 42
-0.000787
 10
33.56085
 20
153.451842
 42
-0.00049
 10
29.36844
 20
151.031782
 42
-0.000872
 10
25.186389
 20
148.632873
 42
-0.00145
 10
21.651806
 20
146.627126
 42
-0.000088
 10
18.470012
 20
144.834486
 42
-0.336474
 10
18.392176
 20
144.845157
 42
-0.334747
 10
18.381346
 20
144.922373
 42
-0.000252
 10
19.417011
 20
146.786146
 42
-0.002459
 10
20.590755
 20
148.871687
 42
-0.001484
 10
22.001325
 20
151.33243
 10
25.696177
 20
157.734
  0
LWPOLYLINE
  5
152
330
1D
100
AcDbEntity
  8
0
100
AcDbPolyline
 90
       18
 70
     1
 43
0.0
 10
56.697111
 20
157.734
 10
64.219823
 20
157.734
 10
67.914675
 20
151.33243
 42
-0.001484
 10
69.325245
 20
148.871687
 42
-0.002459
 10
70.498989
 20
146.786146
 42
-0.000252
 10
71.534654
 20
144.922373
 42
-0.334747
 10
71.523824
 20
144.845157
 42
-0.336474
 10
71.445988
 20
144.834486
 42
-0.000088
 10
68.264194
 20
146.627126
 42
-0.00145
 10
64.729611
 20
148.632873
 42
-0.000872
 10
60.54756
 20
151.031782
 42
-0.00049
 10
56.35515
 20
153.451842
 42
-0.000787
 10
52.78522
 20
155.524754
 42
-0.000123
 10
49.622594
 20
157.368864
 42
-0.04993
 10
49.4157
 20
157.519055
 42
-0.676475
 10
49.447167
 20
157.606226
 42
-0.001334
 10
51.455078
 20
157.67086
 42
-0.004697
 10
53.82885
 20
157.718621
 42
-0.002681
  0
LWPOLYLINE
  5
166
330
1D
100
AcDbEntity
  8
0
100
AcDbPolyline
 90
       16
 70
     1
 43
0.0
 10
7.276407
 20
153.289
 42
0.000393
 10
8.214787
 20
151.662814
 42
0.000322
 10
9.219859
 20
149.926792
 42
0.000325
 10
10.145777
 20
148.332254
 42
0.000861
 10
10.810708
 20
147.193398
 42
-0.003932
 10
11.318526
 20
146.311237
 42
-0.006443
 10
11.733034
 20
145.555316
 42
-0.001716
 10
12.080012
 20
144.8973
 42
-0.327848
 10
12.069185
 20
144.826518
 42
-0.329845
 10
11.996939
 20
144.815734
 42
-0.000771
 10
10.997184
 20
145.349731
 42
-0.004303
 10
9.864117
 20
145.969794
 42
-0.002611
 10
8.533954
 20
146.7218
 10
5.08
 20
148.698358
 10
5.08093
 20
152.898679
 10
5.08186
 20
157.099
  0
LWPOLYLINE
  5
178
330
1D
100
AcDbEntity
  8
0
100
AcDbPolyline
 90
       18
 70
     1
 43
0.0
 10
84.7725
 20
156.963794
 42
-0.447472
 10
84.798533
 20
156.941282
 42
-0.000235
 10
84.817347
 20
155.754398
 42
-0.002406
 10
84.831438
 20
154.420885
 42
-0.001438
 10
84.836
 20
152.835179
 10
84.836
 20
148.698358
 10
81.382046
 20
146.7218
 42
-0.00251
 10
80.052434
 20
145.969752
 42
-0.004147
 10
78.921147
 20
145.349614
 42
-0.000709
 10
77.921968
 20
144.814446
 42
-0.343799
 10
77.854753
 20
144.826121
 42
-0.321036
 10
77.846518
 20
144.897246
 42
-0.000228
 10
78.820446
 20
146.652878
 42
-0.002319
 10
79.92235
 20
148.61557
 42
-0.001401
 10
81.245207
 20
150.931294
 42
-0.000687
 10
82.577895
 20
153.241779
 42
-0.001136
 10
83.710164
 20
155.188362
 42
-0.000065
 10
84.733484
 20
156.937953
 42
-0.232274
  0
LWPOLYLINE
  5
18C
330
1D
100
AcDbEntity
  8
0
100
AcDbPolyline
 90
       18
 70
     1
 43
0.0
 10
41.855019
 20
155.325897
 42
-0.351706
 10
41.865076
 20
155.265802
 42
-0.000167
 10
40.83262
 20
153.423915
 42
-0.002015
 10
39.669163
 20
151.369398
 42
-0.001213
 10
38.27338
 20
148.941315
 10
34.619723
 20
142.621
 10
27.169618
 20
142.55359
 42
-0.002304
 10
24.325383
 20
142.540964
 42
-0.003993
 10
21.962238
 20
142.560238
 42
-0.000916
 10
19.934089
 20
142.596696
 42
-0.66104
 10
19.904216
 20
142.670883
 42
-0.06403
 10
20.068419
 20
142.797668
 42
-0.000104
 10
23.220981
 20
144.642346
 42
-0.000816
 10
26.764134
 20
146.706827
 42
-0.000504
 10
30.93596
 20
149.122875
 42
-0.000686
 10
35.100345
 20
151.521396
 42
-0.001139
 10
38.617837
 20
153.53027
 42
-0.000055
 10
41.791388
 20
155.332673
 42
-0.321704
  0
LWPOLYLINE
  5
1A0
330
1D
100
AcDbEntity
  8
0
100
AcDbPolyline
 90
       16
 70
     1
 43
0.0
 10
48.3235
 20
155.281117
 42
0.007683
 10
48.576842
 20
155.129372
 42
0.000025
 10
51.754948
 20
153.291751
 42
0.00014
 10
55.350835
 20
151.214149
 42
0.000088
 10
59.559173
 20
148.785255
 10
70.477346
 20
142.486257
 10
62.886815
 20
142.553628
 10
55.296284
 20
142.621
 10
51.651142
 20
148.926579
 42
-0.000791
 10
50.253603
 20
151.352971
 42
-0.00129
 10
49.07676
 20
153.415999
 42
-0.000134
 10
48.030389
 20
155.262511
 42
-0.129539
 10
48.006
 20
155.355069
 42
-0.363271
 10
48.03172
 20
155.385798
 42
-0.101811
 10
48.099266
 20
155.384047
 42
-0.054994
 10
48.201617
 20
155.347989
 42
-0.026614
  0
LWPOLYLINE
  5
1B2
330
1D
100
AcDbEntity
  8
0
100
AcDbPolyline
 90
       10
 70
     1
 43
0.0
 10
43.628788
 20
147.909911
 42
-0.001662
 10
43.649925
 20
144.980423
 42
-0.000973
 10
43.656751
 20
141.47165
 42
-0.000973
 10
43.649922
 20
137.960824
 42
-0.001653
 10
43.628788
 20
135.024472
 10
43.561
 20
128.570944
 10
39.847161
 20
135.009579
 10
36.133322
 20
141.448215
 10
39.847161
 20
147.895019
 10
43.561
 20
154.341823
  0
LWPOLYLINE
  5
1BE
330
1D
100
AcDbEntity
  8
0
100
AcDbPolyline
 90
       12
 70
     1
 43
0.0
 10
50.006771
 20
148.000697
 10
53.785543
 20
141.446264
 10
50.303283
 20
135.419544
 42
-0.000013
 10
48.947984
 20
133.074075
 42
-0.000019
 10
47.759106
 20
131.016911
 42
-0.000008
 10
46.743422
 20
129.259651
 42
-0.000371
 10
46.532236
 20
128.894912
 42
-0.751285
 10
46.379011
 20
128.932967
 42
-0.003789
 10
46.304236
 20
131.333403
 42
-0.004749
 10
46.252378
 20
135.019888
 42
-0.000995
 10
46.235724
 20
141.476065
 10
46.228
 20
154.55513
  0
LWPOLYLINE
  5
1CC
330
1D
100
AcDbEntity
  8
0
100
AcDbPolyline
 90
       10
 70
     1
 43
0.0
 10
6.7945
 20
144.885238
 42
-0.002898
 10
7.534565
 20
144.467599
 42
-0.002201
 10
8.341122
 20
144.001529
 42
-0.002225
 10
9.093841
 20
143.557634
 42
-0.005201
 10
9.652
 20
143.217204
 10
10.795
 20
142.503652
 10
7.9375
 20
142.498826
 10
5.08
 20
142.494
 10
5.08
 20
144.166861
 10
5.08
 20
145.839721
  0
LWPOLYLINE
  5
1D8
330
1D
100
AcDbEntity
  8
0
100
AcDbPolyline
 90
       12
 70
     1
 43
0.0
 10
84.785385
 20
144.243219
 42
-0.006694
 10
84.806945
 20
143.639936
 42
-0.010115
 10
84.808052
 20
143.114345
 42
-0.005281
 10
84.795428
 20
142.674395
 42
-0.188732
 10
84.755286
 20
142.582619
 42
-0.193834
 10
84.657535
 20
142.541005
 42
-0.001893
 10
83.876987
 20
142.528692
 42
-0.005883
 10
82.970507
 20
142.528491
 42
-0.003736
 10
81.914861
 20
142.548568
 10
79.18092
 20
142.621
 10
81.94496
 20
144.209168
 10
84.709
 20
145.797336
  0
LWPOLYLINE
  5
1E6
330
1D
100
AcDbEntity
  8
0
100
AcDbPolyline
 90
       12
 70
     1
 43
0.0
 10
8.057888
 20
140.462
 10
11.035776
 20
140.462
 10
8.185706
 20
138.811
 42
-0.001819
 10
7.08396
 20
138.178119
 42
-0.002885
 10
6.135297
 20
137.644981
 42
-0.000665
 10
5.301305
 20
137.184049
 42
-0.126562
 10
5.207818
 20
137.16
 42
-0.38519
 10
5.156545
 20
137.206382
 42
-0.005709
 10
5.117546
 20
137.644981
 42
-0.012057
 10
5.089192
 20
138.177958
 42
-0.007259
 10
5.08
 20
138.811
 10
5.08
 20
140.462
  0
LWPOLYLINE
  5
1F4
330
1D
100
AcDbEntity
  8
0
100
AcDbPolyline
 90
       22
 70
     1
 43
0.0
 10
27.031037
 20
140.402351
 10
34.596442
 20
140.335
 10
37.386096
 20
135.509
 42
-0.000412
 10
38.521091
 20
133.541755
 42
-0.000445
 10
39.624583
 20
131.621515
 42
-0.000419
 10
40.568645
 20
129.972115
 42
-0.002137
 10
41.089092
 20
129.051946
 42
-0.007032
 10
41.423153
 20
128.435189
 42
-0.014325
 10
41.664605
 20
127.940023
 42
-0.016323
 10
41.808163
 20
127.593152
 42
-0.703646
 10
41.765718
 20
127.557094
 42
-0.000089
 10
41.576408
 20
127.666064
 10
38.390198
 20
129.500858
 42
-0.000001
 10
34.811258
 20
131.561821
 42
-0.000001
 10
30.607
 20
133.9829
 42
-0.000228
 10
26.411514
 20
136.401486
 42
-0.000374
 10
22.861118
 20
138.453895
 42
-0.000027
 10
19.671591
 20
140.30111
 42
-0.051853
 10
19.575316
 20
140.371102
 42
-0.685656
 10
19.590464
 20
140.410924
 42
-0.000259
 10
21.720189
 20
140.420954
 42
-0.002064
 10
24.137521
 20
140.421109
 42
-0.00121
  0
LWPOLYLINE
  5
20C
330
1D
100
AcDbEntity
  8
0
100
AcDbPolyline
 90
       26
 70
     1
 43
0.0
 10
62.918537
 20
140.462
 42
-0.001181
 10
65.796483
 20
140.455204
 42
-0.002012
 10
68.201365
 20
140.434168
 42
-0.000245
 10
70.322312
 20
140.406041
 42
-0.683275
 10
70.336833
 20
140.367251
 42
-0.051372
 10
70.243968
 20
140.299892
 42
-0.000025
 10
67.053751
 20
138.452764
 42
-0.000357
 10
63.504225
 20
136.401218
 42
-0.000218
 10
59.309
 20
133.9829
 42
-0.000006
 10
55.106177
 20
131.562711
 42
-0.00001
 10
51.531934
 20
129.504648
 42
-0.000001
 10
48.34411
 20
127.669186
 42
-0.000849
 10
48.171159
 20
127.569997
 42
-0.421589
 10
48.122072
 20
127.584055
 42
-0.175769
 10
48.11094
 20
127.659798
 42
-0.051295
 10
48.162961
 20
127.825288
 42
-0.018383
 10
48.269256
 20
128.048848
 42
-0.008698
 10
48.489237
 20
128.453456
 42
-0.000481
 10
49.199889
 20
129.705224
 42
-0.000744
 10
50.049219
 20
131.192762
 42
-0.000544
 10
50.996519
 20
132.842
 42
-0.00008
 10
51.993241
 20
134.572276
 42
-0.000079
 10
52.992412
 20
136.305528
 42
-0.000078
 10
53.866376
 20
137.820482
 42
-0.000311
 10
54.402126
 20
138.7475
 10
55.394408
 20
140.462
  0
LWPOLYLINE
  5
228
330
1D
100
AcDbEntity
  8
0
100
AcDbPolyline
 90
       12
 70
     1
 43
0.0
 10
81.858112
 20
140.462
 10
84.836
 20
140.462
 10
84.836
 20
138.811
 42
-0.007259
 10
84.826808
 20
138.177958
 42
-0.012057
 10
84.798454
 20
137.644981
 42
-0.005709
 10
84.759455
 20
137.206382
 42
-0.38519
 10
84.708182
 20
137.16
 42
-0.126562
 10
84.614695
 20
137.184049
 42
-0.000665
 10
83.780703
 20
137.644981
 42
-0.002885
 10
82.83204
 20
138.178119
 42
-0.001819
 10
81.730294
 20
138.811
 10
78.880224
 20
140.462
  0
LWPOLYLINE
  5
236
330
1D
100
AcDbEntity
  8
0
100
AcDbPolyline
 90
       22
 70
     1
 43
0.0
 10
12.01649
 20
138.154095
 42
-0.098839
 10
12.086264
 20
138.147739
 42
-0.195565
 10
12.128984
 20
138.113606
 42
-0.179114
 10
12.137936
 20
138.056664
 42
-0.082543
 10
12.110885
 20
137.9855
 42
0.001231
 10
12.023817
 20
137.835352
 42
0.000005
 10
11.043344
 20
136.134872
 42
0.000025
 10
9.931446
 20
134.206193
 42
0.000016
 10
8.632707
 20
131.953
 42
-0.000383
 10
7.335158
 20
129.705686
 42
-0.000619
 10
6.227441
 20
127.795999
 42
-0.000079
 10
5.238323
 20
126.096243
 42
-0.048229
 10
5.172812
 20
126.005167
 42
-0.683168
 10
5.135134
 20
126.018828
 42
-0.000799
 10
5.109338
 20
127.15531
 42
-0.003614
 10
5.091001
 20
128.477411
 42
-0.002084
 10
5.087063
 20
130.069167
 10
5.094126
 20
134.239
 10
8.452563
 20
136.185595
 42
-0.002024
 10
9.754649
 20
136.933277
 42
-0.00314
 10
10.884822
 20
137.566812
 42
-0.000962
 10
11.868841
 20
138.107856
 42
-0.098969
  0
LWPOLYLINE
  5
24E
330
1D
100
AcDbEntity
  8
0
100
AcDbPolyline
 90
       22
 70
     1
 43
0.0
 10
18.8595
 20
137.891801
 42
-0.008732
 10
19.29193
 20
137.653483
 42
-0.000086
 10
22.359541
 20
135.891651
 42
-0.000284
 10
25.890611
 20
133.860159
 42
-0.000184
 10
29.972
 20
131.506967
 42
-0.000278
 10
34.021383
 20
129.167242
 42
-0.000455
 10
37.448801
 20
127.180186
 42
-0.000035
 10
40.525045
 20
125.392695
 42
-0.059297
 10
40.622684
 20
125.319252
 42
-0.673929
 10
40.605819
 20
125.276854
 42
-0.000284
 10
38.477148
 20
125.264913
 42
-0.002197
 10
36.059087
 20
125.263347
 42
-0.001288
 10
33.164707
 20
125.281649
 10
25.597047
 20
125.349
 10
21.942523
 20
131.673459
 42
-0.000628
 10
20.541349
 20
134.10536
 42
-0.00103
 10
19.361516
 20
136.168889
 42
-0.000086
 10
18.307598
 20
138.021776
 42
-0.129972
 10
18.288
 20
138.095896
 42
-0.489748
 10
18.317416
 20
138.118724
 42
-0.023042
 10
18.455878
 20
138.076359
 42
-0.023196
 10
18.640231
 20
138.000712
 42
-0.012617
  0
LWPOLYLINE
  5
266
330
1D
100
AcDbEntity
  8
0
100
AcDbPolyline
 90
       18
 70
     1
 43
0.0
 10
71.551878
 20
138.082788
 42
-0.335197
 10
71.561854
 20
138.011243
 42
-0.000221
 10
70.533915
 20
136.16814
 42
-0.002303
 10
69.371263
 20
134.108019
 42
-0.001389
 10
67.975079
 20
131.676231
 10
64.318953
 20
125.349
 10
56.751293
 20
125.281649
 42
-0.001299
 10
53.856913
 20
125.26341
 42
-0.002216
 10
51.438852
 20
125.265171
 42
-0.000287
 10
49.310422
 20
125.277376
 42
-0.672369
 10
49.293316
 20
125.32013
 42
-0.060355
 10
49.391242
 20
125.394105
 42
-0.000033
 10
52.612246
 20
127.265495
 42
-0.000444
 10
56.199057
 20
129.344847
 42
-0.000271
 10
60.437776
 20
131.794037
 42
-0.000797
 10
64.674677
 20
134.230125
 42
-0.001325
 10
68.254389
 20
136.26819
 42
-0.000073
 10
71.479786
 20
138.092609
 42
-0.336955
  0
LWPOLYLINE
  5
27A
330
1D
100
AcDbEntity
  8
0
100
AcDbPolyline
 90
       22
 70
     1
 43
0.0
 10
77.901965
 20
138.145452
 42
-0.034231
 10
78.081725
 20
138.061168
 42
-0.000554
 10
79.057881
 20
137.517739
 42
-0.001447
 10
80.190902
 20
136.88103
 42
-0.000959
 10
81.487794
 20
136.144
 10
84.824946
 20
134.239
 10
84.830473
 20
130.069167
 42
-0.002085
 10
84.825946
 20
128.477411
 42
-0.003615
 10
84.807113
 20
127.15531
 42
-0.000799
 10
84.780887
 20
126.018827
 42
-0.68303
 10
84.743188
 20
126.005167
 42
-0.048229
 10
84.677677
 20
126.096243
 42
-0.000079
 10
83.688559
 20
127.795999
 42
-0.000619
 10
82.580842
 20
129.705686
 42
-0.000383
 10
81.283293
 20
131.953
 42
0.000032
 10
79.983141
 20
134.208471
 42
0.000051
 10
78.866674
 20
136.144551
 42
0.000011
 10
77.886603
 20
137.843618
 42
0.002139
 10
77.784749
 20
138.018452
 42
-0.07001
 10
77.752189
 20
138.097217
 42
-0.254691
 10
77.764954
 20
138.147932
 42
-0.23944
 10
77.81571
 20
138.166771
 42
-0.063931
  0
LWPOLYLINE
  5
292
330
1D
100
AcDbEntity
  8
0
100
AcDbPolyline
 90
       16
 70
     1
 43
0.0
 10
13.910788
 20
130.711701
 42
-0.001637
 10
13.931918
 20
127.754746
 42
-0.000968
 10
13.938751
 20
124.225761
 42
-0.000968
 10
13.931928
 20
120.703167
 42
-0.001664
 10
13.910788
 20
117.767571
 10
13.843
 20
111.329142
 10
10.242555
 20
117.577071
 42
-0.000961
 10
8.856509
 20
119.993027
 42
-0.001508
 10
7.67549
 20
122.07536
 42
-0.000372
 10
6.649192
 20
123.900859
 42
-0.058975
 10
6.559555
 20
124.116709
 42
-0.193571
 10
6.582809
 20
124.33398
 42
-0.001076
 10
7.583132
 20
126.204048
 42
-0.004388
 10
8.754088
 20
128.336733
 42
-0.002748
 10
10.16
 20
130.81291
 10
13.843
 20
137.217402
  0
LWPOLYLINE
  5
2A4
330
1D
100
AcDbEntity
  8
0
100
AcDbPolyline
 90
       24
 70
     1
 43
0.0
 10
16.596608
 20
137.138833
 42
-0.03996
 10
16.658945
 20
137.048868
 42
-0.000054
 10
17.714215
 20
135.231027
 42
-0.000468
 10
18.894573
 20
133.192805
 42
-0.000288
 10
20.279608
 20
130.79279
 42
-0.001846
 10
21.658212
 20
128.38019
 42
-0.002924
 10
22.81956
 20
126.30202
 42
-0.000686
 10
23.822745
 20
124.476037
 42
-0.125911
 10
23.876
 20
124.267911
 42
-0.126422
 10
23.822578
 20
124.060004
 42
-0.0007
 10
22.824966
 20
122.252922
 42
-0.002962
 10
21.669558
 20
120.195765
 42
-0.00187
 10
20.298012
 20
117.808121
 42
-0.000496
 10
18.918725
 20
115.433091
 42
-0.000802
 10
17.740211
 20
113.415853
 42
-0.000102
 10
16.687267
 20
111.621014
 42
-0.062771
 10
16.615012
 20
111.527167
 42
-0.666485
 10
16.571895
 20
111.544712
 42
-0.000095
 10
16.540847
 20
115.245224
 42
-0.001288
 10
16.517538
 20
119.389207
 42
-0.000762
 10
16.51
 20
124.333
 42
-0.000629
 10
16.516217
 20
129.276794
 42
-0.001062
 10
16.535441
 20
133.420776
 42
-0.000072
 10
16.561034
 20
137.126274
 42
-0.702168
  0
LWPOLYLINE
  5
2BE
330
1D
100
AcDbEntity
  8
0
100
AcDbPolyline
 90
       16
 70
     1
 43
0.0
 10
73.346824
 20
130.790277
 42
-0.001714
 10
73.367986
 20
127.909794
 42
-0.00098
 10
73.374802
 20
124.431694
 42
-0.000978
 10
73.367955
 20
120.932961
 42
-0.001625
 10
73.346824
 20
117.9835
 10
73.279
 20
111.471493
 10
69.723
 20
117.617732
 42
-0.001391
 10
68.354004
 20
119.999188
 42
-0.002157
 10
67.187016
 20
122.063001
 42
-0.000639
 10
66.183415
 20
123.861268
 42
-0.069337
 10
66.083395
 20
124.119675
 42
-0.180745
 10
66.11656
 20
124.379869
 42
-0.001496
 10
67.093483
 20
126.222936
 42
-0.005073
 10
68.250297
 20
128.33777
 42
-0.003214
 10
69.639395
 20
130.780213
 10
73.279
 20
137.085046
  0
LWPOLYLINE
  5
2D0
330
1D
100
AcDbEntity
  8
0
100
AcDbPolyline
 90
       24
 70
     1
 43
0.0
 10
76.288665
 20
136.772017
 42
-0.017006
 10
76.524399
 20
136.400864
 42
-0.00044
 10
77.521956
 20
134.702086
 42
-0.000932
 10
78.688014
 20
132.703827
 42
-0.000636
 10
80.005912
 20
130.429
 42
-0.001864
 10
81.300044
 20
128.169219
 42
-0.002942
 10
82.391586
 20
126.219987
 42
-0.000728
 10
83.33262
 20
124.510205
 42
-0.11883
 10
83.38858
 20
124.304105
 42
-0.1329
 10
83.338838
 20
124.096964
 42
-0.000696
 10
82.325296
 20
122.247485
 42
-0.003015
 10
81.151953
 20
120.143607
 42
-0.0019
 10
79.757535
 20
117.700105
 42
-0.000281
 10
78.356141
 20
115.26907
 42
-0.000456
 10
77.162077
 20
113.204736
 42
-0.000052
 10
76.094323
 20
111.363094
 42
-0.03952
 10
76.032202
 20
111.273167
 42
-0.703069
 10
75.996793
 20
111.285624
 42
-0.00007
 10
75.971322
 20
115.032697
 42
-0.001045
 10
75.952188
 20
119.222253
 42
-0.000619
 10
75.946
 20
124.220183
 42
-0.000787
 10
75.957327
 20
131.414955
 42
-0.006036
 10
76.00873
 20
134.79181
 42
-0.008319
 10
76.093405
 20
136.71805
 42
-0.714347
  0
LWPOLYLINE
  5
2EA
330
1D
100
AcDbEntity
  8
0
100
AcDbPolyline
 90
       18
 70
     1
 43
0.0
 10
33.235196
 20
123.444
 42
-0.002419
 10
36.326018
 20
123.429046
 42
-0.005631
 10
38.64132
 20
123.380562
 42
-0.002194
 10
40.460618
 20
123.313968
 42
-0.658941
 10
40.5003
 20
123.209983
 42
-0.059956
 10
40.28944
 20
123.049583
 42
-0.000159
 10
37.137019
 20
121.201575
 42
-0.000981
 10
33.573919
 20
119.123721
 42
-0.000612
 10
29.389678
 20
116.701471
 42
-0.000969
 10
25.21511
 20
114.30241
 42
-0.00161
 10
21.685298
 20
112.298032
 42
-0.000108
 10
18.5115
 20
110.510209
 42
-0.336442
 10
18.425302
 20
110.522032
 42
-0.334137
 10
18.413217
 20
110.607508
 42
-0.000309
 10
19.44483
 20
112.473117
 42
-0.00272
 10
20.617933
 20
114.564582
 42
-0.001643
 10
22.029519
 20
117.030544
 10
25.728791
 20
123.444
  0
LWPOLYLINE
  5
2FE
330
1D
100
AcDbEntity
  8
0
100
AcDbPolyline
 90
       18
 70
     1
 43
0.0
 10
56.668104
 20
123.435922
 10
64.187209
 20
123.444
 10
67.886481
 20
117.030544
 42
-0.00164
 10
69.298078
 20
114.564592
 42
-0.002716
 10
70.471213
 20
112.473161
 42
-0.000308
 10
71.502911
 20
110.607525
 42
-0.334146
 10
71.490846
 20
110.52218
 42
-0.336392
 10
71.404797
 20
110.510369
 42
-0.000112
 10
68.283852
 20
112.267699
 42
-0.001634
 10
64.8122
 20
114.238502
 42
-0.000984
 10
60.706693
 20
116.597649
 42
-0.00052
 10
56.578137
 20
118.986586
 42
-0.000812
 10
53.029859
 20
121.052388
 42
-0.000209
 10
49.933364
 20
122.863645
 42
-0.030018
 10
49.583223
 20
123.097935
 42
-0.670123
 10
49.630291
 20
123.275074
 42
-0.020661
 10
50.658108
 20
123.366778
 42
-0.010226
 10
52.613916
 20
123.420025
 42
-0.001423
  0
LWPOLYLINE
  5
312
330
1D
100
AcDbEntity
  8
0
100
AcDbPolyline
 90
       18
 70
     1
 43
0.0
 10
5.295904
 20
122.2883
 42
-0.049193
 10
5.442249
 20
122.088258
 42
-0.000405
 10
6.429539
 20
120.412782
 42
-0.001449
 10
7.55608
 20
118.48468
 42
-0.000932
 10
8.851904
 20
116.242406
 42
-0.000597
 10
10.132531
 20
114.010708
 42
-0.000979
 10
11.210847
 20
112.117778
 42
-0.000078
 10
12.174914
 20
110.417062
 42
-0.129603
 10
12.192
 20
110.352253
 42
-0.569618
 10
12.161976
 20
110.33445
 42
-0.000384
 10
11.147425
 20
110.890142
 42
-0.002878
 10
9.999688
 20
111.528553
 42
-0.001698
 10
8.636
 20
112.30351
 10
5.08
 20
114.340325
 10
5.08
 20
118.434963
 42
-0.004893
 10
5.095284
 20
119.996775
 42
-0.0091
 10
5.143106
 20
121.262256
 42
-0.005038
 10
5.209024
 20
122.258843
 42
-0.660743
  0
LWPOLYLINE
  5
326
330
1D
100
AcDbEntity
  8
0
100
AcDbPolyline
 90
       18
 70
     1
 43
0.0
 10
84.739376
 20
122.428
 42
-0.40658
 10
84.778862
 20
122.389533
 42
-0.000561
 10
84.807617
 20
121.240123
 42
-0.003733
 10
84.829056
 20
119.934767
 42
-0.002239
 10
84.836
 20
118.384163
 10
84.836
 20
114.340325
 10
81.260161
 20
112.292147
 42
-0.003187
 10
79.894353
 20
111.521353
 42
-0.005676
 10
78.759206
 20
110.907004
 42
-0.002083
 10
77.811634
 20
110.413028
 42
-0.693968
 10
77.767661
 20
110.452933
 42
-0.03473
 10
77.844272
 20
110.61197
 42
-0.00014
 10
78.824058
 20
112.328661
 42
-0.000706
 10
79.939103
 20
114.27469
 42
-0.000445
 10
81.246876
 20
116.544949
 42
-0.001154
 10
82.555886
 20
118.800653
 42
-0.001904
 10
83.673597
 20
120.699854
 42
-0.000169
 10
84.680365
 20
122.394433
 42
-0.264518
  0
LWPOLYLINE
  5
33A
330
1D
100
AcDbEntity
  8
0
100
AcDbPolyline
 90
       22
 70
     1
 43
0.0
 10
41.748713
 20
120.897684
 42
-0.375783
 10
41.8024
 20
120.853358
 42
-0.102886
 10
41.797235
 20
120.734267
 42
-0.053891
 10
41.729256
 20
120.551489
 42
-0.025558
 10
41.605364
 20
120.3325
 42
0.009676
 10
41.353606
 20
119.918726
 42
0.000298
 10
40.350871
 20
118.194138
 42
0.000586
 10
39.172764
 20
116.159664
 42
0.000405
 10
37.844578
 20
113.8555
 10
34.446853
 20
107.95
 10
26.951627
 20
107.95
 42
-0.002417
 10
23.860515
 20
107.964942
 42
-0.00566
 10
21.549979
 20
108.013442
 42
-0.002223
 10
19.737563
 20
108.080087
 42
-0.658536
 10
19.6977
 20
108.184441
 42
-0.060083
 10
19.908572
 20
108.345066
 42
-0.000161
 10
23.039149
 20
110.181911
 42
-0.000991
 10
26.578258
 20
112.247512
 42
-0.000618
 10
30.734
 20
114.655125
 42
-0.000784
 10
34.888561
 20
117.04652
 42
-0.001278
 10
38.422509
 20
119.061327
 42
-0.000139
 10
41.583397
 20
120.851594
 42
-0.122182
  0
LWPOLYLINE
  5
352
330
1D
100
AcDbEntity
  8
0
100
AcDbPolyline
 90
       22
 70
     1
 43
0.0
 10
48.298542
 20
120.846092
 42
-0.037691
 10
48.614551
 20
120.696643
 42
-0.000182
 10
51.716476
 20
118.931021
 42
-0.000843
 10
55.241872
 20
116.914777
 42
-0.000533
 10
59.346853
 20
114.552037
 42
-0.000627
 10
63.439383
 20
112.183801
 42
-0.001005
 10
66.925276
 20
110.151386
 42
-0.000166
 10
70.00758
 20
108.344589
 42
-0.060069
 10
70.2183
 20
108.184224
 42
-0.658729
 10
70.178533
 20
108.080061
 42
-0.002212
 10
68.364142
 20
108.01344
 42
-0.00565
 10
66.05297
 20
107.964948
 42
-0.00242
 10
62.964373
 20
107.95
 10
55.469147
 20
107.95
 10
52.071422
 20
113.8555
 42
0.000453
 10
50.740849
 20
116.163292
 42
0.000647
 10
49.55526
 20
118.2092
 42
0.000351
 10
48.548676
 20
119.938241
 42
0.009806
 10
48.277037
 20
120.383778
 42
-0.005365
 10
48.036651
 20
120.770289
 42
-0.149128
 10
48.007597
 20
120.884268
 42
-0.480572
 10
48.061905
 20
120.923727
 42
-0.024701
  0
LWPOLYLINE
  5
36A
330
1D
100
AcDbEntity
  8
0
100
AcDbPolyline
 90
       16
 70
     1
 43
0.0
 10
43.628824
 20
113.601002
 42
-0.001685
 10
43.64998
 20
110.68895
 42
-0.000974
 10
43.656802
 20
107.185797
 42
-0.000973
 10
43.649961
 20
103.670451
 42
-0.001633
 10
43.628824
 20
100.717637
 10
43.561
 20
94.211767
 10
39.878
 20
100.611227
 42
-0.001921
 10
38.470254
 20
103.079166
 42
-0.00311
 10
37.294159
 20
105.190068
 42
-0.000539
 10
36.270385
 20
107.059539
 42
-0.198498
 10
36.253817
 20
107.212295
 42
-0.058064
 10
36.318079
 20
107.364348
 42
-0.000179
 10
37.35996
 20
109.200105
 42
-0.001027
 10
38.543242
 20
111.273338
 42
-0.000642
 10
39.936817
 20
113.6962
 10
43.561
 20
119.978498
  0
LWPOLYLINE
  5
37C
330
1D
100
AcDbEntity
  8
0
100
AcDbPolyline
 90
       24
 70
     1
 43
0.0
 10
46.440981
 20
119.7483
 42
-0.047691
 10
46.586292
 20
119.548093
 42
-0.000354
 10
47.622338
 20
117.787182
 42
-0.001331
 10
48.802945
 20
115.76501
 42
-0.000853
 10
50.163542
 20
113.411
 42
-0.00179
 10
51.508253
 20
111.055828
 42
-0.002851
 10
52.639509
 20
109.031088
 42
-0.000616
 10
53.61977
 20
107.24767
 42
-0.135099
 10
53.664024
 20
107.061
 42
-0.118462
 10
53.612051
 20
106.874389
 42
-0.000522
 10
52.597175
 20
105.053606
 42
-0.002475
 10
51.42947
 20
102.987848
 42
-0.001555
 10
50.044973
 20
100.584
 42
-0.000474
 10
48.653536
 20
98.190608
 42
-0.000767
 10
47.465037
 20
96.157918
 42
-0.000096
 10
46.402995
 20
94.348685
 42
-0.060898
 10
46.33151
 20
94.255167
 42
-0.669138
 10
46.289008
 20
94.272287
 42
-0.000093
 10
46.258406
 20
97.975711
 42
-0.001268
 10
46.23543
 20
102.122427
 42
-0.000751
 10
46.228
 20
107.069467
 42
-0.001546
 10
46.243267
 20
112.007329
 42
-0.002653
 10
46.290563
 20
116.123429
 42
-0.000428
 10
46.353996
 20
119.71632
 42
-0.684115
  0
LWPOLYLINE
  5
396
330
1D
100
AcDbEntity
  8
0
100
AcDbPolyline
 90
       16
 70
     1
 43
0.0
 10
5.9055
 20
111.049933
 42
0.00339
 10
6.356008
 20
110.782576
 42
0.000822
 10
7.104062
 20
110.347118
 42
0.000844
 10
7.963694
 20
109.850537
 42
0.000839
 10
8.8265
 20
109.355987
 42
-0.003529
 10
9.629849
 20
108.889756
 42
-0.005694
 10
10.306447
 20
108.48022
 42
-0.001492
 10
10.887701
 20
108.116877
 42
-0.257777
 10
10.922
 20
108.05477
 42
-0.402287
 10
10.881084
 20
108.012145
 42
-0.001259
 10
10.063956
 20
107.980776
 42
-0.005602
 10
9.121047
 20
107.95753
 42
-0.003361
 10
8.001
 20
107.95
 10
5.08
 20
107.95
 10
5.08
 20
109.748716
 10
5.08
 20
111.547432
  0
LWPOLYLINE
  5
3A8
330
1D
100
AcDbEntity
  8
0
100
AcDbPolyline
 90
       12
 70
     1
 43
0.0
 10
84.78479
 20
109.79521
 42
-0.006231
 10
84.806192
 20
109.15473
 42
-0.009475
 10
84.8073
 20
108.597964
 42
-0.004679
 10
84.794986
 20
108.130211
 42
-0.189656
 10
84.754989
 20
108.038323
 42
-0.194271
 10
84.657551
 20
107.996939
 42
-0.001678
 10
83.831126
 20
107.984939
 42
-0.005529
 10
82.874081
 20
107.984837
 42
-0.003498
 10
81.758199
 20
108.004866
 10
78.867
 20
108.077
 10
81.788
 20
109.761753
 10
84.709
 20
111.446506
  0
LWPOLYLINE
  5
3B6
330
1D
100
AcDbEntity
  8
0
100
AcDbPolyline
 90
       12
 70
     1
 43
0.0
 10
8.043333
 20
106.172
 42
-0.003204
 10
9.172468
 20
106.164764
 42
-0.005644
 10
10.105099
 20
106.142279
 42
-0.001852
 10
10.885424
 20
106.111755
 42
-0.660858
 10
10.900833
 20
106.070823
 42
-0.056478
 10
10.811226
 20
106.002693
 42
-0.000394
 10
9.986698
 20
105.512418
 42
-0.001523
 10
9.04043
 20
104.954656
 42
-0.000973
 10
7.9375
 20
104.311949
 10
5.08
 20
102.654251
 10
5.08
 20
104.413125
 10
5.08
 20
106.172
  0
LWPOLYLINE
  5
3C4
330
1D
100
AcDbEntity
  8
0
100
AcDbPolyline
 90
       18
 70
     1
 43
0.0
 10
26.975421
 20
106.172
 10
34.494443
 20
106.172
 10
38.185791
 20
99.763236
 42
-0.001308
 10
39.595753
 20
97.300449
 42
-0.002168
 10
40.770602
 20
95.214844
 42
-0.000196
 10
41.811088
 20
93.347158
 42
-0.335079
 10
41.801554
 20
93.278887
 42
-0.336728
 10
41.732814
 20
93.269495
 42
-0.000068
 10
38.548211
 20
95.067374
 42
-0.001279
 10
35.014942
 20
97.07467
 42
-0.000769
 10
30.832485
 20
99.473494
 42
-0.000486
 10
26.638952
 20
101.892679
 42
-0.00078
 10
23.068079
 20
103.964725
 42
-0.000121
 10
19.904448
 20
105.808095
 42
-0.049553
 10
19.6977
 20
105.957843
 42
-0.677182
 10
19.728969
 20
106.044696
 42
-0.001328
 10
21.735994
 20
106.109091
 42
-0.004682
 10
24.108575
 20
106.156677
 42
-0.002672
  0
LWPOLYLINE
  5
3D8
330
1D
100
AcDbEntity
  8
0
100
AcDbPolyline
 90
       18
 70
     1
 43
0.0
 10
62.940579
 20
106.172
 42
-0.002672
 10
65.807425
 20
106.156677
 42
-0.004682
 10
68.180006
 20
106.109091
 42
-0.001328
 10
70.187031
 20
106.044696
 42
-0.677182
 10
70.2183
 20
105.957843
 42
-0.049553
 10
70.011552
 20
105.808095
 42
-0.000121
 10
66.847921
 20
103.964725
 42
-0.00078
 10
63.277048
 20
101.892679
 42
-0.000486
 10
59.083515
 20
99.473494
 42
-0.000769
 10
54.901058
 20
97.07467
 42
-0.001279
 10
51.367789
 20
95.067374
 42
-0.000068
 10
48.183186
 20
93.269495
 42
-0.336728
 10
48.114446
 20
93.278887
 42
-0.335079
 10
48.104912
 20
93.347158
 42
-0.000196
 10
49.145398
 20
95.214844
 42
-0.002168
 10
50.320247
 20
97.300449
 42
-0.001308
 10
51.730209
 20
99.763236
 10
55.421557
 20
106.172
  0
LWPOLYLINE
  5
3EC
330
1D
100
AcDbEntity
  8
0
100
AcDbPolyline
 90
       12
 70
     1
 43
0.0
 10
81.872667
 20
106.172
 10
84.836
 20
106.172
 10
84.836
 20
104.413125
 10
84.836
 20
102.654251
 10
81.9785
 20
104.311949
 42
-0.000973
 10
80.87557
 20
104.954656
 42
-0.001523
 10
79.929302
 20
105.512418
 42
-0.000394
 10
79.104774
 20
106.002693
 42
-0.056478
 10
79.015167
 20
106.070823
 42
-0.660858
 10
79.030576
 20
106.111755
 42
-0.001852
 10
79.810901
 20
106.142279
 42
-0.005644
 10
80.743532
 20
106.164764
 42
-0.003204
  0
LWPOLYLINE
  5
3FA
330
1D
100
AcDbEntity
  8
0
100
AcDbPolyline
 90
       22
 70
     1
 43
0.0
 10
12.137437
 20
103.882568
 42
-0.531459
 10
12.153797
 20
103.860647
 42
-0.01228
 10
12.099703
 20
103.717114
 42
-0.016429
 10
12.018189
 20
103.53351
 42
-0.009072
 10
11.907262
 20
103.3145
 42
-0.00818
 10
11.685066
 20
102.910972
 42
-0.000266
 10
10.766056
 20
101.306709
 42
-0.000511
 10
9.678948
 20
99.415824
 42
-0.000355
 10
8.447248
 20
97.282
 42
-0.000597
 10
7.228781
 20
95.18035
 42
-0.00096
 10
6.184595
 20
93.392163
 42
-0.000146
 10
5.254634
 20
91.80765
 42
-0.062658
 10
5.178397
 20
91.708641
 42
-0.664386
 10
5.134185
 20
91.726473
 42
-0.001078
 10
5.120256
 20
92.848112
 42
-0.004308
 10
5.118094
 20
94.162067
 42
-0.002476
 10
5.136974
 20
95.745473
 10
5.207
 20
99.894665
 10
8.636
 20
101.886901
 42
-0.000789
 10
9.955866
 20
102.650955
 42
-0.001284
 10
11.07901
 20
103.294925
 42
-0.000144
 10
12.083002
 20
103.866774
 42
-0.118074
  0
LWPOLYLINE
  5
412
330
1D
100
AcDbEntity
  8
0
100
AcDbPolyline
 90
       16
 70
     1
 43
0.0
 10
19.32714
 20
103.300503
 42
0.001128
 10
20.117385
 20
102.841234
 42
0.000042
 10
23.100615
 20
101.116791
 42
0.000076
 10
26.629082
 20
99.078285
 42
0.000053
 10
30.600443
 20
96.785276
 10
40.753886
 20
90.924265
 10
33.154873
 20
90.991633
 10
25.55586
 20
91.059
 10
22.024925
 20
97.155
 42
-0.000693
 10
20.661256
 20
99.516859
 42
-0.001069
 10
19.489092
 20
101.563659
 42
-0.000329
 10
18.476923
 20
103.342594
 42
-0.032448
 10
18.350635
 20
103.60286
 42
-0.451134
 10
18.39169
 20
103.685578
 42
-0.141627
 10
18.54894
 20
103.682608
 42
-0.04373
 10
18.869002
 20
103.551914
 42
-0.013411
  0
LWPOLYLINE
  5
424
330
1D
100
AcDbEntity
  8
0
100
AcDbPolyline
 90
       12
 70
     1
 43
0.0
 10
71.579206
 20
103.759401
 42
-0.346646
 10
71.589849
 20
103.692732
 42
-0.000203
 10
70.562452
 20
101.853673
 42
-0.002214
 10
69.40176
 20
99.799392
 42
-0.001334
 10
68.008093
 20
97.373127
 10
64.358775
 20
91.059
 10
56.760435
 20
90.991633
 10
49.162094
 20
90.924265
 10
60.331547
 20
97.377907
 42
-0.000738
 10
64.620001
 20
99.847315
 42
-0.001226
 10
68.242946
 20
101.914598
 42
-0.000064
 10
71.509589
 20
103.767418
 42
-0.326109
  0
LWPOLYLINE
  5
432
330
1D
100
AcDbEntity
  8
0
100
AcDbPolyline
 90
       20
 70
     1
 43
0.0
 10
78.89866
 20
103.258543
 42
-0.000676
 10
79.532166
 20
102.892624
 42
-0.000222
 10
80.463403
 20
102.3525
 42
-0.000221
 10
81.496169
 20
101.752264
 42
-0.000251
 10
82.4865
 20
101.175439
 10
84.836
 20
99.805382
 10
84.836
 20
95.707358
 42
-0.002402
 10
84.828486
 20
94.14314
 42
-0.004167
 10
84.805179
 20
92.844216
 42
-0.000992
 10
84.773738
 20
91.73198
 42
-0.658844
 10
84.731077
 20
91.715167
 42
-0.062701
 10
84.659165
 20
91.808624
 42
-0.00013
 10
83.729488
 20
93.39408
 42
-0.000905
 10
82.686763
 20
95.180795
 42
-0.000562
 10
81.468752
 20
97.282
 42
-0.000378
 10
80.235432
 20
99.41886
 42
-0.000538
 10
79.143216
 20
101.31928
 42
-0.000296
 10
78.222251
 20
102.927936
 42
-0.008022
 10
77.985835
 20
103.357295
 10
77.66032
 20
103.97159
  0
LWPOLYLINE
  5
448
330
1D
100
AcDbEntity
  8
0
100
AcDbPolyline
 90
       10
 70
     1
 43
0.0
 10
13.910788
 20
96.38413
 42
-0.001651
 10
13.931923
 20
93.439641
 42
-0.000969
 10
13.938751
 20
89.916
 42
-0.000969
 10
13.931923
 20
86.392359
 42
-0.001651
 10
13.910788
 20
83.44787
 10
13.843
 20
76.97974
 10
10.109234
 20
83.44787
 10
6.375468
 20
89.916
 10
10.109234
 20
96.38413
 10
13.843
 20
102.85226
  0
LWPOLYLINE
  5
454
330
1D
100
AcDbEntity
  8
0
100
AcDbPolyline
 90
       18
 70
     1
 43
0.0
 10
76.0431
 20
102.848833
 42
-0.053667
 10
76.111087
 20
102.75659
 42
-0.000076
 10
77.199108
 20
100.890123
 42
-0.000639
 10
78.415859
 20
98.795947
 42
-0.000394
 10
79.842095
 20
96.3295
 10
83.543991
 20
89.916
 10
79.842095
 20
83.5025
 42
-0.000394
 10
78.415859
 20
81.036053
 42
-0.000639
 10
77.199108
 20
78.941877
 42
-0.000076
 10
76.111087
 20
77.07541
 42
-0.053667
 10
76.0431
 20
76.983167
 42
-0.680972
 10
76.003223
 20
76.998508
 42
-0.000083
 10
75.974523
 20
80.73853
 42
-0.001179
 10
75.95297
 20
84.923509
 42
-0.000698
 10
75.946
 20
89.916
 42
-0.000698
 10
75.95297
 20
94.908491
 42
-0.001179
 10
75.974523
 20
99.09347
 42
-0.000083
 10
76.003223
 20
102.833492
 42
-0.680972
  0
LWPOLYLINE
  5
468
330
1D
100
AcDbEntity
  8
0
100
AcDbPolyline
 90
       24
 70
     1
 43
0.0
 10
16.72598
 20
102.4763
 42
-0.049167
 10
16.87276
 20
102.275759
 42
-0.000379
 10
17.896953
 20
100.53897
 42
-0.001398
 10
19.064487
 20
98.542937
 42
-0.000897
 10
20.40898
 20
96.219981
 42
-0.001943
 10
21.737971
 20
93.893426
 42
-0.003071
 10
22.857563
 20
91.886992
 42
-0.000755
 10
23.822228
 20
90.126676
 42
-0.125605
 10
23.876
 20
89.916
 42
-0.125605
 10
23.822228
 20
89.705324
 42
-0.000755
 10
22.857563
 20
87.945008
 42
-0.003071
 10
21.737971
 20
85.938574
 42
-0.001943
 10
20.40898
 20
83.612019
 42
-0.000897
 10
19.064487
 20
81.289063
 42
-0.001398
 10
17.896953
 20
79.29303
 42
-0.000379
 10
16.87276
 20
77.556241
 42
-0.049167
 10
16.72598
 20
77.3557
 42
-0.681396
 10
16.637654
 20
77.388498
 42
-0.000448
 10
16.573374
 20
80.941541
 42
-0.00272
 10
16.525459
 20
85.018187
 42
-0.001578
 10
16.51
 20
89.916
 42
-0.001578
 10
16.525459
 20
94.813813
 42
-0.00272
 10
16.573374
 20
98.890459
 42
-0.000448
 10
16.637654
 20
102.443502
 42
-0.681396
  0
LWPOLYLINE
  5
482
330
1D
100
AcDbEntity
  8
0
100
AcDbPolyline
 90
       16
 70
     1
 43
0.0
 10
73.346861
 20
96.318186
 42
-0.00167
 10
73.368019
 20
93.403717
 42
-0.00098
 10
73.374854
 20
89.916
 42
-0.00098
 10
73.368019
 20
86.428283
 42
-0.00167
 10
73.346861
 20
83.513814
 10
73.279
 20
77.111627
 10
69.6595
 20
83.373147
 42
-0.001821
 10
68.272031
 20
85.793685
 42
-0.002887
 10
67.103228
 20
87.877987
 42
-0.000667
 10
66.092835
 20
89.710208
 42
-0.126322
 10
66.04
 20
89.916
 42
-0.126322
 10
66.092835
 20
90.121792
 42
-0.000667
 10
67.103228
 20
91.954013
 42
-0.002887
 10
68.272031
 20
94.038315
 42
-0.001821
 10
69.6595
 20
96.458853
 10
73.279
 20
102.720373
  0
LWPOLYLINE
  5
494
330
1D
100
AcDbEntity
  8
0
100
AcDbPolyline
 90
       16
 70
     1
 43
0.0
 10
33.203111
 20
88.9
 10
40.740511
 20
88.9
 10
29.577755
 20
82.450226
 42
-0.00075
 10
25.291787
 20
79.982385
 42
-0.001246
 10
21.670745
 20
77.916608
 42
-0.000066
 10
18.406294
 20
76.065598
 42
-0.326241
 10
18.335631
 20
76.073762
 42
-0.345684
 10
18.324758
 20
76.141387
 42
-0.000247
 10
19.262472
 20
77.830745
 42
-0.002444
 10
20.325004
 20
79.720928
 42
-0.001473
 10
21.602288
 20
81.952036
 42
-0.000352
 10
22.91034
 20
84.217665
 42
-0.000508
 10
24.070786
 20
86.21967
 42
-0.000261
 10
25.057658
 20
87.916205
 42
-0.008281
 10
25.307012
 20
88.3285
 10
25.665711
 20
88.9
  0
LWPOLYLINE
  5
4A6
330
1D
100
AcDbEntity
  8
0
100
AcDbPolyline
 90
       12
 70
     1
 43
0.0
 10
56.760435
 20
88.840367
 10
64.358775
 20
88.773
 10
68.008093
 20
82.458873
 42
-0.001334
 10
69.40176
 20
80.032608
 42
-0.002214
 10
70.562452
 20
77.978327
 42
-0.000203
 10
71.589849
 20
76.139268
 42
-0.346646
 10
71.579206
 20
76.072599
 42
-0.326109
 10
71.509589
 20
76.064582
 42
-0.000064
 10
68.242946
 20
77.917402
 42
-0.001226
 10
64.620001
 20
79.984685
 42
-0.000738
 10
60.331547
 20
82.454093
 10
49.162094
 20
88.907735
  0
LWPOLYLINE
  5
4B4
330
1D
100
AcDbEntity
  8
0
100
AcDbPolyline
 90
       20
 70
     1
 43
0.0
 10
5.184923
 20
88.116833
 42
-0.062701
 10
5.256835
 20
88.023376
 42
-0.00013
 10
6.186512
 20
86.43792
 42
-0.000905
 10
7.229237
 20
84.651205
 42
-0.000562
 10
8.447248
 20
82.55
 42
-0.000378
 10
9.680568
 20
80.41314
 42
-0.000538
 10
10.772784
 20
78.51272
 42
-0.000296
 10
11.693749
 20
76.904064
 42
-0.008022
 10
11.930165
 20
76.474705
 10
12.25568
 20
75.86041
 10
11.01734
 20
76.573457
 42
-0.000676
 10
10.383834
 20
76.939376
 42
-0.000222
 10
9.452597
 20
77.4795
 42
-0.000221
 10
8.419831
 20
78.079736
 42
-0.000251
 10
7.4295
 20
78.656561
 10
5.08
 20
80.026618
 10
5.08
 20
84.124642
 42
-0.002402
 10
5.087514
 20
85.68886
 42
-0.004167
 10
5.110821
 20
86.987784
 42
-0.000992
 10
5.142262
 20
88.10002
 42
-0.658844
  0
LWPOLYLINE
  5
4CA
330
1D
100
AcDbEntity
  8
0
100
AcDbPolyline
 90
       20
 70
     1
 43
0.0
 10
84.760581
 20
88.138
 42
-0.408381
 10
84.791464
 20
88.107728
 42
-0.00034
 10
84.813846
 20
86.946641
 42
-0.002906
 10
84.83058
 20
85.637462
 42
-0.001742
 10
84.836
 20
84.082309
 10
84.836
 20
80.026618
 10
82.4865
 20
78.656561
 42
-0.000251
 10
81.496568
 20
78.07997
 42
-0.000222
 10
80.465006
 20
77.48044
 42
-0.000223
 10
79.535417
 20
76.941281
 42
-0.000682
 10
78.904118
 20
76.576655
 10
77.671236
 20
75.866807
 10
78.142118
 20
76.753032
 42
-0.007196
 10
78.460438
 20
77.331865
 42
-0.000518
 10
79.366527
 20
78.920932
 42
-0.000727
 10
80.45189
 20
80.813431
 42
-0.000549
 10
81.649081
 20
82.888629
 42
-0.001008
 10
82.818622
 20
84.901382
 42
-0.001666
 10
83.815468
 20
86.595997
 42
-0.000129
 10
84.714423
 20
88.111718
 42
-0.264741
  0
LWPOLYLINE
  5
4E0
330
1D
100
AcDbEntity
  8
0
100
AcDbPolyline
 90
       22
 70
     1
 43
0.0
 10
41.73449
 20
86.593835
 42
-0.099193
 10
41.804547
 20
86.586811
 42
-0.189873
 10
41.848075
 20
86.552117
 42
-0.176198
 10
41.858143
 20
86.49476
 42
-0.084758
 10
41.832602
 20
86.4235
 42
-0.002343
 10
41.747068
 20
86.273404
 42
-0.000008
 10
40.692154
 20
84.4423
 42
-0.000044
 10
39.49808
 20
82.370135
 42
-0.000027
 10
38.101016
 20
79.9465
 10
34.47681
 20
73.66
 10
26.975071
 20
73.66
 42
-0.00186
 10
24.108617
 20
73.670661
 42
-0.003197
 10
21.720664
 20
73.703695
 42
-0.000582
 10
19.646417
 20
73.748071
 42
-0.660053
 10
19.622082
 20
73.808748
 42
-0.063946
 10
19.755098
 20
73.911489
 42
-0.000067
 10
22.922866
 20
75.766802
 42
-0.000655
 10
26.468248
 20
77.836401
 42
-0.000403
 10
30.649915
 20
80.265583
 42
-0.000638
 10
34.835711
 20
82.685533
 42
-0.00104
 10
38.393632
 20
84.726593
 42
-0.000105
 10
41.57942
 20
86.544491
 42
-0.105517
  0
LWPOLYLINE
  5
4F8
330
1D
100
AcDbEntity
  8
0
100
AcDbPolyline
 90
       22
 70
     1
 43
0.0
 10
48.095755
 20
86.614
 42
-0.130072
 10
48.186832
 20
86.589899
 42
-0.000044
 10
51.376541
 20
84.77429
 42
-0.000734
 10
54.91573
 20
82.752459
 42
-0.000446
 10
59.096246
 20
80.351157
 42
-0.000486
 10
63.284897
 20
77.93479
 42
-0.000781
 10
66.85166
 20
75.865116
 42
-0.000121
 10
70.011561
 20
74.023899
 42
-0.049551
 10
70.2183
 20
73.874157
 42
-0.677181
 10
70.187031
 20
73.787304
 42
-0.001328
 10
68.180198
 20
73.722909
 42
-0.004683
 10
65.807829
 20
73.675323
 42
-0.002673
 10
62.941234
 20
73.66
 10
55.422868
 20
73.66
 10
51.8084
 20
79.9465
 42
-0.000006
 10
50.414956
 20
82.370132
 42
-0.00001
 10
49.223676
 20
84.4423
 42
-0.000002
 10
48.171201
 20
86.273126
 42
-0.000548
 10
48.084975
 20
86.4235
 42
-0.046514
 10
48.05177
 20
86.496562
 42
-0.097846
 10
48.043198
 20
86.558041
 42
-0.169742
 10
48.059697
 20
86.59786
 42
-0.213589
  0
LWPOLYLINE
  5
510
330
1D
100
AcDbEntity
  8
0
100
AcDbPolyline
 90
       16
 70
     1
 43
0.0
 10
43.628824
 20
79.114363
 42
-0.001633
 10
43.649961
 20
76.161549
 42
-0.000973
 10
43.656802
 20
72.646203
 42
-0.000974
 10
43.64998
 20
69.14305
 42
-0.001685
 10
43.628824
 20
66.230998
 10
43.561
 20
59.853502
 10
39.936817
 20
66.1358
 42
-0.000642
 10
38.543242
 20
68.558662
 42
-0.001027
 10
37.35996
 20
70.631895
 42
-0.000179
 10
36.318079
 20
72.467652
 42
-0.058064
 10
36.253817
 20
72.619705
 42
-0.198498
 10
36.270385
 20
72.772461
 42
-0.000539
 10
37.294159
 20
74.641932
 42
-0.00311
 10
38.470254
 20
76.752834
 42
-0.001921
 10
39.878
 20
79.220773
 10
43.561
 20
85.620233
  0
LWPOLYLINE
  5
522
330
1D
100
AcDbEntity
  8
0
100
AcDbPolyline
 90
       24
 70
     1
 43
0.0
 10
46.33151
 20
85.576833
 42
-0.060898
 10
46.402995
 20
85.483315
 42
-0.000096
 10
47.465037
 20
83.674082
 42
-0.000767
 10
48.653536
 20
81.641392
 42
-0.000474
 10
50.044973
 20
79.248
 42
-0.001555
 10
51.42947
 20
76.844152
 42
-0.002475
 10
52.597175
 20
74.778394
 42
-0.000522
 10
53.612051
 20
72.957611
 42
-0.118462
 10
53.664024
 20
72.771
 42
-0.135099
 10
53.61977
 20
72.58433
 42
-0.000616
 10
52.639509
 20
70.800912
 42
-0.002851
 10
51.508253
 20
68.776172
 42
-0.00179
 10
50.163542
 20
66.421
 42
-0.000853
 10
48.802945
 20
64.06699
 42
-0.001331
 10
47.622338
 20
62.044818
 42
-0.000354
 10
46.586292
 20
60.283907
 42
-0.047691
 10
46.440981
 20
60.0837
 42
-0.684115
 10
46.353996
 20
60.11568
 42
-0.000428
 10
46.290563
 20
63.708571
 42
-0.002653
 10
46.243267
 20
67.824671
 42
-0.001546
 10
46.228
 20
72.762533
 42
-0.000751
 10
46.23543
 20
77.709573
 42
-0.001268
 10
46.258406
 20
81.856289
 42
-0.000093
 10
46.289008
 20
85.559713
 42
-0.669138
  0
LWPOLYLINE
  5
53C
330
1D
100
AcDbEntity
  8
0
100
AcDbPolyline
 90
       12
 70
     1
 43
0.0
 10
7.9375
 20
75.520051
 42
-0.000973
 10
9.04043
 20
74.877344
 42
-0.001523
 10
9.986698
 20
74.319582
 42
-0.000394
 10
10.811226
 20
73.829307
 42
-0.056478
 10
10.900833
 20
73.761177
 42
-0.660858
 10
10.885424
 20
73.720245
 42
-0.001852
 10
10.105099
 20
73.689721
 42
-0.005644
 10
9.172468
 20
73.667236
 42
-0.003204
 10
8.043333
 20
73.66
 10
5.08
 20
73.66
 10
5.08
 20
75.418875
 10
5.08
 20
77.177749
  0
LWPOLYLINE
  5
54A
330
1D
100
AcDbEntity
  8
0
100
AcDbPolyline
 90
       12
 70
     1
 43
0.0
 10
84.78479
 20
75.474554
 42
-0.006354
 10
84.80619
 20
74.845828
 42
-0.009645
 10
84.8073
 20
74.298959
 42
-0.004836
 10
84.794934
 20
73.839977
 42
-0.189416
 10
84.754989
 20
73.748323
 42
-0.194161
 10
84.657689
 20
73.706973
 42
-0.001735
 10
83.846234
 20
73.694939
 42
-0.005626
 10
82.905792
 20
73.694837
 42
-0.003563
 10
81.80963
 20
73.714866
 10
78.969861
 20
73.787
 10
81.83943
 20
75.441097
 10
84.709
 20
77.095195
  0
LWPOLYLINE
  5
558
330
1D
100
AcDbEntity
  8
0
100
AcDbPolyline
 90
       16
 70
     1
 43
0.0
 10
8.001
 20
71.882
 42
-0.003361
 10
9.121047
 20
71.87447
 42
-0.005602
 10
10.063956
 20
71.851224
 42
-0.001259
 10
10.881084
 20
71.819855
 42
-0.402287
 10
10.922
 20
71.77723
 42
-0.257777
 10
10.887701
 20
71.715123
 42
-0.001492
 10
10.306447
 20
71.35178
 42
-0.005694
 10
9.629849
 20
70.942244
 42
-0.003529
 10
8.8265
 20
70.476013
 42
0.000839
 10
7.963694
 20
69.981463
 42
0.000844
 10
7.104062
 20
69.484882
 42
0.000822
 10
6.356008
 20
69.049424
 42
0.00339
 10
5.9055
 20
68.782067
 10
5.08
 20
68.284568
 10
5.08
 20
70.083284
 10
5.08
 20
71.882
  0
LWPOLYLINE
  5
56A
330
1D
100
AcDbEntity
  8
0
100
AcDbPolyline
 90
       18
 70
     1
 43
0.0
 10
26.951297
 20
71.882
 10
34.446194
 20
71.882
 10
38.151858
 20
65.4685
 42
-0.001542
 10
39.566442
 20
63.00271
 42
-0.002553
 10
40.743305
 20
60.911798
 42
-0.000274
 10
41.780443
 20
59.044507
 42
-0.326861
 10
41.770108
 20
58.962514
 42
-0.344362
 10
41.689491
 20
58.950305
 42
-0.000098
 10
38.514768
 20
60.739406
 42
-0.001536
 10
34.985852
 20
62.74333
 42
-0.000924
 10
30.810848
 20
65.14138
 42
-0.000616
 10
26.62564
 20
67.562469
 42
-0.000989
 10
23.061723
 20
69.639446
 42
-0.00016
 10
19.908715
 20
71.486673
 42
-0.060352
 10
19.6977
 20
71.647366
 42
-0.658363
 10
19.737648
 20
71.75189
 42
-0.002234
 10
21.548216
 20
71.818556
 42
-0.00567
 10
23.858081
 20
71.867063
 42
-0.002414
  0
LWPOLYLINE
  5
57E
330
1D
100
AcDbEntity
  8
0
100
AcDbPolyline
 90
       18
 70
     1
 43
0.0
 10
62.964703
 20
71.882
 42
-0.002414
 10
66.057919
 20
71.867063
 42
-0.00567
 10
68.367784
 20
71.818556
 42
-0.002234
 10
70.178352
 20
71.75189
 42
-0.658363
 10
70.2183
 20
71.647366
 42
-0.060352
 10
70.007285
 20
71.486673
 42
-0.00016
 10
66.854277
 20
69.639446
 42
-0.000989
 10
63.29036
 20
67.562469
 42
-0.000616
 10
59.105152
 20
65.14138
 42
-0.000924
 10
54.930148
 20
62.74333
 42
-0.001536
 10
51.401232
 20
60.739406
 42
-0.000098
 10
48.226509
 20
58.950305
 42
-0.344362
 10
48.145892
 20
58.962514
 42
-0.326861
 10
48.135557
 20
59.044507
 42
-0.000274
 10
49.172695
 20
60.911798
 42
-0.002553
 10
50.349558
 20
63.00271
 42
-0.001542
 10
51.764142
 20
65.4685
 10
55.469806
 20
71.882
  0
LWPOLYLINE
  5
592
330
1D
100
AcDbEntity
  8
0
100
AcDbPolyline
 90
       16
 70
     1
 43
0.0
 10
81.915
 20
71.882
 10
84.836
 20
71.882
 10
84.836
 20
70.083284
 10
84.836
 20
68.284568
 10
84.0105
 20
68.782067
 42
0.00339
 10
83.559992
 20
69.049424
 42
0.000822
 10
82.811937
 20
69.484882
 42
0.000844
 10
81.952306
 20
69.981463
 42
0.000839
 10
81.0895
 20
70.476013
 42
-0.003529
 10
80.286151
 20
70.942244
 42
-0.005694
 10
79.609553
 20
71.35178
 42
-0.001492
 10
79.028299
 20
71.715123
 42
-0.257777
 10
78.994
 20
71.77723
 42
-0.402287
 10
79.034916
 20
71.819855
 42
-0.001259
 10
79.852044
 20
71.851224
 42
-0.005602
 10
80.794953
 20
71.87447
 42
-0.003361
  0
LWPOLYLINE
  5
5A4
330
1D
100
AcDbEntity
  8
0
100
AcDbPolyline
 90
       18
 70
     1
 43
0.0
 10
12.13445
 20
69.465011
 42
-0.38021
 10
12.145665
 20
69.414345
 42
-0.000159
 10
11.200599
 20
67.721404
 42
-0.001982
 10
10.135889
 20
65.833184
 42
-0.001191
 10
8.857854
 20
63.599883
 42
-0.00093
 10
7.559749
 20
61.353664
 42
-0.001446
 10
6.431287
 20
59.42224
 42
-0.000404
 10
5.442266
 20
57.743769
 42
-0.049197
 10
5.295904
 20
57.5437
 42
-0.66075
 10
5.209023
 20
57.573158
 42
-0.005036
 10
5.143106
 20
58.569951
 42
-0.009099
 10
5.095284
 20
59.83566
 42
-0.004892
 10
5.08
 20
61.397743
 10
5.08
 20
65.493085
 10
8.5725
 20
67.504171
 42
-0.001817
 10
9.916582
 20
68.271641
 42
-0.002991
 10
11.059479
 20
68.90974
 42
-0.000395
 10
12.076611
 20
69.468621
 42
-0.289707
  0
LWPOLYLINE
  5
5B8
330
1D
100
AcDbEntity
  8
0
100
AcDbPolyline
 90
       18
 70
     1
 43
0.0
 10
81.28
 20
67.52849
 10
84.836
 20
65.491675
 10
84.836
 20
61.397037
 42
-0.004893
 10
84.820716
 20
59.835225
 42
-0.0091
 10
84.772894
 20
58.569744
 42
-0.005038
 10
84.706976
 20
57.573157
 42
-0.660743
 10
84.620096
 20
57.5437
 42
-0.049193
 10
84.473751
 20
57.743742
 42
-0.000405
 10
83.486461
 20
59.419218
 42
-0.001449
 10
82.35992
 20
61.34732
 42
-0.000932
 10
81.064096
 20
63.589594
 42
-0.000597
 10
79.783469
 20
65.821292
 42
-0.000979
 10
78.705153
 20
67.714222
 42
-0.000078
 10
77.741086
 20
69.414938
 42
-0.129603
 10
77.724
 20
69.479747
 42
-0.569618
 10
77.754024
 20
69.49755
 42
-0.000384
 10
78.768575
 20
68.941858
 42
-0.002878
 10
79.916312
 20
68.303447
 42
-0.001698
  0
LWPOLYLINE
  5
5CC
330
1D
100
AcDbEntity
  8
0
100
AcDbPolyline
 90
       22
 70
     1
 43
0.0
 10
18.612018
 20
69.272013
 42
-0.037723
 10
18.936675
 20
69.118449
 42
-0.000193
 10
22.032137
 20
67.35589
 42
-0.00087
 10
25.553217
 20
65.341059
 42
-0.000551
 10
29.650676
 20
62.980934
 42
-0.000623
 10
33.73484
 20
60.615681
 42
-0.000998
 10
37.213687
 20
58.585897
 42
-0.000165
 10
40.289776
 20
56.781501
 42
-0.059603
 10
40.5003
 20
56.621495
 42
-0.659414
 10
40.460848
 20
56.517969
 42
-0.002164
 10
38.636066
 20
56.451434
 42
-0.005604
 10
36.318419
 20
56.402968
 42
-0.002425
 10
33.232616
 20
56.388
 10
25.723631
 20
56.388
 10
22.543427
 20
61.9125
 42
0.000189
 10
21.282338
 20
64.101293
 42
0.000245
 10
20.12387
 20
66.10795
 42
0.000184
 10
19.151301
 20
67.789273
 42
0.002195
 10
18.772453
 20
68.437074
 42
-0.006934
 10
18.459944
 20
68.983256
 42
-0.079165
 10
18.375608
 20
69.215855
 42
-0.440317
 10
18.434946
 20
69.295601
 42
-0.117525
  0
LWPOLYLINE
  5
5E4
330
1D
100
AcDbEntity
  8
0
100
AcDbPolyline
 90
       22
 70
     1
 43
0.0
 10
71.462589
 20
69.337999
 42
-0.478518
 10
71.510993
 20
69.280148
 42
-0.038748
 10
71.449555
 20
69.061028
 42
-0.030053
 10
71.316114
 20
68.754766
 42
-0.015652
 10
71.115477
 20
68.3895
 42
0.002229
 10
70.75119
 20
67.766536
 42
0.000173
 10
69.783885
 20
66.093975
 42
0.000236
 10
68.631638
 20
64.097864
 42
0.00018
 10
67.372573
 20
61.9125
 10
64.192369
 20
56.388
 10
56.683384
 20
56.388
 42
-0.002408
 10
53.582585
 20
56.402933
 42
-0.005666
 10
51.268722
 20
56.451445
 42
-0.002234
 10
49.455723
 20
56.518123
 42
-0.658263
 10
49.4157
 20
56.622785
 42
-0.060227
 10
49.626638
 20
56.78361
 42
-0.000162
 10
52.757149
 20
58.621078
 42
-0.000994
 10
56.296259
 20
60.687391
 42
-0.000619
 10
60.452
 20
63.095784
 42
-0.000784
 10
64.606278
 20
65.487776
 42
-0.001278
 10
68.139298
 20
67.502697
 42
-0.000136
 10
71.300322
 20
69.293634
 42
-0.124803
  0
LWPOLYLINE
  5
5FC
330
1D
100
AcDbEntity
  8
0
100
AcDbPolyline
 90
       16
 70
     1
 43
0.0
 10
13.910788
 20
62.064429
 42
-0.001664
 10
13.931928
 20
59.128833
 42
-0.000968
 10
13.938751
 20
55.606239
 42
-0.000968
 10
13.931918
 20
52.077254
 42
-0.001637
 10
13.910788
 20
49.120299
 10
13.843
 20
42.614598
 10
10.16
 20
49.01909
 42
-0.002748
 10
8.754088
 20
51.495267
 42
-0.004388
 10
7.583132
 20
53.627952
 42
-0.001076
 10
6.582809
 20
55.49802
 42
-0.193571
 10
6.559555
 20
55.715291
 42
-0.058975
 10
6.649192
 20
55.931141
 42
-0.000372
 10
7.67549
 20
57.75664
 42
-0.001508
 10
8.856509
 20
59.838973
 42
-0.000961
 10
10.242555
 20
62.254929
 10
13.843
 20
68.502858
  0
LWPOLYLINE
  5
60E
330
1D
100
AcDbEntity
  8
0
100
AcDbPolyline
 90
       24
 70
     1
 43
0.0
 10
76.032202
 20
68.558833
 42
-0.03952
 10
76.094323
 20
68.468906
 42
-0.000052
 10
77.162077
 20
66.627264
 42
-0.000456
 10
78.356141
 20
64.56293
 42
-0.000281
 10
79.757535
 20
62.131895
 42
-0.0019
 10
81.151953
 20
59.688393
 42
-0.003015
 10
82.325296
 20
57.584515
 42
-0.000696
 10
83.338838
 20
55.735036
 42
-0.1329
 10
83.38858
 20
55.527895
 42
-0.11883
 10
83.33262
 20
55.321795
 42
-0.000728
 10
82.391586
 20
53.612013
 42
-0.002942
 10
81.300044
 20
51.662781
 42
-0.001864
 10
80.005912
 20
49.403
 42
-0.000636
 10
78.688014
 20
47.128173
 42
-0.000932
 10
77.521956
 20
45.129914
 42
-0.00044
 10
76.524399
 20
43.431136
 42
-0.017006
 10
76.288665
 20
43.059983
 42
-0.714347
 10
76.093405
 20
43.11395
 42
-0.008319
 10
76.00873
 20
45.04019
 42
-0.006036
 10
75.957327
 20
48.417045
 42
-0.000787
 10
75.946
 20
55.611817
 42
-0.000619
 10
75.952188
 20
60.609747
 42
-0.001045
 10
75.971322
 20
64.799303
 42
-0.00007
 10
75.996793
 20
68.546376
 42
-0.703069
  0
LWPOLYLINE
  5
628
330
1D
100
AcDbEntity
  8
0
100
AcDbPolyline
 90
       24
 70
     1
 43
0.0
 10
16.615012
 20
68.304833
 42
-0.062771
 10
16.687267
 20
68.210986
 42
-0.000102
 10
17.740211
 20
66.416147
 42
-0.000802
 10
18.918725
 20
64.398909
 42
-0.000496
 10
20.298012
 20
62.023879
 42
-0.00182
 10
21.669569
 20
59.636768
 42
-0.002887
 10
22.824966
 20
57.581318
 42
-0.000666
 10
23.823867
 20
55.774339
 42
-0.126585
 10
23.876
 20
55.571715
 42
-0.125959
 10
23.82407
 20
55.368846
 42
-0.00065
 10
22.819441
 20
53.540751
 42
-0.002845
 10
21.657973
 20
51.461826
 42
-0.001793
 10
20.279202
 20
49.046836
 42
-0.000284
 10
18.89404
 20
46.643896
 42
-0.000461
 10
17.713641
 20
44.603213
 42
-0.000053
 10
16.658305
 20
42.783064
 42
-0.039515
 10
16.596202
 20
42.693167
 42
-0.70304
 10
16.560795
 20
42.705622
 42
-0.000071
 10
16.535322
 20
46.411224
 42
-0.001057
 10
16.516188
 20
50.555206
 42
-0.000626
 10
16.51
 20
55.499
 42
-0.000762
 10
16.517538
 20
60.442793
 42
-0.001288
 10
16.540847
 20
64.586776
 42
-0.000095
 10
16.571895
 20
68.287288
 42
-0.666485
  0
LWPOLYLINE
  5
642
330
1D
100
AcDbEntity
  8
0
100
AcDbPolyline
 90
       16
 70
     1
 43
0.0
 10
73.346824
 20
62.011023
 42
-0.001691
 10
73.367978
 20
59.113123
 42
-0.000979
 10
73.374802
 20
55.629857
 42
-0.000979
 10
73.367963
 20
52.136357
 42
-0.001647
 10
73.346824
 20
49.204246
 10
73.279
 20
42.746985
 10
69.639395
 20
49.051803
 42
-0.003214
 10
68.250297
 20
51.494239
 42
-0.005073
 10
67.093483
 20
53.609069
 42
-0.001496
 10
66.11656
 20
55.452131
 42
-0.180746
 10
66.083395
 20
55.712325
 42
-0.069337
 10
66.183414
 20
55.970732
 42
-0.000639
 10
67.187016
 20
57.769004
 42
-0.002157
 10
68.354004
 20
59.832822
 42
-0.001391
 10
69.723
 20
62.214284
 10
73.279
 20
68.360538
  0
LWPOLYLINE
  5
654
330
1D
100
AcDbEntity
  8
0
100
AcDbPolyline
 90
       22
 70
     1
 43
0.0
 10
33.200537
 20
54.61
 42
-0.001271
 10
36.078482
 20
54.602685
 42
-0.002166
 10
38.483365
 20
54.580043
 42
-0.000272
 10
40.602355
 20
54.549759
 42
-0.669518
 10
40.618833
 20
54.50802
 42
-0.060218
 10
40.524317
 20
54.436678
 42
-0.000031
 10
37.302623
 20
52.565373
 42
-0.000427
 10
33.716682
 20
50.486885
 42
-0.00026
 10
29.478224
 20
48.037963
 42
-0.000808
 10
25.241243
 20
45.601958
 42
-0.001344
 10
21.661276
 20
43.564146
 42
-0.000075
 10
18.4361
 20
41.740388
 42
-0.336918
 10
18.36298
 20
41.750354
 42
-0.333456
 10
18.352696
 20
41.82245
 42
-0.000415
 10
19.099675
 20
43.180491
 42
-0.003154
 10
19.953881
 20
44.707558
 42
-0.001907
 10
20.983877
 20
46.505911
 42
-0.000071
 10
22.091107
 20
48.421504
 42
-0.000073
 10
23.184168
 20
50.311327
 42
-0.000071
 10
24.129898
 20
51.945339
 42
-0.000321
 10
24.680825
 20
52.8955
 10
25.676408
 20
54.61
  0
LWPOLYLINE
  5
66C
330
1D
100
AcDbEntity
  8
0
100
AcDbPolyline
 90
       18
 70
     1
 43
0.0
 10
56.751293
 20
54.550351
 10
64.318953
 20
54.483
 10
67.975079
 20
48.155769
 42
-0.001389
 10
69.371263
 20
45.723981
 42
-0.002303
 10
70.533915
 20
43.66386
 42
-0.000221
 10
71.561854
 20
41.820757
 42
-0.335197
 10
71.551878
 20
41.749212
 42
-0.336955
 10
71.479786
 20
41.739391
 42
-0.000073
 10
68.254389
 20
43.56381
 42
-0.001325
 10
64.674677
 20
45.601875
 42
-0.000797
 10
60.437776
 20
48.037963
 42
-0.000271
 10
56.199057
 20
50.487153
 42
-0.000444
 10
52.612246
 20
52.566505
 42
-0.000033
 10
49.391242
 20
54.437895
 42
-0.060355
 10
49.293316
 20
54.51187
 42
-0.672369
 10
49.310422
 20
54.554624
 42
-0.000287
 10
51.438852
 20
54.566829
 42
-0.002216
 10
53.856913
 20
54.56859
 42
-0.001299
  0
LWPOLYLINE
  5
680
330
1D
100
AcDbEntity
  8
0
100
AcDbPolyline
 90
       18
 70
     1
 43
0.0
 10
5.31918
 20
53.594
 42
-0.001471
 10
5.485873
 20
53.308212
 42
-0.000022
 10
6.448266
 20
51.646845
 42
-0.00006
 10
7.565619
 20
49.717236
 42
-0.00004
 10
8.848697
 20
47.500407
 42
-0.001416
 10
10.111002
 20
45.30475
 42
-0.002347
 10
11.161962
 20
43.444444
 42
-0.00023
 10
12.090642
 20
41.78062
 42
-0.335285
 10
12.081476
 20
41.71481
 42
-0.330627
 10
12.016344
 20
41.705181
 42
-0.000624
 10
11.014439
 20
42.243582
 42
-0.003867
 10
9.882253
 20
42.865163
 42
-0.002343
 10
8.551529
 20
43.617402
 10
5.094586
 20
45.593
 10
5.095017
 20
49.784
 42
-0.004195
 10
5.109458
 20
51.484547
 42
-0.010472
 10
5.156443
 20
52.72615
 42
-0.010468
 10
5.2241
 20
53.57322
 42
-0.725286
  0
LWPOLYLINE
  5
694
330
1D
100
AcDbEntity
  8
0
100
AcDbPolyline
 90
       18
 70
     1
 43
0.0
 10
84.7725
 20
53.844045
 42
-0.428234
 10
84.798489
 20
53.819979
 42
-0.000234
 10
84.815205
 20
52.634385
 42
-0.002408
 10
84.826941
 20
51.302921
 42
-0.001441
 10
84.828707
 20
49.7205
 10
84.821414
 20
45.593
 10
81.364471
 20
43.617402
 42
-0.002304
 10
80.033834
 20
42.865073
 42
-0.003803
 10
78.901921
 20
42.243221
 42
-0.000603
 10
77.899821
 20
41.704125
 42
-0.330765
 10
77.835753
 20
41.713581
 42
-0.335067
 10
77.826699
 20
41.778399
 42
-0.0002
 10
78.805111
 20
43.534812
 42
-0.002189
 10
79.910162
 20
45.496453
 42
-0.00132
 10
81.236488
 20
47.812724
 42
-0.000714
 10
82.572526
 20
50.124094
 42
-0.001183
 10
83.707603
 20
52.070714
 42
-0.000068
 10
84.733537
 20
53.820091
 42
-0.249508
  0
LWPOLYLINE
  5
6A8
330
1D
100
AcDbEntity
  8
0
100
AcDbPolyline
 90
       22
 70
     1
 43
0.0
 10
41.870746
 20
52.320821
 42
-0.566767
 10
41.88938
 20
52.292115
 42
-0.002498
 10
41.691917
 20
51.894044
 42
-0.007296
 10
41.446877
 20
51.423448
 42
-0.0042
 10
41.138747
 20
50.8635
 42
-0.002319
 10
40.655203
 20
50.011278
 42
-0.000375
 10
39.70558
 20
48.358425
 42
-0.000414
 10
38.584464
 20
46.414192
 42
-0.000364
 10
37.411014
 20
44.3865
 10
34.503027
 20
39.37
 10
26.967013
 20
39.377724
 42
-0.002422
 10
23.923879
 20
39.395583
 42
-0.005453
 10
21.617051
 20
39.445458
 42
-0.002709
 10
19.836377
 20
39.51305
 42
-0.746364
 10
19.812
 20
39.610506
 42
-0.00225
 10
20.111438
 20
39.785572
 42
-0.00001
 10
23.252113
 20
41.602759
 42
-0.000049
 10
26.82249
 20
43.668003
 42
-0.000031
 10
30.988
 20
46.076603
 42
-0.000309
 10
35.133414
 20
48.46982
 42
-0.000511
 10
38.637744
 20
50.48527
 42
-0.000022
 10
41.803805
 20
52.301679
 42
-0.121748
  0
LWPOLYLINE
  5
6C0
330
1D
100
AcDbEntity
  8
0
100
AcDbPolyline
 90
       20
 70
     1
 43
0.0
 10
49.032905
 20
51.779685
 42
0.000224
 10
49.828535
 20
51.320369
 42
0.000009
 10
52.779641
 20
49.618531
 42
0.000015
 10
56.271932
 20
47.604825
 42
0.000011
 10
60.198
 20
45.341273
 42
-0.000239
 10
64.052602
 20
43.116576
 42
-0.000392
 10
67.316026
 20
41.227585
 42
-0.000031
 10
70.244841
 20
39.528973
 42
-0.050171
 10
70.340684
 20
39.459696
 42
-0.687964
 10
70.325854
 20
39.420362
 42
-0.000255
 10
68.195811
 20
39.410693
 42
-0.002038
 10
65.778479
 20
39.410805
 42
-0.001195
 10
62.884963
 20
39.429649
 10
55.319558
 20
39.497
 10
52.529904
 20
44.323
 42
-0.000415
 10
51.394442
 20
46.291081
 42
-0.000447
 10
50.289544
 20
48.213835
 42
-0.000422
 10
49.34377
 20
49.866317
 42
-0.002131
 10
48.82053
 20
50.791458
 10
47.90081
 20
52.433917
  0
LWPOLYLINE
  5
6D6
330
1D
100
AcDbEntity
  8
0
100
AcDbPolyline
 90
       12
 70
     1
 43
0.0
 10
43.6245
 20
51.303222
 42
-0.434907
 10
43.650642
 20
51.279093
 42
-0.000024
 10
43.669347
 20
47.483274
 42
-0.000763
 10
43.683437
 20
43.282939
 42
-0.000457
 10
43.688
 20
38.292435
 10
43.688
 20
25.27687
 10
39.910226
 20
31.829573
 10
36.132452
 20
38.382277
 10
39.846726
 20
44.84036
 42
-0.000662
 10
41.275467
 20
47.316946
 42
-0.001097
 10
42.488585
 20
49.402785
 42
-0.000059
 10
43.585522
 20
51.278874
 42
-0.246436
  0
LWPOLYLINE
  5
6E4
330
1D
100
AcDbEntity
  8
0
100
AcDbPolyline
 90
       12
 70
     1
 43
0.0
 10
46.532236
 20
50.937088
 42
-0.000371
 10
46.74342
 20
50.572354
 42
-0.000008
 10
47.758993
 20
48.815285
 42
-0.000019
 10
48.947747
 20
46.758337
 42
-0.000013
 10
50.302898
 20
44.413123
 10
53.784772
 20
38.387071
 10
50.006386
 20
31.839144
 10
46.228
 20
25.291218
 10
46.235724
 20
38.363109
 42
-0.000995
 10
46.252378
 20
44.815783
 42
-0.004752
 10
46.304235
 20
48.500175
 42
-0.003793
 10
46.379016
 20
50.899037
 42
-0.751273
  0
LWPOLYLINE
  5
6F2
330
1D
100
AcDbEntity
  8
0
100
AcDbPolyline
 90
       12
 70
     1
 43
0.0
 10
5.207818
 20
42.672
 42
-0.126562
 10
5.301305
 20
42.647951
 42
-0.000665
 10
6.135297
 20
42.187019
 42
-0.002885
 10
7.08396
 20
41.653881
 42
-0.001819
 10
8.185706
 20
41.021
 10
11.035776
 20
39.37
 10
8.057888
 20
39.37
 10
5.08
 20
39.37
 10
5.08
 20
41.021
 42
-0.007259
 10
5.089192
 20
41.654042
 42
-0.012057
 10
5.117546
 20
42.187019
 42
-0.005709
 10
5.156545
 20
42.625618
 42
-0.38519
  0
LWPOLYLINE
  5
700
330
1D
100
AcDbEntity
  8
0
100
AcDbPolyline
 90
       12
 70
     1
 43
0.0
 10
84.6455
 20
42.656477
 42
-0.389529
 10
84.72105
 20
42.59765
 42
-0.01259
 10
84.780041
 20
42.182459
 42
-0.018157
 10
84.822305
 20
41.652939
 42
-0.010835
 10
84.836
 20
41.021
 10
84.836
 20
39.37
 10
81.858161
 20
39.37
 10
78.880321
 20
39.37
 10
81.667661
 20
41.005477
 42
-0.002399
 10
82.749737
 20
41.633427
 42
-0.003697
 10
83.692178
 20
42.165092
 42
-0.001245
 10
84.509978
 20
42.615846
 42
-0.105375
  0
LWPOLYLINE
  5
70E
330
1D
100
AcDbEntity
  8
0
100
AcDbPolyline
 90
       10
 70
     1
 43
0.0
 10
7.9375
 20
37.333174
 10
10.795
 20
37.328348
 10
9.652
 20
36.614796
 42
-0.005201
 10
9.093841
 20
36.274366
 42
-0.002225
 10
8.341122
 20
35.830471
 42
-0.002201
 10
7.534565
 20
35.364401
 42
-0.002898
 10
6.7945
 20
34.946762
 10
5.08
 20
33.992279
 10
5.08
 20
35.665139
 10
5.08
 20
37.338
  0
LWPOLYLINE
  5
71A
330
1D
100
AcDbEntity
  8
0
100
AcDbPolyline
 90
       18
 70
     1
 43
0.0
 10
27.169618
 20
37.27841
 10
34.619723
 20
37.211
 10
38.27338
 20
30.890685
 42
-0.001213
 10
39.669163
 20
28.462602
 42
-0.002015
 10
40.83262
 20
26.408085
 42
-0.000167
 10
41.865076
 20
24.566198
 42
-0.351706
 10
41.855019
 20
24.506103
 42
-0.321704
 10
41.791388
 20
24.499327
 42
-0.000055
 10
38.617837
 20
26.30173
 42
-0.001139
 10
35.100345
 20
28.310604
 42
-0.000686
 10
30.93596
 20
30.709125
 42
-0.000504
 10
26.764134
 20
33.125173
 42
-0.000816
 10
23.220981
 20
35.189654
 42
-0.000104
 10
20.068419
 20
37.034332
 42
-0.06403
 10
19.904216
 20
37.161117
 42
-0.66104
 10
19.934089
 20
37.235304
 42
-0.000916
 10
21.962238
 20
37.271762
 42
-0.003993
 10
24.325383
 20
37.291036
 42
-0.002304
  0
LWPOLYLINE
  5
72E
330
1D
100
AcDbEntity
  8
0
100
AcDbPolyline
 90
       22
 70
     1
 43
0.0
 10
62.788642
 20
37.338
 42
-0.002193
 10
65.614458
 20
37.325608
 42
-0.00379
 10
67.964096
 20
37.287186
 42
-0.000817
 10
69.987628
 20
37.235441
 42
-0.658387
 10
70.015683
 20
37.165016
 42
-0.064067
 10
69.861593
 20
37.046057
 42
-0.000091
 10
66.704901
 20
35.19947
 42
-0.000765
 10
63.161872
 20
33.13502
 42
-0.000472
 10
58.987849
 20
30.71671
 42
-0.000703
 10
54.820354
 20
28.315244
 42
-0.001169
 10
51.299974
 20
26.30419
 42
-0.000058
 10
48.124497
 20
24.500484
 42
-0.32255
 10
48.05934
 20
24.507521
 42
-0.348298
 10
48.048911
 20
24.568684
 42
-0.000429
 10
48.691659
 20
25.738825
 42
-0.003228
 10
49.427377
 20
27.055312
 42
-0.001948
 10
50.315355
 20
28.606327
 42
-0.000232
 10
51.30784
 20
30.322482
 42
-0.000193
 10
52.363653
 20
32.144568
 42
-0.000195
 10
53.330968
 20
33.81094
 42
-0.000533
 10
54.016825
 20
34.9885
 10
55.388618
 20
37.338
  0
LWPOLYLINE
  5
746
330
1D
100
AcDbEntity
  8
0
100
AcDbPolyline
 90
       10
 70
     1
 43
0.0
 10
81.9785
 20
37.333174
 10
84.836
 20
37.338
 10
84.836
 20
35.665139
 10
84.836
 20
33.992279
 10
83.1215
 20
34.946762
 42
-0.002898
 10
82.381435
 20
35.364401
 42
-0.002201
 10
81.574878
 20
35.830471
 42
-0.002225
 10
80.822159
 20
36.274366
 42
-0.005201
 10
80.264
 20
36.614796
 10
79.121
 20
37.328348
  0
LWPOLYLINE
  5
752
330
1D
100
AcDbEntity
  8
0
100
AcDbPolyline
 90
       16
 70
     1
 43
0.0
 10
12.01649
 20
35.037848
 42
-0.169686
 10
12.080155
 20
35.020406
 42
-0.207327
 10
12.11258
 20
34.968498
 42
-0.12383
 10
12.104414
 20
34.884503
 42
-0.052613
 10
12.055043
 20
34.781889
 42
0.006842
 10
11.929193
 20
34.571887
 42
0.000053
 10
10.937202
 20
32.863589
 42
0.000196
 10
9.800858
 20
30.904452
 42
0.000126
 10
8.484052
 20
28.630812
 10
5.08
 20
22.749847
 10
5.08
 20
26.941592
 10
5.08
 20
31.133336
 10
8.4455
 20
33.078516
 42
-0.002177
 10
9.750302
 20
33.825101
 42
-0.003383
 10
10.882747
 20
34.456456
 42
-0.001034
 10
11.868908
 20
34.994894
 42
-0.107646
  0
LWPOLYLINE
  5
764
330
1D
100
AcDbEntity
  8
0
100
AcDbPolyline
 90
       22
 70
     1
 43
0.0
 10
18.385736
 20
35.052
 42
-0.130052
 10
18.482796
 20
35.02632
 42
-0.00005
 10
21.669813
 20
33.212521
 42
-0.000783
 10
25.208218
 20
31.190932
 42
-0.000476
 10
29.386227
 20
28.789945
 42
-0.000491
 10
33.571817
 20
26.373824
 42
-0.000789
 10
37.136005
 20
24.304228
 42
-0.000123
 10
40.293419
 20
22.463128
 42
-0.049928
 10
40.5003
 20
22.312945
 42
-0.676473
 10
40.468833
 20
22.225774
 42
-0.001334
 10
38.461289
 20
22.16114
 42
-0.004698
 10
36.087921
 20
22.113379
 42
-0.002681
 10
33.220139
 20
22.098
 10
25.698679
 20
22.098
 10
22.081004
 20
28.3845
 42
-0.000078
 10
20.686781
 20
30.808141
 42
-0.000124
 10
19.495866
 20
32.8803
 42
-0.000022
 10
18.443828
 20
34.712061
 42
-0.006757
 10
18.360674
 20
34.8615
 42
-0.051522
 10
18.330547
 20
34.934521
 42
-0.105175
 10
18.325691
 20
34.996041
 42
-0.170847
 10
18.345974
 20
35.036046
 42
-0.193133
  0
LWPOLYLINE
  5
77C
330
1D
100
AcDbEntity
  8
0
100
AcDbPolyline
 90
       22
 70
     1
 43
0.0
 10
71.45249
 20
35.032285
 42
-0.098985
 10
71.52292
 20
35.025099
 42
-0.184502
 10
71.567463
 20
34.990249
 42
-0.173882
 10
71.578977
 20
34.93276
 42
-0.08712
 10
71.555326
 20
34.8615
 42
-0.006757
 10
71.472172
 20
34.712061
 42
-0.000022
 10
70.420134
 20
32.8803
 42
-0.000124
 10
69.229219
 20
30.808141
 42
-0.000078
 10
67.834996
 20
28.3845
 10
64.217321
 20
22.098
 10
56.704327
 20
22.098
 42
-0.001913
 10
53.83386
 20
22.108981
 42
-0.003291
 10
51.443285
 20
22.14301
 42
-0.000617
 10
49.369591
 20
22.188741
 42
-0.659792
 10
49.344558
 20
22.251225
 42
-0.063934
 10
49.481474
 20
22.356983
 42
-0.000071
 10
52.647189
 20
24.211257
 42
-0.000675
 10
56.192136
 20
26.28056
 42
-0.000415
 10
60.372391
 20
28.70851
 42
-0.000641
 10
64.556472
 20
31.126884
 42
-0.001045
 10
68.112946
 20
33.166544
 42
-0.000106
 10
71.297431
 20
34.983141
 42
-0.106033
  0
LWPOLYLINE
  5
794
330
1D
100
AcDbEntity
  8
0
100
AcDbPolyline
 90
       22
 70
     1
 43
0.0
 10
77.835699
 20
35.052
 42
-0.12527
 10
77.947845
 20
35.023455
 42
-0.000659
 10
78.949526
 20
34.476491
 42
-0.00286
 10
80.088998
 20
33.843836
 42
-0.001803
 10
81.412415
 20
33.092821
 10
84.836
 20
31.133642
 10
84.828276
 20
26.933321
 42
-0.002728
 10
84.812769
 20
24.807726
 42
-0.016807
 10
84.762064
 20
23.714854
 42
-0.059367
 10
84.669468
 20
23.254679
 42
-0.651028
 10
84.532357
 20
23.241
 42
0.001458
 10
84.326631
 20
23.601181
 42
0.000049
 10
83.512042
 20
25.017412
 42
0.000093
 10
82.549884
 20
26.689101
 42
0.000065
 10
81.463642
 20
28.575
 42
0.000354
 10
80.362208
 20
30.483576
 42
0.000464
 10
79.352943
 20
32.225853
 42
0.000339
 10
78.504534
 20
33.685043
 42
0.004379
 10
78.182845
 20
34.2265
 42
-0.012776
 10
78.001776
 20
34.543265
 42
-0.02392
 10
77.874506
 20
34.809509
 42
-0.025356
 10
77.802805
 20
35.007548
 42
-0.504032
  0
LWPOLYLINE
  5
7AC
330
1D
100
AcDbEntity
  8
0
100
AcDbPolyline
 90
       16
 70
     1
 43
0.0
 10
13.910824
 20
27.593298
 42
-0.001621
 10
13.93196
 20
24.623416
 42
-0.000968
 10
13.938802
 20
21.090866
 42
-0.000969
 10
13.931981
 20
17.572664
 42
-0.001682
 10
13.910824
 20
14.650746
 10
13.843
 20
8.255
 10
10.181525
 20
14.605
 42
-0.001628
 10
8.777981
 20
17.057555
 42
-0.002597
 10
7.595854
 20
19.1643
 42
-0.000539
 10
6.56868
 20
21.022097
 42
-0.127504
 10
6.520886
 20
21.209
 42
-0.126048
 10
6.569407
 20
21.395849
 42
-0.000534
 10
7.596789
 20
23.250337
 42
-0.002573
 10
8.779018
 20
25.353388
 42
-0.001614
 10
10.182361
 20
27.801551
 10
13.843
 20
34.140102
  0
LWPOLYLINE
  5
7BE
330
1D
100
AcDbEntity
  8
0
100
AcDbPolyline
 90
       22
 70
     1
 43
0.0
 10
16.601604
 20
34.014833
 42
-0.046156
 10
16.666543
 20
33.924103
 42
-0.000077
 10
17.64548
 20
32.248755
 42
-0.000597
 10
18.742048
 20
30.366273
 42
-0.000369
 10
20.026586
 20
28.15127
 42
-0.000969
 10
21.325204
 20
25.898118
 42
-0.001385
 10
22.467748
 20
23.894008
 42
-0.000747
 10
23.427358
 20
22.193971
 42
-0.021218
 10
23.656012
 20
21.743786
 42
-0.161634
 10
23.715226
 20
21.19265
 42
-0.0537
 10
23.455726
 20
20.411576
 42
-0.021114
 10
22.785968
 20
19.093984
 42
-0.002191
 10
21.0679
 20
16.071516
 42
-0.000463
 10
19.90236
 20
14.046168
 42
-0.000531
 10
18.785323
 20
12.113995
 42
-0.000477
 10
17.83471
 20
10.477311
 42
-0.003057
 10
17.347523
 20
9.652
 10
16.511306
 20
8.255
 10
16.510653
 20
21.187833
 42
-0.000664
 10
16.516978
 20
26.139743
 42
-0.001121
 10
16.537101
 20
30.290558
 42
-0.000077
 10
16.563985
 20
34.000972
 42
-0.691775
  0
LWPOLYLINE
  5
7D6
330
1D
100
AcDbEntity
  8
0
100
AcDbPolyline
 90
       16
 70
     1
 43
0.0
 10
73.346824
 20
27.532551
 42
-0.001636
 10
73.367959
 20
24.59101
 42
-0.000978
 10
73.374802
 20
21.093783
 42
-0.000979
 10
73.367982
 20
17.611847
 42
-0.001701
 10
73.346824
 20
14.721423
 10
73.279
 20
8.396353
 10
69.723463
 20
14.548677
 42
-0.00336
 10
68.360969
 20
16.943273
 42
-0.005114
 10
67.212923
 20
19.04298
 42
-0.002034
 10
66.256612
 20
20.853012
 42
-0.122033
 10
66.169825
 20
21.209
 42
-0.120245
 10
66.258094
 20
21.564951
 42
-0.002007
 10
67.215047
 20
23.374574
 42
-0.005046
 10
68.363322
 20
25.473793
 42
-0.003317
 10
69.725361
 20
27.867804
 10
73.279
 20
34.018609
  0
LWPOLYLINE
  5
7E8
330
1D
100
AcDbEntity
  8
0
100
AcDbPolyline
 90
       24
 70
     1
 43
0.0
 10
76.161799
 20
33.8963
 42
-0.049235
 10
76.308545
 20
33.695573
 42
-0.00037
 10
77.345072
 20
31.935182
 42
-0.001381
 10
78.526225
 20
29.913006
 42
-0.000885
 10
79.886927
 20
27.559
 42
-0.001692
 10
81.232205
 20
25.203747
 42
-0.002691
 10
82.365451
 20
23.178699
 42
-0.000583
 10
83.348258
 20
21.39517
 42
-0.126081
 10
83.396461
 20
21.207677
 42
-0.126331
 10
83.348475
 20
21.02016
 42
-0.000585
 10
82.367343
 20
19.237044
 42
-0.002698
 10
81.235949
 20
17.212423
 42
-0.001695
 10
79.892791
 20
14.857677
 42
-0.000953
 10
78.533774
 20
12.504186
 42
-0.001486
 10
77.353126
 20
10.48243
 42
-0.000402
 10
76.317034
 20
8.723505
 42
-0.052401
 10
76.167458
 20
8.5217
 42
-0.676656
 10
76.073964
 20
8.557054
 42
-0.000512
 10
76.009403
 20
12.050894
 42
-0.002851
 10
75.961332
 20
16.141102
 42
-0.001513
 10
75.946
 20
21.209
 42
-0.001564
 10
75.961464
 20
26.151378
 42
-0.002687
 10
76.009375
 20
30.269932
 42
-0.000437
 10
76.073637
 20
33.863572
 42
-0.681634
  0
LWPOLYLINE
  5
802
330
1D
100
AcDbEntity
  8
0
100
AcDbPolyline
 90
       18
 70
     1
 43
0.0
 10
33.22017
 20
20.32
 42
-0.002599
 10
36.160829
 20
20.304716
 42
-0.004992
 10
38.51817
 20
20.256671
 42
-0.001567
 10
40.466268
 20
20.191391
 42
-0.670719
 10
40.5003
 20
20.098896
 42
-0.053364
 10
40.292114
 20
19.945465
 42
-0.000134
 10
37.131635
 20
18.101199
 42
-0.000851
 10
33.562636
 20
16.027966
 42
-0.00053
 10
29.37135
 20
13.608713
 42
-0.000846
 10
25.190601
 20
11.210858
 42
-0.001406
 10
21.657546
 20
9.205577
 42
-0.000083
 10
18.476101
 20
7.412361
 42
-0.336529
 10
18.400633
 20
7.4227
 42
-0.334658
 10
18.390115
 20
7.497604
 42
-0.000237
 10
19.426078
 20
9.363456
 42
-0.002382
 10
20.599027
 20
11.4502
 42
-0.001437
 10
22.008154
 20
13.912883
 10
25.69874
 20
20.32
  0
LWPOLYLINE
  5
816
330
1D
100
AcDbEntity
  8
0
100
AcDbPolyline
 90
       18
 70
     1
 43
0.0
 10
56.69583
 20
20.32
 10
64.21726
 20
20.32
 10
67.907846
 20
13.912883
 42
-0.001491
 10
69.316747
 20
11.44998
 42
-0.002471
 10
70.489009
 20
9.362543
 42
-0.000255
 10
71.523187
 20
7.497245
 42
-0.334479
 10
71.512257
 20
7.41959
 42
-0.336544
 10
71.434004
 20
7.408872
 42
-0.000089
 10
68.254061
 20
9.201529
 42
-0.001458
 10
64.721316
 20
11.207506
 42
-0.000878
 10
60.54154
 20
13.606777
 42
-0.000522
 10
56.351445
 20
16.02759
 42
-0.000838
 10
52.783452
 20
18.101945
 42
-0.000132
 10
49.623612
 20
19.947215
 42
-0.052619
 10
49.4157
 20
20.100071
 42
-0.671811
 10
49.449224
 20
20.191508
 42
-0.001518
 10
51.409357
 20
20.25668
 42
-0.004933
 10
53.77003
 20
20.304688
 42
-0.002617
  0
LWPOLYLINE
  5
82A
330
1D
100
AcDbEntity
  8
0
100
AcDbPolyline
 90
       12
 70
     1
 43
0.0
 10
8.603993
 20
13.583909
 42
-0.00158
 10
9.949231
 20
11.241735
 42
-0.002613
 10
11.068456
 20
9.254664
 42
-0.00029
 10
12.053991
 20
7.480935
 42
-0.317762
 10
12.045071
 20
7.399245
 42
-0.347241
 10
11.968951
 20
7.385531
 42
-0.000934
 10
10.975695
 20
7.917933
 42
-0.004773
 10
9.846435
 20
8.539933
 42
-0.002891
 10
8.521078
 20
9.296649
 10
5.08
 20
11.287808
 10
5.08
 20
15.481313
 10
5.08
 20
19.674818
  0
LWPOLYLINE
  5
838
330
1D
100
AcDbEntity
  8
0
100
AcDbPolyline
 90
       18
 70
     1
 43
0.0
 10
84.7725
 20
19.548318
 42
-0.45432
 10
84.798533
 20
19.526321
 42
-0.000237
 10
84.817347
 20
18.340472
 42
-0.002409
 10
84.831438
 20
17.007848
 42
-0.001439
 10
84.836
 20
15.422904
 10
84.836
 20
11.287808
 10
81.394922
 20
9.296649
 42
-0.002884
 10
80.069603
 20
8.539932
 42
-0.004764
 10
78.940464
 20
7.917933
 42
-0.00093
 10
77.947262
 20
7.385466
 42
-0.348179
 10
77.871473
 20
7.399245
 42
-0.315977
 10
77.862562
 20
7.480865
 42
-0.000295
 10
78.829659
 20
9.234662
 42
-0.002634
 10
79.928332
 20
11.199756
 42
-0.001593
 10
81.249051
 20
13.515818
 42
-0.000678
 10
82.580264
 20
15.82584
 42
-0.00112
 10
83.711293
 20
17.772277
 42
-0.000065
 10
84.733454
 20
19.521799
 42
-0.226404
  0
LWPOLYLINE
  5
84C
330
1D
100
AcDbEntity
  8
0
100
AcDbPolyline
 90
       18
 70
     1
 43
0.0
 10
41.857234
 20
17.906758
 42
-0.357472
 10
41.867948
 20
17.84654
 42
-0.000172
 10
40.836214
 20
16.005927
 42
-0.002049
 10
39.673047
 20
13.952287
 42
-0.001233
 10
38.277177
 20
11.525099
 10
34.622885
 20
5.207
 10
27.171199
 20
5.13959
 42
-0.002013
 10
24.324787
 20
5.125302
 42
-0.003472
 10
21.955863
 20
5.139398
 42
-0.000692
 10
19.907239
 20
5.168653
 42
-0.662529
 10
19.880932
 20
5.233599
 42
-0.064104
 10
20.025005
 20
5.344807
 42
-0.00008
 10
23.188092
 20
7.194598
 42
-0.000713
 10
26.733506
 20
9.260438
 42
-0.000439
 10
30.912675
 20
11.682668
 42
-0.000688
 10
35.086141
 20
14.089043
 42
-0.001143
 10
38.611648
 20
16.10465
 42
-0.000056
 10
41.792289
 20
17.912987
 42
-0.316183
  0
LWPOLYLINE
  5
860
330
1D
100
AcDbEntity
  8
0
100
AcDbPolyline
 90
       22
 70
     1
 43
0.0
 10
48.5775
 20
17.72313
 42
0.011828
 10
49.018678
 20
17.45262
 42
0.000129
 10
52.074141
 20
15.678249
 42
0.000405
 10
55.601552
 20
13.634844
 42
0.000264
 10
59.678428
 20
11.280417
 10
70.207857
 20
5.207
 10
62.8701
 20
5.139528
 42
-0.002804
 10
60.041495
 20
5.129384
 42
-0.004474
 10
57.62378
 20
5.155906
 42
-0.001121
 10
55.518448
 20
5.202566
 42
-0.192578
 10
55.31437
 20
5.29003
 42
-0.062725
 10
55.169061
 20
5.477216
 42
-0.00042
 10
54.119023
 20
7.253077
 42
-0.001652
 10
52.925835
 20
9.290262
 42
-0.001054
 10
51.551197
 20
11.66665
 42
-0.000878
 10
50.191999
 20
14.037439
 42
-0.001429
 10
49.047402
 20
16.055427
 42
-0.000165
 10
48.032296
 20
17.858483
 42
-0.128814
 10
48.006
 20
17.958859
 42
-0.48437
 10
48.041993
 20
17.987297
 42
-0.039458
 10
48.173878
 20
17.94471
 42
-0.030079
 10
48.358157
 20
17.855385
 42
-0.01555
  0
LWPOLYLINE
  5
878
330
1D
100
AcDbEntity
  8
0
100
AcDbPolyline
 90
       12
 70
     1
 43
0.0
 10
43.629274
 20
11.093619
 42
-0.001575
 10
43.64846
 20
8.849648
 42
-0.002563
 10
43.648982
 20
6.944325
 42
-0.00037
 10
43.639537
 20
5.25525
 42
-0.197267
 10
43.600493
 20
5.161826
 42
-0.195817
 10
43.509494
 20
5.123496
 42
-0.001091
 10
42.551648
 20
5.114171
 42
-0.004437
 10
41.452549
 20
5.115623
 42
-0.002778
 10
40.166247
 20
5.135886
 10
36.829055
 20
5.207
 10
40.195028
 20
11.067679
 10
43.561
 20
16.928357
  0
LWPOLYLINE
  5
886
330
1D
100
AcDbEntity
  8
0
100
AcDbPolyline
 90
       10
 70
     1
 43
0.0
 10
49.300207
 20
11.804417
 42
-0.000516
 10
50.503547
 20
9.712759
 42
-0.000717
 10
51.576677
 20
7.836744
 42
-0.000437
 10
52.476669
 20
6.254947
 42
-0.009197
 10
52.73573
 20
5.7785
 10
53.099046
 20
5.08
 10
49.663523
 20
5.08
 10
46.228
 20
5.08
 10
46.228
 20
11.105917
 10
46.228
 20
17.131833
  0
LWPOLYLINE
  5
892
330
1D
100
AcDbEntity
  8
0
100
AcDbPolyline
 90
       16
 70
     1
 43
0.0
 10
5.7785
 20
8.033265
 42
-0.00855
 10
6.170342
 20
7.821741
 42
-0.001666
 10
6.868716
 20
7.426109
 42
-0.00177
 10
7.679824
 20
6.95922
 42
-0.001637
 10
8.509
 20
6.474381
 42
-0.001237
 10
9.295424
 20
6.008452
 42
-0.001889
 10
9.975189
 20
5.59995
 42
-0.000652
 10
10.560277
 20
5.244283
 42
-0.050723
 10
10.646833
 20
5.178638
 42
-0.665014
 10
10.632134
 20
5.138758
 42
-0.001958
 10
9.888405
 20
5.108975
 42
-0.005764
 10
8.996772
 20
5.087053
 42
-0.003264
 10
7.916333
 20
5.08
 10
5.08
 20
5.08
 10
5.08
 20
6.737523
 10
5.08
 20
8.395046
  0
LWPOLYLINE
  5
8A4
330
1D
100
AcDbEntity
  8
0
100
AcDbPolyline
 90
       12
 70
     1
 43
0.0
 10
84.785385
 20
6.826985
 42
-0.006704
 10
84.806945
 20
6.224558
 42
-0.010129
 10
84.808052
 20
5.699689
 42
-0.005294
 10
84.795424
 20
5.260376
 42
-0.188712
 10
84.755286
 20
5.168619
 42
-0.193793
 10
84.657585
 20
5.127017
 42
-0.001914
 10
83.881873
 20
5.114692
 42
-0.005918
 10
82.980764
 20
5.114492
 42
-0.003759
 10
81.931496
 20
5.134568
 10
79.21419
 20
5.207
 10
81.961595
 20
6.792934
 10
84.709
 20
8.378867
  0
ENDSEC
  0
SECTION
  2
OBJECTS
  0
DICTIONARY
  5
C
330
0
100
AcDbDictionary
281
     1
  3
ACAD_DETAILVIEWSTYLE
350
93E
  3
ACAD_GROUP
350
D
  3
ACAD_LAYOUT
350
1A
  3
ACAD_MATERIAL
350
8F1
  3
ACAD_MLEADERSTYLE
350
8F7
  3
ACAD_MLINESTYLE
350
17
  3
ACAD_PLOTSETTINGS
350
19
  3
ACAD_PLOTSTYLENAME
350
E
  3
ACAD_SCALELIST
350
8B2
  3
ACAD_SECTIONVIEWSTYLE
350
93F
  3
ACAD_TABLESTYLE
350
8F5
  3
ACAD_VISUALSTYLE
350
8D8
  3
ACDB_RECOMPOSE_DATA
350
93A
  3
AcDbVariableDictionary
350
8FB
  0
DICTIONARY
  5
8F9
330
8
100
AcDbDictionary
280
     1
281
     1
  3
ACAD_XREC_ROUNDTRIP
360
8FA
  0
DICTIONARY
  5
93E
102
{ACAD_REACTORS
330
C
102
}
330
C
100
AcDbDictionary
281
     1
  0
DICTIONARY
  5
D
102
{ACAD_REACTORS
330
C
102
}
330
C
100
AcDbDictionary
281
     1
  0
DICTIONARY
  5
1A
102
{ACAD_REACTORS
330
C
102
}
330
C
100
AcDbDictionary
281
     1
  3
Layout1
350
1C
  3
Model
350
1E
  0
DICTIONARY
  5
8F1
102
{ACAD_REACTORS
330
C
102
}
330
C
100
AcDbDictionary
281
     1
  3
ByBlock
350
8F3
  3
ByLayer
350
8F2
  3
Global
350
8F4
  0
DICTIONARY
  5
8F7
102
{ACAD_REACTORS
330
C
102
}
330
C
100
AcDbDictionary
281
     1
  3
Standard
350
8F8
  0
DICTIONARY
  5
17
102
{ACAD_REACTORS
330
C
102
}
330
C
100
AcDbDictionary
281
     1
  3
Standard
350
18
  0
DICTIONARY
  5
19
102
{ACAD_REACTORS
330
C
102
}
330
C
100
AcDbDictionary
281
     1
  0
ACDBDICTIONARYWDFLT
  5
E
102
{ACAD_REACTORS
330
C
102
}
330
C
100
AcDbDictionary
281
     1
  3
Normal
350
F
100
AcDbDictionaryWithDefault
340
F
  0
DICTIONARY
  5
8B2
102
{ACAD_REACTORS
330
C
102
}
330
C
100
AcDbDictionary
281
     1
  3
A0
350
8B3
  3
A1
350
8B4
  3
A2
350
8B5
  3
A3
350
8B6
  3
A4
350
8B7
  3
A5
350
8B8
  3
A6
350
8B9
  3
A7
350
8BA
  3
A8
350
8BB
  3
A9
350
8BC
  3
B0
350
8BD
  3
B1
350
8BE
  3
B2
350
8BF
  3
B3
350
8C0
  3
B4
350
8C1
  3
B5
350
8C2
  3
B6
350
8C3
  3
B7
350
8C4
  3
B8
350
8C5
  3
B9
350
8C6
  3
C0
350
8C7
  3
C1
350
8C8
  3
C2
350
8C9
  3
C3
350
8CA
  3
C4
350
8CB
  3
C5
350
8CC
  3
C6
350
8CD
  3
C7
350
8CE
  3
C8
350
8CF
  3
C9
350
8D0
  3
D0
350
8D1
  3
D1
350
8D2
  3
D2
350
8D3
  0
DICTIONARY
  5
93F
102
{ACAD_REACTORS
330
C
102
}
330
C
100
AcDbDictionary
281
     1
  0
DICTIONARY
  5
8F5
102
{ACAD_REACTORS
330
C
102
}
330
C
100
AcDbDictionary
281
     1
  3
Standard
350
8F6
  0
DICTIONARY
  5
8D8
102
{ACAD_REACTORS
330
C
102
}
330
C
100
AcDbDictionary
281
     1
  3
2dWireframe
350
8DD
  3
Basic
350
8E0
  3
Brighten
350
8E4
  3
ColorChange
350
8E8
  3
Conceptual
350
8E2
  3
Dim
350
8E3
  3
EdgeColorOff
350
8EB
  3
Facepattern
350
8E7
  3
Flat
350
8D9
  3
FlatWithEdges
350
8DA
  3
Gouraud
350
8DB
  3
GouraudWithEdges
350
8DC
  3
Hidden
350
8DF
  3
JitterOff
350
8E9
  3
Linepattern
350
8E6
  3
OverhangOff
350
8EA
  3
Realistic
350
8E1
  3
Shaded
350
8F0
  3
Shaded with edges
350
8EF
  3
Shades of Gray
350
8EC
  3
Sketchy
350
8ED
  3
Thicken
350
8E5
  3
Wireframe
350
8DE
  3
X-Ray
350
8EE
  0
XRECORD
  5
93A
102
{ACAD_REACTORS
330
C
102
}
330
C
100
AcDbXrecord
280
     1
 90
        1
330
8F6
  0
DICTIONARY
  5
8FB
102
{ACAD_REACTORS
330
C
102
}
330
C
100
AcDbDictionary
281
     1
  3
CANNOSCALE
350
8FC
  3
CMLEADERSTYLE
350
93C
  3
CTABLESTYLE
350
93B
  3
MSLTSCALE
350
93D
  3
XCLIPFRAME
350
8FD
  0
XRECORD
  5
8FA
102
{ACAD_REACTORS
330
8F9
102
}
330
8F9
100
AcDbXrecord
280
     1
102
VTR_0.000_0.000_1.000_1.000_VISUALSTYLE
340
8DD
102
VTR_0.000_0.000_1.000_1.000_GRIDDISPLAY
 70
     3
102
VTR_0.000_0.000_1.000_1.000_GRIDMAJOR
 70
     5
102
VTR_0.000_0.000_1.000_1.000_DEFAULTLIGHTING
280
     1
102
VTR_0.000_0.000_1.000_1.000_DEFAULTLIGHTINGTYPE
 70
     1
102
VTR_0.000_0.000_1.000_1.000_BRIGHTNESS
141
0.0
102
VTR_0.000_0.000_1.000_1.000_CONTRAST
142
0.0
  0
LAYOUT
  5
1C
102
{ACAD_REACTORS
330
1A
102
}
330
1A
100
AcDbPlotSettings
  1

  2
none_device
  4

  6

 40
0.0
 41
0.0
 42
0.0
 43
0.0
 44
0.0
 45
0.0
 46
0.0
 47
0.0
 48
0.0
 49
0.0
140
0.0
141
0.0
142
1.0
143
1.0
 70
   688
 72
     0
 73
     0
 74
     5
  7

 75
    16
 76
     0
 77
     2
 78
   300
147
1.0
148
0.0
149
0.0
100
AcDbLayout
  1
Layout1
 70
     1
 71
     1
 10
0.0
 20
0.0
 11
12.0
 21
9.0
 12
0.0
 22
0.0
 32
0.0
 14
1.000000000000000E+20
 24
1.000000000000000E+20
 34
1.000000000000000E+20
 15
-1.000000000000000E+20
 25
-1.000000000000000E+20
 35
-1.000000000000000E+20
146
0.0
 13
0.0
 23
0.0
 33
0.0
 16
1.0
 26
0.0
 36
0.0
 17
0.0
 27
1.0
 37
0.0
 76
     0
330
1B
  0
LAYOUT
  5
1E
102
{ACAD_REACTORS
330
1A
102
}
330
1A
100
AcDbPlotSettings
  1

  2
none_device
  4
Letter_(8.50_x_11.00_Inches)
  6

 40
6.35
 41
6.35
 42
6.35000508
 43
6.35000508
 44
215.9
 45
279.4
 46
0.0
 47
0.0
 48
0.0
 49
0.0
140
0.0
141
0.0
142
1.0
143
1.0
 70
  1712
 72
     0
 73
     0
 74
     0
  7

 75
     0
 76
     0
 77
     2
 78
   300
147
1.0
148
0.0
149
0.0
100
AcDbLayout
  1
Model
 70
     1
 71
     0
 10
0.0
 20
0.0
 11
12.0
 21
9.0
 12
0.0
 22
0.0
 32
0.0
 14
0.0
 24
0.0
 34
0.0
 15
89.916
 25
179.832
 35
0.0
146
0.0
 13
0.0
 23
0.0
 33
0.0
 16
1.0
 26
0.0
 36
0.0
 17
0.0
 27
1.0
 37
0.0
 76
     0
330
1D
331
21
  0
MATERIAL
  5
8F3
102
{ACAD_REACTORS
330
8F1
102
}
102
{ACAD_XDICTIONARY
360
930
102
}
330
8F1
100
AcDbMaterial
  1
ByBlock
  0
MATERIAL
  5
8F2
102
{ACAD_REACTORS
330
8F1
102
}
102
{ACAD_XDICTIONARY
360
92E
102
}
330
8F1
100
AcDbMaterial
  1
ByLayer
  0
MATERIAL
  5
8F4
102
{ACAD_REACTORS
330
8F1
102
}
102
{ACAD_XDICTIONARY
360
932
102
}
330
8F1
100
AcDbMaterial
  1
Global
  0
MLEADERSTYLE
  5
8F8
102
{ACAD_REACTORS
330
8F7
102
}
102
{ACAD_XDICTIONARY
360
938
102
}
330
8F7
100
AcDbMLeaderStyle
170
     2
171
     1
172
     0
 90
        2
 40
0.0
 41
0.0
173
     1
 91
-1056964608
340
14
 92
       -2
290
     1
 42
0.09
291
     1
 43
0.36
  3
Standard
341
0
 44
0.18
300

342
11
174
     1
178
     6
175
     1
176
     0
 93
-1056964608
 45
0.18
292
     0
297
     0
 46
0.18
343
0
 94
-1056964608
 47
1.0
 49
1.0
140
1.0
293
     1
141
0.0
294
     1
177
     0
142
1.0
295
     0
296
     0
143
0.125
1001
ACAD_MLEADERVER
1070
     2
  0
MLINESTYLE
  5
18
102
{ACAD_REACTORS
330
17
102
}
330
17
100
AcDbMlineStyle
  2
Standard
 70
     0
  3

 62
   256
 51
90.0
 52
90.0
 71
     2
 49
0.5
 62
   256
  6
BYLAYER
 49
-0.5
 62
   256
  6
BYLAYER
  0
ACDBPLACEHOLDER
  5
F
102
{ACAD_REACTORS
330
E
102
}
330
E
  0
SCALE
  5
8B3
102
{ACAD_REACTORS
330
8B2
102
}
330
8B2
100
AcDbScale
 70
     0
300
1:1
140
1.0
141
1.0
290
     1
  0
SCALE
  5
8B4
102
{ACAD_REACTORS
330
8B2
102
}
330
8B2
100
AcDbScale
 70
     0
300
1:2
140
1.0
141
2.0
290
     0
  0
SCALE
  5
8B5
102
{ACAD_REACTORS
330
8B2
102
}
330
8B2
100
AcDbScale
 70
     0
300
1:4
140
1.0
141
4.0
290
     0
  0
SCALE
  5
8B6
102
{ACAD_REACTORS
330
8B2
102
}
330
8B2
100
AcDbScale
 70
     0
300
1:5
140
1.0
141
5.0
290
     0
  0
SCALE
  5
8B7
102
{ACAD_REACTORS
330
8B2
102
}
330
8B2
100
AcDbScale
 70
     0
300
1:8
140
1.0
141
8.0
290
     0
  0
SCALE
  5
8B8
102
{ACAD_REACTORS
330
8B2
102
}
330
8B2
100
AcDbScale
 70
     0
300
1:10
140
1.0
141
10.0
290
     0
  0
SCALE
  5
8B9
102
{ACAD_REACTORS
330
8B2
102
}
330
8B2
100
AcDbScale
 70
     0
300
1:16
140
1.0
141
16.0
290
     0
  0
SCALE
  5
8BA
102
{ACAD_REACTORS
330
8B2
102
}
330
8B2
100
AcDbScale
 70
     0
300
1:20
140
1.0
141
20.0
290
     0
  0
SCALE
  5
8BB
102
{ACAD_REACTORS
330
8B2
102
}
330
8B2
100
AcDbScale
 70
     0
300
1:30
140
1.0
141
30.0
290
     0
  0
SCALE
  5
8BC
102
{ACAD_REACTORS
330
8B2
102
}
330
8B2
100
AcDbScale
 70
     0
300
1:40
140
1.0
141
40.0
290
     0
  0
SCALE
  5
8BD
102
{ACAD_REACTORS
330
8B2
102
}
330
8B2
100
AcDbScale
 70
     0
300
1:50
140
1.0
141
50.0
290
     0
  0
SCALE
  5
8BE
102
{ACAD_REACTORS
330
8B2
102
}
330
8B2
100
AcDbScale
 70
     0
300
1:100
140
1.0
141
100.0
290
     0
  0
SCALE
  5
8BF
102
{ACAD_REACTORS
330
8B2
102
}
330
8B2
100
AcDbScale
 70
     0
300
2:1
140
2.0
141
1.0
290
     0
  0
SCALE
  5
8C0
102
{ACAD_REACTORS
330
8B2
102
}
330
8B2
100
AcDbScale
 70
     0
300
4:1
140
4.0
141
1.0
290
     0
  0
SCALE
  5
8C1
102
{ACAD_REACTORS
330
8B2
102
}
330
8B2
100
AcDbScale
 70
     0
300
8:1
140
8.0
141
1.0
290
     0
  0
SCALE
  5
8C2
102
{ACAD_REACTORS
330
8B2
102
}
330
8B2
100
AcDbScale
 70
     0
300
10:1
140
10.0
141
1.0
290
     0
  0
SCALE
  5
8C3
102
{ACAD_REACTORS
330
8B2
102
}
330
8B2
100
AcDbScale
 70
     0
300
100:1
140
100.0
141
1.0
290
     0
  0
SCALE
  5
8C4
102
{ACAD_REACTORS
330
8B2
102
}
330
8B2
100
AcDbScale
 70
     0
300
1/128\" = 1\'-0\"
140
0.0078125
141
12.0
290
     0
  0
SCALE
  5
8C5
102
{ACAD_REACTORS
330
8B2
102
}
330
8B2
100
AcDbScale
 70
     0
300
1/64\" = 1\'-0\"
140
0.015625
141
12.0
290
     0
  0
SCALE
  5
8C6
102
{ACAD_REACTORS
330
8B2
102
}
330
8B2
100
AcDbScale
 70
     0
300
1/32\" = 1\'-0\"
140
0.03125
141
12.0
290
     0
  0
SCALE
  5
8C7
102
{ACAD_REACTORS
330
8B2
102
}
330
8B2
100
AcDbScale
 70
     0
300
1/16\" = 1\'-0\"
140
0.0625
141
12.0
290
     0
  0
SCALE
  5
8C8
102
{ACAD_REACTORS
330
8B2
102
}
330
8B2
100
AcDbScale
 70
     0
300
3/32\" = 1\'-0\"
140
0.09375
141
12.0
290
     0
  0
SCALE
  5
8C9
102
{ACAD_REACTORS
330
8B2
102
}
330
8B2
100
AcDbScale
 70
     0
300
1/8\" = 1\'-0\"
140
0.125
141
12.0
290
     0
  0
SCALE
  5
8CA
102
{ACAD_REACTORS
330
8B2
102
}
330
8B2
100
AcDbScale
 70
     0
300
3/16\" = 1\'-0\"
140
0.1875
141
12.0
290
     0
  0
SCALE
  5
8CB
102
{ACAD_REACTORS
330
8B2
102
}
330
8B2
100
AcDbScale
 70
     0
300
1/4\" = 1\'-0\"
140
0.25
141
12.0
290
     0
  0
SCALE
  5
8CC
102
{ACAD_REACTORS
330
8B2
102
}
330
8B2
100
AcDbScale
 70
     0
300
3/8\" = 1\'-0\"
140
0.375
141
12.0
290
     0
  0
SCALE
  5
8CD
102
{ACAD_REACTORS
330
8B2
102
}
330
8B2
100
AcDbScale
 70
     0
300
1/2\" = 1\'-0\"
140
0.5
141
12.0
290
     0
  0
SCALE
  5
8CE
102
{ACAD_REACTORS
330
8B2
102
}
330
8B2
100
AcDbScale
 70
     0
300
3/4\" = 1\'-0\"
140
0.75
141
12.0
290
     0
  0
SCALE
  5
8CF
102
{ACAD_REACTORS
330
8B2
102
}
330
8B2
100
AcDbScale
 70
     0
300
1\" = 1\'-0\"
140
1.0
141
12.0
290
     0
  0
SCALE
  5
8D0
102
{ACAD_REACTORS
330
8B2
102
}
330
8B2
100
AcDbScale
 70
     0
300
1-1/2\" = 1\'-0\"
140
1.5
141
12.0
290
     0
  0
SCALE
  5
8D1
102
{ACAD_REACTORS
330
8B2
102
}
330
8B2
100
AcDbScale
 70
     0
300
3\" = 1\'-0\"
140
3.0
141
12.0
290
     0
  0
SCALE
  5
8D2
102
{ACAD_REACTORS
330
8B2
102
}
330
8B2
100
AcDbScale
 70
     0
300
6\" = 1\'-0\"
140
6.0
141
12.0
290
     0
  0
SCALE
  5
8D3
102
{ACAD_REACTORS
330
8B2
102
}
330
8B2
100
AcDbScale
 70
     0
300
1\'-0\" = 1\'-0\"
140
12.0
141
12.0
290
     0
  0
TABLESTYLE
  5
8F6
102
{ACAD_REACTORS
330
8F5
102
}
102
{ACAD_XDICTIONARY
360
934
102
}
330
8F5
100
AcDbTableStyle
  3
Standard
 70
     0
 71
     0
 40
0.06
 41
0.06
280
     0
281
     0
  7
Standard
140
0.18
170
     2
 62
     0
 63
   257
283
     0
274
    -2
284
     1
 64
     0
275
    -2
285
     1
 65
     0
276
    -2
286
     1
 66
     0
277
    -2
287
     1
 67
     0
278
    -2
288
     1
 68
     0
279
    -2
289
     1
 69
     0
  7
Standard
140
0.25
170
     5
 62
     0
 63
   257
283
     0
274
    -2
284
     1
 64
     0
275
    -2
285
     1
 65
     0
276
    -2
286
     1
 66
     0
277
    -2
287
     1
 67
     0
278
    -2
288
     1
 68
     0
279
    -2
289
     1
 69
     0
  7
Standard
140
0.18
170
     5
 62
     0
 63
   257
283
     0
274
    -2
284
     1
 64
     0
275
    -2
285
     1
 65
     0
276
    -2
286
     1
 66
     0
277
    -2
287
     1
 67
     0
278
    -2
288
     1
 68
     0
279
    -2
289
     1
 69
     0
  0
VISUALSTYLE
  5
8DD
102
{ACAD_REACTORS
330
8D8
102
}
102
{ACAD_XDICTIONARY
360
906
102
}
330
8D8
100
AcDbVisualStyle
  2
2dWireframe
 70
     4
 71
     0
 72
     2
 73
     0
 90
        0
 40
0.6
 41
30.0
 62
     5
 63
     7
421
 16777215
 74
     1
 91
        4
 64
     7
 65
   257
 75
     1
175
     1
 42
1.0
 92
        0
 66
   257
 43
1.0
 76
     1
 77
     6
 78
     2
 67
     7
 79
     5
170
     0
171
     0
290
     0
174
     0
 93
        1
 44
0.0
173
     0
291
     0
 45
0.0
1001
ACAD
1000
AcDbSavedByObjectVersion
1070
     0
  0
VISUALSTYLE
  5
8E0
102
{ACAD_REACTORS
330
8D8
102
}
102
{ACAD_XDICTIONARY
360
90C
102
}
330
8D8
100
AcDbVisualStyle
  2
Basic
 70
     7
 71
     1
 72
     0
 73
     1
 90
        0
 40
0.6
 41
30.0
 62
     5
 63
     7
421
 16777215
 74
     0
 91
        4
 64
     7
 65
   257
 75
     1
175
     1
 42
1.0
 92
        8
 66
     7
 43
1.0
 76
     1
 77
     6
 78
     2
 67
     7
 79
     5
170
     0
171
     0
290
     0
174
     0
 93
        1
 44
0.0
173
     0
291
     1
 45
0.0
1001
ACAD
1000
AcDbSavedByObjectVersion
1070
     0
  0
VISUALSTYLE
  5
8E4
102
{ACAD_REACTORS
330
8D8
102
}
102
{ACAD_XDICTIONARY
360
914
102
}
330
8D8
100
AcDbVisualStyle
  2
Brighten
 70
    12
 71
     2
 72
     2
 73
     0
 90
        0
 40
0.6
 41
30.0
 62
     5
 63
     7
421
 16777215
 74
     1
 91
        4
 64
     7
 65
   257
 75
     1
175
     1
 42
1.0
 92
        8
 66
     7
 43
1.0
 76
     1
 77
     6
 78
     2
 67
     7
 79
     5
170
     0
171
     0
290
     0
174
     0
 93
        1
 44
50.0
173
     0
291
     1
 45
0.0
1001
ACAD
1000
AcDbSavedByObjectVersion
1070
     0
  0
VISUALSTYLE
  5
8E8
102
{ACAD_REACTORS
330
8D8
102
}
102
{ACAD_XDICTIONARY
360
91C
102
}
330
8D8
100
AcDbVisualStyle
  2
ColorChange
 70
    16
 71
     2
 72
     2
 73
     3
 90
        0
 40
0.6
 41
30.0
 62
     5
 63
     8
421
  8421504
 74
     1
 91
        4
 64
     7
 65
   257
 75
     1
175
     1
 42
1.0
 92
        8
 66
     8
424
  8421504
 43
1.0
 76
     1
 77
     6
 78
     2
 67
     7
 79
     5
170
     0
171
     0
290
     0
174
     0
 93
        1
 44
0.0
173
     0
291
     1
 45
0.0
1001
ACAD
1000
AcDbSavedByObjectVersion
1070
     0
  0
VISUALSTYLE
  5
8E2
102
{ACAD_REACTORS
330
8D8
102
}
102
{ACAD_XDICTIONARY
360
910
102
}
330
8D8
100
AcDbVisualStyle
  2
Conceptual
 70
     9
 71
     3
 72
     2
 73
     0
 90
        0
 40
0.6
 41
30.0
 62
     5
 63
     7
421
 16777215
 74
     2
 91
        2
 64
     7
 65
   257
 75
     1
175
     1
 42
179.0
 92
        8
 66
     7
 43
1.0
 76
     1
 77
     6
 78
     2
 67
     7
 79
     3
170
     0
171
     0
290
     0
174
     0
 93
        1
 44
0.0
173
     0
291
     0
 45
0.0
1001
ACAD
1000
AcDbSavedByObjectVersion
1070
     0
  0
VISUALSTYLE
  5
8E3
102
{ACAD_REACTORS
330
8D8
102
}
102
{ACAD_XDICTIONARY
360
912
102
}
330
8D8
100
AcDbVisualStyle
  2
Dim
 70
    11
 71
     2
 72
     2
 73
     0
 90
        0
 40
0.6
 41
30.0
 62
     5
 63
     7
421
 16777215
 74
     1
 91
        4
 64
     7
 65
   257
 75
     1
175
     1
 42
1.0
 92
        8
 66
     7
 43
1.0
 76
     1
 77
     6
 78
     2
 67
     7
 79
     5
170
     0
171
     0
290
     0
174
     0
 93
        1
 44
-50.0
173
     0
291
     1
 45
0.0
1001
ACAD
1000
AcDbSavedByObjectVersion
1070
     0
  0
VISUALSTYLE
  5
8EB
102
{ACAD_REACTORS
330
8D8
102
}
102
{ACAD_XDICTIONARY
360
922
102
}
330
8D8
100
AcDbVisualStyle
  2
EdgeColorOff
 70
    22
 71
     2
 72
     2
 73
     0
 90
        0
 40
0.6
 41
30.0
 62
     5
 63
     7
421
 16777215
 74
     1
 91
        4
 64
     7
 65
   257
 75
     1
175
     1
 42
1.0
 92
        8
 66
     7
 43
1.0
 76
     1
 77
     6
 78
     2
 67
     7
 79
     5
170
     0
171
     0
290
     0
174
     0
 93
        1
 44
0.0
173
     0
291
     1
 45
0.0
1001
ACAD
1000
AcDbSavedByObjectVersion
1070
     0
  0
VISUALSTYLE
  5
8E7
102
{ACAD_REACTORS
330
8D8
102
}
102
{ACAD_XDICTIONARY
360
91A
102
}
330
8D8
100
AcDbVisualStyle
  2
Facepattern
 70
    15
 71
     2
 72
     2
 73
     0
 90
        0
 40
0.6
 41
30.0
 62
     5
 63
     7
421
 16777215
 74
     1
 91
        4
 64
     7
 65
   257
 75
     1
175
     1
 42
1.0
 92
        8
 66
     7
 43
1.0
 76
     1
 77
     6
 78
     2
 67
     7
 79
     5
170
     0
171
     0
290
     0
174
     0
 93
        1
 44
0.0
173
     0
291
     1
 45
0.0
1001
ACAD
1000
AcDbSavedByObjectVersion
1070
     0
  0
VISUALSTYLE
  5
8D9
102
{ACAD_REACTORS
330
8D8
102
}
102
{ACAD_XDICTIONARY
360
8FE
102
}
330
8D8
100
AcDbVisualStyle
  2
Flat
 70
     0
 71
     2
 72
     1
 73
     1
 90
        2
 40
0.6
 41
30.0
 62
     5
 63
     7
421
 16777215
 74
     0
 91
        0
 64
     7
 65
   257
 75
     1
175
     1
 42
1.0
 92
        8
 66
     7
 43
1.0
 76
     1
 77
     6
 78
     2
 67
     7
 79
     5
170
     0
171
     0
290
     0
174
     0
 93
       13
 44
0.0
173
     0
291
     1
 45
0.0
1001
ACAD
1000
AcDbSavedByObjectVersion
1070
     0
  0
VISUALSTYLE
  5
8DA
102
{ACAD_REACTORS
330
8D8
102
}
102
{ACAD_XDICTIONARY
360
900
102
}
330
8D8
100
AcDbVisualStyle
  2
FlatWithEdges
 70
     1
 71
     2
 72
     1
 73
     1
 90
        2
 40
0.6
 41
30.0
 62
     5
 63
     7
421
 16777215
 74
     1
 91
        0
 64
     7
 65
   257
 75
     1
175
     1
 42
1.0
 92
        0
 66
   257
 43
1.0
 76
     1
 77
     6
 78
     2
 67
     7
 79
     5
170
     0
171
     0
290
     0
174
     0
 93
       13
 44
0.0
173
     0
291
     1
 45
0.0
1001
ACAD
1000
AcDbSavedByObjectVersion
1070
     0
  0
VISUALSTYLE
  5
8DB
102
{ACAD_REACTORS
330
8D8
102
}
102
{ACAD_XDICTIONARY
360
902
102
}
330
8D8
100
AcDbVisualStyle
  2
Gouraud
 70
     2
 71
     2
 72
     2
 73
     1
 90
        2
 40
0.6
 41
30.0
 62
     5
 63
     7
421
 16777215
 74
     0
 91
        0
 64
     7
 65
   257
 75
     1
175
     1
 42
1.0
 92
        0
 66
     7
 43
1.0
 76
     1
 77
     6
 78
     2
 67
     7
 79
     5
170
     0
171
     0
290
     0
174
     0
 93
       13
 44
0.0
173
     0
291
     1
 45
0.0
1001
ACAD
1000
AcDbSavedByObjectVersion
1070
     0
  0
VISUALSTYLE
  5
8DC
102
{ACAD_REACTORS
330
8D8
102
}
102
{ACAD_XDICTIONARY
360
904
102
}
330
8D8
100
AcDbVisualStyle
  2
GouraudWithEdges
 70
     3
 71
     2
 72
     2
 73
     1
 90
        2
 40
0.6
 41
30.0
 62
     5
 63
     7
421
 16777215
 74
     1
 91
        0
 64
     7
 65
   257
 75
     1
175
     1
 42
1.0
 92
        0
 66
   257
 43
1.0
 76
     1
 77
     6
 78
     2
 67
     7
 79
     5
170
     0
171
     0
290
     0
174
     0
 93
       13
 44
0.0
173
     0
291
     1
 45
0.0
1001
ACAD
1000
AcDbSavedByObjectVersion
1070
     0
  0
VISUALSTYLE
  5
8DF
102
{ACAD_REACTORS
330
8D8
102
}
102
{ACAD_XDICTIONARY
360
90A
102
}
330
8D8
100
AcDbVisualStyle
  2
Hidden
 70
     6
 71
     1
 72
     2
 73
     2
 90
        0
 40
0.6
 41
30.0
 62
     5
 63
     7
421
 16777215
 74
     2
 91
        2
 64
     7
 65
   257
 75
     2
175
     1
 42
40.0
 92
        0
 66
   257
 43
1.0
 76
     1
 77
     6
 78
     2
 67
     7
 79
     3
170
     0
171
     0
290
     0
174
     0
 93
        1
 44
0.0
173
     0
291
     0
 45
0.0
1001
ACAD
1000
AcDbSavedByObjectVersion
1070
     0
  0
VISUALSTYLE
  5
8E9
102
{ACAD_REACTORS
330
8D8
102
}
102
{ACAD_XDICTIONARY
360
91E
102
}
330
8D8
100
AcDbVisualStyle
  2
JitterOff
 70
    20
 71
     2
 72
     2
 73
     0
 90
        0
 40
0.6
 41
30.0
 62
     5
 63
     7
421
 16777215
 74
     1
 91
        4
 64
     7
 65
   257
 75
     1
175
     1
 42
1.0
 92
       10
 66
     7
 43
1.0
 76
     1
 77
     6
 78
     2
 67
     7
 79
     5
170
     0
171
     0
290
     0
174
     0
 93
        1
 44
0.0
173
     0
291
     1
 45
0.0
1001
ACAD
1000
AcDbSavedByObjectVersion
1070
     0
  0
VISUALSTYLE
  5
8E6
102
{ACAD_REACTORS
330
8D8
102
}
102
{ACAD_XDICTIONARY
360
918
102
}
330
8D8
100
AcDbVisualStyle
  2
Linepattern
 70
    14
 71
     2
 72
     2
 73
     0
 90
        0
 40
0.6
 41
30.0
 62
     5
 63
     7
421
 16777215
 74
     1
 91
        4
 64
     7
 65
   257
 75
     7
175
     7
 42
1.0
 92
        8
 66
     7
 43
1.0
 76
     1
 77
     6
 78
     2
 67
     7
 79
     5
170
     0
171
     0
290
     0
174
     0
 93
        1
 44
0.0
173
     0
291
     1
 45
0.0
1001
ACAD
1000
AcDbSavedByObjectVersion
1070
     0
  0
VISUALSTYLE
  5
8EA
102
{ACAD_REACTORS
330
8D8
102
}
102
{ACAD_XDICTIONARY
360
920
102
}
330
8D8
100
AcDbVisualStyle
  2
OverhangOff
 70
    21
 71
     2
 72
     2
 73
     0
 90
        0
 40
0.6
 41
30.0
 62
     5
 63
     7
421
 16777215
 74
     1
 91
        4
 64
     7
 65
   257
 75
     1
175
     1
 42
1.0
 92
        9
 66
     7
 43
1.0
 76
     1
 77
     6
 78
     2
 67
     7
 79
     5
170
     0
171
     0
290
     0
174
     0
 93
        1
 44
0.0
173
     0
291
     1
 45
0.0
1001
ACAD
1000
AcDbSavedByObjectVersion
1070
     0
  0
VISUALSTYLE
  5
8E1
102
{ACAD_REACTORS
330
8D8
102
}
102
{ACAD_XDICTIONARY
360
90E
102
}
330
8D8
100
AcDbVisualStyle
  2
Realistic
 70
     8
 71
     2
 72
     3
 73
     0
 90
        2
 40
0.6
 41
30.0
 62
     5
 63
     7
421
 16777215
 74
     0
 91
        0
 64
     7
 65
   257
 75
     1
175
     1
 42
1.0
 92
        8
 66
   257
 43
1.0
 76
     1
 77
     6
 78
     2
 67
     7
 79
     3
170
     0
171
     0
290
     0
174
     0
 93
       13
 44
0.0
173
     0
291
     0
 45
0.0
1001
ACAD
1000
AcDbSavedByObjectVersion
1070
     0
  0
VISUALSTYLE
  5
8F0
102
{ACAD_REACTORS
330
8D8
102
}
102
{ACAD_XDICTIONARY
360
92C
102
}
330
8D8
100
AcDbVisualStyle
  2
Shaded
 70
    27
 71
     2
 72
     2
 73
     1
 90
        2
 40
0.6
 41
30.0
 62
     5
 63
     7
421
 16777215
 74
     0
 91
        4
 64
     7
 65
   257
 75
     1
175
     1
 42
1.0
 92
        8
 66
   257
 43
1.0
 76
     1
 77
     6
 78
     2
 67
     8
425
  7895160
 79
     3
170
     0
171
     0
290
     0
174
     0
 93
        5
 44
0.0
173
     0
291
     0
 45
0.0
1001
ACAD
1000
AcDbSavedByObjectVersion
1070
     0
  0
VISUALSTYLE
  5
8EF
102
{ACAD_REACTORS
330
8D8
102
}
102
{ACAD_XDICTIONARY
360
92A
102
}
330
8D8
100
AcDbVisualStyle
  2
Shaded with edges
 70
    26
 71
     2
 72
     2
 73
     1
 90
        2
 40
0.6
 41
30.0
 62
     5
 63
     7
421
 16777215
 74
     1
 91
       10
 64
     7
 65
   257
 75
     2
175
     1
 42
1.0
 92
        8
 66
   257
 43
1.0
 76
     1
 77
     6
 78
     2
 67
     7
 79
     3
170
     0
171
     0
290
     0
174
     0
 93
        5
 44
0.0
173
     0
291
     0
 45
0.0
1001
ACAD
1000
AcDbSavedByObjectVersion
1070
     0
  0
VISUALSTYLE
  5
8EC
102
{ACAD_REACTORS
330
8D8
102
}
102
{ACAD_XDICTIONARY
360
924
102
}
330
8D8
100
AcDbVisualStyle
  2
Shades of Gray
 70
    23
 71
     2
 72
     2
 73
     3
 90
        0
 40
0.6
 41
30.0
 62
     5
 63
     7
421
 16777215
 74
     2
 91
        2
 64
     7
 65
     7
 75
     1
175
     1
 42
40.0
 92
        8
 66
     7
 43
1.0
 76
     1
 77
     6
 78
     2
 67
     7
 79
     3
170
     0
171
     0
290
     0
174
     0
 93
        1
 44
0.0
173
     0
291
     0
 45
0.0
1001
ACAD
1000
AcDbSavedByObjectVersion
1070
     0
  0
VISUALSTYLE
  5
8ED
102
{ACAD_REACTORS
330
8D8
102
}
102
{ACAD_XDICTIONARY
360
926
102
}
330
8D8
100
AcDbVisualStyle
  2
Sketchy
 70
    24
 71
     1
 72
     2
 73
     2
 90
        0
 40
0.6
 41
30.0
 62
     5
 63
     7
421
 16777215
 74
     2
 91
        2
 64
     7
 65
     7
 75
     1
175
     1
 42
40.0
 92
       11
 66
     7
 43
1.0
 76
     1
 77
     6
 78
     2
 67
     7
 79
     6
170
     0
171
     0
290
     0
174
     0
 93
        1
 44
0.0
173
     0
291
     0
 45
0.0
1001
ACAD
1000
AcDbSavedByObjectVersion
1070
     0
  0
VISUALSTYLE
  5
8E5
102
{ACAD_REACTORS
330
8D8
102
}
102
{ACAD_XDICTIONARY
360
916
102
}
330
8D8
100
AcDbVisualStyle
  2
Thicken
 70
    13
 71
     2
 72
     2
 73
     0
 90
        0
 40
0.6
 41
30.0
 62
     5
 63
     7
421
 16777215
 74
     1
 91
        4
 64
     7
 65
   257
 75
     1
175
     1
 42
1.0
 92
       12
 66
     7
 43
1.0
 76
     1
 77
     6
 78
     2
 67
     7
 79
     5
170
     0
171
     0
290
     0
174
     0
 93
        1
 44
0.0
173
     0
291
     1
 45
0.0
1001
ACAD
1000
AcDbSavedByObjectVersion
1070
     0
  0
VISUALSTYLE
  5
8DE
102
{ACAD_REACTORS
330
8D8
102
}
102
{ACAD_XDICTIONARY
360
908
102
}
330
8D8
100
AcDbVisualStyle
  2
Wireframe
 70
     5
 71
     0
 72
     2
 73
     0
 90
        0
 40
0.6
 41
30.0
 62
     5
 63
     7
421
 16777215
 74
     1
 91
        4
 64
     7
 65
   257
 75
     1
175
     1
 42
1.0
 92
        0
 66
   257
 43
1.0
 76
     1
 77
     6
 78
     2
 67
     7
 79
     3
170
     0
171
     0
290
     0
174
     0
 93
        1
 44
0.0
173
     0
291
     0
 45
0.0
1001
ACAD
1000
AcDbSavedByObjectVersion
1070
     0
  0
VISUALSTYLE
  5
8EE
102
{ACAD_REACTORS
330
8D8
102
}
102
{ACAD_XDICTIONARY
360
928
102
}
330
8D8
100
AcDbVisualStyle
  2
X-Ray
 70
    25
 71
     2
 72
     2
 73
     1
 90
        1
 40
0.5
 41
30.0
 62
     5
 63
     7
421
 16777215
 74
     1
 91
        0
 64
     7
 65
   257
 75
     1
175
     1
 42
1.0
 92
        8
 66
     7
 43
1.0
 76
     1
 77
     6
 78
     2
 67
     7
 79
     3
170
     0
171
     0
290
     0
174
     0
 93
       13
 44
0.0
173
     0
291
     0
 45
0.0
1001
ACAD
1000
AcDbSavedByObjectVersion
1070
     0
  0
DICTIONARYVAR
  5
8FC
102
{ACAD_REACTORS
330
8FB
102
}
330
8FB
100
DictionaryVariables
280
     0
  1
1:1
  0
DICTIONARYVAR
  5
93C
102
{ACAD_REACTORS
330
8FB
102
}
330
8FB
100
DictionaryVariables
280
     0
  1
Standard
  0
DICTIONARYVAR
  5
93B
102
{ACAD_REACTORS
330
8FB
102
}
330
8FB
100
DictionaryVariables
280
     0
  1
Standard
  0
DICTIONARYVAR
  5
93D
102
{ACAD_REACTORS
330
8FB
102
}
330
8FB
100
DictionaryVariables
280
     0
  1
0
  0
DICTIONARYVAR
  5
8FD
102
{ACAD_REACTORS
330
8FB
102
}
330
8FB
100
DictionaryVariables
280
     0
  1
2
  0
DICTIONARY
  5
930
330
8F3
100
AcDbDictionary
280
     1
281
     1
  3
ACAD_XREC_ROUNDTRIP
360
931
  0
DICTIONARY
  5
92E
330
8F2
100
AcDbDictionary
280
     1
281
     1
  3
ACAD_XREC_ROUNDTRIP
360
92F
  0
DICTIONARY
  5
932
330
8F4
100
AcDbDictionary
280
     1
281
     1
  3
ACAD_XREC_ROUNDTRIP
360
933
  0
DICTIONARY
  5
938
330
8F8
100
AcDbDictionary
280
     1
281
     1
  3
ACAD_XREC_ROUNDTRIP
360
939
  0
DICTIONARY
  5
934
330
8F6
100
AcDbDictionary
280
     1
281
     1
  3
ACAD_ROUNDTRIP_2008_TABLESTYLE_CELLSTYLEMAP
360
936
  3
ACAD_XREC_ROUNDTRIP
360
935
  0
DICTIONARY
  5
906
330
8DD
100
AcDbDictionary
280
     1
281
     1
  3
ACAD_XREC_ROUNDTRIP
360
907
  0
DICTIONARY
  5
90C
330
8E0
100
AcDbDictionary
280
     1
281
     1
  3
ACAD_XREC_ROUNDTRIP
360
90D
  0
DICTIONARY
  5
914
330
8E4
100
AcDbDictionary
280
     1
281
     1
  3
ACAD_XREC_ROUNDTRIP
360
915
  0
DICTIONARY
  5
91C
330
8E8
100
AcDbDictionary
280
     1
281
     1
  3
ACAD_XREC_ROUNDTRIP
360
91D
  0
DICTIONARY
  5
910
330
8E2
100
AcDbDictionary
280
     1
281
     1
  3
ACAD_XREC_ROUNDTRIP
360
911
  0
DICTIONARY
  5
912
330
8E3
100
AcDbDictionary
280
     1
281
     1
  3
ACAD_XREC_ROUNDTRIP
360
913
  0
DICTIONARY
  5
922
330
8EB
100
AcDbDictionary
280
     1
281
     1
  3
ACAD_XREC_ROUNDTRIP
360
923
  0
DICTIONARY
  5
91A
330
8E7
100
AcDbDictionary
280
     1
281
     1
  3
ACAD_XREC_ROUNDTRIP
360
91B
  0
DICTIONARY
  5
8FE
330
8D9
100
AcDbDictionary
280
     1
281
     1
  3
ACAD_XREC_ROUNDTRIP
360
8FF
  0
DICTIONARY
  5
900
330
8DA
100
AcDbDictionary
280
     1
281
     1
  3
ACAD_XREC_ROUNDTRIP
360
901
  0
DICTIONARY
  5
902
330
8DB
100
AcDbDictionary
280
     1
281
     1
  3
ACAD_XREC_ROUNDTRIP
360
903
  0
DICTIONARY
  5
904
330
8DC
100
AcDbDictionary
280
     1
281
     1
  3
ACAD_XREC_ROUNDTRIP
360
905
  0
DICTIONARY
  5
90A
330
8DF
100
AcDbDictionary
280
     1
281
     1
  3
ACAD_XREC_ROUNDTRIP
360
90B
  0
DICTIONARY
  5
91E
330
8E9
100
AcDbDictionary
280
     1
281
     1
  3
ACAD_XREC_ROUNDTRIP
360
91F
  0
DICTIONARY
  5
918
330
8E6
100
AcDbDictionary
280
     1
281
     1
  3
ACAD_XREC_ROUNDTRIP
360
919
  0
DICTIONARY
  5
920
330
8EA
100
AcDbDictionary
280
     1
281
     1
  3
ACAD_XREC_ROUNDTRIP
360
921
  0
DICTIONARY
  5
90E
330
8E1
100
AcDbDictionary
280
     1
281
     1
  3
ACAD_XREC_ROUNDTRIP
360
90F
  0
DICTIONARY
  5
92C
330
8F0
100
AcDbDictionary
280
     1
281
     1
  3
ACAD_XREC_ROUNDTRIP
360
92D
  0
DICTIONARY
  5
92A
330
8EF
100
AcDbDictionary
280
     1
281
     1
  3
ACAD_XREC_ROUNDTRIP
360
92B
  0
DICTIONARY
  5
924
330
8EC
100
AcDbDictionary
280
     1
281
     1
  3
ACAD_XREC_ROUNDTRIP
360
925
  0
DICTIONARY
  5
926
330
8ED
100
AcDbDictionary
280
     1
281
     1
  3
ACAD_XREC_ROUNDTRIP
360
927
  0
DICTIONARY
  5
916
330
8E5
100
AcDbDictionary
280
     1
281
     1
  3
ACAD_XREC_ROUNDTRIP
360
917
  0
DICTIONARY
  5
908
330
8DE
100
AcDbDictionary
280
     1
281
     1
  3
ACAD_XREC_ROUNDTRIP
360
909
  0
DICTIONARY
  5
928
330
8EE
100
AcDbDictionary
280
     1
281
     1
  3
ACAD_XREC_ROUNDTRIP
360
929
  0
XRECORD
  5
931
102
{ACAD_REACTORS
330
930
102
}
330
930
100
AcDbXrecord
280
     1
102
MATERIAL
148
0.0
149
0.0
149
0.0
 93
        0
 94
      127
282
     0
 72
     1
 77
     1
171
     1
175
     1
179
     1
273
     0
  0
XRECORD
  5
92F
102
{ACAD_REACTORS
330
92E
102
}
330
92E
100
AcDbXrecord
280
     1
102
MATERIAL
148
0.0
149
0.0
149
0.0
 93
        0
 94
      127
282
     0
 72
     1
 77
     1
171
     1
175
     1
179
     1
273
     0
  0
XRECORD
  5
933
102
{ACAD_REACTORS
330
932
102
}
330
932
100
AcDbXrecord
280
     1
102
MATERIAL
148
0.0
149
0.0
149
0.0
 93
        0
 94
      127
282
     0
 72
     1
 77
     1
171
     1
175
     1
179
     1
273
     0
  0
XRECORD
  5
939
102
{ACAD_REACTORS
330
938
102
}
330
938
100
AcDbXrecord
280
     1
102
ACAD_ROUNDTRIP_2010_MLEADER_STYLE
  0
CELLSTYLEMAP
  5
936
102
{ACAD_REACTORS
330
934
102
}
330
934
100
AcDbCellStyleMap
 90
        3
300
CELLSTYLE
  1
TABLEFORMAT_BEGIN
 90
        5
170
     1
 91
        0
 92
    32768
 62
   257
 93
        1
300
CONTENTFORMAT
  1
CONTENTFORMAT_BEGIN
 90
        0
 91
        0
 92
        4
 93
        0
300

 40
0.0
140
1.0
 94
        5
 62
     0
340
11
144
0.25
309
CONTENTFORMAT_END
171
     1
301
MARGIN
  1
CELLMARGIN_BEGIN
 40
0.06
 40
0.06
 40
0.06
 40
0.06
 40
0.06
 40
0.06
309
CELLMARGIN_END
 94
        6
 95
        1
302
GRIDFORMAT
  1
GRIDFORMAT_BEGIN
 90
        0
 91
        1
 62
     0
 92
       -2
340
14
 93
        0
 40
0.045
309
GRIDFORMAT_END
 95
        2
302
GRIDFORMAT
  1
GRIDFORMAT_BEGIN
 90
        0
 91
        1
 62
     0
 92
       -2
340
14
 93
        0
 40
0.045
309
GRIDFORMAT_END
 95
        4
302
GRIDFORMAT
  1
GRIDFORMAT_BEGIN
 90
        0
 91
        1
 62
     0
 92
       -2
340
14
 93
        0
 40
0.045
309
GRIDFORMAT_END
 95
        8
302
GRIDFORMAT
  1
GRIDFORMAT_BEGIN
 90
        0
 91
        1
 62
     0
 92
       -2
340
14
 93
        0
 40
0.045
309
GRIDFORMAT_END
 95
       16
302
GRIDFORMAT
  1
GRIDFORMAT_BEGIN
 90
        0
 91
        1
 62
     0
 92
       -2
340
14
 93
        0
 40
0.045
309
GRIDFORMAT_END
 95
       32
302
GRIDFORMAT
  1
GRIDFORMAT_BEGIN
 90
        0
 91
        1
 62
     0
 92
       -2
340
14
 93
        0
 40
0.045
309
GRIDFORMAT_END
309
TABLEFORMAT_END
  1
CELLSTYLE_BEGIN
 90
        1
 91
        1
300
_TITLE
309
CELLSTYLE_END
300
CELLSTYLE
  1
TABLEFORMAT_BEGIN
 90
        5
170
     1
 91
        0
 92
        0
 62
   257
 93
        1
300
CONTENTFORMAT
  1
CONTENTFORMAT_BEGIN
 90
        0
 91
        0
 92
        4
 93
        0
300

 40
0.0
140
1.0
 94
        5
 62
     0
340
11
144
0.18
309
CONTENTFORMAT_END
171
     1
301
MARGIN
  1
CELLMARGIN_BEGIN
 40
0.06
 40
0.06
 40
0.06
 40
0.06
 40
0.06
 40
0.06
309
CELLMARGIN_END
 94
        6
 95
        1
302
GRIDFORMAT
  1
GRIDFORMAT_BEGIN
 90
        0
 91
        1
 62
     0
 92
       -2
340
14
 93
        0
 40
0.045
309
GRIDFORMAT_END
 95
        2
302
GRIDFORMAT
  1
GRIDFORMAT_BEGIN
 90
        0
 91
        1
 62
     0
 92
       -2
340
14
 93
        0
 40
0.045
309
GRIDFORMAT_END
 95
        4
302
GRIDFORMAT
  1
GRIDFORMAT_BEGIN
 90
        0
 91
        1
 62
     0
 92
       -2
340
14
 93
        0
 40
0.045
309
GRIDFORMAT_END
 95
        8
302
GRIDFORMAT
  1
GRIDFORMAT_BEGIN
 90
        0
 91
        1
 62
     0
 92
       -2
340
14
 93
        0
 40
0.045
309
GRIDFORMAT_END
 95
       16
302
GRIDFORMAT
  1
GRIDFORMAT_BEGIN
 90
        0
 91
        1
 62
     0
 92
       -2
340
14
 93
        0
 40
0.045
309
GRIDFORMAT_END
 95
       32
302
GRIDFORMAT
  1
GRIDFORMAT_BEGIN
 90
        0
 91
        1
 62
     0
 92
       -2
340
14
 93
        0
 40
0.045
309
GRIDFORMAT_END
309
TABLEFORMAT_END
  1
CELLSTYLE_BEGIN
 90
        2
 91
        1
300
_HEADER
309
CELLSTYLE_END
300
CELLSTYLE
  1
TABLEFORMAT_BEGIN
 90
        5
170
     1
 91
        0
 92
        0
 62
   257
 93
        1
300
CONTENTFORMAT
  1
CONTENTFORMAT_BEGIN
 90
        0
 91
        0
 92
        4
 93
        0
300

 40
0.0
140
1.0
 94
        2
 62
     0
340
11
144
0.18
309
CONTENTFORMAT_END
171
     1
301
MARGIN
  1
CELLMARGIN_BEGIN
 40
0.06
 40
0.06
 40
0.06
 40
0.06
 40
0.06
 40
0.06
309
CELLMARGIN_END
 94
        6
 95
        1
302
GRIDFORMAT
  1
GRIDFORMAT_BEGIN
 90
        0
 91
        1
 62
     0
 92
       -2
340
14
 93
        0
 40
0.045
309
GRIDFORMAT_END
 95
        2
302
GRIDFORMAT
  1
GRIDFORMAT_BEGIN
 90
        0
 91
        1
 62
     0
 92
       -2
340
14
 93
        0
 40
0.045
309
GRIDFORMAT_END
 95
        4
302
GRIDFORMAT
  1
GRIDFORMAT_BEGIN
 90
        0
 91
        1
 62
     0
 92
       -2
340
14
 93
        0
 40
0.045
309
GRIDFORMAT_END
 95
        8
302
GRIDFORMAT
  1
GRIDFORMAT_BEGIN
 90
        0
 91
        1
 62
     0
 92
       -2
340
14
 93
        0
 40
0.045
309
GRIDFORMAT_END
 95
       16
302
GRIDFORMAT
  1
GRIDFORMAT_BEGIN
 90
        0
 91
        1
 62
     0
 92
       -2
340
14
 93
        0
 40
0.045
309
GRIDFORMAT_END
 95
       32
302
GRIDFORMAT
  1
GRIDFORMAT_BEGIN
 90
        0
 91
        1
 62
     0
 92
       -2
340
14
 93
        0
 40
0.045
309
GRIDFORMAT_END
309
TABLEFORMAT_END
  1
CELLSTYLE_BEGIN
 90
        3
 91
        2
300
_DATA
309
CELLSTYLE_END
  0
XRECORD
  5
935
102
{ACAD_REACTORS
330
934
102
}
330
934
100
AcDbXrecord
280
     1
102
ACAD_ROUNDTRIP_PRE2007_TABLESTYLE
 90
        4
 91
        0
  1

 92
        4
 93
        0
  2

 94
        4
 95
        0
  3

  0
XRECORD
  5
907
102
{ACAD_REACTORS
330
906
102
}
330
906
100
AcDbXrecord
280
     1
102
RTVSPropertyOp0
 70
     1
102
RTVSPropertyOp1
 70
     1
102
RTVSPropertyOp2
 70
     1
102
RTVSPropertyOp3
 70
     1
102
RTVSPropertyOp4
 70
     1
102
RTVSPropertyOp5
 70
     1
102
RTVSPropertyOp6
 70
     1
102
RTVSPropertyOp7
 70
     1
102
RTVSPropertyOp8
 70
     1
102
RTVSPropertyOp9
 70
     1
102
RTVSPropertyOp10
 70
     1
102
RTVSPropertyOp11
 70
     1
102
RTVSPropertyOp12
 70
     1
102
RTVSPropertyOp13
 70
     1
102
RTVSPropertyOp14
 70
     1
102
RTVSPropertyOp15
 70
     1
102
RTVSPropertyOp16
 70
     1
102
RTVSPropertyOp17
 70
     1
102
RTVSPropertyOp18
 70
     1
102
RTVSPropertyOp19
 70
     1
102
RTVSPropertyOp20
 70
     1
102
RTVSPropertyOp21
 70
     1
102
RTVSPropertyOp22
 70
     1
102
RTVSPropertyOp23
 70
     1
102
RTVSPropertyOp24
 70
     1
102
RTVSPropertyOp25
 70
     1
102
RTVSPropertyOp26
 70
     1
102
RTVSPropertyOp27
 70
     1
102
RTVSPropertyOp28
 70
     1
102
RTVSPropertyOp29
 70
     1
102
RTVSPropertyOp30
 70
     1
102
RTVSPropertyOp31
 70
     1
102
RTVSPropertyOp32
 70
     1
102
RTVSPropertyOp33
 70
     1
102
RTVSPropertyOp34
 70
     1
102
RTVSPropertyOp35
 70
     1
102
RTVSPropertyOp36
 70
     1
102
RTVSPropertyOp37
 70
     1
102
RTVSPropertyOp38
 70
     1
102
RTVSPropertyOp39
 70
     1
102
RTVSPropertyOp40
 70
     1
102
RTVSPropertyOp41
 70
     1
102
RTVSPropertyOp42
 70
     1
102
RTVSPropertyOp43
 70
     1
102
RTVSPropertyOp44
 70
     1
102
RTVSPropertyOp45
 70
     1
102
RTVSPropertyOp46
 70
     1
102
RTVSPropertyOp47
 70
     1
102
RTVSPropertyOp48
 70
     1
102
RTVSPropertyOp49
 70
     1
102
RTVSPropertyOp50
 70
     1
102
RTVSPropertyOp51
 70
     0
102
RTVSPropertyOp52
 70
     0
102
RTVSPropertyOp53
 70
     1
102
RTVSPropertyOp54
 70
     1
102
RTVSPropertyOp55
 70
     1
102
RTVSPropertyOp56
 70
     1
102
RTVSPropertyOp57
 70
     1
102
RTVSPost2010Prop28
280
     1
102
RTVSPost2010PropOp28
 70
     1
102
RTVSPost2010Prop29
280
     1
102
RTVSPost2010PropOp29
 70
     1
102
RTVSPost2010Prop30
280
     0
102
RTVSPost2010PropOp30
 70
     1
102
RTVSPost2010Prop31
280
     0
102
RTVSPost2010PropOp31
 70
     1
102
RTVSPost2010Prop32
280
     0
102
RTVSPost2010PropOp32
 70
     1
102
RTVSPost2010Prop33
280
     0
102
RTVSPost2010PropOp33
 70
     1
102
RTVSPost2010Prop34
280
     0
102
RTVSPost2010PropOp34
 70
     1
102
RTVSPost2010Prop35
280
     0
102
RTVSPost2010PropOp35
 70
     1
102
RTVSPost2010Prop36
280
     0
102
RTVSPost2010PropOp36
 70
     1
102
RTVSPost2010Prop37
 90
       50
102
RTVSPost2010PropOp37
 70
     1
102
RTVSPost2010Prop38
140
0.0
102
RTVSPost2010PropOp38
 70
     1
102
RTVSPost2010Prop39
140
1.0
102
RTVSPost2010PropOp39
 70
     1
102
RTVSPost2010Prop40
 90
        0
102
RTVSPost2010PropOp40
 70
     1
102
RTVSPost2010Prop41ColorIndex
 90
       18
102
RTVSPost2010Prop41ColorRGB
 90
        0
102
RTVSPost2010PropOp41
 70
     1
102
RTVSPost2010Prop42
 90
       50
102
RTVSPost2010PropOp42
 70
     1
102
RTVSPost2010Prop43
 90
        3
102
RTVSPost2010PropOp43
 70
     1
102
RTVSPost2010Prop44ColorIndex
 90
        5
102
RTVSPost2010Prop44ColorRGB
 90
      255
102
RTVSPost2010PropOp44
 70
     1
102
RTVSPost2010Prop45
280
     0
102
RTVSPost2010PropOp45
 70
     1
102
RTVSPost2010Prop46
 90
       50
102
RTVSPost2010PropOp46
 70
     1
102
RTVSPost2010Prop47
 90
       50
102
RTVSPost2010PropOp47
 70
     1
102
RTVSPost2010Prop48
 90
       50
102
RTVSPost2010PropOp48
 70
     1
102
RTVSPost2010Prop49
280
     0
102
RTVSPost2010PropOp49
 70
     1
102
RTVSPost2010Prop50
 90
       50
102
RTVSPost2010PropOp50
 70
     1
102
RTVSPost2010Prop51ColorIndex
 90
      256
102
RTVSPost2010Prop51ColorRGB
 90
-16777216
102
RTVSPost2010PropOp51
 70
     0
102
RTVSPost2010Prop52
140
1.0
102
RTVSPost2010PropOp52
 70
     0
102
RTVSPost2010Prop53
 90
        2
102
RTVSPost2010PropOp53
 70
     1
102
RTVSPost2010Prop54
  1
strokes_ogs.tif
102
RTVSPost2010PropOp54
 70
     1
102
RTVSPost2010Prop55
280
     0
102
RTVSPost2010PropOp55
 70
     1
102
RTVSPost2010Prop56
140
1.0
102
RTVSPost2010PropOp56
 70
     1
102
RTVSPost2010Prop57
140
1.0
102
RTVSPost2010PropOp57
 70
     1
  0
XRECORD
  5
90D
102
{ACAD_REACTORS
330
90C
102
}
330
90C
100
AcDbXrecord
280
     1
102
RTVSPropertyOp0
 70
     1
102
RTVSPropertyOp1
 70
     1
102
RTVSPropertyOp2
 70
     1
102
RTVSPropertyOp3
 70
     1
102
RTVSPropertyOp4
 70
     1
102
RTVSPropertyOp5
 70
     1
102
RTVSPropertyOp6
 70
     1
102
RTVSPropertyOp7
 70
     1
102
RTVSPropertyOp8
 70
     1
102
RTVSPropertyOp9
 70
     1
102
RTVSPropertyOp10
 70
     1
102
RTVSPropertyOp11
 70
     1
102
RTVSPropertyOp12
 70
     1
102
RTVSPropertyOp13
 70
     1
102
RTVSPropertyOp14
 70
     1
102
RTVSPropertyOp15
 70
     1
102
RTVSPropertyOp16
 70
     1
102
RTVSPropertyOp17
 70
     1
102
RTVSPropertyOp18
 70
     1
102
RTVSPropertyOp19
 70
     1
102
RTVSPropertyOp20
 70
     1
102
RTVSPropertyOp21
 70
     1
102
RTVSPropertyOp22
 70
     1
102
RTVSPropertyOp23
 70
     1
102
RTVSPropertyOp24
 70
     1
102
RTVSPropertyOp25
 70
     1
102
RTVSPropertyOp26
 70
     1
102
RTVSPropertyOp27
 70
     1
102
RTVSPropertyOp28
 70
     1
102
RTVSPropertyOp29
 70
     1
102
RTVSPropertyOp30
 70
     1
102
RTVSPropertyOp31
 70
     1
102
RTVSPropertyOp32
 70
     1
102
RTVSPropertyOp33
 70
     1
102
RTVSPropertyOp34
 70
     1
102
RTVSPropertyOp35
 70
     1
102
RTVSPropertyOp36
 70
     1
102
RTVSPropertyOp37
 70
     1
102
RTVSPropertyOp38
 70
     1
102
RTVSPropertyOp39
 70
     1
102
RTVSPropertyOp40
 70
     1
102
RTVSPropertyOp41
 70
     1
102
RTVSPropertyOp42
 70
     1
102
RTVSPropertyOp43
 70
     1
102
RTVSPropertyOp44
 70
     1
102
RTVSPropertyOp45
 70
     1
102
RTVSPropertyOp46
 70
     1
102
RTVSPropertyOp47
 70
     1
102
RTVSPropertyOp48
 70
     1
102
RTVSPropertyOp49
 70
     1
102
RTVSPropertyOp50
 70
     1
102
RTVSPropertyOp51
 70
     0
102
RTVSPropertyOp52
 70
     0
102
RTVSPropertyOp53
 70
     1
102
RTVSPropertyOp54
 70
     1
102
RTVSPropertyOp55
 70
     1
102
RTVSPropertyOp56
 70
     1
102
RTVSPropertyOp57
 70
     1
102
RTVSPost2010Prop28
280
     0
102
RTVSPost2010PropOp28
 70
     1
102
RTVSPost2010Prop29
280
     1
102
RTVSPost2010PropOp29
 70
     1
102
RTVSPost2010Prop30
280
     1
102
RTVSPost2010PropOp30
 70
     1
102
RTVSPost2010Prop31
280
     0
102
RTVSPost2010PropOp31
 70
     1
102
RTVSPost2010Prop32
280
     0
102
RTVSPost2010PropOp32
 70
     1
102
RTVSPost2010Prop33
280
     0
102
RTVSPost2010PropOp33
 70
     1
102
RTVSPost2010Prop34
280
     0
102
RTVSPost2010PropOp34
 70
     1
102
RTVSPost2010Prop35
280
     0
102
RTVSPost2010PropOp35
 70
     1
102
RTVSPost2010Prop36
280
     0
102
RTVSPost2010PropOp36
 70
     1
102
RTVSPost2010Prop37
 90
       50
102
RTVSPost2010PropOp37
 70
     1
102
RTVSPost2010Prop38
140
0.0
102
RTVSPost2010PropOp38
 70
     1
102
RTVSPost2010Prop39
140
1.0
102
RTVSPost2010PropOp39
 70
     1
102
RTVSPost2010Prop40
 90
        0
102
RTVSPost2010PropOp40
 70
     1
102
RTVSPost2010Prop41ColorIndex
 90
       18
102
RTVSPost2010Prop41ColorRGB
 90
        0
102
RTVSPost2010PropOp41
 70
     1
102
RTVSPost2010Prop42
 90
       50
102
RTVSPost2010PropOp42
 70
     1
102
RTVSPost2010Prop43
 90
        3
102
RTVSPost2010PropOp43
 70
     1
102
RTVSPost2010Prop44ColorIndex
 90
        5
102
RTVSPost2010Prop44ColorRGB
 90
      255
102
RTVSPost2010PropOp44
 70
     1
102
RTVSPost2010Prop45
280
     0
102
RTVSPost2010PropOp45
 70
     1
102
RTVSPost2010Prop46
 90
       50
102
RTVSPost2010PropOp46
 70
     1
102
RTVSPost2010Prop47
 90
       50
102
RTVSPost2010PropOp47
 70
     1
102
RTVSPost2010Prop48
 90
       50
102
RTVSPost2010PropOp48
 70
     1
102
RTVSPost2010Prop49
280
     0
102
RTVSPost2010PropOp49
 70
     1
102
RTVSPost2010Prop50
 90
       50
102
RTVSPost2010PropOp50
 70
     1
102
RTVSPost2010Prop51ColorIndex
 90
      256
102
RTVSPost2010Prop51ColorRGB
 90
-16777216
102
RTVSPost2010PropOp51
 70
     0
102
RTVSPost2010Prop52
140
1.0
102
RTVSPost2010PropOp52
 70
     0
102
RTVSPost2010Prop53
 90
        2
102
RTVSPost2010PropOp53
 70
     1
102
RTVSPost2010Prop54
  1
strokes_ogs.tif
102
RTVSPost2010PropOp54
 70
     1
102
RTVSPost2010Prop55
280
     0
102
RTVSPost2010PropOp55
 70
     1
102
RTVSPost2010Prop56
140
1.0
102
RTVSPost2010PropOp56
 70
     1
102
RTVSPost2010Prop57
140
1.0
102
RTVSPost2010PropOp57
 70
     1
  0
XRECORD
  5
915
102
{ACAD_REACTORS
330
914
102
}
330
914
100
AcDbXrecord
280
     1
102
RTVSPropertyOp0
 70
     1
102
RTVSPropertyOp1
 70
     1
102
RTVSPropertyOp2
 70
     1
102
RTVSPropertyOp3
 70
     1
102
RTVSPropertyOp4
 70
     1
102
RTVSPropertyOp5
 70
     1
102
RTVSPropertyOp6
 70
     1
102
RTVSPropertyOp7
 70
     1
102
RTVSPropertyOp8
 70
     1
102
RTVSPropertyOp9
 70
     1
102
RTVSPropertyOp10
 70
     1
102
RTVSPropertyOp11
 70
     1
102
RTVSPropertyOp12
 70
     1
102
RTVSPropertyOp13
 70
     1
102
RTVSPropertyOp14
 70
     1
102
RTVSPropertyOp15
 70
     1
102
RTVSPropertyOp16
 70
     1
102
RTVSPropertyOp17
 70
     1
102
RTVSPropertyOp18
 70
     1
102
RTVSPropertyOp19
 70
     1
102
RTVSPropertyOp20
 70
     1
102
RTVSPropertyOp21
 70
     1
102
RTVSPropertyOp22
 70
     1
102
RTVSPropertyOp23
 70
     1
102
RTVSPropertyOp24
 70
     1
102
RTVSPropertyOp25
 70
     1
102
RTVSPropertyOp26
 70
     1
102
RTVSPropertyOp27
 70
     1
102
RTVSPropertyOp28
 70
     1
102
RTVSPropertyOp29
 70
     1
102
RTVSPropertyOp30
 70
     1
102
RTVSPropertyOp31
 70
     1
102
RTVSPropertyOp32
 70
     1
102
RTVSPropertyOp33
 70
     1
102
RTVSPropertyOp34
 70
     1
102
RTVSPropertyOp35
 70
     1
102
RTVSPropertyOp36
 70
     1
102
RTVSPropertyOp37
 70
     1
102
RTVSPropertyOp38
 70
     1
102
RTVSPropertyOp39
 70
     1
102
RTVSPropertyOp40
 70
     1
102
RTVSPropertyOp41
 70
     1
102
RTVSPropertyOp42
 70
     1
102
RTVSPropertyOp43
 70
     1
102
RTVSPropertyOp44
 70
     1
102
RTVSPropertyOp45
 70
     1
102
RTVSPropertyOp46
 70
     1
102
RTVSPropertyOp47
 70
     1
102
RTVSPropertyOp48
 70
     1
102
RTVSPropertyOp49
 70
     1
102
RTVSPropertyOp50
 70
     1
102
RTVSPropertyOp51
 70
     0
102
RTVSPropertyOp52
 70
     0
102
RTVSPropertyOp53
 70
     1
102
RTVSPropertyOp54
 70
     1
102
RTVSPropertyOp55
 70
     1
102
RTVSPropertyOp56
 70
     1
102
RTVSPropertyOp57
 70
     1
102
RTVSPost2010Prop28
280
     0
102
RTVSPost2010PropOp28
 70
     1
102
RTVSPost2010Prop29
280
     1
102
RTVSPost2010PropOp29
 70
     1
102
RTVSPost2010Prop30
280
     1
102
RTVSPost2010PropOp30
 70
     1
102
RTVSPost2010Prop31
280
     0
102
RTVSPost2010PropOp31
 70
     1
102
RTVSPost2010Prop32
280
     0
102
RTVSPost2010PropOp32
 70
     1
102
RTVSPost2010Prop33
280
     0
102
RTVSPost2010PropOp33
 70
     1
102
RTVSPost2010Prop34
280
     0
102
RTVSPost2010PropOp34
 70
     1
102
RTVSPost2010Prop35
280
     0
102
RTVSPost2010PropOp35
 70
     1
102
RTVSPost2010Prop36
280
     0
102
RTVSPost2010PropOp36
 70
     1
102
RTVSPost2010Prop37
 90
       50
102
RTVSPost2010PropOp37
 70
     1
102
RTVSPost2010Prop38
140
0.0
102
RTVSPost2010PropOp38
 70
     1
102
RTVSPost2010Prop39
140
1.0
102
RTVSPost2010PropOp39
 70
     1
102
RTVSPost2010Prop40
 90
        0
102
RTVSPost2010PropOp40
 70
     1
102
RTVSPost2010Prop41ColorIndex
 90
       18
102
RTVSPost2010Prop41ColorRGB
 90
        0
102
RTVSPost2010PropOp41
 70
     1
102
RTVSPost2010Prop42
 90
       50
102
RTVSPost2010PropOp42
 70
     1
102
RTVSPost2010Prop43
 90
        3
102
RTVSPost2010PropOp43
 70
     1
102
RTVSPost2010Prop44ColorIndex
 90
        5
102
RTVSPost2010Prop44ColorRGB
 90
      255
102
RTVSPost2010PropOp44
 70
     1
102
RTVSPost2010Prop45
280
     0
102
RTVSPost2010PropOp45
 70
     1
102
RTVSPost2010Prop46
 90
       50
102
RTVSPost2010PropOp46
 70
     1
102
RTVSPost2010Prop47
 90
       50
102
RTVSPost2010PropOp47
 70
     1
102
RTVSPost2010Prop48
 90
       50
102
RTVSPost2010PropOp48
 70
     1
102
RTVSPost2010Prop49
280
     0
102
RTVSPost2010PropOp49
 70
     1
102
RTVSPost2010Prop50
 90
       50
102
RTVSPost2010PropOp50
 70
     1
102
RTVSPost2010Prop51ColorIndex
 90
      256
102
RTVSPost2010Prop51ColorRGB
 90
-16777216
102
RTVSPost2010PropOp51
 70
     0
102
RTVSPost2010Prop52
140
1.0
102
RTVSPost2010PropOp52
 70
     0
102
RTVSPost2010Prop53
 90
        2
102
RTVSPost2010PropOp53
 70
     1
102
RTVSPost2010Prop54
  1
strokes_ogs.tif
102
RTVSPost2010PropOp54
 70
     1
102
RTVSPost2010Prop55
280
     0
102
RTVSPost2010PropOp55
 70
     1
102
RTVSPost2010Prop56
140
1.0
102
RTVSPost2010PropOp56
 70
     1
102
RTVSPost2010Prop57
140
1.0
102
RTVSPost2010PropOp57
 70
     1
  0
XRECORD
  5
91D
102
{ACAD_REACTORS
330
91C
102
}
330
91C
100
AcDbXrecord
280
     1
102
RTVSPropertyOp0
 70
     1
102
RTVSPropertyOp1
 70
     1
102
RTVSPropertyOp2
 70
     1
102
RTVSPropertyOp3
 70
     1
102
RTVSPropertyOp4
 70
     1
102
RTVSPropertyOp5
 70
     1
102
RTVSPropertyOp6
 70
     1
102
RTVSPropertyOp7
 70
     1
102
RTVSPropertyOp8
 70
     1
102
RTVSPropertyOp9
 70
     1
102
RTVSPropertyOp10
 70
     1
102
RTVSPropertyOp11
 70
     1
102
RTVSPropertyOp12
 70
     1
102
RTVSPropertyOp13
 70
     1
102
RTVSPropertyOp14
 70
     1
102
RTVSPropertyOp15
 70
     1
102
RTVSPropertyOp16
 70
     1
102
RTVSPropertyOp17
 70
     1
102
RTVSPropertyOp18
 70
     1
102
RTVSPropertyOp19
 70
     1
102
RTVSPropertyOp20
 70
     1
102
RTVSPropertyOp21
 70
     1
102
RTVSPropertyOp22
 70
     1
102
RTVSPropertyOp23
 70
     1
102
RTVSPropertyOp24
 70
     1
102
RTVSPropertyOp25
 70
     1
102
RTVSPropertyOp26
 70
     1
102
RTVSPropertyOp27
 70
     1
102
RTVSPropertyOp28
 70
     1
102
RTVSPropertyOp29
 70
     1
102
RTVSPropertyOp30
 70
     1
102
RTVSPropertyOp31
 70
     1
102
RTVSPropertyOp32
 70
     1
102
RTVSPropertyOp33
 70
     1
102
RTVSPropertyOp34
 70
     1
102
RTVSPropertyOp35
 70
     1
102
RTVSPropertyOp36
 70
     1
102
RTVSPropertyOp37
 70
     1
102
RTVSPropertyOp38
 70
     1
102
RTVSPropertyOp39
 70
     1
102
RTVSPropertyOp40
 70
     1
102
RTVSPropertyOp41
 70
     1
102
RTVSPropertyOp42
 70
     1
102
RTVSPropertyOp43
 70
     1
102
RTVSPropertyOp44
 70
     1
102
RTVSPropertyOp45
 70
     1
102
RTVSPropertyOp46
 70
     1
102
RTVSPropertyOp47
 70
     1
102
RTVSPropertyOp48
 70
     1
102
RTVSPropertyOp49
 70
     1
102
RTVSPropertyOp50
 70
     1
102
RTVSPropertyOp51
 70
     0
102
RTVSPropertyOp52
 70
     0
102
RTVSPropertyOp53
 70
     1
102
RTVSPropertyOp54
 70
     1
102
RTVSPropertyOp55
 70
     1
102
RTVSPropertyOp56
 70
     1
102
RTVSPropertyOp57
 70
     1
102
RTVSPost2010Prop28
280
     0
102
RTVSPost2010PropOp28
 70
     1
102
RTVSPost2010Prop29
280
     1
102
RTVSPost2010PropOp29
 70
     1
102
RTVSPost2010Prop30
280
     1
102
RTVSPost2010PropOp30
 70
     1
102
RTVSPost2010Prop31
280
     0
102
RTVSPost2010PropOp31
 70
     1
102
RTVSPost2010Prop32
280
     0
102
RTVSPost2010PropOp32
 70
     1
102
RTVSPost2010Prop33
280
     0
102
RTVSPost2010PropOp33
 70
     1
102
RTVSPost2010Prop34
280
     0
102
RTVSPost2010PropOp34
 70
     1
102
RTVSPost2010Prop35
280
     0
102
RTVSPost2010PropOp35
 70
     1
102
RTVSPost2010Prop36
280
     0
102
RTVSPost2010PropOp36
 70
     1
102
RTVSPost2010Prop37
 90
       50
102
RTVSPost2010PropOp37
 70
     1
102
RTVSPost2010Prop38
140
0.0
102
RTVSPost2010PropOp38
 70
     1
102
RTVSPost2010Prop39
140
1.0
102
RTVSPost2010PropOp39
 70
     1
102
RTVSPost2010Prop40
 90
        0
102
RTVSPost2010PropOp40
 70
     1
102
RTVSPost2010Prop41ColorIndex
 90
       18
102
RTVSPost2010Prop41ColorRGB
 90
        0
102
RTVSPost2010PropOp41
 70
     1
102
RTVSPost2010Prop42
 90
       50
102
RTVSPost2010PropOp42
 70
     1
102
RTVSPost2010Prop43
 90
        3
102
RTVSPost2010PropOp43
 70
     1
102
RTVSPost2010Prop44ColorIndex
 90
        5
102
RTVSPost2010Prop44ColorRGB
 90
      255
102
RTVSPost2010PropOp44
 70
     1
102
RTVSPost2010Prop45
280
     0
102
RTVSPost2010PropOp45
 70
     1
102
RTVSPost2010Prop46
 90
       50
102
RTVSPost2010PropOp46
 70
     1
102
RTVSPost2010Prop47
 90
       50
102
RTVSPost2010PropOp47
 70
     1
102
RTVSPost2010Prop48
 90
       50
102
RTVSPost2010PropOp48
 70
     1
102
RTVSPost2010Prop49
280
     0
102
RTVSPost2010PropOp49
 70
     1
102
RTVSPost2010Prop50
 90
       50
102
RTVSPost2010PropOp50
 70
     1
102
RTVSPost2010Prop51ColorIndex
 90
      256
102
RTVSPost2010Prop51ColorRGB
 90
-16777216
102
RTVSPost2010PropOp51
 70
     0
102
RTVSPost2010Prop52
140
1.0
102
RTVSPost2010PropOp52
 70
     0
102
RTVSPost2010Prop53
 90
        2
102
RTVSPost2010PropOp53
 70
     1
102
RTVSPost2010Prop54
  1
strokes_ogs.tif
102
RTVSPost2010PropOp54
 70
     1
102
RTVSPost2010Prop55
280
     0
102
RTVSPost2010PropOp55
 70
     1
102
RTVSPost2010Prop56
140
1.0
102
RTVSPost2010PropOp56
 70
     1
102
RTVSPost2010Prop57
140
1.0
102
RTVSPost2010PropOp57
 70
     1
  0
XRECORD
  5
911
102
{ACAD_REACTORS
330
910
102
}
330
910
100
AcDbXrecord
280
     1
102
RTVSPropertyOp0
 70
     1
102
RTVSPropertyOp1
 70
     1
102
RTVSPropertyOp2
 70
     1
102
RTVSPropertyOp3
 70
     1
102
RTVSPropertyOp4
 70
     1
102
RTVSPropertyOp5
 70
     1
102
RTVSPropertyOp6
 70
     1
102
RTVSPropertyOp7
 70
     1
102
RTVSPropertyOp8
 70
     1
102
RTVSPropertyOp9
 70
     1
102
RTVSPropertyOp10
 70
     1
102
RTVSPropertyOp11
 70
     1
102
RTVSPropertyOp12
 70
     1
102
RTVSPropertyOp13
 70
     1
102
RTVSPropertyOp14
 70
     1
102
RTVSPropertyOp15
 70
     1
102
RTVSPropertyOp16
 70
     1
102
RTVSPropertyOp17
 70
     1
102
RTVSPropertyOp18
 70
     1
102
RTVSPropertyOp19
 70
     1
102
RTVSPropertyOp20
 70
     1
102
RTVSPropertyOp21
 70
     1
102
RTVSPropertyOp22
 70
     1
102
RTVSPropertyOp23
 70
     1
102
RTVSPropertyOp24
 70
     1
102
RTVSPropertyOp25
 70
     1
102
RTVSPropertyOp26
 70
     1
102
RTVSPropertyOp27
 70
     1
102
RTVSPropertyOp28
 70
     1
102
RTVSPropertyOp29
 70
     1
102
RTVSPropertyOp30
 70
     1
102
RTVSPropertyOp31
 70
     1
102
RTVSPropertyOp32
 70
     1
102
RTVSPropertyOp33
 70
     1
102
RTVSPropertyOp34
 70
     1
102
RTVSPropertyOp35
 70
     1
102
RTVSPropertyOp36
 70
     1
102
RTVSPropertyOp37
 70
     1
102
RTVSPropertyOp38
 70
     1
102
RTVSPropertyOp39
 70
     1
102
RTVSPropertyOp40
 70
     1
102
RTVSPropertyOp41
 70
     1
102
RTVSPropertyOp42
 70
     1
102
RTVSPropertyOp43
 70
     1
102
RTVSPropertyOp44
 70
     1
102
RTVSPropertyOp45
 70
     1
102
RTVSPropertyOp46
 70
     1
102
RTVSPropertyOp47
 70
     1
102
RTVSPropertyOp48
 70
     1
102
RTVSPropertyOp49
 70
     1
102
RTVSPropertyOp50
 70
     1
102
RTVSPropertyOp51
 70
     0
102
RTVSPropertyOp52
 70
     0
102
RTVSPropertyOp53
 70
     1
102
RTVSPropertyOp54
 70
     1
102
RTVSPropertyOp55
 70
     1
102
RTVSPropertyOp56
 70
     1
102
RTVSPropertyOp57
 70
     1
102
RTVSPost2010Prop28
280
     0
102
RTVSPost2010PropOp28
 70
     1
102
RTVSPost2010Prop29
280
     1
102
RTVSPost2010PropOp29
 70
     1
102
RTVSPost2010Prop30
280
     1
102
RTVSPost2010PropOp30
 70
     1
102
RTVSPost2010Prop31
280
     0
102
RTVSPost2010PropOp31
 70
     1
102
RTVSPost2010Prop32
280
     0
102
RTVSPost2010PropOp32
 70
     1
102
RTVSPost2010Prop33
280
     0
102
RTVSPost2010PropOp33
 70
     1
102
RTVSPost2010Prop34
280
     0
102
RTVSPost2010PropOp34
 70
     1
102
RTVSPost2010Prop35
280
     0
102
RTVSPost2010PropOp35
 70
     1
102
RTVSPost2010Prop36
280
     0
102
RTVSPost2010PropOp36
 70
     1
102
RTVSPost2010Prop37
 90
       50
102
RTVSPost2010PropOp37
 70
     1
102
RTVSPost2010Prop38
140
0.0
102
RTVSPost2010PropOp38
 70
     1
102
RTVSPost2010Prop39
140
1.0
102
RTVSPost2010PropOp39
 70
     1
102
RTVSPost2010Prop40
 90
        0
102
RTVSPost2010PropOp40
 70
     1
102
RTVSPost2010Prop41ColorIndex
 90
       18
102
RTVSPost2010Prop41ColorRGB
 90
        0
102
RTVSPost2010PropOp41
 70
     1
102
RTVSPost2010Prop42
 90
       50
102
RTVSPost2010PropOp42
 70
     1
102
RTVSPost2010Prop43
 90
        3
102
RTVSPost2010PropOp43
 70
     1
102
RTVSPost2010Prop44ColorIndex
 90
        5
102
RTVSPost2010Prop44ColorRGB
 90
      255
102
RTVSPost2010PropOp44
 70
     1
102
RTVSPost2010Prop45
280
     0
102
RTVSPost2010PropOp45
 70
     1
102
RTVSPost2010Prop46
 90
       50
102
RTVSPost2010PropOp46
 70
     1
102
RTVSPost2010Prop47
 90
       50
102
RTVSPost2010PropOp47
 70
     1
102
RTVSPost2010Prop48
 90
       50
102
RTVSPost2010PropOp48
 70
     1
102
RTVSPost2010Prop49
280
     0
102
RTVSPost2010PropOp49
 70
     1
102
RTVSPost2010Prop50
 90
       50
102
RTVSPost2010PropOp50
 70
     1
102
RTVSPost2010Prop51ColorIndex
 90
      256
102
RTVSPost2010Prop51ColorRGB
 90
-16777216
102
RTVSPost2010PropOp51
 70
     0
102
RTVSPost2010Prop52
140
1.0
102
RTVSPost2010PropOp52
 70
     0
102
RTVSPost2010Prop53
 90
        2
102
RTVSPost2010PropOp53
 70
     1
102
RTVSPost2010Prop54
  1
strokes_ogs.tif
102
RTVSPost2010PropOp54
 70
     1
102
RTVSPost2010Prop55
280
     0
102
RTVSPost2010PropOp55
 70
     1
102
RTVSPost2010Prop56
140
1.0
102
RTVSPost2010PropOp56
 70
     1
102
RTVSPost2010Prop57
140
1.0
102
RTVSPost2010PropOp57
 70
     1
  0
XRECORD
  5
913
102
{ACAD_REACTORS
330
912
102
}
330
912
100
AcDbXrecord
280
     1
102
RTVSPropertyOp0
 70
     1
102
RTVSPropertyOp1
 70
     1
102
RTVSPropertyOp2
 70
     1
102
RTVSPropertyOp3
 70
     1
102
RTVSPropertyOp4
 70
     1
102
RTVSPropertyOp5
 70
     1
102
RTVSPropertyOp6
 70
     1
102
RTVSPropertyOp7
 70
     1
102
RTVSPropertyOp8
 70
     1
102
RTVSPropertyOp9
 70
     1
102
RTVSPropertyOp10
 70
     1
102
RTVSPropertyOp11
 70
     1
102
RTVSPropertyOp12
 70
     1
102
RTVSPropertyOp13
 70
     1
102
RTVSPropertyOp14
 70
     1
102
RTVSPropertyOp15
 70
     1
102
RTVSPropertyOp16
 70
     1
102
RTVSPropertyOp17
 70
     1
102
RTVSPropertyOp18
 70
     1
102
RTVSPropertyOp19
 70
     1
102
RTVSPropertyOp20
 70
     1
102
RTVSPropertyOp21
 70
     1
102
RTVSPropertyOp22
 70
     1
102
RTVSPropertyOp23
 70
     1
102
RTVSPropertyOp24
 70
     1
102
RTVSPropertyOp25
 70
     1
102
RTVSPropertyOp26
 70
     1
102
RTVSPropertyOp27
 70
     1
102
RTVSPropertyOp28
 70
     1
102
RTVSPropertyOp29
 70
     1
102
RTVSPropertyOp30
 70
     1
102
RTVSPropertyOp31
 70
     1
102
RTVSPropertyOp32
 70
     1
102
RTVSPropertyOp33
 70
     1
102
RTVSPropertyOp34
 70
     1
102
RTVSPropertyOp35
 70
     1
102
RTVSPropertyOp36
 70
     1
102
RTVSPropertyOp37
 70
     1
102
RTVSPropertyOp38
 70
     1
102
RTVSPropertyOp39
 70
     1
102
RTVSPropertyOp40
 70
     1
102
RTVSPropertyOp41
 70
     1
102
RTVSPropertyOp42
 70
     1
102
RTVSPropertyOp43
 70
     1
102
RTVSPropertyOp44
 70
     1
102
RTVSPropertyOp45
 70
     1
102
RTVSPropertyOp46
 70
     1
102
RTVSPropertyOp47
 70
     1
102
RTVSPropertyOp48
 70
     1
102
RTVSPropertyOp49
 70
     1
102
RTVSPropertyOp50
 70
     1
102
RTVSPropertyOp51
 70
     0
102
RTVSPropertyOp52
 70
     0
102
RTVSPropertyOp53
 70
     1
102
RTVSPropertyOp54
 70
     1
102
RTVSPropertyOp55
 70
     1
102
RTVSPropertyOp56
 70
     1
102
RTVSPropertyOp57
 70
     1
102
RTVSPost2010Prop28
280
     0
102
RTVSPost2010PropOp28
 70
     1
102
RTVSPost2010Prop29
280
     1
102
RTVSPost2010PropOp29
 70
     1
102
RTVSPost2010Prop30
280
     1
102
RTVSPost2010PropOp30
 70
     1
102
RTVSPost2010Prop31
280
     0
102
RTVSPost2010PropOp31
 70
     1
102
RTVSPost2010Prop32
280
     0
102
RTVSPost2010PropOp32
 70
     1
102
RTVSPost2010Prop33
280
     0
102
RTVSPost2010PropOp33
 70
     1
102
RTVSPost2010Prop34
280
     0
102
RTVSPost2010PropOp34
 70
     1
102
RTVSPost2010Prop35
280
     0
102
RTVSPost2010PropOp35
 70
     1
102
RTVSPost2010Prop36
280
     0
102
RTVSPost2010PropOp36
 70
     1
102
RTVSPost2010Prop37
 90
       50
102
RTVSPost2010PropOp37
 70
     1
102
RTVSPost2010Prop38
140
0.0
102
RTVSPost2010PropOp38
 70
     1
102
RTVSPost2010Prop39
140
1.0
102
RTVSPost2010PropOp39
 70
     1
102
RTVSPost2010Prop40
 90
        0
102
RTVSPost2010PropOp40
 70
     1
102
RTVSPost2010Prop41ColorIndex
 90
       18
102
RTVSPost2010Prop41ColorRGB
 90
        0
102
RTVSPost2010PropOp41
 70
     1
102
RTVSPost2010Prop42
 90
       50
102
RTVSPost2010PropOp42
 70
     1
102
RTVSPost2010Prop43
 90
        3
102
RTVSPost2010PropOp43
 70
     1
102
RTVSPost2010Prop44ColorIndex
 90
        5
102
RTVSPost2010Prop44ColorRGB
 90
      255
102
RTVSPost2010PropOp44
 70
     1
102
RTVSPost2010Prop45
280
     0
102
RTVSPost2010PropOp45
 70
     1
102
RTVSPost2010Prop46
 90
       50
102
RTVSPost2010PropOp46
 70
     1
102
RTVSPost2010Prop47
 90
       50
102
RTVSPost2010PropOp47
 70
     1
102
RTVSPost2010Prop48
 90
       50
102
RTVSPost2010PropOp48
 70
     1
102
RTVSPost2010Prop49
280
     0
102
RTVSPost2010PropOp49
 70
     1
102
RTVSPost2010Prop50
 90
       50
102
RTVSPost2010PropOp50
 70
     1
102
RTVSPost2010Prop51ColorIndex
 90
      256
102
RTVSPost2010Prop51ColorRGB
 90
-16777216
102
RTVSPost2010PropOp51
 70
     0
102
RTVSPost2010Prop52
140
1.0
102
RTVSPost2010PropOp52
 70
     0
102
RTVSPost2010Prop53
 90
        2
102
RTVSPost2010PropOp53
 70
     1
102
RTVSPost2010Prop54
  1
strokes_ogs.tif
102
RTVSPost2010PropOp54
 70
     1
102
RTVSPost2010Prop55
280
     0
102
RTVSPost2010PropOp55
 70
     1
102
RTVSPost2010Prop56
140
1.0
102
RTVSPost2010PropOp56
 70
     1
102
RTVSPost2010Prop57
140
1.0
102
RTVSPost2010PropOp57
 70
     1
  0
XRECORD
  5
923
102
{ACAD_REACTORS
330
922
102
}
330
922
100
AcDbXrecord
280
     1
102
RTVSPropertyOp0
 70
     0
102
RTVSPropertyOp1
 70
     0
102
RTVSPropertyOp2
 70
     0
102
RTVSPropertyOp3
 70
     0
102
RTVSPropertyOp4
 70
     0
102
RTVSPropertyOp5
 70
     0
102
RTVSPropertyOp6
 70
     0
102
RTVSPropertyOp7
 70
     0
102
RTVSPropertyOp8
 70
     0
102
RTVSPropertyOp9
 70
     0
102
RTVSPropertyOp10
 70
     0
102
RTVSPropertyOp11
 70
     0
102
RTVSPropertyOp12
 70
     0
102
RTVSPropertyOp13
 70
     0
102
RTVSPropertyOp14
 70
     2
102
RTVSPropertyOp15
 70
     0
102
RTVSPropertyOp16
 70
     0
102
RTVSPropertyOp17
 70
     0
102
RTVSPropertyOp18
 70
     0
102
RTVSPropertyOp19
 70
     0
102
RTVSPropertyOp20
 70
     0
102
RTVSPropertyOp21
 70
     0
102
RTVSPropertyOp22
 70
     0
102
RTVSPropertyOp23
 70
     0
102
RTVSPropertyOp24
 70
     0
102
RTVSPropertyOp25
 70
     0
102
RTVSPropertyOp26
 70
     0
102
RTVSPropertyOp27
 70
     0
102
RTVSPropertyOp28
 70
     0
102
RTVSPropertyOp29
 70
     0
102
RTVSPropertyOp30
 70
     0
102
RTVSPropertyOp31
 70
     0
102
RTVSPropertyOp32
 70
     0
102
RTVSPropertyOp33
 70
     0
102
RTVSPropertyOp34
 70
     0
102
RTVSPropertyOp35
 70
     0
102
RTVSPropertyOp36
 70
     0
102
RTVSPropertyOp37
 70
     0
102
RTVSPropertyOp38
 70
     0
102
RTVSPropertyOp39
 70
     0
102
RTVSPropertyOp40
 70
     0
102
RTVSPropertyOp41
 70
     0
102
RTVSPropertyOp42
 70
     0
102
RTVSPropertyOp43
 70
     0
102
RTVSPropertyOp44
 70
     0
102
RTVSPropertyOp45
 70
     0
102
RTVSPropertyOp46
 70
     0
102
RTVSPropertyOp47
 70
     0
102
RTVSPropertyOp48
 70
     0
102
RTVSPropertyOp49
 70
     0
102
RTVSPropertyOp50
 70
     0
102
RTVSPropertyOp51
 70
     0
102
RTVSPropertyOp52
 70
     0
102
RTVSPropertyOp53
 70
     0
102
RTVSPropertyOp54
 70
     0
102
RTVSPropertyOp55
 70
     0
102
RTVSPropertyOp56
 70
     0
102
RTVSPropertyOp57
 70
     0
102
RTVSPost2010Prop28
280
     0
102
RTVSPost2010PropOp28
 70
     0
102
RTVSPost2010Prop29
280
     1
102
RTVSPost2010PropOp29
 70
     0
102
RTVSPost2010Prop30
280
     1
102
RTVSPost2010PropOp30
 70
     0
102
RTVSPost2010Prop31
280
     0
102
RTVSPost2010PropOp31
 70
     0
102
RTVSPost2010Prop32
280
     0
102
RTVSPost2010PropOp32
 70
     0
102
RTVSPost2010Prop33
280
     0
102
RTVSPost2010PropOp33
 70
     0
102
RTVSPost2010Prop34
280
     0
102
RTVSPost2010PropOp34
 70
     0
102
RTVSPost2010Prop35
280
     0
102
RTVSPost2010PropOp35
 70
     0
102
RTVSPost2010Prop36
280
     0
102
RTVSPost2010PropOp36
 70
     0
102
RTVSPost2010Prop37
 90
       50
102
RTVSPost2010PropOp37
 70
     0
102
RTVSPost2010Prop38
140
0.0
102
RTVSPost2010PropOp38
 70
     0
102
RTVSPost2010Prop39
140
1.0
102
RTVSPost2010PropOp39
 70
     0
102
RTVSPost2010Prop40
 90
        0
102
RTVSPost2010PropOp40
 70
     0
102
RTVSPost2010Prop41ColorIndex
 90
       18
102
RTVSPost2010Prop41ColorRGB
 90
        0
102
RTVSPost2010PropOp41
 70
     0
102
RTVSPost2010Prop42
 90
       50
102
RTVSPost2010PropOp42
 70
     0
102
RTVSPost2010Prop43
 90
        3
102
RTVSPost2010PropOp43
 70
     0
102
RTVSPost2010Prop44ColorIndex
 90
        5
102
RTVSPost2010Prop44ColorRGB
 90
      255
102
RTVSPost2010PropOp44
 70
     0
102
RTVSPost2010Prop45
280
     0
102
RTVSPost2010PropOp45
 70
     0
102
RTVSPost2010Prop46
 90
       50
102
RTVSPost2010PropOp46
 70
     0
102
RTVSPost2010Prop47
 90
       50
102
RTVSPost2010PropOp47
 70
     0
102
RTVSPost2010Prop48
 90
       50
102
RTVSPost2010PropOp48
 70
     0
102
RTVSPost2010Prop49
280
     0
102
RTVSPost2010PropOp49
 70
     0
102
RTVSPost2010Prop50
 90
       50
102
RTVSPost2010PropOp50
 70
     0
102
RTVSPost2010Prop51ColorIndex
 90
      256
102
RTVSPost2010Prop51ColorRGB
 90
-16777216
102
RTVSPost2010PropOp51
 70
     0
102
RTVSPost2010Prop52
140
1.0
102
RTVSPost2010PropOp52
 70
     0
102
RTVSPost2010Prop53
 90
        2
102
RTVSPost2010PropOp53
 70
     0
102
RTVSPost2010Prop54
  1
strokes_ogs.tif
102
RTVSPost2010PropOp54
 70
     0
102
RTVSPost2010Prop55
280
     0
102
RTVSPost2010PropOp55
 70
     0
102
RTVSPost2010Prop56
140
1.0
102
RTVSPost2010PropOp56
 70
     0
102
RTVSPost2010Prop57
140
1.0
102
RTVSPost2010PropOp57
 70
     0
  0
XRECORD
  5
91B
102
{ACAD_REACTORS
330
91A
102
}
330
91A
100
AcDbXrecord
280
     1
102
RTVSPropertyOp0
 70
     1
102
RTVSPropertyOp1
 70
     1
102
RTVSPropertyOp2
 70
     1
102
RTVSPropertyOp3
 70
     1
102
RTVSPropertyOp4
 70
     1
102
RTVSPropertyOp5
 70
     1
102
RTVSPropertyOp6
 70
     1
102
RTVSPropertyOp7
 70
     1
102
RTVSPropertyOp8
 70
     1
102
RTVSPropertyOp9
 70
     1
102
RTVSPropertyOp10
 70
     1
102
RTVSPropertyOp11
 70
     1
102
RTVSPropertyOp12
 70
     1
102
RTVSPropertyOp13
 70
     1
102
RTVSPropertyOp14
 70
     1
102
RTVSPropertyOp15
 70
     1
102
RTVSPropertyOp16
 70
     1
102
RTVSPropertyOp17
 70
     1
102
RTVSPropertyOp18
 70
     1
102
RTVSPropertyOp19
 70
     1
102
RTVSPropertyOp20
 70
     1
102
RTVSPropertyOp21
 70
     1
102
RTVSPropertyOp22
 70
     1
102
RTVSPropertyOp23
 70
     1
102
RTVSPropertyOp24
 70
     1
102
RTVSPropertyOp25
 70
     1
102
RTVSPropertyOp26
 70
     1
102
RTVSPropertyOp27
 70
     1
102
RTVSPropertyOp28
 70
     1
102
RTVSPropertyOp29
 70
     1
102
RTVSPropertyOp30
 70
     1
102
RTVSPropertyOp31
 70
     1
102
RTVSPropertyOp32
 70
     1
102
RTVSPropertyOp33
 70
     1
102
RTVSPropertyOp34
 70
     1
102
RTVSPropertyOp35
 70
     1
102
RTVSPropertyOp36
 70
     1
102
RTVSPropertyOp37
 70
     1
102
RTVSPropertyOp38
 70
     1
102
RTVSPropertyOp39
 70
     1
102
RTVSPropertyOp40
 70
     1
102
RTVSPropertyOp41
 70
     1
102
RTVSPropertyOp42
 70
     1
102
RTVSPropertyOp43
 70
     1
102
RTVSPropertyOp44
 70
     1
102
RTVSPropertyOp45
 70
     1
102
RTVSPropertyOp46
 70
     1
102
RTVSPropertyOp47
 70
     1
102
RTVSPropertyOp48
 70
     1
102
RTVSPropertyOp49
 70
     1
102
RTVSPropertyOp50
 70
     1
102
RTVSPropertyOp51
 70
     0
102
RTVSPropertyOp52
 70
     0
102
RTVSPropertyOp53
 70
     1
102
RTVSPropertyOp54
 70
     1
102
RTVSPropertyOp55
 70
     1
102
RTVSPropertyOp56
 70
     1
102
RTVSPropertyOp57
 70
     1
102
RTVSPost2010Prop28
280
     0
102
RTVSPost2010PropOp28
 70
     1
102
RTVSPost2010Prop29
280
     1
102
RTVSPost2010PropOp29
 70
     1
102
RTVSPost2010Prop30
280
     1
102
RTVSPost2010PropOp30
 70
     1
102
RTVSPost2010Prop31
280
     0
102
RTVSPost2010PropOp31
 70
     1
102
RTVSPost2010Prop32
280
     0
102
RTVSPost2010PropOp32
 70
     1
102
RTVSPost2010Prop33
280
     0
102
RTVSPost2010PropOp33
 70
     1
102
RTVSPost2010Prop34
280
     0
102
RTVSPost2010PropOp34
 70
     1
102
RTVSPost2010Prop35
280
     0
102
RTVSPost2010PropOp35
 70
     1
102
RTVSPost2010Prop36
280
     0
102
RTVSPost2010PropOp36
 70
     1
102
RTVSPost2010Prop37
 90
       50
102
RTVSPost2010PropOp37
 70
     1
102
RTVSPost2010Prop38
140
0.0
102
RTVSPost2010PropOp38
 70
     1
102
RTVSPost2010Prop39
140
1.0
102
RTVSPost2010PropOp39
 70
     1
102
RTVSPost2010Prop40
 90
        0
102
RTVSPost2010PropOp40
 70
     1
102
RTVSPost2010Prop41ColorIndex
 90
       18
102
RTVSPost2010Prop41ColorRGB
 90
        0
102
RTVSPost2010PropOp41
 70
     1
102
RTVSPost2010Prop42
 90
       50
102
RTVSPost2010PropOp42
 70
     1
102
RTVSPost2010Prop43
 90
        3
102
RTVSPost2010PropOp43
 70
     1
102
RTVSPost2010Prop44ColorIndex
 90
        5
102
RTVSPost2010Prop44ColorRGB
 90
      255
102
RTVSPost2010PropOp44
 70
     1
102
RTVSPost2010Prop45
280
     0
102
RTVSPost2010PropOp45
 70
     1
102
RTVSPost2010Prop46
 90
       50
102
RTVSPost2010PropOp46
 70
     1
102
RTVSPost2010Prop47
 90
       50
102
RTVSPost2010PropOp47
 70
     1
102
RTVSPost2010Prop48
 90
       50
102
RTVSPost2010PropOp48
 70
     1
102
RTVSPost2010Prop49
280
     0
102
RTVSPost2010PropOp49
 70
     1
102
RTVSPost2010Prop50
 90
       50
102
RTVSPost2010PropOp50
 70
     1
102
RTVSPost2010Prop51ColorIndex
 90
      256
102
RTVSPost2010Prop51ColorRGB
 90
-16777216
102
RTVSPost2010PropOp51
 70
     0
102
RTVSPost2010Prop52
140
1.0
102
RTVSPost2010PropOp52
 70
     0
102
RTVSPost2010Prop53
 90
        2
102
RTVSPost2010PropOp53
 70
     1
102
RTVSPost2010Prop54
  1
strokes_ogs.tif
102
RTVSPost2010PropOp54
 70
     1
102
RTVSPost2010Prop55
280
     0
102
RTVSPost2010PropOp55
 70
     1
102
RTVSPost2010Prop56
140
1.0
102
RTVSPost2010PropOp56
 70
     1
102
RTVSPost2010Prop57
140
1.0
102
RTVSPost2010PropOp57
 70
     1
  0
XRECORD
  5
8FF
102
{ACAD_REACTORS
330
8FE
102
}
330
8FE
100
AcDbXrecord
280
     1
102
RTVSPropertyOp0
 70
     1
102
RTVSPropertyOp1
 70
     1
102
RTVSPropertyOp2
 70
     1
102
RTVSPropertyOp3
 70
     1
102
RTVSPropertyOp4
 70
     1
102
RTVSPropertyOp5
 70
     1
102
RTVSPropertyOp6
 70
     1
102
RTVSPropertyOp7
 70
     1
102
RTVSPropertyOp8
 70
     1
102
RTVSPropertyOp9
 70
     1
102
RTVSPropertyOp10
 70
     1
102
RTVSPropertyOp11
 70
     1
102
RTVSPropertyOp12
 70
     1
102
RTVSPropertyOp13
 70
     1
102
RTVSPropertyOp14
 70
     1
102
RTVSPropertyOp15
 70
     1
102
RTVSPropertyOp16
 70
     1
102
RTVSPropertyOp17
 70
     1
102
RTVSPropertyOp18
 70
     1
102
RTVSPropertyOp19
 70
     1
102
RTVSPropertyOp20
 70
     1
102
RTVSPropertyOp21
 70
     1
102
RTVSPropertyOp22
 70
     1
102
RTVSPropertyOp23
 70
     1
102
RTVSPropertyOp24
 70
     1
102
RTVSPropertyOp25
 70
     1
102
RTVSPropertyOp26
 70
     1
102
RTVSPropertyOp27
 70
     1
102
RTVSPropertyOp28
 70
     1
102
RTVSPropertyOp29
 70
     1
102
RTVSPropertyOp30
 70
     1
102
RTVSPropertyOp31
 70
     1
102
RTVSPropertyOp32
 70
     1
102
RTVSPropertyOp33
 70
     1
102
RTVSPropertyOp34
 70
     1
102
RTVSPropertyOp35
 70
     1
102
RTVSPropertyOp36
 70
     1
102
RTVSPropertyOp37
 70
     1
102
RTVSPropertyOp38
 70
     1
102
RTVSPropertyOp39
 70
     1
102
RTVSPropertyOp40
 70
     1
102
RTVSPropertyOp41
 70
     1
102
RTVSPropertyOp42
 70
     1
102
RTVSPropertyOp43
 70
     1
102
RTVSPropertyOp44
 70
     1
102
RTVSPropertyOp45
 70
     1
102
RTVSPropertyOp46
 70
     1
102
RTVSPropertyOp47
 70
     1
102
RTVSPropertyOp48
 70
     1
102
RTVSPropertyOp49
 70
     1
102
RTVSPropertyOp50
 70
     1
102
RTVSPropertyOp51
 70
     0
102
RTVSPropertyOp52
 70
     0
102
RTVSPropertyOp53
 70
     1
102
RTVSPropertyOp54
 70
     1
102
RTVSPropertyOp55
 70
     1
102
RTVSPropertyOp56
 70
     1
102
RTVSPropertyOp57
 70
     1
102
RTVSPost2010Prop28
280
     0
102
RTVSPost2010PropOp28
 70
     1
102
RTVSPost2010Prop29
280
     1
102
RTVSPost2010PropOp29
 70
     1
102
RTVSPost2010Prop30
280
     1
102
RTVSPost2010PropOp30
 70
     1
102
RTVSPost2010Prop31
280
     0
102
RTVSPost2010PropOp31
 70
     1
102
RTVSPost2010Prop32
280
     0
102
RTVSPost2010PropOp32
 70
     1
102
RTVSPost2010Prop33
280
     0
102
RTVSPost2010PropOp33
 70
     1
102
RTVSPost2010Prop34
280
     0
102
RTVSPost2010PropOp34
 70
     1
102
RTVSPost2010Prop35
280
     0
102
RTVSPost2010PropOp35
 70
     1
102
RTVSPost2010Prop36
280
     0
102
RTVSPost2010PropOp36
 70
     1
102
RTVSPost2010Prop37
 90
       50
102
RTVSPost2010PropOp37
 70
     1
102
RTVSPost2010Prop38
140
0.0
102
RTVSPost2010PropOp38
 70
     1
102
RTVSPost2010Prop39
140
1.0
102
RTVSPost2010PropOp39
 70
     1
102
RTVSPost2010Prop40
 90
        0
102
RTVSPost2010PropOp40
 70
     1
102
RTVSPost2010Prop41ColorIndex
 90
       18
102
RTVSPost2010Prop41ColorRGB
 90
        0
102
RTVSPost2010PropOp41
 70
     1
102
RTVSPost2010Prop42
 90
       50
102
RTVSPost2010PropOp42
 70
     1
102
RTVSPost2010Prop43
 90
        3
102
RTVSPost2010PropOp43
 70
     1
102
RTVSPost2010Prop44ColorIndex
 90
        5
102
RTVSPost2010Prop44ColorRGB
 90
      255
102
RTVSPost2010PropOp44
 70
     1
102
RTVSPost2010Prop45
280
     0
102
RTVSPost2010PropOp45
 70
     1
102
RTVSPost2010Prop46
 90
       50
102
RTVSPost2010PropOp46
 70
     1
102
RTVSPost2010Prop47
 90
       50
102
RTVSPost2010PropOp47
 70
     1
102
RTVSPost2010Prop48
 90
       50
102
RTVSPost2010PropOp48
 70
     1
102
RTVSPost2010Prop49
280
     0
102
RTVSPost2010PropOp49
 70
     1
102
RTVSPost2010Prop50
 90
       50
102
RTVSPost2010PropOp50
 70
     1
102
RTVSPost2010Prop51ColorIndex
 90
      256
102
RTVSPost2010Prop51ColorRGB
 90
-16777216
102
RTVSPost2010PropOp51
 70
     0
102
RTVSPost2010Prop52
140
1.0
102
RTVSPost2010PropOp52
 70
     0
102
RTVSPost2010Prop53
 90
        2
102
RTVSPost2010PropOp53
 70
     1
102
RTVSPost2010Prop54
  1
strokes_ogs.tif
102
RTVSPost2010PropOp54
 70
     1
102
RTVSPost2010Prop55
280
     0
102
RTVSPost2010PropOp55
 70
     1
102
RTVSPost2010Prop56
140
1.0
102
RTVSPost2010PropOp56
 70
     1
102
RTVSPost2010Prop57
140
1.0
102
RTVSPost2010PropOp57
 70
     1
  0
XRECORD
  5
901
102
{ACAD_REACTORS
330
900
102
}
330
900
100
AcDbXrecord
280
     1
102
RTVSPropertyOp0
 70
     1
102
RTVSPropertyOp1
 70
     1
102
RTVSPropertyOp2
 70
     1
102
RTVSPropertyOp3
 70
     1
102
RTVSPropertyOp4
 70
     1
102
RTVSPropertyOp5
 70
     1
102
RTVSPropertyOp6
 70
     1
102
RTVSPropertyOp7
 70
     1
102
RTVSPropertyOp8
 70
     1
102
RTVSPropertyOp9
 70
     1
102
RTVSPropertyOp10
 70
     1
102
RTVSPropertyOp11
 70
     1
102
RTVSPropertyOp12
 70
     1
102
RTVSPropertyOp13
 70
     1
102
RTVSPropertyOp14
 70
     1
102
RTVSPropertyOp15
 70
     1
102
RTVSPropertyOp16
 70
     1
102
RTVSPropertyOp17
 70
     1
102
RTVSPropertyOp18
 70
     1
102
RTVSPropertyOp19
 70
     1
102
RTVSPropertyOp20
 70
     1
102
RTVSPropertyOp21
 70
     1
102
RTVSPropertyOp22
 70
     1
102
RTVSPropertyOp23
 70
     1
102
RTVSPropertyOp24
 70
     1
102
RTVSPropertyOp25
 70
     1
102
RTVSPropertyOp26
 70
     1
102
RTVSPropertyOp27
 70
     1
102
RTVSPropertyOp28
 70
     1
102
RTVSPropertyOp29
 70
     1
102
RTVSPropertyOp30
 70
     1
102
RTVSPropertyOp31
 70
     1
102
RTVSPropertyOp32
 70
     1
102
RTVSPropertyOp33
 70
     1
102
RTVSPropertyOp34
 70
     1
102
RTVSPropertyOp35
 70
     1
102
RTVSPropertyOp36
 70
     1
102
RTVSPropertyOp37
 70
     1
102
RTVSPropertyOp38
 70
     1
102
RTVSPropertyOp39
 70
     1
102
RTVSPropertyOp40
 70
     1
102
RTVSPropertyOp41
 70
     1
102
RTVSPropertyOp42
 70
     1
102
RTVSPropertyOp43
 70
     1
102
RTVSPropertyOp44
 70
     1
102
RTVSPropertyOp45
 70
     1
102
RTVSPropertyOp46
 70
     1
102
RTVSPropertyOp47
 70
     1
102
RTVSPropertyOp48
 70
     1
102
RTVSPropertyOp49
 70
     1
102
RTVSPropertyOp50
 70
     1
102
RTVSPropertyOp51
 70
     0
102
RTVSPropertyOp52
 70
     0
102
RTVSPropertyOp53
 70
     1
102
RTVSPropertyOp54
 70
     1
102
RTVSPropertyOp55
 70
     1
102
RTVSPropertyOp56
 70
     1
102
RTVSPropertyOp57
 70
     1
102
RTVSPost2010Prop28
280
     0
102
RTVSPost2010PropOp28
 70
     1
102
RTVSPost2010Prop29
280
     1
102
RTVSPost2010PropOp29
 70
     1
102
RTVSPost2010Prop30
280
     1
102
RTVSPost2010PropOp30
 70
     1
102
RTVSPost2010Prop31
280
     0
102
RTVSPost2010PropOp31
 70
     1
102
RTVSPost2010Prop32
280
     0
102
RTVSPost2010PropOp32
 70
     1
102
RTVSPost2010Prop33
280
     0
102
RTVSPost2010PropOp33
 70
     1
102
RTVSPost2010Prop34
280
     0
102
RTVSPost2010PropOp34
 70
     1
102
RTVSPost2010Prop35
280
     0
102
RTVSPost2010PropOp35
 70
     1
102
RTVSPost2010Prop36
280
     0
102
RTVSPost2010PropOp36
 70
     1
102
RTVSPost2010Prop37
 90
       50
102
RTVSPost2010PropOp37
 70
     1
102
RTVSPost2010Prop38
140
0.0
102
RTVSPost2010PropOp38
 70
     1
102
RTVSPost2010Prop39
140
1.0
102
RTVSPost2010PropOp39
 70
     1
102
RTVSPost2010Prop40
 90
        0
102
RTVSPost2010PropOp40
 70
     1
102
RTVSPost2010Prop41ColorIndex
 90
       18
102
RTVSPost2010Prop41ColorRGB
 90
        0
102
RTVSPost2010PropOp41
 70
     1
102
RTVSPost2010Prop42
 90
       50
102
RTVSPost2010PropOp42
 70
     1
102
RTVSPost2010Prop43
 90
        3
102
RTVSPost2010PropOp43
 70
     1
102
RTVSPost2010Prop44ColorIndex
 90
        5
102
RTVSPost2010Prop44ColorRGB
 90
      255
102
RTVSPost2010PropOp44
 70
     1
102
RTVSPost2010Prop45
280
     0
102
RTVSPost2010PropOp45
 70
     1
102
RTVSPost2010Prop46
 90
       50
102
RTVSPost2010PropOp46
 70
     1
102
RTVSPost2010Prop47
 90
       50
102
RTVSPost2010PropOp47
 70
     1
102
RTVSPost2010Prop48
 90
       50
102
RTVSPost2010PropOp48
 70
     1
102
RTVSPost2010Prop49
280
     0
102
RTVSPost2010PropOp49
 70
     1
102
RTVSPost2010Prop50
 90
       50
102
RTVSPost2010PropOp50
 70
     1
102
RTVSPost2010Prop51ColorIndex
 90
      256
102
RTVSPost2010Prop51ColorRGB
 90
-16777216
102
RTVSPost2010PropOp51
 70
     0
102
RTVSPost2010Prop52
140
1.0
102
RTVSPost2010PropOp52
 70
     0
102
RTVSPost2010Prop53
 90
        2
102
RTVSPost2010PropOp53
 70
     1
102
RTVSPost2010Prop54
  1
strokes_ogs.tif
102
RTVSPost2010PropOp54
 70
     1
102
RTVSPost2010Prop55
280
     0
102
RTVSPost2010PropOp55
 70
     1
102
RTVSPost2010Prop56
140
1.0
102
RTVSPost2010PropOp56
 70
     1
102
RTVSPost2010Prop57
140
1.0
102
RTVSPost2010PropOp57
 70
     1
  0
XRECORD
  5
903
102
{ACAD_REACTORS
330
902
102
}
330
902
100
AcDbXrecord
280
     1
102
RTVSPropertyOp0
 70
     1
102
RTVSPropertyOp1
 70
     1
102
RTVSPropertyOp2
 70
     1
102
RTVSPropertyOp3
 70
     1
102
RTVSPropertyOp4
 70
     1
102
RTVSPropertyOp5
 70
     1
102
RTVSPropertyOp6
 70
     1
102
RTVSPropertyOp7
 70
     1
102
RTVSPropertyOp8
 70
     1
102
RTVSPropertyOp9
 70
     1
102
RTVSPropertyOp10
 70
     1
102
RTVSPropertyOp11
 70
     1
102
RTVSPropertyOp12
 70
     1
102
RTVSPropertyOp13
 70
     1
102
RTVSPropertyOp14
 70
     1
102
RTVSPropertyOp15
 70
     1
102
RTVSPropertyOp16
 70
     1
102
RTVSPropertyOp17
 70
     1
102
RTVSPropertyOp18
 70
     1
102
RTVSPropertyOp19
 70
     1
102
RTVSPropertyOp20
 70
     1
102
RTVSPropertyOp21
 70
     1
102
RTVSPropertyOp22
 70
     1
102
RTVSPropertyOp23
 70
     1
102
RTVSPropertyOp24
 70
     1
102
RTVSPropertyOp25
 70
     1
102
RTVSPropertyOp26
 70
     1
102
RTVSPropertyOp27
 70
     1
102
RTVSPropertyOp28
 70
     1
102
RTVSPropertyOp29
 70
     1
102
RTVSPropertyOp30
 70
     1
102
RTVSPropertyOp31
 70
     1
102
RTVSPropertyOp32
 70
     1
102
RTVSPropertyOp33
 70
     1
102
RTVSPropertyOp34
 70
     1
102
RTVSPropertyOp35
 70
     1
102
RTVSPropertyOp36
 70
     1
102
RTVSPropertyOp37
 70
     1
102
RTVSPropertyOp38
 70
     1
102
RTVSPropertyOp39
 70
     1
102
RTVSPropertyOp40
 70
     1
102
RTVSPropertyOp41
 70
     1
102
RTVSPropertyOp42
 70
     1
102
RTVSPropertyOp43
 70
     1
102
RTVSPropertyOp44
 70
     1
102
RTVSPropertyOp45
 70
     1
102
RTVSPropertyOp46
 70
     1
102
RTVSPropertyOp47
 70
     1
102
RTVSPropertyOp48
 70
     1
102
RTVSPropertyOp49
 70
     1
102
RTVSPropertyOp50
 70
     1
102
RTVSPropertyOp51
 70
     0
102
RTVSPropertyOp52
 70
     0
102
RTVSPropertyOp53
 70
     1
102
RTVSPropertyOp54
 70
     1
102
RTVSPropertyOp55
 70
     1
102
RTVSPropertyOp56
 70
     1
102
RTVSPropertyOp57
 70
     1
102
RTVSPost2010Prop28
280
     0
102
RTVSPost2010PropOp28
 70
     1
102
RTVSPost2010Prop29
280
     1
102
RTVSPost2010PropOp29
 70
     1
102
RTVSPost2010Prop30
280
     1
102
RTVSPost2010PropOp30
 70
     1
102
RTVSPost2010Prop31
280
     0
102
RTVSPost2010PropOp31
 70
     1
102
RTVSPost2010Prop32
280
     0
102
RTVSPost2010PropOp32
 70
     1
102
RTVSPost2010Prop33
280
     0
102
RTVSPost2010PropOp33
 70
     1
102
RTVSPost2010Prop34
280
     0
102
RTVSPost2010PropOp34
 70
     1
102
RTVSPost2010Prop35
280
     0
102
RTVSPost2010PropOp35
 70
     1
102
RTVSPost2010Prop36
280
     0
102
RTVSPost2010PropOp36
 70
     1
102
RTVSPost2010Prop37
 90
       50
102
RTVSPost2010PropOp37
 70
     1
102
RTVSPost2010Prop38
140
0.0
102
RTVSPost2010PropOp38
 70
     1
102
RTVSPost2010Prop39
140
1.0
102
RTVSPost2010PropOp39
 70
     1
102
RTVSPost2010Prop40
 90
        0
102
RTVSPost2010PropOp40
 70
     1
102
RTVSPost2010Prop41ColorIndex
 90
       18
102
RTVSPost2010Prop41ColorRGB
 90
        0
102
RTVSPost2010PropOp41
 70
     1
102
RTVSPost2010Prop42
 90
       50
102
RTVSPost2010PropOp42
 70
     1
102
RTVSPost2010Prop43
 90
        3
102
RTVSPost2010PropOp43
 70
     1
102
RTVSPost2010Prop44ColorIndex
 90
        5
102
RTVSPost2010Prop44ColorRGB
 90
      255
102
RTVSPost2010PropOp44
 70
     1
102
RTVSPost2010Prop45
280
     0
102
RTVSPost2010PropOp45
 70
     1
102
RTVSPost2010Prop46
 90
       50
102
RTVSPost2010PropOp46
 70
     1
102
RTVSPost2010Prop47
 90
       50
102
RTVSPost2010PropOp47
 70
     1
102
RTVSPost2010Prop48
 90
       50
102
RTVSPost2010PropOp48
 70
     1
102
RTVSPost2010Prop49
280
     0
102
RTVSPost2010PropOp49
 70
     1
102
RTVSPost2010Prop50
 90
       50
102
RTVSPost2010PropOp50
 70
     1
102
RTVSPost2010Prop51ColorIndex
 90
      256
102
RTVSPost2010Prop51ColorRGB
 90
-16777216
102
RTVSPost2010PropOp51
 70
     0
102
RTVSPost2010Prop52
140
1.0
102
RTVSPost2010PropOp52
 70
     0
102
RTVSPost2010Prop53
 90
        2
102
RTVSPost2010PropOp53
 70
     1
102
RTVSPost2010Prop54
  1
strokes_ogs.tif
102
RTVSPost2010PropOp54
 70
     1
102
RTVSPost2010Prop55
280
     0
102
RTVSPost2010PropOp55
 70
     1
102
RTVSPost2010Prop56
140
1.0
102
RTVSPost2010PropOp56
 70
     1
102
RTVSPost2010Prop57
140
1.0
102
RTVSPost2010PropOp57
 70
     1
  0
XRECORD
  5
905
102
{ACAD_REACTORS
330
904
102
}
330
904
100
AcDbXrecord
280
     1
102
RTVSPropertyOp0
 70
     1
102
RTVSPropertyOp1
 70
     1
102
RTVSPropertyOp2
 70
     1
102
RTVSPropertyOp3
 70
     1
102
RTVSPropertyOp4
 70
     1
102
RTVSPropertyOp5
 70
     1
102
RTVSPropertyOp6
 70
     1
102
RTVSPropertyOp7
 70
     1
102
RTVSPropertyOp8
 70
     1
102
RTVSPropertyOp9
 70
     1
102
RTVSPropertyOp10
 70
     1
102
RTVSPropertyOp11
 70
     1
102
RTVSPropertyOp12
 70
     1
102
RTVSPropertyOp13
 70
     1
102
RTVSPropertyOp14
 70
     1
102
RTVSPropertyOp15
 70
     1
102
RTVSPropertyOp16
 70
     1
102
RTVSPropertyOp17
 70
     1
102
RTVSPropertyOp18
 70
     1
102
RTVSPropertyOp19
 70
     1
102
RTVSPropertyOp20
 70
     1
102
RTVSPropertyOp21
 70
     1
102
RTVSPropertyOp22
 70
     1
102
RTVSPropertyOp23
 70
     1
102
RTVSPropertyOp24
 70
     1
102
RTVSPropertyOp25
 70
     1
102
RTVSPropertyOp26
 70
     1
102
RTVSPropertyOp27
 70
     1
102
RTVSPropertyOp28
 70
     1
102
RTVSPropertyOp29
 70
     1
102
RTVSPropertyOp30
 70
     1
102
RTVSPropertyOp31
 70
     1
102
RTVSPropertyOp32
 70
     1
102
RTVSPropertyOp33
 70
     1
102
RTVSPropertyOp34
 70
     1
102
RTVSPropertyOp35
 70
     1
102
RTVSPropertyOp36
 70
     1
102
RTVSPropertyOp37
 70
     1
102
RTVSPropertyOp38
 70
     1
102
RTVSPropertyOp39
 70
     1
102
RTVSPropertyOp40
 70
     1
102
RTVSPropertyOp41
 70
     1
102
RTVSPropertyOp42
 70
     1
102
RTVSPropertyOp43
 70
     1
102
RTVSPropertyOp44
 70
     1
102
RTVSPropertyOp45
 70
     1
102
RTVSPropertyOp46
 70
     1
102
RTVSPropertyOp47
 70
     1
102
RTVSPropertyOp48
 70
     1
102
RTVSPropertyOp49
 70
     1
102
RTVSPropertyOp50
 70
     1
102
RTVSPropertyOp51
 70
     0
102
RTVSPropertyOp52
 70
     0
102
RTVSPropertyOp53
 70
     1
102
RTVSPropertyOp54
 70
     1
102
RTVSPropertyOp55
 70
     1
102
RTVSPropertyOp56
 70
     1
102
RTVSPropertyOp57
 70
     1
102
RTVSPost2010Prop28
280
     0
102
RTVSPost2010PropOp28
 70
     1
102
RTVSPost2010Prop29
280
     1
102
RTVSPost2010PropOp29
 70
     1
102
RTVSPost2010Prop30
280
     1
102
RTVSPost2010PropOp30
 70
     1
102
RTVSPost2010Prop31
280
     0
102
RTVSPost2010PropOp31
 70
     1
102
RTVSPost2010Prop32
280
     0
102
RTVSPost2010PropOp32
 70
     1
102
RTVSPost2010Prop33
280
     0
102
RTVSPost2010PropOp33
 70
     1
102
RTVSPost2010Prop34
280
     0
102
RTVSPost2010PropOp34
 70
     1
102
RTVSPost2010Prop35
280
     0
102
RTVSPost2010PropOp35
 70
     1
102
RTVSPost2010Prop36
280
     0
102
RTVSPost2010PropOp36
 70
     1
102
RTVSPost2010Prop37
 90
       50
102
RTVSPost2010PropOp37
 70
     1
102
RTVSPost2010Prop38
140
0.0
102
RTVSPost2010PropOp38
 70
     1
102
RTVSPost2010Prop39
140
1.0
102
RTVSPost2010PropOp39
 70
     1
102
RTVSPost2010Prop40
 90
        0
102
RTVSPost2010PropOp40
 70
     1
102
RTVSPost2010Prop41ColorIndex
 90
       18
102
RTVSPost2010Prop41ColorRGB
 90
        0
102
RTVSPost2010PropOp41
 70
     1
102
RTVSPost2010Prop42
 90
       50
102
RTVSPost2010PropOp42
 70
     1
102
RTVSPost2010Prop43
 90
        3
102
RTVSPost2010PropOp43
 70
     1
102
RTVSPost2010Prop44ColorIndex
 90
        5
102
RTVSPost2010Prop44ColorRGB
 90
      255
102
RTVSPost2010PropOp44
 70
     1
102
RTVSPost2010Prop45
280
     0
102
RTVSPost2010PropOp45
 70
     1
102
RTVSPost2010Prop46
 90
       50
102
RTVSPost2010PropOp46
 70
     1
102
RTVSPost2010Prop47
 90
       50
102
RTVSPost2010PropOp47
 70
     1
102
RTVSPost2010Prop48
 90
       50
102
RTVSPost2010PropOp48
 70
     1
102
RTVSPost2010Prop49
280
     0
102
RTVSPost2010PropOp49
 70
     1
102
RTVSPost2010Prop50
 90
       50
102
RTVSPost2010PropOp50
 70
     1
102
RTVSPost2010Prop51ColorIndex
 90
      256
102
RTVSPost2010Prop51ColorRGB
 90
-16777216
102
RTVSPost2010PropOp51
 70
     0
102
RTVSPost2010Prop52
140
1.0
102
RTVSPost2010PropOp52
 70
     0
102
RTVSPost2010Prop53
 90
        2
102
RTVSPost2010PropOp53
 70
     1
102
RTVSPost2010Prop54
  1
strokes_ogs.tif
102
RTVSPost2010PropOp54
 70
     1
102
RTVSPost2010Prop55
280
     0
102
RTVSPost2010PropOp55
 70
     1
102
RTVSPost2010Prop56
140
1.0
102
RTVSPost2010PropOp56
 70
     1
102
RTVSPost2010Prop57
140
1.0
102
RTVSPost2010PropOp57
 70
     1
  0
XRECORD
  5
90B
102
{ACAD_REACTORS
330
90A
102
}
330
90A
100
AcDbXrecord
280
     1
102
RTVSPropertyOp0
 70
     1
102
RTVSPropertyOp1
 70
     1
102
RTVSPropertyOp2
 70
     1
102
RTVSPropertyOp3
 70
     1
102
RTVSPropertyOp4
 70
     1
102
RTVSPropertyOp5
 70
     1
102
RTVSPropertyOp6
 70
     1
102
RTVSPropertyOp7
 70
     1
102
RTVSPropertyOp8
 70
     1
102
RTVSPropertyOp9
 70
     1
102
RTVSPropertyOp10
 70
     1
102
RTVSPropertyOp11
 70
     1
102
RTVSPropertyOp12
 70
     1
102
RTVSPropertyOp13
 70
     1
102
RTVSPropertyOp14
 70
     1
102
RTVSPropertyOp15
 70
     1
102
RTVSPropertyOp16
 70
     1
102
RTVSPropertyOp17
 70
     1
102
RTVSPropertyOp18
 70
     1
102
RTVSPropertyOp19
 70
     1
102
RTVSPropertyOp20
 70
     1
102
RTVSPropertyOp21
 70
     1
102
RTVSPropertyOp22
 70
     1
102
RTVSPropertyOp23
 70
     1
102
RTVSPropertyOp24
 70
     1
102
RTVSPropertyOp25
 70
     1
102
RTVSPropertyOp26
 70
     1
102
RTVSPropertyOp27
 70
     1
102
RTVSPropertyOp28
 70
     1
102
RTVSPropertyOp29
 70
     1
102
RTVSPropertyOp30
 70
     1
102
RTVSPropertyOp31
 70
     1
102
RTVSPropertyOp32
 70
     1
102
RTVSPropertyOp33
 70
     1
102
RTVSPropertyOp34
 70
     1
102
RTVSPropertyOp35
 70
     1
102
RTVSPropertyOp36
 70
     1
102
RTVSPropertyOp37
 70
     1
102
RTVSPropertyOp38
 70
     1
102
RTVSPropertyOp39
 70
     1
102
RTVSPropertyOp40
 70
     1
102
RTVSPropertyOp41
 70
     1
102
RTVSPropertyOp42
 70
     1
102
RTVSPropertyOp43
 70
     1
102
RTVSPropertyOp44
 70
     1
102
RTVSPropertyOp45
 70
     1
102
RTVSPropertyOp46
 70
     1
102
RTVSPropertyOp47
 70
     1
102
RTVSPropertyOp48
 70
     1
102
RTVSPropertyOp49
 70
     1
102
RTVSPropertyOp50
 70
     1
102
RTVSPropertyOp51
 70
     0
102
RTVSPropertyOp52
 70
     0
102
RTVSPropertyOp53
 70
     1
102
RTVSPropertyOp54
 70
     1
102
RTVSPropertyOp55
 70
     1
102
RTVSPropertyOp56
 70
     1
102
RTVSPropertyOp57
 70
     1
102
RTVSPost2010Prop28
280
     0
102
RTVSPost2010PropOp28
 70
     1
102
RTVSPost2010Prop29
280
     1
102
RTVSPost2010PropOp29
 70
     1
102
RTVSPost2010Prop30
280
     1
102
RTVSPost2010PropOp30
 70
     1
102
RTVSPost2010Prop31
280
     0
102
RTVSPost2010PropOp31
 70
     1
102
RTVSPost2010Prop32
280
     0
102
RTVSPost2010PropOp32
 70
     1
102
RTVSPost2010Prop33
280
     0
102
RTVSPost2010PropOp33
 70
     1
102
RTVSPost2010Prop34
280
     0
102
RTVSPost2010PropOp34
 70
     1
102
RTVSPost2010Prop35
280
     0
102
RTVSPost2010PropOp35
 70
     1
102
RTVSPost2010Prop36
280
     0
102
RTVSPost2010PropOp36
 70
     1
102
RTVSPost2010Prop37
 90
       50
102
RTVSPost2010PropOp37
 70
     1
102
RTVSPost2010Prop38
140
0.0
102
RTVSPost2010PropOp38
 70
     1
102
RTVSPost2010Prop39
140
1.0
102
RTVSPost2010PropOp39
 70
     1
102
RTVSPost2010Prop40
 90
        0
102
RTVSPost2010PropOp40
 70
     1
102
RTVSPost2010Prop41ColorIndex
 90
       18
102
RTVSPost2010Prop41ColorRGB
 90
        0
102
RTVSPost2010PropOp41
 70
     1
102
RTVSPost2010Prop42
 90
       50
102
RTVSPost2010PropOp42
 70
     1
102
RTVSPost2010Prop43
 90
        3
102
RTVSPost2010PropOp43
 70
     1
102
RTVSPost2010Prop44ColorIndex
 90
        5
102
RTVSPost2010Prop44ColorRGB
 90
      255
102
RTVSPost2010PropOp44
 70
     1
102
RTVSPost2010Prop45
280
     0
102
RTVSPost2010PropOp45
 70
     1
102
RTVSPost2010Prop46
 90
       50
102
RTVSPost2010PropOp46
 70
     1
102
RTVSPost2010Prop47
 90
       50
102
RTVSPost2010PropOp47
 70
     1
102
RTVSPost2010Prop48
 90
       50
102
RTVSPost2010PropOp48
 70
     1
102
RTVSPost2010Prop49
280
     0
102
RTVSPost2010PropOp49
 70
     1
102
RTVSPost2010Prop50
 90
       50
102
RTVSPost2010PropOp50
 70
     1
102
RTVSPost2010Prop51ColorIndex
 90
      256
102
RTVSPost2010Prop51ColorRGB
 90
-16777216
102
RTVSPost2010PropOp51
 70
     0
102
RTVSPost2010Prop52
140
1.0
102
RTVSPost2010PropOp52
 70
     0
102
RTVSPost2010Prop53
 90
        2
102
RTVSPost2010PropOp53
 70
     1
102
RTVSPost2010Prop54
  1
strokes_ogs.tif
102
RTVSPost2010PropOp54
 70
     1
102
RTVSPost2010Prop55
280
     0
102
RTVSPost2010PropOp55
 70
     1
102
RTVSPost2010Prop56
140
1.0
102
RTVSPost2010PropOp56
 70
     1
102
RTVSPost2010Prop57
140
1.0
102
RTVSPost2010PropOp57
 70
     1
  0
XRECORD
  5
91F
102
{ACAD_REACTORS
330
91E
102
}
330
91E
100
AcDbXrecord
280
     1
102
RTVSPropertyOp0
 70
     0
102
RTVSPropertyOp1
 70
     0
102
RTVSPropertyOp2
 70
     0
102
RTVSPropertyOp3
 70
     0
102
RTVSPropertyOp4
 70
     0
102
RTVSPropertyOp5
 70
     0
102
RTVSPropertyOp6
 70
     0
102
RTVSPropertyOp7
 70
     0
102
RTVSPropertyOp8
 70
     0
102
RTVSPropertyOp9
 70
     0
102
RTVSPropertyOp10
 70
     0
102
RTVSPropertyOp11
 70
     0
102
RTVSPropertyOp12
 70
     0
102
RTVSPropertyOp13
 70
     0
102
RTVSPropertyOp14
 70
     2
102
RTVSPropertyOp15
 70
     0
102
RTVSPropertyOp16
 70
     0
102
RTVSPropertyOp17
 70
     0
102
RTVSPropertyOp18
 70
     0
102
RTVSPropertyOp19
 70
     0
102
RTVSPropertyOp20
 70
     0
102
RTVSPropertyOp21
 70
     0
102
RTVSPropertyOp22
 70
     0
102
RTVSPropertyOp23
 70
     0
102
RTVSPropertyOp24
 70
     0
102
RTVSPropertyOp25
 70
     0
102
RTVSPropertyOp26
 70
     0
102
RTVSPropertyOp27
 70
     0
102
RTVSPropertyOp28
 70
     0
102
RTVSPropertyOp29
 70
     0
102
RTVSPropertyOp30
 70
     0
102
RTVSPropertyOp31
 70
     0
102
RTVSPropertyOp32
 70
     0
102
RTVSPropertyOp33
 70
     0
102
RTVSPropertyOp34
 70
     0
102
RTVSPropertyOp35
 70
     0
102
RTVSPropertyOp36
 70
     0
102
RTVSPropertyOp37
 70
     0
102
RTVSPropertyOp38
 70
     0
102
RTVSPropertyOp39
 70
     0
102
RTVSPropertyOp40
 70
     0
102
RTVSPropertyOp41
 70
     0
102
RTVSPropertyOp42
 70
     0
102
RTVSPropertyOp43
 70
     0
102
RTVSPropertyOp44
 70
     0
102
RTVSPropertyOp45
 70
     0
102
RTVSPropertyOp46
 70
     0
102
RTVSPropertyOp47
 70
     0
102
RTVSPropertyOp48
 70
     0
102
RTVSPropertyOp49
 70
     0
102
RTVSPropertyOp50
 70
     0
102
RTVSPropertyOp51
 70
     0
102
RTVSPropertyOp52
 70
     0
102
RTVSPropertyOp53
 70
     0
102
RTVSPropertyOp54
 70
     0
102
RTVSPropertyOp55
 70
     0
102
RTVSPropertyOp56
 70
     0
102
RTVSPropertyOp57
 70
     0
102
RTVSPost2010Prop28
280
     0
102
RTVSPost2010PropOp28
 70
     0
102
RTVSPost2010Prop29
280
     1
102
RTVSPost2010PropOp29
 70
     0
102
RTVSPost2010Prop30
280
     1
102
RTVSPost2010PropOp30
 70
     0
102
RTVSPost2010Prop31
280
     0
102
RTVSPost2010PropOp31
 70
     0
102
RTVSPost2010Prop32
280
     0
102
RTVSPost2010PropOp32
 70
     0
102
RTVSPost2010Prop33
280
     0
102
RTVSPost2010PropOp33
 70
     0
102
RTVSPost2010Prop34
280
     0
102
RTVSPost2010PropOp34
 70
     0
102
RTVSPost2010Prop35
280
     0
102
RTVSPost2010PropOp35
 70
     0
102
RTVSPost2010Prop36
280
     0
102
RTVSPost2010PropOp36
 70
     0
102
RTVSPost2010Prop37
 90
       50
102
RTVSPost2010PropOp37
 70
     0
102
RTVSPost2010Prop38
140
0.0
102
RTVSPost2010PropOp38
 70
     0
102
RTVSPost2010Prop39
140
1.0
102
RTVSPost2010PropOp39
 70
     0
102
RTVSPost2010Prop40
 90
        0
102
RTVSPost2010PropOp40
 70
     0
102
RTVSPost2010Prop41ColorIndex
 90
       18
102
RTVSPost2010Prop41ColorRGB
 90
        0
102
RTVSPost2010PropOp41
 70
     0
102
RTVSPost2010Prop42
 90
       50
102
RTVSPost2010PropOp42
 70
     0
102
RTVSPost2010Prop43
 90
        3
102
RTVSPost2010PropOp43
 70
     0
102
RTVSPost2010Prop44ColorIndex
 90
        5
102
RTVSPost2010Prop44ColorRGB
 90
      255
102
RTVSPost2010PropOp44
 70
     0
102
RTVSPost2010Prop45
280
     0
102
RTVSPost2010PropOp45
 70
     0
102
RTVSPost2010Prop46
 90
       50
102
RTVSPost2010PropOp46
 70
     0
102
RTVSPost2010Prop47
 90
       50
102
RTVSPost2010PropOp47
 70
     0
102
RTVSPost2010Prop48
 90
       50
102
RTVSPost2010PropOp48
 70
     0
102
RTVSPost2010Prop49
280
     0
102
RTVSPost2010PropOp49
 70
     0
102
RTVSPost2010Prop50
 90
       50
102
RTVSPost2010PropOp50
 70
     0
102
RTVSPost2010Prop51ColorIndex
 90
      256
102
RTVSPost2010Prop51ColorRGB
 90
-16777216
102
RTVSPost2010PropOp51
 70
     0
102
RTVSPost2010Prop52
140
1.0
102
RTVSPost2010PropOp52
 70
     0
102
RTVSPost2010Prop53
 90
        2
102
RTVSPost2010PropOp53
 70
     0
102
RTVSPost2010Prop54
  1
strokes_ogs.tif
102
RTVSPost2010PropOp54
 70
     0
102
RTVSPost2010Prop55
280
     0
102
RTVSPost2010PropOp55
 70
     0
102
RTVSPost2010Prop56
140
1.0
102
RTVSPost2010PropOp56
 70
     0
102
RTVSPost2010Prop57
140
1.0
102
RTVSPost2010PropOp57
 70
     0
  0
XRECORD
  5
919
102
{ACAD_REACTORS
330
918
102
}
330
918
100
AcDbXrecord
280
     1
102
RTVSPropertyOp0
 70
     1
102
RTVSPropertyOp1
 70
     1
102
RTVSPropertyOp2
 70
     1
102
RTVSPropertyOp3
 70
     1
102
RTVSPropertyOp4
 70
     1
102
RTVSPropertyOp5
 70
     1
102
RTVSPropertyOp6
 70
     1
102
RTVSPropertyOp7
 70
     1
102
RTVSPropertyOp8
 70
     1
102
RTVSPropertyOp9
 70
     1
102
RTVSPropertyOp10
 70
     1
102
RTVSPropertyOp11
 70
     1
102
RTVSPropertyOp12
 70
     1
102
RTVSPropertyOp13
 70
     1
102
RTVSPropertyOp14
 70
     1
102
RTVSPropertyOp15
 70
     1
102
RTVSPropertyOp16
 70
     1
102
RTVSPropertyOp17
 70
     1
102
RTVSPropertyOp18
 70
     1
102
RTVSPropertyOp19
 70
     1
102
RTVSPropertyOp20
 70
     1
102
RTVSPropertyOp21
 70
     1
102
RTVSPropertyOp22
 70
     1
102
RTVSPropertyOp23
 70
     1
102
RTVSPropertyOp24
 70
     1
102
RTVSPropertyOp25
 70
     1
102
RTVSPropertyOp26
 70
     1
102
RTVSPropertyOp27
 70
     1
102
RTVSPropertyOp28
 70
     1
102
RTVSPropertyOp29
 70
     1
102
RTVSPropertyOp30
 70
     1
102
RTVSPropertyOp31
 70
     1
102
RTVSPropertyOp32
 70
     1
102
RTVSPropertyOp33
 70
     1
102
RTVSPropertyOp34
 70
     1
102
RTVSPropertyOp35
 70
     1
102
RTVSPropertyOp36
 70
     1
102
RTVSPropertyOp37
 70
     1
102
RTVSPropertyOp38
 70
     1
102
RTVSPropertyOp39
 70
     1
102
RTVSPropertyOp40
 70
     1
102
RTVSPropertyOp41
 70
     1
102
RTVSPropertyOp42
 70
     1
102
RTVSPropertyOp43
 70
     1
102
RTVSPropertyOp44
 70
     1
102
RTVSPropertyOp45
 70
     1
102
RTVSPropertyOp46
 70
     1
102
RTVSPropertyOp47
 70
     1
102
RTVSPropertyOp48
 70
     1
102
RTVSPropertyOp49
 70
     1
102
RTVSPropertyOp50
 70
     1
102
RTVSPropertyOp51
 70
     0
102
RTVSPropertyOp52
 70
     0
102
RTVSPropertyOp53
 70
     1
102
RTVSPropertyOp54
 70
     1
102
RTVSPropertyOp55
 70
     1
102
RTVSPropertyOp56
 70
     1
102
RTVSPropertyOp57
 70
     1
102
RTVSPost2010Prop28
280
     0
102
RTVSPost2010PropOp28
 70
     1
102
RTVSPost2010Prop29
280
     1
102
RTVSPost2010PropOp29
 70
     1
102
RTVSPost2010Prop30
280
     1
102
RTVSPost2010PropOp30
 70
     1
102
RTVSPost2010Prop31
280
     0
102
RTVSPost2010PropOp31
 70
     1
102
RTVSPost2010Prop32
280
     0
102
RTVSPost2010PropOp32
 70
     1
102
RTVSPost2010Prop33
280
     0
102
RTVSPost2010PropOp33
 70
     1
102
RTVSPost2010Prop34
280
     0
102
RTVSPost2010PropOp34
 70
     1
102
RTVSPost2010Prop35
280
     0
102
RTVSPost2010PropOp35
 70
     1
102
RTVSPost2010Prop36
280
     0
102
RTVSPost2010PropOp36
 70
     1
102
RTVSPost2010Prop37
 90
       50
102
RTVSPost2010PropOp37
 70
     1
102
RTVSPost2010Prop38
140
0.0
102
RTVSPost2010PropOp38
 70
     1
102
RTVSPost2010Prop39
140
1.0
102
RTVSPost2010PropOp39
 70
     1
102
RTVSPost2010Prop40
 90
        0
102
RTVSPost2010PropOp40
 70
     1
102
RTVSPost2010Prop41ColorIndex
 90
       18
102
RTVSPost2010Prop41ColorRGB
 90
        0
102
RTVSPost2010PropOp41
 70
     1
102
RTVSPost2010Prop42
 90
       50
102
RTVSPost2010PropOp42
 70
     1
102
RTVSPost2010Prop43
 90
        3
102
RTVSPost2010PropOp43
 70
     1
102
RTVSPost2010Prop44ColorIndex
 90
        5
102
RTVSPost2010Prop44ColorRGB
 90
      255
102
RTVSPost2010PropOp44
 70
     1
102
RTVSPost2010Prop45
280
     0
102
RTVSPost2010PropOp45
 70
     1
102
RTVSPost2010Prop46
 90
       50
102
RTVSPost2010PropOp46
 70
     1
102
RTVSPost2010Prop47
 90
       50
102
RTVSPost2010PropOp47
 70
     1
102
RTVSPost2010Prop48
 90
       50
102
RTVSPost2010PropOp48
 70
     1
102
RTVSPost2010Prop49
280
     0
102
RTVSPost2010PropOp49
 70
     1
102
RTVSPost2010Prop50
 90
       50
102
RTVSPost2010PropOp50
 70
     1
102
RTVSPost2010Prop51ColorIndex
 90
      256
102
RTVSPost2010Prop51ColorRGB
 90
-16777216
102
RTVSPost2010PropOp51
 70
     0
102
RTVSPost2010Prop52
140
1.0
102
RTVSPost2010PropOp52
 70
     0
102
RTVSPost2010Prop53
 90
        2
102
RTVSPost2010PropOp53
 70
     1
102
RTVSPost2010Prop54
  1
strokes_ogs.tif
102
RTVSPost2010PropOp54
 70
     1
102
RTVSPost2010Prop55
280
     0
102
RTVSPost2010PropOp55
 70
     1
102
RTVSPost2010Prop56
140
1.0
102
RTVSPost2010PropOp56
 70
     1
102
RTVSPost2010Prop57
140
1.0
102
RTVSPost2010PropOp57
 70
     1
  0
XRECORD
  5
921
102
{ACAD_REACTORS
330
920
102
}
330
920
100
AcDbXrecord
280
     1
102
RTVSPropertyOp0
 70
     0
102
RTVSPropertyOp1
 70
     0
102
RTVSPropertyOp2
 70
     0
102
RTVSPropertyOp3
 70
     0
102
RTVSPropertyOp4
 70
     0
102
RTVSPropertyOp5
 70
     0
102
RTVSPropertyOp6
 70
     0
102
RTVSPropertyOp7
 70
     0
102
RTVSPropertyOp8
 70
     0
102
RTVSPropertyOp9
 70
     0
102
RTVSPropertyOp10
 70
     0
102
RTVSPropertyOp11
 70
     0
102
RTVSPropertyOp12
 70
     0
102
RTVSPropertyOp13
 70
     0
102
RTVSPropertyOp14
 70
     2
102
RTVSPropertyOp15
 70
     0
102
RTVSPropertyOp16
 70
     0
102
RTVSPropertyOp17
 70
     0
102
RTVSPropertyOp18
 70
     0
102
RTVSPropertyOp19
 70
     0
102
RTVSPropertyOp20
 70
     0
102
RTVSPropertyOp21
 70
     0
102
RTVSPropertyOp22
 70
     0
102
RTVSPropertyOp23
 70
     0
102
RTVSPropertyOp24
 70
     0
102
RTVSPropertyOp25
 70
     0
102
RTVSPropertyOp26
 70
     0
102
RTVSPropertyOp27
 70
     0
102
RTVSPropertyOp28
 70
     0
102
RTVSPropertyOp29
 70
     0
102
RTVSPropertyOp30
 70
     0
102
RTVSPropertyOp31
 70
     0
102
RTVSPropertyOp32
 70
     0
102
RTVSPropertyOp33
 70
     0
102
RTVSPropertyOp34
 70
     0
102
RTVSPropertyOp35
 70
     0
102
RTVSPropertyOp36
 70
     0
102
RTVSPropertyOp37
 70
     0
102
RTVSPropertyOp38
 70
     0
102
RTVSPropertyOp39
 70
     0
102
RTVSPropertyOp40
 70
     0
102
RTVSPropertyOp41
 70
     0
102
RTVSPropertyOp42
 70
     0
102
RTVSPropertyOp43
 70
     0
102
RTVSPropertyOp44
 70
     0
102
RTVSPropertyOp45
 70
     0
102
RTVSPropertyOp46
 70
     0
102
RTVSPropertyOp47
 70
     0
102
RTVSPropertyOp48
 70
     0
102
RTVSPropertyOp49
 70
     0
102
RTVSPropertyOp50
 70
     0
102
RTVSPropertyOp51
 70
     0
102
RTVSPropertyOp52
 70
     0
102
RTVSPropertyOp53
 70
     0
102
RTVSPropertyOp54
 70
     0
102
RTVSPropertyOp55
 70
     0
102
RTVSPropertyOp56
 70
     0
102
RTVSPropertyOp57
 70
     0
102
RTVSPost2010Prop28
280
     0
102
RTVSPost2010PropOp28
 70
     0
102
RTVSPost2010Prop29
280
     1
102
RTVSPost2010PropOp29
 70
     0
102
RTVSPost2010Prop30
280
     1
102
RTVSPost2010PropOp30
 70
     0
102
RTVSPost2010Prop31
280
     0
102
RTVSPost2010PropOp31
 70
     0
102
RTVSPost2010Prop32
280
     0
102
RTVSPost2010PropOp32
 70
     0
102
RTVSPost2010Prop33
280
     0
102
RTVSPost2010PropOp33
 70
     0
102
RTVSPost2010Prop34
280
     0
102
RTVSPost2010PropOp34
 70
     0
102
RTVSPost2010Prop35
280
     0
102
RTVSPost2010PropOp35
 70
     0
102
RTVSPost2010Prop36
280
     0
102
RTVSPost2010PropOp36
 70
     0
102
RTVSPost2010Prop37
 90
       50
102
RTVSPost2010PropOp37
 70
     0
102
RTVSPost2010Prop38
140
0.0
102
RTVSPost2010PropOp38
 70
     0
102
RTVSPost2010Prop39
140
1.0
102
RTVSPost2010PropOp39
 70
     0
102
RTVSPost2010Prop40
 90
        0
102
RTVSPost2010PropOp40
 70
     0
102
RTVSPost2010Prop41ColorIndex
 90
       18
102
RTVSPost2010Prop41ColorRGB
 90
        0
102
RTVSPost2010PropOp41
 70
     0
102
RTVSPost2010Prop42
 90
       50
102
RTVSPost2010PropOp42
 70
     0
102
RTVSPost2010Prop43
 90
        3
102
RTVSPost2010PropOp43
 70
     0
102
RTVSPost2010Prop44ColorIndex
 90
        5
102
RTVSPost2010Prop44ColorRGB
 90
      255
102
RTVSPost2010PropOp44
 70
     0
102
RTVSPost2010Prop45
280
     0
102
RTVSPost2010PropOp45
 70
     0
102
RTVSPost2010Prop46
 90
       50
102
RTVSPost2010PropOp46
 70
     0
102
RTVSPost2010Prop47
 90
       50
102
RTVSPost2010PropOp47
 70
     0
102
RTVSPost2010Prop48
 90
       50
102
RTVSPost2010PropOp48
 70
     0
102
RTVSPost2010Prop49
280
     0
102
RTVSPost2010PropOp49
 70
     0
102
RTVSPost2010Prop50
 90
       50
102
RTVSPost2010PropOp50
 70
     0
102
RTVSPost2010Prop51ColorIndex
 90
      256
102
RTVSPost2010Prop51ColorRGB
 90
-16777216
102
RTVSPost2010PropOp51
 70
     0
102
RTVSPost2010Prop52
140
1.0
102
RTVSPost2010PropOp52
 70
     0
102
RTVSPost2010Prop53
 90
        2
102
RTVSPost2010PropOp53
 70
     0
102
RTVSPost2010Prop54
  1
strokes_ogs.tif
102
RTVSPost2010PropOp54
 70
     0
102
RTVSPost2010Prop55
280
     0
102
RTVSPost2010PropOp55
 70
     0
102
RTVSPost2010Prop56
140
1.0
102
RTVSPost2010PropOp56
 70
     0
102
RTVSPost2010Prop57
140
1.0
102
RTVSPost2010PropOp57
 70
     0
  0
XRECORD
  5
90F
102
{ACAD_REACTORS
330
90E
102
}
330
90E
100
AcDbXrecord
280
     1
102
RTVSPropertyOp0
 70
     1
102
RTVSPropertyOp1
 70
     1
102
RTVSPropertyOp2
 70
     1
102
RTVSPropertyOp3
 70
     1
102
RTVSPropertyOp4
 70
     1
102
RTVSPropertyOp5
 70
     1
102
RTVSPropertyOp6
 70
     1
102
RTVSPropertyOp7
 70
     1
102
RTVSPropertyOp8
 70
     1
102
RTVSPropertyOp9
 70
     1
102
RTVSPropertyOp10
 70
     1
102
RTVSPropertyOp11
 70
     1
102
RTVSPropertyOp12
 70
     1
102
RTVSPropertyOp13
 70
     1
102
RTVSPropertyOp14
 70
     1
102
RTVSPropertyOp15
 70
     1
102
RTVSPropertyOp16
 70
     1
102
RTVSPropertyOp17
 70
     1
102
RTVSPropertyOp18
 70
     1
102
RTVSPropertyOp19
 70
     1
102
RTVSPropertyOp20
 70
     1
102
RTVSPropertyOp21
 70
     1
102
RTVSPropertyOp22
 70
     1
102
RTVSPropertyOp23
 70
     1
102
RTVSPropertyOp24
 70
     1
102
RTVSPropertyOp25
 70
     1
102
RTVSPropertyOp26
 70
     1
102
RTVSPropertyOp27
 70
     1
102
RTVSPropertyOp28
 70
     1
102
RTVSPropertyOp29
 70
     1
102
RTVSPropertyOp30
 70
     1
102
RTVSPropertyOp31
 70
     1
102
RTVSPropertyOp32
 70
     1
102
RTVSPropertyOp33
 70
     1
102
RTVSPropertyOp34
 70
     1
102
RTVSPropertyOp35
 70
     1
102
RTVSPropertyOp36
 70
     1
102
RTVSPropertyOp37
 70
     1
102
RTVSPropertyOp38
 70
     1
102
RTVSPropertyOp39
 70
     1
102
RTVSPropertyOp40
 70
     1
102
RTVSPropertyOp41
 70
     1
102
RTVSPropertyOp42
 70
     1
102
RTVSPropertyOp43
 70
     1
102
RTVSPropertyOp44
 70
     1
102
RTVSPropertyOp45
 70
     1
102
RTVSPropertyOp46
 70
     1
102
RTVSPropertyOp47
 70
     1
102
RTVSPropertyOp48
 70
     1
102
RTVSPropertyOp49
 70
     1
102
RTVSPropertyOp50
 70
     1
102
RTVSPropertyOp51
 70
     0
102
RTVSPropertyOp52
 70
     0
102
RTVSPropertyOp53
 70
     1
102
RTVSPropertyOp54
 70
     1
102
RTVSPropertyOp55
 70
     1
102
RTVSPropertyOp56
 70
     1
102
RTVSPropertyOp57
 70
     1
102
RTVSPost2010Prop28
280
     0
102
RTVSPost2010PropOp28
 70
     1
102
RTVSPost2010Prop29
280
     1
102
RTVSPost2010PropOp29
 70
     1
102
RTVSPost2010Prop30
280
     1
102
RTVSPost2010PropOp30
 70
     1
102
RTVSPost2010Prop31
280
     0
102
RTVSPost2010PropOp31
 70
     1
102
RTVSPost2010Prop32
280
     0
102
RTVSPost2010PropOp32
 70
     1
102
RTVSPost2010Prop33
280
     0
102
RTVSPost2010PropOp33
 70
     1
102
RTVSPost2010Prop34
280
     0
102
RTVSPost2010PropOp34
 70
     1
102
RTVSPost2010Prop35
280
     0
102
RTVSPost2010PropOp35
 70
     1
102
RTVSPost2010Prop36
280
     0
102
RTVSPost2010PropOp36
 70
     1
102
RTVSPost2010Prop37
 90
       50
102
RTVSPost2010PropOp37
 70
     1
102
RTVSPost2010Prop38
140
0.0
102
RTVSPost2010PropOp38
 70
     1
102
RTVSPost2010Prop39
140
1.0
102
RTVSPost2010PropOp39
 70
     1
102
RTVSPost2010Prop40
 90
        0
102
RTVSPost2010PropOp40
 70
     1
102
RTVSPost2010Prop41ColorIndex
 90
       18
102
RTVSPost2010Prop41ColorRGB
 90
        0
102
RTVSPost2010PropOp41
 70
     1
102
RTVSPost2010Prop42
 90
       50
102
RTVSPost2010PropOp42
 70
     1
102
RTVSPost2010Prop43
 90
        3
102
RTVSPost2010PropOp43
 70
     1
102
RTVSPost2010Prop44ColorIndex
 90
        5
102
RTVSPost2010Prop44ColorRGB
 90
      255
102
RTVSPost2010PropOp44
 70
     1
102
RTVSPost2010Prop45
280
     0
102
RTVSPost2010PropOp45
 70
     1
102
RTVSPost2010Prop46
 90
       50
102
RTVSPost2010PropOp46
 70
     1
102
RTVSPost2010Prop47
 90
       50
102
RTVSPost2010PropOp47
 70
     1
102
RTVSPost2010Prop48
 90
       50
102
RTVSPost2010PropOp48
 70
     1
102
RTVSPost2010Prop49
280
     0
102
RTVSPost2010PropOp49
 70
     1
102
RTVSPost2010Prop50
 90
       50
102
RTVSPost2010PropOp50
 70
     1
102
RTVSPost2010Prop51ColorIndex
 90
      256
102
RTVSPost2010Prop51ColorRGB
 90
-16777216
102
RTVSPost2010PropOp51
 70
     0
102
RTVSPost2010Prop52
140
1.0
102
RTVSPost2010PropOp52
 70
     0
102
RTVSPost2010Prop53
 90
        2
102
RTVSPost2010PropOp53
 70
     1
102
RTVSPost2010Prop54
  1
strokes_ogs.tif
102
RTVSPost2010PropOp54
 70
     1
102
RTVSPost2010Prop55
280
     0
102
RTVSPost2010PropOp55
 70
     1
102
RTVSPost2010Prop56
140
1.0
102
RTVSPost2010PropOp56
 70
     1
102
RTVSPost2010Prop57
140
1.0
102
RTVSPost2010PropOp57
 70
     1
  0
XRECORD
  5
92D
102
{ACAD_REACTORS
330
92C
102
}
330
92C
100
AcDbXrecord
280
     1
102
RTVSPropertyOp0
 70
     1
102
RTVSPropertyOp1
 70
     1
102
RTVSPropertyOp2
 70
     1
102
RTVSPropertyOp3
 70
     1
102
RTVSPropertyOp4
 70
     1
102
RTVSPropertyOp5
 70
     1
102
RTVSPropertyOp6
 70
     1
102
RTVSPropertyOp7
 70
     1
102
RTVSPropertyOp8
 70
     1
102
RTVSPropertyOp9
 70
     1
102
RTVSPropertyOp10
 70
     1
102
RTVSPropertyOp11
 70
     1
102
RTVSPropertyOp12
 70
     1
102
RTVSPropertyOp13
 70
     1
102
RTVSPropertyOp14
 70
     1
102
RTVSPropertyOp15
 70
     1
102
RTVSPropertyOp16
 70
     1
102
RTVSPropertyOp17
 70
     1
102
RTVSPropertyOp18
 70
     1
102
RTVSPropertyOp19
 70
     1
102
RTVSPropertyOp20
 70
     1
102
RTVSPropertyOp21
 70
     1
102
RTVSPropertyOp22
 70
     1
102
RTVSPropertyOp23
 70
     1
102
RTVSPropertyOp24
 70
     1
102
RTVSPropertyOp25
 70
     1
102
RTVSPropertyOp26
 70
     1
102
RTVSPropertyOp27
 70
     1
102
RTVSPropertyOp28
 70
     1
102
RTVSPropertyOp29
 70
     1
102
RTVSPropertyOp30
 70
     1
102
RTVSPropertyOp31
 70
     1
102
RTVSPropertyOp32
 70
     1
102
RTVSPropertyOp33
 70
     1
102
RTVSPropertyOp34
 70
     1
102
RTVSPropertyOp35
 70
     1
102
RTVSPropertyOp36
 70
     1
102
RTVSPropertyOp37
 70
     1
102
RTVSPropertyOp38
 70
     1
102
RTVSPropertyOp39
 70
     1
102
RTVSPropertyOp40
 70
     1
102
RTVSPropertyOp41
 70
     1
102
RTVSPropertyOp42
 70
     1
102
RTVSPropertyOp43
 70
     1
102
RTVSPropertyOp44
 70
     1
102
RTVSPropertyOp45
 70
     1
102
RTVSPropertyOp46
 70
     1
102
RTVSPropertyOp47
 70
     1
102
RTVSPropertyOp48
 70
     1
102
RTVSPropertyOp49
 70
     1
102
RTVSPropertyOp50
 70
     1
102
RTVSPropertyOp51
 70
     0
102
RTVSPropertyOp52
 70
     0
102
RTVSPropertyOp53
 70
     1
102
RTVSPropertyOp54
 70
     1
102
RTVSPropertyOp55
 70
     1
102
RTVSPropertyOp56
 70
     1
102
RTVSPropertyOp57
 70
     1
102
RTVSPost2010Prop28
280
     0
102
RTVSPost2010PropOp28
 70
     1
102
RTVSPost2010Prop29
280
     1
102
RTVSPost2010PropOp29
 70
     1
102
RTVSPost2010Prop30
280
     1
102
RTVSPost2010PropOp30
 70
     1
102
RTVSPost2010Prop31
280
     0
102
RTVSPost2010PropOp31
 70
     1
102
RTVSPost2010Prop32
280
     0
102
RTVSPost2010PropOp32
 70
     1
102
RTVSPost2010Prop33
280
     0
102
RTVSPost2010PropOp33
 70
     1
102
RTVSPost2010Prop34
280
     0
102
RTVSPost2010PropOp34
 70
     1
102
RTVSPost2010Prop35
280
     0
102
RTVSPost2010PropOp35
 70
     1
102
RTVSPost2010Prop36
280
     0
102
RTVSPost2010PropOp36
 70
     1
102
RTVSPost2010Prop37
 90
       50
102
RTVSPost2010PropOp37
 70
     1
102
RTVSPost2010Prop38
140
0.0
102
RTVSPost2010PropOp38
 70
     1
102
RTVSPost2010Prop39
140
1.0
102
RTVSPost2010PropOp39
 70
     1
102
RTVSPost2010Prop40
 90
        0
102
RTVSPost2010PropOp40
 70
     1
102
RTVSPost2010Prop41ColorIndex
 90
       18
102
RTVSPost2010Prop41ColorRGB
 90
        0
102
RTVSPost2010PropOp41
 70
     1
102
RTVSPost2010Prop42
 90
       50
102
RTVSPost2010PropOp42
 70
     1
102
RTVSPost2010Prop43
 90
        3
102
RTVSPost2010PropOp43
 70
     1
102
RTVSPost2010Prop44ColorIndex
 90
        5
102
RTVSPost2010Prop44ColorRGB
 90
      255
102
RTVSPost2010PropOp44
 70
     1
102
RTVSPost2010Prop45
280
     0
102
RTVSPost2010PropOp45
 70
     1
102
RTVSPost2010Prop46
 90
       50
102
RTVSPost2010PropOp46
 70
     1
102
RTVSPost2010Prop47
 90
       50
102
RTVSPost2010PropOp47
 70
     1
102
RTVSPost2010Prop48
 90
       50
102
RTVSPost2010PropOp48
 70
     1
102
RTVSPost2010Prop49
280
     0
102
RTVSPost2010PropOp49
 70
     1
102
RTVSPost2010Prop50
 90
       50
102
RTVSPost2010PropOp50
 70
     1
102
RTVSPost2010Prop51ColorIndex
 90
      256
102
RTVSPost2010Prop51ColorRGB
 90
-16777216
102
RTVSPost2010PropOp51
 70
     0
102
RTVSPost2010Prop52
140
1.0
102
RTVSPost2010PropOp52
 70
     0
102
RTVSPost2010Prop53
 90
        2
102
RTVSPost2010PropOp53
 70
     1
102
RTVSPost2010Prop54
  1
strokes_ogs.tif
102
RTVSPost2010PropOp54
 70
     1
102
RTVSPost2010Prop55
280
     0
102
RTVSPost2010PropOp55
 70
     1
102
RTVSPost2010Prop56
140
1.0
102
RTVSPost2010PropOp56
 70
     1
102
RTVSPost2010Prop57
140
1.0
102
RTVSPost2010PropOp57
 70
     1
  0
XRECORD
  5
92B
102
{ACAD_REACTORS
330
92A
102
}
330
92A
100
AcDbXrecord
280
     1
102
RTVSPropertyOp0
 70
     1
102
RTVSPropertyOp1
 70
     1
102
RTVSPropertyOp2
 70
     1
102
RTVSPropertyOp3
 70
     1
102
RTVSPropertyOp4
 70
     1
102
RTVSPropertyOp5
 70
     1
102
RTVSPropertyOp6
 70
     1
102
RTVSPropertyOp7
 70
     1
102
RTVSPropertyOp8
 70
     1
102
RTVSPropertyOp9
 70
     1
102
RTVSPropertyOp10
 70
     1
102
RTVSPropertyOp11
 70
     1
102
RTVSPropertyOp12
 70
     1
102
RTVSPropertyOp13
 70
     1
102
RTVSPropertyOp14
 70
     1
102
RTVSPropertyOp15
 70
     1
102
RTVSPropertyOp16
 70
     1
102
RTVSPropertyOp17
 70
     1
102
RTVSPropertyOp18
 70
     1
102
RTVSPropertyOp19
 70
     1
102
RTVSPropertyOp20
 70
     1
102
RTVSPropertyOp21
 70
     1
102
RTVSPropertyOp22
 70
     1
102
RTVSPropertyOp23
 70
     1
102
RTVSPropertyOp24
 70
     1
102
RTVSPropertyOp25
 70
     1
102
RTVSPropertyOp26
 70
     1
102
RTVSPropertyOp27
 70
     1
102
RTVSPropertyOp28
 70
     1
102
RTVSPropertyOp29
 70
     1
102
RTVSPropertyOp30
 70
     1
102
RTVSPropertyOp31
 70
     1
102
RTVSPropertyOp32
 70
     1
102
RTVSPropertyOp33
 70
     1
102
RTVSPropertyOp34
 70
     1
102
RTVSPropertyOp35
 70
     1
102
RTVSPropertyOp36
 70
     1
102
RTVSPropertyOp37
 70
     1
102
RTVSPropertyOp38
 70
     1
102
RTVSPropertyOp39
 70
     1
102
RTVSPropertyOp40
 70
     1
102
RTVSPropertyOp41
 70
     1
102
RTVSPropertyOp42
 70
     1
102
RTVSPropertyOp43
 70
     1
102
RTVSPropertyOp44
 70
     1
102
RTVSPropertyOp45
 70
     1
102
RTVSPropertyOp46
 70
     1
102
RTVSPropertyOp47
 70
     1
102
RTVSPropertyOp48
 70
     1
102
RTVSPropertyOp49
 70
     1
102
RTVSPropertyOp50
 70
     1
102
RTVSPropertyOp51
 70
     0
102
RTVSPropertyOp52
 70
     0
102
RTVSPropertyOp53
 70
     1
102
RTVSPropertyOp54
 70
     1
102
RTVSPropertyOp55
 70
     1
102
RTVSPropertyOp56
 70
     1
102
RTVSPropertyOp57
 70
     1
102
RTVSPost2010Prop28
280
     0
102
RTVSPost2010PropOp28
 70
     1
102
RTVSPost2010Prop29
280
     1
102
RTVSPost2010PropOp29
 70
     1
102
RTVSPost2010Prop30
280
     1
102
RTVSPost2010PropOp30
 70
     1
102
RTVSPost2010Prop31
280
     0
102
RTVSPost2010PropOp31
 70
     1
102
RTVSPost2010Prop32
280
     0
102
RTVSPost2010PropOp32
 70
     1
102
RTVSPost2010Prop33
280
     0
102
RTVSPost2010PropOp33
 70
     1
102
RTVSPost2010Prop34
280
     0
102
RTVSPost2010PropOp34
 70
     1
102
RTVSPost2010Prop35
280
     0
102
RTVSPost2010PropOp35
 70
     1
102
RTVSPost2010Prop36
280
     0
102
RTVSPost2010PropOp36
 70
     1
102
RTVSPost2010Prop37
 90
       50
102
RTVSPost2010PropOp37
 70
     1
102
RTVSPost2010Prop38
140
0.0
102
RTVSPost2010PropOp38
 70
     1
102
RTVSPost2010Prop39
140
1.0
102
RTVSPost2010PropOp39
 70
     1
102
RTVSPost2010Prop40
 90
        0
102
RTVSPost2010PropOp40
 70
     1
102
RTVSPost2010Prop41ColorIndex
 90
       18
102
RTVSPost2010Prop41ColorRGB
 90
        0
102
RTVSPost2010PropOp41
 70
     1
102
RTVSPost2010Prop42
 90
       50
102
RTVSPost2010PropOp42
 70
     1
102
RTVSPost2010Prop43
 90
        3
102
RTVSPost2010PropOp43
 70
     1
102
RTVSPost2010Prop44ColorIndex
 90
        5
102
RTVSPost2010Prop44ColorRGB
 90
      255
102
RTVSPost2010PropOp44
 70
     1
102
RTVSPost2010Prop45
280
     0
102
RTVSPost2010PropOp45
 70
     1
102
RTVSPost2010Prop46
 90
       50
102
RTVSPost2010PropOp46
 70
     1
102
RTVSPost2010Prop47
 90
       50
102
RTVSPost2010PropOp47
 70
     1
102
RTVSPost2010Prop48
 90
       50
102
RTVSPost2010PropOp48
 70
     1
102
RTVSPost2010Prop49
280
     0
102
RTVSPost2010PropOp49
 70
     1
102
RTVSPost2010Prop50
 90
       50
102
RTVSPost2010PropOp50
 70
     1
102
RTVSPost2010Prop51ColorIndex
 90
      256
102
RTVSPost2010Prop51ColorRGB
 90
-16777216
102
RTVSPost2010PropOp51
 70
     0
102
RTVSPost2010Prop52
140
1.0
102
RTVSPost2010PropOp52
 70
     0
102
RTVSPost2010Prop53
 90
        2
102
RTVSPost2010PropOp53
 70
     1
102
RTVSPost2010Prop54
  1
strokes_ogs.tif
102
RTVSPost2010PropOp54
 70
     1
102
RTVSPost2010Prop55
280
     0
102
RTVSPost2010PropOp55
 70
     1
102
RTVSPost2010Prop56
140
1.0
102
RTVSPost2010PropOp56
 70
     1
102
RTVSPost2010Prop57
140
1.0
102
RTVSPost2010PropOp57
 70
     1
  0
XRECORD
  5
925
102
{ACAD_REACTORS
330
924
102
}
330
924
100
AcDbXrecord
280
     1
102
RTVSPropertyOp0
 70
     1
102
RTVSPropertyOp1
 70
     1
102
RTVSPropertyOp2
 70
     1
102
RTVSPropertyOp3
 70
     1
102
RTVSPropertyOp4
 70
     1
102
RTVSPropertyOp5
 70
     1
102
RTVSPropertyOp6
 70
     1
102
RTVSPropertyOp7
 70
     1
102
RTVSPropertyOp8
 70
     1
102
RTVSPropertyOp9
 70
     1
102
RTVSPropertyOp10
 70
     1
102
RTVSPropertyOp11
 70
     1
102
RTVSPropertyOp12
 70
     1
102
RTVSPropertyOp13
 70
     1
102
RTVSPropertyOp14
 70
     1
102
RTVSPropertyOp15
 70
     1
102
RTVSPropertyOp16
 70
     1
102
RTVSPropertyOp17
 70
     1
102
RTVSPropertyOp18
 70
     1
102
RTVSPropertyOp19
 70
     1
102
RTVSPropertyOp20
 70
     1
102
RTVSPropertyOp21
 70
     1
102
RTVSPropertyOp22
 70
     1
102
RTVSPropertyOp23
 70
     1
102
RTVSPropertyOp24
 70
     1
102
RTVSPropertyOp25
 70
     1
102
RTVSPropertyOp26
 70
     1
102
RTVSPropertyOp27
 70
     1
102
RTVSPropertyOp28
 70
     1
102
RTVSPropertyOp29
 70
     1
102
RTVSPropertyOp30
 70
     1
102
RTVSPropertyOp31
 70
     1
102
RTVSPropertyOp32
 70
     1
102
RTVSPropertyOp33
 70
     1
102
RTVSPropertyOp34
 70
     1
102
RTVSPropertyOp35
 70
     1
102
RTVSPropertyOp36
 70
     1
102
RTVSPropertyOp37
 70
     1
102
RTVSPropertyOp38
 70
     1
102
RTVSPropertyOp39
 70
     1
102
RTVSPropertyOp40
 70
     1
102
RTVSPropertyOp41
 70
     1
102
RTVSPropertyOp42
 70
     1
102
RTVSPropertyOp43
 70
     1
102
RTVSPropertyOp44
 70
     1
102
RTVSPropertyOp45
 70
     1
102
RTVSPropertyOp46
 70
     1
102
RTVSPropertyOp47
 70
     1
102
RTVSPropertyOp48
 70
     1
102
RTVSPropertyOp49
 70
     1
102
RTVSPropertyOp50
 70
     1
102
RTVSPropertyOp51
 70
     0
102
RTVSPropertyOp52
 70
     0
102
RTVSPropertyOp53
 70
     1
102
RTVSPropertyOp54
 70
     1
102
RTVSPropertyOp55
 70
     1
102
RTVSPropertyOp56
 70
     1
102
RTVSPropertyOp57
 70
     1
102
RTVSPost2010Prop28
280
     0
102
RTVSPost2010PropOp28
 70
     1
102
RTVSPost2010Prop29
280
     1
102
RTVSPost2010PropOp29
 70
     1
102
RTVSPost2010Prop30
280
     1
102
RTVSPost2010PropOp30
 70
     1
102
RTVSPost2010Prop31
280
     0
102
RTVSPost2010PropOp31
 70
     1
102
RTVSPost2010Prop32
280
     0
102
RTVSPost2010PropOp32
 70
     1
102
RTVSPost2010Prop33
280
     0
102
RTVSPost2010PropOp33
 70
     1
102
RTVSPost2010Prop34
280
     0
102
RTVSPost2010PropOp34
 70
     1
102
RTVSPost2010Prop35
280
     0
102
RTVSPost2010PropOp35
 70
     1
102
RTVSPost2010Prop36
280
     0
102
RTVSPost2010PropOp36
 70
     1
102
RTVSPost2010Prop37
 90
       50
102
RTVSPost2010PropOp37
 70
     1
102
RTVSPost2010Prop38
140
0.0
102
RTVSPost2010PropOp38
 70
     1
102
RTVSPost2010Prop39
140
1.0
102
RTVSPost2010PropOp39
 70
     1
102
RTVSPost2010Prop40
 90
        0
102
RTVSPost2010PropOp40
 70
     1
102
RTVSPost2010Prop41ColorIndex
 90
       18
102
RTVSPost2010Prop41ColorRGB
 90
        0
102
RTVSPost2010PropOp41
 70
     1
102
RTVSPost2010Prop42
 90
       50
102
RTVSPost2010PropOp42
 70
     1
102
RTVSPost2010Prop43
 90
        3
102
RTVSPost2010PropOp43
 70
     1
102
RTVSPost2010Prop44ColorIndex
 90
        5
102
RTVSPost2010Prop44ColorRGB
 90
      255
102
RTVSPost2010PropOp44
 70
     1
102
RTVSPost2010Prop45
280
     0
102
RTVSPost2010PropOp45
 70
     1
102
RTVSPost2010Prop46
 90
       50
102
RTVSPost2010PropOp46
 70
     1
102
RTVSPost2010Prop47
 90
       50
102
RTVSPost2010PropOp47
 70
     1
102
RTVSPost2010Prop48
 90
       50
102
RTVSPost2010PropOp48
 70
     1
102
RTVSPost2010Prop49
280
     0
102
RTVSPost2010PropOp49
 70
     1
102
RTVSPost2010Prop50
 90
       50
102
RTVSPost2010PropOp50
 70
     1
102
RTVSPost2010Prop51ColorIndex
 90
      256
102
RTVSPost2010Prop51ColorRGB
 90
-16777216
102
RTVSPost2010PropOp51
 70
     0
102
RTVSPost2010Prop52
140
1.0
102
RTVSPost2010PropOp52
 70
     0
102
RTVSPost2010Prop53
 90
        2
102
RTVSPost2010PropOp53
 70
     1
102
RTVSPost2010Prop54
  1
strokes_ogs.tif
102
RTVSPost2010PropOp54
 70
     1
102
RTVSPost2010Prop55
280
     0
102
RTVSPost2010PropOp55
 70
     1
102
RTVSPost2010Prop56
140
1.0
102
RTVSPost2010PropOp56
 70
     1
102
RTVSPost2010Prop57
140
1.0
102
RTVSPost2010PropOp57
 70
     1
  0
XRECORD
  5
927
102
{ACAD_REACTORS
330
926
102
}
330
926
100
AcDbXrecord
280
     1
102
RTVSPropertyOp0
 70
     1
102
RTVSPropertyOp1
 70
     1
102
RTVSPropertyOp2
 70
     1
102
RTVSPropertyOp3
 70
     1
102
RTVSPropertyOp4
 70
     1
102
RTVSPropertyOp5
 70
     1
102
RTVSPropertyOp6
 70
     1
102
RTVSPropertyOp7
 70
     1
102
RTVSPropertyOp8
 70
     1
102
RTVSPropertyOp9
 70
     1
102
RTVSPropertyOp10
 70
     1
102
RTVSPropertyOp11
 70
     1
102
RTVSPropertyOp12
 70
     1
102
RTVSPropertyOp13
 70
     1
102
RTVSPropertyOp14
 70
     1
102
RTVSPropertyOp15
 70
     1
102
RTVSPropertyOp16
 70
     1
102
RTVSPropertyOp17
 70
     1
102
RTVSPropertyOp18
 70
     1
102
RTVSPropertyOp19
 70
     1
102
RTVSPropertyOp20
 70
     1
102
RTVSPropertyOp21
 70
     1
102
RTVSPropertyOp22
 70
     1
102
RTVSPropertyOp23
 70
     1
102
RTVSPropertyOp24
 70
     1
102
RTVSPropertyOp25
 70
     1
102
RTVSPropertyOp26
 70
     1
102
RTVSPropertyOp27
 70
     1
102
RTVSPropertyOp28
 70
     1
102
RTVSPropertyOp29
 70
     1
102
RTVSPropertyOp30
 70
     1
102
RTVSPropertyOp31
 70
     1
102
RTVSPropertyOp32
 70
     1
102
RTVSPropertyOp33
 70
     1
102
RTVSPropertyOp34
 70
     1
102
RTVSPropertyOp35
 70
     1
102
RTVSPropertyOp36
 70
     1
102
RTVSPropertyOp37
 70
     1
102
RTVSPropertyOp38
 70
     1
102
RTVSPropertyOp39
 70
     1
102
RTVSPropertyOp40
 70
     1
102
RTVSPropertyOp41
 70
     1
102
RTVSPropertyOp42
 70
     1
102
RTVSPropertyOp43
 70
     1
102
RTVSPropertyOp44
 70
     1
102
RTVSPropertyOp45
 70
     1
102
RTVSPropertyOp46
 70
     1
102
RTVSPropertyOp47
 70
     1
102
RTVSPropertyOp48
 70
     1
102
RTVSPropertyOp49
 70
     1
102
RTVSPropertyOp50
 70
     1
102
RTVSPropertyOp51
 70
     0
102
RTVSPropertyOp52
 70
     0
102
RTVSPropertyOp53
 70
     1
102
RTVSPropertyOp54
 70
     1
102
RTVSPropertyOp55
 70
     1
102
RTVSPropertyOp56
 70
     1
102
RTVSPropertyOp57
 70
     1
102
RTVSPost2010Prop28
280
     0
102
RTVSPost2010PropOp28
 70
     1
102
RTVSPost2010Prop29
280
     1
102
RTVSPost2010PropOp29
 70
     1
102
RTVSPost2010Prop30
280
     1
102
RTVSPost2010PropOp30
 70
     1
102
RTVSPost2010Prop31
280
     0
102
RTVSPost2010PropOp31
 70
     1
102
RTVSPost2010Prop32
280
     0
102
RTVSPost2010PropOp32
 70
     1
102
RTVSPost2010Prop33
280
     0
102
RTVSPost2010PropOp33
 70
     1
102
RTVSPost2010Prop34
280
     0
102
RTVSPost2010PropOp34
 70
     1
102
RTVSPost2010Prop35
280
     0
102
RTVSPost2010PropOp35
 70
     1
102
RTVSPost2010Prop36
280
     0
102
RTVSPost2010PropOp36
 70
     1
102
RTVSPost2010Prop37
 90
       50
102
RTVSPost2010PropOp37
 70
     1
102
RTVSPost2010Prop38
140
0.0
102
RTVSPost2010PropOp38
 70
     1
102
RTVSPost2010Prop39
140
1.0
102
RTVSPost2010PropOp39
 70
     1
102
RTVSPost2010Prop40
 90
        0
102
RTVSPost2010PropOp40
 70
     1
102
RTVSPost2010Prop41ColorIndex
 90
       18
102
RTVSPost2010Prop41ColorRGB
 90
        0
102
RTVSPost2010PropOp41
 70
     1
102
RTVSPost2010Prop42
 90
       50
102
RTVSPost2010PropOp42
 70
     1
102
RTVSPost2010Prop43
 90
        3
102
RTVSPost2010PropOp43
 70
     1
102
RTVSPost2010Prop44ColorIndex
 90
        5
102
RTVSPost2010Prop44ColorRGB
 90
      255
102
RTVSPost2010PropOp44
 70
     1
102
RTVSPost2010Prop45
280
     0
102
RTVSPost2010PropOp45
 70
     1
102
RTVSPost2010Prop46
 90
       50
102
RTVSPost2010PropOp46
 70
     1
102
RTVSPost2010Prop47
 90
       50
102
RTVSPost2010PropOp47
 70
     1
102
RTVSPost2010Prop48
 90
       50
102
RTVSPost2010PropOp48
 70
     1
102
RTVSPost2010Prop49
280
     0
102
RTVSPost2010PropOp49
 70
     1
102
RTVSPost2010Prop50
 90
       50
102
RTVSPost2010PropOp50
 70
     1
102
RTVSPost2010Prop51ColorIndex
 90
      256
102
RTVSPost2010Prop51ColorRGB
 90
-16777216
102
RTVSPost2010PropOp51
 70
     0
102
RTVSPost2010Prop52
140
1.0
102
RTVSPost2010PropOp52
 70
     0
102
RTVSPost2010Prop53
 90
        2
102
RTVSPost2010PropOp53
 70
     1
102
RTVSPost2010Prop54
  1
strokes_ogs.tif
102
RTVSPost2010PropOp54
 70
     1
102
RTVSPost2010Prop55
280
     0
102
RTVSPost2010PropOp55
 70
     1
102
RTVSPost2010Prop56
140
1.0
102
RTVSPost2010PropOp56
 70
     1
102
RTVSPost2010Prop57
140
1.0
102
RTVSPost2010PropOp57
 70
     1
  0
XRECORD
  5
917
102
{ACAD_REACTORS
330
916
102
}
330
916
100
AcDbXrecord
280
     1
102
RTVSPropertyOp0
 70
     1
102
RTVSPropertyOp1
 70
     1
102
RTVSPropertyOp2
 70
     1
102
RTVSPropertyOp3
 70
     1
102
RTVSPropertyOp4
 70
     1
102
RTVSPropertyOp5
 70
     1
102
RTVSPropertyOp6
 70
     1
102
RTVSPropertyOp7
 70
     1
102
RTVSPropertyOp8
 70
     1
102
RTVSPropertyOp9
 70
     1
102
RTVSPropertyOp10
 70
     1
102
RTVSPropertyOp11
 70
     1
102
RTVSPropertyOp12
 70
     1
102
RTVSPropertyOp13
 70
     1
102
RTVSPropertyOp14
 70
     1
102
RTVSPropertyOp15
 70
     1
102
RTVSPropertyOp16
 70
     1
102
RTVSPropertyOp17
 70
     1
102
RTVSPropertyOp18
 70
     1
102
RTVSPropertyOp19
 70
     1
102
RTVSPropertyOp20
 70
     1
102
RTVSPropertyOp21
 70
     1
102
RTVSPropertyOp22
 70
     1
102
RTVSPropertyOp23
 70
     1
102
RTVSPropertyOp24
 70
     1
102
RTVSPropertyOp25
 70
     1
102
RTVSPropertyOp26
 70
     1
102
RTVSPropertyOp27
 70
     1
102
RTVSPropertyOp28
 70
     1
102
RTVSPropertyOp29
 70
     1
102
RTVSPropertyOp30
 70
     1
102
RTVSPropertyOp31
 70
     1
102
RTVSPropertyOp32
 70
     1
102
RTVSPropertyOp33
 70
     1
102
RTVSPropertyOp34
 70
     1
102
RTVSPropertyOp35
 70
     1
102
RTVSPropertyOp36
 70
     1
102
RTVSPropertyOp37
 70
     1
102
RTVSPropertyOp38
 70
     1
102
RTVSPropertyOp39
 70
     1
102
RTVSPropertyOp40
 70
     1
102
RTVSPropertyOp41
 70
     1
102
RTVSPropertyOp42
 70
     1
102
RTVSPropertyOp43
 70
     1
102
RTVSPropertyOp44
 70
     1
102
RTVSPropertyOp45
 70
     1
102
RTVSPropertyOp46
 70
     1
102
RTVSPropertyOp47
 70
     1
102
RTVSPropertyOp48
 70
     1
102
RTVSPropertyOp49
 70
     1
102
RTVSPropertyOp50
 70
     1
102
RTVSPropertyOp51
 70
     0
102
RTVSPropertyOp52
 70
     0
102
RTVSPropertyOp53
 70
     1
102
RTVSPropertyOp54
 70
     1
102
RTVSPropertyOp55
 70
     1
102
RTVSPropertyOp56
 70
     1
102
RTVSPropertyOp57
 70
     1
102
RTVSPost2010Prop28
280
     0
102
RTVSPost2010PropOp28
 70
     1
102
RTVSPost2010Prop29
280
     1
102
RTVSPost2010PropOp29
 70
     1
102
RTVSPost2010Prop30
280
     1
102
RTVSPost2010PropOp30
 70
     1
102
RTVSPost2010Prop31
280
     0
102
RTVSPost2010PropOp31
 70
     1
102
RTVSPost2010Prop32
280
     0
102
RTVSPost2010PropOp32
 70
     1
102
RTVSPost2010Prop33
280
     0
102
RTVSPost2010PropOp33
 70
     1
102
RTVSPost2010Prop34
280
     0
102
RTVSPost2010PropOp34
 70
     1
102
RTVSPost2010Prop35
280
     0
102
RTVSPost2010PropOp35
 70
     1
102
RTVSPost2010Prop36
280
     0
102
RTVSPost2010PropOp36
 70
     1
102
RTVSPost2010Prop37
 90
       50
102
RTVSPost2010PropOp37
 70
     1
102
RTVSPost2010Prop38
140
0.0
102
RTVSPost2010PropOp38
 70
     1
102
RTVSPost2010Prop39
140
1.0
102
RTVSPost2010PropOp39
 70
     1
102
RTVSPost2010Prop40
 90
        0
102
RTVSPost2010PropOp40
 70
     1
102
RTVSPost2010Prop41ColorIndex
 90
       18
102
RTVSPost2010Prop41ColorRGB
 90
        0
102
RTVSPost2010PropOp41
 70
     1
102
RTVSPost2010Prop42
 90
       50
102
RTVSPost2010PropOp42
 70
     1
102
RTVSPost2010Prop43
 90
        3
102
RTVSPost2010PropOp43
 70
     1
102
RTVSPost2010Prop44ColorIndex
 90
        5
102
RTVSPost2010Prop44ColorRGB
 90
      255
102
RTVSPost2010PropOp44
 70
     1
102
RTVSPost2010Prop45
280
     0
102
RTVSPost2010PropOp45
 70
     1
102
RTVSPost2010Prop46
 90
       50
102
RTVSPost2010PropOp46
 70
     1
102
RTVSPost2010Prop47
 90
       50
102
RTVSPost2010PropOp47
 70
     1
102
RTVSPost2010Prop48
 90
       50
102
RTVSPost2010PropOp48
 70
     1
102
RTVSPost2010Prop49
280
     0
102
RTVSPost2010PropOp49
 70
     1
102
RTVSPost2010Prop50
 90
       50
102
RTVSPost2010PropOp50
 70
     1
102
RTVSPost2010Prop51ColorIndex
 90
      256
102
RTVSPost2010Prop51ColorRGB
 90
-16777216
102
RTVSPost2010PropOp51
 70
     0
102
RTVSPost2010Prop52
140
1.0
102
RTVSPost2010PropOp52
 70
     0
102
RTVSPost2010Prop53
 90
        2
102
RTVSPost2010PropOp53
 70
     1
102
RTVSPost2010Prop54
  1
strokes_ogs.tif
102
RTVSPost2010PropOp54
 70
     1
102
RTVSPost2010Prop55
280
     0
102
RTVSPost2010PropOp55
 70
     1
102
RTVSPost2010Prop56
140
1.0
102
RTVSPost2010PropOp56
 70
     1
102
RTVSPost2010Prop57
140
1.0
102
RTVSPost2010PropOp57
 70
     1
  0
XRECORD
  5
909
102
{ACAD_REACTORS
330
908
102
}
330
908
100
AcDbXrecord
280
     1
102
RTVSPropertyOp0
 70
     1
102
RTVSPropertyOp1
 70
     1
102
RTVSPropertyOp2
 70
     1
102
RTVSPropertyOp3
 70
     1
102
RTVSPropertyOp4
 70
     1
102
RTVSPropertyOp5
 70
     1
102
RTVSPropertyOp6
 70
     1
102
RTVSPropertyOp7
 70
     1
102
RTVSPropertyOp8
 70
     1
102
RTVSPropertyOp9
 70
     1
102
RTVSPropertyOp10
 70
     1
102
RTVSPropertyOp11
 70
     1
102
RTVSPropertyOp12
 70
     1
102
RTVSPropertyOp13
 70
     1
102
RTVSPropertyOp14
 70
     1
102
RTVSPropertyOp15
 70
     1
102
RTVSPropertyOp16
 70
     1
102
RTVSPropertyOp17
 70
     1
102
RTVSPropertyOp18
 70
     1
102
RTVSPropertyOp19
 70
     1
102
RTVSPropertyOp20
 70
     1
102
RTVSPropertyOp21
 70
     1
102
RTVSPropertyOp22
 70
     1
102
RTVSPropertyOp23
 70
     1
102
RTVSPropertyOp24
 70
     1
102
RTVSPropertyOp25
 70
     1
102
RTVSPropertyOp26
 70
     1
102
RTVSPropertyOp27
 70
     1
102
RTVSPropertyOp28
 70
     1
102
RTVSPropertyOp29
 70
     1
102
RTVSPropertyOp30
 70
     1
102
RTVSPropertyOp31
 70
     1
102
RTVSPropertyOp32
 70
     1
102
RTVSPropertyOp33
 70
     1
102
RTVSPropertyOp34
 70
     1
102
RTVSPropertyOp35
 70
     1
102
RTVSPropertyOp36
 70
     1
102
RTVSPropertyOp37
 70
     1
102
RTVSPropertyOp38
 70
     1
102
RTVSPropertyOp39
 70
     1
102
RTVSPropertyOp40
 70
     1
102
RTVSPropertyOp41
 70
     1
102
RTVSPropertyOp42
 70
     1
102
RTVSPropertyOp43
 70
     1
102
RTVSPropertyOp44
 70
     1
102
RTVSPropertyOp45
 70
     1
102
RTVSPropertyOp46
 70
     1
102
RTVSPropertyOp47
 70
     1
102
RTVSPropertyOp48
 70
     1
102
RTVSPropertyOp49
 70
     1
102
RTVSPropertyOp50
 70
     1
102
RTVSPropertyOp51
 70
     0
102
RTVSPropertyOp52
 70
     0
102
RTVSPropertyOp53
 70
     1
102
RTVSPropertyOp54
 70
     1
102
RTVSPropertyOp55
 70
     1
102
RTVSPropertyOp56
 70
     1
102
RTVSPropertyOp57
 70
     1
102
RTVSPost2010Prop28
280
     0
102
RTVSPost2010PropOp28
 70
     1
102
RTVSPost2010Prop29
280
     1
102
RTVSPost2010PropOp29
 70
     1
102
RTVSPost2010Prop30
280
     1
102
RTVSPost2010PropOp30
 70
     1
102
RTVSPost2010Prop31
280
     0
102
RTVSPost2010PropOp31
 70
     1
102
RTVSPost2010Prop32
280
     0
102
RTVSPost2010PropOp32
 70
     1
102
RTVSPost2010Prop33
280
     0
102
RTVSPost2010PropOp33
 70
     1
102
RTVSPost2010Prop34
280
     0
102
RTVSPost2010PropOp34
 70
     1
102
RTVSPost2010Prop35
280
     0
102
RTVSPost2010PropOp35
 70
     1
102
RTVSPost2010Prop36
280
     0
102
RTVSPost2010PropOp36
 70
     1
102
RTVSPost2010Prop37
 90
       50
102
RTVSPost2010PropOp37
 70
     1
102
RTVSPost2010Prop38
140
0.0
102
RTVSPost2010PropOp38
 70
     1
102
RTVSPost2010Prop39
140
1.0
102
RTVSPost2010PropOp39
 70
     1
102
RTVSPost2010Prop40
 90
        0
102
RTVSPost2010PropOp40
 70
     1
102
RTVSPost2010Prop41ColorIndex
 90
       18
102
RTVSPost2010Prop41ColorRGB
 90
        0
102
RTVSPost2010PropOp41
 70
     1
102
RTVSPost2010Prop42
 90
       50
102
RTVSPost2010PropOp42
 70
     1
102
RTVSPost2010Prop43
 90
        3
102
RTVSPost2010PropOp43
 70
     1
102
RTVSPost2010Prop44ColorIndex
 90
        5
102
RTVSPost2010Prop44ColorRGB
 90
      255
102
RTVSPost2010PropOp44
 70
     1
102
RTVSPost2010Prop45
280
     0
102
RTVSPost2010PropOp45
 70
     1
102
RTVSPost2010Prop46
 90
       50
102
RTVSPost2010PropOp46
 70
     1
102
RTVSPost2010Prop47
 90
       50
102
RTVSPost2010PropOp47
 70
     1
102
RTVSPost2010Prop48
 90
       50
102
RTVSPost2010PropOp48
 70
     1
102
RTVSPost2010Prop49
280
     0
102
RTVSPost2010PropOp49
 70
     1
102
RTVSPost2010Prop50
 90
       50
102
RTVSPost2010PropOp50
 70
     1
102
RTVSPost2010Prop51ColorIndex
 90
      256
102
RTVSPost2010Prop51ColorRGB
 90
-16777216
102
RTVSPost2010PropOp51
 70
     0
102
RTVSPost2010Prop52
140
1.0
102
RTVSPost2010PropOp52
 70
     0
102
RTVSPost2010Prop53
 90
        2
102
RTVSPost2010PropOp53
 70
     1
102
RTVSPost2010Prop54
  1
strokes_ogs.tif
102
RTVSPost2010PropOp54
 70
     1
102
RTVSPost2010Prop55
280
     0
102
RTVSPost2010PropOp55
 70
     1
102
RTVSPost2010Prop56
140
1.0
102
RTVSPost2010PropOp56
 70
     1
102
RTVSPost2010Prop57
140
1.0
102
RTVSPost2010PropOp57
 70
     1
  0
XRECORD
  5
929
102
{ACAD_REACTORS
330
928
102
}
330
928
100
AcDbXrecord
280
     1
102
RTVSPropertyOp0
 70
     1
102
RTVSPropertyOp1
 70
     1
102
RTVSPropertyOp2
 70
     1
102
RTVSPropertyOp3
 70
     1
102
RTVSPropertyOp4
 70
     1
102
RTVSPropertyOp5
 70
     1
102
RTVSPropertyOp6
 70
     1
102
RTVSPropertyOp7
 70
     1
102
RTVSPropertyOp8
 70
     1
102
RTVSPropertyOp9
 70
     1
102
RTVSPropertyOp10
 70
     1
102
RTVSPropertyOp11
 70
     1
102
RTVSPropertyOp12
 70
     1
102
RTVSPropertyOp13
 70
     1
102
RTVSPropertyOp14
 70
     1
102
RTVSPropertyOp15
 70
     1
102
RTVSPropertyOp16
 70
     1
102
RTVSPropertyOp17
 70
     1
102
RTVSPropertyOp18
 70
     1
102
RTVSPropertyOp19
 70
     1
102
RTVSPropertyOp20
 70
     1
102
RTVSPropertyOp21
 70
     1
102
RTVSPropertyOp22
 70
     1
102
RTVSPropertyOp23
 70
     1
102
RTVSPropertyOp24
 70
     1
102
RTVSPropertyOp25
 70
     1
102
RTVSPropertyOp26
 70
     1
102
RTVSPropertyOp27
 70
     1
102
RTVSPropertyOp28
 70
     1
102
RTVSPropertyOp29
 70
     1
102
RTVSPropertyOp30
 70
     1
102
RTVSPropertyOp31
 70
     1
102
RTVSPropertyOp32
 70
     1
102
RTVSPropertyOp33
 70
     1
102
RTVSPropertyOp34
 70
     1
102
RTVSPropertyOp35
 70
     1
102
RTVSPropertyOp36
 70
     1
102
RTVSPropertyOp37
 70
     1
102
RTVSPropertyOp38
 70
     1
102
RTVSPropertyOp39
 70
     1
102
RTVSPropertyOp40
 70
     1
102
RTVSPropertyOp41
 70
     1
102
RTVSPropertyOp42
 70
     1
102
RTVSPropertyOp43
 70
     1
102
RTVSPropertyOp44
 70
     1
102
RTVSPropertyOp45
 70
     1
102
RTVSPropertyOp46
 70
     1
102
RTVSPropertyOp47
 70
     1
102
RTVSPropertyOp48
 70
     1
102
RTVSPropertyOp49
 70
     1
102
RTVSPropertyOp50
 70
     1
102
RTVSPropertyOp51
 70
     0
102
RTVSPropertyOp52
 70
     0
102
RTVSPropertyOp53
 70
     1
102
RTVSPropertyOp54
 70
     1
102
RTVSPropertyOp55
 70
     1
102
RTVSPropertyOp56
 70
     1
102
RTVSPropertyOp57
 70
     1
102
RTVSPost2010Prop28
280
     0
102
RTVSPost2010PropOp28
 70
     1
102
RTVSPost2010Prop29
280
     1
102
RTVSPost2010PropOp29
 70
     1
102
RTVSPost2010Prop30
280
     1
102
RTVSPost2010PropOp30
 70
     1
102
RTVSPost2010Prop31
280
     0
102
RTVSPost2010PropOp31
 70
     1
102
RTVSPost2010Prop32
280
     0
102
RTVSPost2010PropOp32
 70
     1
102
RTVSPost2010Prop33
280
     0
102
RTVSPost2010PropOp33
 70
     1
102
RTVSPost2010Prop34
280
     0
102
RTVSPost2010PropOp34
 70
     1
102
RTVSPost2010Prop35
280
     0
102
RTVSPost2010PropOp35
 70
     1
102
RTVSPost2010Prop36
280
     0
102
RTVSPost2010PropOp36
 70
     1
102
RTVSPost2010Prop37
 90
       50
102
RTVSPost2010PropOp37
 70
     1
102
RTVSPost2010Prop38
140
0.0
102
RTVSPost2010PropOp38
 70
     1
102
RTVSPost2010Prop39
140
1.0
102
RTVSPost2010PropOp39
 70
     1
102
RTVSPost2010Prop40
 90
        0
102
RTVSPost2010PropOp40
 70
     1
102
RTVSPost2010Prop41ColorIndex
 90
       18
102
RTVSPost2010Prop41ColorRGB
 90
        0
102
RTVSPost2010PropOp41
 70
     1
102
RTVSPost2010Prop42
 90
       50
102
RTVSPost2010PropOp42
 70
     1
102
RTVSPost2010Prop43
 90
        3
102
RTVSPost2010PropOp43
 70
     1
102
RTVSPost2010Prop44ColorIndex
 90
        5
102
RTVSPost2010Prop44ColorRGB
 90
      255
102
RTVSPost2010PropOp44
 70
     1
102
RTVSPost2010Prop45
280
     0
102
RTVSPost2010PropOp45
 70
     1
102
RTVSPost2010Prop46
 90
       50
102
RTVSPost2010PropOp46
 70
     1
102
RTVSPost2010Prop47
 90
       50
102
RTVSPost2010PropOp47
 70
     1
102
RTVSPost2010Prop48
 90
       50
102
RTVSPost2010PropOp48
 70
     1
102
RTVSPost2010Prop49
280
     0
102
RTVSPost2010PropOp49
 70
     1
102
RTVSPost2010Prop50
 90
       50
102
RTVSPost2010PropOp50
 70
     1
102
RTVSPost2010Prop51ColorIndex
 90
      256
102
RTVSPost2010Prop51ColorRGB
 90
-16777216
102
RTVSPost2010PropOp51
 70
     0
102
RTVSPost2010Prop52
140
1.0
102
RTVSPost2010PropOp52
 70
     0
102
RTVSPost2010Prop53
 90
        2
102
RTVSPost2010PropOp53
 70
     1
102
RTVSPost2010Prop54
  1
strokes_ogs.tif
102
RTVSPost2010PropOp54
 70
     1
102
RTVSPost2010Prop55
280
     0
102
RTVSPost2010PropOp55
 70
     1
102
RTVSPost2010Prop56
140
1.0
102
RTVSPost2010PropOp56
 70
     1
102
RTVSPost2010Prop57
140
1.0
102
RTVSPost2010PropOp57
 70
     1
  0
ENDSEC
  0
EOF
