  0
SECTION
  2
HEADER
  9
$ACADVER
  1
AC1015
  9
$ACADMAINTVER
 70
     6
  9
$DWGCODEPAGE
  3
DOS850
  9
$INSBASE
 10
0.0
 20
0.0
 30
0.0
  9
$EXTMIN
 10
-7.39278
 20
-7.71708
 30
1.000000E 20
  9
$EXTMAX
 10
7.3994
 20
7.71103
 30
-1.000000E 20
  9
$LIMMIN
 10
0.0
 20
0.0
  9
$LIMMAX
 10
0.0
 20
0.0
  9
$ORTHOMODE
 70
     0
  9
$REGENMODE
 70
     1
  9
$FILLMODE
 70
     1
  9
$QTEXTMODE
 70
     0
  9
$MIRRTEXT
 70
     1
  9
$LTSCALE
 40
1.0
  9
$ATTMODE
 70
     1
  9
$TEXTSIZE
 40
0.2
  9
$TRACEWID
 40
0.05
  9
$TEXTSTYLE
  7
Standard
  9
$CLAYER
  8
0
  9
$CELTYPE
  6
Continuous
  9
$CECOLOR
 62
   256
  9
$CELTSCALE
 40
1.0
  9
$DISPSILH
 70
     0
  9
$DIMSCALE
 40
1.0
  9
$DIMASZ
 40
0.18
  9
$DIMEXO
 40
0.0625
  9
$DIMDLI
 40
0.38
  9
$DIMRND
 40
0.0
  9
$DIMDLE
 40
0.0
  9
$DIMEXE
 40
0.18
  9
$DIMTP
 40
0.0
  9
$DIMTM
 40
0.0
  9
$DIMTXT
 40
0.18
  9
$DIMCEN
 40
0.09
  9
$DIMTSZ
 40
0.0
  9
$DIMTOL
 70
     0
  9
$DIMLIM
 70
     0
  9
$DIMTIH
 70
     1
  9
$DIMTOH
 70
     1
  9
$DIMSE1
 70
     0
  9
$DIMSE2
 70
     0
  9
$DIMTAD
 70
     0
  9
$DIMZIN
 70
     0
  9
$DIMBLK
  1

  9
$DIMASO
 70
     1
  9
$DIMSHO
 70
     1
  9
$DIMPOST
  1

  9
$DIMAPOST
  1

  9
$DIMALT
 70
     0
  9
$DIMALTD
 70
     2
  9
$DIMALTF
 40
25.4
  9
$DIMLFAC
 40
1.0
  9
$DIMTOFL
 70
     0
  9
$DIMTVP
 40
0.0
  9
$DIMTIX
 70
     0
  9
$DIMSOXD
 70
     0
  9
$DIMSAH
 70
     0
  9
$DIMBLK1
  1

  9
$DIMBLK2
  1

  9
$DIMSTYLE
  2
Standard
  9
$DIMCLRD
 70
     0
  9
$DIMCLRE
 70
     0
  9
$DIMCLRT
 70
     0
  9
$DIMTFAC
 40
1.0
  9
$DIMGAP
 40
0.09
  9
$DIMJUST
 70
     0
  9
$DIMSD1
 70
     0
  9
$DIMSD2
 70
     0
  9
$DIMTOLJ
 70
     1
  9
$DIMTZIN
 70
     0
  9
$DIMALTZ
 70
     0
  9
$DIMALTTZ
 70
     0
  9
$DIMUPT
 70
     0
  9
$DIMDEC
 70
     4
  9
$DIMTDEC
 70
     4
  9
$DIMALTU
 70
     2
  9
$DIMALTTD
 70
     2
  9
$DIMTXSTY
  7
Standard
  9
$DIMAUNIT
 70
     0
  9
$DIMADEC
 70
     0
  9
$DIMALTRND
 40
0.0
  9
$DIMAZIN
 70
     0
  9
$DIMDSEP
 70
     0
  9
$DIMATFIT
 70
     3
  9
$DIMFRAC
 70
     0
  9
$DIMLDRBLK
  1

  9
$DIMLUNIT
 70
     2
  9
$DIMLWD
 70
     0
  9
$DIMLWE
 70
     0
  9
$DIMTMOVE
 70
     0
  9
$LUNITS
 70
     2
  9
$LUPREC
 70
     4
  9
$SKETCHINC
 40
0.1
  9
$FILLETRAD
 40
0.0
  9
$AUNITS
 70
     0
  9
$AUPREC
 70
     0
  9
$MENU
  1
acad
  9
$ELEVATION
 40
0.0
  9
$PELEVATION
 40
0.0
  9
$THICKNESS
 40
0.0
  9
$LIMCHECK
 70
     0
  9
$CHAMFERA
 40
0.0
  9
$CHAMFERB
 40
0.0
  9
$CHAMFERC
 40
0.0
  9
$CHAMFERD
 40
0.0
  9
$SKPOLY
 70
     0
  9
$TDCREATE
 40
0.000000000
  9
$TDUCREATE
 40
0.000000000
  9
$TDUPDATE
 40
0.000000000
  9
$TDUUPDATE
 40
0.000000000
  9
$TDINDWG
 40
0.0000000000
  9
$TDUSRTIMER
 40
0.0000000000
  9
$USRTIMER
 70
     1
  9
$ANGBASE
 50
0.0
  9
$ANGDIR
 70
     0
  9
$PDMODE
 70
     0
  9
$PDSIZE
 40
0.0
  9
$PLINEWID
 40
0.0
  9
$SPLFRAME
 70
     0
  9
$SPLINETYPE
 70
     6
  9
$SPLINESEGS
 70
     8
  9
$HANDSEED
  5
8E
  9
$SURFTAB1
 70
     6
  9
$SURFTAB2
 70
     6
  9
$SURFTYPE
 70
     6
  9
$SURFU
 70
     6
  9
$SURFV
 70
     6
  9
$UCSBASE
  2

  9
$UCSNAME
  2

  9
$UCSORG
 10
0.0
 20
0.0
 30
0.0
  9
$UCSXDIR
 10
1.0
 20
0.0
 30
0.0
  9
$UCSYDIR
 10
0.0
 20
1.0
 30
0.0
  9
$UCSORTHOREF
  2

  9
$UCSORTHOVIEW
 70
     0
  9
$UCSORGTOP
 10
0.0
 20
0.0
 30
0.0
  9
$UCSORGBOTTOM
 10
0.0
 20
0.0
 30
0.0
  9
$UCSORGLEFT
 10
0.0
 20
0.0
 30
0.0
  9
$UCSORGRIGHT
 10
0.0
 20
0.0
 30
0.0
  9
$UCSORGFRONT
 10
0.0
 20
0.0
 30
0.0
  9
$UCSORGBACK
 10
0.0
 20
0.0
 30
0.0
  9
$PUCSBASE
  2

  9
$PUCSNAME
  2

  9
$PUCSORG
 10
0.0
 20
0.0
 30
0.0
  9
$PUCSXDIR
 10
1.0
 20
0.0
 30
0.0
  9
$PUCSYDIR
 10
0.0
 20
1.0
 30
0.0
  9
$PUCSORTHOREF
  2

  9
$PUCSORTHOVIEW
 70
     0
  9
$PUCSORGTOP
 10
0.0
 20
0.0
 30
0.0
  9
$PUCSORGBOTTOM
 10
0.0
 20
0.0
 30
0.0
  9
$PUCSORGLEFT
 10
0.0
 20
0.0
 30
0.0
  9
$PUCSORGRIGHT
 10
0.0
 20
0.0
 30
0.0
  9
$PUCSORGFRONT
 10
0.0
 20
0.0
 30
0.0
  9
$PUCSORGBACK
 10
0.0
 20
0.0
 30
0.0
  9
$USERI1
 70
     0
  9
$USERI2
 70
     0
  9
$USERI3
 70
     0
  9
$USERI4
 70
     0
  9
$USERI5
 70
     0
  9
$USERR1
 40
0.0
  9
$USERR2
 40
0.0
  9
$USERR3
 40
0.0
  9
$USERR4
 40
0.0
  9
$USERR5
 40
0.0
  9
$WORLDVIEW
 70
     1
  9
$SHADEDGE
 70
     3
  9
$SHADEDIF
 70
    70
  9
$TILEMODE
 70
     1
  9
$MAXACTVP
 70
    16
  9
$PINSBASE
 10
0.0
 20
0.0
 30
0.0
  9
$PLIMCHECK
 70
     0
  9
$PEXTMIN
 10
1.000000E 20
 20
1.000000E 20
 30
1.000000E 20
  9
$PEXTMAX
 10
-1.000000E 20
 20
-1.000000E 20
 30
-1.000000E 20
  9
$PLIMMIN
 10
0.0
 20
0.0
  9
$PLIMMAX
 10
12.0
 20
9.0
  9
$UNITMODE
 70
     0
  9
$VISRETAIN
 70
     0
  9
$PLINEGEN
 70
     1
  9
$PSLTSCALE
 70
     0
  9
$TREEDEPTH
 70
  3020
  9
$CMLSTYLE
  2
Standard
  9
$CMLJUST
 70
     0
  9
$CMLSCALE
 40
1.0
  9
$PROXYGRAPHICS
 70
     0
  9
$MEASUREMENT
 70
     0
  9
$CELWEIGHT
370
     0
  9
$ENDCAPS
280
     0
  9
$JOINSTYLE
280
     0
  9
$LWDISPLAY
290
     0
  9
$INSUNITS
 70
     5
  9
$HYPERLINKBASE
  1

  9
$XEDIT
290
     1
  9
$CEPSNTYPE
380
     0
  9
$PSTYLEMODE
290
     1
  9
$FINGERPRINTGUID
  2

  9
$VERSIONGUID
  2

  9
$EXTNAMES
290
     1
  9
$PSVPSCALE
 40
0.0
  0
ENDSEC
  0
SECTION
  2
CLASSES
  0
CLASS
  1
LWPOLYLINE
  2
AcDbPolyline
  3
AutoCAD 2000
 90
    32768
280
     0
281
     1
  0
CLASS
  1
IMAGE
  2
AcDbRasterImage
  3
ISM
 90
    32895
280
     0
281
     1
  0
CLASS
  1
OLE2FRAME
  2
AcDbOle2Frame
  3
AutoCAD 2000
 90
    32768
280
     0
281
     1
  0
CLASS
  1
HATCH
  2
AcDbHatch
  3
AutoCAD 2000
 90
    32768
280
     0
281
     1
  0
CLASS
  1
DICTIONARYVAR
  2
AcDbDictionaryVar
  3
AutoCAD 2000
 90
    32768
280
     0
281
     0
  0
CLASS
  1
RASTERVARIABLES
  2
AcDbRasterVariables
  3
ISM
 90
    32768
280
     0
281
     0
  0
CLASS
  1
IMAGEDEF
  2
AcDbRasterImageDef
  3
ISM
 90
    32768
280
     0
281
     0
  0
CLASS
  1
IMAGEDEF_REACTOR
  2
AcDbRasterImageDefReactor
  3
ISM
 90
    32769
280
     0
281
     0
  0
CLASS
  1
IDBUFFER
  2
AcDbIdBuffer
  3
AutoCAD 2000
 90
    32768
280
     0
281
     0
  0
CLASS
  1
SPATIAL_FILTER
  2
AcDbSpatialFilter
  3
AutoCAD 2000
 90
    32768
280
     0
281
     0
  0
CLASS
  1
XRECORD
  2
AcDbXrecord
  3
AutoCAD 2000
 90
    32768
280
     0
281
     0
  0
CLASS
  1
SORTENTSTABLE
  2
AcDbSortentsTable
  3
AutoCAD 2000
 90
    32768
280
     0
281
     0
  0
CLASS
  1
LAYER_INDEX
  2
AcDbLayerIndex
  3
AutoCAD 2000
 90
    32768
280
     0
281
     0
  0
CLASS
  1
SPATIAL_INDEX
  2
AcDbSpatialIndex
  3
AutoCAD 2000
 90
    32768
280
     0
281
     0
  0
CLASS
  1
OBJECT_PTR
  2
CAseDLPNTableRecord
  3
\"ASE-LPNTableRecord\"
 90
    32769
280
     0
281
     0
  0
CLASS
  1
LAYOUT
  2
AcDbLayout
  3
AutoCAD 2000
 90
        0
280
     0
281
     0
  0
CLASS
  1
PLOTSETTINGS
  2
AcDbPlotSettings
  3
AutoCAD 2000
 90
    32768
280
     0
281
     0
  0
CLASS
  1
ACDBDICTIONARYWDFLT
  2
AcDbDictionaryWithDefault
  3
AutoCAD 2000
 90
        0
280
     0
281
     0
  0
CLASS
  1
ACDBPLACEHOLDER
  2
AcDbPlaceHolder
  3
AutoCAD 2000
 90
        0
280
     0
281
     0
  0
CLASS
  1
VBA_PROJECT
  2
AcDbVbaProject
  3
acadvba
 90
    32768
280
     0
281
     0
  0
CLASS
  1
WIPEOUT
  2
AcDbWipeout
  3
WipeOut|AutoCAD Express Tool|expresstools@autodesk.com
 90
    32895
280
     0
281
     1
  0
CLASS
  1
WIPEOUTVARIABLES
  2
AcDbWipeoutVariables
  3
WipeOut|AutoCAD Express Tool|expresstools@autodesk.com
 90
        0
280
     0
281
     0
  0
CLASS
  1
RTEXT
  2
RText
  3
RText|AutoCAD Express Tool|expresstools@autodesk.com
 90
    32768
280
     0
281
     1
  0
CLASS
  1
ARCALIGNEDTEXT
  2
AcDbArcAlignedText
  3
ATEXT|AutoCAD Express Tool|expresstools@autodesk.com
 90
    32768
280
     0
281
     1
  0
ENDSEC
  0
SECTION
  2
TABLES
  0
TABLE
  2
VPORT
  5
7
100
AcDbSymbolTable
 70
     1
  0
VPORT
  5
15
100
AcDbSymbolTableRecord
100
AcDbViewportTableRecord
  2
*ACTIVE
 70
     0
 10
0.0
 20
0.0
 11
1.0
 21
1.0
 12
6.591288
 22
4.579184
 13
0.0
 23
0.0
 14
1.0
 24
1.0
 15
0.0
 25
0.0
 16
0.0
 26
0.0
 36
1.0
 17
0.0
 27
0.0
 37
0.0
 40
9.158369
 41
0.688564
 42
50.0
 43
0.0
 44
0.0
 50
0.0
 51
0.0
 71
     0
 72
   100
 73
     1
 74
     1
 75
     0
 76
     0
 77
     0
 78
     0
281
     0
 65
     0
110
0.0
120
0.0
130
0.0
111
1.0
121
0.0
131
0.0
112
0.0
122
1.0
132
0.0
345
0
346
0
 79
     0
146
0.0
  0
ENDTAB
  0
TABLE
  2
LTYPE
  5
4
100
AcDbSymbolTable
 70
     3
  0
LTYPE
  5
11
100
AcDbSymbolTableRecord
100
AcDbLinetypeTableRecord
  2
ByBlock
 70
    64
  3

 72
    65
 73
     0
 40
0.0
  0
LTYPE
  5
12
100
AcDbSymbolTableRecord
100
AcDbLinetypeTableRecord
  2
ByLayer
 70
    64
  3

 72
    65
 73
     0
 40
0.0
  0
LTYPE
  5
13
100
AcDbSymbolTableRecord
100
AcDbLinetypeTableRecord
  2
Continuous
 70
    64
  3
Solid line
 72
    65
 73
     0
 40
0.0
  0
ENDTAB
  0
TABLE
  2
LAYER
  5
2
100
AcDbSymbolTable
 70
     2
  0
LAYER
  5
14
100
AcDbSymbolTableRecord
100
AcDbLayerTableRecord
  2
0
 70
     0
 62
     7
  6
Continuous
290
     1
370
    -3
390
1D
  0
LAYER
  5
24
100
AcDbSymbolTableRecord
100
AcDbLayerTableRecord
  2
Ebene 1
 70
     0
 62
     7
  6
Continuous
290
     1
370
    -3
390
1F
  0
ENDTAB
  0
TABLE
  2
STYLE
  5
3
100
AcDbSymbolTable
 70
     1
  0
STYLE
  5
17
100
AcDbSymbolTableRecord
100
AcDbTextStyleTableRecord
  2
Standard
 70
     0
 40
0.0
 41
1.0
 50
0.0
 71
     0
 42
0.0
  3
txt
  4

  0
ENDTAB
  0
TABLE
  2
VIEW
  5
5
100
AcDbSymbolTable
 70
     0
  0
ENDTAB
  0
TABLE
  2
UCS
  5
6
100
AcDbSymbolTable
 70
     0
  0
ENDTAB
  0
TABLE
  2
APPID
  5
8
100
AcDbSymbolTable
 70
     1
  0
APPID
  5
16
100
AcDbSymbolTableRecord
100
AcDbRegAppTableRecord
  2
ACAD
 70
     0
  0
ENDTAB
  0
TABLE
  2
DIMSTYLE
  5
9
100
AcDbSymbolTable
 70
     1
100
AcDbDimStyleTable
 71
     0
  0
DIMSTYLE
105
18
100
AcDbSymbolTableRecord
100
AcDbDimStyleTableRecord
  2
Standard
 70
     0
  3

  4

 40
1.0
 41
0.18
 42
0.0625
 43
0.38
 44
0.18
 45
0.0
 46
0.0
 47
0.0
 48
0.0
 71
     0
 72
     0
 73
     1
 74
     1
 75
     0
 76
     0
 77
     0
 78
     0
 79
     0
140
0.18
141
0.09
142
0.0
143
25.4
144
1.0
145
0.0
146
1.0
147
0.09
148
0.0
170
     0
171
     2
172
     0
173
     0
174
     0
175
     0
176
     0
177
     0
178
     0
179
     0
271
     4
272
     4
273
     2
274
     2
275
     0
276
     0
277
     2
278
    46
279
     0
280
     0
281
     0
282
     0
283
     1
284
     0
285
     0
286
     0
288
     0
340
17
341
0
342
0
343
0
344
0
371
    -2
372
    -2
  0
ENDTAB
  0
TABLE
  2
BLOCK_RECORD
  5
1
100
AcDbSymbolTable
 70
     0
  0
BLOCK_RECORD
  5
A
100
AcDbSymbolTableRecord
100
AcDbBlockTableRecord
  2
*MODEL_SPACE
340
20
  0
BLOCK_RECORD
  5
B
100
AcDbSymbolTableRecord
100
AcDbBlockTableRecord
  2
*PAPER_SPACE
340
21
  0
ENDTAB
  0
ENDSEC
  0
SECTION
  2
BLOCKS
  0
BLOCK
  5
D
100
AcDbEntity
  8
0
100
AcDbBlockBegin
  2
*MODEL_SPACE
 70
     0
 10
0.0
 20
0.0
 30
0.0
  3
*MODEL_SPACE
  1

  0
ENDBLK
  5
E
100
AcDbEntity
  8
0
100
AcDbBlockEnd
  0
BLOCK
  5
F
100
AcDbEntity
 67
     1
  8
0
100
AcDbBlockBegin
  2
*PAPER_SPACE
 70
     0
 10
0.0
 20
0.0
 30
0.0
  3
*PAPER_SPACE
  1

  0
ENDBLK
  5
10
100
AcDbEntity
 67
     1
  8
0
100
AcDbBlockEnd
  0
ENDSEC
  0
SECTION
  2
ENTITIES
  0
SPLINE
  5
25
100
AcDbEntity
  8
Ebene 1
100
AcDbSpline
210
0.0
220
0.0
230
1.0
 70
     1
 71
     3
 72
   300
 73
   296
 74
     0
 42
0.0000000001
 43
0.0000000001
 40
0.0
 40
0.0
 40
0.0
 40
0.0
 40
0.0135135135135135
 40
0.0135135135135135
 40
0.0135135135135135
 40
0.0135135135135135
 40
0.027027027027027
 40
0.027027027027027
 40
0.027027027027027
 40
0.027027027027027
 40
0.0405405405405405
 40
0.0405405405405405
 40
0.0405405405405405
 40
0.0405405405405405
 40
0.0540540540540541
 40
0.0540540540540541
 40
0.0540540540540541
 40
0.0540540540540541
 40
0.0675675675675676
 40
0.0675675675675676
 40
0.0675675675675676
 40
0.0675675675675676
 40
0.0810810810810811
 40
0.0810810810810811
 40
0.0810810810810811
 40
0.0810810810810811
 40
0.0945945945945946
 40
0.0945945945945946
 40
0.0945945945945946
 40
0.0945945945945946
 40
0.1081081081081081
 40
0.1081081081081081
 40
0.1081081081081081
 40
0.1081081081081081
 40
0.1216216216216216
 40
0.1216216216216216
 40
0.1216216216216216
 40
0.1216216216216216
 40
0.1351351351351351
 40
0.1351351351351351
 40
0.1351351351351351
 40
0.1351351351351351
 40
0.1486486486486487
 40
0.1486486486486487
 40
0.1486486486486487
 40
0.1486486486486487
 40
0.1621621621621622
 40
0.1621621621621622
 40
0.1621621621621622
 40
0.1621621621621622
 40
0.1756756756756757
 40
0.1756756756756757
 40
0.1756756756756757
 40
0.1756756756756757
 40
0.1891891891891892
 40
0.1891891891891892
 40
0.1891891891891892
 40
0.1891891891891892
 40
0.2027027027027027
 40
0.2027027027027027
 40
0.2027027027027027
 40
0.2027027027027027
 40
0.2162162162162162
 40
0.2162162162162162
 40
0.2162162162162162
 40
0.2162162162162162
 40
0.2297297297297297
 40
0.2297297297297297
 40
0.2297297297297297
 40
0.2297297297297297
 40
0.2432432432432433
 40
0.2432432432432433
 40
0.2432432432432433
 40
0.2432432432432433
 40
0.2567567567567568
 40
0.2567567567567568
 40
0.2567567567567568
 40
0.2567567567567568
 40
0.2702702702702703
 40
0.2702702702702703
 40
0.2702702702702703
 40
0.2702702702702703
 40
0.2837837837837838
 40
0.2837837837837838
 40
0.2837837837837838
 40
0.2837837837837838
 40
0.2972972972972973
 40
0.2972972972972973
 40
0.2972972972972973
 40
0.2972972972972973
 40
0.3108108108108107
 40
0.3108108108108107
 40
0.3108108108108107
 40
0.3108108108108107
 40
0.3243243243243242
 40
0.3243243243243242
 40
0.3243243243243242
 40
0.3243243243243242
 40
0.3378378378378377
 40
0.3378378378378377
 40
0.3378378378378377
 40
0.3378378378378377
 40
0.3513513513513512
 40
0.3513513513513512
 40
0.3513513513513512
 40
0.3513513513513512
 40
0.3648648648648647
 40
0.3648648648648647
 40
0.3648648648648647
 40
0.3648648648648647
 40
0.3783783783783782
 40
0.3783783783783782
 40
0.3783783783783782
 40
0.3783783783783782
 40
0.3918918918918917
 40
0.3918918918918917
 40
0.3918918918918917
 40
0.3918918918918917
 40
0.4054054054054052
 40
0.4054054054054052
 40
0.4054054054054052
 40
0.4054054054054052
 40
0.4189189189189186
 40
0.4189189189189186
 40
0.4189189189189186
 40
0.4189189189189186
 40
0.4324324324324321
 40
0.4324324324324321
 40
0.4324324324324321
 40
0.4324324324324321
 40
0.4459459459459456
 40
0.4459459459459456
 40
0.4459459459459456
 40
0.4459459459459456
 40
0.4594594594594591
 40
0.4594594594594591
 40
0.4594594594594591
 40
0.4594594594594591
 40
0.4729729729729726
 40
0.4729729729729726
 40
0.4729729729729726
 40
0.4729729729729726
 40
0.4864864864864861
 40
0.4864864864864861
 40
0.4864864864864861
 40
0.4864864864864861
 40
0.4999999999999996
 40
0.4999999999999996
 40
0.4999999999999996
 40
0.4999999999999996
 40
0.513513513513513
 40
0.513513513513513
 40
0.513513513513513
 40
0.513513513513513
 40
0.5270270270270265
 40
0.5270270270270265
 40
0.5270270270270265
 40
0.5270270270270265
 40
0.54054054054054
 40
0.54054054054054
 40
0.54054054054054
 40
0.54054054054054
 40
0.5540540540540535
 40
0.5540540540540535
 40
0.5540540540540535
 40
0.5540540540540535
 40
0.567567567567567
 40
0.567567567567567
 40
0.567567567567567
 40
0.567567567567567
 40
0.5810810810810805
 40
0.5810810810810805
 40
0.5810810810810805
 40
0.5810810810810805
 40
0.594594594594594
 40
0.594594594594594
 40
0.594594594594594
 40
0.594594594594594
 40
0.6081081081081075
 40
0.6081081081081075
 40
0.6081081081081075
 40
0.6081081081081075
 40
0.6216216216216209
 40
0.6216216216216209
 40
0.6216216216216209
 40
0.6216216216216209
 40
0.6351351351351344
 40
0.6351351351351344
 40
0.6351351351351344
 40
0.6351351351351344
 40
0.6486486486486479
 40
0.6486486486486479
 40
0.6486486486486479
 40
0.6486486486486479
 40
0.6621621621621614
 40
0.6621621621621614
 40
0.6621621621621614
 40
0.6621621621621614
 40
0.6756756756756749
 40
0.6756756756756749
 40
0.6756756756756749
 40
0.6756756756756749
 40
0.6891891891891884
 40
0.6891891891891884
 40
0.6891891891891884
 40
0.6891891891891884
 40
0.7027027027027019
 40
0.7027027027027019
 40
0.7027027027027019
 40
0.7027027027027019
 40
0.7162162162162153
 40
0.7162162162162153
 40
0.7162162162162153
 40
0.7162162162162153
 40
0.7297297297297288
 40
0.7297297297297288
 40
0.7297297297297288
 40
0.7297297297297288
 40
0.7432432432432423
 40
0.7432432432432423
 40
0.7432432432432423
 40
0.7432432432432423
 40
0.7567567567567558
 40
0.7567567567567558
 40
0.7567567567567558
 40
0.7567567567567558
 40
0.7702702702702693
 40
0.7702702702702693
 40
0.7702702702702693
 40
0.7702702702702693
 40
0.7837837837837828
 40
0.7837837837837828
 40
0.7837837837837828
 40
0.7837837837837828
 40
0.7972972972972963
 40
0.7972972972972963
 40
0.7972972972972963
 40
0.7972972972972963
 40
0.8108108108108098
 40
0.8108108108108098
 40
0.8108108108108098
 40
0.8108108108108098
 40
0.8243243243243232
 40
0.8243243243243232
 40
0.8243243243243232
 40
0.8243243243243232
 40
0.8378378378378367
 40
0.8378378378378367
 40
0.8378378378378367
 40
0.8378378378378367
 40
0.8513513513513502
 40
0.8513513513513502
 40
0.8513513513513502
 40
0.8513513513513502
 40
0.8648648648648637
 40
0.8648648648648637
 40
0.8648648648648637
 40
0.8648648648648637
 40
0.8783783783783772
 40
0.8783783783783772
 40
0.8783783783783772
 40
0.8783783783783772
 40
0.8918918918918907
 40
0.8918918918918907
 40
0.8918918918918907
 40
0.8918918918918907
 40
0.9054054054054042
 40
0.9054054054054042
 40
0.9054054054054042
 40
0.9054054054054042
 40
0.9189189189189176
 40
0.9189189189189176
 40
0.9189189189189176
 40
0.9189189189189176
 40
0.9324324324324311
 40
0.9324324324324311
 40
0.9324324324324311
 40
0.9324324324324311
 40
0.9459459459459446
 40
0.9459459459459446
 40
0.9459459459459446
 40
0.9459459459459446
 40
0.9594594594594581
 40
0.9594594594594581
 40
0.9594594594594581
 40
0.9594594594594581
 40
0.9729729729729716
 40
0.9729729729729716
 40
0.9729729729729716
 40
0.9729729729729716
 40
0.9864864864864851
 40
0.9864864864864851
 40
0.9864864864864851
 40
0.9864864864864851
 40
1.0
 40
1.0
 40
1.0
 40
1.0
 10
7.0308600000000006
 20
1.3532500000000001
 30
0.0
 10
7.1273800000000005
 20
1.4802500000000001
 30
0.0
 10
7.3661400000000006
 20
1.5767700000000002
 30
0.0
 10
7.1756400000000005
 20
1.3684900000000002
 30
0.0
 10
7.1756400000000005
 20
1.3684900000000002
 30
0.0
 10
7.0486400000000007
 20
1.19323
 30
0.0
 10
7.4779000000000009
 20
1.5615300000000001
 30
0.0
 10
7.2543800000000003
 20
1.32023
 30
0.0
 10
7.2543800000000003
 20
1.32023
 30
0.0
 10
7.2543800000000003
 20
1.32023
 30
0.0
 10
6.8098800000000006
 20
0.8782700000000001
 30
0.0
 10
6.8098800000000006
 20
0.8782700000000001
 30
0.0
 10
6.8098800000000006
 20
0.8782700000000001
 30
0.0
 10
6.8098800000000006
 20
0.8782700000000001
 30
0.0
 10
7.1426200000000009
 20
1.0357500000000002
 30
0.0
 10
7.1426200000000009
 20
1.0357500000000002
 30
0.0
 10
7.1426200000000009
 20
1.0357500000000002
 30
0.0
 10
7.2696200000000006
 20
0.9874900000000001
 30
0.0
 10
6.6981200000000003
 20
0.6547500000000001
 30
0.0
 10
7.0003800000000007
 20
0.7334900000000001
 30
0.0
 10
7.0003800000000007
 20
0.7334900000000001
 30
0.0
 10
7.0003800000000007
 20
0.7334900000000001
 30
0.0
 10
7.1273800000000005
 20
0.7817500000000001
 30
0.0
 10
7.1273800000000005
 20
0.7817500000000001
 30
0.0
 10
7.1273800000000005
 20
0.7817500000000001
 30
0.0
 10
7.1756400000000005
 20
0.8147700000000001
 30
0.0
 10
7.1756400000000005
 20
0.7334900000000001
 30
0.0
 10
7.1273800000000005
 20
0.7334900000000001
 30
0.0
 10
7.1273800000000005
 20
0.7334900000000001
 30
0.0
 10
7.1273800000000005
 20
0.7334900000000001
 30
0.0
 10
6.9038600000000008
 20
0.4947300000000001
 30
0.0
 10
6.9038600000000008
 20
0.4947300000000001
 30
0.0
 10
6.9038600000000008
 20
0.4947300000000001
 30
0.0
 10
6.5863600000000009
 20
0.14675
 30
0.0
 10
7.4144000000000005
 20
0.6547500000000001
 30
0.0
 10
7.2391400000000008
 20
0.4947300000000001
 30
0.0
 10
7.2391400000000008
 20
0.4947300000000001
 30
0.0
 10
7.2543800000000003
 20
0.4312300000000001
 30
0.0
 10
7.0638800000000002
 20
0.3270900000000001
 30
0.0
 10
7.0156200000000002
 20
0.28899
 30
0.0
 10
7.0156200000000002
 20
0.28899
 30
0.0
 10
6.9699000000000009
 20
0.19247
 30
0.0
 10
6.776860000000001
 20
0.16199
 30
0.0
 10
6.7616200000000006
 20
0.08325
 30
0.0
 10
6.7616200000000006
 20
0.08325
 30
0.0
 10
7.0003800000000007
 20
0.00451
 30
0.0
 10
7.2543800000000003
 20
-0.15296
 30
0.0
 10
7.284860000000001
 20
-0.4222
 30
0.0
 10
7.284860000000001
 20
-0.4222
 30
0.0
 10
7.1426200000000009
 20
-0.32822
 30
0.0
 10
7.0486400000000007
 20
-0.0412
 30
0.0
 10
6.8429000000000002
 20
-0.10724
 30
0.0
 10
6.8429000000000002
 20
-0.10724
 30
0.0
 10
6.8098800000000006
 20
-0.10724
 30
0.0
 10
6.7616200000000006
 20
-0.10724
 30
0.0
 10
6.7463800000000003
 20
-0.13772
 30
0.0
 10
6.7463800000000003
 20
-0.13772
 30
0.0
 10
6.9368800000000004
 20
-0.39172
 30
0.0
 10
7.2696200000000006
 20
-0.6457200000000001
 30
0.0
 10
7.1756400000000005
 20
-0.9937
 30
0.0
 10
7.1756400000000005
 20
-0.9937
 30
0.0
 10
7.0969000000000007
 20
-0.75748
 30
0.0
 10
6.8886200000000004
 20
-0.5492
 30
0.0
 10
6.6981200000000003
 20
-0.37648
 30
0.0
 10
6.6981200000000003
 20
-0.37648
 30
0.0
 10
6.6981200000000003
 20
-0.34346
 30
0.0
 10
6.6676400000000005
 20
-0.37648
 30
0.0
 10
6.6981200000000003
 20
-0.37648
 30
0.0
 10
6.6981200000000003
 20
-0.37648
 30
0.0
 10
6.8556000000000008
 20
-0.8362200000000001
 30
0.0
 10
6.7286000000000001
 20
-1.16896
 30
0.0
 10
6.5558800000000002
 20
-0.61524
 30
0.0
 10
6.5558800000000002
 20
-0.61524
 30
0.0
 10
6.4288800000000004
 20
-0.6381
 30
0.0
 10
6.5965200000000008
 20
-0.8362200000000001
 30
0.0
 10
6.6295400000000004
 20
-0.9454400000000001
 30
0.0
 10
6.6295400000000004
 20
-0.9454400000000001
 30
0.0
 10
7.3585200000000004
 20
-3.2924000000000002
 30
0.0
 10
6.1088400000000007
 20
-5.5606200000000001
 30
0.0
 10
5.4128800000000004
 20
-7.717080000000001
 30
0.0
 10
5.4128800000000004
 20
-7.717080000000001
 30
0.0
 10
3.5205800000000003
 20
-7.2395600000000009
 30
0.0
 10
1.2168000000000001
 20
-7.3995800000000003
 30
0.0
 10
-0.4799100000000001
 20
-6.2388000000000003
 30
0.0
 10
-0.4799100000000001
 20
-6.2388000000000003
 30
0.0
 10
-0.52817
 20
-6.6528200000000002
 30
0.0
 10
-0.24369
 20
-7.0973200000000007
 30
0.0
 10
-0.17765
 20
-7.3995800000000003
 30
0.0
 10
-0.17765
 20
-7.3995800000000003
 30
0.0
 10
-0.5459500000000001
 20
-7.0643000000000002
 30
0.0
 10
-0.8634500000000001
 20
-6.6528200000000002
 30
0.0
 10
-1.0539500000000002
 20
-6.1905400000000004
 30
0.0
 10
-1.0539500000000002
 20
-6.1905400000000004
 30
0.0
 10
-1.3231900000000001
 20
-6.3658000000000001
 30
0.0
 10
-1.7346700000000002
 20
-6.8890400000000005
 30
0.0
 10
-2.1436100000000002
 20
-7.0973200000000007
 30
0.0
 10
-2.1436100000000002
 20
-7.0973200000000007
 30
0.0
 10
-1.9759700000000002
 20
-6.7798200000000008
 30
0.0
 10
-1.5619500000000002
 20
-6.5080400000000003
 30
0.0
 10
-1.5619500000000002
 20
-6.0813200000000007
 30
0.0
 10
-1.5619500000000002
 20
-6.0813200000000007
 30
0.0
 10
-1.4349500000000002
 20
-5.6342800000000004
 30
0.0
 10
-1.9277100000000003
 20
-6.0965600000000002
 30
0.0
 10
-2.05471
 20
-6.2388000000000003
 30
0.0
 10
-2.05471
 20
-6.2388000000000003
 30
0.0
 10
-2.4890500000000002
 20
-6.7950600000000003
 30
0.0
 10
-2.4534900000000004
 20
-6.6198000000000006
 30
0.0
 10
-2.1766300000000003
 20
-6.0813200000000007
 30
0.0
 10
-2.1766300000000003
 20
-6.0813200000000007
 30
0.0
 10
-1.6406900000000002
 20
-5.3320200000000009
 30
0.0
 10
-2.6668500000000002
 20
-5.8095400000000001
 30
0.0
 10
-2.9716500000000003
 20
-6.0813200000000007
 30
0.0
 10
-2.9716500000000003
 20
-6.0813200000000007
 30
0.0
 10
-2.7709900000000003
 20
-5.7460400000000007
 30
0.0
 10
-1.8311900000000001
 20
-4.9840400000000002
 30
0.0
 10
-2.4509500000000002
 20
-5.0475400000000006
 30
0.0
 10
-2.4509500000000002
 20
-5.0475400000000006
 30
0.0
 10
-2.6846300000000003
 20
-5.3802800000000008
 30
0.0
 10
-3.1011900000000003
 20
-5.3650400000000005
 30
0.0
 10
-3.4313900000000004
 20
-5.3015400000000001
 30
0.0
 10
-3.4313900000000004
 20
-5.3015400000000001
 30
0.0
 10
-3.5863300000000002
 20
-5.9213000000000005
 30
0.0
 10
-4.04861
 20
-6.7798200000000008
 30
0.0
 10
-4.8182300000000007
 20
-6.6680600000000005
 30
0.0
 10
-4.8182300000000007
 20
-6.6680600000000005
 30
0.0
 10
-5.6335700000000006
 20
-6.2870600000000003
 30
0.0
 10
-4.8106100000000005
 20
-5.7460400000000007
 30
0.0
 10
-4.3762700000000008
 20
-5.5072800000000006
 30
0.0
 10
-4.3762700000000008
 20
-5.5072800000000006
 30
0.0
 10
-4.1857700000000007
 20
-5.3320200000000009
 30
0.0
 10
-4.4143700000000008
 20
-5.2532800000000002
 30
0.0
 10
-4.3889700000000005
 20
-5.0627800000000001
 30
0.0
 10
-4.3889700000000005
 20
-5.0627800000000001
 30
0.0
 10
-4.3915100000000002
 20
-4.7605200000000005
 30
0.0
 10
-3.9876500000000004
 20
-3.5057600000000004
 30
0.0
 10
-4.52867
 20
-4.09504
 30
0.0
 10
-4.52867
 20
-4.09504
 30
0.0
 10
-4.9706300000000008
 20
-4.4125400000000008
 30
0.0
 10
-6.0171100000000006
 20
-4.8519600000000001
 30
0.0
 10
-6.6800500000000005
 20
-4.8265600000000006
 30
0.0
 10
-6.6800500000000005
 20
-4.8265600000000006
 30
0.0
 10
-7.1067700000000009
 20
-4.8087800000000005
 30
0.0
 10
-7.4776100000000003
 20
-4.5878000000000005
 30
0.0
 10
-7.3760100000000008
 20
-4.0772600000000008
 30
0.0
 10
-7.3760100000000008
 20
-4.0772600000000008
 30
0.0
 10
-7.3328300000000004
 20
-3.9020000000000001
 30
0.0
 10
-7.1880500000000005
 20
-3.7927800000000005
 30
0.0
 10
-7.0280300000000002
 20
-3.7292800000000002
 30
0.0
 10
-7.0280300000000002
 20
-3.7292800000000002
 30
0.0
 10
-6.1491900000000008
 20
-3.8867600000000002
 30
0.0
 10
-4.8842700000000008
 20
-3.6327600000000002
 30
0.0
 10
-4.4956500000000004
 20
-2.7259800000000003
 30
0.0
 10
-4.4956500000000004
 20
-2.7259800000000003
 30
0.0
 10
-3.5279100000000003
 20
-2.6650200000000002
 30
0.0
 10
-3.2535900000000004
 20
-1.5499600000000002
 30
0.0
 10
-2.4204700000000003
 20
-1.3289800000000001
 30
0.0
 10
-2.4204700000000003
 20
-1.3289800000000001
 30
0.0
 10
-1.3714500000000001
 20
-1.2807200000000001
 30
0.0
 10
-0.9421900000000001
 20
-2.6167600000000002
 30
0.0
 10
-0.00493
 20
-2.8072600000000003
 30
0.0
 10
-0.00493
 20
-2.8072600000000003
 30
0.0
 10
0.15254
 20
-3.2822400000000003
 30
0.0
 10
0.53354
 20
-3.5845000000000002
 30
0.0
 10
1.0085200000000001
 20
-3.2365200000000001
 30
0.0
 10
1.0085200000000001
 20
-3.2365200000000001
 30
0.0
 10
0.3913
 20
-2.5837400000000001
 30
0.0
 10
-0.7669300000000001
 20
-2.4567400000000004
 30
0.0
 10
-1.03617
 20
-1.5829800000000001
 30
0.0
 10
-1.03617
 20
-1.5829800000000001
 30
0.0
 10
-1.9912100000000001
 20
-1.63124
 30
0.0
 10
-2.2426700000000004
 20
-0.40696
 30
0.0
 10
-1.67371
 20
0.19247
 30
0.0
 10
-1.67371
 20
0.19247
 30
0.0
 10
-1.8159500000000002
 20
0.31947
 30
0.0
 10
-1.7346700000000002
 20
0.47949
 30
0.0
 10
-1.8159500000000002
 20
0.6547500000000001
 30
0.0
 10
-1.8159500000000002
 20
0.6547500000000001
 30
0.0
 10
-1.9429500000000002
 20
1.0840100000000001
 30
0.0
 10
-2.3722100000000004
 20
0.8452500000000001
 30
0.0
 10
-2.5779500000000004
 20
1.11449
 30
0.0
 10
-2.5779500000000004
 20
1.11449
 30
0.0
 10
-2.40523
 20
1.4802500000000001
 30
0.0
 10
-2.1715500000000003
 20
1.2897500000000002
 30
0.0
 10
-2.05471
 20
1.7494900000000002
 30
0.0
 10
-2.05471
 20
1.7494900000000002
 30
0.0
 10
-1.6406900000000002
 20
2.2752700000000003
 30
0.0
 10
-1.9912100000000001
 20
2.9915500000000002
 30
0.0
 10
-1.6889500000000002
 20
3.5478100000000001
 30
0.0
 10
-1.6889500000000002
 20
3.5478100000000001
 30
0.0
 10
-1.9759700000000002
 20
3.3090500000000005
 30
0.0
 10
-2.1232900000000003
 20
2.9432900000000002
 30
0.0
 10
-2.40015
 20
2.7045300000000001
 30
0.0
 10
-2.40015
 20
2.7045300000000001
 30
0.0
 10
-3.0427700000000004
 20
1.8561700000000001
 30
0.0
 10
-3.8098500000000004
 20
0.74365
 30
0.0
 10
-3.5761700000000003
 20
-0.25202
 30
0.0
 10
-3.5761700000000003
 20
-0.25202
 30
0.0
 10
-3.3932900000000004
 20
-0.346
 30
0.0
 10
-3.2662900000000001
 20
-0.52888
 30
0.0
 10
-3.2662900000000001
 20
-0.73716
 30
0.0
 10
-3.2662900000000001
 20
-0.73716
 30
0.0
 10
-3.2662900000000001
 20
-1.04196
 30
0.0
 10
-3.5329900000000003
 20
-1.29088
 30
0.0
 10
-3.8631900000000003
 20
-1.29088
 30
0.0
 10
-3.8631900000000003
 20
-1.29088
 30
0.0
 10
-4.1908500000000002
 20
-1.29088
 30
0.0
 10
-4.4575500000000003
 20
-1.04196
 30
0.0
 10
-4.4575500000000003
 20
-0.73716
 30
0.0
 10
-4.4575500000000003
 20
-0.73716
 30
0.0
 10
-4.4575500000000003
 20
-0.4679200000000001
 30
0.0
 10
-4.2467300000000003
 20
-0.24186
 30
0.0
 10
-3.9698700000000002
 20
-0.1936
 30
0.0
 10
-3.9698700000000002
 20
-0.1936
 30
0.0
 10
-4.0282900000000001
 20
0.16707
 30
0.0
 10
-4.18323
 20
0.5658500000000001
 30
0.0
 10
-3.9927300000000003
 20
0.9087500000000001
 30
0.0
 10
-3.9927300000000003
 20
0.9087500000000001
 30
0.0
 10
-3.5507700000000004
 20
3.3395300000000003
 30
0.0
 10
-3.11389
 20
6.0573300000000003
 30
0.0
 10
-1.03617
 20
7.7108700000000008
 30
0.0
 10
-1.03617
 20
7.7108700000000008
 30
0.0
 10
-0.52817
 20
7.7261100000000003
 30
0.0
 10
-0.16241
 20
7.2968500000000009
 30
0.0
 10
0.35828
 20
7.3755900000000008
 30
0.0
 10
0.35828
 20
7.3755900000000008
 30
0.0
 10
1.7248000000000001
 20
8.043610000000001
 30
0.0
 10
3.7263200000000003
 20
7.2968500000000009
 30
0.0
 10
4.0920800000000002
 20
5.7550700000000008
 30
0.0
 10
4.0920800000000002
 20
5.7550700000000008
 30
0.0
 10
5.4128800000000004
 20
4.6908100000000008
 30
0.0
 10
5.4128800000000004
 20
3.0372700000000004
 30
0.0
 10
5.7938800000000006
 20
1.6885300000000001
 30
0.0
 10
5.7938800000000006
 20
1.6885300000000001
 30
0.0
 10
5.8548400000000003
 20
1.7190100000000001
 30
0.0
 10
5.8726200000000004
 20
1.78251
 30
0.0
 10
5.9031000000000002
 20
1.8307700000000002
 30
0.0
 10
5.9031000000000002
 20
1.8307700000000002
 30
0.0
 10
6.0936000000000003
 20
2.2447900000000001
 30
0.0
 10
5.9361200000000007
 20
1.4345300000000001
 30
0.0
 10
6.0478800000000001
 20
1.52851
 30
0.0
 10
6.0478800000000001
 20
1.52851
 30
0.0
 10
6.0478800000000001
 20
1.52851
 30
0.0
 10
6.1113800000000005
 20
1.7190100000000001
 30
0.0
 10
6.1113800000000005
 20
1.7190100000000001
 30
0.0
 10
6.1113800000000005
 20
1.7190100000000001
 30
0.0
 10
6.1113800000000005
 20
1.7494900000000002
 30
0.0
 10
6.1748800000000008
 20
1.7672700000000001
 30
0.0
 10
6.1571000000000007
 20
1.7190100000000001
 30
0.0
 10
6.1571000000000007
 20
1.7190100000000001
 30
0.0
 10
6.1494800000000005
 20
1.4319900000000001
 30
0.0
 10
6.2231400000000008
 20
1.5793100000000002
 30
0.0
 10
6.2587000000000002
 20
1.7469500000000002
 30
0.0
 10
6.2587000000000002
 20
1.7469500000000002
 30
0.0
 10
6.2866400000000002
 20
1.8790300000000002
 30
0.0
 10
6.2688600000000001
 20
2.0238100000000001
 30
0.0
 10
6.317120000000001
 20
1.9907900000000001
 30
0.0
 10
6.317120000000001
 20
1.9907900000000001
 30
0.0
 10
6.4136400000000009
 20
0.76651
 30
0.0
 10
6.5863600000000009
 20
3.1795100000000001
 30
0.0
 10
6.6193800000000005
 20
2.46577
 30
0.0
 10
6.6193800000000005
 20
2.46577
 30
0.0
 10
6.8098800000000006
 20
1.4802500000000001
 30
0.0
 10
6.6981200000000003
 20
3.9923100000000002
 30
0.0
 10
6.9368800000000004
 20
3.3242900000000004
 30
0.0
 10
6.9368800000000004
 20
3.3242900000000004
 30
0.0
 10
6.9521200000000007
 20
3.1972900000000002
 30
0.0
 10
6.9851400000000003
 20
3.0855300000000003
 30
0.0
 10
7.0156200000000002
 20
2.9585300000000001
 30
0.0
 10
7.0156200000000002
 20
2.9585300000000001
 30
0.0
 10
7.0791200000000005
 20
2.7832700000000004
 30
0.0
 10
7.0969000000000007
 20
2.6080100000000002
 30
0.0
 10
7.0638800000000002
 20
2.4352900000000002
 30
0.0
 10
7.0638800000000002
 20
2.4352900000000002
 30
0.0
 10
7.0638800000000002
 20
2.4352900000000002
 30
0.0
 10
7.0638800000000002
 20
2.2752700000000003
 30
0.0
 10
7.0638800000000002
 20
2.2752700000000003
 30
0.0
 10
7.0638800000000002
 20
2.2752700000000003
 30
0.0
 10
7.0638800000000002
 20
2.2752700000000003
 30
0.0
 10
7.1756400000000005
 20
2.6080100000000002
 30
0.0
 10
7.1756400000000005
 20
2.6080100000000002
 30
0.0
 10
7.1756400000000005
 20
2.6080100000000002
 30
0.0
 10
7.4144000000000005
 20
2.7832700000000004
 30
0.0
 10
7.0003800000000007
 20
1.8942700000000001
 30
0.0
 10
7.2391400000000008
 20
2.17875
 30
0.0
 10
7.2391400000000008
 20
2.17875
 30
0.0
 10
7.2391400000000008
 20
2.17875
 30
0.0
 10
7.3178800000000006
 20
2.3235300000000003
 30
0.0
 10
7.3178800000000006
 20
2.3235300000000003
 30
0.0
 10
7.3178800000000006
 20
2.3235300000000003
 30
0.0
 10
7.3940800000000007
 20
2.6257900000000003
 30
0.0
 10
7.5083800000000007
 20
2.2320900000000004
 30
0.0
 10
7.1680200000000003
 20
1.9069700000000001
 30
0.0
 10
7.1680200000000003
 20
1.9069700000000001
 30
0.0
 10
6.8810000000000002
 20
1.6326500000000002
 30
0.0
 10
6.8454400000000009
 20
1.1856100000000001
 30
0.0
 10
7.0308600000000006
 20
1.3532500000000001
 30
0.0
  0
SPLINE
  5
26
100
AcDbEntity
  8
Ebene 1
 62
     7
100
AcDbSpline
210
0.0
220
0.0
230
1.0
 70
     1
 71
     3
 72
    16
 73
    12
 74
     0
 42
0.0000000001
 43
0.0000000001
 40
0.0
 40
0.0
 40
0.0
 40
0.0
 40
0.3333333333333333
 40
0.3333333333333333
 40
0.3333333333333333
 40
0.3333333333333333
 40
0.6666666666666666
 40
0.6666666666666666
 40
0.6666666666666666
 40
0.6666666666666666
 40
1.0
 40
1.0
 40
1.0
 40
1.0
 10
-0.8151900000000001
 20
7.5660900000000009
 30
0.0
 10
-0.8151900000000001
 20
7.5660900000000009
 30
0.0
 10
-0.08367
 20
7.2968500000000009
 30
0.0
 10
-0.08367
 20
7.2968500000000009
 30
0.0
 10
-0.08367
 20
7.2968500000000009
 30
0.0
 10
-0.24369
 20
7.248590000000001
 30
0.0
 10
-0.41895
 20
7.2638300000000005
 30
0.0
 10
-0.57643
 20
7.3425700000000003
 30
0.0
 10
-0.57643
 20
7.3425700000000003
 30
0.0
 10
-0.7339100000000001
 20
7.2968500000000009
 30
0.0
 10
-0.84821
 20
7.4238500000000007
 30
0.0
 10
-0.8151900000000001
 20
7.5660900000000009
 30
0.0
  0
SPLINE
  5
27
100
AcDbEntity
  8
Ebene 1
 62
     7
100
AcDbSpline
210
0.0
220
0.0
230
1.0
 70
     1
 71
     3
 72
   284
 73
   280
 74
     0
 42
0.0000000001
 43
0.0000000001
 40
0.0
 40
0.0
 40
0.0
 40
0.0
 40
0.0142857142857143
 40
0.0142857142857143
 40
0.0142857142857143
 40
0.0142857142857143
 40
0.0285714285714286
 40
0.0285714285714286
 40
0.0285714285714286
 40
0.0285714285714286
 40
0.0428571428571429
 40
0.0428571428571429
 40
0.0428571428571429
 40
0.0428571428571429
 40
0.0571428571428571
 40
0.0571428571428571
 40
0.0571428571428571
 40
0.0571428571428571
 40
0.0714285714285714
 40
0.0714285714285714
 40
0.0714285714285714
 40
0.0714285714285714
 40
0.0857142857142857
 40
0.0857142857142857
 40
0.0857142857142857
 40
0.0857142857142857
 40
0.1
 40
0.1
 40
0.1
 40
0.1
 40
0.1142857142857143
 40
0.1142857142857143
 40
0.1142857142857143
 40
0.1142857142857143
 40
0.1285714285714286
 40
0.1285714285714286
 40
0.1285714285714286
 40
0.1285714285714286
 40
0.1428571428571429
 40
0.1428571428571429
 40
0.1428571428571429
 40
0.1428571428571429
 40
0.1571428571428572
 40
0.1571428571428572
 40
0.1571428571428572
 40
0.1571428571428572
 40
0.1714285714285715
 40
0.1714285714285715
 40
0.1714285714285715
 40
0.1714285714285715
 40
0.1857142857142858
 40
0.1857142857142858
 40
0.1857142857142858
 40
0.1857142857142858
 40
0.2
 40
0.2
 40
0.2
 40
0.2
 40
0.2142857142857143
 40
0.2142857142857143
 40
0.2142857142857143
 40
0.2142857142857143
 40
0.2285714285714286
 40
0.2285714285714286
 40
0.2285714285714286
 40
0.2285714285714286
 40
0.2428571428571429
 40
0.2428571428571429
 40
0.2428571428571429
 40
0.2428571428571429
 40
0.2571428571428572
 40
0.2571428571428572
 40
0.2571428571428572
 40
0.2571428571428572
 40
0.2714285714285715
 40
0.2714285714285715
 40
0.2714285714285715
 40
0.2714285714285715
 40
0.2857142857142858
 40
0.2857142857142858
 40
0.2857142857142858
 40
0.2857142857142858
 40
0.3
 40
0.3
 40
0.3
 40
0.3
 40
0.3142857142857143
 40
0.3142857142857143
 40
0.3142857142857143
 40
0.3142857142857143
 40
0.3285714285714286
 40
0.3285714285714286
 40
0.3285714285714286
 40
0.3285714285714286
 40
0.3428571428571429
 40
0.3428571428571429
 40
0.3428571428571429
 40
0.3428571428571429
 40
0.3571428571428572
 40
0.3571428571428572
 40
0.3571428571428572
 40
0.3571428571428572
 40
0.3714285714285715
 40
0.3714285714285715
 40
0.3714285714285715
 40
0.3714285714285715
 40
0.3857142857142858
 40
0.3857142857142858
 40
0.3857142857142858
 40
0.3857142857142858
 40
0.4000000000000001
 40
0.4000000000000001
 40
0.4000000000000001
 40
0.4000000000000001
 40
0.4142857142857144
 40
0.4142857142857144
 40
0.4142857142857144
 40
0.4142857142857144
 40
0.4285714285714287
 40
0.4285714285714287
 40
0.4285714285714287
 40
0.4285714285714287
 40
0.442857142857143
 40
0.442857142857143
 40
0.442857142857143
 40
0.442857142857143
 40
0.4571428571428572
 40
0.4571428571428572
 40
0.4571428571428572
 40
0.4571428571428572
 40
0.4714285714285715
 40
0.4714285714285715
 40
0.4714285714285715
 40
0.4714285714285715
 40
0.4857142857142858
 40
0.4857142857142858
 40
0.4857142857142858
 40
0.4857142857142858
 40
0.5000000000000001
 40
0.5000000000000001
 40
0.5000000000000001
 40
0.5000000000000001
 40
0.5142857142857144
 40
0.5142857142857144
 40
0.5142857142857144
 40
0.5142857142857144
 40
0.5285714285714286
 40
0.5285714285714286
 40
0.5285714285714286
 40
0.5285714285714286
 40
0.5428571428571428
 40
0.5428571428571428
 40
0.5428571428571428
 40
0.5428571428571428
 40
0.5571428571428571
 40
0.5571428571428571
 40
0.5571428571428571
 40
0.5571428571428571
 40
0.5714285714285713
 40
0.5714285714285713
 40
0.5714285714285713
 40
0.5714285714285713
 40
0.5857142857142855
 40
0.5857142857142855
 40
0.5857142857142855
 40
0.5857142857142855
 40
0.5999999999999998
 40
0.5999999999999998
 40
0.5999999999999998
 40
0.5999999999999998
 40
0.614285714285714
 40
0.614285714285714
 40
0.614285714285714
 40
0.614285714285714
 40
0.6285714285714282
 40
0.6285714285714282
 40
0.6285714285714282
 40
0.6285714285714282
 40
0.6428571428571425
 40
0.6428571428571425
 40
0.6428571428571425
 40
0.6428571428571425
 40
0.6571428571428567
 40
0.6571428571428567
 40
0.6571428571428567
 40
0.6571428571428567
 40
0.6714285714285709
 40
0.6714285714285709
 40
0.6714285714285709
 40
0.6714285714285709
 40
0.6857142857142852
 40
0.6857142857142852
 40
0.6857142857142852
 40
0.6857142857142852
 40
0.6999999999999994
 40
0.6999999999999994
 40
0.6999999999999994
 40
0.6999999999999994
 40
0.7142857142857136
 40
0.7142857142857136
 40
0.7142857142857136
 40
0.7142857142857136
 40
0.7285714285714279
 40
0.7285714285714279
 40
0.7285714285714279
 40
0.7285714285714279
 40
0.7428571428571421
 40
0.7428571428571421
 40
0.7428571428571421
 40
0.7428571428571421
 40
0.7571428571428563
 40
0.7571428571428563
 40
0.7571428571428563
 40
0.7571428571428563
 40
0.7714285714285706
 40
0.7714285714285706
 40
0.7714285714285706
 40
0.7714285714285706
 40
0.7857142857142848
 40
0.7857142857142848
 40
0.7857142857142848
 40
0.7857142857142848
 40
0.7999999999999991
 40
0.7999999999999991
 40
0.7999999999999991
 40
0.7999999999999991
 40
0.8142857142857133
 40
0.8142857142857133
 40
0.8142857142857133
 40
0.8142857142857133
 40
0.8285714285714275
 40
0.8285714285714275
 40
0.8285714285714275
 40
0.8285714285714275
 40
0.8428571428571418
 40
0.8428571428571418
 40
0.8428571428571418
 40
0.8428571428571418
 40
0.857142857142856
 40
0.857142857142856
 40
0.857142857142856
 40
0.857142857142856
 40
0.8714285714285702
 40
0.8714285714285702
 40
0.8714285714285702
 40
0.8714285714285702
 40
0.8857142857142845
 40
0.8857142857142845
 40
0.8857142857142845
 40
0.8857142857142845
 40
0.8999999999999987
 40
0.8999999999999987
 40
0.8999999999999987
 40
0.8999999999999987
 40
0.9142857142857129
 40
0.9142857142857129
 40
0.9142857142857129
 40
0.9142857142857129
 40
0.9285714285714272
 40
0.9285714285714272
 40
0.9285714285714272
 40
0.9285714285714272
 40
0.9428571428571414
 40
0.9428571428571414
 40
0.9428571428571414
 40
0.9428571428571414
 40
0.9571428571428556
 40
0.9571428571428556
 40
0.9571428571428556
 40
0.9571428571428556
 40
0.9714285714285699
 40
0.9714285714285699
 40
0.9714285714285699
 40
0.9714285714285699
 40
0.9857142857142841
 40
0.9857142857142841
 40
0.9857142857142841
 40
0.9857142857142841
 40
1.0
 40
1.0
 40
1.0
 40
1.0
 10
2.0575400000000004
 20
7.0428500000000005
 30
0.0
 10
2.2023200000000003
 20
6.9463300000000006
 30
0.0
 10
2.4233000000000002
 20
6.9463300000000006
 30
0.0
 10
2.5350600000000001
 20
6.8345700000000003
 30
0.0
 10
2.5350600000000001
 20
6.8345700000000003
 30
0.0
 10
1.9940400000000003
 20
7.0098300000000009
 30
0.0
 10
2.2023200000000003
 20
6.7075700000000005
 30
0.0
 10
2.6138000000000003
 20
6.6618500000000003
 30
0.0
 10
2.6138000000000003
 20
6.6618500000000003
 30
0.0
 10
2.7408000000000001
 20
6.5653300000000003
 30
0.0
 10
2.5198200000000002
 20
6.6288300000000007
 30
0.0
 10
2.4715600000000002
 20
6.6618500000000003
 30
0.0
 10
2.4715600000000002
 20
6.6618500000000003
 30
0.0
 10
2.3928200000000004
 20
6.6770900000000006
 30
0.0
 10
2.3293200000000001
 20
6.6923300000000001
 30
0.0
 10
2.2658200000000002
 20
6.740590000000001
 30
0.0
 10
2.2658200000000002
 20
6.740590000000001
 30
0.0
 10
1.6613000000000002
 20
6.8345700000000003
 30
0.0
 10
3.4570800000000004
 20
6.2148100000000008
 30
0.0
 10
2.6138000000000003
 20
6.4383300000000006
 30
0.0
 10
2.6138000000000003
 20
6.4383300000000006
 30
0.0
 10
2.6138000000000003
 20
6.4383300000000006
 30
0.0
 10
2.1540600000000003
 20
6.5348500000000005
 30
0.0
 10
2.1540600000000003
 20
6.5348500000000005
 30
0.0
 10
2.1540600000000003
 20
6.5348500000000005
 30
0.0
 10
2.0753200000000001
 20
6.5500900000000009
 30
0.0
 10
1.9635600000000002
 20
6.6135900000000003
 30
0.0
 10
1.8848200000000002
 20
6.5653300000000003
 30
0.0
 10
1.8848200000000002
 20
6.5653300000000003
 30
0.0
 10
2.4080600000000003
 20
6.1995700000000005
 30
0.0
 10
3.13958
 20
6.1690900000000006
 30
0.0
 10
3.5993200000000001
 20
5.6585500000000009
 30
0.0
 10
3.5993200000000001
 20
5.6585500000000009
 30
0.0
 10
3.5993200000000001
 20
5.6585500000000009
 30
0.0
 10
3.0608400000000002
 20
5.8973100000000001
 30
0.0
 10
3.0608400000000002
 20
5.8973100000000001
 30
0.0
 10
3.0608400000000002
 20
5.8973100000000001
 30
0.0
 10
3.0608400000000002
 20
5.8973100000000001
 30
0.0
 10
2.5655400000000004
 20
6.1208300000000007
 30
0.0
 10
2.5655400000000004
 20
6.1208300000000007
 30
0.0
 10
2.5655400000000004
 20
6.1208300000000007
 30
0.0
 10
2.37758
 20
6.2148100000000008
 30
0.0
 10
2.4385400000000002
 20
6.0878100000000002
 30
0.0
 10
2.5833200000000001
 20
6.0395500000000002
 30
0.0
 10
2.5833200000000001
 20
6.0395500000000002
 30
0.0
 10
2.5833200000000001
 20
6.0395500000000002
 30
0.0
 10
2.8525600000000004
 20
5.9125500000000004
 30
0.0
 10
2.8525600000000004
 20
5.9125500000000004
 30
0.0
 10
2.8525600000000004
 20
5.9125500000000004
 30
0.0
 10
2.8525600000000004
 20
5.9125500000000004
 30
0.0
 10
3.3783400000000001
 20
5.6433100000000005
 30
0.0
 10
3.3783400000000001
 20
5.6433100000000005
 30
0.0
 10
3.3783400000000001
 20
5.6433100000000005
 30
0.0
 10
3.7593400000000003
 20
5.38931
 30
0.0
 10
3.2183200000000003
 20
5.6915700000000005
 30
0.0
 10
3.0608400000000002
 20
5.7398300000000004
 30
0.0
 10
3.0608400000000002
 20
5.7398300000000004
 30
0.0
 10
2.6138000000000003
 20
6.0090700000000004
 30
0.0
 10
2.5350600000000001
 20
5.9303300000000005
 30
0.0
 10
2.2023200000000003
 20
5.9455700000000009
 30
0.0
 10
2.2023200000000003
 20
5.9455700000000009
 30
0.0
 10
3.1243400000000001
 20
5.43757
 30
0.0
 10
4.0616000000000003
 20
4.8660700000000006
 30
0.0
 10
4.8540800000000006
 20
4.1497900000000003
 30
0.0
 10
4.8540800000000006
 20
4.1497900000000003
 30
0.0
 10
4.6635800000000005
 20
4.8025700000000002
 30
0.0
 10
4.2673399999999999
 20
5.3410500000000001
 30
0.0
 10
3.7745800000000003
 20
5.8033300000000008
 30
0.0
 10
3.7745800000000003
 20
5.8033300000000008
 30
0.0
 10
4.0438200000000002
 20
5.7068100000000008
 30
0.0
 10
4.2368600000000001
 20
5.43757
 30
0.0
 10
4.4248200000000004
 20
5.2318300000000004
 30
0.0
 10
4.4248200000000004
 20
5.2318300000000004
 30
0.0
 10
5.0293400000000004
 20
4.5968300000000006
 30
0.0
 10
4.9988600000000005
 20
3.6265500000000004
 30
0.0
 10
5.3163600000000004
 20
2.9585300000000001
 30
0.0
 10
5.3163600000000004
 20
2.9585300000000001
 30
0.0
 10
5.4916200000000002
 20
2.6892900000000002
 30
0.0
 10
5.4586000000000006
 20
2.5775300000000003
 30
0.0
 10
5.2376200000000006
 20
2.7832700000000004
 30
0.0
 10
5.2376200000000006
 20
2.7832700000000004
 30
0.0
 10
5.2528600000000001
 20
2.46577
 30
0.0
 10
5.0293400000000004
 20
2.3540100000000002
 30
0.0
 10
5.0776000000000003
 20
2.7502500000000003
 30
0.0
 10
5.0776000000000003
 20
2.7502500000000003
 30
0.0
 10
4.9988600000000005
 20
3.0067900000000001
 30
0.0
 10
4.7753400000000008
 20
3.1337900000000003
 30
0.0
 10
4.5061
 20
3.0525100000000003
 30
0.0
 10
4.5061
 20
3.0525100000000003
 30
0.0
 10
4.5061
 20
3.0525100000000003
 30
0.0
 10
4.4095800000000001
 20
3.0855300000000003
 30
0.0
 10
4.4095800000000001
 20
3.0855300000000003
 30
0.0
 10
4.4095800000000001
 20
3.0855300000000003
 30
0.0
 10
4.7753400000000008
 20
3.1972900000000002
 30
0.0
 10
4.8718600000000007
 20
3.5147900000000001
 30
0.0
 10
4.8718600000000007
 20
3.8475300000000003
 30
0.0
 10
4.8718600000000007
 20
3.8475300000000003
 30
0.0
 10
4.4629200000000004
 20
4.3479100000000006
 30
0.0
 10
3.8736400000000004
 20
4.8025700000000002
 30
0.0
 10
3.3148400000000002
 20
5.1734100000000005
 30
0.0
 10
3.3148400000000002
 20
5.1734100000000005
 30
0.0
 10
2.8043
 20
5.5112300000000003
 30
0.0
 10
2.3318600000000003
 20
5.7804700000000002
 30
0.0
 10
1.7552800000000002
 20
5.9252500000000001
 30
0.0
 10
1.7552800000000002
 20
5.9252500000000001
 30
0.0
 10
1.5317600000000002
 20
5.9836700000000009
 30
0.0
 10
1.2650600000000001
 20
5.9531900000000002
 30
0.0
 10
1.0415400000000001
 20
5.9785900000000005
 30
0.0
 10
1.0415400000000001
 20
5.9785900000000005
 30
0.0
 10
0.9780400000000001
 20
5.9125500000000004
 30
0.0
 10
1.23204
 20
5.8820700000000006
 30
0.0
 10
1.10504
 20
5.8515900000000007
 30
0.0
 10
1.10504
 20
5.8515900000000007
 30
0.0
 10
1.10504
 20
5.8515900000000007
 30
0.0
 10
0.85104
 20
6.0090700000000004
 30
0.0
 10
0.85104
 20
6.0090700000000004
 30
0.0
 10
0.85104
 20
6.0090700000000004
 30
0.0
 10
1.1355200000000001
 20
6.2960900000000004
 30
0.0
 10
1.6308200000000002
 20
6.1208300000000007
 30
0.0
 10
1.9635600000000002
 20
6.2960900000000004
 30
0.0
 10
1.9635600000000002
 20
6.2960900000000004
 30
0.0
 10
2.0423
 20
6.3595900000000007
 30
0.0
 10
1.9483200000000001
 20
6.4688100000000004
 30
0.0
 10
1.8670400000000003
 20
6.4535700000000009
 30
0.0
 10
1.8670400000000003
 20
6.4535700000000009
 30
0.0
 10
1.3107800000000001
 20
6.6135900000000003
 30
0.0
 10
0.8993000000000001
 20
6.0878100000000002
 30
0.0
 10
0.42178
 20
5.9125500000000004
 30
0.0
 10
0.42178
 20
5.9125500000000004
 30
0.0
 10
0.6935600000000001
 20
6.1360700000000001
 30
0.0
 10
0.9932800000000001
 20
6.3418100000000006
 30
0.0
 10
1.2955400000000001
 20
6.5018300000000009
 30
0.0
 10
1.2955400000000001
 20
6.5018300000000009
 30
0.0
 10
1.4073000000000002
 20
6.6288300000000007
 30
0.0
 10
1.5343000000000002
 20
6.7075700000000005
 30
0.0
 10
1.5343000000000002
 20
6.8980700000000006
 30
0.0
 10
1.5343000000000002
 20
6.8980700000000006
 30
0.0
 10
1.4377800000000001
 20
7.0276100000000001
 30
0.0
 10
1.3285600000000002
 20
6.9463300000000006
 30
0.0
 10
1.2803000000000002
 20
7.0580900000000009
 30
0.0
 10
1.2803000000000002
 20
7.0580900000000009
 30
0.0
 10
1.2803000000000002
 20
7.0580900000000009
 30
0.0
 10
1.0263
 20
6.9310900000000002
 30
0.0
 10
1.0263
 20
6.9310900000000002
 30
0.0
 10
1.0263
 20
6.9310900000000002
 30
0.0
 10
1.0263
 20
6.9310900000000002
 30
0.0
 10
0.9475600000000001
 20
6.9793500000000002
 30
0.0
 10
0.9475600000000001
 20
6.9793500000000002
 30
0.0
 10
0.9475600000000001
 20
6.9793500000000002
 30
0.0
 10
0.3913
 20
6.6923300000000001
 30
0.0
 10
0.0738
 20
6.2808500000000009
 30
0.0
 10
-0.17765
 20
5.7703100000000003
 30
0.0
 10
-0.17765
 20
5.7703100000000003
 30
0.0
 10
-0.6881900000000001
 20
5.3105700000000002
 30
0.0
 10
-1.16317
 20
4.7847900000000001
 30
0.0
 10
-1.54671
 20
4.2285300000000001
 30
0.0
 10
-1.54671
 20
4.2285300000000001
 30
0.0
 10
-1.54671
 20
4.2285300000000001
 30
0.0
 10
-0.7339100000000001
 20
5.0387900000000005
 30
0.0
 10
-0.7339100000000001
 20
5.0387900000000005
 30
0.0
 10
-0.7339100000000001
 20
5.0387900000000005
 30
0.0
 10
-1.4984500000000001
 20
3.9745300000000001
 30
0.0
 10
-2.3341100000000004
 20
2.9102700000000001
 30
0.0
 10
-3.1443700000000003
 20
1.8942700000000001
 30
0.0
 10
-3.1443700000000003
 20
1.8942700000000001
 30
0.0
 10
-2.8954500000000003
 20
2.71977
 30
0.0
 10
-2.4915900000000004
 20
3.4995500000000002
 30
0.0
 10
-2.1690100000000001
 20
4.3098100000000006
 30
0.0
 10
-2.1690100000000001
 20
4.3098100000000006
 30
0.0
 10
-2.22743
 20
4.3098100000000006
 30
0.0
 10
-2.2502900000000001
 20
4.2285300000000001
 30
0.0
 10
-2.2883900000000001
 20
4.1980500000000003
 30
0.0
 10
-2.2883900000000001
 20
4.1980500000000003
 30
0.0
 10
-2.2883900000000001
 20
4.1980500000000003
 30
0.0
 10
-3.9292300000000004
 20
0.4642500000000001
 30
0.0
 10
-3.9292300000000004
 20
0.4642500000000001
 30
0.0
 10
-3.9292300000000004
 20
0.4642500000000001
 30
0.0
 10
-3.9647900000000003
 20
0.22549
 30
0.0
 10
-3.8428700000000005
 20
-0.01072
 30
0.0
 10
-3.8657300000000001
 20
-0.23424
 30
0.0
 10
-3.8657300000000001
 20
-0.23424
 30
0.0
 10
-4.1883100000000004
 20
0.47949
 30
0.0
 10
-3.7539700000000003
 20
1.14751
 30
0.0
 10
-3.4999700000000002
 20
1.8155300000000001
 30
0.0
 10
-3.4999700000000002
 20
1.8155300000000001
 30
0.0
 10
-3.4999700000000002
 20
1.8155300000000001
 30
0.0
 10
-3.3450300000000004
 20
2.3235300000000003
 30
0.0
 10
-3.3450300000000004
 20
2.3235300000000003
 30
0.0
 10
-3.3450300000000004
 20
2.3235300000000003
 30
0.0
 10
-3.5279100000000003
 20
2.0365100000000003
 30
0.0
 10
-3.6015700000000002
 20
1.65551
 30
0.0
 10
-3.7869900000000003
 20
1.3684900000000002
 30
0.0
 10
-3.7869900000000003
 20
1.3684900000000002
 30
0.0
 10
-3.2307300000000003
 20
3.0372700000000004
 30
0.0
 10
-3.6676100000000003
 20
3.5147900000000001
 30
0.0
 10
-2.7557500000000004
 20
5.1988100000000008
 30
0.0
 10
-2.7557500000000004
 20
5.1988100000000008
 30
0.0
 10
-2.8090900000000003
 20
4.7543100000000003
 30
0.0
 10
-2.9792700000000001
 20
4.3250500000000001
 30
0.0
 10
-3.1037300000000001
 20
3.8957900000000003
 30
0.0
 10
-3.1037300000000001
 20
3.8957900000000003
 30
0.0
 10
-3.1519900000000001
 20
3.6417900000000003
 30
0.0
 10
-3.1850100000000001
 20
3.3877900000000003
 30
0.0
 10
-3.0173700000000001
 20
3.7535500000000002
 30
0.0
 10
-3.0173700000000001
 20
3.7535500000000002
 30
0.0
 10
-2.7633700000000001
 20
4.2132900000000006
 30
0.0
 10
-2.6871700000000001
 20
4.7390700000000008
 30
0.0
 10
-2.3341100000000004
 20
5.1505500000000008
 30
0.0
 10
-2.3341100000000004
 20
5.1505500000000008
 30
0.0
 10
-2.4077700000000002
 20
4.42157
 30
0.0
 10
-1.5771900000000001
 20
5.7398300000000004
 30
0.0
 10
-1.46543
 20
6.2325900000000001
 30
0.0
 10
-1.46543
 20
6.2325900000000001
 30
0.0
 10
-1.7346700000000002
 20
6.5653300000000003
 30
0.0
 10
-2.2020300000000002
 20
5.7499900000000004
 30
0.0
 10
-2.22235
 20
5.8465100000000003
 30
0.0
 10
-2.22235
 20
5.8465100000000003
 30
0.0
 10
-2.2121900000000001
 20
5.8846100000000003
 30
0.0
 10
-2.1334500000000003
 20
6.0827300000000006
 30
0.0
 10
-2.09789
 20
6.2148100000000008
 30
0.0
 10
-2.09789
 20
6.2148100000000008
 30
0.0
 10
-1.8946900000000002
 20
6.6923300000000001
 30
0.0
 10
-1.41971
 20
7.0098300000000009
 30
0.0
 10
-1.1809500000000002
 20
7.4695700000000009
 30
0.0
 10
-1.1809500000000002
 20
7.4695700000000009
 30
0.0
 10
-1.08443
 20
7.2968500000000009
 30
0.0
 10
-1.1326900000000002
 20
7.1698500000000003
 30
0.0
 10
-1.1809500000000002
 20
6.9945900000000005
 30
0.0
 10
-1.1809500000000002
 20
6.9945900000000005
 30
0.0
 10
-0.8634500000000001
 20
6.9615700000000009
 30
0.0
 10
-0.8939300000000001
 20
6.9158500000000007
 30
0.0
 10
-0.41895
 20
7.1368300000000007
 30
0.0
 10
-0.41895
 20
7.1368300000000007
 30
0.0
 10
-0.59167
 20
6.9615700000000009
 30
0.0
 10
-0.9269500000000001
 20
6.8040900000000004
 30
0.0
 10
-1.00569
 20
6.6288300000000007
 30
0.0
 10
-1.00569
 20
6.6288300000000007
 30
0.0
 10
-0.7339100000000001
 20
6.8523500000000004
 30
0.0
 10
-0.43419
 20
7.0580900000000009
 30
0.0
 10
-0.09891
 20
7.1698500000000003
 30
0.0
 10
-0.09891
 20
7.1698500000000003
 30
0.0
 10
-0.09891
 20
7.1698500000000003
 30
0.0
 10
-0.9269500000000001
 20
6.5983500000000008
 30
0.0
 10
-0.9269500000000001
 20
6.5983500000000008
 30
0.0
 10
-0.9269500000000001
 20
6.5983500000000008
 30
0.0
 10
-1.21143
 20
6.2478300000000004
 30
0.0
 10
-0.6246900000000001
 20
6.7888500000000009
 30
0.0
 10
-0.46467
 20
6.8345700000000003
 30
0.0
 10
-0.46467
 20
6.8345700000000003
 30
0.0
 10
-0.21067
 20
6.9793500000000002
 30
0.0
 10
0.04078
 20
7.1368300000000007
 30
0.0
 10
0.3278
 20
7.200330000000001
 30
0.0
 10
0.3278
 20
7.200330000000001
 30
0.0
 10
-0.4697500000000001
 20
6.6491500000000006
 30
0.0
 10
-1.0615700000000001
 20
5.7880900000000004
 30
0.0
 10
-1.6381500000000002
 20
4.9397300000000008
 30
0.0
 10
-1.6381500000000002
 20
4.9397300000000008
 30
0.0
 10
-1.7245100000000002
 20
4.8152700000000008
 30
0.0
 10
-1.9353300000000002
 20
4.59429
 30
0.0
 10
-1.8311900000000001
 20
4.5307900000000005
 30
0.0
 10
-1.8311900000000001
 20
4.5307900000000005
 30
0.0
 10
-0.7669300000000001
 20
6.2808500000000009
 30
0.0
 10
1.48604
 20
8.7573500000000006
 30
0.0
 10
3.4875600000000002
 20
6.7253500000000006
 30
0.0
 10
3.4875600000000002
 20
6.7253500000000006
 30
0.0
 10
3.7415600000000002
 20
6.4865900000000005
 30
0.0
 10
3.9650800000000004
 20
6.1843300000000001
 30
0.0
 10
3.9828600000000005
 20
5.8338100000000006
 30
0.0
 10
3.9828600000000005
 20
5.8338100000000006
 30
0.0
 10
3.6806000000000001
 20
5.9303300000000005
 30
0.0
 10
3.6958400000000005
 20
6.3113300000000008
 30
0.0
 10
3.4875600000000002
 20
6.5170700000000004
 30
0.0
 10
3.4875600000000002
 20
6.5170700000000004
 30
0.0
 10
3.2335600000000002
 20
6.9615700000000009
 30
0.0
 10
2.6950800000000004
 20
7.1368300000000007
 30
0.0
 10
2.2505800000000002
 20
7.3425700000000003
 30
0.0
 10
2.2505800000000002
 20
7.3425700000000003
 30
0.0
 10
1.8949800000000001
 20
7.5686300000000006
 30
0.0
 10
1.9000600000000001
 20
7.1546100000000008
 30
0.0
 10
2.0575400000000004
 20
7.0428500000000005
 30
0.0
  0
SPLINE
  5
28
100
AcDbEntity
  8
Ebene 1
100
AcDbSpline
210
0.0
220
0.0
230
1.0
 70
     1
 71
     3
 72
    20
 73
    16
 74
     0
 42
0.0000000001
 43
0.0000000001
 40
0.0
 40
0.0
 40
0.0
 40
0.0
 40
0.25
 40
0.25
 40
0.25
 40
0.25
 40
0.5
 40
0.5
 40
0.5
 40
0.5
 40
0.75
 40
0.75
 40
0.75
 40
0.75
 40
1.0
 40
1.0
 40
1.0
 40
1.0
 10
-0.63993
 20
6.5018300000000009
 30
0.0
 10
-0.6246900000000001
 20
6.5018300000000009
 30
0.0
 10
-0.59167
 20
6.4865900000000005
 30
0.0
 10
-0.6069100000000001
 20
6.4688100000000004
 30
0.0
 10
-0.6069100000000001
 20
6.4688100000000004
 30
0.0
 10
-0.6069100000000001
 20
6.4688100000000004
 30
0.0
 10
-1.9099300000000001
 20
4.7238300000000004
 30
0.0
 10
-1.9099300000000001
 20
4.7238300000000004
 30
0.0
 10
-1.9099300000000001
 20
4.7238300000000004
 30
0.0
 10
-2.1258300000000001
 20
4.59429
 30
0.0
 10
-1.9048500000000002
 20
4.8660700000000006
 30
0.0
 10
-1.8692900000000001
 20
4.9244900000000005
 30
0.0
 10
-1.8692900000000001
 20
4.9244900000000005
 30
0.0
 10
-1.5238500000000001
 20
5.4807500000000005
 30
0.0
 10
-1.04379
 20
5.9836700000000009
 30
0.0
 10
-0.63993
 20
6.5018300000000009
 30
0.0
  0
SPLINE
  5
29
100
AcDbEntity
  8
Ebene 1
 62
     7
100
AcDbSpline
210
0.0
220
0.0
230
1.0
 70
     1
 71
     3
 72
   184
 73
   180
 74
     0
 42
0.0000000001
 43
0.0000000001
 40
0.0
 40
0.0
 40
0.0
 40
0.0
 40
0.0222222222222222
 40
0.0222222222222222
 40
0.0222222222222222
 40
0.0222222222222222
 40
0.0444444444444444
 40
0.0444444444444444
 40
0.0444444444444444
 40
0.0444444444444444
 40
0.0666666666666667
 40
0.0666666666666667
 40
0.0666666666666667
 40
0.0666666666666667
 40
0.0888888888888889
 40
0.0888888888888889
 40
0.0888888888888889
 40
0.0888888888888889
 40
0.1111111111111111
 40
0.1111111111111111
 40
0.1111111111111111
 40
0.1111111111111111
 40
0.1333333333333333
 40
0.1333333333333333
 40
0.1333333333333333
 40
0.1333333333333333
 40
0.1555555555555556
 40
0.1555555555555556
 40
0.1555555555555556
 40
0.1555555555555556
 40
0.1777777777777778
 40
0.1777777777777778
 40
0.1777777777777778
 40
0.1777777777777778
 40
0.2
 40
0.2
 40
0.2
 40
0.2
 40
0.2222222222222222
 40
0.2222222222222222
 40
0.2222222222222222
 40
0.2222222222222222
 40
0.2444444444444445
 40
0.2444444444444445
 40
0.2444444444444445
 40
0.2444444444444445
 40
0.2666666666666667
 40
0.2666666666666667
 40
0.2666666666666667
 40
0.2666666666666667
 40
0.2888888888888889
 40
0.2888888888888889
 40
0.2888888888888889
 40
0.2888888888888889
 40
0.3111111111111111
 40
0.3111111111111111
 40
0.3111111111111111
 40
0.3111111111111111
 40
0.3333333333333333
 40
0.3333333333333333
 40
0.3333333333333333
 40
0.3333333333333333
 40
0.3555555555555555
 40
0.3555555555555555
 40
0.3555555555555555
 40
0.3555555555555555
 40
0.3777777777777777
 40
0.3777777777777777
 40
0.3777777777777777
 40
0.3777777777777777
 40
0.3999999999999999
 40
0.3999999999999999
 40
0.3999999999999999
 40
0.3999999999999999
 40
0.4222222222222221
 40
0.4222222222222221
 40
0.4222222222222221
 40
0.4222222222222221
 40
0.4444444444444443
 40
0.4444444444444443
 40
0.4444444444444443
 40
0.4444444444444443
 40
0.4666666666666665
 40
0.4666666666666665
 40
0.4666666666666665
 40
0.4666666666666665
 40
0.4888888888888887
 40
0.4888888888888887
 40
0.4888888888888887
 40
0.4888888888888887
 40
0.5111111111111109
 40
0.5111111111111109
 40
0.5111111111111109
 40
0.5111111111111109
 40
0.5333333333333331
 40
0.5333333333333331
 40
0.5333333333333331
 40
0.5333333333333331
 40
0.5555555555555554
 40
0.5555555555555554
 40
0.5555555555555554
 40
0.5555555555555554
 40
0.5777777777777776
 40
0.5777777777777776
 40
0.5777777777777776
 40
0.5777777777777776
 40
0.5999999999999999
 40
0.5999999999999999
 40
0.5999999999999999
 40
0.5999999999999999
 40
0.6222222222222221
 40
0.6222222222222221
 40
0.6222222222222221
 40
0.6222222222222221
 40
0.6444444444444444
 40
0.6444444444444444
 40
0.6444444444444444
 40
0.6444444444444444
 40
0.6666666666666666
 40
0.6666666666666666
 40
0.6666666666666666
 40
0.6666666666666666
 40
0.6888888888888889
 40
0.6888888888888889
 40
0.6888888888888889
 40
0.6888888888888889
 40
0.7111111111111111
 40
0.7111111111111111
 40
0.7111111111111111
 40
0.7111111111111111
 40
0.7333333333333334
 40
0.7333333333333334
 40
0.7333333333333334
 40
0.7333333333333334
 40
0.7555555555555557
 40
0.7555555555555557
 40
0.7555555555555557
 40
0.7555555555555557
 40
0.7777777777777779
 40
0.7777777777777779
 40
0.7777777777777779
 40
0.7777777777777779
 40
0.8000000000000002
 40
0.8000000000000002
 40
0.8000000000000002
 40
0.8000000000000002
 40
0.8222222222222224
 40
0.8222222222222224
 40
0.8222222222222224
 40
0.8222222222222224
 40
0.8444444444444447
 40
0.8444444444444447
 40
0.8444444444444447
 40
0.8444444444444447
 40
0.8666666666666669
 40
0.8666666666666669
 40
0.8666666666666669
 40
0.8666666666666669
 40
0.8888888888888892
 40
0.8888888888888892
 40
0.8888888888888892
 40
0.8888888888888892
 40
0.9111111111111114
 40
0.9111111111111114
 40
0.9111111111111114
 40
0.9111111111111114
 40
0.9333333333333337
 40
0.9333333333333337
 40
0.9333333333333337
 40
0.9333333333333337
 40
0.9555555555555559
 40
0.9555555555555559
 40
0.9555555555555559
 40
0.9555555555555559
 40
0.9777777777777782
 40
0.9777777777777782
 40
0.9777777777777782
 40
0.9777777777777782
 40
1.0
 40
1.0
 40
1.0
 40
1.0
 10
1.2168000000000001
 20
5.8820700000000006
 30
0.0
 10
2.3928200000000004
 20
5.8820700000000006
 30
0.0
 10
3.1548200000000004
 20
5.0083100000000007
 30
0.0
 10
4.0768400000000007
 20
4.4520500000000007
 30
0.0
 10
4.0768400000000007
 20
4.4520500000000007
 30
0.0
 10
4.0768400000000007
 20
4.4520500000000007
 30
0.0
 10
3.8076000000000003
 20
4.5790500000000005
 30
0.0
 10
3.8076000000000003
 20
4.5790500000000005
 30
0.0
 10
3.8076000000000003
 20
4.5790500000000005
 30
0.0
 10
3.4088200000000004
 20
4.8178100000000006
 30
0.0
 10
4.2190799999999999
 20
4.1345499999999999
 30
0.0
 10
3.9498400000000005
 20
3.8805500000000004
 30
0.0
 10
3.9498400000000005
 20
3.8805500000000004
 30
0.0
 10
2.8678000000000003
 20
4.2463100000000003
 30
0.0
 10
1.8035400000000001
 20
4.2945700000000002
 30
0.0
 10
0.6275200000000001
 20
4.1828099999999999
 30
0.0
 10
0.6275200000000001
 20
4.1828099999999999
 30
0.0
 10
0.7545200000000001
 20
3.9440500000000003
 30
0.0
 10
1.9305400000000001
 20
4.2945700000000002
 30
0.0
 10
2.2328000000000001
 20
3.8957900000000003
 30
0.0
 10
2.2328000000000001
 20
3.8957900000000003
 30
0.0
 10
1.7248000000000001
 20
3.8957900000000003
 30
0.0
 10
1.2168000000000001
 20
3.9440500000000003
 30
0.0
 10
0.6935600000000001
 20
3.8805500000000004
 30
0.0
 10
0.6935600000000001
 20
3.8805500000000004
 30
0.0
 10
0.6935600000000001
 20
3.8805500000000004
 30
0.0
 10
-0.17765
 20
3.7687900000000005
 30
0.0
 10
-0.17765
 20
3.7687900000000005
 30
0.0
 10
-0.17765
 20
3.7687900000000005
 30
0.0
 10
-0.22591
 20
3.7383100000000002
 30
0.0
 10
-0.33767
 20
3.7840300000000004
 30
0.0
 10
-0.33767
 20
3.7052900000000002
 30
0.0
 10
-0.33767
 20
3.7052900000000002
 30
0.0
 10
0.37352
 20
3.3725500000000004
 30
0.0
 10
1.4708000000000001
 20
3.3547700000000003
 30
0.0
 10
2.2505800000000002
 20
2.7985100000000003
 30
0.0
 10
2.2505800000000002
 20
2.7985100000000003
 30
0.0
 10
2.2505800000000002
 20
2.7985100000000003
 30
0.0
 10
2.0575400000000004
 20
2.8315300000000003
 30
0.0
 10
2.0575400000000004
 20
2.8315300000000003
 30
0.0
 10
2.0575400000000004
 20
2.8315300000000003
 30
0.0
 10
1.8365600000000002
 20
2.8950300000000002
 30
0.0
 10
1.5978000000000001
 20
2.9915500000000002
 30
0.0
 10
1.3768200000000002
 20
2.97377
 30
0.0
 10
1.3768200000000002
 20
2.97377
 30
0.0
 10
1.7400400000000003
 20
2.8315300000000003
 30
0.0
 10
2.1388200000000004
 20
2.6715100000000001
 30
0.0
 10
2.5528400000000002
 20
2.6080100000000002
 30
0.0
 10
2.5528400000000002
 20
2.6080100000000002
 30
0.0
 10
3.0278200000000002
 20
2.6892900000000002
 30
0.0
 10
3.1548200000000004
 20
2.3870300000000002
 30
0.0
 10
2.63158
 20
2.3540100000000002
 30
0.0
 10
2.63158
 20
2.3540100000000002
 30
0.0
 10
1.8213200000000001
 20
2.5775300000000003
 30
0.0
 10
0.9297800000000001
 20
2.8797900000000003
 30
0.0
 10
0.08904
 20
2.7985100000000003
 30
0.0
 10
0.08904
 20
2.7985100000000003
 30
0.0
 10
-0.6881900000000001
 20
2.46577
 30
0.0
 10
-1.6254500000000001
 20
2.00603
 30
0.0
 10
-1.8946900000000002
 20
1.7190100000000001
 30
0.0
 10
-1.8946900000000002
 20
1.7190100000000001
 30
0.0
 10
-1.8007100000000003
 20
1.9730100000000002
 30
0.0
 10
-1.5771900000000001
 20
2.16351
 30
0.0
 10
-1.3866900000000002
 20
2.3540100000000002
 30
0.0
 10
-1.3866900000000002
 20
2.3540100000000002
 30
0.0
 10
-0.9269500000000001
 20
2.6232500000000001
 30
0.0
 10
-0.4494300000000001
 20
2.9255100000000001
 30
0.0
 10
-0.05065
 20
3.2277700000000005
 30
0.0
 10
-0.05065
 20
3.2277700000000005
 30
0.0
 10
-0.29195
 20
3.2760300000000004
 30
0.0
 10
-0.5611900000000001
 20
3.1185500000000004
 30
0.0
 10
-0.8151900000000001
 20
3.0702900000000004
 30
0.0
 10
-0.8151900000000001
 20
3.0702900000000004
 30
0.0
 10
-1.03617
 20
3.0372700000000004
 30
0.0
 10
-1.5771900000000001
 20
2.4505300000000001
 30
0.0
 10
-1.1022100000000001
 20
2.7680300000000004
 30
0.0
 10
-1.1022100000000001
 20
2.7680300000000004
 30
0.0
 10
-0.84821
 20
2.9432900000000002
 30
0.0
 10
-0.7034300000000001
 20
2.8645500000000004
 30
0.0
 10
-1.03617
 20
2.71977
 30
0.0
 10
-1.03617
 20
2.71977
 30
0.0
 10
-1.2749300000000001
 20
2.5445100000000003
 30
0.0
 10
-1.54671
 20
2.4022700000000001
 30
0.0
 10
-1.7524500000000001
 20
2.17875
 30
0.0
 10
-1.7524500000000001
 20
2.17875
 30
0.0
 10
-1.8946900000000002
 20
3.4512900000000002
 30
0.0
 10
-0.8151900000000001
 20
4.5638100000000001
 30
0.0
 10
0.40654
 20
5.1505500000000008
 30
0.0
 10
0.40654
 20
5.1505500000000008
 30
0.0
 10
0.8205600000000001
 20
5.3258100000000006
 30
0.0
 10
0.5487800000000001
 20
5.3740700000000006
 30
0.0
 10
0.2643
 20
5.2318300000000004
 30
0.0
 10
0.2643
 20
5.2318300000000004
 30
0.0
 10
0.02554
 20
5.1200700000000001
 30
0.0
 10
-0.3859300000000001
 20
5.0718100000000002
 30
0.0
 10
0.04078
 20
5.2623100000000003
 30
0.0
 10
0.04078
 20
5.2623100000000003
 30
0.0
 10
0.04078
 20
5.2623100000000003
 30
0.0
 10
0.18302
 20
5.3258100000000006
 30
0.0
 10
0.18302
 20
5.3258100000000006
 30
0.0
 10
0.18302
 20
5.3258100000000006
 30
0.0
 10
0.42178
 20
5.4223300000000005
 30
0.0
 10
0.27954
 20
5.5163100000000007
 30
0.0
 10
0.10428
 20
5.4045500000000004
 30
0.0
 10
0.10428
 20
5.4045500000000004
 30
0.0
 10
0.10428
 20
5.4045500000000004
 30
0.0
 10
-0.21067
 20
5.2775500000000006
 30
0.0
 10
-0.21067
 20
5.2775500000000006
 30
0.0
 10
-0.21067
 20
5.2775500000000006
 30
0.0
 10
0.3278
 20
5.8515900000000007
 30
0.0
 10
0.42178
 20
5.5975900000000003
 30
0.0
 10
0.8815200000000001
 20
5.5010700000000003
 30
0.0
 10
0.8815200000000001
 20
5.5010700000000003
 30
0.0
 10
0.8205600000000001
 20
5.4528100000000004
 30
0.0
 10
0.5487800000000001
 20
5.3740700000000006
 30
0.0
 10
0.78754
 20
5.3740700000000006
 30
0.0
 10
0.78754
 20
5.3740700000000006
 30
0.0
 10
1.0898000000000001
 20
5.4045500000000004
 30
0.0
 10
1.6460600000000001
 20
5.2623100000000003
 30
0.0
 10
1.2803000000000002
 20
5.6585500000000009
 30
0.0
 10
1.2803000000000002
 20
5.6585500000000009
 30
0.0
 10
1.5978000000000001
 20
5.5163100000000007
 30
0.0
 10
1.7730600000000001
 20
5.1835700000000005
 30
0.0
 10
2.0118200000000002
 20
4.97783
 30
0.0
 10
2.0118200000000002
 20
4.97783
 30
0.0
 10
1.8670400000000003
 20
5.0083100000000007
 30
0.0
 10
1.7400400000000003
 20
5.0387900000000005
 30
0.0
 10
1.5978000000000001
 20
5.0387900000000005
 30
0.0
 10
1.5978000000000001
 20
5.0387900000000005
 30
0.0
 10
1.4708000000000001
 20
5.0870500000000005
 30
0.0
 10
1.3107800000000001
 20
5.0718100000000002
 30
0.0
 10
1.1685400000000001
 20
5.0718100000000002
 30
0.0
 10
1.1685400000000001
 20
5.0718100000000002
 30
0.0
 10
1.1685400000000001
 20
5.0718100000000002
 30
0.0
 10
0.8662800000000001
 20
5.0718100000000002
 30
0.0
 10
0.8662800000000001
 20
5.0718100000000002
 30
0.0
 10
0.8662800000000001
 20
5.0718100000000002
 30
0.0
 10
0.15254
 20
4.92957
 30
0.0
 10
1.8848200000000002
 20
5.0565700000000007
 30
0.0
 10
1.2955400000000001
 20
4.8330500000000001
 30
0.0
 10
1.2955400000000001
 20
4.8330500000000001
 30
0.0
 10
1.2168000000000001
 20
4.8330500000000001
 30
0.0
 10
1.1533
 20
4.8330500000000001
 30
0.0
 10
1.0898000000000001
 20
4.8025700000000002
 30
0.0
 10
1.0898000000000001
 20
4.8025700000000002
 30
0.0
 10
0.8358000000000001
 20
4.8025700000000002
 30
0.0
 10
1.1837800000000001
 20
4.7543100000000003
 30
0.0
 10
1.0567800000000001
 20
4.7238300000000004
 30
0.0
 10
1.0567800000000001
 20
4.7238300000000004
 30
0.0
 10
1.0567800000000001
 20
4.7238300000000004
 30
0.0
 10
0.9475600000000001
 20
4.7060500000000003
 30
0.0
 10
0.9475600000000001
 20
4.7060500000000003
 30
0.0
 10
0.9475600000000001
 20
4.7060500000000003
 30
0.0
 10
0.7392800000000001
 20
4.64255
 30
0.0
 10
0.5005200000000001
 20
4.64255
 30
0.0
 10
0.3278
 20
4.5003100000000007
 30
0.0
 10
0.3278
 20
4.5003100000000007
 30
0.0
 10
1.2498200000000002
 20
4.5003100000000007
 30
0.0
 10
2.2175600000000002
 20
4.5638100000000001
 30
0.0
 10
3.0913200000000001
 20
4.3885500000000004
 30
0.0
 10
3.0913200000000001
 20
4.3885500000000004
 30
0.0
 10
2.9008200000000004
 20
4.6755700000000004
 30
0.0
 10
2.5045800000000003
 20
4.7543100000000003
 30
0.0
 10
2.2328000000000001
 20
4.97783
 30
0.0
 10
2.2328000000000001
 20
4.97783
 30
0.0
 10
2.09056
 20
5.1048300000000006
 30
0.0
 10
1.9000600000000001
 20
5.2318300000000004
 30
0.0
 10
1.7883000000000002
 20
5.4045500000000004
 30
0.0
 10
1.7883000000000002
 20
5.4045500000000004
 30
0.0
 10
2.1058000000000003
 20
5.2775500000000006
 30
0.0
 10
2.4080600000000003
 20
5.0565700000000007
 30
0.0
 10
2.6950800000000004
 20
4.8508300000000002
 30
0.0
 10
2.6950800000000004
 20
4.8508300000000002
 30
0.0
 10
2.9795600000000002
 20
4.64255
 30
0.0
 10
3.2818200000000002
 20
4.3250500000000001
 30
0.0
 10
3.6323400000000001
 20
4.3250500000000001
 30
0.0
 10
3.6323400000000001
 20
4.3250500000000001
 30
0.0
 10
3.0913200000000001
 20
5.1835700000000005
 30
0.0
 10
1.9000600000000001
 20
5.4223300000000005
 30
0.0
 10
1.2168000000000001
 20
5.8820700000000006
 30
0.0
  0
SPLINE
  5
2A
100
AcDbEntity
  8
Ebene 1
100
AcDbSpline
210
0.0
220
0.0
230
1.0
 70
     1
 71
     3
 72
    24
 73
    20
 74
     0
 42
0.0000000001
 43
0.0000000001
 40
0.0
 40
0.0
 40
0.0
 40
0.0
 40
0.2
 40
0.2
 40
0.2
 40
0.2
 40
0.4
 40
0.4
 40
0.4
 40
0.4
 40
0.6000000000000001
 40
0.6000000000000001
 40
0.6000000000000001
 40
0.6000000000000001
 40
0.8
 40
0.8
 40
0.8
 40
0.8
 40
1.0
 40
1.0
 40
1.0
 40
1.0
 10
-0.8304300000000001
 20
5.5315500000000002
 30
0.0
 10
-0.7669300000000001
 20
5.5493300000000003
 30
0.0
 10
-0.7999500000000001
 20
5.5010700000000003
 30
0.0
 10
-0.7999500000000001
 20
5.4680500000000007
 30
0.0
 10
-0.7999500000000001
 20
5.4680500000000007
 30
0.0
 10
-1.1022100000000001
 20
5.0235500000000002
 30
0.0
 10
-1.3536700000000002
 20
4.5968300000000006
 30
0.0
 10
-1.7524500000000001
 20
4.1015300000000003
 30
0.0
 10
-1.7524500000000001
 20
4.1015300000000003
 30
0.0
 10
-1.8311900000000001
 20
3.4995500000000002
 30
0.0
 10
-2.4458700000000002
 20
3.0220300000000004
 30
0.0
 10
-2.8294100000000002
 20
2.4810100000000004
 30
0.0
 10
-2.8294100000000002
 20
2.4810100000000004
 30
0.0
 10
-2.8852900000000004
 20
2.6232500000000001
 30
0.0
 10
-2.7227300000000003
 20
2.7045300000000001
 30
0.0
 10
-2.7481300000000002
 20
2.8467700000000002
 30
0.0
 10
-2.7481300000000002
 20
2.8467700000000002
 30
0.0
 10
-2.1613900000000004
 20
3.7687900000000005
 30
0.0
 10
-1.6076700000000002
 20
4.7238300000000004
 30
0.0
 10
-0.8304300000000001
 20
5.5315500000000002
 30
0.0
  0
SPLINE
  5
2B
100
AcDbEntity
  8
Ebene 1
 62
     7
100
AcDbSpline
210
0.0
220
0.0
230
1.0
 70
     1
 71
     3
 72
    32
 73
    28
 74
     0
 42
0.0000000001
 43
0.0000000001
 40
0.0
 40
0.0
 40
0.0
 40
0.0
 40
0.1428571428571429
 40
0.1428571428571429
 40
0.1428571428571429
 40
0.1428571428571429
 40
0.2857142857142857
 40
0.2857142857142857
 40
0.2857142857142857
 40
0.2857142857142857
 40
0.4285714285714286
 40
0.4285714285714286
 40
0.4285714285714286
 40
0.4285714285714286
 40
0.5714285714285714
 40
0.5714285714285714
 40
0.5714285714285714
 40
0.5714285714285714
 40
0.7142857142857142
 40
0.7142857142857142
 40
0.7142857142857142
 40
0.7142857142857142
 40
0.857142857142857
 40
0.857142857142857
 40
0.857142857142857
 40
0.857142857142857
 40
1.0
 40
1.0
 40
1.0
 40
1.0
 10
1.8365600000000002
 20
3.5630500000000005
 30
0.0
 10
1.8365600000000002
 20
3.5630500000000005
 30
0.0
 10
2.2328000000000001
 20
3.4665300000000001
 30
0.0
 10
2.2328000000000001
 20
3.4665300000000001
 30
0.0
 10
2.2328000000000001
 20
3.4665300000000001
 30
0.0
 10
2.2963
 20
3.2938100000000001
 30
0.0
 10
2.4715600000000002
 20
3.1795100000000001
 30
0.0
 10
2.6468200000000004
 20
3.1337900000000003
 30
0.0
 10
2.6468200000000004
 20
3.1337900000000003
 30
0.0
 10
2.63158
 20
2.97377
 30
0.0
 10
2.8068400000000002
 20
2.9915500000000002
 30
0.0
 10
2.9008200000000004
 20
2.9432900000000002
 30
0.0
 10
2.9008200000000004
 20
2.9432900000000002
 30
0.0
 10
2.9338400000000004
 20
2.9102700000000001
 30
0.0
 10
2.9643200000000003
 20
2.8797900000000003
 30
0.0
 10
2.9643200000000003
 20
2.8315300000000003
 30
0.0
 10
2.9643200000000003
 20
2.8315300000000003
 30
0.0
 10
2.7103200000000003
 20
2.6892900000000002
 30
0.0
 10
2.4715600000000002
 20
3.0067900000000001
 30
0.0
 10
2.2328000000000001
 20
3.1007700000000002
 30
0.0
 10
2.2328000000000001
 20
3.1007700000000002
 30
0.0
 10
2.2328000000000001
 20
3.3242900000000004
 30
0.0
 10
1.9940400000000003
 20
3.4030300000000002
 30
0.0
 10
1.8365600000000002
 20
3.4817700000000005
 30
0.0
 10
1.8365600000000002
 20
3.4817700000000005
 30
0.0
 10
1.8035400000000001
 20
3.4995500000000002
 30
0.0
 10
1.8213200000000001
 20
3.5478100000000001
 30
0.0
 10
1.8365600000000002
 20
3.5630500000000005
 30
0.0
  0
SPLINE
  5
2C
100
AcDbEntity
  8
Ebene 1
 62
     7
100
AcDbSpline
210
0.0
220
0.0
230
1.0
 70
     1
 71
     3
 72
   216
 73
   212
 74
     0
 42
0.0000000001
 43
0.0000000001
 40
0.0
 40
0.0
 40
0.0
 40
0.0
 40
0.0188679245283019
 40
0.0188679245283019
 40
0.0188679245283019
 40
0.0188679245283019
 40
0.0377358490566038
 40
0.0377358490566038
 40
0.0377358490566038
 40
0.0377358490566038
 40
0.0566037735849057
 40
0.0566037735849057
 40
0.0566037735849057
 40
0.0566037735849057
 40
0.0754716981132075
 40
0.0754716981132075
 40
0.0754716981132075
 40
0.0754716981132075
 40
0.0943396226415094
 40
0.0943396226415094
 40
0.0943396226415094
 40
0.0943396226415094
 40
0.1132075471698113
 40
0.1132075471698113
 40
0.1132075471698113
 40
0.1132075471698113
 40
0.1320754716981132
 40
0.1320754716981132
 40
0.1320754716981132
 40
0.1320754716981132
 40
0.1509433962264151
 40
0.1509433962264151
 40
0.1509433962264151
 40
0.1509433962264151
 40
0.169811320754717
 40
0.169811320754717
 40
0.169811320754717
 40
0.169811320754717
 40
0.1886792452830189
 40
0.1886792452830189
 40
0.1886792452830189
 40
0.1886792452830189
 40
0.2075471698113207
 40
0.2075471698113207
 40
0.2075471698113207
 40
0.2075471698113207
 40
0.2264150943396226
 40
0.2264150943396226
 40
0.2264150943396226
 40
0.2264150943396226
 40
0.2452830188679245
 40
0.2452830188679245
 40
0.2452830188679245
 40
0.2452830188679245
 40
0.2641509433962264
 40
0.2641509433962264
 40
0.2641509433962264
 40
0.2641509433962264
 40
0.2830188679245283
 40
0.2830188679245283
 40
0.2830188679245283
 40
0.2830188679245283
 40
0.3018867924528302
 40
0.3018867924528302
 40
0.3018867924528302
 40
0.3018867924528302
 40
0.3207547169811321
 40
0.3207547169811321
 40
0.3207547169811321
 40
0.3207547169811321
 40
0.3396226415094339
 40
0.3396226415094339
 40
0.3396226415094339
 40
0.3396226415094339
 40
0.3584905660377358
 40
0.3584905660377358
 40
0.3584905660377358
 40
0.3584905660377358
 40
0.3773584905660377
 40
0.3773584905660377
 40
0.3773584905660377
 40
0.3773584905660377
 40
0.3962264150943396
 40
0.3962264150943396
 40
0.3962264150943396
 40
0.3962264150943396
 40
0.4150943396226415
 40
0.4150943396226415
 40
0.4150943396226415
 40
0.4150943396226415
 40
0.4339622641509434
 40
0.4339622641509434
 40
0.4339622641509434
 40
0.4339622641509434
 40
0.4528301886792452
 40
0.4528301886792452
 40
0.4528301886792452
 40
0.4528301886792452
 40
0.4716981132075471
 40
0.4716981132075471
 40
0.4716981132075471
 40
0.4716981132075471
 40
0.490566037735849
 40
0.490566037735849
 40
0.490566037735849
 40
0.490566037735849
 40
0.5094339622641509
 40
0.5094339622641509
 40
0.5094339622641509
 40
0.5094339622641509
 40
0.5283018867924528
 40
0.5283018867924528
 40
0.5283018867924528
 40
0.5283018867924528
 40
0.5471698113207547
 40
0.5471698113207547
 40
0.5471698113207547
 40
0.5471698113207547
 40
0.5660377358490566
 40
0.5660377358490566
 40
0.5660377358490566
 40
0.5660377358490566
 40
0.5849056603773585
 40
0.5849056603773585
 40
0.5849056603773585
 40
0.5849056603773585
 40
0.6037735849056604
 40
0.6037735849056604
 40
0.6037735849056604
 40
0.6037735849056604
 40
0.6226415094339622
 40
0.6226415094339622
 40
0.6226415094339622
 40
0.6226415094339622
 40
0.6415094339622641
 40
0.6415094339622641
 40
0.6415094339622641
 40
0.6415094339622641
 40
0.660377358490566
 40
0.660377358490566
 40
0.660377358490566
 40
0.660377358490566
 40
0.6792452830188679
 40
0.6792452830188679
 40
0.6792452830188679
 40
0.6792452830188679
 40
0.6981132075471698
 40
0.6981132075471698
 40
0.6981132075471698
 40
0.6981132075471698
 40
0.7169811320754717
 40
0.7169811320754717
 40
0.7169811320754717
 40
0.7169811320754717
 40
0.7358490566037735
 40
0.7358490566037735
 40
0.7358490566037735
 40
0.7358490566037735
 40
0.7547169811320754
 40
0.7547169811320754
 40
0.7547169811320754
 40
0.7547169811320754
 40
0.7735849056603773
 40
0.7735849056603773
 40
0.7735849056603773
 40
0.7735849056603773
 40
0.7924528301886792
 40
0.7924528301886792
 40
0.7924528301886792
 40
0.7924528301886792
 40
0.8113207547169811
 40
0.8113207547169811
 40
0.8113207547169811
 40
0.8113207547169811
 40
0.830188679245283
 40
0.830188679245283
 40
0.830188679245283
 40
0.830188679245283
 40
0.8490566037735848
 40
0.8490566037735848
 40
0.8490566037735848
 40
0.8490566037735848
 40
0.8679245283018867
 40
0.8679245283018867
 40
0.8679245283018867
 40
0.8679245283018867
 40
0.8867924528301886
 40
0.8867924528301886
 40
0.8867924528301886
 40
0.8867924528301886
 40
0.9056603773584905
 40
0.9056603773584905
 40
0.9056603773584905
 40
0.9056603773584905
 40
0.9245283018867924
 40
0.9245283018867924
 40
0.9245283018867924
 40
0.9245283018867924
 40
0.9433962264150942
 40
0.9433962264150942
 40
0.9433962264150942
 40
0.9433962264150942
 40
0.9622641509433961
 40
0.9622641509433961
 40
0.9622641509433961
 40
0.9622641509433961
 40
0.981132075471698
 40
0.981132075471698
 40
0.981132075471698
 40
0.981132075471698
 40
1.0
 40
1.0
 40
1.0
 40
1.0
 10
2.9160600000000003
 20
0.5277500000000001
 30
0.0
 10
2.9160600000000003
 20
0.5277500000000001
 30
0.0
 10
2.8373200000000001
 20
0.5429900000000001
 30
0.0
 10
2.8373200000000001
 20
0.5429900000000001
 30
0.0
 10
2.8373200000000001
 20
0.5429900000000001
 30
0.0
 10
2.8068400000000002
 20
0.41599
 30
0.0
 10
2.8373200000000001
 20
0.06547
 30
0.0
 10
2.6950800000000004
 20
0.19247
 30
0.0
 10
2.6950800000000004
 20
0.19247
 30
0.0
 10
2.7408000000000001
 20
0.00451
 30
0.0
 10
2.7103200000000003
 20
-0.26472
 30
0.0
 10
2.8525600000000004
 20
-0.37648
 30
0.0
 10
2.8525600000000004
 20
-0.37648
 30
0.0
 10
2.9643200000000003
 20
-0.08946
 30
0.0
 10
3.1548200000000004
 20
0.11373
 30
0.0
 10
3.2030800000000004
 20
0.4642500000000001
 30
0.0
 10
3.2030800000000004
 20
0.4642500000000001
 30
0.0
 10
3.2030800000000004
 20
0.4642500000000001
 30
0.0
 10
3.2970600000000001
 20
0.35249
 30
0.0
 10
3.2970600000000001
 20
0.35249
 30
0.0
 10
3.2970600000000001
 20
0.35249
 30
0.0
 10
3.3300800000000002
 20
0.31947
 30
0.0
 10
3.3453200000000001
 20
0.41599
 30
0.0
 10
3.3148400000000002
 20
0.43377
 30
0.0
 10
3.3148400000000002
 20
0.43377
 30
0.0
 10
3.2513400000000003
 20
1.3075300000000001
 30
0.0
 10
2.12358
 20
1.4954900000000002
 30
0.0
 10
1.4377800000000001
 20
1.2414900000000002
 30
0.0
 10
1.4377800000000001
 20
1.2414900000000002
 30
0.0
 10
1.5978000000000001
 20
1.3862700000000001
 30
0.0
 10
1.8035400000000001
 20
1.4167500000000002
 30
0.0
 10
2.0118200000000002
 20
1.4345300000000001
 30
0.0
 10
2.0118200000000002
 20
1.4345300000000001
 30
0.0
 10
2.1693000000000002
 20
1.4802500000000001
 30
0.0
 10
2.4868000000000001
 20
1.2897500000000002
 30
0.0
 10
2.5045800000000003
 20
1.3862700000000001
 30
0.0
 10
2.5045800000000003
 20
1.3862700000000001
 30
0.0
 10
2.2505800000000002
 20
1.4954900000000002
 30
0.0
 10
1.9483200000000001
 20
1.5437500000000002
 30
0.0
 10
1.6613000000000002
 20
1.4802500000000001
 30
0.0
 10
1.6613000000000002
 20
1.4802500000000001
 30
0.0
 10
1.7248000000000001
 20
1.5920100000000001
 30
0.0
 10
1.9153000000000002
 20
1.6707500000000002
 30
0.0
 10
1.9635600000000002
 20
1.7977500000000002
 30
0.0
 10
1.9635600000000002
 20
1.7977500000000002
 30
0.0
 10
1.7578200000000002
 20
1.7672700000000001
 30
0.0
 10
1.6460600000000001
 20
1.5437500000000002
 30
0.0
 10
1.4377800000000001
 20
1.5132700000000001
 30
0.0
 10
1.4377800000000001
 20
1.5132700000000001
 30
0.0
 10
1.6613000000000002
 20
1.7367900000000001
 30
0.0
 10
1.48604
 20
2.1000100000000002
 30
0.0
 10
1.2955400000000001
 20
2.16351
 30
0.0
 10
1.2955400000000001
 20
2.16351
 30
0.0
 10
1.3920600000000001
 20
2.3235300000000003
 30
0.0
 10
1.5038200000000002
 20
2.1000100000000002
 30
0.0
 10
1.61304
 20
2.1177900000000003
 30
0.0
 10
1.61304
 20
2.1177900000000003
 30
0.0
 10
1.5495400000000001
 20
2.7832700000000004
 30
0.0
 10
0.6935600000000001
 20
2.5292700000000004
 30
0.0
 10
0.29478
 20
2.3870300000000002
 30
0.0
 10
0.29478
 20
2.3870300000000002
 30
0.0
 10
0.29478
 20
2.3870300000000002
 30
0.0
 10
0.24652
 20
2.5622900000000004
 30
0.0
 10
0.24652
 20
2.5622900000000004
 30
0.0
 10
0.24652
 20
2.5622900000000004
 30
0.0
 10
0.05602
 20
2.5927700000000002
 30
0.0
 10
0.6275200000000001
 20
2.6562700000000001
 30
0.0
 10
0.7723000000000001
 20
2.6410300000000002
 30
0.0
 10
0.7723000000000001
 20
2.6410300000000002
 30
0.0
 10
1.2015600000000002
 20
2.6715100000000001
 30
0.0
 10
1.7578200000000002
 20
2.5927700000000002
 30
0.0
 10
1.8365600000000002
 20
2.0695300000000003
 30
0.0
 10
1.8365600000000002
 20
2.0695300000000003
 30
0.0
 10
1.9153000000000002
 20
2.1177900000000003
 30
0.0
 10
1.8670400000000003
 20
2.21177
 30
0.0
 10
1.8670400000000003
 20
2.2905100000000003
 30
0.0
 10
1.8670400000000003
 20
2.2905100000000003
 30
0.0
 10
1.8670400000000003
 20
2.2905100000000003
 30
0.0
 10
1.7883000000000002
 20
2.46577
 30
0.0
 10
1.7883000000000002
 20
2.46577
 30
0.0
 10
1.7883000000000002
 20
2.46577
 30
0.0
 10
2.2658200000000002
 20
2.21177
 30
0.0
 10
2.3115400000000004
 20
2.1177900000000003
 30
0.0
 10
2.8373200000000001
 20
2.2270100000000004
 30
0.0
 10
2.8373200000000001
 20
2.2270100000000004
 30
0.0
 10
3.1878400000000005
 20
2.5622900000000004
 30
0.0
 10
3.3453200000000001
 20
3.3547700000000003
 30
0.0
 10
3.9828600000000005
 20
3.2125300000000001
 30
0.0
 10
3.9828600000000005
 20
3.2125300000000001
 30
0.0
 10
4.0616000000000003
 20
3.1337900000000003
 30
0.0
 10
4.17082
 20
3.0855300000000003
 30
0.0
 10
4.2038400000000005
 20
2.97377
 30
0.0
 10
4.2038400000000005
 20
2.97377
 30
0.0
 10
3.9650800000000004
 20
2.1330300000000002
 30
0.0
 10
4.3791000000000002
 20
1.1627500000000002
 30
0.0
 10
3.8863400000000001
 20
0.63951
 30
0.0
 10
3.8863400000000001
 20
0.63951
 30
0.0
 10
3.9346000000000005
 20
0.51251
 30
0.0
 10
4.1403400000000001
 20
0.6064900000000001
 30
0.0
 10
3.9346000000000005
 20
0.4642500000000001
 30
0.0
 10
3.9346000000000005
 20
0.4642500000000001
 30
0.0
 10
3.8228400000000002
 20
0.4642500000000001
 30
0.0
 10
3.7745800000000003
 20
0.6064900000000001
 30
0.0
 10
3.8533200000000005
 20
0.6699900000000001
 30
0.0
 10
3.8533200000000005
 20
0.6699900000000001
 30
0.0
 10
3.8228400000000002
 20
0.83001
 30
0.0
 10
3.7110800000000004
 20
0.9392300000000001
 30
0.0
 10
3.6475800000000005
 20
0.7334900000000001
 30
0.0
 10
3.6475800000000005
 20
0.7334900000000001
 30
0.0
 10
3.7898200000000002
 20
0.00451
 30
0.0
 10
3.2513400000000003
 20
-0.75748
 30
0.0
 10
2.7738200000000002
 20
-1.2172200000000002
 30
0.0
 10
2.7738200000000002
 20
-1.2172200000000002
 30
0.0
 10
2.6620600000000003
 20
-1.25024
 30
0.0
 10
2.67984
 20
-1.1207
 30
0.0
 10
2.5985600000000004
 20
-1.1080000000000001
 30
0.0
 10
2.5985600000000004
 20
-1.1080000000000001
 30
0.0
 10
2.3928200000000004
 20
-1.29596
 30
0.0
 10
2.4563200000000003
 20
-1.9004800000000002
 30
0.0
 10
2.0118200000000002
 20
-1.8065000000000002
 30
0.0
 10
2.0118200000000002
 20
-1.8065000000000002
 30
0.0
 10
2.1058000000000003
 20
-1.1384800000000002
 30
0.0
 10
2.4385400000000002
 20
-0.8362200000000001
 30
0.0
 10
2.0118200000000002
 20
-0.20122
 30
0.0
 10
2.0118200000000002
 20
-0.20122
 30
0.0
 10
1.7730600000000001
 20
0.11373
 30
0.0
 10
1.3285600000000002
 20
0.00451
 30
0.0
 10
1.10504
 20
-0.26472
 30
0.0
 10
1.10504
 20
-0.26472
 30
0.0
 10
0.6757800000000001
 20
-0.69398
 30
0.0
 10
0.2643
 20
-1.4229600000000002
 30
0.0
 10
-0.40117
 20
-1.3620000000000001
 30
0.0
 10
-0.40117
 20
-1.3620000000000001
 30
0.0
 10
-0.19543
 20
-1.16896
 30
0.0
 10
-0.03541
 20
-0.9327400000000001
 30
0.0
 10
0.04078
 20
-0.6609600000000001
 30
0.0
 10
0.04078
 20
-0.6609600000000001
 30
0.0
 10
0.40654
 20
-0.67874
 30
0.0
 10
0.5005200000000001
 20
-0.23424
 30
0.0
 10
0.40654
 20
0.05023
 30
0.0
 10
0.40654
 20
0.05023
 30
0.0
 10
0.9780400000000001
 20
-0.11994
 30
0.0
 10
1.7095600000000002
 20
0.3372500000000001
 30
0.0
 10
2.1845400000000001
 20
-0.18598
 30
0.0
 10
2.1845400000000001
 20
-0.18598
 30
0.0
 10
2.37758
 20
-0.40696
 30
0.0
 10
2.3115400000000004
 20
-0.7092200000000001
 30
0.0
 10
2.3293200000000001
 20
-0.9784600000000001
 30
0.0
 10
2.3293200000000001
 20
-0.9784600000000001
 30
0.0
 10
2.5198200000000002
 20
-0.5974600000000001
 30
0.0
 10
2.5528400000000002
 20
-0.20122
 30
0.0
 10
2.2658200000000002
 20
0.03499
 30
0.0
 10
2.2658200000000002
 20
0.03499
 30
0.0
 10
1.6765400000000001
 20
0.6064900000000001
 30
0.0
 10
0.7062600000000001
 20
-0.2952
 30
0.0
 10
0.27954
 20
0.3677300000000001
 30
0.0
 10
0.27954
 20
0.3677300000000001
 30
0.0
 10
0.6453000000000001
 20
0.09849
 30
0.0
 10
1.1837800000000001
 20
0.19247
 30
0.0
 10
1.5190600000000001
 20
0.44901
 30
0.0
 10
1.5190600000000001
 20
0.44901
 30
0.0
 10
1.2955400000000001
 20
0.47949
 30
0.0
 10
1.0415400000000001
 20
0.38551
 30
0.0
 10
0.8205600000000001
 20
0.41599
 30
0.0
 10
0.8205600000000001
 20
0.41599
 30
0.0
 10
0.59704
 20
0.5277500000000001
 30
0.0
 10
0.3278
 20
0.57601
 30
0.0
 10
0.05602
 20
0.6064900000000001
 30
0.0
 10
0.05602
 20
0.6064900000000001
 30
0.0
 10
0.3913
 20
0.9874900000000001
 30
0.0
 10
1.0567800000000001
 20
0.6699900000000001
 30
0.0
 10
1.3438000000000001
 20
0.76651
 30
0.0
 10
1.3438000000000001
 20
0.76651
 30
0.0
 10
0.91454
 20
0.83001
 30
0.0
 10
0.8358000000000001
 20
1.0052700000000001
 30
0.0
 10
1.3438000000000001
 20
0.9722500000000001
 30
0.0
 10
1.3438000000000001
 20
0.9722500000000001
 30
0.0
 10
1.3768200000000002
 20
0.95701
 30
0.0
 10
1.48604
 20
0.95701
 30
0.0
 10
1.4073000000000002
 20
0.9874900000000001
 30
0.0
 10
1.4073000000000002
 20
0.9874900000000001
 30
0.0
 10
1.2498200000000002
 20
0.9874900000000001
 30
0.0
 10
1.1837800000000001
 20
1.1627500000000002
 30
0.0
 10
1.35904
 20
1.06623
 30
0.0
 10
1.35904
 20
1.06623
 30
0.0
 10
1.4225400000000001
 20
0.9874900000000001
 30
0.0
 10
1.5978000000000001
 20
1.0840100000000001
 30
0.0
 10
1.4708000000000001
 20
1.14751
 30
0.0
 10
1.4708000000000001
 20
1.14751
 30
0.0
 10
1.4708000000000001
 20
1.14751
 30
0.0
 10
1.35904
 20
1.14751
 30
0.0
 10
1.35904
 20
1.14751
 30
0.0
 10
1.35904
 20
1.14751
 30
0.0
 10
1.8518000000000001
 20
1.3532500000000001
 30
0.0
 10
2.4563200000000003
 20
1.27451
 30
0.0
 10
2.8373200000000001
 20
0.9087500000000001
 30
0.0
 10
2.8373200000000001
 20
0.9087500000000001
 30
0.0
 10
2.8373200000000001
 20
0.9087500000000001
 30
0.0
 10
2.6620600000000003
 20
1.0052700000000001
 30
0.0
 10
2.6620600000000003
 20
1.0052700000000001
 30
0.0
 10
2.6620600000000003
 20
1.0052700000000001
 30
0.0
 10
2.5045800000000003
 20
0.9722500000000001
 30
0.0
 10
2.9948000000000001
 20
0.7334900000000001
 30
0.0
 10
2.7738200000000002
 20
0.7969900000000001
 30
0.0
 10
2.7738200000000002
 20
0.7969900000000001
 30
0.0
 10
2.7103200000000003
 20
0.8452500000000001
 30
0.0
 10
2.7255600000000002
 20
0.74873
 30
0.0
 10
2.7585800000000003
 20
0.7182500000000001
 30
0.0
 10
2.7585800000000003
 20
0.7182500000000001
 30
0.0
 10
2.8220800000000001
 20
0.6699900000000001
 30
0.0
 10
2.9008200000000004
 20
0.6064900000000001
 30
0.0
 10
2.9160600000000003
 20
0.5277500000000001
 30
0.0
  0
SPLINE
  5
2D
100
AcDbEntity
  8
Ebene 1
100
AcDbSpline
210
0.0
220
0.0
230
1.0
 70
     1
 71
     3
 72
    20
 73
    16
 74
     0
 42
0.0000000001
 43
0.0000000001
 40
0.0
 40
0.0
 40
0.0
 40
0.0
 40
0.25
 40
0.25
 40
0.25
 40
0.25
 40
0.5
 40
0.5
 40
0.5
 40
0.5
 40
0.75
 40
0.75
 40
0.75
 40
0.75
 40
1.0
 40
1.0
 40
1.0
 40
1.0
 10
0.43702
 20
3.1490300000000002
 30
0.0
 10
0.43702
 20
3.1490300000000002
 30
0.0
 10
0.8205600000000001
 20
3.1185500000000004
 30
0.0
 10
0.8205600000000001
 20
3.1185500000000004
 30
0.0
 10
0.8205600000000001
 20
3.1185500000000004
 30
0.0
 10
0.8205600000000001
 20
3.1185500000000004
 30
0.0
 10
1.2168000000000001
 20
3.0372700000000004
 30
0.0
 10
1.2168000000000001
 20
3.0372700000000004
 30
0.0
 10
1.2168000000000001
 20
3.0372700000000004
 30
0.0
 10
1.2168000000000001
 20
3.0372700000000004
 30
0.0
 10
0.02554
 20
2.9585300000000001
 30
0.0
 10
0.02554
 20
2.9585300000000001
 30
0.0
 10
0.02554
 20
2.9585300000000001
 30
0.0
 10
0.05602
 20
3.1185500000000004
 30
0.0
 10
0.3278
 20
3.0525100000000003
 30
0.0
 10
0.43702
 20
3.1490300000000002
 30
0.0
  0
SPLINE
  5
2E
100
AcDbEntity
  8
Ebene 1
 62
     7
100
AcDbSpline
210
0.0
220
0.0
230
1.0
 70
     1
 71
     3
 72
    24
 73
    20
 74
     0
 42
0.0000000001
 43
0.0000000001
 40
0.0
 40
0.0
 40
0.0
 40
0.0
 40
0.2
 40
0.2
 40
0.2
 40
0.2
 40
0.4
 40
0.4
 40
0.4
 40
0.4
 40
0.6000000000000001
 40
0.6000000000000001
 40
0.6000000000000001
 40
0.6000000000000001
 40
0.8
 40
0.8
 40
0.8
 40
0.8
 40
1.0
 40
1.0
 40
1.0
 40
1.0
 10
4.2673399999999999
 20
3.0525100000000003
 30
0.0
 10
4.3791000000000002
 20
3.0525100000000003
 30
0.0
 10
4.3943400000000006
 20
2.9102700000000001
 30
0.0
 10
4.4730800000000004
 20
2.8315300000000003
 30
0.0
 10
4.4730800000000004
 20
2.8315300000000003
 30
0.0
 10
4.4730800000000004
 20
2.8315300000000003
 30
0.0
 10
4.3943400000000006
 20
2.8950300000000002
 30
0.0
 10
4.3943400000000006
 20
2.8950300000000002
 30
0.0
 10
4.3943400000000006
 20
2.8950300000000002
 30
0.0
 10
4.3943400000000006
 20
2.8950300000000002
 30
0.0
 10
4.3460800000000006
 20
2.8950300000000002
 30
0.0
 10
4.3460800000000006
 20
2.8950300000000002
 30
0.0
 10
4.3460800000000006
 20
2.8950300000000002
 30
0.0
 10
4.3638600000000007
 20
2.8162900000000004
 30
0.0
 10
4.3791000000000002
 20
2.71977
 30
0.0
 10
4.3156000000000008
 20
2.6562700000000001
 30
0.0
 10
4.3156000000000008
 20
2.6562700000000001
 30
0.0
 10
4.3156000000000008
 20
2.6562700000000001
 30
0.0
 10
4.2673399999999999
 20
3.0525100000000003
 30
0.0
 10
4.2673399999999999
 20
3.0525100000000003
 30
0.0
  0
SPLINE
  5
2F
100
AcDbEntity
  8
Ebene 1
 62
     7
100
AcDbSpline
210
0.0
220
0.0
230
1.0
 70
     1
 71
     3
 72
    32
 73
    28
 74
     0
 42
0.0000000001
 43
0.0000000001
 40
0.0
 40
0.0
 40
0.0
 40
0.0
 40
0.1428571428571429
 40
0.1428571428571429
 40
0.1428571428571429
 40
0.1428571428571429
 40
0.2857142857142857
 40
0.2857142857142857
 40
0.2857142857142857
 40
0.2857142857142857
 40
0.4285714285714286
 40
0.4285714285714286
 40
0.4285714285714286
 40
0.4285714285714286
 40
0.5714285714285714
 40
0.5714285714285714
 40
0.5714285714285714
 40
0.5714285714285714
 40
0.7142857142857142
 40
0.7142857142857142
 40
0.7142857142857142
 40
0.7142857142857142
 40
0.857142857142857
 40
0.857142857142857
 40
0.857142857142857
 40
0.857142857142857
 40
1.0
 40
1.0
 40
1.0
 40
1.0
 10
4.7448600000000001
 20
3.0220300000000004
 30
0.0
 10
5.0928400000000007
 20
2.9102700000000001
 30
0.0
 10
5.0141
 20
2.3717900000000003
 30
0.0
 10
4.7601000000000004
 20
2.1965300000000001
 30
0.0
 10
4.7601000000000004
 20
2.1965300000000001
 30
0.0
 10
4.7601000000000004
 20
2.1965300000000001
 30
0.0
 10
4.8718600000000007
 20
2.4352900000000002
 30
0.0
 10
4.8718600000000007
 20
2.4352900000000002
 30
0.0
 10
4.8718600000000007
 20
2.4352900000000002
 30
0.0
 10
4.8871000000000002
 20
2.51403
 30
0.0
 10
4.9175800000000001
 20
2.6410300000000002
 30
0.0
 10
4.8388400000000003
 20
2.7045300000000001
 30
0.0
 10
4.8388400000000003
 20
2.7045300000000001
 30
0.0
 10
4.8236000000000008
 20
2.3870300000000002
 30
0.0
 10
4.5365800000000007
 20
2.0212700000000003
 30
0.0
 10
4.1886000000000001
 20
2.0847700000000002
 30
0.0
 10
4.1886000000000001
 20
2.0847700000000002
 30
0.0
 10
4.2038400000000005
 20
2.17875
 30
0.0
 10
4.2368600000000001
 20
2.2905100000000003
 30
0.0
 10
4.2673399999999999
 20
2.3870300000000002
 30
0.0
 10
4.2673399999999999
 20
2.3870300000000002
 30
0.0
 10
4.5365800000000007
 20
2.4022700000000001
 30
0.0
 10
4.8540800000000006
 20
2.7045300000000001
 30
0.0
 10
4.6483400000000001
 20
2.97377
 30
0.0
 10
4.6483400000000001
 20
2.97377
 30
0.0
 10
4.6331000000000007
 20
3.0372700000000004
 30
0.0
 10
4.7270799999999999
 20
2.97377
 30
0.0
 10
4.7448600000000001
 20
3.0220300000000004
 30
0.0
  0
SPLINE
  5
30
100
AcDbEntity
  8
Ebene 1
100
AcDbSpline
210
0.0
220
0.0
230
1.0
 70
     1
 71
     3
 72
    48
 73
    44
 74
     0
 42
0.0000000001
 43
0.0000000001
 40
0.0
 40
0.0
 40
0.0
 40
0.0
 40
0.0909090909090909
 40
0.0909090909090909
 40
0.0909090909090909
 40
0.0909090909090909
 40
0.1818181818181818
 40
0.1818181818181818
 40
0.1818181818181818
 40
0.1818181818181818
 40
0.2727272727272727
 40
0.2727272727272727
 40
0.2727272727272727
 40
0.2727272727272727
 40
0.3636363636363637
 40
0.3636363636363637
 40
0.3636363636363637
 40
0.3636363636363637
 40
0.4545454545454546
 40
0.4545454545454546
 40
0.4545454545454546
 40
0.4545454545454546
 40
0.5454545454545455
 40
0.5454545454545455
 40
0.5454545454545455
 40
0.5454545454545455
 40
0.6363636363636365
 40
0.6363636363636365
 40
0.6363636363636365
 40
0.6363636363636365
 40
0.7272727272727274
 40
0.7272727272727274
 40
0.7272727272727274
 40
0.7272727272727274
 40
0.8181818181818183
 40
0.8181818181818183
 40
0.8181818181818183
 40
0.8181818181818183
 40
0.9090909090909093
 40
0.9090909090909093
 40
0.9090909090909093
 40
0.9090909090909093
 40
1.0
 40
1.0
 40
1.0
 40
1.0
 10
3.8076000000000003
 20
2.9585300000000001
 30
0.0
 10
4.4908600000000005
 20
2.6715100000000001
 30
0.0
 10
3.6806000000000001
 20
1.8942700000000001
 30
0.0
 10
4.0616000000000003
 20
1.4345300000000001
 30
0.0
 10
4.0616000000000003
 20
1.4345300000000001
 30
0.0
 10
4.0616000000000003
 20
1.3862700000000001
 30
0.0
 10
4.0616000000000003
 20
1.3380100000000001
 30
0.0
 10
4.0285800000000007
 20
1.3075300000000001
 30
0.0
 10
4.0285800000000007
 20
1.3075300000000001
 30
0.0
 10
3.9828600000000005
 20
1.11449
 30
0.0
 10
3.9015800000000005
 20
1.14751
 30
0.0
 10
3.9650800000000004
 20
1.32023
 30
0.0
 10
3.9650800000000004
 20
1.32023
 30
0.0
 10
4.0133400000000004
 20
1.4650100000000001
 30
0.0
 10
3.9346000000000005
 20
1.6072500000000001
 30
0.0
 10
3.9015800000000005
 20
1.7367900000000001
 30
0.0
 10
3.9015800000000005
 20
1.7367900000000001
 30
0.0
 10
3.8076000000000003
 20
1.4167500000000002
 30
0.0
 10
3.4418400000000005
 20
1.19323
 30
0.0
 10
3.5053400000000003
 20
0.8452500000000001
 30
0.0
 10
3.5053400000000003
 20
0.8452500000000001
 30
0.0
 10
3.3935800000000005
 20
0.8604900000000001
 30
0.0
 10
3.3783400000000001
 20
0.9874900000000001
 30
0.0
 10
3.3605600000000004
 20
1.06623
 30
0.0
 10
3.3605600000000004
 20
1.06623
 30
0.0
 10
3.2183200000000003
 20
0.83001
 30
0.0
 10
3.2665800000000003
 20
1.14751
 30
0.0
 10
3.3300800000000002
 20
1.27451
 30
0.0
 10
3.3300800000000002
 20
1.27451
 30
0.0
 10
3.2513400000000003
 20
1.3532500000000001
 30
0.0
 10
3.1700600000000003
 20
1.2262500000000001
 30
0.0
 10
3.1243400000000001
 20
1.3380100000000001
 30
0.0
 10
3.1243400000000001
 20
1.3380100000000001
 30
0.0
 10
3.2665800000000003
 20
1.52851
 30
0.0
 10
3.5688400000000002
 20
1.32023
 30
0.0
 10
3.5688400000000002
 20
1.5920100000000001
 30
0.0
 10
3.5688400000000002
 20
1.5920100000000001
 30
0.0
 10
3.5536000000000003
 20
1.6402700000000001
 30
0.0
 10
3.5536000000000003
 20
1.7037700000000002
 30
0.0
 10
3.5053400000000003
 20
1.7367900000000001
 30
0.0
 10
3.5053400000000003
 20
1.7367900000000001
 30
0.0
 10
2.7585800000000003
 20
1.9095100000000003
 30
0.0
 10
3.3148400000000002
 20
2.8315300000000003
 30
0.0
 10
3.8076000000000003
 20
2.9585300000000001
 30
0.0
  0
SPLINE
  5
31
100
AcDbEntity
  8
Ebene 1
 62
     7
100
AcDbSpline
210
0.0
220
0.0
230
1.0
 70
     1
 71
     3
 72
    28
 73
    24
 74
     0
 42
0.0000000001
 43
0.0000000001
 40
0.0
 40
0.0
 40
0.0
 40
0.0
 40
0.1666666666666667
 40
0.1666666666666667
 40
0.1666666666666667
 40
0.1666666666666667
 40
0.3333333333333333
 40
0.3333333333333333
 40
0.3333333333333333
 40
0.3333333333333333
 40
0.5
 40
0.5
 40
0.5
 40
0.5
 40
0.6666666666666666
 40
0.6666666666666666
 40
0.6666666666666666
 40
0.6666666666666666
 40
0.8333333333333333
 40
0.8333333333333333
 40
0.8333333333333333
 40
0.8333333333333333
 40
1.0
 40
1.0
 40
1.0
 40
1.0
 10
3.7263200000000003
 20
2.8645500000000004
 30
0.0
 10
3.7745800000000003
 20
2.7680300000000004
 30
0.0
 10
3.6323400000000001
 20
2.5292700000000004
 30
0.0
 10
3.7263200000000003
 20
2.3870300000000002
 30
0.0
 10
3.7263200000000003
 20
2.3870300000000002
 30
0.0
 10
3.8380800000000002
 20
2.3717900000000003
 30
0.0
 10
3.8228400000000002
 20
2.5445100000000003
 30
0.0
 10
3.9015800000000005
 20
2.5775300000000003
 30
0.0
 10
3.9015800000000005
 20
2.5775300000000003
 30
0.0
 10
3.7898200000000002
 20
2.3082900000000004
 30
0.0
 10
3.9168200000000004
 20
1.9907900000000001
 30
0.0
 10
3.7593400000000003
 20
1.8155300000000001
 30
0.0
 10
3.7593400000000003
 20
1.8155300000000001
 30
0.0
 10
3.6806000000000001
 20
1.8942700000000001
 30
0.0
 10
3.5840800000000002
 20
2.0212700000000003
 30
0.0
 10
3.5536000000000003
 20
2.1330300000000002
 30
0.0
 10
3.5536000000000003
 20
2.1330300000000002
 30
0.0
 10
3.6145600000000004
 20
2.1330300000000002
 30
0.0
 10
3.7415600000000002
 20
2.0517500000000002
 30
0.0
 10
3.7593400000000003
 20
2.1482700000000001
 30
0.0
 10
3.7593400000000003
 20
2.1482700000000001
 30
0.0
 10
3.6475800000000005
 20
2.3387700000000002
 30
0.0
 10
3.4570800000000004
 20
2.71977
 30
0.0
 10
3.7263200000000003
 20
2.8645500000000004
 30
0.0
  0
SPLINE
  5
32
100
AcDbEntity
  8
Ebene 1
 62
     7
100
AcDbSpline
210
0.0
220
0.0
230
1.0
 70
     1
 71
     3
 72
    92
 73
    88
 74
     0
 42
0.0000000001
 43
0.0000000001
 40
0.0
 40
0.0
 40
0.0
 40
0.0
 40
0.0454545454545455
 40
0.0454545454545455
 40
0.0454545454545455
 40
0.0454545454545455
 40
0.0909090909090909
 40
0.0909090909090909
 40
0.0909090909090909
 40
0.0909090909090909
 40
0.1363636363636364
 40
0.1363636363636364
 40
0.1363636363636364
 40
0.1363636363636364
 40
0.1818181818181818
 40
0.1818181818181818
 40
0.1818181818181818
 40
0.1818181818181818
 40
0.2272727272727273
 40
0.2272727272727273
 40
0.2272727272727273
 40
0.2272727272727273
 40
0.2727272727272728
 40
0.2727272727272728
 40
0.2727272727272728
 40
0.2727272727272728
 40
0.3181818181818182
 40
0.3181818181818182
 40
0.3181818181818182
 40
0.3181818181818182
 40
0.3636363636363637
 40
0.3636363636363637
 40
0.3636363636363637
 40
0.3636363636363637
 40
0.4090909090909092
 40
0.4090909090909092
 40
0.4090909090909092
 40
0.4090909090909092
 40
0.4545454545454546
 40
0.4545454545454546
 40
0.4545454545454546
 40
0.4545454545454546
 40
0.5000000000000001
 40
0.5000000000000001
 40
0.5000000000000001
 40
0.5000000000000001
 40
0.5454545454545455
 40
0.5454545454545455
 40
0.5454545454545455
 40
0.5454545454545455
 40
0.5909090909090909
 40
0.5909090909090909
 40
0.5909090909090909
 40
0.5909090909090909
 40
0.6363636363636364
 40
0.6363636363636364
 40
0.6363636363636364
 40
0.6363636363636364
 40
0.6818181818181818
 40
0.6818181818181818
 40
0.6818181818181818
 40
0.6818181818181818
 40
0.7272727272727272
 40
0.7272727272727272
 40
0.7272727272727272
 40
0.7272727272727272
 40
0.7727272727272726
 40
0.7727272727272726
 40
0.7727272727272726
 40
0.7727272727272726
 40
0.818181818181818
 40
0.818181818181818
 40
0.818181818181818
 40
0.818181818181818
 40
0.8636363636363634
 40
0.8636363636363634
 40
0.8636363636363634
 40
0.8636363636363634
 40
0.9090909090909088
 40
0.9090909090909088
 40
0.9090909090909088
 40
0.9090909090909088
 40
0.9545454545454543
 40
0.9545454545454543
 40
0.9545454545454543
 40
0.9545454545454543
 40
1.0
 40
1.0
 40
1.0
 40
1.0
 10
-0.05065
 20
2.5775300000000003
 30
0.0
 10
0.08904
 20
2.5775300000000003
 30
0.0
 10
0.05602
 20
2.4022700000000001
 30
0.0
 10
0.05602
 20
2.3082900000000004
 30
0.0
 10
0.05602
 20
2.3082900000000004
 30
0.0
 10
-0.5459500000000001
 20
2.2752700000000003
 30
0.0
 10
0.11952
 20
1.2262500000000001
 30
0.0
 10
-0.35291
 20
0.8782700000000001
 30
0.0
 10
-0.35291
 20
0.8782700000000001
 30
0.0
 10
-0.21067
 20
0.8452500000000001
 30
0.0
 10
-0.13193
 20
0.9392300000000001
 30
0.0
 10
-0.03541
 20
1.02051
 30
0.0
 10
-0.03541
 20
1.02051
 30
0.0
 10
-0.05065
 20
0.7334900000000001
 30
0.0
 10
-0.52817
 20
0.63951
 30
0.0
 10
-0.7034300000000001
 20
0.8147700000000001
 30
0.0
 10
-0.7034300000000001
 20
0.8147700000000001
 30
0.0
 10
-0.8151900000000001
 20
0.95701
 30
0.0
 10
-0.37069
 20
1.4345300000000001
 30
0.0
 10
-0.6246900000000001
 20
1.2414900000000002
 30
0.0
 10
-0.6246900000000001
 20
1.2414900000000002
 30
0.0
 10
-0.6881900000000001
 20
1.14751
 30
0.0
 10
-0.7516900000000001
 20
1.0509900000000001
 30
0.0
 10
-0.7999500000000001
 20
0.95701
 30
0.0
 10
-0.7999500000000001
 20
0.95701
 30
0.0
 10
-0.90917
 20
1.1779900000000001
 30
0.0
 10
-0.7339100000000001
 20
1.3862700000000001
 30
0.0
 10
-0.57643
 20
1.5437500000000002
 30
0.0
 10
-0.57643
 20
1.5437500000000002
 30
0.0
 10
-0.8304300000000001
 20
1.4650100000000001
 30
0.0
 10
-0.6069100000000001
 20
1.8307700000000002
 30
0.0
 10
-0.46467
 20
1.9907900000000001
 30
0.0
 10
-0.46467
 20
1.9907900000000001
 30
0.0
 10
-0.6729500000000001
 20
1.9247500000000002
 30
0.0
 10
-0.78217
 20
1.4167500000000002
 30
0.0
 10
-0.9752100000000001
 20
1.7367900000000001
 30
0.0
 10
-0.9752100000000001
 20
1.7367900000000001
 30
0.0
 10
-0.9269500000000001
 20
1.6072500000000001
 30
0.0
 10
-1.1174500000000001
 20
1.4954900000000002
 30
0.0
 10
-0.8634500000000001
 20
1.5615300000000001
 30
0.0
 10
-0.8634500000000001
 20
1.5615300000000001
 30
0.0
 10
-0.8151900000000001
 20
1.3862700000000001
 30
0.0
 10
-1.00569
 20
1.3532500000000001
 30
0.0
 10
-1.1326900000000002
 20
1.32023
 30
0.0
 10
-1.1326900000000002
 20
1.32023
 30
0.0
 10
-0.90917
 20
1.3532500000000001
 30
0.0
 10
-0.9421900000000001
 20
1.11449
 30
0.0
 10
-0.9269500000000001
 20
0.9392300000000001
 30
0.0
 10
-0.9269500000000001
 20
0.9392300000000001
 30
0.0
 10
-1.1961900000000001
 20
1.19323
 30
0.0
 10
-0.9904500000000001
 20
0.7182500000000001
 30
0.0
 10
-0.8304300000000001
 20
0.62173
 30
0.0
 10
-0.8304300000000001
 20
0.62173
 30
0.0
 10
-1.2749300000000001
 20
0.83001
 30
0.0
 10
-1.5136900000000002
 20
1.0840100000000001
 30
0.0
 10
-1.4984500000000001
 20
1.3532500000000001
 30
0.0
 10
-1.4984500000000001
 20
1.3532500000000001
 30
0.0
 10
-1.5924300000000002
 20
1.3862700000000001
 30
0.0
 10
-1.5771900000000001
 20
1.1627500000000002
 30
0.0
 10
-1.6559300000000001
 20
1.2897500000000002
 30
0.0
 10
-1.6559300000000001
 20
1.2897500000000002
 30
0.0
 10
-1.7041900000000001
 20
1.40151
 30
0.0
 10
-1.54671
 20
1.4954900000000002
 30
0.0
 10
-1.5924300000000002
 20
1.5920100000000001
 30
0.0
 10
-1.5924300000000002
 20
1.5920100000000001
 30
0.0
 10
-1.7219700000000002
 20
1.4954900000000002
 30
0.0
 10
-1.8159500000000002
 20
1.4345300000000001
 30
0.0
 10
-1.9099300000000001
 20
1.40151
 30
0.0
 10
-1.9099300000000001
 20
1.40151
 30
0.0
 10
-1.5771900000000001
 20
1.7037700000000002
 30
0.0
 10
-1.1961900000000001
 20
2.1482700000000001
 30
0.0
 10
-0.7339100000000001
 20
2.3235300000000003
 30
0.0
 10
-0.7339100000000001
 20
2.3235300000000003
 30
0.0
 10
-0.7669300000000001
 20
2.1965300000000001
 30
0.0
 10
-0.9269500000000001
 20
2.0517500000000002
 30
0.0
 10
-0.8939300000000001
 20
1.9247500000000002
 30
0.0
 10
-0.8939300000000001
 20
1.9247500000000002
 30
0.0
 10
-0.7669300000000001
 20
2.1000100000000002
 30
0.0
 10
-0.6881900000000001
 20
2.3870300000000002
 30
0.0
 10
-0.43419
 20
2.41751
 30
0.0
 10
-0.43419
 20
2.41751
 30
0.0
 10
-0.30465
 20
2.3870300000000002
 30
0.0
 10
-0.6729500000000001
 20
2.1177900000000003
 30
0.0
 10
-0.63993
 20
1.9425300000000001
 30
0.0
 10
-0.63993
 20
1.9425300000000001
 30
0.0
 10
-0.46467
 20
2.1482700000000001
 30
0.0
 10
-0.27417
 20
2.4022700000000001
 30
0.0
 10
-0.05065
 20
2.5775300000000003
 30
0.0
  0
SPLINE
  5
33
100
AcDbEntity
  8
Ebene 1
 62
     7
100
AcDbSpline
210
0.0
220
0.0
230
1.0
 70
     1
 71
     3
 72
    32
 73
    28
 74
     0
 42
0.0000000001
 43
0.0000000001
 40
0.0
 40
0.0
 40
0.0
 40
0.0
 40
0.1428571428571429
 40
0.1428571428571429
 40
0.1428571428571429
 40
0.1428571428571429
 40
0.2857142857142857
 40
0.2857142857142857
 40
0.2857142857142857
 40
0.2857142857142857
 40
0.4285714285714286
 40
0.4285714285714286
 40
0.4285714285714286
 40
0.4285714285714286
 40
0.5714285714285714
 40
0.5714285714285714
 40
0.5714285714285714
 40
0.5714285714285714
 40
0.7142857142857142
 40
0.7142857142857142
 40
0.7142857142857142
 40
0.7142857142857142
 40
0.857142857142857
 40
0.857142857142857
 40
0.857142857142857
 40
0.857142857142857
 40
1.0
 40
1.0
 40
1.0
 40
1.0
 10
5.4128800000000004
 20
2.17875
 30
0.0
 10
5.4128800000000004
 20
2.17875
 30
0.0
 10
5.4128800000000004
 20
2.41751
 30
0.0
 10
5.4128800000000004
 20
2.41751
 30
0.0
 10
5.4128800000000004
 20
2.41751
 30
0.0
 10
5.3646200000000004
 20
2.41751
 30
0.0
 10
5.3646200000000004
 20
2.3540100000000002
 30
0.0
 10
5.3646200000000004
 20
2.3235300000000003
 30
0.0
 10
5.3646200000000004
 20
2.3235300000000003
 30
0.0
 10
5.3646200000000004
 20
2.3235300000000003
 30
0.0
 10
5.2833400000000008
 20
2.2270100000000004
 30
0.0
 10
5.2833400000000008
 20
2.2270100000000004
 30
0.0
 10
5.2833400000000008
 20
2.2270100000000004
 30
0.0
 10
5.2833400000000008
 20
2.2270100000000004
 30
0.0
 10
5.3646200000000004
 20
2.5775300000000003
 30
0.0
 10
5.3646200000000004
 20
2.5775300000000003
 30
0.0
 10
5.3646200000000004
 20
2.5775300000000003
 30
0.0
 10
5.3951000000000002
 20
2.5927700000000002
 30
0.0
 10
5.4255800000000001
 20
2.5622900000000004
 30
0.0
 10
5.4433600000000002
 20
2.5292700000000004
 30
0.0
 10
5.4433600000000002
 20
2.5292700000000004
 30
0.0
 10
5.4255800000000001
 20
2.51403
 30
0.0
 10
5.3316000000000008
 20
2.4810100000000004
 30
0.0
 10
5.4128800000000004
 20
2.46577
 30
0.0
 10
5.4128800000000004
 20
2.46577
 30
0.0
 10
5.5068600000000005
 20
2.4022700000000001
 30
0.0
 10
5.5068600000000005
 20
2.2447900000000001
 30
0.0
 10
5.4128800000000004
 20
2.17875
 30
0.0
  0
SPLINE
  5
34
100
AcDbEntity
  8
Ebene 1
 62
     7
100
AcDbSpline
210
0.0
220
0.0
230
1.0
 70
     1
 71
     3
 72
    60
 73
    56
 74
     0
 42
0.0000000001
 43
0.0000000001
 40
0.0
 40
0.0
 40
0.0
 40
0.0
 40
0.0714285714285714
 40
0.0714285714285714
 40
0.0714285714285714
 40
0.0714285714285714
 40
0.1428571428571429
 40
0.1428571428571429
 40
0.1428571428571429
 40
0.1428571428571429
 40
0.2142857142857143
 40
0.2142857142857143
 40
0.2142857142857143
 40
0.2142857142857143
 40
0.2857142857142857
 40
0.2857142857142857
 40
0.2857142857142857
 40
0.2857142857142857
 40
0.3571428571428571
 40
0.3571428571428571
 40
0.3571428571428571
 40
0.3571428571428571
 40
0.4285714285714285
 40
0.4285714285714285
 40
0.4285714285714285
 40
0.4285714285714285
 40
0.4999999999999999
 40
0.4999999999999999
 40
0.4999999999999999
 40
0.4999999999999999
 40
0.5714285714285713
 40
0.5714285714285713
 40
0.5714285714285713
 40
0.5714285714285713
 40
0.6428571428571427
 40
0.6428571428571427
 40
0.6428571428571427
 40
0.6428571428571427
 40
0.7142857142857141
 40
0.7142857142857141
 40
0.7142857142857141
 40
0.7142857142857141
 40
0.7857142857142855
 40
0.7857142857142855
 40
0.7857142857142855
 40
0.7857142857142855
 40
0.8571428571428569
 40
0.8571428571428569
 40
0.8571428571428569
 40
0.8571428571428569
 40
0.9285714285714283
 40
0.9285714285714283
 40
0.9285714285714283
 40
0.9285714285714283
 40
1.0
 40
1.0
 40
1.0
 40
1.0
 10
1.3946000000000001
 20
1.4269100000000001
 30
0.0
 10
1.3946000000000001
 20
1.4269100000000001
 30
0.0
 10
1.23204
 20
1.3684900000000002
 30
0.0
 10
1.23204
 20
1.3684900000000002
 30
0.0
 10
1.23204
 20
1.3684900000000002
 30
0.0
 10
1.1685400000000001
 20
1.9730100000000002
 30
0.0
 10
0.29478
 20
1.7367900000000001
 30
0.0
 10
0.31002
 20
1.19323
 30
0.0
 10
0.31002
 20
1.19323
 30
0.0
 10
0.31002
 20
1.19323
 30
0.0
 10
0.2008
 20
1.02051
 30
0.0
 10
0.2008
 20
1.02051
 30
0.0
 10
0.2008
 20
1.02051
 30
0.0
 10
0.2008
 20
1.52851
 30
0.0
 10
0.66054
 20
1.7494900000000002
 30
0.0
 10
0.9780400000000001
 20
2.0365100000000003
 30
0.0
 10
0.9780400000000001
 20
2.0365100000000003
 30
0.0
 10
1.0745600000000002
 20
2.1330300000000002
 30
0.0
 10
1.2015600000000002
 20
2.2905100000000003
 30
0.0
 10
1.10504
 20
2.41751
 30
0.0
 10
1.10504
 20
2.41751
 30
0.0
 10
1.10504
 20
2.41751
 30
0.0
 10
0.78754
 20
2.3082900000000004
 30
0.0
 10
0.78754
 20
2.3082900000000004
 30
0.0
 10
0.78754
 20
2.3082900000000004
 30
0.0
 10
0.6757800000000001
 20
2.3082900000000004
 30
0.0
 10
0.53354
 20
2.2905100000000003
 30
0.0
 10
0.43702
 20
2.21177
 30
0.0
 10
0.43702
 20
2.21177
 30
0.0
 10
0.43702
 20
2.21177
 30
0.0
 10
0.23128
 20
2.0847700000000002
 30
0.0
 10
0.23128
 20
2.0847700000000002
 30
0.0
 10
0.23128
 20
2.0847700000000002
 30
0.0
 10
0.47004
 20
2.3870300000000002
 30
0.0
 10
0.8993000000000001
 20
2.5622900000000004
 30
0.0
 10
1.3285600000000002
 20
2.46577
 30
0.0
 10
1.3285600000000002
 20
2.46577
 30
0.0
 10
1.3285600000000002
 20
2.2447900000000001
 30
0.0
 10
1.0898000000000001
 20
2.0847700000000002
 30
0.0
 10
1.0263
 20
1.9425300000000001
 30
0.0
 10
1.0263
 20
1.9425300000000001
 30
0.0
 10
1.1837800000000001
 20
1.8307700000000002
 30
0.0
 10
1.48604
 20
2.16351
 30
0.0
 10
1.4708000000000001
 20
1.8637900000000001
 30
0.0
 10
1.4708000000000001
 20
1.8637900000000001
 30
0.0
 10
1.4073000000000002
 20
1.78251
 30
0.0
 10
1.1228200000000002
 20
1.8637900000000001
 30
0.0
 10
1.23204
 20
1.65551
 30
0.0
 10
1.23204
 20
1.65551
 30
0.0
 10
1.3107800000000001
 20
1.4497700000000002
 30
0.0
 10
1.5038200000000002
 20
1.7672700000000001
 30
0.0
 10
1.4225400000000001
 20
1.5920100000000001
 30
0.0
 10
1.4225400000000001
 20
1.5920100000000001
 30
0.0
 10
1.4073000000000002
 20
1.5615300000000001
 30
0.0
 10
1.4276200000000001
 20
1.48533
 30
0.0
 10
1.3946000000000001
 20
1.4269100000000001
 30
0.0
  0
SPLINE
  5
35
100
AcDbEntity
  8
Ebene 1
 62
     7
100
AcDbSpline
210
0.0
220
0.0
230
1.0
 70
     1
 71
     3
 72
    24
 73
    20
 74
     0
 42
0.0000000001
 43
0.0000000001
 40
0.0
 40
0.0
 40
0.0
 40
0.0
 40
0.2
 40
0.2
 40
0.2
 40
0.2
 40
0.4
 40
0.4
 40
0.4
 40
0.4
 40
0.6000000000000001
 40
0.6000000000000001
 40
0.6000000000000001
 40
0.6000000000000001
 40
0.8
 40
0.8
 40
0.8
 40
0.8
 40
1.0
 40
1.0
 40
1.0
 40
1.0
 10
5.2528600000000001
 20
2.4987900000000001
 30
0.0
 10
5.2833400000000008
 20
2.4810100000000004
 30
0.0
 10
5.2528600000000001
 20
2.4505300000000001
 30
0.0
 10
5.2528600000000001
 20
2.41751
 30
0.0
 10
5.2528600000000001
 20
2.41751
 30
0.0
 10
5.0445800000000007
 20
2.2270100000000004
 30
0.0
 10
4.8871000000000002
 20
1.8942700000000001
 30
0.0
 10
4.5696000000000003
 20
1.8307700000000002
 30
0.0
 10
4.5696000000000003
 20
1.8307700000000002
 30
0.0
 10
4.6966000000000001
 20
1.9577700000000002
 30
0.0
 10
4.9023400000000006
 20
2.0847700000000002
 30
0.0
 10
4.96584
 20
2.26003
 30
0.0
 10
4.96584
 20
2.26003
 30
0.0
 10
4.96584
 20
2.26003
 30
0.0
 10
4.9023400000000006
 20
2.2752700000000003
 30
0.0
 10
4.9023400000000006
 20
2.2752700000000003
 30
0.0
 10
4.9023400000000006
 20
2.2752700000000003
 30
0.0
 10
5.0141
 20
2.3717900000000003
 30
0.0
 10
5.1715800000000005
 20
2.3540100000000002
 30
0.0
 10
5.2528600000000001
 20
2.4987900000000001
 30
0.0
  0
SPLINE
  5
36
100
AcDbEntity
  8
Ebene 1
 62
     7
100
AcDbSpline
210
0.0
220
0.0
230
1.0
 70
     1
 71
     3
 72
    20
 73
    16
 74
     0
 42
0.0000000001
 43
0.0000000001
 40
0.0
 40
0.0
 40
0.0
 40
0.0
 40
0.25
 40
0.25
 40
0.25
 40
0.25
 40
0.5
 40
0.5
 40
0.5
 40
0.5
 40
0.75
 40
0.75
 40
0.75
 40
0.75
 40
1.0
 40
1.0
 40
1.0
 40
1.0
 10
0.10428
 20
2.3717900000000003
 30
0.0
 10
0.10428
 20
2.3717900000000003
 30
0.0
 10
0.17286
 20
2.3082900000000004
 30
0.0
 10
0.17286
 20
2.3082900000000004
 30
0.0
 10
0.17286
 20
2.3082900000000004
 30
0.0
 10
-0.01509
 20
1.9907900000000001
 30
0.0
 10
-0.08367
 20
1.6072500000000001
 30
0.0
 10
-0.05065
 20
1.2262500000000001
 30
0.0
 10
-0.05065
 20
1.2262500000000001
 30
0.0
 10
-0.17765
 20
1.4954900000000002
 30
0.0
 10
-0.13193
 20
1.8307700000000002
 30
0.0
 10
-0.14717
 20
2.1177900000000003
 30
0.0
 10
-0.14717
 20
2.1177900000000003
 30
0.0
 10
-0.05065
 20
1.9425300000000001
 30
0.0
 10
0.15254
 20
2.2270100000000004
 30
0.0
 10
0.10428
 20
2.3717900000000003
 30
0.0
  0
SPLINE
  5
37
100
AcDbEntity
  8
Ebene 1
100
AcDbSpline
210
0.0
220
0.0
230
1.0
 70
     1
 71
     3
 72
    12
 73
     8
 74
     0
 42
0.0000000001
 43
0.0000000001
 40
0.0
 40
0.0
 40
0.0
 40
0.0
 40
0.5
 40
0.5
 40
0.5
 40
0.5
 40
1.0
 40
1.0
 40
1.0
 40
1.0
 10
-1.1022100000000001
 20
2.1000100000000002
 30
0.0
 10
-1.0691900000000001
 20
2.0517500000000002
 30
0.0
 10
-1.1022100000000001
 20
1.9577700000000002
 30
0.0
 10
-1.1174500000000001
 20
1.9095100000000003
 30
0.0
 10
-1.1174500000000001
 20
1.9095100000000003
 30
0.0
 10
-1.21143
 20
1.9577700000000002
 30
0.0
 10
-1.1479300000000001
 20
2.0517500000000002
 30
0.0
 10
-1.1022100000000001
 20
2.1000100000000002
 30
0.0
  0
SPLINE
  5
38
100
AcDbEntity
  8
Ebene 1
100
AcDbSpline
210
0.0
220
0.0
230
1.0
 70
     1
 71
     3
 72
    24
 73
    20
 74
     0
 42
0.0000000001
 43
0.0000000001
 40
0.0
 40
0.0
 40
0.0
 40
0.0
 40
0.2
 40
0.2
 40
0.2
 40
0.2
 40
0.4
 40
0.4
 40
0.4
 40
0.4
 40
0.6000000000000001
 40
0.6000000000000001
 40
0.6000000000000001
 40
0.6000000000000001
 40
0.8
 40
0.8
 40
0.8
 40
0.8
 40
1.0
 40
1.0
 40
1.0
 40
1.0
 10
2.5350600000000001
 20
2.0847700000000002
 30
0.0
 10
2.6468200000000004
 20
2.0847700000000002
 30
0.0
 10
2.7738200000000002
 20
2.0695300000000003
 30
0.0
 10
2.8068400000000002
 20
1.9577700000000002
 30
0.0
 10
2.8068400000000002
 20
1.9577700000000002
 30
0.0
 10
2.88558
 20
1.9425300000000001
 30
0.0
 10
2.9643200000000003
 20
1.9247500000000002
 30
0.0
 10
3.0430600000000001
 20
1.8790300000000002
 30
0.0
 10
3.0430600000000001
 20
1.8790300000000002
 30
0.0
 10
2.8373200000000001
 20
1.8942700000000001
 30
0.0
 10
3.0608400000000002
 20
1.78251
 30
0.0
 10
3.0608400000000002
 20
1.6707500000000002
 30
0.0
 10
3.0608400000000002
 20
1.6707500000000002
 30
0.0
 10
2.8525600000000004
 20
1.8460100000000002
 30
0.0
 10
2.5833200000000001
 20
1.9095100000000003
 30
0.0
 10
2.34456
 20
1.9247500000000002
 30
0.0
 10
2.34456
 20
1.9247500000000002
 30
0.0
 10
2.34456
 20
1.9247500000000002
 30
0.0
 10
2.5350600000000001
 20
2.0847700000000002
 30
0.0
 10
2.5350600000000001
 20
2.0847700000000002
 30
0.0
  0
SPLINE
  5
39
100
AcDbEntity
  8
Ebene 1
 62
     7
100
AcDbSpline
210
0.0
220
0.0
230
1.0
 70
     1
 71
     3
 72
    16
 73
    12
 74
     0
 42
0.0000000001
 43
0.0000000001
 40
0.0
 40
0.0
 40
0.0
 40
0.0
 40
0.3333333333333333
 40
0.3333333333333333
 40
0.3333333333333333
 40
0.3333333333333333
 40
0.6666666666666666
 40
0.6666666666666666
 40
0.6666666666666666
 40
0.6666666666666666
 40
1.0
 40
1.0
 40
1.0
 40
1.0
 10
0.13476
 20
2.0365100000000003
 30
0.0
 10
0.13476
 20
2.0365100000000003
 30
0.0
 10
0.2008
 20
2.0365100000000003
 30
0.0
 10
0.2008
 20
2.0365100000000003
 30
0.0
 10
0.2008
 20
2.0365100000000003
 30
0.0
 10
0.11952
 20
1.9095100000000003
 30
0.0
 10
0.0738
 20
1.7672700000000001
 30
0.0
 10
0.05602
 20
1.6402700000000001
 30
0.0
 10
0.05602
 20
1.6402700000000001
 30
0.0
 10
-0.00493
 20
1.7494900000000002
 30
0.0
 10
0.05602
 20
1.9247500000000002
 30
0.0
 10
0.13476
 20
2.0365100000000003
 30
0.0
  0
SPLINE
  5
3A
100
AcDbEntity
  8
Ebene 1
 62
     7
100
AcDbSpline
210
0.0
220
0.0
230
1.0
 70
     1
 71
     3
 72
    16
 73
    12
 74
     0
 42
0.0000000001
 43
0.0000000001
 40
0.0
 40
0.0
 40
0.0
 40
0.0
 40
0.3333333333333333
 40
0.3333333333333333
 40
0.3333333333333333
 40
0.3333333333333333
 40
0.6666666666666666
 40
0.6666666666666666
 40
0.6666666666666666
 40
0.6666666666666666
 40
1.0
 40
1.0
 40
1.0
 40
1.0
 10
0.34304
 20
1.9907900000000001
 30
0.0
 10
0.34304
 20
1.9907900000000001
 30
0.0
 10
0.3913
 20
1.9907900000000001
 30
0.0
 10
0.3913
 20
1.9907900000000001
 30
0.0
 10
0.3913
 20
1.9907900000000001
 30
0.0
 10
0.3913
 20
1.9907900000000001
 30
0.0
 10
0.13476
 20
1.6885300000000001
 30
0.0
 10
0.13476
 20
1.6885300000000001
 30
0.0
 10
0.13476
 20
1.6885300000000001
 30
0.0
 10
0.11952
 20
1.8307700000000002
 30
0.0
 10
0.29478
 20
1.8637900000000001
 30
0.0
 10
0.34304
 20
1.9907900000000001
 30
0.0
  0
SPLINE
  5
3B
100
AcDbEntity
  8
Ebene 1
 62
     7
100
AcDbSpline
210
0.0
220
0.0
230
1.0
 70
     1
 71
     3
 72
    12
 73
     8
 74
     0
 42
0.0000000001
 43
0.0000000001
 40
0.0
 40
0.0
 40
0.0
 40
0.0
 40
0.5
 40
0.5
 40
0.5
 40
0.5
 40
1.0
 40
1.0
 40
1.0
 40
1.0
 10
5.3951000000000002
 20
1.9095100000000003
 30
0.0
 10
5.5703600000000009
 20
1.6885300000000001
 30
0.0
 10
5.1563400000000001
 20
1.4345300000000001
 30
0.0
 10
4.9506000000000006
 20
1.4802500000000001
 30
0.0
 10
4.9506000000000006
 20
1.4802500000000001
 30
0.0
 10
4.9988600000000005
 20
1.6885300000000001
 30
0.0
 10
5.2528600000000001
 20
1.78251
 30
0.0
 10
5.3951000000000002
 20
1.9095100000000003
 30
0.0
  0
SPLINE
  5
3C
100
AcDbEntity
  8
Ebene 1
100
AcDbSpline
210
0.0
220
0.0
230
1.0
 70
     1
 71
     3
 72
    16
 73
    12
 74
     0
 42
0.0000000001
 43
0.0000000001
 40
0.0
 40
0.0
 40
0.0
 40
0.0
 40
0.3333333333333333
 40
0.3333333333333333
 40
0.3333333333333333
 40
0.3333333333333333
 40
0.6666666666666666
 40
0.6666666666666666
 40
0.6666666666666666
 40
0.6666666666666666
 40
1.0
 40
1.0
 40
1.0
 40
1.0
 10
-1.1022100000000001
 20
1.8637900000000001
 30
0.0
 10
-1.08443
 20
1.8637900000000001
 30
0.0
 10
-1.0691900000000001
 20
1.8637900000000001
 30
0.0
 10
-1.0691900000000001
 20
1.8460100000000002
 30
0.0
 10
-1.0691900000000001
 20
1.8460100000000002
 30
0.0
 10
-1.1326900000000002
 20
1.7977500000000002
 30
0.0
 10
-1.2444500000000001
 20
1.7367900000000001
 30
0.0
 10
-1.3079500000000002
 20
1.7494900000000002
 30
0.0
 10
-1.3079500000000002
 20
1.7494900000000002
 30
0.0
 10
-1.29271
 20
1.8460100000000002
 30
0.0
 10
-1.1479300000000001
 20
1.8155300000000001
 30
0.0
 10
-1.1022100000000001
 20
1.8637900000000001
 30
0.0
  0
SPLINE
  5
3D
100
AcDbEntity
  8
Ebene 1
 62
     7
100
AcDbSpline
210
0.0
220
0.0
230
1.0
 70
     1
 71
     3
 72
    12
 73
     8
 74
     0
 42
0.0000000001
 43
0.0000000001
 40
0.0
 40
0.0
 40
0.0
 40
0.0
 40
0.5
 40
0.5
 40
0.5
 40
0.5
 40
1.0
 40
1.0
 40
1.0
 40
1.0
 10
0.2008
 20
1.52851
 30
0.0
 10
0.21604
 20
1.6224900000000002
 30
0.0
 10
0.31002
 20
1.7037700000000002
 30
0.0
 10
0.3913
 20
1.7672700000000001
 30
0.0
 10
0.3913
 20
1.7672700000000001
 30
0.0
 10
0.37352
 20
1.65551
 30
0.0
 10
0.27954
 20
1.5920100000000001
 30
0.0
 10
0.2008
 20
1.52851
 30
0.0
  0
SPLINE
  5
3E
100
AcDbEntity
  8
Ebene 1
 62
     7
100
AcDbSpline
210
0.0
220
0.0
230
1.0
 70
     1
 71
     3
 72
    20
 73
    16
 74
     0
 42
0.0000000001
 43
0.0000000001
 40
0.0
 40
0.0
 40
0.0
 40
0.0
 40
0.25
 40
0.25
 40
0.25
 40
0.25
 40
0.5
 40
0.5
 40
0.5
 40
0.5
 40
0.75
 40
0.75
 40
0.75
 40
0.75
 40
1.0
 40
1.0
 40
1.0
 40
1.0
 10
0.8027800000000001
 20
1.65551
 30
0.0
 10
0.8993000000000001
 20
1.65551
 30
0.0
 10
1.0745600000000002
 20
1.6402700000000001
 30
0.0
 10
1.0898000000000001
 20
1.5132700000000001
 30
0.0
 10
1.0898000000000001
 20
1.5132700000000001
 30
0.0
 10
1.0898000000000001
 20
1.5132700000000001
 30
0.0
 10
1.0898000000000001
 20
1.3075300000000001
 30
0.0
 10
1.0898000000000001
 20
1.3075300000000001
 30
0.0
 10
1.0898000000000001
 20
1.3075300000000001
 30
0.0
 10
0.9297800000000001
 20
1.4345300000000001
 30
0.0
 10
0.7392800000000001
 20
1.5437500000000002
 30
0.0
 10
0.5487800000000001
 20
1.4345300000000001
 30
0.0
 10
0.5487800000000001
 20
1.4345300000000001
 30
0.0
 10
0.5640200000000001
 20
1.5615300000000001
 30
0.0
 10
0.7062600000000001
 20
1.6072500000000001
 30
0.0
 10
0.8027800000000001
 20
1.65551
 30
0.0
  0
SPLINE
  5
3F
100
AcDbEntity
  8
Ebene 1
 62
     7
100
AcDbSpline
210
0.0
220
0.0
230
1.0
 70
     1
 71
     3
 72
    20
 73
    16
 74
     0
 42
0.0000000001
 43
0.0000000001
 40
0.0
 40
0.0
 40
0.0
 40
0.0
 40
0.25
 40
0.25
 40
0.25
 40
0.25
 40
0.5
 40
0.5
 40
0.5
 40
0.5
 40
0.75
 40
0.75
 40
0.75
 40
0.75
 40
1.0
 40
1.0
 40
1.0
 40
1.0
 10
5.6008400000000007
 20
1.6224900000000002
 30
0.0
 10
5.6897400000000005
 20
1.5386700000000002
 30
0.0
 10
5.5856000000000003
 20
1.4218300000000001
 30
0.0
 10
5.5043200000000008
 20
1.3557900000000001
 30
0.0
 10
5.5043200000000008
 20
1.3557900000000001
 30
0.0
 10
5.3392200000000001
 20
1.2237100000000001
 30
0.0
 10
5.0268000000000006
 20
1.1830700000000001
 30
0.0
 10
4.8540800000000006
 20
1.19323
 30
0.0
 10
4.8540800000000006
 20
1.19323
 30
0.0
 10
4.96584
 20
1.2592700000000001
 30
0.0
 10
5.06236
 20
1.3532500000000001
 30
0.0
 10
5.1563400000000001
 20
1.4345300000000001
 30
0.0
 10
5.1563400000000001
 20
1.4345300000000001
 30
0.0
 10
5.3163600000000004
 20
1.3862700000000001
 30
0.0
 10
5.5703600000000009
 20
1.4345300000000001
 30
0.0
 10
5.6008400000000007
 20
1.6224900000000002
 30
0.0
  0
SPLINE
  5
40
100
AcDbEntity
  8
Ebene 1
 62
     7
100
AcDbSpline
210
0.0
220
0.0
230
1.0
 70
     1
 71
     3
 72
    16
 73
    12
 74
     0
 42
0.0000000001
 43
0.0000000001
 40
0.0
 40
0.0
 40
0.0
 40
0.0
 40
0.3333333333333333
 40
0.3333333333333333
 40
0.3333333333333333
 40
0.3333333333333333
 40
0.6666666666666666
 40
0.6666666666666666
 40
0.6666666666666666
 40
0.6666666666666666
 40
1.0
 40
1.0
 40
1.0
 40
1.0
 10
5.8878600000000008
 20
1.6224900000000002
 30
0.0
 10
5.9208800000000004
 20
1.4345300000000001
 30
0.0
 10
5.7456200000000006
 20
1.2414900000000002
 30
0.0
 10
5.5856000000000003
 20
1.11449
 30
0.0
 10
5.5856000000000003
 20
1.11449
 30
0.0
 10
5.5398800000000001
 20
0.9087500000000001
 30
0.0
 10
5.2376200000000006
 20
0.7334900000000001
 30
0.0
 10
5.0141
 20
0.74873
 30
0.0
 10
5.0141
 20
0.74873
 30
0.0
 10
5.4128800000000004
 20
0.89351
 30
0.0
 10
5.6973600000000006
 20
1.2414900000000002
 30
0.0
 10
5.8878600000000008
 20
1.6224900000000002
 30
0.0
  0
SPLINE
  5
41
100
AcDbEntity
  8
Ebene 1
 62
     7
100
AcDbSpline
210
0.0
220
0.0
230
1.0
 70
     1
 71
     3
 72
    12
 73
     8
 74
     0
 42
0.0000000001
 43
0.0000000001
 40
0.0
 40
0.0
 40
0.0
 40
0.0
 40
0.5
 40
0.5
 40
0.5
 40
0.5
 40
1.0
 40
1.0
 40
1.0
 40
1.0
 10
4.3943400000000006
 20
1.5615300000000001
 30
0.0
 10
4.55436
 20
1.4954900000000002
 30
0.0
 10
4.7448600000000001
 20
1.5437500000000002
 30
0.0
 10
4.9023400000000006
 20
1.5615300000000001
 30
0.0
 10
4.9023400000000006
 20
1.5615300000000001
 30
0.0
 10
4.8236000000000008
 20
1.3380100000000001
 30
0.0
 10
4.4908600000000005
 20
1.3862700000000001
 30
0.0
 10
4.3943400000000006
 20
1.5615300000000001
 30
0.0
  0
SPLINE
  5
42
100
AcDbEntity
  8
Ebene 1
 62
     7
100
AcDbSpline
210
0.0
220
0.0
230
1.0
 70
     1
 71
     3
 72
    12
 73
     8
 74
     0
 42
0.0000000001
 43
0.0000000001
 40
0.0
 40
0.0
 40
0.0
 40
0.0
 40
0.5
 40
0.5
 40
0.5
 40
0.5
 40
1.0
 40
1.0
 40
1.0
 40
1.0
 10
4.8718600000000007
 20
1.4345300000000001
 30
0.0
 10
4.8718600000000007
 20
1.4345300000000001
 30
0.0
 10
4.9175800000000001
 20
1.4345300000000001
 30
0.0
 10
4.9175800000000001
 20
1.4345300000000001
 30
0.0
 10
4.9175800000000001
 20
1.4345300000000001
 30
0.0
 10
4.9836200000000002
 20
1.40151
 30
0.0
 10
4.8236000000000008
 20
1.3862700000000001
 30
0.0
 10
4.8718600000000007
 20
1.4345300000000001
 30
0.0
  0
SPLINE
  5
43
100
AcDbEntity
  8
Ebene 1
 62
     7
100
AcDbSpline
210
0.0
220
0.0
230
1.0
 70
     1
 71
     3
 72
    20
 73
    16
 74
     0
 42
0.0000000001
 43
0.0000000001
 40
0.0
 40
0.0
 40
0.0
 40
0.0
 40
0.25
 40
0.25
 40
0.25
 40
0.25
 40
0.5
 40
0.5
 40
0.5
 40
0.5
 40
0.75
 40
0.75
 40
0.75
 40
0.75
 40
1.0
 40
1.0
 40
1.0
 40
1.0
 10
-2.1334500000000003
 20
1.3862700000000001
 30
0.0
 10
-2.02169
 20
1.4167500000000002
 30
0.0
 10
-2.06995
 20
1.2592700000000001
 30
0.0
 10
-1.9429500000000002
 20
1.3075300000000001
 30
0.0
 10
-1.9429500000000002
 20
1.3075300000000001
 30
0.0
 10
-1.7524500000000001
 20
1.2897500000000002
 30
0.0
 10
-1.9099300000000001
 20
1.14751
 30
0.0
 10
-2.02169
 20
1.2414900000000002
 30
0.0
 10
-2.02169
 20
1.2414900000000002
 30
0.0
 10
-2.06995
 20
1.2110100000000001
 30
0.0
 10
-2.14615
 20
1.19323
 30
0.0
 10
-2.1918700000000002
 20
1.2262500000000001
 30
0.0
 10
-2.1918700000000002
 20
1.2262500000000001
 30
0.0
 10
-2.1994900000000004
 20
1.2897500000000002
 30
0.0
 10
-2.1639300000000001
 20
1.3380100000000001
 30
0.0
 10
-2.1334500000000003
 20
1.3862700000000001
 30
0.0
  0
SPLINE
  5
44
100
AcDbEntity
  8
Ebene 1
 62
     7
100
AcDbSpline
210
0.0
220
0.0
230
1.0
 70
     1
 71
     3
 72
    16
 73
    12
 74
     0
 42
0.0000000001
 43
0.0000000001
 40
0.0
 40
0.0
 40
0.0
 40
0.0
 40
0.3333333333333333
 40
0.3333333333333333
 40
0.3333333333333333
 40
0.3333333333333333
 40
0.6666666666666666
 40
0.6666666666666666
 40
0.6666666666666666
 40
0.6666666666666666
 40
1.0
 40
1.0
 40
1.0
 40
1.0
 10
0.7062600000000001
 20
1.3862700000000001
 30
0.0
 10
1.0263
 20
1.4345300000000001
 30
0.0
 10
1.1228200000000002
 20
0.9392300000000001
 30
0.0
 10
0.7545200000000001
 20
0.9722500000000001
 30
0.0
 10
0.7545200000000001
 20
0.9722500000000001
 30
0.0
 10
0.8358000000000001
 20
1.0992500000000001
 30
0.0
 10
0.8027800000000001
 20
1.2592700000000001
 30
0.0
 10
0.6757800000000001
 20
1.3532500000000001
 30
0.0
 10
0.6757800000000001
 20
1.3532500000000001
 30
0.0
 10
0.6757800000000001
 20
1.3532500000000001
 30
0.0
 10
0.7062600000000001
 20
1.3862700000000001
 30
0.0
 10
0.7062600000000001
 20
1.3862700000000001
 30
0.0
  0
SPLINE
  5
45
100
AcDbEntity
  8
Ebene 1
 62
     7
100
AcDbSpline
210
0.0
220
0.0
230
1.0
 70
     1
 71
     3
 72
    28
 73
    24
 74
     0
 42
0.0000000001
 43
0.0000000001
 40
0.0
 40
0.0
 40
0.0
 40
0.0
 40
0.1666666666666667
 40
0.1666666666666667
 40
0.1666666666666667
 40
0.1666666666666667
 40
0.3333333333333333
 40
0.3333333333333333
 40
0.3333333333333333
 40
0.3333333333333333
 40
0.5
 40
0.5
 40
0.5
 40
0.5
 40
0.6666666666666666
 40
0.6666666666666666
 40
0.6666666666666666
 40
0.6666666666666666
 40
0.8333333333333333
 40
0.8333333333333333
 40
0.8333333333333333
 40
0.8333333333333333
 40
1.0
 40
1.0
 40
1.0
 40
1.0
 10
-1.7524500000000001
 20
1.32023
 30
0.0
 10
-1.7524500000000001
 20
1.32023
 30
0.0
 10
-1.7219700000000002
 20
1.32023
 30
0.0
 10
-1.7219700000000002
 20
1.32023
 30
0.0
 10
-1.7219700000000002
 20
1.32023
 30
0.0
 10
-1.7219700000000002
 20
1.19323
 30
0.0
 10
-1.5771900000000001
 20
1.14751
 30
0.0
 10
-1.5289300000000001
 20
1.0357500000000002
 30
0.0
 10
-1.5289300000000001
 20
1.0357500000000002
 30
0.0
 10
-1.5289300000000001
 20
1.0357500000000002
 30
0.0
 10
-1.8007100000000003
 20
1.0840100000000001
 30
0.0
 10
-1.8007100000000003
 20
1.0840100000000001
 30
0.0
 10
-1.8007100000000003
 20
1.0840100000000001
 30
0.0
 10
-1.8007100000000003
 20
1.0840100000000001
 30
0.0
 10
-1.6889500000000002
 20
1.11449
 30
0.0
 10
-1.6889500000000002
 20
1.11449
 30
0.0
 10
-1.6889500000000002
 20
1.11449
 30
0.0
 10
-1.6889500000000002
 20
1.11449
 30
0.0
 10
-1.6889500000000002
 20
1.1627500000000002
 30
0.0
 10
-1.6889500000000002
 20
1.1627500000000002
 30
0.0
 10
-1.6889500000000002
 20
1.1627500000000002
 30
0.0
 10
-1.7524500000000001
 20
1.19323
 30
0.0
 10
-1.8642100000000001
 20
1.2414900000000002
 30
0.0
 10
-1.7524500000000001
 20
1.32023
 30
0.0
  0
SPLINE
  5
46
100
AcDbEntity
  8
Ebene 1
 62
     7
100
AcDbSpline
210
0.0
220
0.0
230
1.0
 70
     1
 71
     3
 72
    20
 73
    16
 74
     0
 42
0.0000000001
 43
0.0000000001
 40
0.0
 40
0.0
 40
0.0
 40
0.0
 40
0.25
 40
0.25
 40
0.25
 40
0.25
 40
0.5
 40
0.5
 40
0.5
 40
0.5
 40
0.75
 40
0.75
 40
0.75
 40
0.75
 40
1.0
 40
1.0
 40
1.0
 40
1.0
 10
0.5005200000000001
 20
1.27451
 30
0.0
 10
0.6122800000000001
 20
1.3075300000000001
 30
0.0
 10
0.7545200000000001
 20
1.2262500000000001
 30
0.0
 10
0.72404
 20
1.0992500000000001
 30
0.0
 10
0.72404
 20
1.0992500000000001
 30
0.0
 10
0.72404
 20
1.0992500000000001
 30
0.0
 10
0.6935600000000001
 20
1.0992500000000001
 30
0.0
 10
0.6935600000000001
 20
1.0992500000000001
 30
0.0
 10
0.6935600000000001
 20
1.0992500000000001
 30
0.0
 10
0.7062600000000001
 20
1.2110100000000001
 30
0.0
 10
0.57926
 20
1.2414900000000002
 30
0.0
 10
0.48528
 20
1.2262500000000001
 30
0.0
 10
0.48528
 20
1.2262500000000001
 30
0.0
 10
0.48528
 20
1.2262500000000001
 30
0.0
 10
0.5005200000000001
 20
1.27451
 30
0.0
 10
0.5005200000000001
 20
1.27451
 30
0.0
  0
SPLINE
  5
47
100
AcDbEntity
  8
Ebene 1
 62
     7
100
AcDbSpline
210
0.0
220
0.0
230
1.0
 70
     1
 71
     3
 72
    16
 73
    12
 74
     0
 42
0.0000000001
 43
0.0000000001
 40
0.0
 40
0.0
 40
0.0
 40
0.0
 40
0.3333333333333333
 40
0.3333333333333333
 40
0.3333333333333333
 40
0.3333333333333333
 40
0.6666666666666666
 40
0.6666666666666666
 40
0.6666666666666666
 40
0.6666666666666666
 40
1.0
 40
1.0
 40
1.0
 40
1.0
 10
0.35828
 20
0.9722500000000001
 30
0.0
 10
0.40654
 20
0.9722500000000001
 30
0.0
 10
0.4548
 20
0.9392300000000001
 30
0.0
 10
0.48528
 20
0.9087500000000001
 30
0.0
 10
0.48528
 20
0.9087500000000001
 30
0.0
 10
0.43702
 20
0.89351
 30
0.0
 10
0.37352
 20
0.8604900000000001
 30
0.0
 10
0.3278
 20
0.8604900000000001
 30
0.0
 10
0.3278
 20
0.8604900000000001
 30
0.0
 10
0.27954
 20
0.89351
 30
0.0
 10
0.3278
 20
0.95701
 30
0.0
 10
0.35828
 20
0.9722500000000001
 30
0.0
  0
SPLINE
  5
48
100
AcDbEntity
  8
Ebene 1
 62
     7
100
AcDbSpline
210
0.0
220
0.0
230
1.0
 70
     1
 71
     3
 72
    20
 73
    16
 74
     0
 42
0.0000000001
 43
0.0000000001
 40
0.0
 40
0.0
 40
0.0
 40
0.0
 40
0.25
 40
0.25
 40
0.25
 40
0.25
 40
0.5
 40
0.5
 40
0.5
 40
0.5
 40
0.75
 40
0.75
 40
0.75
 40
0.75
 40
1.0
 40
1.0
 40
1.0
 40
1.0
 10
-1.6991100000000001
 20
0.93415
 30
0.0
 10
-1.5721100000000001
 20
0.93415
 30
0.0
 10
-1.54671
 20
0.89351
 30
0.0
 10
-1.4349500000000002
 20
0.8452500000000001
 30
0.0
 10
-1.4349500000000002
 20
0.8452500000000001
 30
0.0
 10
-1.4019300000000001
 20
0.83001
 30
0.0
 10
-1.3536700000000002
 20
0.7969900000000001
 30
0.0
 10
-1.3231900000000001
 20
0.76651
 30
0.0
 10
-1.3231900000000001
 20
0.76651
 30
0.0
 10
-1.4984500000000001
 20
0.7817500000000001
 30
0.0
 10
-1.7295900000000002
 20
0.6496700000000001
 30
0.0
 10
-1.7930900000000001
 20
0.8884300000000001
 30
0.0
 10
-1.7930900000000001
 20
0.8884300000000001
 30
0.0
 10
-1.7930900000000001
 20
0.8884300000000001
 30
0.0
 10
-1.6991100000000001
 20
0.93415
 30
0.0
 10
-1.6991100000000001
 20
0.93415
 30
0.0
  0
SPLINE
  5
49
100
AcDbEntity
  8
Ebene 1
 62
     7
100
AcDbSpline
210
0.0
220
0.0
230
1.0
 70
     1
 71
     3
 72
    16
 73
    12
 74
     0
 42
0.0000000001
 43
0.0000000001
 40
0.0
 40
0.0
 40
0.0
 40
0.0
 40
0.3333333333333333
 40
0.3333333333333333
 40
0.3333333333333333
 40
0.3333333333333333
 40
0.6666666666666666
 40
0.6666666666666666
 40
0.6666666666666666
 40
0.6666666666666666
 40
1.0
 40
1.0
 40
1.0
 40
1.0
 10
-1.46543
 20
0.6877700000000001
 30
0.0
 10
-1.46543
 20
0.6877700000000001
 30
0.0
 10
-1.4019300000000001
 20
0.6877700000000001
 30
0.0
 10
-1.4019300000000001
 20
0.6877700000000001
 30
0.0
 10
-1.4019300000000001
 20
0.6877700000000001
 30
0.0
 10
-1.4806700000000002
 20
0.6064900000000001
 30
0.0
 10
-1.4806700000000002
 20
0.4947300000000001
 30
0.0
 10
-1.41971
 20
0.4007500000000001
 30
0.0
 10
-1.41971
 20
0.4007500000000001
 30
0.0
 10
-1.5619500000000002
 20
0.41599
 30
0.0
 10
-1.54671
 20
0.62173
 30
0.0
 10
-1.46543
 20
0.6877700000000001
 30
0.0
  0
SPLINE
  5
4A
100
AcDbEntity
  8
Ebene 1
 62
     7
100
AcDbSpline
210
0.0
220
0.0
230
1.0
 70
     1
 71
     3
 72
    12
 73
     8
 74
     0
 42
0.0000000001
 43
0.0000000001
 40
0.0
 40
0.0
 40
0.0
 40
0.0
 40
0.5
 40
0.5
 40
0.5
 40
0.5
 40
1.0
 40
1.0
 40
1.0
 40
1.0
 10
4.3460800000000006
 20
0.62173
 30
0.0
 10
4.3943400000000006
 20
0.62173
 30
0.0
 10
4.45784
 20
0.57601
 30
0.0
 10
4.45784
 20
0.5277500000000001
 30
0.0
 10
4.45784
 20
0.5277500000000001
 30
0.0
 10
4.4095800000000001
 20
0.51251
 30
0.0
 10
4.2978200000000006
 20
0.56077
 30
0.0
 10
4.3460800000000006
 20
0.62173
 30
0.0
  0
SPLINE
  5
4B
100
AcDbEntity
  8
Ebene 1
 62
     7
100
AcDbSpline
210
0.0
220
0.0
230
1.0
 70
     1
 71
     3
 72
    12
 73
     8
 74
     0
 42
0.0000000001
 43
0.0000000001
 40
0.0
 40
0.0
 40
0.0
 40
0.0
 40
0.5
 40
0.5
 40
0.5
 40
0.5
 40
1.0
 40
1.0
 40
1.0
 40
1.0
 10
-1.6076700000000002
 20
0.6064900000000001
 30
0.0
 10
-1.6076700000000002
 20
0.6064900000000001
 30
0.0
 10
-1.5289300000000001
 20
0.3677300000000001
 30
0.0
 10
-1.5289300000000001
 20
0.3677300000000001
 30
0.0
 10
-1.5289300000000001
 20
0.3677300000000001
 30
0.0
 10
-1.6406900000000002
 20
0.3677300000000001
 30
0.0
 10
-1.67371
 20
0.5277500000000001
 30
0.0
 10
-1.6076700000000002
 20
0.6064900000000001
 30
0.0
  0
SPLINE
  5
4C
100
AcDbEntity
  8
Ebene 1
 62
     7
100
AcDbSpline
210
0.0
220
0.0
230
1.0
 70
     1
 71
     3
 72
    12
 73
     8
 74
     0
 42
0.0000000001
 43
0.0000000001
 40
0.0
 40
0.0
 40
0.0
 40
0.0
 40
0.5
 40
0.5
 40
0.5
 40
0.5
 40
1.0
 40
1.0
 40
1.0
 40
1.0
 10
-1.3866900000000002
 20
0.57601
 30
0.0
 10
-1.3231900000000001
 20
0.57601
 30
0.0
 10
-1.33843
 20
0.51251
 30
0.0
 10
-1.33843
 20
0.4642500000000001
 30
0.0
 10
-1.33843
 20
0.4642500000000001
 30
0.0
 10
-1.4019300000000001
 20
0.47949
 30
0.0
 10
-1.4019300000000001
 20
0.5277500000000001
 30
0.0
 10
-1.3866900000000002
 20
0.57601
 30
0.0
  0
SPLINE
  5
4D
100
AcDbEntity
  8
Ebene 1
 62
     7
100
AcDbSpline
210
0.0
220
0.0
230
1.0
 70
     1
 71
     3
 72
    36
 73
    32
 74
     0
 42
0.0000000001
 43
0.0000000001
 40
0.0
 40
0.0
 40
0.0
 40
0.0
 40
0.125
 40
0.125
 40
0.125
 40
0.125
 40
0.25
 40
0.25
 40
0.25
 40
0.25
 40
0.375
 40
0.375
 40
0.375
 40
0.375
 40
0.5
 40
0.5
 40
0.5
 40
0.5
 40
0.625
 40
0.625
 40
0.625
 40
0.625
 40
0.75
 40
0.75
 40
0.75
 40
0.75
 40
0.875
 40
0.875
 40
0.875
 40
0.875
 40
1.0
 40
1.0
 40
1.0
 40
1.0
 10
-0.5459500000000001
 20
0.5277500000000001
 30
0.0
 10
0.24652
 20
0.8452500000000001
 30
0.0
 10
0.7723000000000001
 20
-0.8362200000000001
 30
0.0
 10
-0.21067
 20
-0.53396
 30
0.0
 10
-0.21067
 20
-0.53396
 30
0.0
 10
-0.30465
 20
-0.53396
 30
0.0
 10
-0.40117
 20
-0.53396
 30
0.0
 10
-0.46467
 20
-0.61524
 30
0.0
 10
-0.46467
 20
-0.61524
 30
0.0
 10
-0.5459500000000001
 20
-0.6609600000000001
 30
0.0
 10
-0.59167
 20
-0.75748
 30
0.0
 10
-0.5459500000000001
 20
-0.8514600000000001
 30
0.0
 10
-0.5459500000000001
 20
-0.8514600000000001
 30
0.0
 10
-0.4494300000000001
 20
-0.9632200000000001
 30
0.0
 10
-0.29195
 20
-0.9784600000000001
 30
0.0
 10
-0.17765
 20
-0.9149600000000001
 30
0.0
 10
-0.17765
 20
-0.9149600000000001
 30
0.0
 10
-0.30465
 20
-1.3620000000000001
 30
0.0
 10
-0.8304300000000001
 20
-1.5677400000000001
 30
0.0
 10
-1.2596900000000002
 20
-1.50424
 30
0.0
 10
-1.2596900000000002
 20
-1.50424
 30
0.0
 10
-2.3722100000000004
 20
-1.25024
 30
0.0
 10
-1.9099300000000001
 20
0.4947300000000001
 30
0.0
 10
-0.8939300000000001
 20
0.4947300000000001
 30
0.0
 10
-0.8939300000000001
 20
0.4947300000000001
 30
0.0
 10
-0.8939300000000001
 20
0.4947300000000001
 30
0.0
 10
-0.9269500000000001
 20
0.35249
 30
0.0
 10
-0.9269500000000001
 20
0.35249
 30
0.0
 10
-0.9269500000000001
 20
0.35249
 30
0.0
 10
-0.8151900000000001
 20
0.44901
 30
0.0
 10
-0.6729500000000001
 20
0.4947300000000001
 30
0.0
 10
-0.5459500000000001
 20
0.5277500000000001
 30
0.0
  0
SPLINE
  5
4E
100
AcDbEntity
  8
Ebene 1
 62
     7
100
AcDbSpline
210
0.0
220
0.0
230
1.0
 70
     1
 71
     3
 72
   296
 73
   292
 74
     0
 42
0.0000000001
 43
0.0000000001
 40
0.0
 40
0.0
 40
0.0
 40
0.0
 40
0.0136986301369863
 40
0.0136986301369863
 40
0.0136986301369863
 40
0.0136986301369863
 40
0.0273972602739726
 40
0.0273972602739726
 40
0.0273972602739726
 40
0.0273972602739726
 40
0.0410958904109589
 40
0.0410958904109589
 40
0.0410958904109589
 40
0.0410958904109589
 40
0.0547945205479452
 40
0.0547945205479452
 40
0.0547945205479452
 40
0.0547945205479452
 40
0.0684931506849315
 40
0.0684931506849315
 40
0.0684931506849315
 40
0.0684931506849315
 40
0.0821917808219178
 40
0.0821917808219178
 40
0.0821917808219178
 40
0.0821917808219178
 40
0.0958904109589041
 40
0.0958904109589041
 40
0.0958904109589041
 40
0.0958904109589041
 40
0.1095890410958904
 40
0.1095890410958904
 40
0.1095890410958904
 40
0.1095890410958904
 40
0.1232876712328767
 40
0.1232876712328767
 40
0.1232876712328767
 40
0.1232876712328767
 40
0.136986301369863
 40
0.136986301369863
 40
0.136986301369863
 40
0.136986301369863
 40
0.1506849315068493
 40
0.1506849315068493
 40
0.1506849315068493
 40
0.1506849315068493
 40
0.1643835616438356
 40
0.1643835616438356
 40
0.1643835616438356
 40
0.1643835616438356
 40
0.1780821917808219
 40
0.1780821917808219
 40
0.1780821917808219
 40
0.1780821917808219
 40
0.1917808219178082
 40
0.1917808219178082
 40
0.1917808219178082
 40
0.1917808219178082
 40
0.2054794520547945
 40
0.2054794520547945
 40
0.2054794520547945
 40
0.2054794520547945
 40
0.2191780821917808
 40
0.2191780821917808
 40
0.2191780821917808
 40
0.2191780821917808
 40
0.2328767123287671
 40
0.2328767123287671
 40
0.2328767123287671
 40
0.2328767123287671
 40
0.2465753424657534
 40
0.2465753424657534
 40
0.2465753424657534
 40
0.2465753424657534
 40
0.2602739726027397
 40
0.2602739726027397
 40
0.2602739726027397
 40
0.2602739726027397
 40
0.273972602739726
 40
0.273972602739726
 40
0.273972602739726
 40
0.273972602739726
 40
0.2876712328767123
 40
0.2876712328767123
 40
0.2876712328767123
 40
0.2876712328767123
 40
0.3013698630136986
 40
0.3013698630136986
 40
0.3013698630136986
 40
0.3013698630136986
 40
0.3150684931506849
 40
0.3150684931506849
 40
0.3150684931506849
 40
0.3150684931506849
 40
0.3287671232876712
 40
0.3287671232876712
 40
0.3287671232876712
 40
0.3287671232876712
 40
0.3424657534246575
 40
0.3424657534246575
 40
0.3424657534246575
 40
0.3424657534246575
 40
0.3561643835616438
 40
0.3561643835616438
 40
0.3561643835616438
 40
0.3561643835616438
 40
0.3698630136986301
 40
0.3698630136986301
 40
0.3698630136986301
 40
0.3698630136986301
 40
0.3835616438356164
 40
0.3835616438356164
 40
0.3835616438356164
 40
0.3835616438356164
 40
0.3972602739726027
 40
0.3972602739726027
 40
0.3972602739726027
 40
0.3972602739726027
 40
0.410958904109589
 40
0.410958904109589
 40
0.410958904109589
 40
0.410958904109589
 40
0.4246575342465753
 40
0.4246575342465753
 40
0.4246575342465753
 40
0.4246575342465753
 40
0.4383561643835616
 40
0.4383561643835616
 40
0.4383561643835616
 40
0.4383561643835616
 40
0.4520547945205479
 40
0.4520547945205479
 40
0.4520547945205479
 40
0.4520547945205479
 40
0.4657534246575342
 40
0.4657534246575342
 40
0.4657534246575342
 40
0.4657534246575342
 40
0.4794520547945205
 40
0.4794520547945205
 40
0.4794520547945205
 40
0.4794520547945205
 40
0.4931506849315068
 40
0.4931506849315068
 40
0.4931506849315068
 40
0.4931506849315068
 40
0.5068493150684932
 40
0.5068493150684932
 40
0.5068493150684932
 40
0.5068493150684932
 40
0.5205479452054795
 40
0.5205479452054795
 40
0.5205479452054795
 40
0.5205479452054795
 40
0.5342465753424659
 40
0.5342465753424659
 40
0.5342465753424659
 40
0.5342465753424659
 40
0.5479452054794523
 40
0.5479452054794523
 40
0.5479452054794523
 40
0.5479452054794523
 40
0.5616438356164386
 40
0.5616438356164386
 40
0.5616438356164386
 40
0.5616438356164386
 40
0.575342465753425
 40
0.575342465753425
 40
0.575342465753425
 40
0.575342465753425
 40
0.5890410958904113
 40
0.5890410958904113
 40
0.5890410958904113
 40
0.5890410958904113
 40
0.6027397260273977
 40
0.6027397260273977
 40
0.6027397260273977
 40
0.6027397260273977
 40
0.616438356164384
 40
0.616438356164384
 40
0.616438356164384
 40
0.616438356164384
 40
0.6301369863013704
 40
0.6301369863013704
 40
0.6301369863013704
 40
0.6301369863013704
 40
0.6438356164383567
 40
0.6438356164383567
 40
0.6438356164383567
 40
0.6438356164383567
 40
0.6575342465753431
 40
0.6575342465753431
 40
0.6575342465753431
 40
0.6575342465753431
 40
0.6712328767123295
 40
0.6712328767123295
 40
0.6712328767123295
 40
0.6712328767123295
 40
0.6849315068493158
 40
0.6849315068493158
 40
0.6849315068493158
 40
0.6849315068493158
 40
0.6986301369863022
 40
0.6986301369863022
 40
0.6986301369863022
 40
0.6986301369863022
 40
0.7123287671232885
 40
0.7123287671232885
 40
0.7123287671232885
 40
0.7123287671232885
 40
0.7260273972602749
 40
0.7260273972602749
 40
0.7260273972602749
 40
0.7260273972602749
 40
0.7397260273972612
 40
0.7397260273972612
 40
0.7397260273972612
 40
0.7397260273972612
 40
0.7534246575342476
 40
0.7534246575342476
 40
0.7534246575342476
 40
0.7534246575342476
 40
0.7671232876712339
 40
0.7671232876712339
 40
0.7671232876712339
 40
0.7671232876712339
 40
0.7808219178082203
 40
0.7808219178082203
 40
0.7808219178082203
 40
0.7808219178082203
 40
0.7945205479452067
 40
0.7945205479452067
 40
0.7945205479452067
 40
0.7945205479452067
 40
0.808219178082193
 40
0.808219178082193
 40
0.808219178082193
 40
0.808219178082193
 40
0.8219178082191794
 40
0.8219178082191794
 40
0.8219178082191794
 40
0.8219178082191794
 40
0.8356164383561657
 40
0.8356164383561657
 40
0.8356164383561657
 40
0.8356164383561657
 40
0.8493150684931521
 40
0.8493150684931521
 40
0.8493150684931521
 40
0.8493150684931521
 40
0.8630136986301384
 40
0.8630136986301384
 40
0.8630136986301384
 40
0.8630136986301384
 40
0.8767123287671248
 40
0.8767123287671248
 40
0.8767123287671248
 40
0.8767123287671248
 40
0.8904109589041112
 40
0.8904109589041112
 40
0.8904109589041112
 40
0.8904109589041112
 40
0.9041095890410975
 40
0.9041095890410975
 40
0.9041095890410975
 40
0.9041095890410975
 40
0.9178082191780839
 40
0.9178082191780839
 40
0.9178082191780839
 40
0.9178082191780839
 40
0.9315068493150702
 40
0.9315068493150702
 40
0.9315068493150702
 40
0.9315068493150702
 40
0.9452054794520566
 40
0.9452054794520566
 40
0.9452054794520566
 40
0.9452054794520566
 40
0.9589041095890429
 40
0.9589041095890429
 40
0.9589041095890429
 40
0.9589041095890429
 40
0.9726027397260293
 40
0.9726027397260293
 40
0.9726027397260293
 40
0.9726027397260293
 40
0.9863013698630156
 40
0.9863013698630156
 40
0.9863013698630156
 40
0.9863013698630156
 40
1.0
 40
1.0
 40
1.0
 40
1.0
 10
6.2536200000000006
 20
-1.7912600000000001
 30
0.0
 10
6.1901200000000003
 20
-1.9004800000000002
 30
0.0
 10
6.2688600000000001
 20
-2.1087600000000002
 30
0.0
 10
6.2383800000000003
 20
-2.2662400000000003
 30
0.0
 10
6.2383800000000003
 20
-2.2662400000000003
 30
0.0
 10
6.3018800000000006
 20
-2.3449800000000001
 30
0.0
 10
6.2841000000000005
 20
-2.1087600000000002
 30
0.0
 10
6.3323600000000004
 20
-2.0605000000000002
 30
0.0
 10
6.3323600000000004
 20
-2.0605000000000002
 30
0.0
 10
6.3958600000000008
 20
-2.1722600000000001
 30
0.0
 10
6.5076200000000002
 20
-1.9792200000000002
 30
0.0
 10
6.5863600000000009
 20
-1.9182600000000001
 30
0.0
 10
6.5863600000000009
 20
-1.9182600000000001
 30
0.0
 10
6.776860000000001
 20
-2.4262600000000001
 30
0.0
 10
6.6676400000000005
 20
-2.9977600000000004
 30
0.0
 10
6.5406400000000007
 20
-3.4905200000000001
 30
0.0
 10
6.5406400000000007
 20
-3.4905200000000001
 30
0.0
 10
6.5406400000000007
 20
-3.4905200000000001
 30
0.0
 10
6.5406400000000007
 20
-3.5692600000000003
 30
0.0
 10
6.5406400000000007
 20
-3.5692600000000003
 30
0.0
 10
6.5406400000000007
 20
-3.5692600000000003
 30
0.0
 10
6.6346200000000009
 20
-3.4422600000000001
 30
0.0
 10
6.6193800000000005
 20
-3.2517600000000004
 30
0.0
 10
6.7133600000000007
 20
-3.1400000000000001
 30
0.0
 10
6.7133600000000007
 20
-3.1400000000000001
 30
0.0
 10
6.6676400000000005
 20
-4.0620200000000004
 30
0.0
 10
6.1571000000000007
 20
-4.7452800000000002
 30
0.0
 10
5.5398800000000001
 20
-5.3167800000000005
 30
0.0
 10
5.5398800000000001
 20
-5.3167800000000005
 30
0.0
 10
5.5398800000000001
 20
-5.3167800000000005
 30
0.0
 10
5.4586000000000006
 20
-5.5072800000000006
 30
0.0
 10
5.4586000000000006
 20
-5.5072800000000006
 30
0.0
 10
5.4586000000000006
 20
-5.5072800000000006
 30
0.0
 10
5.6668800000000008
 20
-5.4920400000000003
 30
0.0
 10
5.8878600000000008
 20
-5.3980600000000001
 30
0.0
 10
6.0301000000000009
 20
-5.2532800000000002
 30
0.0
 10
6.0301000000000009
 20
-5.2532800000000002
 30
0.0
 10
5.9208800000000004
 20
-5.8400200000000009
 30
0.0
 10
5.6338600000000003
 20
-6.6680600000000005
 30
0.0
 10
5.0445800000000007
 20
-7.0008000000000008
 30
0.0
 10
5.0445800000000007
 20
-7.0008000000000008
 30
0.0
 10
5.06236
 20
-7.257340000000001
 30
0.0
 10
5.5551200000000005
 20
-6.8890400000000005
 30
0.0
 10
5.4255800000000001
 20
-7.2243200000000005
 30
0.0
 10
5.4255800000000001
 20
-7.2243200000000005
 30
0.0
 10
5.3951000000000002
 20
-7.3360800000000008
 30
0.0
 10
5.3468400000000003
 20
-7.4453000000000005
 30
0.0
 10
5.2376200000000006
 20
-7.4935600000000004
 30
0.0
 10
5.2376200000000006
 20
-7.4935600000000004
 30
0.0
 10
5.2376200000000006
 20
-7.4935600000000004
 30
0.0
 10
4.8718600000000007
 20
-7.478320000000001
 30
0.0
 10
4.8718600000000007
 20
-7.478320000000001
 30
0.0
 10
4.8718600000000007
 20
-7.478320000000001
 30
0.0
 10
4.8718600000000007
 20
-7.2090800000000002
 30
0.0
 10
4.4248200000000004
 20
-7.2090800000000002
 30
0.0
 10
4.4248200000000004
 20
-7.0160400000000003
 30
0.0
 10
4.4248200000000004
 20
-7.0160400000000003
 30
0.0
 10
3.9650800000000004
 20
-7.0973200000000007
 30
0.0
 10
3.5358200000000002
 20
-6.8280800000000008
 30
0.0
 10
3.1065600000000004
 20
-6.9373000000000005
 30
0.0
 10
3.1065600000000004
 20
-6.9373000000000005
 30
0.0
 10
3.1700600000000003
 20
-6.8738000000000001
 30
0.0
 10
3.4418400000000005
 20
-6.8738000000000001
 30
0.0
 10
3.3935800000000005
 20
-6.7620400000000007
 30
0.0
 10
3.3935800000000005
 20
-6.7620400000000007
 30
0.0
 10
2.88558
 20
-6.8585600000000007
 30
0.0
 10
1.9635600000000002
 20
-6.6680600000000005
 30
0.0
 10
1.2498200000000002
 20
-6.3658000000000001
 30
0.0
 10
1.2498200000000002
 20
-6.3658000000000001
 30
0.0
 10
1.2015600000000002
 20
-6.2692800000000002
 30
0.0
 10
1.4073000000000002
 20
-6.1600600000000005
 30
0.0
 10
1.3107800000000001
 20
-6.0813200000000007
 30
0.0
 10
1.3107800000000001
 20
-6.0813200000000007
 30
0.0
 10
1.1533
 20
-6.2388000000000003
 30
0.0
 10
0.9297800000000001
 20
-6.4293000000000005
 30
0.0
 10
0.6757800000000001
 20
-6.3658000000000001
 30
0.0
 10
0.6757800000000001
 20
-6.3658000000000001
 30
0.0
 10
0.8358000000000001
 20
-5.9848000000000008
 30
0.0
 10
0.57926
 20
-5.6038000000000006
 30
0.0
 10
0.47004
 20
-5.2380400000000007
 30
0.0
 10
0.47004
 20
-5.2380400000000007
 30
0.0
 10
0.8205600000000001
 20
-5.3320200000000009
 30
0.0
 10
1.23204
 20
-5.4768000000000008
 30
0.0
 10
1.5495400000000001
 20
-5.2532800000000002
 30
0.0
 10
1.5495400000000001
 20
-5.2532800000000002
 30
0.0
 10
1.5495400000000001
 20
-5.2532800000000002
 30
0.0
 10
1.3768200000000002
 20
-5.2228000000000003
 30
0.0
 10
1.3768200000000002
 20
-5.2228000000000003
 30
0.0
 10
1.3768200000000002
 20
-5.2228000000000003
 30
0.0
 10
1.4708000000000001
 20
-5.1897800000000007
 30
0.0
 10
1.5978000000000001
 20
-5.1593
 30
0.0
 10
1.61304
 20
-5.0475400000000006
 30
0.0
 10
1.61304
 20
-5.0475400000000006
 30
0.0
 10
1.2803000000000002
 20
-4.9357800000000003
 30
0.0
 10
0.7723000000000001
 20
-4.7605200000000005
 30
0.0
 10
0.6453000000000001
 20
-4.3642799999999999
 30
0.0
 10
0.6453000000000001
 20
-4.3642799999999999
 30
0.0
 10
0.9297800000000001
 20
-4.5065200000000001
 30
0.0
 10
1.2803000000000002
 20
-4.3642799999999999
 30
0.0
 10
1.5647800000000001
 20
-4.3007800000000005
 30
0.0
 10
1.5647800000000001
 20
-4.3007800000000005
 30
0.0
 10
1.69432
 20
-4.4430200000000006
 30
0.0
 10
1.7730600000000001
 20
-4.6182800000000004
 30
0.0
 10
1.8365600000000002
 20
-4.7935400000000001
 30
0.0
 10
1.8365600000000002
 20
-4.7935400000000001
 30
0.0
 10
1.8213200000000001
 20
-4.5243000000000002
 30
0.0
 10
1.9635600000000002
 20
-4.6817800000000007
 30
0.0
 10
2.1058000000000003
 20
-4.8392600000000003
 30
0.0
 10
2.1058000000000003
 20
-4.8392600000000003
 30
0.0
 10
2.1058000000000003
 20
-4.6665400000000004
 30
0.0
 10
1.9305400000000001
 20
-4.5395400000000006
 30
0.0
 10
1.8670400000000003
 20
-4.3973000000000004
 30
0.0
 10
1.8670400000000003
 20
-4.3973000000000004
 30
0.0
 10
2.2505800000000002
 20
-4.4277800000000003
 30
0.0
 10
2.5655400000000004
 20
-4.09504
 30
0.0
 10
2.9490800000000004
 20
-4.2525200000000005
 30
0.0
 10
2.9490800000000004
 20
-4.2525200000000005
 30
0.0
 10
2.9490800000000004
 20
-4.2525200000000005
 30
0.0
 10
3.1065600000000004
 20
-4.3795200000000003
 30
0.0
 10
3.1065600000000004
 20
-4.3795200000000003
 30
0.0
 10
3.1065600000000004
 20
-4.3795200000000003
 30
0.0
 10
3.4240600000000003
 20
-4.4430200000000006
 30
0.0
 10
3.4875600000000002
 20
-4.82402
 30
0.0
 10
3.5840800000000002
 20
-5.0627800000000001
 30
0.0
 10
3.5840800000000002
 20
-5.0627800000000001
 30
0.0
 10
3.5840800000000002
 20
-5.0627800000000001
 30
0.0
 10
3.6475800000000005
 20
-4.9510200000000006
 30
0.0
 10
3.6475800000000005
 20
-4.9510200000000006
 30
0.0
 10
3.6475800000000005
 20
-4.9510200000000006
 30
0.0
 10
3.6475800000000005
 20
-4.8570400000000005
 30
0.0
 10
3.5993200000000001
 20
-4.7783000000000007
 30
0.0
 10
3.5358200000000002
 20
-4.7122600000000006
 30
0.0
 10
3.5358200000000002
 20
-4.7122600000000006
 30
0.0
 10
3.5358200000000002
 20
-4.4100000000000001
 30
0.0
 10
3.2030800000000004
 20
-4.2042600000000006
 30
0.0
 10
2.9490800000000004
 20
-4.2525200000000005
 30
0.0
 10
2.9490800000000004
 20
-4.2525200000000005
 30
0.0
 10
2.9490800000000004
 20
-4.2525200000000005
 30
0.0
 10
2.7408000000000001
 20
-4.1255200000000007
 30
0.0
 10
2.7408000000000001
 20
-4.1255200000000007
 30
0.0
 10
2.7408000000000001
 20
-4.1255200000000007
 30
0.0
 10
2.9490800000000004
 20
-3.8715200000000003
 30
0.0
 10
3.4875600000000002
 20
-3.9680400000000002
 30
0.0
 10
3.6475800000000005
 20
-4.2220400000000007
 30
0.0
 10
3.6475800000000005
 20
-4.2220400000000007
 30
0.0
 10
3.9015800000000005
 20
-4.31602
 30
0.0
 10
4.2038400000000005
 20
-4.5065200000000001
 30
0.0
 10
4.2978200000000006
 20
-4.7605200000000005
 30
0.0
 10
4.2978200000000006
 20
-4.7605200000000005
 30
0.0
 10
4.4248200000000004
 20
-4.9510200000000006
 30
0.0
 10
4.5061
 20
-5.1593
 30
0.0
 10
4.5213400000000004
 20
-5.3802800000000008
 30
0.0
 10
4.5213400000000004
 20
-5.3802800000000008
 30
0.0
 10
4.5213400000000004
 20
-5.3802800000000008
 30
0.0
 10
4.4095800000000001
 20
-5.1745400000000004
 30
0.0
 10
4.4095800000000001
 20
-5.1745400000000004
 30
0.0
 10
4.4095800000000001
 20
-5.1745400000000004
 30
0.0
 10
4.3638600000000007
 20
-5.1593
 30
0.0
 10
4.3791000000000002
 20
-5.2050200000000002
 30
0.0
 10
4.3791000000000002
 20
-5.2380400000000007
 30
0.0
 10
4.3791000000000002
 20
-5.2380400000000007
 30
0.0
 10
4.4248200000000004
 20
-5.6342800000000004
 30
0.0
 10
4.2368600000000001
 20
-5.9695600000000004
 30
0.0
 10
4.0616000000000003
 20
-6.3353200000000003
 30
0.0
 10
4.0616000000000003
 20
-6.3353200000000003
 30
0.0
 10
4.0616000000000003
 20
-6.2692800000000002
 30
0.0
 10
4.0920800000000002
 20
-6.0813200000000007
 30
0.0
 10
3.9828600000000005
 20
-6.2083200000000005
 30
0.0
 10
3.9828600000000005
 20
-6.2083200000000005
 30
0.0
 10
3.9498400000000005
 20
-6.2870600000000003
 30
0.0
 10
3.8533200000000005
 20
-6.3658000000000001
 30
0.0
 10
3.9015800000000005
 20
-6.462320000000001
 30
0.0
 10
3.9015800000000005
 20
-6.462320000000001
 30
0.0
 10
4.0920800000000002
 20
-6.4293000000000005
 30
0.0
 10
4.2521000000000004
 20
-6.3988200000000006
 30
0.0
 10
4.45784
 20
-6.4293000000000005
 30
0.0
 10
4.45784
 20
-6.4293000000000005
 30
0.0
 10
4.55436
 20
-6.3175400000000002
 30
0.0
 10
4.6331000000000007
 20
-6.1753000000000009
 30
0.0
 10
4.7753400000000008
 20
-6.1270400000000009
 30
0.0
 10
4.7753400000000008
 20
-6.1270400000000009
 30
0.0
 10
4.8871000000000002
 20
-5.7308000000000003
 30
0.0
 10
4.8540800000000006
 20
-5.2863000000000007
 30
0.0
 10
4.5696000000000003
 20
-4.9510200000000006
 30
0.0
 10
4.5696000000000003
 20
-4.9510200000000006
 30
0.0
 10
4.55436
 20
-4.9053000000000004
 30
0.0
 10
4.6331000000000007
 20
-4.9357800000000003
 30
0.0
 10
4.6331000000000007
 20
-4.9053000000000004
 30
0.0
 10
4.6331000000000007
 20
-4.9053000000000004
 30
0.0
 10
4.4095800000000001
 20
-4.4100000000000001
 30
0.0
 10
3.9346000000000005
 20
-4.1407600000000002
 30
0.0
 10
3.4570800000000004
 20
-3.9680400000000002
 30
0.0
 10
3.4570800000000004
 20
-3.9680400000000002
 30
0.0
 10
3.3300800000000002
 20
-3.9350200000000002
 30
0.0
 10
3.2030800000000004
 20
-3.9197800000000003
 30
0.0
 10
3.0608400000000002
 20
-3.9020000000000001
 30
0.0
 10
3.0608400000000002
 20
-3.9020000000000001
 30
0.0
 10
3.1878400000000005
 20
-3.8385000000000002
 30
0.0
 10
3.3783400000000001
 20
-3.8562800000000004
 30
0.0
 10
3.5205800000000003
 20
-3.8867600000000002
 30
0.0
 10
3.5205800000000003
 20
-3.8867600000000002
 30
0.0
 10
3.5205800000000003
 20
-3.8867600000000002
 30
0.0
 10
4.1555800000000005
 20
-4.1102800000000004
 30
0.0
 10
4.1555800000000005
 20
-4.1102800000000004
 30
0.0
 10
4.1555800000000005
 20
-4.1102800000000004
 30
0.0
 10
4.4298999999999999
 20
-4.0645600000000002
 30
0.0
 10
4.7448600000000001
 20
-4.1966400000000004
 30
0.0
 10
4.7524800000000003
 20
-4.44048
 30
0.0
 10
4.7524800000000003
 20
-4.44048
 30
0.0
 10
4.7575600000000007
 20
-4.6335200000000007
 30
0.0
 10
4.8591600000000001
 20
-4.8824400000000008
 30
0.0
 10
4.8312200000000001
 20
-4.5065200000000001
 30
0.0
 10
4.8312200000000001
 20
-4.5065200000000001
 30
0.0
 10
4.8312200000000001
 20
-4.4277800000000003
 30
0.0
 10
4.9023400000000006
 20
-4.5065200000000001
 30
0.0
 10
4.9353600000000002
 20
-4.4582600000000001
 30
0.0
 10
4.9353600000000002
 20
-4.4582600000000001
 30
0.0
 10
4.7448600000000001
 20
-3.9832800000000002
 30
0.0
 10
4.2038400000000005
 20
-3.8867600000000002
 30
0.0
 10
3.7745800000000003
 20
-3.7750000000000004
 30
0.0
 10
3.7745800000000003
 20
-3.7750000000000004
 30
0.0
 10
3.8228400000000002
 20
-3.7292800000000002
 30
0.0
 10
3.9015800000000005
 20
-3.7115000000000005
 30
0.0
 10
3.9650800000000004
 20
-3.6962600000000001
 30
0.0
 10
3.9650800000000004
 20
-3.6962600000000001
 30
0.0
 10
4.1886000000000001
 20
-3.6175200000000003
 30
0.0
 10
4.3943400000000006
 20
-3.7292800000000002
 30
0.0
 10
4.6000800000000002
 20
-3.7927800000000005
 30
0.0
 10
4.6000800000000002
 20
-3.7927800000000005
 30
0.0
 10
4.2368600000000001
 20
-3.3000200000000004
 30
0.0
 10
3.6145600000000004
 20
-3.7292800000000002
 30
0.0
 10
3.13958
 20
-3.7115000000000005
 30
0.0
 10
3.13958
 20
-3.7115000000000005
 30
0.0
 10
2.7103200000000003
 20
-2.9799800000000003
 30
0.0
 10
3.2970600000000001
 20
-2.2179800000000003
 30
0.0
 10
3.5358200000000002
 20
-1.5372600000000001
 30
0.0
 10
3.5358200000000002
 20
-1.5372600000000001
 30
0.0
 10
3.4418400000000005
 20
-1.6160000000000001
 30
0.0
 10
3.3783400000000001
 20
-1.7734800000000002
 30
0.0
 10
3.3148400000000002
 20
-1.8852400000000002
 30
0.0
 10
3.3148400000000002
 20
-1.8852400000000002
 30
0.0
 10
3.1065600000000004
 20
-2.2662400000000003
 30
0.0
 10
3.2970600000000001
 20
-1.6947400000000001
 30
0.0
 10
3.4240600000000003
 20
-1.5829800000000001
 30
0.0
 10
3.4240600000000003
 20
-1.5829800000000001
 30
0.0
 10
3.5840800000000002
 20
-1.4712200000000002
 30
0.0
 10
3.6628200000000004
 20
-1.2807200000000001
 30
0.0
 10
3.7593400000000003
 20
-1.1207
 30
0.0
 10
3.7593400000000003
 20
-1.1207
 30
0.0
 10
3.5840800000000002
 20
-0.9937
 30
0.0
 10
3.4723200000000003
 20
-1.2807200000000001
 30
0.0
 10
3.3783400000000001
 20
-1.3924800000000002
 30
0.0
 10
3.3783400000000001
 20
-1.3924800000000002
 30
0.0
 10
3.0913200000000001
 20
-1.7582400000000002
 30
0.0
 10
3.2030800000000004
 20
-2.2510000000000003
 30
0.0
 10
2.9643200000000003
 20
-2.6167600000000002
 30
0.0
 10
2.9643200000000003
 20
-2.6167600000000002
 30
0.0
 10
2.7890600000000001
 20
-1.9004800000000002
 30
0.0
 10
3.1878400000000005
 20
-1.16896
 30
0.0
 10
3.4088200000000004
 20
-0.5822200000000001
 30
0.0
 10
3.4088200000000004
 20
-0.5822200000000001
 30
0.0
 10
3.9346000000000005
 20
0.38551
 30
0.0
 10
5.5221
 20
0.83001
 30
0.0
 10
6.1748800000000008
 20
-0.23424
 30
0.0
 10
6.1748800000000008
 20
-0.23424
 30
0.0
 10
6.1748800000000008
 20
-0.23424
 30
0.0
 10
6.2206000000000001
 20
-0.32822
 30
0.0
 10
6.2206000000000001
 20
-0.32822
 30
0.0
 10
6.2206000000000001
 20
-0.32822
 30
0.0
 10
6.1748800000000008
 20
-0.45522
 30
0.0
 10
6.1266200000000008
 20
-0.11994
 30
0.0
 10
6.0478800000000001
 20
-0.18598
 30
0.0
 10
6.0478800000000001
 20
-0.18598
 30
0.0
 10
5.9666000000000006
 20
-0.1682
 30
0.0
 10
5.9361200000000007
 20
-0.02596
 30
0.0
 10
5.8396000000000008
 20
-0.0412
 30
0.0
 10
5.8396000000000008
 20
-0.0412
 30
0.0
 10
5.8548400000000003
 20
-0.13772
 30
0.0
 10
5.9361200000000007
 20
-0.20122
 30
0.0
 10
5.9843800000000007
 20
-0.26472
 30
0.0
 10
5.9843800000000007
 20
-0.26472
 30
0.0
 10
5.9843800000000007
 20
-0.75748
 30
0.0
 10
6.2841000000000005
 20
-1.2172200000000002
 30
0.0
 10
6.317120000000001
 20
-1.7430000000000001
 30
0.0
 10
6.317120000000001
 20
-1.7430000000000001
 30
0.0
 10
6.317120000000001
 20
-1.7430000000000001
 30
0.0
 10
6.2206000000000001
 20
-1.4407400000000001
 30
0.0
 10
6.2206000000000001
 20
-1.4407400000000001
 30
0.0
 10
6.2206000000000001
 20
-1.4407400000000001
 30
0.0
 10
6.1113800000000005
 20
-1.1080000000000001
 30
0.0
 10
6.2383800000000003
 20
-1.6642600000000001
 30
0.0
 10
6.2536200000000006
 20
-1.7912600000000001
 30
0.0
  0
SPLINE
  5
4F
100
AcDbEntity
  8
Ebene 1
 62
     7
100
AcDbSpline
210
0.0
220
0.0
230
1.0
 70
     1
 71
     3
 72
    12
 73
     8
 74
     0
 42
0.0000000001
 43
0.0000000001
 40
0.0
 40
0.0
 40
0.0
 40
0.0
 40
0.5
 40
0.5
 40
0.5
 40
0.5
 40
1.0
 40
1.0
 40
1.0
 40
1.0
 10
-1.6889500000000002
 20
0.38551
 30
0.0
 10
-1.6889500000000002
 20
0.38551
 30
0.0
 10
-1.54671
 20
0.30677
 30
0.0
 10
-1.54671
 20
0.30677
 30
0.0
 10
-1.54671
 20
0.30677
 30
0.0
 10
-1.5924300000000002
 20
0.19247
 30
0.0
 10
-1.6889500000000002
 20
0.31947
 30
0.0
 10
-1.6889500000000002
 20
0.38551
 30
0.0
  0
SPLINE
  5
50
100
AcDbEntity
  8
Ebene 1
 62
     7
100
AcDbSpline
210
0.0
220
0.0
230
1.0
 70
     1
 71
     3
 72
    12
 73
     8
 74
     0
 42
0.0000000001
 43
0.0000000001
 40
0.0
 40
0.0
 40
0.0
 40
0.0
 40
0.5
 40
0.5
 40
0.5
 40
0.5
 40
1.0
 40
1.0
 40
1.0
 40
1.0
 10
3.8380800000000002
 20
0.3372500000000001
 30
0.0
 10
4.0285800000000007
 20
0.30677
 30
0.0
 10
3.9015800000000005
 20
0.11373
 30
0.0
 10
3.8076000000000003
 20
0.05023
 30
0.0
 10
3.8076000000000003
 20
0.05023
 30
0.0
 10
3.7898200000000002
 20
0.13151
 30
0.0
 10
3.8076000000000003
 20
0.25851
 30
0.0
 10
3.8380800000000002
 20
0.3372500000000001
 30
0.0
  0
SPLINE
  5
51
100
AcDbEntity
  8
Ebene 1
100
AcDbSpline
210
0.0
220
0.0
230
1.0
 70
     1
 71
     3
 72
    44
 73
    40
 74
     0
 42
0.0000000001
 43
0.0000000001
 40
0.0
 40
0.0
 40
0.0
 40
0.0
 40
0.1
 40
0.1
 40
0.1
 40
0.1
 40
0.2
 40
0.2
 40
0.2
 40
0.2
 40
0.3
 40
0.3
 40
0.3
 40
0.3
 40
0.4
 40
0.4
 40
0.4
 40
0.4
 40
0.5
 40
0.5
 40
0.5
 40
0.5
 40
0.6
 40
0.6
 40
0.6
 40
0.6
 40
0.7
 40
0.7
 40
0.7
 40
0.7
 40
0.7999999999999999
 40
0.7999999999999999
 40
0.7999999999999999
 40
0.7999999999999999
 40
0.8999999999999999
 40
0.8999999999999999
 40
0.8999999999999999
 40
0.8999999999999999
 40
1.0
 40
1.0
 40
1.0
 40
1.0
 10
0.04078
 20
0.17723
 30
0.0
 10
0.18302
 20
0.08325
 30
0.0
 10
0.29478
 20
-0.08946
 30
0.0
 10
0.2643
 20
-0.27996
 30
0.0
 10
0.2643
 20
-0.27996
 30
0.0
 10
0.18302
 20
-0.4882400000000001
 30
0.0
 10
-0.11669
 20
-0.50348
 30
0.0
 10
-0.27417
 20
-0.37648
 30
0.0
 10
-0.27417
 20
-0.37648
 30
0.0
 10
-0.46467
 20
-0.5187200000000001
 30
0.0
 10
-0.65517
 20
-0.69398
 30
0.0
 10
-0.6881900000000001
 20
-0.9327400000000001
 30
0.0
 10
-0.6881900000000001
 20
-0.9327400000000001
 30
0.0
 10
-0.6881900000000001
 20
-0.9937
 30
0.0
 10
-0.6069100000000001
 20
-1.0114800000000002
 30
0.0
 10
-0.5611900000000001
 20
-1.04196
 30
0.0
 10
-0.5611900000000001
 20
-1.04196
 30
0.0
 10
-0.5611900000000001
 20
-1.04196
 30
0.0
 10
-0.3224300000000001
 20
-0.9784600000000001
 30
0.0
 10
-0.3224300000000001
 20
-0.9784600000000001
 30
0.0
 10
-0.3224300000000001
 20
-0.9784600000000001
 30
0.0
 10
-0.41895
 20
-1.3442200000000002
 30
0.0
 10
-0.90917
 20
-1.3442200000000002
 30
0.0
 10
-1.21143
 20
-1.3442200000000002
 30
0.0
 10
-1.21143
 20
-1.3442200000000002
 30
0.0
 10
-1.1022100000000001
 20
-1.2807200000000001
 30
0.0
 10
-1.08443
 20
-1.2350000000000001
 30
0.0
 10
-1.2292100000000001
 20
-1.2350000000000001
 30
0.0
 10
-1.2292100000000001
 20
-1.2350000000000001
 30
0.0
 10
-0.72121
 20
-1.0267200000000001
 30
0.0
 10
-0.65517
 20
-0.21646
 30
0.0
 10
-0.03541
 20
-0.24948
 30
0.0
 10
-0.03541
 20
-0.24948
 30
0.0
 10
-0.03541
 20
-0.24948
 30
0.0
 10
0.11952
 20
-0.20122
 30
0.0
 10
0.11952
 20
-0.20122
 30
0.0
 10
0.11952
 20
-0.20122
 30
0.0
 10
0.15254
 20
-0.05898
 30
0.0
 10
0.04078
 20
0.05023
 30
0.0
 10
0.04078
 20
0.17723
 30
0.0
  0
SPLINE
  5
52
100
AcDbEntity
  8
Ebene 1
 62
     7
100
AcDbSpline
210
0.0
220
0.0
230
1.0
 70
     1
 71
     3
 72
    60
 73
    56
 74
     0
 42
0.0000000001
 43
0.0000000001
 40
0.0
 40
0.0
 40
0.0
 40
0.0
 40
0.0714285714285714
 40
0.0714285714285714
 40
0.0714285714285714
 40
0.0714285714285714
 40
0.1428571428571429
 40
0.1428571428571429
 40
0.1428571428571429
 40
0.1428571428571429
 40
0.2142857142857143
 40
0.2142857142857143
 40
0.2142857142857143
 40
0.2142857142857143
 40
0.2857142857142857
 40
0.2857142857142857
 40
0.2857142857142857
 40
0.2857142857142857
 40
0.3571428571428571
 40
0.3571428571428571
 40
0.3571428571428571
 40
0.3571428571428571
 40
0.4285714285714285
 40
0.4285714285714285
 40
0.4285714285714285
 40
0.4285714285714285
 40
0.4999999999999999
 40
0.4999999999999999
 40
0.4999999999999999
 40
0.4999999999999999
 40
0.5714285714285713
 40
0.5714285714285713
 40
0.5714285714285713
 40
0.5714285714285713
 40
0.6428571428571427
 40
0.6428571428571427
 40
0.6428571428571427
 40
0.6428571428571427
 40
0.7142857142857141
 40
0.7142857142857141
 40
0.7142857142857141
 40
0.7142857142857141
 40
0.7857142857142855
 40
0.7857142857142855
 40
0.7857142857142855
 40
0.7857142857142855
 40
0.8571428571428569
 40
0.8571428571428569
 40
0.8571428571428569
 40
0.8571428571428569
 40
0.9285714285714283
 40
0.9285714285714283
 40
0.9285714285714283
 40
0.9285714285714283
 40
1.0
 40
1.0
 40
1.0
 40
1.0
 10
1.8518000000000001
 20
-0.23424
 30
0.0
 10
1.7400400000000003
 20
-0.18598
 30
0.0
 10
1.61304
 20
-0.20122
 30
0.0
 10
1.5038200000000002
 20
-0.26472
 30
0.0
 10
1.5038200000000002
 20
-0.26472
 30
0.0
 10
0.9628000000000001
 20
-0.82098
 30
0.0
 10
0.57926
 20
-1.9335000000000002
 30
0.0
 10
-0.40117
 20
-1.6795000000000002
 30
0.0
 10
-0.40117
 20
-1.6795000000000002
 30
0.0
 10
-0.4799100000000001
 20
-1.63124
 30
0.0
 10
-0.4799100000000001
 20
-1.4712200000000002
 30
0.0
 10
-0.57643
 20
-1.4712200000000002
 30
0.0
 10
-0.57643
 20
-1.4712200000000002
 30
0.0
 10
-0.6069100000000001
 20
-1.6642600000000001
 30
0.0
 10
-0.41895
 20
-1.7582400000000002
 30
0.0
 10
-0.27417
 20
-1.7912600000000001
 30
0.0
 10
-0.27417
 20
-1.7912600000000001
 30
0.0
 10
-0.30465
 20
-1.8852400000000002
 30
0.0
 10
-0.25893
 20
-2.0757400000000001
 30
0.0
 10
-0.14717
 20
-2.0909800000000001
 30
0.0
 10
-0.14717
 20
-2.0909800000000001
 30
0.0
 10
-0.14717
 20
-2.0909800000000001
 30
0.0
 10
-0.22591
 20
-1.8065000000000002
 30
0.0
 10
-0.22591
 20
-1.8065000000000002
 30
0.0
 10
-0.22591
 20
-1.8065000000000002
 30
0.0
 10
-0.22591
 20
-1.8065000000000002
 30
0.0
 10
-0.05065
 20
-1.7734800000000002
 30
0.0
 10
-0.05065
 20
-1.7734800000000002
 30
0.0
 10
-0.05065
 20
-1.7734800000000002
 30
0.0
 10
-0.09891
 20
-2.2814800000000002
 30
0.0
 10
0.40654
 20
-2.4008600000000002
 30
0.0
 10
0.59704
 20
-2.81488
 30
0.0
 10
0.59704
 20
-2.81488
 30
0.0
 10
0.59704
 20
-2.81488
 30
0.0
 10
0.42178
 20
-2.7437600000000004
 30
0.0
 10
0.42178
 20
-2.7437600000000004
 30
0.0
 10
0.42178
 20
-2.7437600000000004
 30
0.0
 10
0.2008
 20
-2.0605000000000002
 30
0.0
 10
-0.8786900000000001
 20
-2.3627600000000002
 30
0.0
 10
-0.90917
 20
-1.5677400000000001
 30
0.0
 10
-0.90917
 20
-1.5677400000000001
 30
0.0
 10
-0.78217
 20
-1.5372600000000001
 30
0.0
 10
-0.6729500000000001
 20
-1.4890000000000001
 30
0.0
 10
-0.5611900000000001
 20
-1.4407400000000001
 30
0.0
 10
-0.5611900000000001
 20
-1.4407400000000001
 30
0.0
 10
0.23128
 20
-1.6160000000000001
 30
0.0
 10
0.8205600000000001
 20
-0.7727200000000001
 30
0.0
 10
1.2650600000000001
 20
-0.21646
 30
0.0
 10
1.2650600000000001
 20
-0.21646
 30
0.0
 10
1.2650600000000001
 20
-0.21646
 30
0.0
 10
1.5647800000000001
 20
-0.11994
 30
0.0
 10
1.5647800000000001
 20
-0.11994
 30
0.0
 10
1.5647800000000001
 20
-0.11994
 30
0.0
 10
1.6765400000000001
 20
-0.11994
 30
0.0
 10
1.7883000000000002
 20
-0.13772
 30
0.0
 10
1.8518000000000001
 20
-0.23424
 30
0.0
  0
SPLINE
  5
53
100
AcDbEntity
  8
Ebene 1
 62
     7
100
AcDbSpline
210
0.0
220
0.0
230
1.0
 70
     1
 71
     3
 72
    12
 73
     8
 74
     0
 42
0.0000000001
 43
0.0000000001
 40
0.0
 40
0.0
 40
0.0
 40
0.0
 40
0.5
 40
0.5
 40
0.5
 40
0.5
 40
1.0
 40
1.0
 40
1.0
 40
1.0
 10
1.6460600000000001
 20
-0.27996
 30
0.0
 10
1.7730600000000001
 20
-0.23424
 30
0.0
 10
1.8213200000000001
 20
-0.4222
 30
0.0
 10
1.7730600000000001
 20
-0.50348
 30
0.0
 10
1.7730600000000001
 20
-0.50348
 30
0.0
 10
1.6613000000000002
 20
-0.53396
 30
0.0
 10
1.5190600000000001
 20
-0.32822
 30
0.0
 10
1.6460600000000001
 20
-0.27996
 30
0.0
  0
SPLINE
  5
54
100
AcDbEntity
  8
Ebene 1
 62
     7
100
AcDbSpline
210
0.0
220
0.0
230
1.0
 70
     1
 71
     3
 72
    40
 73
    36
 74
     0
 42
0.0000000001
 43
0.0000000001
 40
0.0
 40
0.0
 40
0.0
 40
0.0
 40
0.1111111111111111
 40
0.1111111111111111
 40
0.1111111111111111
 40
0.1111111111111111
 40
0.2222222222222222
 40
0.2222222222222222
 40
0.2222222222222222
 40
0.2222222222222222
 40
0.3333333333333333
 40
0.3333333333333333
 40
0.3333333333333333
 40
0.3333333333333333
 40
0.4444444444444444
 40
0.4444444444444444
 40
0.4444444444444444
 40
0.4444444444444444
 40
0.5555555555555556
 40
0.5555555555555556
 40
0.5555555555555556
 40
0.5555555555555556
 40
0.6666666666666667
 40
0.6666666666666667
 40
0.6666666666666667
 40
0.6666666666666667
 40
0.7777777777777779
 40
0.7777777777777779
 40
0.7777777777777779
 40
0.7777777777777779
 40
0.8888888888888891
 40
0.8888888888888891
 40
0.8888888888888891
 40
0.8888888888888891
 40
1.0
 40
1.0
 40
1.0
 40
1.0
 10
-3.9927300000000003
 20
-0.37648
 30
0.0
 10
-3.9012900000000004
 20
-0.4882400000000001
 30
0.0
 10
-3.7057100000000003
 20
-0.27996
 30
0.0
 10
-3.7819100000000003
 20
-0.4882400000000001
 30
0.0
 10
-3.7819100000000003
 20
-0.4882400000000001
 30
0.0
 10
-3.4517100000000003
 20
-0.5492
 30
0.0
 10
-3.9647900000000003
 20
-1.0267200000000001
 30
0.0
 10
-3.9647900000000003
 20
-0.7244600000000001
 30
0.0
 10
-3.9647900000000003
 20
-0.7244600000000001
 30
0.0
 10
-3.9825700000000004
 20
-0.7244600000000001
 30
0.0
 10
-3.9952700000000005
 20
-0.67874
 30
0.0
 10
-4.0181300000000002
 20
-0.69398
 30
0.0
 10
-4.0181300000000002
 20
-0.69398
 30
0.0
 10
-4.23149
 20
-0.88448
 30
0.0
 10
-3.9851100000000002
 20
-1.1537200000000001
 30
0.0
 10
-3.7692100000000002
 20
-1.0597400000000001
 30
0.0
 10
-3.7692100000000002
 20
-1.0597400000000001
 30
0.0
 10
-3.6218900000000005
 20
-1.0597400000000001
 30
0.0
 10
-3.4898100000000003
 20
-0.94798
 30
0.0
 10
-3.4644100000000004
 20
-0.80574
 30
0.0
 10
-3.4644100000000004
 20
-0.80574
 30
0.0
 10
-3.4059900000000001
 20
-0.74224
 30
0.0
 10
-3.4847300000000003
 20
-0.6457200000000001
 30
0.0
 10
-3.4390100000000001
 20
-0.5822200000000001
 30
0.0
 10
-3.4390100000000001
 20
-0.5822200000000001
 30
0.0
 10
-3.4390100000000001
 20
-0.5822200000000001
 30
0.0
 10
-3.4237700000000002
 20
-0.53396
 30
0.0
 10
-3.4237700000000002
 20
-0.53396
 30
0.0
 10
-3.4237700000000002
 20
-0.53396
 30
0.0
 10
-3.2434300000000005
 20
-0.8362200000000001
 30
0.0
 10
-3.5837900000000005
 20
-1.1537200000000001
 30
0.0
 10
-3.8809700000000005
 20
-1.1537200000000001
 30
0.0
 10
-3.8809700000000005
 20
-1.1537200000000001
 30
0.0
 10
-4.22133
 20
-1.04196
 30
0.0
 10
-4.3153100000000002
 20
-0.5492
 30
0.0
 10
-3.9927300000000003
 20
-0.37648
 30
0.0
  0
SPLINE
  5
55
100
AcDbEntity
  8
Ebene 1
 62
     7
100
AcDbSpline
210
0.0
220
0.0
230
1.0
 70
     1
 71
     3
 72
    16
 73
    12
 74
     0
 42
0.0000000001
 43
0.0000000001
 40
0.0
 40
0.0
 40
0.0
 40
0.0
 40
0.3333333333333333
 40
0.3333333333333333
 40
0.3333333333333333
 40
0.3333333333333333
 40
0.6666666666666666
 40
0.6666666666666666
 40
0.6666666666666666
 40
0.6666666666666666
 40
1.0
 40
1.0
 40
1.0
 40
1.0
 10
1.4225400000000001
 20
-0.40696
 30
0.0
 10
1.5647800000000001
 20
-0.4222
 30
0.0
 10
1.6308200000000002
 20
-0.61524
 30
0.0
 10
1.6613000000000002
 20
-0.74224
 30
0.0
 10
1.6613000000000002
 20
-0.74224
 30
0.0
 10
1.6613000000000002
 20
-0.74224
 30
0.0
 10
1.4073000000000002
 20
-0.47046
 30
0.0
 10
1.4073000000000002
 20
-0.47046
 30
0.0
 10
1.4073000000000002
 20
-0.47046
 30
0.0
 10
1.3920600000000001
 20
-0.43998
 30
0.0
 10
1.4073000000000002
 20
-0.4222
 30
0.0
 10
1.4225400000000001
 20
-0.40696
 30
0.0
  0
SPLINE
  5
56
100
AcDbEntity
  8
Ebene 1
 62
     7
100
AcDbSpline
210
0.0
220
0.0
230
1.0
 70
     1
 71
     3
 72
    12
 73
     8
 74
     0
 42
0.0000000001
 43
0.0000000001
 40
0.0
 40
0.0
 40
0.0
 40
0.0
 40
0.5
 40
0.5
 40
0.5
 40
0.5
 40
1.0
 40
1.0
 40
1.0
 40
1.0
 10
1.8848200000000002
 20
-0.45522
 30
0.0
 10
1.9305400000000001
 20
-0.43998
 30
0.0
 10
1.9483200000000001
 20
-0.53396
 30
0.0
 10
1.9000600000000001
 20
-0.53396
 30
0.0
 10
1.9000600000000001
 20
-0.53396
 30
0.0
 10
1.8365600000000002
 20
-0.5187200000000001
 30
0.0
 10
1.8518000000000001
 20
-0.4882400000000001
 30
0.0
 10
1.8848200000000002
 20
-0.45522
 30
0.0
  0
SPLINE
  5
57
100
AcDbEntity
  8
Ebene 1
 62
     7
100
AcDbSpline
210
0.0
220
0.0
230
1.0
 70
     1
 71
     3
 72
    12
 73
     8
 74
     0
 42
0.0000000001
 43
0.0000000001
 40
0.0
 40
0.0
 40
0.0
 40
0.0
 40
0.5
 40
0.5
 40
0.5
 40
0.5
 40
1.0
 40
1.0
 40
1.0
 40
1.0
 10
1.2955400000000001
 20
-0.5492
 30
0.0
 10
1.5038200000000002
 20
-0.50348
 30
0.0
 10
1.7095600000000002
 20
-0.80574
 30
0.0
 10
1.5190600000000001
 20
-0.94798
 30
0.0
 10
1.5190600000000001
 20
-0.94798
 30
0.0
 10
1.3920600000000001
 20
-0.88448
 30
0.0
 10
1.2168000000000001
 20
-0.7092200000000001
 30
0.0
 10
1.2955400000000001
 20
-0.5492
 30
0.0
  0
SPLINE
  5
58
100
AcDbEntity
  8
Ebene 1
 62
     7
100
AcDbSpline
210
0.0
220
0.0
230
1.0
 70
     1
 71
     3
 72
    12
 73
     8
 74
     0
 42
0.0000000001
 43
0.0000000001
 40
0.0
 40
0.0
 40
0.0
 40
0.0
 40
0.5
 40
0.5
 40
0.5
 40
0.5
 40
1.0
 40
1.0
 40
1.0
 40
1.0
 10
1.8035400000000001
 20
-0.61524
 30
0.0
 10
1.9153000000000002
 20
-0.5974600000000001
 30
0.0
 10
2.0423
 20
-0.67874
 30
0.0
 10
1.9940400000000003
 20
-0.80574
 30
0.0
 10
1.9940400000000003
 20
-0.80574
 30
0.0
 10
1.9305400000000001
 20
-0.74224
 30
0.0
 10
1.6765400000000001
 20
-0.74224
 30
0.0
 10
1.8035400000000001
 20
-0.61524
 30
0.0
  0
SPLINE
  5
59
100
AcDbEntity
  8
Ebene 1
 62
     7
100
AcDbSpline
210
0.0
220
0.0
230
1.0
 70
     1
 71
     3
 72
    12
 73
     8
 74
     0
 42
0.0000000001
 43
0.0000000001
 40
0.0
 40
0.0
 40
0.0
 40
0.0
 40
0.5
 40
0.5
 40
0.5
 40
0.5
 40
1.0
 40
1.0
 40
1.0
 40
1.0
 10
1.7095600000000002
 20
-0.80574
 30
0.0
 10
1.8848200000000002
 20
-0.75748
 30
0.0
 10
2.0423
 20
-1.0114800000000002
 30
0.0
 10
1.8670400000000003
 20
-1.1080000000000001
 30
0.0
 10
1.8670400000000003
 20
-1.1080000000000001
 30
0.0
 10
1.7883000000000002
 20
-1.0114800000000002
 30
0.0
 10
1.5495400000000001
 20
-0.94798
 30
0.0
 10
1.7095600000000002
 20
-0.80574
 30
0.0
  0
SPLINE
  5
5A
100
AcDbEntity
  8
Ebene 1
 62
     7
100
AcDbSpline
210
0.0
220
0.0
230
1.0
 70
     1
 71
     3
 72
    16
 73
    12
 74
     0
 42
0.0000000001
 43
0.0000000001
 40
0.0
 40
0.0
 40
0.0
 40
0.0
 40
0.3333333333333333
 40
0.3333333333333333
 40
0.3333333333333333
 40
0.3333333333333333
 40
0.6666666666666666
 40
0.6666666666666666
 40
0.6666666666666666
 40
0.6666666666666666
 40
1.0
 40
1.0
 40
1.0
 40
1.0
 10
1.1837800000000001
 20
-0.82098
 30
0.0
 10
1.2955400000000001
 20
-0.80574
 30
0.0
 10
1.35904
 20
-0.9327400000000001
 30
0.0
 10
1.3920600000000001
 20
-1.0114800000000002
 30
0.0
 10
1.3920600000000001
 20
-1.0114800000000002
 30
0.0
 10
1.3920600000000001
 20
-1.0114800000000002
 30
0.0
 10
1.2498200000000002
 20
-1.2172200000000002
 30
0.0
 10
1.2498200000000002
 20
-1.2172200000000002
 30
0.0
 10
1.2498200000000002
 20
-1.2172200000000002
 30
0.0
 10
1.1355200000000001
 20
-1.1080000000000001
 30
0.0
 10
1.0085200000000001
 20
-0.94798
 30
0.0
 10
1.1837800000000001
 20
-0.82098
 30
0.0
  0
SPLINE
  5
5B
100
AcDbEntity
  8
Ebene 1
 62
     7
100
AcDbSpline
210
0.0
220
0.0
230
1.0
 70
     1
 71
     3
 72
    52
 73
    48
 74
     0
 42
0.0000000001
 43
0.0000000001
 40
0.0
 40
0.0
 40
0.0
 40
0.0
 40
0.0833333333333333
 40
0.0833333333333333
 40
0.0833333333333333
 40
0.0833333333333333
 40
0.1666666666666667
 40
0.1666666666666667
 40
0.1666666666666667
 40
0.1666666666666667
 40
0.25
 40
0.25
 40
0.25
 40
0.25
 40
0.3333333333333333
 40
0.3333333333333333
 40
0.3333333333333333
 40
0.3333333333333333
 40
0.4166666666666666
 40
0.4166666666666666
 40
0.4166666666666666
 40
0.4166666666666666
 40
0.4999999999999999
 40
0.4999999999999999
 40
0.4999999999999999
 40
0.4999999999999999
 40
0.5833333333333333
 40
0.5833333333333333
 40
0.5833333333333333
 40
0.5833333333333333
 40
0.6666666666666666
 40
0.6666666666666666
 40
0.6666666666666666
 40
0.6666666666666666
 40
0.75
 40
0.75
 40
0.75
 40
0.75
 40
0.8333333333333334
 40
0.8333333333333334
 40
0.8333333333333334
 40
0.8333333333333334
 40
0.9166666666666667
 40
0.9166666666666667
 40
0.9166666666666667
 40
0.9166666666666667
 40
1.0
 40
1.0
 40
1.0
 40
1.0
 10
1.5647800000000001
 20
-2.0452600000000003
 30
0.0
 10
1.1025
 20
-2.3348200000000001
 30
0.0
 10
1.02376
 20
-2.7158200000000003
 30
0.0
 10
0.57926
 20
-2.6167600000000002
 30
0.0
 10
0.57926
 20
-2.6167600000000002
 30
0.0
 10
0.34304
 20
-2.4719800000000003
 30
0.0
 10
0.15254
 20
-2.2179800000000003
 30
0.0
 10
0.11952
 20
-1.9335000000000002
 30
0.0
 10
0.11952
 20
-1.9335000000000002
 30
0.0
 10
0.16778
 20
-1.9970000000000001
 30
0.0
 10
0.2008
 20
-2.0757400000000001
 30
0.0
 10
0.2643
 20
-2.1240000000000001
 30
0.0
 10
0.2643
 20
-2.1240000000000001
 30
0.0
 10
1.0085200000000001
 20
-2.3145000000000002
 30
0.0
 10
1.6460600000000001
 20
-1.4407400000000001
 30
0.0
 10
2.0753200000000001
 20
-0.9149600000000001
 30
0.0
 10
2.0753200000000001
 20
-0.9149600000000001
 30
0.0
 10
2.0753200000000001
 20
-0.9149600000000001
 30
0.0
 10
1.9788000000000001
 20
-1.3620000000000001
 30
0.0
 10
1.9788000000000001
 20
-1.3620000000000001
 30
0.0
 10
1.9788000000000001
 20
-1.3620000000000001
 30
0.0
 10
1.9305400000000001
 20
-1.5372600000000001
 30
0.0
 10
1.9483200000000001
 20
-1.7430000000000001
 30
0.0
 10
1.8213200000000001
 20
-1.8852400000000002
 30
0.0
 10
1.8213200000000001
 20
-1.8852400000000002
 30
0.0
 10
1.8365600000000002
 20
-1.7734800000000002
 30
0.0
 10
1.9483200000000001
 20
-1.5982200000000002
 30
0.0
 10
1.8518000000000001
 20
-1.4712200000000002
 30
0.0
 10
1.8518000000000001
 20
-1.4712200000000002
 30
0.0
 10
1.7883000000000002
 20
-1.7252200000000002
 30
0.0
 10
1.5825600000000002
 20
-1.8700000000000001
 30
0.0
 10
1.3438000000000001
 20
-1.9792200000000002
 30
0.0
 10
1.3438000000000001
 20
-1.9792200000000002
 30
0.0
 10
1.1355200000000001
 20
-2.1544800000000004
 30
0.0
 10
0.9297800000000001
 20
-2.3780000000000001
 30
0.0
 10
0.6935600000000001
 20
-2.4567400000000004
 30
0.0
 10
0.6935600000000001
 20
-2.4567400000000004
 30
0.0
 10
0.7062600000000001
 20
-2.5380200000000004
 30
0.0
 10
0.85104
 20
-2.5380200000000004
 30
0.0
 10
0.8993000000000001
 20
-2.4719800000000003
 30
0.0
 10
0.8993000000000001
 20
-2.4719800000000003
 30
0.0
 10
1.0415400000000001
 20
-2.4084800000000004
 30
0.0
 10
1.1533
 20
-2.2992600000000003
 30
0.0
 10
1.2650600000000001
 20
-2.2027400000000004
 30
0.0
 10
1.2650600000000001
 20
-2.2027400000000004
 30
0.0
 10
1.2803000000000002
 20
-2.10114
 30
0.0
 10
1.5038200000000002
 20
-1.9843000000000002
 30
0.0
 10
1.5647800000000001
 20
-2.0452600000000003
 30
0.0
  0
SPLINE
  5
5C
100
AcDbEntity
  8
Ebene 1
 62
     7
100
AcDbSpline
210
0.0
220
0.0
230
1.0
 70
     1
 71
     3
 72
    36
 73
    32
 74
     0
 42
0.0000000001
 43
0.0000000001
 40
0.0
 40
0.0
 40
0.0
 40
0.0
 40
0.125
 40
0.125
 40
0.125
 40
0.125
 40
0.25
 40
0.25
 40
0.25
 40
0.25
 40
0.375
 40
0.375
 40
0.375
 40
0.375
 40
0.5
 40
0.5
 40
0.5
 40
0.5
 40
0.625
 40
0.625
 40
0.625
 40
0.625
 40
0.75
 40
0.75
 40
0.75
 40
0.75
 40
0.875
 40
0.875
 40
0.875
 40
0.875
 40
1.0
 40
1.0
 40
1.0
 40
1.0
 10
1.5038200000000002
 20
-1.04196
 30
0.0
 10
1.5038200000000002
 20
-1.04196
 30
0.0
 10
1.6765400000000001
 20
-1.0597400000000001
 30
0.0
 10
1.6765400000000001
 20
-1.0597400000000001
 30
0.0
 10
1.6765400000000001
 20
-1.0597400000000001
 30
0.0
 10
1.7400400000000003
 20
-1.1080000000000001
 30
0.0
 10
1.7248000000000001
 20
-1.1867400000000001
 30
0.0
 10
1.7400400000000003
 20
-1.25024
 30
0.0
 10
1.7400400000000003
 20
-1.25024
 30
0.0
 10
1.5495400000000001
 20
-1.4559800000000001
 30
0.0
 10
1.3107800000000001
 20
-1.6795000000000002
 30
0.0
 10
1.0745600000000002
 20
-1.8065000000000002
 30
0.0
 10
1.0745600000000002
 20
-1.8065000000000002
 30
0.0
 10
0.8815200000000001
 20
-1.6464800000000002
 30
0.0
 10
1.1837800000000001
 20
-1.37724
 30
0.0
 10
1.3107800000000001
 20
-1.5982200000000002
 30
0.0
 10
1.3107800000000001
 20
-1.5982200000000002
 30
0.0
 10
1.3107800000000001
 20
-1.5982200000000002
 30
0.0
 10
1.3107800000000001
 20
-1.5194800000000002
 30
0.0
 10
1.3107800000000001
 20
-1.5194800000000002
 30
0.0
 10
1.3107800000000001
 20
-1.5194800000000002
 30
0.0
 10
1.1355200000000001
 20
-1.3924800000000002
 30
0.0
 10
1.4377800000000001
 20
-1.2172200000000002
 30
0.0
 10
1.5495400000000001
 20
-1.3620000000000001
 30
0.0
 10
1.5495400000000001
 20
-1.3620000000000001
 30
0.0
 10
1.5978000000000001
 20
-1.25024
 30
0.0
 10
1.3920600000000001
 20
-1.2654800000000002
 30
0.0
 10
1.3920600000000001
 20
-1.1867400000000001
 30
0.0
 10
1.3920600000000001
 20
-1.1867400000000001
 30
0.0
 10
1.4225400000000001
 20
-1.1384800000000002
 30
0.0
 10
1.4555600000000002
 20
-1.07498
 30
0.0
 10
1.5038200000000002
 20
-1.04196
 30
0.0
  0
SPLINE
  5
5D
100
AcDbEntity
  8
Ebene 1
 62
     7
100
AcDbSpline
210
0.0
220
0.0
230
1.0
 70
     1
 71
     3
 72
    20
 73
    16
 74
     0
 42
0.0000000001
 43
0.0000000001
 40
0.0
 40
0.0
 40
0.0
 40
0.0
 40
0.25
 40
0.25
 40
0.25
 40
0.25
 40
0.5
 40
0.5
 40
0.5
 40
0.5
 40
0.75
 40
0.75
 40
0.75
 40
0.75
 40
1.0
 40
1.0
 40
1.0
 40
1.0
 10
0.9932800000000001
 20
-1.1080000000000001
 30
0.0
 10
1.1228200000000002
 20
-1.0902200000000002
 30
0.0
 10
1.1837800000000001
 20
-1.25024
 30
0.0
 10
1.2015600000000002
 20
-1.3442200000000002
 30
0.0
 10
1.2015600000000002
 20
-1.3442200000000002
 30
0.0
 10
1.1533
 20
-1.4407400000000001
 30
0.0
 10
1.0567800000000001
 20
-1.5372600000000001
 30
0.0
 10
0.9475600000000001
 20
-1.5194800000000002
 30
0.0
 10
0.9475600000000001
 20
-1.5194800000000002
 30
0.0
 10
0.8662800000000001
 20
-1.4712200000000002
 30
0.0
 10
0.8358000000000001
 20
-1.3924800000000002
 30
0.0
 10
0.8027800000000001
 20
-1.3137400000000001
 30
0.0
 10
0.8027800000000001
 20
-1.3137400000000001
 30
0.0
 10
0.85104
 20
-1.2350000000000001
 30
0.0
 10
0.91454
 20
-1.1537200000000001
 30
0.0
 10
0.9932800000000001
 20
-1.1080000000000001
 30
0.0
  0
SPLINE
  5
5E
100
AcDbEntity
  8
Ebene 1
 62
     7
100
AcDbSpline
210
0.0
220
0.0
230
1.0
 70
     1
 71
     3
 72
    36
 73
    32
 74
     0
 42
0.0000000001
 43
0.0000000001
 40
0.0
 40
0.0
 40
0.0
 40
0.0
 40
0.125
 40
0.125
 40
0.125
 40
0.125
 40
0.25
 40
0.25
 40
0.25
 40
0.25
 40
0.375
 40
0.375
 40
0.375
 40
0.375
 40
0.5
 40
0.5
 40
0.5
 40
0.5
 40
0.625
 40
0.625
 40
0.625
 40
0.625
 40
0.75
 40
0.75
 40
0.75
 40
0.75
 40
0.875
 40
0.875
 40
0.875
 40
0.875
 40
1.0
 40
1.0
 40
1.0
 40
1.0
 10
2.9338400000000004
 20
-1.2807200000000001
 30
0.0
 10
2.9338400000000004
 20
-1.9182600000000001
 30
0.0
 10
2.6138000000000003
 20
-2.5532600000000003
 30
0.0
 10
2.2023200000000003
 20
-3.0612600000000003
 30
0.0
 10
2.2023200000000003
 20
-3.0612600000000003
 30
0.0
 10
2.2023200000000003
 20
-3.0612600000000003
 30
0.0
 10
1.9000600000000001
 20
-3.1247600000000002
 30
0.0
 10
1.9000600000000001
 20
-3.1247600000000002
 30
0.0
 10
1.9000600000000001
 20
-3.1247600000000002
 30
0.0
 10
1.8035400000000001
 20
-3.2822400000000003
 30
0.0
 10
1.61304
 20
-3.4422600000000001
 30
0.0
 10
1.4225400000000001
 20
-3.3305000000000002
 30
0.0
 10
1.4225400000000001
 20
-3.3305000000000002
 30
0.0
 10
1.4225400000000001
 20
-3.3305000000000002
 30
0.0
 10
1.1533
 20
-2.9342600000000001
 30
0.0
 10
1.1533
 20
-2.9342600000000001
 30
0.0
 10
1.1533
 20
-2.9342600000000001
 30
0.0
 10
1.1837800000000001
 20
-2.3145000000000002
 30
0.0
 10
1.8848200000000002
 20
-2.0909800000000001
 30
0.0
 10
2.3293200000000001
 20
-2.3145000000000002
 30
0.0
 10
2.3293200000000001
 20
-2.3145000000000002
 30
0.0
 10
2.4563200000000003
 20
-2.1544800000000004
 30
0.0
 10
2.5655400000000004
 20
-1.9335000000000002
 30
0.0
 10
2.5985600000000004
 20
-1.7430000000000001
 30
0.0
 10
2.5985600000000004
 20
-1.7430000000000001
 30
0.0
 10
2.5045800000000003
 20
-1.7734800000000002
 30
0.0
 10
2.5045800000000003
 20
-1.9792200000000002
 30
0.0
 10
2.4080600000000003
 20
-1.9487400000000001
 30
0.0
 10
2.4080600000000003
 20
-1.9487400000000001
 30
0.0
 10
2.5528400000000002
 20
-1.6947400000000001
 30
0.0
 10
2.7103200000000003
 20
-1.4712200000000002
 30
0.0
 10
2.9338400000000004
 20
-1.2807200000000001
 30
0.0
  0
SPLINE
  5
5F
100
AcDbEntity
  8
Ebene 1
 62
     7
100
AcDbSpline
210
0.0
220
0.0
230
1.0
 70
     1
 71
     3
 72
    12
 73
     8
 74
     0
 42
0.0000000001
 43
0.0000000001
 40
0.0
 40
0.0
 40
0.0
 40
0.0
 40
0.5
 40
0.5
 40
0.5
 40
0.5
 40
1.0
 40
1.0
 40
1.0
 40
1.0
 10
6.6828800000000008
 20
-1.7734800000000002
 30
0.0
 10
6.6193800000000005
 20
-1.6464800000000002
 30
0.0
 10
6.5076200000000002
 20
-1.4712200000000002
 30
0.0
 10
6.5863600000000009
 20
-1.3289800000000001
 30
0.0
 10
6.5863600000000009
 20
-1.3289800000000001
 30
0.0
 10
6.6498600000000003
 20
-1.4559800000000001
 30
0.0
 10
6.6676400000000005
 20
-1.6160000000000001
 30
0.0
 10
6.6828800000000008
 20
-1.7734800000000002
 30
0.0
  0
SPLINE
  5
60
100
AcDbEntity
  8
Ebene 1
 62
     7
100
AcDbSpline
210
0.0
220
0.0
230
1.0
 70
     1
 71
     3
 72
    20
 73
    16
 74
     0
 42
0.0000000001
 43
0.0000000001
 40
0.0
 40
0.0
 40
0.0
 40
0.0
 40
0.25
 40
0.25
 40
0.25
 40
0.25
 40
0.5
 40
0.5
 40
0.5
 40
0.5
 40
0.75
 40
0.75
 40
0.75
 40
0.75
 40
1.0
 40
1.0
 40
1.0
 40
1.0
 10
0.6935600000000001
 20
-1.4077200000000001
 30
0.0
 10
0.7723000000000001
 20
-1.4077200000000001
 30
0.0
 10
0.8205600000000001
 20
-1.5194800000000002
 30
0.0
 10
0.8662800000000001
 20
-1.5829800000000001
 30
0.0
 10
0.8662800000000001
 20
-1.5829800000000001
 30
0.0
 10
0.85104
 20
-1.6642600000000001
 30
0.0
 10
0.7723000000000001
 20
-1.7252200000000002
 30
0.0
 10
0.7062600000000001
 20
-1.7582400000000002
 30
0.0
 10
0.7062600000000001
 20
-1.7582400000000002
 30
0.0
 10
0.6122800000000001
 20
-1.7582400000000002
 30
0.0
 10
0.5640200000000001
 20
-1.63124
 30
0.0
 10
0.5487800000000001
 20
-1.5499600000000002
 30
0.0
 10
0.5487800000000001
 20
-1.5499600000000002
 30
0.0
 10
0.5487800000000001
 20
-1.5499600000000002
 30
0.0
 10
0.6935600000000001
 20
-1.4077200000000001
 30
0.0
 10
0.6935600000000001
 20
-1.4077200000000001
 30
0.0
  0
SPLINE
  5
61
100
AcDbEntity
  8
Ebene 1
 62
     7
100
AcDbSpline
210
0.0
220
0.0
230
1.0
 70
     1
 71
     3
 72
   224
 73
   220
 74
     0
 42
0.0000000001
 43
0.0000000001
 40
0.0
 40
0.0
 40
0.0
 40
0.0
 40
0.0181818181818182
 40
0.0181818181818182
 40
0.0181818181818182
 40
0.0181818181818182
 40
0.0363636363636364
 40
0.0363636363636364
 40
0.0363636363636364
 40
0.0363636363636364
 40
0.0545454545454545
 40
0.0545454545454545
 40
0.0545454545454545
 40
0.0545454545454545
 40
0.0727272727272727
 40
0.0727272727272727
 40
0.0727272727272727
 40
0.0727272727272727
 40
0.0909090909090909
 40
0.0909090909090909
 40
0.0909090909090909
 40
0.0909090909090909
 40
0.1090909090909091
 40
0.1090909090909091
 40
0.1090909090909091
 40
0.1090909090909091
 40
0.1272727272727273
 40
0.1272727272727273
 40
0.1272727272727273
 40
0.1272727272727273
 40
0.1454545454545455
 40
0.1454545454545455
 40
0.1454545454545455
 40
0.1454545454545455
 40
0.1636363636363637
 40
0.1636363636363637
 40
0.1636363636363637
 40
0.1636363636363637
 40
0.1818181818181819
 40
0.1818181818181819
 40
0.1818181818181819
 40
0.1818181818181819
 40
0.2
 40
0.2
 40
0.2
 40
0.2
 40
0.2181818181818182
 40
0.2181818181818182
 40
0.2181818181818182
 40
0.2181818181818182
 40
0.2363636363636364
 40
0.2363636363636364
 40
0.2363636363636364
 40
0.2363636363636364
 40
0.2545454545454546
 40
0.2545454545454546
 40
0.2545454545454546
 40
0.2545454545454546
 40
0.2727272727272728
 40
0.2727272727272728
 40
0.2727272727272728
 40
0.2727272727272728
 40
0.290909090909091
 40
0.290909090909091
 40
0.290909090909091
 40
0.290909090909091
 40
0.3090909090909091
 40
0.3090909090909091
 40
0.3090909090909091
 40
0.3090909090909091
 40
0.3272727272727273
 40
0.3272727272727273
 40
0.3272727272727273
 40
0.3272727272727273
 40
0.3454545454545455
 40
0.3454545454545455
 40
0.3454545454545455
 40
0.3454545454545455
 40
0.3636363636363637
 40
0.3636363636363637
 40
0.3636363636363637
 40
0.3636363636363637
 40
0.3818181818181819
 40
0.3818181818181819
 40
0.3818181818181819
 40
0.3818181818181819
 40
0.4000000000000001
 40
0.4000000000000001
 40
0.4000000000000001
 40
0.4000000000000001
 40
0.4181818181818183
 40
0.4181818181818183
 40
0.4181818181818183
 40
0.4181818181818183
 40
0.4363636363636365
 40
0.4363636363636365
 40
0.4363636363636365
 40
0.4363636363636365
 40
0.4545454545454546
 40
0.4545454545454546
 40
0.4545454545454546
 40
0.4545454545454546
 40
0.4727272727272728
 40
0.4727272727272728
 40
0.4727272727272728
 40
0.4727272727272728
 40
0.490909090909091
 40
0.490909090909091
 40
0.490909090909091
 40
0.490909090909091
 40
0.5090909090909092
 40
0.5090909090909092
 40
0.5090909090909092
 40
0.5090909090909092
 40
0.5272727272727273
 40
0.5272727272727273
 40
0.5272727272727273
 40
0.5272727272727273
 40
0.5454545454545455
 40
0.5454545454545455
 40
0.5454545454545455
 40
0.5454545454545455
 40
0.5636363636363637
 40
0.5636363636363637
 40
0.5636363636363637
 40
0.5636363636363637
 40
0.5818181818181819
 40
0.5818181818181819
 40
0.5818181818181819
 40
0.5818181818181819
 40
0.6000000000000001
 40
0.6000000000000001
 40
0.6000000000000001
 40
0.6000000000000001
 40
0.6181818181818183
 40
0.6181818181818183
 40
0.6181818181818183
 40
0.6181818181818183
 40
0.6363636363636365
 40
0.6363636363636365
 40
0.6363636363636365
 40
0.6363636363636365
 40
0.6545454545454547
 40
0.6545454545454547
 40
0.6545454545454547
 40
0.6545454545454547
 40
0.6727272727272728
 40
0.6727272727272728
 40
0.6727272727272728
 40
0.6727272727272728
 40
0.690909090909091
 40
0.690909090909091
 40
0.690909090909091
 40
0.690909090909091
 40
0.7090909090909092
 40
0.7090909090909092
 40
0.7090909090909092
 40
0.7090909090909092
 40
0.7272727272727274
 40
0.7272727272727274
 40
0.7272727272727274
 40
0.7272727272727274
 40
0.7454545454545456
 40
0.7454545454545456
 40
0.7454545454545456
 40
0.7454545454545456
 40
0.7636363636363638
 40
0.7636363636363638
 40
0.7636363636363638
 40
0.7636363636363638
 40
0.781818181818182
 40
0.781818181818182
 40
0.781818181818182
 40
0.781818181818182
 40
0.8000000000000002
 40
0.8000000000000002
 40
0.8000000000000002
 40
0.8000000000000002
 40
0.8181818181818183
 40
0.8181818181818183
 40
0.8181818181818183
 40
0.8181818181818183
 40
0.8363636363636365
 40
0.8363636363636365
 40
0.8363636363636365
 40
0.8363636363636365
 40
0.8545454545454547
 40
0.8545454545454547
 40
0.8545454545454547
 40
0.8545454545454547
 40
0.8727272727272729
 40
0.8727272727272729
 40
0.8727272727272729
 40
0.8727272727272729
 40
0.8909090909090911
 40
0.8909090909090911
 40
0.8909090909090911
 40
0.8909090909090911
 40
0.9090909090909093
 40
0.9090909090909093
 40
0.9090909090909093
 40
0.9090909090909093
 40
0.9272727272727275
 40
0.9272727272727275
 40
0.9272727272727275
 40
0.9272727272727275
 40
0.9454545454545457
 40
0.9454545454545457
 40
0.9454545454545457
 40
0.9454545454545457
 40
0.9636363636363639
 40
0.9636363636363639
 40
0.9636363636363639
 40
0.9636363636363639
 40
0.981818181818182
 40
0.981818181818182
 40
0.981818181818182
 40
0.981818181818182
 40
1.0
 40
1.0
 40
1.0
 40
1.0
 10
-3.4847300000000003
 20
-4.0772600000000008
 30
0.0
 10
-3.3043900000000002
 20
-4.09504
 30
0.0
 10
-3.2713700000000001
 20
-4.2372800000000002
 30
0.0
 10
-3.1697700000000002
 20
-4.3795200000000003
 30
0.0
 10
-3.1697700000000002
 20
-4.3795200000000003
 30
0.0
 10
-3.1367500000000001
 20
-4.3007800000000005
 30
0.0
 10
-3.1240500000000004
 20
-4.2042600000000006
 30
0.0
 10
-3.1215100000000002
 20
-4.1102800000000004
 30
0.0
 10
-3.1215100000000002
 20
-4.1102800000000004
 30
0.0
 10
-3.1215100000000002
 20
-4.1102800000000004
 30
0.0
 10
-3.3272500000000003
 20
-3.8715200000000003
 30
0.0
 10
-3.3272500000000003
 20
-3.8715200000000003
 30
0.0
 10
-3.3272500000000003
 20
-3.8715200000000003
 30
0.0
 10
-3.4263100000000004
 20
-3.8080200000000004
 30
0.0
 10
-3.5456900000000005
 20
-3.7927800000000005
 30
0.0
 10
-3.6549100000000001
 20
-3.8080200000000004
 30
0.0
 10
-3.6549100000000001
 20
-3.8080200000000004
 30
0.0
 10
-3.8225500000000001
 20
-3.5210000000000004
 30
0.0
 10
-3.6345900000000002
 20
-3.2670000000000003
 30
0.0
 10
-3.3932900000000004
 20
-3.0942800000000004
 30
0.0
 10
-3.3932900000000004
 20
-3.0942800000000004
 30
0.0
 10
-3.2688300000000003
 20
-2.8225000000000002
 30
0.0
 10
-3.0783300000000002
 20
-2.5837400000000001
 30
0.0
 10
-2.8675100000000002
 20
-2.4084800000000004
 30
0.0
 10
-2.8675100000000002
 20
-2.4084800000000004
 30
0.0
 10
-2.8675100000000002
 20
-2.4084800000000004
 30
0.0
 10
-2.9005300000000003
 20
-2.3449800000000001
 30
0.0
 10
-2.9005300000000003
 20
-2.3449800000000001
 30
0.0
 10
-2.9005300000000003
 20
-2.3449800000000001
 30
0.0
 10
-3.1342100000000004
 20
-2.4415
 30
0.0
 10
-3.2612100000000002
 20
-2.6802600000000001
 30
0.0
 10
-3.3755100000000002
 20
-2.8707600000000002
 30
0.0
 10
-3.3755100000000002
 20
-2.8707600000000002
 30
0.0
 10
-3.4644100000000004
 20
-2.9342600000000001
 30
0.0
 10
-3.5202900000000001
 20
-2.9977600000000004
 30
0.0
 10
-3.5736300000000001
 20
-2.9190200000000002
 30
0.0
 10
-3.5736300000000001
 20
-2.9190200000000002
 30
0.0
 10
-3.6523700000000003
 20
-3.2517600000000004
 30
0.0
 10
-3.9901900000000001
 20
-3.6175200000000003
 30
0.0
 10
-3.6904700000000004
 20
-3.9680400000000002
 30
0.0
 10
-3.6904700000000004
 20
-3.9680400000000002
 30
0.0
 10
-3.7438100000000003
 20
-4.0620200000000004
 30
0.0
 10
-3.6269700000000005
 20
-4.1255200000000007
 30
0.0
 10
-3.6422100000000004
 20
-4.2220400000000007
 30
0.0
 10
-3.6422100000000004
 20
-4.2220400000000007
 30
0.0
 10
-3.7260300000000002
 20
-4.3795200000000003
 30
0.0
 10
-3.7996900000000005
 20
-4.5395400000000006
 30
0.0
 10
-3.8047700000000004
 20
-4.6970200000000002
 30
0.0
 10
-3.8047700000000004
 20
-4.6970200000000002
 30
0.0
 10
-3.9444700000000004
 20
-4.7605200000000005
 30
0.0
 10
-3.9749500000000002
 20
-4.9357800000000003
 30
0.0
 10
-4.0181300000000002
 20
-5.0627800000000001
 30
0.0
 10
-4.0181300000000002
 20
-5.0627800000000001
 30
0.0
 10
-4.0181300000000002
 20
-5.0627800000000001
 30
0.0
 10
-3.9139900000000005
 20
-5.0627800000000001
 30
0.0
 10
-3.9139900000000005
 20
-5.0627800000000001
 30
0.0
 10
-3.9139900000000005
 20
-5.0627800000000001
 30
0.0
 10
-4.0079700000000003
 20
-5.2050200000000002
 30
0.0
 10
-4.1883100000000004
 20
-5.2228000000000003
 30
0.0
 10
-4.2899100000000008
 20
-5.0780200000000004
 30
0.0
 10
-4.2899100000000008
 20
-5.0780200000000004
 30
0.0
 10
-4.2873700000000001
 20
-4.5700200000000004
 30
0.0
 10
-3.9647900000000003
 20
-4.2525200000000005
 30
0.0
 10
-4.0994100000000007
 20
-3.8080200000000004
 30
0.0
 10
-4.0994100000000007
 20
-3.8080200000000004
 30
0.0
 10
-4.0155900000000004
 20
-3.7927800000000005
 30
0.0
 10
-3.9343100000000004
 20
-3.8232600000000003
 30
0.0
 10
-3.8809700000000005
 20
-3.8232600000000003
 30
0.0
 10
-3.8809700000000005
 20
-3.8232600000000003
 30
0.0
 10
-4.7420300000000006
 20
-3.2670000000000003
 30
0.0
 10
-3.3577300000000001
 20
-2.6650200000000002
 30
0.0
 10
-2.9792700000000001
 20
-2.0909800000000001
 30
0.0
 10
-2.9792700000000001
 20
-2.0909800000000001
 30
0.0
 10
-3.5456900000000005
 20
-2.5837400000000001
 30
0.0
 10
-4.5312100000000006
 20
-2.9672800000000001
 30
0.0
 10
-4.4727900000000007
 20
-3.8080200000000004
 30
0.0
 10
-4.4727900000000007
 20
-3.8080200000000004
 30
0.0
 10
-4.4727900000000007
 20
-3.8080200000000004
 30
0.0
 10
-4.7547300000000003
 20
-4.0137600000000004
 30
0.0
 10
-4.7547300000000003
 20
-4.0137600000000004
 30
0.0
 10
-4.7547300000000003
 20
-4.0137600000000004
 30
0.0
 10
-4.7852100000000002
 20
-3.9020000000000001
 30
0.0
 10
-4.7242500000000005
 20
-3.6327600000000002
 30
0.0
 10
-4.8766500000000006
 20
-3.6022800000000004
 30
0.0
 10
-4.8766500000000006
 20
-3.6022800000000004
 30
0.0
 10
-4.81569
 20
-3.9832800000000002
 30
0.0
 10
-5.0722300000000002
 20
-4.04678
 30
0.0
 10
-5.2906700000000004
 20
-4.2220400000000007
 30
0.0
 10
-5.2906700000000004
 20
-4.2220400000000007
 30
0.0
 10
-5.3795700000000002
 20
-4.26776
 30
0.0
 10
-5.4557700000000002
 20
-4.3642799999999999
 30
0.0
 10
-5.5497500000000004
 20
-4.3312600000000003
 30
0.0
 10
-5.5497500000000004
 20
-4.3312600000000003
 30
0.0
 10
-5.6081700000000003
 20
-4.26776
 30
0.0
 10
-5.4303700000000008
 20
-4.1102800000000004
 30
0.0
 10
-5.5370500000000007
 20
-3.9985200000000005
 30
0.0
 10
-5.5370500000000007
 20
-3.9985200000000005
 30
0.0
 10
-5.7732700000000001
 20
-4.4760400000000002
 30
0.0
 10
-6.4412900000000004
 20
-4.6182800000000004
 30
0.0
 10
-6.8832500000000003
 20
-4.2830000000000004
 30
0.0
 10
-6.8832500000000003
 20
-4.2830000000000004
 30
0.0
 10
-7.2134500000000008
 20
-3.7597600000000004
 30
0.0
 10
-7.259170000000001
 20
-4.6335200000000007
 30
0.0
 10
-6.8324500000000006
 20
-4.6335200000000007
 30
0.0
 10
-6.8324500000000006
 20
-4.6335200000000007
 30
0.0
 10
-6.799430000000001
 20
-4.6335200000000007
 30
0.0
 10
-6.7537100000000008
 20
-4.6513
 30
0.0
 10
-6.7410100000000002
 20
-4.6817800000000007
 30
0.0
 10
-6.7410100000000002
 20
-4.6817800000000007
 30
0.0
 10
-7.0839100000000004
 20
-4.7605200000000005
 30
0.0
 10
-7.3988700000000005
 20
-4.3007800000000005
 30
0.0
 10
-7.2617100000000008
 20
-3.9832800000000002
 30
0.0
 10
-7.2617100000000008
 20
-3.9832800000000002
 30
0.0
 10
-7.1855100000000007
 20
-3.9020000000000001
 30
0.0
 10
-7.0991500000000007
 20
-3.8232600000000003
 30
0.0
 10
-6.9950100000000006
 20
-3.7927800000000005
 30
0.0
 10
-6.9950100000000006
 20
-3.7927800000000005
 30
0.0
 10
-6.4539900000000001
 20
-3.9680400000000002
 30
0.0
 10
-5.6996100000000007
 20
-3.9959800000000003
 30
0.0
 10
-5.4329100000000006
 20
-3.6607000000000003
 30
0.0
 10
-5.4329100000000006
 20
-3.6607000000000003
 30
0.0
 10
-4.8029900000000003
 20
-3.6149800000000001
 30
0.0
 10
-4.72933
 20
-3.3940000000000001
 30
0.0
 10
-4.43215
 20
-2.8707600000000002
 30
0.0
 10
-4.43215
 20
-2.8707600000000002
 30
0.0
 10
-3.9012900000000004
 20
-2.64724
 30
0.0
 10
-3.4136100000000003
 20
-2.3449800000000001
 30
0.0
 10
-2.94625
 20
-1.9970000000000001
 30
0.0
 10
-2.94625
 20
-1.9970000000000001
 30
0.0
 10
-2.94625
 20
-1.9970000000000001
 30
0.0
 10
-3.2104100000000004
 20
-2.1087600000000002
 30
0.0
 10
-3.2104100000000004
 20
-2.1087600000000002
 30
0.0
 10
-3.2104100000000004
 20
-2.1087600000000002
 30
0.0
 10
-3.0173700000000001
 20
-1.8065000000000002
 30
0.0
 10
-2.8522700000000003
 20
-1.4407400000000001
 30
0.0
 10
-2.4357100000000003
 20
-1.4407400000000001
 30
0.0
 10
-2.4357100000000003
 20
-1.4407400000000001
 30
0.0
 10
-1.8946900000000002
 20
-1.5677400000000001
 30
0.0
 10
-1.7676900000000002
 20
-1.6947400000000001
 30
0.0
 10
-1.4501900000000001
 20
-1.8522200000000002
 30
0.0
 10
-1.4501900000000001
 20
-1.8522200000000002
 30
0.0
 10
-1.6076700000000002
 20
-1.8852400000000002
 30
0.0
 10
-1.4019300000000001
 20
-2.1875
 30
0.0
 10
-1.4349500000000002
 20
-2.3780000000000001
 30
0.0
 10
-1.4349500000000002
 20
-2.3780000000000001
 30
0.0
 10
-1.4019300000000001
 20
-2.4719800000000003
 30
0.0
 10
-1.4984500000000001
 20
-2.5202400000000003
 30
0.0
 10
-1.4806700000000002
 20
-2.39324
 30
0.0
 10
-1.4806700000000002
 20
-2.39324
 30
0.0
 10
-1.5136900000000002
 20
-2.2662400000000003
 30
0.0
 10
-1.5289300000000001
 20
-2.0605000000000002
 30
0.0
 10
-1.6889500000000002
 20
-2.0274800000000002
 30
0.0
 10
-1.6889500000000002
 20
-2.0274800000000002
 30
0.0
 10
-1.4806700000000002
 20
-2.6320000000000001
 30
0.0
 10
-2.4280900000000001
 20
-2.8225000000000002
 30
0.0
 10
-2.2782300000000002
 20
-3.4092400000000005
 30
0.0
 10
-2.2782300000000002
 20
-3.4092400000000005
 30
0.0
 10
-2.3391900000000003
 20
-3.3152600000000003
 30
0.0
 10
-2.6871700000000001
 20
-3.3635200000000003
 30
0.0
 10
-2.5322300000000002
 20
-3.4270200000000002
 30
0.0
 10
-2.5322300000000002
 20
-3.4270200000000002
 30
0.0
 10
-2.4407900000000002
 20
-3.4752800000000001
 30
0.0
 10
-2.2553700000000001
 20
-3.5540200000000004
 30
0.0
 10
-2.4306300000000003
 20
-3.6175200000000003
 30
0.0
 10
-2.4306300000000003
 20
-3.6175200000000003
 30
0.0
 10
-2.35189
 20
-3.7292800000000002
 30
0.0
 10
-2.4636500000000003
 20
-4.3007800000000005
 30
0.0
 10
-2.1639300000000001
 20
-4.4582600000000001
 30
0.0
 10
-2.1639300000000001
 20
-4.4582600000000001
 30
0.0
 10
-1.9099300000000001
 20
-4.3973000000000004
 30
0.0
 10
-1.7676900000000002
 20
-4.26776
 30
0.0
 10
-1.9099300000000001
 20
-4.0137600000000004
 30
0.0
 10
-1.9099300000000001
 20
-4.0137600000000004
 30
0.0
 10
-1.4806700000000002
 20
-4.09504
 30
0.0
 10
-1.7676900000000002
 20
-3.7292800000000002
 30
0.0
 10
-1.8489700000000002
 20
-3.6657800000000003
 30
0.0
 10
-1.8489700000000002
 20
-3.6657800000000003
 30
0.0
 10
-1.7676900000000002
 20
-3.6022800000000004
 30
0.0
 10
-1.6254500000000001
 20
-3.6022800000000004
 30
0.0
 10
-1.54671
 20
-3.6480000000000001
 30
0.0
 10
-1.54671
 20
-3.6480000000000001
 30
0.0
 10
-1.4501900000000001
 20
-3.9350200000000002
 30
0.0
 10
-1.6889500000000002
 20
-4.6817800000000007
 30
0.0
 10
-1.9759700000000002
 20
-4.5065200000000001
 30
0.0
 10
-1.9759700000000002
 20
-4.5065200000000001
 30
0.0
 10
-1.9912100000000001
 20
-4.7122600000000006
 30
0.0
 10
-2.2045700000000004
 20
-4.8392600000000003
 30
0.0
 10
-2.40015
 20
-4.8392600000000003
 30
0.0
 10
-2.40015
 20
-4.8392600000000003
 30
0.0
 10
-2.51953
 20
-4.4277800000000003
 30
0.0
 10
-2.6643100000000004
 20
-3.9832800000000002
 30
0.0
 10
-3.0351500000000002
 20
-3.6962600000000001
 30
0.0
 10
-3.0351500000000002
 20
-3.6962600000000001
 30
0.0
 10
-2.64907
 20
-3.9502600000000001
 30
0.0
 10
-2.7887700000000004
 20
-3.4092400000000005
 30
0.0
 10
-3.1189700000000005
 20
-3.4905200000000001
 30
0.0
 10
-3.1189700000000005
 20
-3.4905200000000001
 30
0.0
 10
-3.1189700000000005
 20
-3.4905200000000001
 30
0.0
 10
-2.9919700000000002
 20
-3.0942800000000004
 30
0.0
 10
-2.9919700000000002
 20
-3.0942800000000004
 30
0.0
 10
-2.9919700000000002
 20
-3.0942800000000004
 30
0.0
 10
-2.9919700000000002
 20
-3.0942800000000004
 30
0.0
 10
-2.9919700000000002
 20
-2.8860000000000001
 30
0.0
 10
-2.9919700000000002
 20
-2.8860000000000001
 30
0.0
 10
-2.9919700000000002
 20
-2.8860000000000001
 30
0.0
 10
-3.1697700000000002
 20
-3.2517600000000004
 30
0.0
 10
-3.4923500000000001
 20
-3.8080200000000004
 30
0.0
 10
-2.9005300000000003
 20
-4.0137600000000004
 30
0.0
 10
-2.9005300000000003
 20
-4.0137600000000004
 30
0.0
 10
-3.0199100000000003
 20
-4.4100000000000001
 30
0.0
 10
-2.7100300000000002
 20
-4.9510200000000006
 30
0.0
 10
-3.1621500000000005
 20
-5.2380400000000007
 30
0.0
 10
-3.1621500000000005
 20
-5.2380400000000007
 30
0.0
 10
-3.1621500000000005
 20
-5.2380400000000007
 30
0.0
 10
-3.1646900000000002
 20
-4.9053000000000004
 30
0.0
 10
-3.1646900000000002
 20
-4.9053000000000004
 30
0.0
 10
-3.1646900000000002
 20
-4.9053000000000004
 30
0.0
 10
-3.1646900000000002
 20
-4.5852600000000008
 30
0.0
 10
-3.3348700000000004
 20
-4.3312600000000003
 30
0.0
 10
-3.4847300000000003
 20
-4.0772600000000008
 30
0.0
  0
SPLINE
  5
62
100
AcDbEntity
  8
Ebene 1
100
AcDbSpline
210
0.0
220
0.0
230
1.0
 70
     1
 71
     3
 72
    28
 73
    24
 74
     0
 42
0.0000000001
 43
0.0000000001
 40
0.0
 40
0.0
 40
0.0
 40
0.0
 40
0.1666666666666667
 40
0.1666666666666667
 40
0.1666666666666667
 40
0.1666666666666667
 40
0.3333333333333333
 40
0.3333333333333333
 40
0.3333333333333333
 40
0.3333333333333333
 40
0.5
 40
0.5
 40
0.5
 40
0.5
 40
0.6666666666666666
 40
0.6666666666666666
 40
0.6666666666666666
 40
0.6666666666666666
 40
0.8333333333333333
 40
0.8333333333333333
 40
0.8333333333333333
 40
0.8333333333333333
 40
1.0
 40
1.0
 40
1.0
 40
1.0
 10
5.7608600000000001
 20
-1.5829800000000001
 30
0.0
 10
5.9666000000000006
 20
-1.9970000000000001
 30
0.0
 10
6.0478800000000001
 20
-2.6650200000000002
 30
0.0
 10
5.7126000000000001
 20
-3.0460200000000004
 30
0.0
 10
5.7126000000000001
 20
-3.0460200000000004
 30
0.0
 10
5.7126000000000001
 20
-3.0942800000000004
 30
0.0
 10
5.7126000000000001
 20
-3.1400000000000001
 30
0.0
 10
5.6821200000000003
 20
-3.1730200000000002
 30
0.0
 10
5.6821200000000003
 20
-3.1730200000000002
 30
0.0
 10
5.6821200000000003
 20
-3.1730200000000002
 30
0.0
 10
5.6186200000000008
 20
-3.1730200000000002
 30
0.0
 10
5.6186200000000008
 20
-3.1730200000000002
 30
0.0
 10
5.6186200000000008
 20
-3.1730200000000002
 30
0.0
 10
5.47384
 20
-2.90124
 30
0.0
 10
5.7608600000000001
 20
-2.6167600000000002
 30
0.0
 10
5.6821200000000003
 20
-2.2992600000000003
 30
0.0
 10
5.6821200000000003
 20
-2.2992600000000003
 30
0.0
 10
5.8091200000000001
 20
-2.3145000000000002
 30
0.0
 10
5.6973600000000006
 20
-2.6167600000000002
 30
0.0
 10
5.7938800000000006
 20
-2.5989800000000001
 30
0.0
 10
5.7938800000000006
 20
-2.5989800000000001
 30
0.0
 10
5.8396000000000008
 20
-2.2510000000000003
 30
0.0
 10
5.7126000000000001
 20
-1.9004800000000002
 30
0.0
 10
5.7608600000000001
 20
-1.5829800000000001
 30
0.0
  0
SPLINE
  5
63
100
AcDbEntity
  8
Ebene 1
 62
     7
100
AcDbSpline
210
0.0
220
0.0
230
1.0
 70
     1
 71
     3
 72
    12
 73
     8
 74
     0
 42
0.0000000001
 43
0.0000000001
 40
0.0
 40
0.0
 40
0.0
 40
0.0
 40
0.5
 40
0.5
 40
0.5
 40
0.5
 40
1.0
 40
1.0
 40
1.0
 40
1.0
 10
0.43702
 20
-1.5982200000000002
 30
0.0
 10
0.5005200000000001
 20
-1.6160000000000001
 30
0.0
 10
0.5183000000000001
 20
-1.7430000000000001
 30
0.0
 10
0.5487800000000001
 20
-1.8065000000000002
 30
0.0
 10
0.5487800000000001
 20
-1.8065000000000002
 30
0.0
 10
0.43702
 20
-1.8369800000000001
 30
0.0
 10
0.37352
 20
-1.6464800000000002
 30
0.0
 10
0.43702
 20
-1.5982200000000002
 30
0.0
  0
SPLINE
  5
64
100
AcDbEntity
  8
Ebene 1
 62
     7
100
AcDbSpline
210
0.0
220
0.0
230
1.0
 70
     1
 71
     3
 72
    12
 73
     8
 74
     0
 42
0.0000000001
 43
0.0000000001
 40
0.0
 40
0.0
 40
0.0
 40
0.0
 40
0.5
 40
0.5
 40
0.5
 40
0.5
 40
1.0
 40
1.0
 40
1.0
 40
1.0
 10
0.31002
 20
-1.6795000000000002
 30
0.0
 10
0.35828
 20
-1.6795000000000002
 30
0.0
 10
0.3913
 20
-1.7430000000000001
 30
0.0
 10
0.37352
 20
-1.7912600000000001
 30
0.0
 10
0.37352
 20
-1.7912600000000001
 30
0.0
 10
0.31002
 20
-1.8065000000000002
 30
0.0
 10
0.2643
 20
-1.7252200000000002
 30
0.0
 10
0.31002
 20
-1.6795000000000002
 30
0.0
  0
SPLINE
  5
65
100
AcDbEntity
  8
Ebene 1
 62
     7
100
AcDbSpline
210
0.0
220
0.0
230
1.0
 70
     1
 71
     3
 72
    20
 73
    16
 74
     0
 42
0.0000000001
 43
0.0000000001
 40
0.0
 40
0.0
 40
0.0
 40
0.0
 40
0.25
 40
0.25
 40
0.25
 40
0.25
 40
0.5
 40
0.5
 40
0.5
 40
0.5
 40
0.75
 40
0.75
 40
0.75
 40
0.75
 40
1.0
 40
1.0
 40
1.0
 40
1.0
 10
0.85104
 20
-1.7252200000000002
 30
0.0
 10
0.9297800000000001
 20
-1.7252200000000002
 30
0.0
 10
0.9932800000000001
 20
-1.8217400000000001
 30
0.0
 10
0.9932800000000001
 20
-1.8852400000000002
 30
0.0
 10
0.9932800000000001
 20
-1.8852400000000002
 30
0.0
 10
0.9628000000000001
 20
-1.9792200000000002
 30
0.0
 10
0.85104
 20
-1.9970000000000001
 30
0.0
 10
0.7723000000000001
 20
-2.0452600000000003
 30
0.0
 10
0.7723000000000001
 20
-2.0452600000000003
 30
0.0
 10
0.7392800000000001
 20
-1.9970000000000001
 30
0.0
 10
0.6935600000000001
 20
-1.9335000000000002
 30
0.0
 10
0.6935600000000001
 20
-1.8522200000000002
 30
0.0
 10
0.6935600000000001
 20
-1.8522200000000002
 30
0.0
 10
0.6935600000000001
 20
-1.8522200000000002
 30
0.0
 10
0.85104
 20
-1.7252200000000002
 30
0.0
 10
0.85104
 20
-1.7252200000000002
 30
0.0
  0
SPLINE
  5
66
100
AcDbEntity
  8
Ebene 1
 62
     7
100
AcDbSpline
210
0.0
220
0.0
230
1.0
 70
     1
 71
     3
 72
    20
 73
    16
 74
     0
 42
0.0000000001
 43
0.0000000001
 40
0.0
 40
0.0
 40
0.0
 40
0.0
 40
0.25
 40
0.25
 40
0.25
 40
0.25
 40
0.5
 40
0.5
 40
0.5
 40
0.5
 40
0.75
 40
0.75
 40
0.75
 40
0.75
 40
1.0
 40
1.0
 40
1.0
 40
1.0
 10
0.21604
 20
-1.8065000000000002
 30
0.0
 10
0.31002
 20
-1.8065000000000002
 30
0.0
 10
0.29478
 20
-1.9335000000000002
 30
0.0
 10
0.40654
 20
-1.8852400000000002
 30
0.0
 10
0.40654
 20
-1.8852400000000002
 30
0.0
 10
0.3913
 20
-1.9639800000000001
 30
0.0
 10
0.43702
 20
-2.0452600000000003
 30
0.0
 10
0.48528
 20
-2.1087600000000002
 30
0.0
 10
0.48528
 20
-2.1087600000000002
 30
0.0
 10
0.37352
 20
-2.1087600000000002
 30
0.0
 10
0.18302
 20
-2.0122400000000003
 30
0.0
 10
0.24652
 20
-1.8852400000000002
 30
0.0
 10
0.24652
 20
-1.8852400000000002
 30
0.0
 10
0.23128
 20
-1.8522200000000002
 30
0.0
 10
0.2008
 20
-1.8369800000000001
 30
0.0
 10
0.21604
 20
-1.8065000000000002
 30
0.0
  0
SPLINE
  5
67
100
AcDbEntity
  8
Ebene 1
 62
     7
100
AcDbSpline
210
0.0
220
0.0
230
1.0
 70
     1
 71
     3
 72
    12
 73
     8
 74
     0
 42
0.0000000001
 43
0.0000000001
 40
0.0
 40
0.0
 40
0.0
 40
0.0
 40
0.5
 40
0.5
 40
0.5
 40
0.5
 40
1.0
 40
1.0
 40
1.0
 40
1.0
 10
0.53354
 20
-1.8700000000000001
 30
0.0
 10
0.6275200000000001
 20
-1.8522200000000002
 30
0.0
 10
0.66054
 20
-2.0122400000000003
 30
0.0
 10
0.6757800000000001
 20
-2.0909800000000001
 30
0.0
 10
0.6757800000000001
 20
-2.0909800000000001
 30
0.0
 10
0.5487800000000001
 20
-2.1875
 30
0.0
 10
0.40654
 20
-1.9335000000000002
 30
0.0
 10
0.53354
 20
-1.8700000000000001
 30
0.0
  0
SPLINE
  5
68
100
AcDbEntity
  8
Ebene 1
 62
     7
100
AcDbSpline
210
0.0
220
0.0
230
1.0
 70
     1
 71
     3
 72
    12
 73
     8
 74
     0
 42
0.0000000001
 43
0.0000000001
 40
0.0
 40
0.0
 40
0.0
 40
0.0
 40
0.5
 40
0.5
 40
0.5
 40
0.5
 40
1.0
 40
1.0
 40
1.0
 40
1.0
 10
-1.4501900000000001
 20
-1.9335000000000002
 30
0.0
 10
-1.3866900000000002
 20
-1.9487400000000001
 30
0.0
 10
-1.3079500000000002
 20
-2.0274800000000002
 30
0.0
 10
-1.3714500000000001
 20
-2.0909800000000001
 30
0.0
 10
-1.3714500000000001
 20
-2.0909800000000001
 30
0.0
 10
-1.3714500000000001
 20
-2.0909800000000001
 30
0.0
 10
-1.4501900000000001
 20
-1.9335000000000002
 30
0.0
 10
-1.4501900000000001
 20
-1.9335000000000002
 30
0.0
  0
SPLINE
  5
69
100
AcDbEntity
  8
Ebene 1
 62
     7
100
AcDbSpline
210
0.0
220
0.0
230
1.0
 70
     1
 71
     3
 72
    12
 73
     8
 74
     0
 42
0.0000000001
 43
0.0000000001
 40
0.0
 40
0.0
 40
0.0
 40
0.0
 40
0.5
 40
0.5
 40
0.5
 40
0.5
 40
1.0
 40
1.0
 40
1.0
 40
1.0
 10
1.6308200000000002
 20
-2.0605000000000002
 30
0.0
 10
1.6308200000000002
 20
-2.0605000000000002
 30
0.0
 10
1.7730600000000001
 20
-1.9335000000000002
 30
0.0
 10
1.7730600000000001
 20
-1.9335000000000002
 30
0.0
 10
1.7730600000000001
 20
-1.9335000000000002
 30
0.0
 10
1.7883000000000002
 20
-2.0122400000000003
 30
0.0
 10
1.6765400000000001
 20
-2.0452600000000003
 30
0.0
 10
1.6308200000000002
 20
-2.0605000000000002
 30
0.0
  0
SPLINE
  5
6A
100
AcDbEntity
  8
Ebene 1
 62
     7
100
AcDbSpline
210
0.0
220
0.0
230
1.0
 70
     1
 71
     3
 72
    20
 73
    16
 74
     0
 42
0.0000000001
 43
0.0000000001
 40
0.0
 40
0.0
 40
0.0
 40
0.0
 40
0.25
 40
0.25
 40
0.25
 40
0.25
 40
0.5
 40
0.5
 40
0.5
 40
0.5
 40
0.75
 40
0.75
 40
0.75
 40
0.75
 40
1.0
 40
1.0
 40
1.0
 40
1.0
 10
1.8848200000000002
 20
-2.0122400000000003
 30
0.0
 10
1.8848200000000002
 20
-2.0122400000000003
 30
0.0
 10
2.1058000000000003
 20
-2.0605000000000002
 30
0.0
 10
2.1058000000000003
 20
-2.0605000000000002
 30
0.0
 10
2.1058000000000003
 20
-2.0605000000000002
 30
0.0
 10
2.1058000000000003
 20
-2.0605000000000002
 30
0.0
 10
2.2175600000000002
 20
-2.0909800000000001
 30
0.0
 10
2.2175600000000002
 20
-2.0909800000000001
 30
0.0
 10
2.2175600000000002
 20
-2.0909800000000001
 30
0.0
 10
2.1058000000000003
 20
-2.1722600000000001
 30
0.0
 10
1.9483200000000001
 20
-2.1240000000000001
 30
0.0
 10
1.8035400000000001
 20
-2.13924
 30
0.0
 10
1.8035400000000001
 20
-2.13924
 30
0.0
 10
1.8035400000000001
 20
-2.13924
 30
0.0
 10
1.8848200000000002
 20
-2.0122400000000003
 30
0.0
 10
1.8848200000000002
 20
-2.0122400000000003
 30
0.0
  0
SPLINE
  5
6B
100
AcDbEntity
  8
Ebene 1
100
AcDbSpline
210
0.0
220
0.0
230
1.0
 70
     1
 71
     3
 72
    28
 73
    24
 74
     0
 42
0.0000000001
 43
0.0000000001
 40
0.0
 40
0.0
 40
0.0
 40
0.0
 40
0.1666666666666667
 40
0.1666666666666667
 40
0.1666666666666667
 40
0.1666666666666667
 40
0.3333333333333333
 40
0.3333333333333333
 40
0.3333333333333333
 40
0.3333333333333333
 40
0.5
 40
0.5
 40
0.5
 40
0.5
 40
0.6666666666666666
 40
0.6666666666666666
 40
0.6666666666666666
 40
0.6666666666666666
 40
0.8333333333333333
 40
0.8333333333333333
 40
0.8333333333333333
 40
0.8333333333333333
 40
1.0
 40
1.0
 40
1.0
 40
1.0
 10
2.5655400000000004
 20
-2.0122400000000003
 30
0.0
 10
2.63158
 20
-2.0605000000000002
 30
0.0
 10
2.5528400000000002
 20
-2.2027400000000004
 30
0.0
 10
2.5198200000000002
 20
-2.2814800000000002
 30
0.0
 10
2.5198200000000002
 20
-2.2814800000000002
 30
0.0
 10
2.5350600000000001
 20
-2.8529800000000001
 30
0.0
 10
1.6765400000000001
 20
-3.3000200000000004
 30
0.0
 10
1.4555600000000002
 20
-2.6650200000000002
 30
0.0
 10
1.4555600000000002
 20
-2.6650200000000002
 30
0.0
 10
1.5038200000000002
 20
-2.5837400000000001
 30
0.0
 10
1.6308200000000002
 20
-2.6167600000000002
 30
0.0
 10
1.6765400000000001
 20
-2.5050000000000003
 30
0.0
 10
1.6765400000000001
 20
-2.5050000000000003
 30
0.0
 10
1.7248000000000001
 20
-2.64724
 30
0.0
 10
2.0423
 20
-2.7920200000000004
 30
0.0
 10
2.1693000000000002
 20
-2.6167600000000002
 30
0.0
 10
2.1693000000000002
 20
-2.6167600000000002
 30
0.0
 10
2.1693000000000002
 20
-2.6167600000000002
 30
0.0
 10
2.2658200000000002
 20
-2.6167600000000002
 30
0.0
 10
2.2658200000000002
 20
-2.6167600000000002
 30
0.0
 10
2.2658200000000002
 20
-2.6167600000000002
 30
0.0
 10
2.4233000000000002
 20
-2.4415
 30
0.0
 10
2.4385400000000002
 20
-2.2027400000000004
 30
0.0
 10
2.5655400000000004
 20
-2.0122400000000003
 30
0.0
  0
SPLINE
  5
6C
100
AcDbEntity
  8
Ebene 1
 62
     7
100
AcDbSpline
210
0.0
220
0.0
230
1.0
 70
     1
 71
     3
 72
   100
 73
    96
 74
     0
 42
0.0000000001
 43
0.0000000001
 40
0.0
 40
0.0
 40
0.0
 40
0.0
 40
0.0416666666666667
 40
0.0416666666666667
 40
0.0416666666666667
 40
0.0416666666666667
 40
0.0833333333333333
 40
0.0833333333333333
 40
0.0833333333333333
 40
0.0833333333333333
 40
0.125
 40
0.125
 40
0.125
 40
0.125
 40
0.1666666666666667
 40
0.1666666666666667
 40
0.1666666666666667
 40
0.1666666666666667
 40
0.2083333333333333
 40
0.2083333333333333
 40
0.2083333333333333
 40
0.2083333333333333
 40
0.25
 40
0.25
 40
0.25
 40
0.25
 40
0.2916666666666666
 40
0.2916666666666666
 40
0.2916666666666666
 40
0.2916666666666666
 40
0.3333333333333333
 40
0.3333333333333333
 40
0.3333333333333333
 40
0.3333333333333333
 40
0.375
 40
0.375
 40
0.375
 40
0.375
 40
0.4166666666666667
 40
0.4166666666666667
 40
0.4166666666666667
 40
0.4166666666666667
 40
0.4583333333333334
 40
0.4583333333333334
 40
0.4583333333333334
 40
0.4583333333333334
 40
0.5
 40
0.5
 40
0.5
 40
0.5
 40
0.5416666666666666
 40
0.5416666666666666
 40
0.5416666666666666
 40
0.5416666666666666
 40
0.5833333333333333
 40
0.5833333333333333
 40
0.5833333333333333
 40
0.5833333333333333
 40
0.6249999999999999
 40
0.6249999999999999
 40
0.6249999999999999
 40
0.6249999999999999
 40
0.6666666666666665
 40
0.6666666666666665
 40
0.6666666666666665
 40
0.6666666666666665
 40
0.7083333333333332
 40
0.7083333333333332
 40
0.7083333333333332
 40
0.7083333333333332
 40
0.7499999999999998
 40
0.7499999999999998
 40
0.7499999999999998
 40
0.7499999999999998
 40
0.7916666666666664
 40
0.7916666666666664
 40
0.7916666666666664
 40
0.7916666666666664
 40
0.833333333333333
 40
0.833333333333333
 40
0.833333333333333
 40
0.833333333333333
 40
0.8749999999999997
 40
0.8749999999999997
 40
0.8749999999999997
 40
0.8749999999999997
 40
0.9166666666666663
 40
0.9166666666666663
 40
0.9166666666666663
 40
0.9166666666666663
 40
0.9583333333333329
 40
0.9583333333333329
 40
0.9583333333333329
 40
0.9583333333333329
 40
1.0
 40
1.0
 40
1.0
 40
1.0
 10
-0.43419
 20
-4.1737800000000007
 30
0.0
 10
-0.30465
 20
-3.9985200000000005
 30
0.0
 10
-0.17765
 20
-3.8080200000000004
 30
0.0
 10
-0.06843
 20
-3.6022800000000004
 30
0.0
 10
-0.06843
 20
-3.6022800000000004
 30
0.0
 10
0.02554
 20
-3.5210000000000004
 30
0.0
 10
-0.05065
 20
-3.4422600000000001
 30
0.0
 10
-0.11669
 20
-3.5540200000000004
 30
0.0
 10
-0.11669
 20
-3.5540200000000004
 30
0.0
 10
-0.6069100000000001
 20
-4.1407600000000002
 30
0.0
 10
-1.1326900000000002
 20
-4.7935400000000001
 30
0.0
 10
-1.7524500000000001
 20
-5.2685200000000005
 30
0.0
 10
-1.7524500000000001
 20
-5.2685200000000005
 30
0.0
 10
-1.7829300000000001
 20
-5.1897800000000007
 30
0.0
 10
-1.8946900000000002
 20
-5.2685200000000005
 30
0.0
 10
-1.9759700000000002
 20
-5.2228000000000003
 30
0.0
 10
-1.9759700000000002
 20
-5.2228000000000003
 30
0.0
 10
-1.8642100000000001
 20
-4.9205400000000008
 30
0.0
 10
-1.3536700000000002
 20
-4.9688000000000008
 30
0.0
 10
-1.21143
 20
-4.7122600000000006
 30
0.0
 10
-1.21143
 20
-4.7122600000000006
 30
0.0
 10
-1.1479300000000001
 20
-4.6513
 30
0.0
 10
-0.8939300000000001
 20
-4.3973000000000004
 30
0.0
 10
-1.1022100000000001
 20
-4.4582600000000001
 30
0.0
 10
-1.1022100000000001
 20
-4.4582600000000001
 30
0.0
 10
-1.3079500000000002
 20
-4.4582600000000001
 30
0.0
 10
-1.4349500000000002
 20
-4.6335200000000007
 30
0.0
 10
-1.6406900000000002
 20
-4.60304
 30
0.0
 10
-1.6406900000000002
 20
-4.60304
 30
0.0
 10
-1.6076700000000002
 20
-4.2830000000000004
 30
0.0
 10
-0.9752100000000001
 20
-4.3642799999999999
 30
0.0
 10
-0.9904500000000001
 20
-3.9350200000000002
 30
0.0
 10
-0.9904500000000001
 20
-3.9350200000000002
 30
0.0
 10
-1.1326900000000002
 20
-3.9985200000000005
 30
0.0
 10
-1.2596900000000002
 20
-4.0772600000000008
 30
0.0
 10
-1.4501900000000001
 20
-4.0620200000000004
 30
0.0
 10
-1.4501900000000001
 20
-4.0620200000000004
 30
0.0
 10
-1.3714500000000001
 20
-3.8715200000000003
 30
0.0
 10
-1.4019300000000001
 20
-3.6175200000000003
 30
0.0
 10
-1.5771900000000001
 20
-3.4752800000000001
 30
0.0
 10
-1.5771900000000001
 20
-3.4752800000000001
 30
0.0
 10
-1.4501900000000001
 20
-3.3787600000000002
 30
0.0
 10
-1.2596900000000002
 20
-3.2365200000000001
 30
0.0
 10
-1.2596900000000002
 20
-3.4905200000000001
 30
0.0
 10
-1.2596900000000002
 20
-3.4905200000000001
 30
0.0
 10
-1.1961900000000001
 20
-3.5387800000000005
 30
0.0
 10
-1.29271
 20
-3.5692600000000003
 30
0.0
 10
-1.3079500000000002
 20
-3.6175200000000003
 30
0.0
 10
-1.3079500000000002
 20
-3.6175200000000003
 30
0.0
 10
-1.1326900000000002
 20
-3.5387800000000005
 30
0.0
 10
-1.1022100000000001
 20
-3.6657800000000003
 30
0.0
 10
-1.2444500000000001
 20
-3.7597600000000004
 30
0.0
 10
-1.2444500000000001
 20
-3.7597600000000004
 30
0.0
 10
-1.08443
 20
-3.7115000000000005
 30
0.0
 10
-1.0691900000000001
 20
-3.9020000000000001
 30
0.0
 10
-0.7999500000000001
 20
-3.7750000000000004
 30
0.0
 10
-0.7999500000000001
 20
-3.7750000000000004
 30
0.0
 10
-0.6246900000000001
 20
-3.6022800000000004
 30
0.0
 10
-0.41895
 20
-3.0765000000000002
 30
0.0
 10
-0.8304300000000001
 20
-3.1095200000000003
 30
0.0
 10
-0.8304300000000001
 20
-3.1095200000000003
 30
0.0
 10
-0.90917
 20
-2.5685000000000002
 30
0.0
 10
-1.3866900000000002
 20
-2.5989800000000001
 30
0.0
 10
-1.3079500000000002
 20
-2.0605000000000002
 30
0.0
 10
-1.3079500000000002
 20
-2.0605000000000002
 30
0.0
 10
-0.8939300000000001
 20
-2.2814800000000002
 30
0.0
 10
-0.6729500000000001
 20
-2.8860000000000001
 30
0.0
 10
-0.57643
 20
-3.0942800000000004
 30
0.0
 10
-0.57643
 20
-3.0942800000000004
 30
0.0
 10
-0.5459500000000001
 20
-3.3305000000000002
 30
0.0
 10
-0.4494300000000001
 20
-2.9672800000000001
 30
0.0
 10
-0.46467
 20
-2.8707600000000002
 30
0.0
 10
-0.46467
 20
-2.8707600000000002
 30
0.0
 10
-0.46467
 20
-2.8707600000000002
 30
0.0
 10
-0.46467
 20
-2.7590000000000003
 30
0.0
 10
-0.46467
 20
-2.7590000000000003
 30
0.0
 10
-0.46467
 20
-2.7590000000000003
 30
0.0
 10
0.05602
 20
-3.3305000000000002
 30
0.0
 10
-0.6729500000000001
 20
-3.8232600000000003
 30
0.0
 10
-1.0539500000000002
 20
-4.2042600000000006
 30
0.0
 10
-1.0539500000000002
 20
-4.2042600000000006
 30
0.0
 10
-0.9421900000000001
 20
-4.1560000000000006
 30
0.0
 10
-0.7669300000000001
 20
-4.26776
 30
0.0
 10
-0.65517
 20
-4.1255200000000007
 30
0.0
 10
-0.65517
 20
-4.1255200000000007
 30
0.0
 10
-0.52817
 20
-3.9985200000000005
 30
0.0
 10
-0.4494300000000001
 20
-3.8385000000000002
 30
0.0
 10
-0.3859300000000001
 20
-3.6810200000000002
 30
0.0
 10
-0.3859300000000001
 20
-3.6810200000000002
 30
0.0
 10
-0.22591
 20
-3.4270200000000002
 30
0.0
 10
-0.06843
 20
-3.1247600000000002
 30
0.0
 10
-0.17765
 20
-2.8377400000000002
 30
0.0
 10
-0.17765
 20
-2.8377400000000002
 30
0.0
 10
0.42178
 20
-3.0612600000000003
 30
0.0
 10
0.05602
 20
-4.0137600000000004
 30
0.0
 10
-0.43419
 20
-4.1737800000000007
 30
0.0
  0
SPLINE
  5
6D
100
AcDbEntity
  8
Ebene 1
 62
     7
100
AcDbSpline
210
0.0
220
0.0
230
1.0
 70
     1
 71
     3
 72
    12
 73
     8
 74
     0
 42
0.0000000001
 43
0.0000000001
 40
0.0
 40
0.0
 40
0.0
 40
0.0
 40
0.5
 40
0.5
 40
0.5
 40
0.5
 40
1.0
 40
1.0
 40
1.0
 40
1.0
 10
-1.3714500000000001
 20
-2.6167600000000002
 30
0.0
 10
-1.3231900000000001
 20
-2.6802600000000001
 30
0.0
 10
-1.3714500000000001
 20
-2.8377400000000002
 30
0.0
 10
-1.4501900000000001
 20
-2.8529800000000001
 30
0.0
 10
-1.4501900000000001
 20
-2.8529800000000001
 30
0.0
 10
-1.4349500000000002
 20
-2.7742400000000003
 30
0.0
 10
-1.4501900000000001
 20
-2.6802600000000001
 30
0.0
 10
-1.3714500000000001
 20
-2.6167600000000002
 30
0.0
  0
SPLINE
  5
6E
100
AcDbEntity
  8
Ebene 1
 62
     7
100
AcDbSpline
210
0.0
220
0.0
230
1.0
 70
     1
 71
     3
 72
    36
 73
    32
 74
     0
 42
0.0000000001
 43
0.0000000001
 40
0.0
 40
0.0
 40
0.0
 40
0.0
 40
0.125
 40
0.125
 40
0.125
 40
0.125
 40
0.25
 40
0.25
 40
0.25
 40
0.25
 40
0.375
 40
0.375
 40
0.375
 40
0.375
 40
0.5
 40
0.5
 40
0.5
 40
0.5
 40
0.625
 40
0.625
 40
0.625
 40
0.625
 40
0.75
 40
0.75
 40
0.75
 40
0.75
 40
0.875
 40
0.875
 40
0.875
 40
0.875
 40
1.0
 40
1.0
 40
1.0
 40
1.0
 10
-1.54671
 20
-2.64724
 30
0.0
 10
-1.54671
 20
-2.64724
 30
0.0
 10
-1.4984500000000001
 20
-2.64724
 30
0.0
 10
-1.4984500000000001
 20
-2.64724
 30
0.0
 10
-1.4984500000000001
 20
-2.64724
 30
0.0
 10
-1.4984500000000001
 20
-2.7437600000000004
 30
0.0
 10
-1.4806700000000002
 20
-2.8377400000000002
 30
0.0
 10
-1.5619500000000002
 20
-2.8860000000000001
 30
0.0
 10
-1.5619500000000002
 20
-2.8860000000000001
 30
0.0
 10
-1.5771900000000001
 20
-3.1247600000000002
 30
0.0
 10
-1.8642100000000001
 20
-3.3940000000000001
 30
0.0
 10
-2.11313
 20
-3.4422600000000001
 30
0.0
 10
-2.11313
 20
-3.4422600000000001
 30
0.0
 10
-2.1436100000000002
 20
-3.3940000000000001
 30
0.0
 10
-2.1994900000000004
 20
-3.3482800000000004
 30
0.0
 10
-2.1817100000000003
 20
-3.2822400000000003
 30
0.0
 10
-2.1817100000000003
 20
-3.2822400000000003
 30
0.0
 10
-2.1817100000000003
 20
-3.2822400000000003
 30
0.0
 10
-2.1613900000000004
 20
-3.2365200000000001
 30
0.0
 10
-2.1613900000000004
 20
-3.2365200000000001
 30
0.0
 10
-2.1613900000000004
 20
-3.2365200000000001
 30
0.0
 10
-2.0064500000000001
 20
-3.2365200000000001
 30
0.0
 10
-1.9759700000000002
 20
-3.0282400000000003
 30
0.0
 10
-1.9099300000000001
 20
-2.9342600000000001
 30
0.0
 10
-1.9099300000000001
 20
-2.9342600000000001
 30
0.0
 10
-1.8159500000000002
 20
-2.9799800000000003
 30
0.0
 10
-1.7829300000000001
 20
-2.8707600000000002
 30
0.0
 10
-1.7676900000000002
 20
-2.8072600000000003
 30
0.0
 10
-1.7676900000000002
 20
-2.8072600000000003
 30
0.0
 10
-1.67371
 20
-2.7742400000000003
 30
0.0
 10
-1.6076700000000002
 20
-2.7107400000000004
 30
0.0
 10
-1.54671
 20
-2.64724
 30
0.0
  0
SPLINE
  5
6F
100
AcDbEntity
  8
Ebene 1
 62
     7
100
AcDbSpline
210
0.0
220
0.0
230
1.0
 70
     1
 71
     3
 72
    20
 73
    16
 74
     0
 42
0.0000000001
 43
0.0000000001
 40
0.0
 40
0.0
 40
0.0
 40
0.0
 40
0.25
 40
0.25
 40
0.25
 40
0.25
 40
0.5
 40
0.5
 40
0.5
 40
0.5
 40
0.75
 40
0.75
 40
0.75
 40
0.75
 40
1.0
 40
1.0
 40
1.0
 40
1.0
 10
0.91454
 20
-2.6802600000000001
 30
0.0
 10
0.91454
 20
-2.6802600000000001
 30
0.0
 10
0.9780400000000001
 20
-2.6802600000000001
 30
0.0
 10
0.9780400000000001
 20
-2.6802600000000001
 30
0.0
 10
0.9780400000000001
 20
-2.6802600000000001
 30
0.0
 10
0.9628000000000001
 20
-2.8377400000000002
 30
0.0
 10
0.78754
 20
-2.8225000000000002
 30
0.0
 10
0.6757800000000001
 20
-2.8225000000000002
 30
0.0
 10
0.6757800000000001
 20
-2.8225000000000002
 30
0.0
 10
0.59704
 20
-2.7590000000000003
 30
0.0
 10
0.6935600000000001
 20
-2.6802600000000001
 30
0.0
 10
0.7723000000000001
 20
-2.6955
 30
0.0
 10
0.7723000000000001
 20
-2.6955
 30
0.0
 10
0.8027800000000001
 20
-2.7107400000000004
 30
0.0
 10
0.8815200000000001
 20
-2.6955
 30
0.0
 10
0.91454
 20
-2.6802600000000001
 30
0.0
  0
SPLINE
  5
70
100
AcDbEntity
  8
Ebene 1
 62
     7
100
AcDbSpline
210
0.0
220
0.0
230
1.0
 70
     1
 71
     3
 72
    12
 73
     8
 74
     0
 42
0.0000000001
 43
0.0000000001
 40
0.0
 40
0.0
 40
0.0
 40
0.0
 40
0.5
 40
0.5
 40
0.5
 40
0.5
 40
1.0
 40
1.0
 40
1.0
 40
1.0
 10
2.6468200000000004
 20
-2.9342600000000001
 30
0.0
 10
2.8068400000000002
 20
-3.1095200000000003
 30
0.0
 10
2.5833200000000001
 20
-3.3940000000000001
 30
0.0
 10
2.4868000000000001
 20
-3.5692600000000003
 30
0.0
 10
2.4868000000000001
 20
-3.5692600000000003
 30
0.0
 10
2.4868000000000001
 20
-3.5692600000000003
 30
0.0
 10
2.6468200000000004
 20
-2.9342600000000001
 30
0.0
 10
2.6468200000000004
 20
-2.9342600000000001
 30
0.0
  0
SPLINE
  5
71
100
AcDbEntity
  8
Ebene 1
 62
     7
100
AcDbSpline
210
0.0
220
0.0
230
1.0
 70
     1
 71
     3
 72
    20
 73
    16
 74
     0
 42
0.0000000001
 43
0.0000000001
 40
0.0
 40
0.0
 40
0.0
 40
0.0
 40
0.25
 40
0.25
 40
0.25
 40
0.25
 40
0.5
 40
0.5
 40
0.5
 40
0.5
 40
0.75
 40
0.75
 40
0.75
 40
0.75
 40
1.0
 40
1.0
 40
1.0
 40
1.0
 10
0.7799200000000001
 20
-2.9266400000000004
 30
0.0
 10
0.8764400000000001
 20
-2.8936200000000003
 30
0.0
 10
1.0085200000000001
 20
-3.1095200000000003
 30
0.0
 10
1.0745600000000002
 20
-2.9977600000000004
 30
0.0
 10
1.0745600000000002
 20
-2.9977600000000004
 30
0.0
 10
1.0745600000000002
 20
-2.9977600000000004
 30
0.0
 10
1.1228200000000002
 20
-2.9977600000000004
 30
0.0
 10
1.1228200000000002
 20
-2.9977600000000004
 30
0.0
 10
1.1228200000000002
 20
-2.9977600000000004
 30
0.0
 10
1.1228200000000002
 20
-2.9977600000000004
 30
0.0
 10
1.10504
 20
-3.1730200000000002
 30
0.0
 10
1.10504
 20
-3.1730200000000002
 30
0.0
 10
1.10504
 20
-3.1730200000000002
 30
0.0
 10
0.9780400000000001
 20
-3.1730200000000002
 30
0.0
 10
0.8586600000000001
 20
-3.0206200000000001
 30
0.0
 10
0.7799200000000001
 20
-2.9266400000000004
 30
0.0
  0
SPLINE
  5
72
100
AcDbEntity
  8
Ebene 1
 62
     7
100
AcDbSpline
210
0.0
220
0.0
230
1.0
 70
     1
 71
     3
 72
    16
 73
    12
 74
     0
 42
0.0000000001
 43
0.0000000001
 40
0.0
 40
0.0
 40
0.0
 40
0.0
 40
0.3333333333333333
 40
0.3333333333333333
 40
0.3333333333333333
 40
0.3333333333333333
 40
0.6666666666666666
 40
0.6666666666666666
 40
0.6666666666666666
 40
0.6666666666666666
 40
1.0
 40
1.0
 40
1.0
 40
1.0
 10
2.4563200000000003
 20
-3.0282400000000003
 30
0.0
 10
2.4563200000000003
 20
-3.2035000000000005
 30
0.0
 10
2.3115400000000004
 20
-3.4752800000000001
 30
0.0
 10
2.4715600000000002
 20
-3.6327600000000002
 30
0.0
 10
2.4715600000000002
 20
-3.6327600000000002
 30
0.0
 10
2.4715600000000002
 20
-3.6327600000000002
 30
0.0
 10
2.2963
 20
-4.0620200000000004
 30
0.0
 10
2.2963
 20
-4.0620200000000004
 30
0.0
 10
2.2963
 20
-4.0620200000000004
 30
0.0
 10
2.2505800000000002
 20
-3.7292800000000002
 30
0.0
 10
2.3293200000000001
 20
-3.3482800000000004
 30
0.0
 10
2.4563200000000003
 20
-3.0282400000000003
 30
0.0
  0
SPLINE
  5
73
100
AcDbEntity
  8
Ebene 1
 62
     7
100
AcDbSpline
210
0.0
220
0.0
230
1.0
 70
     1
 71
     3
 72
    16
 73
    12
 74
     0
 42
0.0000000001
 43
0.0000000001
 40
0.0
 40
0.0
 40
0.0
 40
0.0
 40
0.3333333333333333
 40
0.3333333333333333
 40
0.3333333333333333
 40
0.3333333333333333
 40
0.6666666666666666
 40
0.6666666666666666
 40
0.6666666666666666
 40
0.6666666666666666
 40
1.0
 40
1.0
 40
1.0
 40
1.0
 10
2.2963
 20
-3.2035000000000005
 30
0.0
 10
2.3115400000000004
 20
-3.2035000000000005
 30
0.0
 10
2.3293200000000001
 20
-3.2212800000000001
 30
0.0
 10
2.3293200000000001
 20
-3.2365200000000001
 30
0.0
 10
2.3293200000000001
 20
-3.2365200000000001
 30
0.0
 10
2.1845400000000001
 20
-3.3787600000000002
 30
0.0
 10
2.1693000000000002
 20
-3.6022800000000004
 30
0.0
 10
2.0575400000000004
 20
-3.7750000000000004
 30
0.0
 10
2.0575400000000004
 20
-3.7750000000000004
 30
0.0
 10
2.0575400000000004
 20
-3.5540200000000004
 30
0.0
 10
2.1845400000000001
 20
-3.3787600000000002
 30
0.0
 10
2.2963
 20
-3.2035000000000005
 30
0.0
  0
SPLINE
  5
74
100
AcDbEntity
  8
Ebene 1
 62
     7
100
AcDbSpline
210
0.0
220
0.0
230
1.0
 70
     1
 71
     3
 72
    20
 73
    16
 74
     0
 42
0.0000000001
 43
0.0000000001
 40
0.0
 40
0.0
 40
0.0
 40
0.0
 40
0.25
 40
0.25
 40
0.25
 40
0.25
 40
0.5
 40
0.5
 40
0.5
 40
0.5
 40
0.75
 40
0.75
 40
0.75
 40
0.75
 40
1.0
 40
1.0
 40
1.0
 40
1.0
 10
1.0415400000000001
 20
-3.2365200000000001
 30
0.0
 10
1.1685400000000001
 20
-3.2670000000000003
 30
0.0
 10
1.2955400000000001
 20
-3.3305000000000002
 30
0.0
 10
1.3920600000000001
 20
-3.4270200000000002
 30
0.0
 10
1.3920600000000001
 20
-3.4270200000000002
 30
0.0
 10
1.3438000000000001
 20
-3.5540200000000004
 30
0.0
 10
1.0948800000000001
 20
-3.6657800000000003
 30
0.0
 10
1.14314
 20
-3.8232600000000003
 30
0.0
 10
1.14314
 20
-3.8232600000000003
 30
0.0
 10
0.9856600000000001
 20
-3.7750000000000004
 30
0.0
 10
0.85104
 20
-3.7292800000000002
 30
0.0
 10
0.72404
 20
-3.6327600000000002
 30
0.0
 10
0.72404
 20
-3.6327600000000002
 30
0.0
 10
0.8358000000000001
 20
-3.5210000000000004
 30
0.0
 10
1.0567800000000001
 20
-3.4270200000000002
 30
0.0
 10
1.0415400000000001
 20
-3.2365200000000001
 30
0.0
  0
SPLINE
  5
75
100
AcDbEntity
  8
Ebene 1
 62
     7
100
AcDbSpline
210
0.0
220
0.0
230
1.0
 70
     1
 71
     3
 72
    16
 73
    12
 74
     0
 42
0.0000000001
 43
0.0000000001
 40
0.0
 40
0.0
 40
0.0
 40
0.0
 40
0.3333333333333333
 40
0.3333333333333333
 40
0.3333333333333333
 40
0.3333333333333333
 40
0.6666666666666666
 40
0.6666666666666666
 40
0.6666666666666666
 40
0.6666666666666666
 40
1.0
 40
1.0
 40
1.0
 40
1.0
 10
2.7585800000000003
 20
-3.2822400000000003
 30
0.0
 10
2.8220800000000001
 20
-3.4092400000000005
 30
0.0
 10
2.9795600000000002
 20
-3.5845000000000002
 30
0.0
 10
2.8678000000000003
 20
-3.7292800000000002
 30
0.0
 10
2.8678000000000003
 20
-3.7292800000000002
 30
0.0
 10
2.8678000000000003
 20
-3.7292800000000002
 30
0.0
 10
2.8373200000000001
 20
-3.7292800000000002
 30
0.0
 10
2.8373200000000001
 20
-3.7292800000000002
 30
0.0
 10
2.8373200000000001
 20
-3.7292800000000002
 30
0.0
 10
2.8068400000000002
 20
-3.5845000000000002
 30
0.0
 10
2.7408000000000001
 20
-3.4422600000000001
 30
0.0
 10
2.7585800000000003
 20
-3.2822400000000003
 30
0.0
  0
SPLINE
  5
76
100
AcDbEntity
  8
Ebene 1
 62
     7
100
AcDbSpline
210
0.0
220
0.0
230
1.0
 70
     1
 71
     3
 72
    16
 73
    12
 74
     0
 42
0.0000000001
 43
0.0000000001
 40
0.0
 40
0.0
 40
0.0
 40
0.0
 40
0.3333333333333333
 40
0.3333333333333333
 40
0.3333333333333333
 40
0.3333333333333333
 40
0.6666666666666666
 40
0.6666666666666666
 40
0.6666666666666666
 40
0.6666666666666666
 40
1.0
 40
1.0
 40
1.0
 40
1.0
 10
0.7723000000000001
 20
-3.4422600000000001
 30
0.0
 10
0.7723000000000001
 20
-3.4422600000000001
 30
0.0
 10
0.8205600000000001
 20
-3.4422600000000001
 30
0.0
 10
0.8205600000000001
 20
-3.4422600000000001
 30
0.0
 10
0.8205600000000001
 20
-3.4422600000000001
 30
0.0
 10
0.7723000000000001
 20
-3.5692600000000003
 30
0.0
 10
0.59704
 20
-3.6480000000000001
 30
0.0
 10
0.5005200000000001
 20
-3.5210000000000004
 30
0.0
 10
0.5005200000000001
 20
-3.5210000000000004
 30
0.0
 10
0.5640200000000001
 20
-3.4752800000000001
 30
0.0
 10
0.7062600000000001
 20
-3.5057600000000004
 30
0.0
 10
0.7723000000000001
 20
-3.4422600000000001
 30
0.0
  0
SPLINE
  5
77
100
AcDbEntity
  8
Ebene 1
 62
     7
100
AcDbSpline
210
0.0
220
0.0
230
1.0
 70
     1
 71
     3
 72
    72
 73
    68
 74
     0
 42
0.0000000001
 43
0.0000000001
 40
0.0
 40
0.0
 40
0.0
 40
0.0
 40
0.0588235294117647
 40
0.0588235294117647
 40
0.0588235294117647
 40
0.0588235294117647
 40
0.1176470588235294
 40
0.1176470588235294
 40
0.1176470588235294
 40
0.1176470588235294
 40
0.1764705882352941
 40
0.1764705882352941
 40
0.1764705882352941
 40
0.1764705882352941
 40
0.2352941176470588
 40
0.2352941176470588
 40
0.2352941176470588
 40
0.2352941176470588
 40
0.2941176470588235
 40
0.2941176470588235
 40
0.2941176470588235
 40
0.2941176470588235
 40
0.3529411764705883
 40
0.3529411764705883
 40
0.3529411764705883
 40
0.3529411764705883
 40
0.411764705882353
 40
0.411764705882353
 40
0.411764705882353
 40
0.411764705882353
 40
0.4705882352941177
 40
0.4705882352941177
 40
0.4705882352941177
 40
0.4705882352941177
 40
0.5294117647058824
 40
0.5294117647058824
 40
0.5294117647058824
 40
0.5294117647058824
 40
0.5882352941176471
 40
0.5882352941176471
 40
0.5882352941176471
 40
0.5882352941176471
 40
0.6470588235294118
 40
0.6470588235294118
 40
0.6470588235294118
 40
0.6470588235294118
 40
0.7058823529411765
 40
0.7058823529411765
 40
0.7058823529411765
 40
0.7058823529411765
 40
0.7647058823529412
 40
0.7647058823529412
 40
0.7647058823529412
 40
0.7647058823529412
 40
0.823529411764706
 40
0.823529411764706
 40
0.823529411764706
 40
0.823529411764706
 40
0.8823529411764707
 40
0.8823529411764707
 40
0.8823529411764707
 40
0.8823529411764707
 40
0.9411764705882354
 40
0.9411764705882354
 40
0.9411764705882354
 40
0.9411764705882354
 40
1.0
 40
1.0
 40
1.0
 40
1.0
 10
0.21604
 20
-3.4575000000000005
 30
0.0
 10
0.5640200000000001
 20
-3.7292800000000002
 30
0.0
 10
1.3768200000000002
 20
-4.1890200000000002
 30
0.0
 10
1.7400400000000003
 20
-3.9502600000000001
 30
0.0
 10
1.7400400000000003
 20
-3.9502600000000001
 30
0.0
 10
1.5190600000000001
 20
-4.3642799999999999
 30
0.0
 10
0.8662800000000001
 20
-4.3490400000000005
 30
0.0
 10
0.5183000000000001
 20
-4.1255200000000007
 30
0.0
 10
0.5183000000000001
 20
-4.1255200000000007
 30
0.0
 10
0.43702
 20
-4.2830000000000004
 30
0.0
 10
0.57926
 20
-4.4430200000000006
 30
0.0
 10
0.6275200000000001
 20
-4.5852600000000008
 30
0.0
 10
0.6275200000000001
 20
-4.5852600000000008
 30
0.0
 10
0.8027800000000001
 20
-4.8570400000000005
 30
0.0
 10
1.1355200000000001
 20
-4.9053000000000004
 30
0.0
 10
1.3438000000000001
 20
-5.1262800000000004
 30
0.0
 10
1.3438000000000001
 20
-5.1262800000000004
 30
0.0
 10
0.9780400000000001
 20
-5.3015400000000001
 30
0.0
 10
0.57926
 20
-5.0145200000000001
 30
0.0
 10
0.21604
 20
-4.9357800000000003
 30
0.0
 10
0.21604
 20
-4.9357800000000003
 30
0.0
 10
0.10428
 20
-5.11104
 30
0.0
 10
0.57926
 20
-5.5250600000000007
 30
0.0
 10
0.5640200000000001
 20
-5.8578000000000001
 30
0.0
 10
0.5640200000000001
 20
-5.8578000000000001
 30
0.0
 10
0.29478
 20
-5.5860200000000004
 30
0.0
 10
-0.09891
 20
-5.4768000000000008
 30
0.0
 10
-0.43419
 20
-5.3167800000000005
 30
0.0
 10
-0.43419
 20
-5.3167800000000005
 30
0.0
 10
-0.7516900000000001
 20
-5.7943000000000007
 30
0.0
 10
-0.59167
 20
-6.4445400000000008
 30
0.0
 10
-0.49769
 20
-6.9550800000000006
 30
0.0
 10
-0.49769
 20
-6.9550800000000006
 30
0.0
 10
-0.7999500000000001
 20
-6.6198000000000006
 30
0.0
 10
-1.08443
 20
-6.1600600000000005
 30
0.0
 10
-1.03617
 20
-5.7308000000000003
 30
0.0
 10
-1.03617
 20
-5.7308000000000003
 30
0.0
 10
-1.03617
 20
-5.7308000000000003
 30
0.0
 10
-1.3866900000000002
 20
-6.2692800000000002
 30
0.0
 10
-1.3866900000000002
 20
-6.2692800000000002
 30
0.0
 10
-1.3866900000000002
 20
-6.2692800000000002
 30
0.0
 10
-1.3536700000000002
 20
-5.9695600000000004
 30
0.0
 10
-1.1961900000000001
 20
-5.6520600000000005
 30
0.0
 10
-1.3079500000000002
 20
-5.3650400000000005
 30
0.0
 10
-1.3079500000000002
 20
-5.3650400000000005
 30
0.0
 10
-1.3079500000000002
 20
-5.3650400000000005
 30
0.0
 10
-0.9421900000000001
 20
-5.1897800000000007
 30
0.0
 10
-0.9421900000000001
 20
-5.1897800000000007
 30
0.0
 10
-0.9421900000000001
 20
-5.1897800000000007
 30
0.0
 10
-1.0539500000000002
 20
-5.5860200000000004
 30
0.0
 10
-0.8634500000000001
 20
-6.0483000000000002
 30
0.0
 10
-0.7339100000000001
 20
-6.3988200000000006
 30
0.0
 10
-0.7339100000000001
 20
-6.3988200000000006
 30
0.0
 10
-0.6729500000000001
 20
-5.7790600000000003
 30
0.0
 10
-1.08443
 20
-5.3320200000000009
 30
0.0
 10
-0.52817
 20
-4.8722800000000008
 30
0.0
 10
-0.52817
 20
-4.8722800000000008
 30
0.0
 10
-0.4799100000000001
 20
-5.1745400000000004
 30
0.0
 10
-0.06843
 20
-5.1593
 30
0.0
 10
0.13476
 20
-5.3498000000000001
 30
0.0
 10
0.13476
 20
-5.3498000000000001
 30
0.0
 10
0.00776
 20
-5.0780200000000004
 30
0.0
 10
-0.22591
 20
-4.8875200000000003
 30
0.0
 10
-0.21067
 20
-4.5395400000000006
 30
0.0
 10
-0.21067
 20
-4.5395400000000006
 30
0.0
 10
-0.02017
 20
-4.2042600000000006
 30
0.0
 10
0.27954
 20
-3.8715200000000003
 30
0.0
 10
0.21604
 20
-3.4575000000000005
 30
0.0
  0
SPLINE
  5
78
100
AcDbEntity
  8
Ebene 1
 62
     7
100
AcDbSpline
210
0.0
220
0.0
230
1.0
 70
     1
 71
     3
 72
    20
 73
    16
 74
     0
 42
0.0000000001
 43
0.0000000001
 40
0.0
 40
0.0
 40
0.0
 40
0.0
 40
0.25
 40
0.25
 40
0.25
 40
0.25
 40
0.5
 40
0.5
 40
0.5
 40
0.5
 40
0.75
 40
0.75
 40
0.75
 40
0.75
 40
1.0
 40
1.0
 40
1.0
 40
1.0
 10
1.4708000000000001
 20
-3.4575000000000005
 30
0.0
 10
1.5647800000000001
 20
-3.4752800000000001
 30
0.0
 10
1.6613000000000002
 20
-3.4905200000000001
 30
0.0
 10
1.7578200000000002
 20
-3.4752800000000001
 30
0.0
 10
1.7578200000000002
 20
-3.4752800000000001
 30
0.0
 10
1.7578200000000002
 20
-3.4752800000000001
 30
0.0
 10
1.6613000000000002
 20
-3.8562800000000004
 30
0.0
 10
1.6613000000000002
 20
-3.8562800000000004
 30
0.0
 10
1.6613000000000002
 20
-3.8562800000000004
 30
0.0
 10
1.5190600000000001
 20
-3.9020000000000001
 30
0.0
 10
1.3438000000000001
 20
-3.9020000000000001
 30
0.0
 10
1.2168000000000001
 20
-3.8385000000000002
 30
0.0
 10
1.2168000000000001
 20
-3.8385000000000002
 30
0.0
 10
1.2650600000000001
 20
-3.6962600000000001
 30
0.0
 10
1.35904
 20
-3.5692600000000003
 30
0.0
 10
1.4708000000000001
 20
-3.4575000000000005
 30
0.0
  0
SPLINE
  5
79
100
AcDbEntity
  8
Ebene 1
 62
     7
100
AcDbSpline
210
0.0
220
0.0
230
1.0
 70
     1
 71
     3
 72
    20
 73
    16
 74
     0
 42
0.0000000001
 43
0.0000000001
 40
0.0
 40
0.0
 40
0.0
 40
0.0
 40
0.25
 40
0.25
 40
0.25
 40
0.25
 40
0.5
 40
0.5
 40
0.5
 40
0.5
 40
0.75
 40
0.75
 40
0.75
 40
0.75
 40
1.0
 40
1.0
 40
1.0
 40
1.0
 10
1.9635600000000002
 20
-3.4905200000000001
 30
0.0
 10
1.9635600000000002
 20
-3.4905200000000001
 30
0.0
 10
1.9788000000000001
 20
-3.5692600000000003
 30
0.0
 10
1.9788000000000001
 20
-3.5692600000000003
 30
0.0
 10
1.9788000000000001
 20
-3.5692600000000003
 30
0.0
 10
1.7578200000000002
 20
-3.7292800000000002
 30
0.0
 10
2.1058000000000003
 20
-4.4100000000000001
 30
0.0
 10
1.6613000000000002
 20
-4.2372800000000002
 30
0.0
 10
1.6613000000000002
 20
-4.2372800000000002
 30
0.0
 10
1.7400400000000003
 20
-4.1255200000000007
 30
0.0
 10
1.8670400000000003
 20
-3.9832800000000002
 30
0.0
 10
1.8670400000000003
 20
-3.8232600000000003
 30
0.0
 10
1.8670400000000003
 20
-3.8232600000000003
 30
0.0
 10
1.5978000000000001
 20
-3.8715200000000003
 30
0.0
 10
1.8670400000000003
 20
-3.5845000000000002
 30
0.0
 10
1.9635600000000002
 20
-3.4905200000000001
 30
0.0
  0
SPLINE
  5
7A
100
AcDbEntity
  8
Ebene 1
 62
     7
100
AcDbSpline
210
0.0
220
0.0
230
1.0
 70
     1
 71
     3
 72
    20
 73
    16
 74
     0
 42
0.0000000001
 43
0.0000000001
 40
0.0
 40
0.0
 40
0.0
 40
0.0
 40
0.25
 40
0.25
 40
0.25
 40
0.25
 40
0.5
 40
0.5
 40
0.5
 40
0.5
 40
0.75
 40
0.75
 40
0.75
 40
0.75
 40
1.0
 40
1.0
 40
1.0
 40
1.0
 10
-2.1817100000000003
 20
-3.6175200000000003
 30
0.0
 10
-2.02169
 20
-3.7597600000000004
 30
0.0
 10
-1.9759700000000002
 20
-4.04678
 30
0.0
 10
-2.06995
 20
-4.2372800000000002
 30
0.0
 10
-2.06995
 20
-4.2372800000000002
 30
0.0
 10
-2.05471
 20
-4.1560000000000006
 30
0.0
 10
-2.1283700000000003
 20
-4.0772600000000008
 30
0.0
 10
-2.1766300000000003
 20
-3.9985200000000005
 30
0.0
 10
-2.1766300000000003
 20
-3.9985200000000005
 30
0.0
 10
-2.1283700000000003
 20
-3.8867600000000002
 30
0.0
 10
-2.2426700000000004
 20
-3.8232600000000003
 30
0.0
 10
-2.2934700000000001
 20
-3.7445200000000005
 30
0.0
 10
-2.2934700000000001
 20
-3.7445200000000005
 30
0.0
 10
-2.2934700000000001
 20
-3.7445200000000005
 30
0.0
 10
-2.1817100000000003
 20
-3.6175200000000003
 30
0.0
 10
-2.1817100000000003
 20
-3.6175200000000003
 30
0.0
  0
SPLINE
  5
7B
100
AcDbEntity
  8
Ebene 1
 62
     7
100
AcDbSpline
210
0.0
220
0.0
230
1.0
 70
     1
 71
     3
 72
    12
 73
     8
 74
     0
 42
0.0000000001
 43
0.0000000001
 40
0.0
 40
0.0
 40
0.0
 40
0.0
 40
0.5
 40
0.5
 40
0.5
 40
0.5
 40
1.0
 40
1.0
 40
1.0
 40
1.0
 10
1.9635600000000002
 20
-3.8385000000000002
 30
0.0
 10
2.0270600000000001
 20
-3.8562800000000004
 30
0.0
 10
2.0423
 20
-3.9197800000000003
 30
0.0
 10
2.0118200000000002
 20
-3.9832800000000002
 30
0.0
 10
2.0118200000000002
 20
-3.9832800000000002
 30
0.0
 10
2.0118200000000002
 20
-3.9832800000000002
 30
0.0
 10
1.9635600000000002
 20
-3.8385000000000002
 30
0.0
 10
1.9635600000000002
 20
-3.8385000000000002
 30
0.0
  0
SPLINE
  5
7C
100
AcDbEntity
  8
Ebene 1
 62
     7
100
AcDbSpline
210
0.0
220
0.0
230
1.0
 70
     1
 71
     3
 72
    16
 73
    12
 74
     0
 42
0.0000000001
 43
0.0000000001
 40
0.0
 40
0.0
 40
0.0
 40
0.0
 40
0.3333333333333333
 40
0.3333333333333333
 40
0.3333333333333333
 40
0.3333333333333333
 40
0.6666666666666666
 40
0.6666666666666666
 40
0.6666666666666666
 40
0.6666666666666666
 40
1.0
 40
1.0
 40
1.0
 40
1.0
 10
-0.03541
 20
-3.9502600000000001
 30
0.0
 10
-0.19543
 20
-4.1890200000000002
 30
0.0
 10
-0.29703
 20
-4.5090600000000007
 30
0.0
 10
-0.55103
 20
-4.6513
 30
0.0
 10
-0.55103
 20
-4.6513
 30
0.0
 10
-0.5840500000000001
 20
-4.7478200000000008
 30
0.0
 10
-0.72121
 20
-4.7935400000000001
 30
0.0
 10
-0.8151900000000001
 20
-4.8392600000000003
 30
0.0
 10
-0.8151900000000001
 20
-4.8392600000000003
 30
0.0
 10
-0.8151900000000001
 20
-4.8392600000000003
 30
0.0
 10
-0.03541
 20
-3.9502600000000001
 30
0.0
 10
-0.03541
 20
-3.9502600000000001
 30
0.0
  0
SPLINE
  5
7D
100
AcDbEntity
  8
Ebene 1
100
AcDbSpline
210
0.0
220
0.0
230
1.0
 70
     1
 71
     3
 72
    24
 73
    20
 74
     0
 42
0.0000000001
 43
0.0000000001
 40
0.0
 40
0.0
 40
0.0
 40
0.0
 40
0.2
 40
0.2
 40
0.2
 40
0.2
 40
0.4
 40
0.4
 40
0.4
 40
0.4
 40
0.6000000000000001
 40
0.6000000000000001
 40
0.6000000000000001
 40
0.6000000000000001
 40
0.8
 40
0.8
 40
0.8
 40
0.8
 40
1.0
 40
1.0
 40
1.0
 40
1.0
 10
2.9490800000000004
 20
-4.2525200000000005
 30
0.0
 10
3.2030800000000004
 20
-4.2042600000000006
 30
0.0
 10
3.5358200000000002
 20
-4.4100000000000001
 30
0.0
 10
3.5358200000000002
 20
-4.7122600000000006
 30
0.0
 10
3.5358200000000002
 20
-4.7122600000000006
 30
0.0
 10
3.5993200000000001
 20
-4.7783000000000007
 30
0.0
 10
3.6475800000000005
 20
-4.8570400000000005
 30
0.0
 10
3.6475800000000005
 20
-4.9510200000000006
 30
0.0
 10
3.6475800000000005
 20
-4.9510200000000006
 30
0.0
 10
3.6475800000000005
 20
-4.9510200000000006
 30
0.0
 10
3.5840800000000002
 20
-5.0627800000000001
 30
0.0
 10
3.5840800000000002
 20
-5.0627800000000001
 30
0.0
 10
3.5840800000000002
 20
-5.0627800000000001
 30
0.0
 10
3.4875600000000002
 20
-4.82402
 30
0.0
 10
3.4240600000000003
 20
-4.4430200000000006
 30
0.0
 10
3.1065600000000004
 20
-4.3795200000000003
 30
0.0
 10
3.1065600000000004
 20
-4.3795200000000003
 30
0.0
 10
3.1065600000000004
 20
-4.3795200000000003
 30
0.0
 10
2.9490800000000004
 20
-4.2525200000000005
 30
0.0
 10
2.9490800000000004
 20
-4.2525200000000005
 30
0.0
  0
SPLINE
  5
7E
100
AcDbEntity
  8
Ebene 1
 62
     7
100
AcDbSpline
210
0.0
220
0.0
230
1.0
 70
     1
 71
     3
 72
    24
 73
    20
 74
     0
 42
0.0000000001
 43
0.0000000001
 40
0.0
 40
0.0
 40
0.0
 40
0.0
 40
0.2
 40
0.2
 40
0.2
 40
0.2
 40
0.4
 40
0.4
 40
0.4
 40
0.4
 40
0.6000000000000001
 40
0.6000000000000001
 40
0.6000000000000001
 40
0.6000000000000001
 40
0.8
 40
0.8
 40
0.8
 40
0.8
 40
1.0
 40
1.0
 40
1.0
 40
1.0
 10
-2.7227300000000003
 20
-4.2372800000000002
 30
0.0
 10
-2.5804900000000002
 20
-4.4100000000000001
 30
0.0
 10
-2.6084300000000002
 20
-4.6817800000000007
 30
0.0
 10
-2.4992100000000002
 20
-4.8722800000000008
 30
0.0
 10
-2.4992100000000002
 20
-4.8722800000000008
 30
0.0
 10
-2.4992100000000002
 20
-4.8722800000000008
 30
0.0
 10
-2.8421100000000004
 20
-5.1262800000000004
 30
0.0
 10
-2.8421100000000004
 20
-5.1262800000000004
 30
0.0
 10
-2.8421100000000004
 20
-5.1262800000000004
 30
0.0
 10
-2.7659100000000003
 20
-4.9840400000000002
 30
0.0
 10
-2.51953
 20
-4.8392600000000003
 30
0.0
 10
-2.6414500000000003
 20
-4.6665400000000004
 30
0.0
 10
-2.6414500000000003
 20
-4.6665400000000004
 30
0.0
 10
-2.6414500000000003
 20
-4.6665400000000004
 30
0.0
 10
-2.7481300000000002
 20
-4.7122600000000006
 30
0.0
 10
-2.7481300000000002
 20
-4.7122600000000006
 30
0.0
 10
-2.7481300000000002
 20
-4.7122600000000006
 30
0.0
 10
-2.7481300000000002
 20
-4.7122600000000006
 30
0.0
 10
-2.7227300000000003
 20
-4.2372800000000002
 30
0.0
 10
-2.7227300000000003
 20
-4.2372800000000002
 30
0.0
  0
SPLINE
  5
7F
100
AcDbEntity
  8
Ebene 1
 62
     7
100
AcDbSpline
210
0.0
220
0.0
230
1.0
 70
     1
 71
     3
 72
    16
 73
    12
 74
     0
 42
0.0000000001
 43
0.0000000001
 40
0.0
 40
0.0
 40
0.0
 40
0.0
 40
0.3333333333333333
 40
0.3333333333333333
 40
0.3333333333333333
 40
0.3333333333333333
 40
0.6666666666666666
 40
0.6666666666666666
 40
0.6666666666666666
 40
0.6666666666666666
 40
1.0
 40
1.0
 40
1.0
 40
1.0
 10
-3.4999700000000002
 20
-4.5065200000000001
 30
0.0
 10
-3.4999700000000002
 20
-4.5065200000000001
 30
0.0
 10
-3.4720300000000002
 20
-4.5065200000000001
 30
0.0
 10
-3.4720300000000002
 20
-4.5065200000000001
 30
0.0
 10
-3.4720300000000002
 20
-4.5065200000000001
 30
0.0
 10
-3.4694900000000004
 20
-4.6665400000000004
 30
0.0
 10
-3.5736300000000001
 20
-4.8087800000000005
 30
0.0
 10
-3.6853900000000004
 20
-4.9053000000000004
 30
0.0
 10
-3.6853900000000004
 20
-4.9053000000000004
 30
0.0
 10
-3.6980900000000001
 20
-4.7452800000000002
 30
0.0
 10
-3.5075900000000004
 20
-4.6665400000000004
 30
0.0
 10
-3.4999700000000002
 20
-4.5065200000000001
 30
0.0
  0
SPLINE
  5
80
100
AcDbEntity
  8
Ebene 1
 62
     7
100
AcDbSpline
210
0.0
220
0.0
230
1.0
 70
     1
 71
     3
 72
    16
 73
    12
 74
     0
 42
0.0000000001
 43
0.0000000001
 40
0.0
 40
0.0
 40
0.0
 40
0.0
 40
0.3333333333333333
 40
0.3333333333333333
 40
0.3333333333333333
 40
0.3333333333333333
 40
0.6666666666666666
 40
0.6666666666666666
 40
0.6666666666666666
 40
0.6666666666666666
 40
1.0
 40
1.0
 40
1.0
 40
1.0
 10
-3.3577300000000001
 20
-4.5852600000000008
 30
0.0
 10
-3.2815300000000001
 20
-4.6665400000000004
 30
0.0
 10
-3.2891500000000002
 20
-4.8087800000000005
 30
0.0
 10
-3.2967700000000004
 20
-4.9357800000000003
 30
0.0
 10
-3.2967700000000004
 20
-4.9357800000000003
 30
0.0
 10
-3.2967700000000004
 20
-4.9357800000000003
 30
0.0
 10
-3.4669500000000002
 20
-4.8722800000000008
 30
0.0
 10
-3.4669500000000002
 20
-4.8722800000000008
 30
0.0
 10
-3.4669500000000002
 20
-4.8722800000000008
 30
0.0
 10
-3.4161500000000005
 20
-4.7783000000000007
 30
0.0
 10
-3.3577300000000001
 20
-4.6970200000000002
 30
0.0
 10
-3.3577300000000001
 20
-4.5852600000000008
 30
0.0
  0
SPLINE
  5
81
100
AcDbEntity
  8
Ebene 1
100
AcDbSpline
210
0.0
220
0.0
230
1.0
 70
     1
 71
     3
 72
    28
 73
    24
 74
     0
 42
0.0000000001
 43
0.0000000001
 40
0.0
 40
0.0
 40
0.0
 40
0.0
 40
0.1666666666666667
 40
0.1666666666666667
 40
0.1666666666666667
 40
0.1666666666666667
 40
0.3333333333333333
 40
0.3333333333333333
 40
0.3333333333333333
 40
0.3333333333333333
 40
0.5
 40
0.5
 40
0.5
 40
0.5
 40
0.6666666666666666
 40
0.6666666666666666
 40
0.6666666666666666
 40
0.6666666666666666
 40
0.8333333333333333
 40
0.8333333333333333
 40
0.8333333333333333
 40
0.8333333333333333
 40
1.0
 40
1.0
 40
1.0
 40
1.0
 10
2.1540600000000003
 20
-4.6182800000000004
 30
0.0
 10
2.5985600000000004
 20
-4.7452800000000002
 30
0.0
 10
2.7585800000000003
 20
-5.2050200000000002
 30
0.0
 10
2.8068400000000002
 20
-5.61904
 30
0.0
 10
2.8068400000000002
 20
-5.61904
 30
0.0
 10
2.8678000000000003
 20
-5.6038000000000006
 30
0.0
 10
2.8678000000000003
 20
-5.6342800000000004
 30
0.0
 10
2.88558
 20
-5.6825400000000004
 30
0.0
 10
2.88558
 20
-5.6825400000000004
 30
0.0
 10
2.88558
 20
-5.6825400000000004
 30
0.0
 10
2.88558
 20
-5.9365400000000008
 30
0.0
 10
2.88558
 20
-5.9365400000000008
 30
0.0
 10
2.88558
 20
-5.9365400000000008
 30
0.0
 10
2.8220800000000001
 20
-6.0000400000000003
 30
0.0
 10
2.8525600000000004
 20
-6.0000400000000003
 30
0.0
 10
2.7738200000000002
 20
-6.0152800000000006
 30
0.0
 10
2.7738200000000002
 20
-6.0152800000000006
 30
0.0
 10
2.7255600000000002
 20
-5.5403000000000002
 30
0.0
 10
2.6138000000000003
 20
-4.9992800000000006
 30
0.0
 10
2.1540600000000003
 20
-4.7300400000000007
 30
0.0
 10
2.1540600000000003
 20
-4.7300400000000007
 30
0.0
 10
2.1540600000000003
 20
-4.7300400000000007
 30
0.0
 10
2.1540600000000003
 20
-4.6182800000000004
 30
0.0
 10
2.1540600000000003
 20
-4.6182800000000004
 30
0.0
  0
SPLINE
  5
82
100
AcDbEntity
  8
Ebene 1
 62
     7
100
AcDbSpline
210
0.0
220
0.0
230
1.0
 70
     1
 71
     3
 72
    16
 73
    12
 74
     0
 42
0.0000000001
 43
0.0000000001
 40
0.0
 40
0.0
 40
0.0
 40
0.0
 40
0.3333333333333333
 40
0.3333333333333333
 40
0.3333333333333333
 40
0.3333333333333333
 40
0.6666666666666666
 40
0.6666666666666666
 40
0.6666666666666666
 40
0.6666666666666666
 40
1.0
 40
1.0
 40
1.0
 40
1.0
 10
-6.6470300000000009
 20
-4.6513
 30
0.0
 10
-6.6470300000000009
 20
-4.6513
 30
0.0
 10
-6.5454300000000005
 20
-4.6817800000000007
 30
0.0
 10
-6.5454300000000005
 20
-4.6817800000000007
 30
0.0
 10
-6.5454300000000005
 20
-4.6817800000000007
 30
0.0
 10
-6.5327300000000008
 20
-4.6817800000000007
 30
0.0
 10
-6.5073300000000005
 20
-4.6970200000000002
 30
0.0
 10
-6.5073300000000005
 20
-4.7122600000000006
 30
0.0
 10
-6.5073300000000005
 20
-4.7122600000000006
 30
0.0
 10
-6.5682900000000002
 20
-4.7122600000000006
 30
0.0
 10
-6.7689500000000002
 20
-4.7300400000000007
 30
0.0
 10
-6.6470300000000009
 20
-4.6513
 30
0.0
  0
SPLINE
  5
83
100
AcDbEntity
  8
Ebene 1
100
AcDbSpline
210
0.0
220
0.0
230
1.0
 70
     1
 71
     3
 72
    48
 73
    44
 74
     0
 42
0.0000000001
 43
0.0000000001
 40
0.0
 40
0.0
 40
0.0
 40
0.0
 40
0.0909090909090909
 40
0.0909090909090909
 40
0.0909090909090909
 40
0.0909090909090909
 40
0.1818181818181818
 40
0.1818181818181818
 40
0.1818181818181818
 40
0.1818181818181818
 40
0.2727272727272727
 40
0.2727272727272727
 40
0.2727272727272727
 40
0.2727272727272727
 40
0.3636363636363637
 40
0.3636363636363637
 40
0.3636363636363637
 40
0.3636363636363637
 40
0.4545454545454546
 40
0.4545454545454546
 40
0.4545454545454546
 40
0.4545454545454546
 40
0.5454545454545455
 40
0.5454545454545455
 40
0.5454545454545455
 40
0.5454545454545455
 40
0.6363636363636365
 40
0.6363636363636365
 40
0.6363636363636365
 40
0.6363636363636365
 40
0.7272727272727274
 40
0.7272727272727274
 40
0.7272727272727274
 40
0.7272727272727274
 40
0.8181818181818183
 40
0.8181818181818183
 40
0.8181818181818183
 40
0.8181818181818183
 40
0.9090909090909093
 40
0.9090909090909093
 40
0.9090909090909093
 40
0.9090909090909093
 40
1.0
 40
1.0
 40
1.0
 40
1.0
 10
1.8518000000000001
 20
-4.9357800000000003
 30
0.0
 10
2.1845400000000001
 20
-5.2050200000000002
 30
0.0
 10
2.2963
 20
-5.7790600000000003
 30
0.0
 10
2.1388200000000004
 20
-6.1905400000000004
 30
0.0
 10
2.1388200000000004
 20
-6.1905400000000004
 30
0.0
 10
2.1388200000000004
 20
-6.1905400000000004
 30
0.0
 10
2.1388200000000004
 20
-5.8730400000000005
 30
0.0
 10
2.1388200000000004
 20
-5.8730400000000005
 30
0.0
 10
2.1388200000000004
 20
-5.8730400000000005
 30
0.0
 10
2.12358
 20
-5.7308000000000003
 30
0.0
 10
2.1388200000000004
 20
-5.5250600000000007
 30
0.0
 10
2.0753200000000001
 20
-5.3802800000000008
 30
0.0
 10
2.0753200000000001
 20
-5.3802800000000008
 30
0.0
 10
2.0575400000000004
 20
-5.6038000000000006
 30
0.0
 10
2.1540600000000003
 20
-5.8400200000000009
 30
0.0
 10
1.9940400000000003
 20
-6.0152800000000006
 30
0.0
 10
1.9940400000000003
 20
-6.0152800000000006
 30
0.0
 10
1.9940400000000003
 20
-6.0152800000000006
 30
0.0
 10
1.9305400000000001
 20
-5.6520600000000005
 30
0.0
 10
1.9305400000000001
 20
-5.6520600000000005
 30
0.0
 10
1.9305400000000001
 20
-5.6520600000000005
 30
0.0
 10
1.9153000000000002
 20
-5.8882800000000008
 30
0.0
 10
1.8365600000000002
 20
-6.0813200000000007
 30
0.0
 10
1.7248000000000001
 20
-6.2692800000000002
 30
0.0
 10
1.7248000000000001
 20
-6.2692800000000002
 30
0.0
 10
1.7095600000000002
 20
-6.0635400000000006
 30
0.0
 10
1.5647800000000001
 20
-6.1753000000000009
 30
0.0
 10
1.4073000000000002
 20
-6.2540400000000007
 30
0.0
 10
1.4073000000000002
 20
-6.2540400000000007
 30
0.0
 10
1.48604
 20
-6.0483000000000002
 30
0.0
 10
1.6308200000000002
 20
-5.8400200000000009
 30
0.0
 10
1.7248000000000001
 20
-5.6520600000000005
 30
0.0
 10
1.7248000000000001
 20
-5.6520600000000005
 30
0.0
 10
1.8365600000000002
 20
-5.6977800000000007
 30
0.0
 10
1.69432
 20
-5.8400200000000009
 30
0.0
 10
1.8213200000000001
 20
-5.8730400000000005
 30
0.0
 10
1.8213200000000001
 20
-5.8730400000000005
 30
0.0
 10
1.8670400000000003
 20
-5.5860200000000004
 30
0.0
 10
1.9788000000000001
 20
-5.2685200000000005
 30
0.0
 10
1.8213200000000001
 20
-4.9992800000000006
 30
0.0
 10
1.8213200000000001
 20
-4.9992800000000006
 30
0.0
 10
1.8035400000000001
 20
-4.9688000000000008
 30
0.0
 10
1.8365600000000002
 20
-4.9510200000000006
 30
0.0
 10
1.8518000000000001
 20
-4.9357800000000003
 30
0.0
  0
SPLINE
  5
84
100
AcDbEntity
  8
Ebene 1
100
AcDbSpline
210
0.0
220
0.0
230
1.0
 70
     1
 71
     3
 72
    16
 73
    12
 74
     0
 42
0.0000000001
 43
0.0000000001
 40
0.0
 40
0.0
 40
0.0
 40
0.0
 40
0.3333333333333333
 40
0.3333333333333333
 40
0.3333333333333333
 40
0.3333333333333333
 40
0.6666666666666666
 40
0.6666666666666666
 40
0.6666666666666666
 40
0.6666666666666666
 40
1.0
 40
1.0
 40
1.0
 40
1.0
 10
3.7745800000000003
 20
-4.9510200000000006
 30
0.0
 10
3.7745800000000003
 20
-4.9510200000000006
 30
0.0
 10
3.8228400000000002
 20
-4.9510200000000006
 30
0.0
 10
3.8228400000000002
 20
-4.9510200000000006
 30
0.0
 10
3.8228400000000002
 20
-4.9510200000000006
 30
0.0
 10
3.8685600000000004
 20
-5.0958000000000006
 30
0.0
 10
3.9498400000000005
 20
-5.2228000000000003
 30
0.0
 10
3.9346000000000005
 20
-5.3802800000000008
 30
0.0
 10
3.9346000000000005
 20
-5.3802800000000008
 30
0.0
 10
3.7745800000000003
 20
-5.3167800000000005
 30
0.0
 10
3.8380800000000002
 20
-5.0958000000000006
 30
0.0
 10
3.7745800000000003
 20
-4.9510200000000006
 30
0.0
  0
SPLINE
  5
85
100
AcDbEntity
  8
Ebene 1
 62
     7
100
AcDbSpline
210
0.0
220
0.0
230
1.0
 70
     1
 71
     3
 72
    12
 73
     8
 74
     0
 42
0.0000000001
 43
0.0000000001
 40
0.0
 40
0.0
 40
0.0
 40
0.0
 40
0.5
 40
0.5
 40
0.5
 40
0.5
 40
1.0
 40
1.0
 40
1.0
 40
1.0
 10
-1.41971
 20
-5.1745400000000004
 30
0.0
 10
-1.2444500000000001
 20
-5.2228000000000003
 30
0.0
 10
-1.67371
 20
-5.3320200000000009
 30
0.0
 10
-1.4806700000000002
 20
-5.2228000000000003
 30
0.0
 10
-1.4806700000000002
 20
-5.2228000000000003
 30
0.0
 10
-1.4806700000000002
 20
-5.2228000000000003
 30
0.0
 10
-1.41971
 20
-5.1745400000000004
 30
0.0
 10
-1.41971
 20
-5.1745400000000004
 30
0.0
  0
SPLINE
  5
86
100
AcDbEntity
  8
Ebene 1
 62
     7
100
AcDbSpline
210
0.0
220
0.0
230
1.0
 70
     1
 71
     3
 72
    56
 73
    52
 74
     0
 42
0.0000000001
 43
0.0000000001
 40
0.0
 40
0.0
 40
0.0
 40
0.0
 40
0.0769230769230769
 40
0.0769230769230769
 40
0.0769230769230769
 40
0.0769230769230769
 40
0.1538461538461539
 40
0.1538461538461539
 40
0.1538461538461539
 40
0.1538461538461539
 40
0.2307692307692308
 40
0.2307692307692308
 40
0.2307692307692308
 40
0.2307692307692308
 40
0.3076923076923077
 40
0.3076923076923077
 40
0.3076923076923077
 40
0.3076923076923077
 40
0.3846153846153846
 40
0.3846153846153846
 40
0.3846153846153846
 40
0.3846153846153846
 40
0.4615384615384616
 40
0.4615384615384616
 40
0.4615384615384616
 40
0.4615384615384616
 40
0.5384615384615386
 40
0.5384615384615386
 40
0.5384615384615386
 40
0.5384615384615386
 40
0.6153846153846154
 40
0.6153846153846154
 40
0.6153846153846154
 40
0.6153846153846154
 40
0.6923076923076923
 40
0.6923076923076923
 40
0.6923076923076923
 40
0.6923076923076923
 40
0.7692307692307692
 40
0.7692307692307692
 40
0.7692307692307692
 40
0.7692307692307692
 40
0.846153846153846
 40
0.846153846153846
 40
0.846153846153846
 40
0.846153846153846
 40
0.9230769230769229
 40
0.9230769230769229
 40
0.9230769230769229
 40
0.9230769230769229
 40
1.0
 40
1.0
 40
1.0
 40
1.0
 10
-3.6269700000000005
 20
-5.3015400000000001
 30
0.0
 10
-3.6269700000000005
 20
-5.3015400000000001
 30
0.0
 10
-3.5329900000000003
 20
-5.3167800000000005
 30
0.0
 10
-3.5329900000000003
 20
-5.3167800000000005
 30
0.0
 10
-3.5329900000000003
 20
-5.3167800000000005
 30
0.0
 10
-3.5380700000000003
 20
-5.4285400000000008
 30
0.0
 10
-3.5837900000000005
 20
-5.4285400000000008
 30
0.0
 10
-3.6549100000000001
 20
-5.3802800000000008
 30
0.0
 10
-3.6549100000000001
 20
-5.3802800000000008
 30
0.0
 10
-3.7158700000000002
 20
-5.7308000000000003
 30
0.0
 10
-3.9698700000000002
 20
-5.9543200000000001
 30
0.0
 10
-4.2670500000000002
 20
-6.1270400000000009
 30
0.0
 10
-4.2670500000000002
 20
-6.1270400000000009
 30
0.0
 10
-4.4118300000000001
 20
-6.0000400000000003
 30
0.0
 10
-4.6277300000000006
 20
-6.1270400000000009
 30
0.0
 10
-4.8182300000000007
 20
-6.0330600000000008
 30
0.0
 10
-4.8182300000000007
 20
-6.0330600000000008
 30
0.0
 10
-5.1789100000000001
 20
-6.1753000000000009
 30
0.0
 10
-4.86395
 20
-6.4775600000000004
 30
0.0
 10
-4.6302700000000003
 20
-6.5080400000000003
 30
0.0
 10
-4.6302700000000003
 20
-6.5080400000000003
 30
0.0
 10
-4.69123
 20
-6.5715400000000006
 30
0.0
 10
-4.8106100000000005
 20
-6.5080400000000003
 30
0.0
 10
-4.8817300000000001
 20
-6.4928000000000008
 30
0.0
 10
-4.8817300000000001
 20
-6.4928000000000008
 30
0.0
 10
-4.9604700000000008
 20
-6.4775600000000004
 30
0.0
 10
-5.0163500000000001
 20
-6.4140600000000001
 30
0.0
 10
-5.0569900000000008
 20
-6.3505600000000006
 30
0.0
 10
-5.0569900000000008
 20
-6.3505600000000006
 30
0.0
 10
-5.1052500000000007
 20
-6.2388000000000003
 30
0.0
 10
-5.0442900000000002
 20
-6.1118000000000006
 30
0.0
 10
-4.98841
 20
-6.0152800000000006
 30
0.0
 10
-4.98841
 20
-6.0152800000000006
 30
0.0
 10
-4.6251900000000008
 20
-5.8730400000000005
 30
0.0
 10
-4.3203900000000006
 20
-5.61904
 30
0.0
 10
-3.9952700000000005
 20
-5.3802800000000008
 30
0.0
 10
-3.9952700000000005
 20
-5.3802800000000008
 30
0.0
 10
-4.0841700000000003
 20
-5.3802800000000008
 30
0.0
 10
-4.1806900000000002
 20
-5.5072800000000006
 30
0.0
 10
-4.2619700000000007
 20
-5.4768000000000008
 30
0.0
 10
-4.2619700000000007
 20
-5.4768000000000008
 30
0.0
 10
-4.2619700000000007
 20
-5.4768000000000008
 30
0.0
 10
-4.2264100000000004
 20
-5.3980600000000001
 30
0.0
 10
-4.2264100000000004
 20
-5.3980600000000001
 30
0.0
 10
-4.2264100000000004
 20
-5.3980600000000001
 30
0.0
 10
-4.2264100000000004
 20
-5.3980600000000001
 30
0.0
 10
-4.1781500000000005
 20
-5.3320200000000009
 30
0.0
 10
-4.1781500000000005
 20
-5.3320200000000009
 30
0.0
 10
-4.1781500000000005
 20
-5.3320200000000009
 30
0.0
 10
-4.0028900000000007
 20
-5.3980600000000001
 30
0.0
 10
-3.8022300000000002
 20
-5.3015400000000001
 30
0.0
 10
-3.6269700000000005
 20
-5.3015400000000001
 30
0.0
  0
SPLINE
  5
87
100
AcDbEntity
  8
Ebene 1
 62
     7
100
AcDbSpline
210
0.0
220
0.0
230
1.0
 70
     1
 71
     3
 72
    20
 73
    16
 74
     0
 42
0.0000000001
 43
0.0000000001
 40
0.0
 40
0.0
 40
0.0
 40
0.0
 40
0.25
 40
0.25
 40
0.25
 40
0.25
 40
0.5
 40
0.5
 40
0.5
 40
0.5
 40
0.75
 40
0.75
 40
0.75
 40
0.75
 40
1.0
 40
1.0
 40
1.0
 40
1.0
 10
-2.1817100000000003
 20
-5.3320200000000009
 30
0.0
 10
-2.06995
 20
-5.3650400000000005
 30
0.0
 10
-1.9759700000000002
 20
-5.4285400000000008
 30
0.0
 10
-1.8489700000000002
 20
-5.4133000000000004
 30
0.0
 10
-1.8489700000000002
 20
-5.4133000000000004
 30
0.0
 10
-2.0826500000000001
 20
-5.5707800000000001
 30
0.0
 10
-2.40523
 20
-5.5707800000000001
 30
0.0
 10
-2.6363700000000003
 20
-5.7612800000000002
 30
0.0
 10
-2.6363700000000003
 20
-5.7612800000000002
 30
0.0
 10
-2.6084300000000002
 20
-5.6673000000000009
 30
0.0
 10
-2.48651
 20
-5.5860200000000004
 30
0.0
 10
-2.4077700000000002
 20
-5.5250600000000007
 30
0.0
 10
-2.4077700000000002
 20
-5.5250600000000007
 30
0.0
 10
-2.4077700000000002
 20
-5.5250600000000007
 30
0.0
 10
-2.1817100000000003
 20
-5.3320200000000009
 30
0.0
 10
-2.1817100000000003
 20
-5.3320200000000009
 30
0.0
  0
SPLINE
  5
88
100
AcDbEntity
  8
Ebene 1
 62
     7
100
AcDbSpline
210
0.0
220
0.0
230
1.0
 70
     1
 71
     3
 72
    20
 73
    16
 74
     0
 42
0.0000000001
 43
0.0000000001
 40
0.0
 40
0.0
 40
0.0
 40
0.0
 40
0.25
 40
0.25
 40
0.25
 40
0.25
 40
0.5
 40
0.5
 40
0.5
 40
0.5
 40
0.75
 40
0.75
 40
0.75
 40
0.75
 40
1.0
 40
1.0
 40
1.0
 40
1.0
 10
-1.7041900000000001
 20
-5.4285400000000008
 30
0.0
 10
-1.5771900000000001
 20
-5.4133000000000004
 30
0.0
 10
-1.5771900000000001
 20
-5.4768000000000008
 30
0.0
 10
-1.6406900000000002
 20
-5.5555400000000006
 30
0.0
 10
-1.6406900000000002
 20
-5.5555400000000006
 30
0.0
 10
-1.6406900000000002
 20
-5.5555400000000006
 30
0.0
 10
-1.54671
 20
-5.6673000000000009
 30
0.0
 10
-1.54671
 20
-5.6673000000000009
 30
0.0
 10
-1.54671
 20
-5.6673000000000009
 30
0.0
 10
-1.54671
 20
-5.6673000000000009
 30
0.0
 10
-2.09789
 20
-6.1270400000000009
 30
0.0
 10
-2.09789
 20
-6.1270400000000009
 30
0.0
 10
-2.09789
 20
-6.1270400000000009
 30
0.0
 10
-2.0064500000000001
 20
-5.8730400000000005
 30
0.0
 10
-1.8489700000000002
 20
-5.6520600000000005
 30
0.0
 10
-1.7041900000000001
 20
-5.4285400000000008
 30
0.0
  0
SPLINE
  5
89
100
AcDbEntity
  8
Ebene 1
 62
     7
100
AcDbSpline
210
0.0
220
0.0
230
1.0
 70
     1
 71
     3
 72
    20
 73
    16
 74
     0
 42
0.0000000001
 43
0.0000000001
 40
0.0
 40
0.0
 40
0.0
 40
0.0
 40
0.25
 40
0.25
 40
0.25
 40
0.25
 40
0.5
 40
0.5
 40
0.5
 40
0.5
 40
0.75
 40
0.75
 40
0.75
 40
0.75
 40
1.0
 40
1.0
 40
1.0
 40
1.0
 10
-1.4806700000000002
 20
-5.5707800000000001
 30
0.0
 10
-1.4501900000000001
 20
-5.5860200000000004
 30
0.0
 10
-1.4349500000000002
 20
-5.6038000000000006
 30
0.0
 10
-1.41971
 20
-5.6342800000000004
 30
0.0
 10
-1.41971
 20
-5.6342800000000004
 30
0.0
 10
-1.4349500000000002
 20
-5.8730400000000005
 30
0.0
 10
-1.46543
 20
-6.0965600000000002
 30
0.0
 10
-1.4019300000000001
 20
-6.3175400000000002
 30
0.0
 10
-1.4019300000000001
 20
-6.3175400000000002
 30
0.0
 10
-1.46543
 20
-6.3810400000000005
 30
0.0
 10
-1.5136900000000002
 20
-6.4928000000000008
 30
0.0
 10
-1.5924300000000002
 20
-6.5258200000000004
 30
0.0
 10
-1.5924300000000002
 20
-6.5258200000000004
 30
0.0
 10
-1.5289300000000001
 20
-6.2083200000000005
 30
0.0
 10
-1.4349500000000002
 20
-5.8882800000000008
 30
0.0
 10
-1.4806700000000002
 20
-5.5707800000000001
 30
0.0
  0
SPLINE
  5
8A
100
AcDbEntity
  8
Ebene 1
 62
     7
100
AcDbSpline
210
0.0
220
0.0
230
1.0
 70
     1
 71
     3
 72
    28
 73
    24
 74
     0
 42
0.0000000001
 43
0.0000000001
 40
0.0
 40
0.0
 40
0.0
 40
0.0
 40
0.1666666666666667
 40
0.1666666666666667
 40
0.1666666666666667
 40
0.1666666666666667
 40
0.3333333333333333
 40
0.3333333333333333
 40
0.3333333333333333
 40
0.3333333333333333
 40
0.5
 40
0.5
 40
0.5
 40
0.5
 40
0.6666666666666666
 40
0.6666666666666666
 40
0.6666666666666666
 40
0.6666666666666666
 40
0.8333333333333333
 40
0.8333333333333333
 40
0.8333333333333333
 40
0.8333333333333333
 40
1.0
 40
1.0
 40
1.0
 40
1.0
 10
-0.37069
 20
-5.5707800000000001
 30
0.0
 10
-0.00493
 20
-5.6520600000000005
 30
0.0
 10
0.34304
 20
-5.8273200000000003
 30
0.0
 10
0.5640200000000001
 20
-6.1422800000000004
 30
0.0
 10
0.5640200000000001
 20
-6.1422800000000004
 30
0.0
 10
0.5640200000000001
 20
-6.1422800000000004
 30
0.0
 10
0.5487800000000001
 20
-6.2388000000000003
 30
0.0
 10
0.5487800000000001
 20
-6.2388000000000003
 30
0.0
 10
0.5487800000000001
 20
-6.2388000000000003
 30
0.0
 10
0.5487800000000001
 20
-6.2388000000000003
 30
0.0
 10
0.6275200000000001
 20
-6.3353200000000003
 30
0.0
 10
0.6275200000000001
 20
-6.3353200000000003
 30
0.0
 10
0.6275200000000001
 20
-6.3353200000000003
 30
0.0
 10
0.6275200000000001
 20
-6.3353200000000003
 30
0.0
 10
0.53354
 20
-6.3353200000000003
 30
0.0
 10
0.53354
 20
-6.3353200000000003
 30
0.0
 10
0.53354
 20
-6.3353200000000003
 30
0.0
 10
0.34304
 20
-6.1422800000000004
 30
0.0
 10
-0.02017
 20
-6.2692800000000002
 30
0.0
 10
-0.13193
 20
-5.9695600000000004
 30
0.0
 10
-0.13193
 20
-5.9695600000000004
 30
0.0
 10
-0.3224300000000001
 20
-5.9543200000000001
 30
0.0
 10
-0.49769
 20
-5.7612800000000002
 30
0.0
 10
-0.37069
 20
-5.5707800000000001
 30
0.0
  0
SPLINE
  5
8B
100
AcDbEntity
  8
Ebene 1
 62
     7
100
AcDbSpline
210
0.0
220
0.0
230
1.0
 70
     1
 71
     3
 72
    20
 73
    16
 74
     0
 42
0.0000000001
 43
0.0000000001
 40
0.0
 40
0.0
 40
0.0
 40
0.0
 40
0.25
 40
0.25
 40
0.25
 40
0.25
 40
0.5
 40
0.5
 40
0.5
 40
0.5
 40
0.75
 40
0.75
 40
0.75
 40
0.75
 40
1.0
 40
1.0
 40
1.0
 40
1.0
 10
-4.23149
 20
-6.3658000000000001
 30
0.0
 10
-4.23149
 20
-6.3658000000000001
 30
0.0
 10
-4.1857700000000007
 20
-6.3658000000000001
 30
0.0
 10
-4.1857700000000007
 20
-6.3658000000000001
 30
0.0
 10
-4.1857700000000007
 20
-6.3658000000000001
 30
0.0
 10
-4.2441900000000006
 20
-6.4293000000000005
 30
0.0
 10
-4.3330900000000003
 20
-6.4775600000000004
 30
0.0
 10
-4.4169100000000006
 20
-6.4928000000000008
 30
0.0
 10
-4.4169100000000006
 20
-6.4928000000000008
 30
0.0
 10
-4.4169100000000006
 20
-6.4928000000000008
 30
0.0
 10
-4.34579
 20
-6.4140600000000001
 30
0.0
 10
-4.34579
 20
-6.4140600000000001
 30
0.0
 10
-4.34579
 20
-6.4140600000000001
 30
0.0
 10
-4.34579
 20
-6.4140600000000001
 30
0.0
 10
-4.23149
 20
-6.3658000000000001
 30
0.0
 10
-4.23149
 20
-6.3658000000000001
 30
0.0
  0
SPLINE
  5
8C
100
AcDbEntity
  8
Ebene 1
 62
     7
100
AcDbSpline
210
0.0
220
0.0
230
1.0
 70
     1
 71
     3
 72
    32
 73
    28
 74
     0
 42
0.0000000001
 43
0.0000000001
 40
0.0
 40
0.0
 40
0.0
 40
0.0
 40
0.1428571428571429
 40
0.1428571428571429
 40
0.1428571428571429
 40
0.1428571428571429
 40
0.2857142857142857
 40
0.2857142857142857
 40
0.2857142857142857
 40
0.2857142857142857
 40
0.4285714285714286
 40
0.4285714285714286
 40
0.4285714285714286
 40
0.4285714285714286
 40
0.5714285714285714
 40
0.5714285714285714
 40
0.5714285714285714
 40
0.5714285714285714
 40
0.7142857142857142
 40
0.7142857142857142
 40
0.7142857142857142
 40
0.7142857142857142
 40
0.857142857142857
 40
0.857142857142857
 40
0.857142857142857
 40
0.857142857142857
 40
1.0
 40
1.0
 40
1.0
 40
1.0
 10
0.35828
 20
-6.4445400000000008
 30
0.0
 10
0.35828
 20
-6.4445400000000008
 30
0.0
 10
0.4548
 20
-6.5080400000000003
 30
0.0
 10
0.4548
 20
-6.5080400000000003
 30
0.0
 10
0.4548
 20
-6.5080400000000003
 30
0.0
 10
1.0898000000000001
 20
-6.4293000000000005
 30
0.0
 10
1.5343000000000002
 20
-6.8890400000000005
 30
0.0
 10
2.12358
 20
-6.8585600000000007
 30
0.0
 10
2.12358
 20
-6.8585600000000007
 30
0.0
 10
2.2505800000000002
 20
-6.9373000000000005
 30
0.0
 10
2.37758
 20
-6.9855600000000004
 30
0.0
 10
2.5350600000000001
 20
-6.9373000000000005
 30
0.0
 10
2.5350600000000001
 20
-6.9373000000000005
 30
0.0
 10
2.5833200000000001
 20
-7.0160400000000003
 30
0.0
 10
2.67984
 20
-7.0338200000000004
 30
0.0
 10
2.7408000000000001
 20
-7.0820800000000004
 30
0.0
 10
2.7408000000000001
 20
-7.0820800000000004
 30
0.0
 10
2.7408000000000001
 20
-7.0820800000000004
 30
0.0
 10
2.3928200000000004
 20
-7.0973200000000007
 30
0.0
 10
2.3928200000000004
 20
-7.0973200000000007
 30
0.0
 10
2.3928200000000004
 20
-7.0973200000000007
 30
0.0
 10
1.7095600000000002
 20
-6.9068200000000006
 30
0.0
 10
0.9780400000000001
 20
-6.8280800000000008
 30
0.0
 10
0.3278
 20
-6.5080400000000003
 30
0.0
 10
0.3278
 20
-6.5080400000000003
 30
0.0
 10
0.3278
 20
-6.5080400000000003
 30
0.0
 10
0.35828
 20
-6.4445400000000008
 30
0.0
 10
0.35828
 20
-6.4445400000000008
 30
0.0
  0
SPLINE
  5
8D
100
AcDbEntity
  8
Ebene 1
 62
     7
100
AcDbSpline
210
0.0
220
0.0
230
1.0
 70
     1
 71
     3
 72
    28
 73
    24
 74
     0
 42
0.0000000001
 43
0.0000000001
 40
0.0
 40
0.0
 40
0.0
 40
0.0
 40
0.1666666666666667
 40
0.1666666666666667
 40
0.1666666666666667
 40
0.1666666666666667
 40
0.3333333333333333
 40
0.3333333333333333
 40
0.3333333333333333
 40
0.3333333333333333
 40
0.5
 40
0.5
 40
0.5
 40
0.5
 40
0.6666666666666666
 40
0.6666666666666666
 40
0.6666666666666666
 40
0.6666666666666666
 40
0.8333333333333333
 40
0.8333333333333333
 40
0.8333333333333333
 40
0.8333333333333333
 40
1.0
 40
1.0
 40
1.0
 40
1.0
 10
3.1548200000000004
 20
-7.1278000000000006
 30
0.0
 10
3.1548200000000004
 20
-7.1278000000000006
 30
0.0
 10
3.6958400000000005
 20
-7.1430400000000009
 30
0.0
 10
3.6958400000000005
 20
-7.1430400000000009
 30
0.0
 10
3.6958400000000005
 20
-7.1430400000000009
 30
0.0
 10
3.6958400000000005
 20
-7.1430400000000009
 30
0.0
 10
3.7263200000000003
 20
-7.1913000000000009
 30
0.0
 10
3.7263200000000003
 20
-7.1913000000000009
 30
0.0
 10
3.7263200000000003
 20
-7.1913000000000009
 30
0.0
 10
3.7263200000000003
 20
-7.1913000000000009
 30
0.0
 10
4.0920800000000002
 20
-7.257340000000001
 30
0.0
 10
4.0920800000000002
 20
-7.257340000000001
 30
0.0
 10
4.0920800000000002
 20
-7.257340000000001
 30
0.0
 10
4.1251000000000007
 20
-7.2700400000000007
 30
0.0
 10
4.1886000000000001
 20
-7.2700400000000007
 30
0.0
 10
4.1886000000000001
 20
-7.3360800000000008
 30
0.0
 10
4.1886000000000001
 20
-7.3360800000000008
 30
0.0
 10
4.1886000000000001
 20
-7.3360800000000008
 30
0.0
 10
2.8525600000000004
 20
-7.1913000000000009
 30
0.0
 10
2.8525600000000004
 20
-7.1913000000000009
 30
0.0
 10
2.8525600000000004
 20
-7.1913000000000009
 30
0.0
 10
2.9338400000000004
 20
-7.1125600000000002
 30
0.0
 10
3.0608400000000002
 20
-7.1760600000000005
 30
0.0
 10
3.1548200000000004
 20
-7.1278000000000006
 30
0.0
  0
ENDSEC
  0
SECTION
  2
OBJECTS
  0
DICTIONARY
  5
19
100
AcDbDictionary
280
     0
281
     1
  3
ACAD_GROUP
350
1A
  3
ACAD_MLINESTYLE
350
1B
  3
ACAD_LAYOUT
350
1E
  3
ACAD_PLOTSETTINGS
350
22
  3
ACAD_PLOTSTYLENAME
350
1F
  3
ACAD_WIPEOUT_VARS
350
23
  0
DICTIONARY
  5
1A
102
{ACAD_REACTORS
330
19
102
}
100
AcDbDictionary
280
     0
281
     1
  0
DICTIONARY
  5
1B
102
{ACAD_REACTORS
330
19
102
}
100
AcDbDictionary
280
     0
281
     1
  3
Standard
350
1C
  0
MLINESTYLE
  5
1C
102
{ACAD_REACTORS
330
1B
102
}
100
AcDbMlineStyle
  2
Standard
 70
     0
  3

 62
     0
 51
90.0
 52
90.0
 71
     2
 49
0.5
 62
   256
  6
BYLAYER
 49
-0.5
 62
   256
  6
BYLAYER
  0
ACDBDICTIONARYWDFLT
  5
1F
102
{ACAD_REACTORS
330
19
102
}
100
AcDbDictionary
281
     1
  3
Normal
350
1D
100
AcDbDictionaryWithDefault
340
1D
  0
ACDBPLACEHOLDER
  5
1D
102
{ACAD_REACTORS
330
1F
102
}
  0
LAYOUT
  5
20
102
{ACAD_REACTORS
330
1E
102
}
100
AcDbPlotSettings
  1

  2

  4

  6

 40
0.0
 41
0.0
 42
0.0
 43
0.0
 44
0.0
 45
0.0
 46
0.0
 47
0.0
 48
0.0
 49
0.0
140
0.0
141
0.0
142
1.0
143
1.0
 70
  1024
 72
     0
 73
     0
 74
     0
  7

 75
     0
147
1.0
148
0.0
149
0.0
100
AcDbLayout
  1
Model
 70
     0
 71
     0
 10
0.0
 20
0.0
 11
0.0
 21
0.0
 12
0.0
 22
0.0
 32
0.0
 14
0.0
 24
0.0
 34
0.0
 15
0.0
 25
0.0
 35
0.0
146
0.0
 13
0.0
 23
0.0
 33
0.0
 16
0.0
 26
0.0
 36
0.0
 17
0.0
 27
0.0
 37
0.0
 76
     0
330
A
331
0
345
0
346
0
  0
LAYOUT
  5
21
102
{ACAD_REACTORS
330
1E
102
}
100
AcDbPlotSettings
  1

  2

  4

  6

 40
0.0
 41
0.0
 42
0.0
 43
0.0
 44
0.0
 45
0.0
 46
0.0
 47
0.0
 48
0.0
 49
0.0
140
0.0
141
0.0
142
1.0
143
1.0
 70
     0
 72
     0
 73
     0
 74
     0
  7

 75
     0
147
1.0
148
0.0
149
0.0
100
AcDbLayout
  1
Layout1
 70
     0
 71
     0
 10
0.0
 20
0.0
 11
0.0
 21
0.0
 12
0.0
 22
0.0
 32
0.0
 14
0.0
 24
0.0
 34
0.0
 15
0.0
 25
0.0
 35
0.0
146
0.0
 13
0.0
 23
0.0
 33
0.0
 16
0.0
 26
0.0
 36
0.0
 17
0.0
 27
0.0
 37
0.0
 76
     0
330
B
331
0
345
0
346
0
  0
DICTIONARY
  5
1E
102
{ACAD_REACTORS
330
19
102
}
100
AcDbDictionary
280
     0
281
     1
  3
Layout1
350
21
  3
Model
350
20
  0
DICTIONARY
  5
22
102
{ACAD_REACTORS
330
19
102
}
100
AcDbDictionary
280
     0
281
     1
  0
WIPEOUTVARIABLES
  5
23
100
AcDbWipeoutVariables
 70
     1
  0
ENDSEC
  0
EOF
