 0 
SECTION
 2 
ENTITIES
 0 
LINE
 10 
 3638 
 20 
 7718 
 30 
 0 
 11 
 3638.64770507813 
 21 
 7710.751953125 
 31 
 0 
 0 
LINE
 10 
 3638.64770507813 
 20 
 7710.751953125 
 30 
 0 
 11 
 3636.7041015625 
 21 
 7705.61572265625 
 31 
 0 
 0 
LINE
 10 
 3636.7041015625 
 20 
 7705.61572265625 
 30 
 0 
 11 
 3631.73608398438 
 21 
 7702.30419921875 
 31 
 0 
 0 
LINE
 10 
 3631.73608398438 
 20 
 7702.30419921875 
 30 
 0 
 11 
 3623.31201171875 
 21 
 7700.5283203125 
 31 
 0 
 0 
LINE
 10 
 3623.31201171875 
 20 
 7700.5283203125 
 30 
 0 
 11 
 3611 
 21 
 7700 
 31 
 0 
 0 
LINE
 10 
 3611 
 20 
 7700 
 30 
 0 
 11 
 3599.1201171875 
 21 
 7699.43212890625 
 31 
 0 
 0 
LINE
 10 
 3599.1201171875 
 20 
 7699.43212890625 
 30 
 0 
 11 
 3583.64013671875 
 21 
 7697.8564453125 
 31 
 0 
 0 
LINE
 10 
 3583.64013671875 
 20 
 7697.8564453125 
 30 
 0 
 11 
 3566 
 21 
 7695.46435546875 
 31 
 0 
 0 
LINE
 10 
 3566 
 20 
 7695.46435546875 
 30 
 0 
 11 
 3547.64013671875 
 21 
 7692.4482421875 
 31 
 0 
 0 
LINE
 10 
 3547.64013671875 
 20 
 7692.4482421875 
 30 
 0 
 11 
 3530 
 21 
 7689 
 31 
 0 
 0 
LINE
 10 
 3530 
 20 
 7689 
 30 
 0 
 11 
 3501.13598632813 
 21 
 7680.7275390625 
 31 
 0 
 0 
LINE
 10 
 3501.13598632813 
 20 
 7680.7275390625 
 30 
 0 
 11 
 3484.36791992188 
 21 
 7670.82421875 
 31 
 0 
 0 
LINE
 10 
 3484.36791992188 
 20 
 7670.82421875 
 30 
 0 
 11 
 3480.0322265625 
 21 
 7660.0556640625 
 31 
 0 
 0 
LINE
 10 
 3480.0322265625 
 20 
 7660.0556640625 
 30 
 0 
 11 
 3488.46411132813 
 21 
 7649.19189453125 
 31 
 0 
 0 
LINE
 10 
 3488.46411132813 
 20 
 7649.19189453125 
 30 
 0 
 11 
 3510 
 21 
 7639 
 31 
 0 
 0 
LINE
 10 
 3510 
 20 
 7639 
 30 
 0 
 11 
 3525.88793945313 
 21 
 7631.01513671875 
 31 
 0 
 0 
LINE
 10 
 3525.88793945313 
 20 
 7631.01513671875 
 30 
 0 
 11 
 3532.94409179688 
 21 
 7622.6484375 
 31 
 0 
 0 
LINE
 10 
 3532.94409179688 
 20 
 7622.6484375 
 30 
 0 
 11 
 3531.4560546875 
 21 
 7615.67236328125 
 31 
 0 
 0 
LINE
 10 
 3531.4560546875 
 20 
 7615.67236328125 
 30 
 0 
 11 
 3521.7119140625 
 21 
 7611.8642578125 
 31 
 0 
 0 
LINE
 10 
 3521.7119140625 
 20 
 7611.8642578125 
 30 
 0 
 11 
 3504 
 21 
 7613 
 31 
 0 
 0 
LINE
 10 
 3504 
 20 
 7613 
 30 
 0 
 11 
 3495.431640625 
 21 
 7613.37548828125 
 31 
 0 
 0 
LINE
 10 
 3495.431640625 
 20 
 7613.37548828125 
 30 
 0 
 11 
 3486.81591796875 
 21 
 7612.16796875 
 31 
 0 
 0 
LINE
 10 
 3486.81591796875 
 20 
 7612.16796875 
 30 
 0 
 11 
 3478.583984375 
 21 
 7609.47216796875 
 31 
 0 
 0 
LINE
 10 
 3478.583984375 
 20 
 7609.47216796875 
 30 
 0 
 11 
 3471.16821289063 
 21 
 7605.3837890625 
 31 
 0 
 0 
LINE
 10 
 3471.16821289063 
 20 
 7605.3837890625 
 30 
 0 
 11 
 3465 
 21 
 7600 
 31 
 0 
 0 
LINE
 10 
 3465 
 20 
 7600 
 30 
 0 
 11 
 3458.43212890625 
 21 
 7591.9599609375 
 31 
 0 
 0 
LINE
 10 
 3458.43212890625 
 20 
 7591.9599609375 
 30 
 0 
 11 
 3455.65600585938 
 21 
 7584.8798828125 
 31 
 0 
 0 
LINE
 10 
 3455.65600585938 
 20 
 7584.8798828125 
 30 
 0 
 11 
 3456.8642578125 
 21 
 7577.3203125 
 31 
 0 
 0 
LINE
 10 
 3456.8642578125 
 20 
 7577.3203125 
 30 
 0 
 11 
 3462.248046875 
 21 
 7567.84033203125 
 31 
 0 
 0 
LINE
 10 
 3462.248046875 
 20 
 7567.84033203125 
 30 
 0 
 11 
 3472 
 21 
 7555 
 31 
 0 
 0 
LINE
 10 
 3472 
 20 
 7555 
 30 
 0 
 11 
 3494 
 21 
 7527 
 31 
 0 
 0 
LINE
 10 
 3494 
 20 
 7527 
 30 
 0 
 11 
 3437 
 21 
 7533 
 31 
 0 
 0 
LINE
 10 
 3437 
 20 
 7533 
 30 
 0 
 11 
 3410.34399414063 
 21 
 7535.9755859375 
 31 
 0 
 0 
LINE
 10 
 3410.34399414063 
 20 
 7535.9755859375 
 30 
 0 
 11 
 3391.51220703125 
 21 
 7535.9287109375 
 31 
 0 
 0 
LINE
 10 
 3391.51220703125 
 20 
 7535.9287109375 
 30 
 0 
 11 
 3376.80810546875 
 21 
 7531.9921875 
 31 
 0 
 0 
LINE
 10 
 3376.80810546875 
 20 
 7531.9921875 
 30 
 0 
 11 
 3362.5361328125 
 21 
 7523.30419921875 
 31 
 0 
 0 
LINE
 10 
 3362.5361328125 
 20 
 7523.30419921875 
 30 
 0 
 11 
 3345 
 21 
 7509 
 31 
 0 
 0 
LINE
 10 
 3345 
 20 
 7509 
 30 
 0 
 11 
 3333.67993164063 
 21 
 7497.82373046875 
 31 
 0 
 0 
LINE
 10 
 3333.67993164063 
 20 
 7497.82373046875 
 30 
 0 
 11 
 3324.0400390625 
 21 
 7486.3125 
 31 
 0 
 0 
LINE
 10 
 3324.0400390625 
 20 
 7486.3125 
 30 
 0 
 11 
 3316.55981445313 
 21 
 7475.087890625 
 31 
 0 
 0 
LINE
 10 
 3316.55981445313 
 20 
 7475.087890625 
 30 
 0 
 11 
 3311.71997070313 
 21 
 7464.7763671875 
 31 
 0 
 0 
LINE
 10 
 3311.71997070313 
 20 
 7464.7763671875 
 30 
 0 
 11 
 3310 
 21 
 7456 
 31 
 0 
 0 
LINE
 10 
 3310 
 20 
 7456 
 30 
 0 
 11 
 3308.55981445313 
 21 
 7445.99169921875 
 31 
 0 
 0 
LINE
 10 
 3308.55981445313 
 20 
 7445.99169921875 
 30 
 0 
 11 
 3303.28002929688 
 21 
 7438.09619140625 
 31 
 0 
 0 
LINE
 10 
 3303.28002929688 
 20 
 7438.09619140625 
 30 
 0 
 11 
 3292.71997070313 
 21 
 7431.30419921875 
 31 
 0 
 0 
LINE
 10 
 3292.71997070313 
 20 
 7431.30419921875 
 30 
 0 
 11 
 3275.43994140625 
 21 
 7424.6083984375 
 31 
 0 
 0 
LINE
 10 
 3275.43994140625 
 20 
 7424.6083984375 
 30 
 0 
 11 
 3250 
 21 
 7417 
 31 
 0 
 0 
LINE
 10 
 3250 
 20 
 7417 
 30 
 0 
 11 
 3227.89599609375 
 21 
 7409.2236328125 
 31 
 0 
 0 
LINE
 10 
 3227.89599609375 
 20 
 7409.2236328125 
 30 
 0 
 11 
 3202.52807617188 
 21 
 7398.47216796875 
 31 
 0 
 0 
LINE
 10 
 3202.52807617188 
 20 
 7398.47216796875 
 30 
 0 
 11 
 3175.912109375 
 21 
 7385.6083984375 
 31 
 0 
 0 
LINE
 10 
 3175.912109375 
 20 
 7385.6083984375 
 30 
 0 
 11 
 3150.06420898438 
 21 
 7371.49609375 
 31 
 0 
 0 
LINE
 10 
 3150.06420898438 
 20 
 7371.49609375 
 30 
 0 
 11 
 3127 
 21 
 7357 
 31 
 0 
 0 
LINE
 10 
 3127 
 20 
 7357 
 30 
 0 
 11 
 3106.58374023438 
 21 
 7342.9677734375 
 31 
 0 
 0 
LINE
 10 
 3106.58374023438 
 20 
 7342.9677734375 
 30 
 0 
 11 
 3087.0322265625 
 21 
 7330.1845703125 
 31 
 0 
 0 
LINE
 10 
 3087.0322265625 
 20 
 7330.1845703125 
 30 
 0 
 11 
 3069.68798828125 
 21 
 7319.416015625 
 31 
 0 
 0 
LINE
 10 
 3069.68798828125 
 20 
 7319.416015625 
 30 
 0 
 11 
 3055.89599609375 
 21 
 7311.43212890625 
 31 
 0 
 0 
LINE
 10 
 3055.89599609375 
 20 
 7311.43212890625 
 30 
 0 
 11 
 3047 
 21 
 7307 
 31 
 0 
 0 
LINE
 10 
 3047 
 20 
 7307 
 30 
 0 
 11 
 3041.77563476563 
 21 
 7304.65576171875 
 31 
 0 
 0 
LINE
 10 
 3041.77563476563 
 20 
 7304.65576171875 
 30 
 0 
 11 
 3037.1279296875 
 21 
 7301.4482421875 
 31 
 0 
 0 
LINE
 10 
 3037.1279296875 
 20 
 7301.4482421875 
 30 
 0 
 11 
 3033.39184570313 
 21 
 7297.7119140625 
 31 
 0 
 0 
LINE
 10 
 3033.39184570313 
 20 
 7297.7119140625 
 30 
 0 
 11 
 3030.90405273438 
 21 
 7293.7841796875 
 31 
 0 
 0 
LINE
 10 
 3030.90405273438 
 20 
 7293.7841796875 
 30 
 0 
 11 
 3030 
 21 
 7290 
 31 
 0 
 0 
LINE
 10 
 3030 
 20 
 7290 
 30 
 0 
 11 
 3033.48803710938 
 21 
 7285.7998046875 
 31 
 0 
 0 
LINE
 10 
 3033.48803710938 
 20 
 7285.7998046875 
 30 
 0 
 11 
 3043.98413085938 
 21 
 7282.7998046875 
 31 
 0 
 0 
LINE
 10 
 3043.98413085938 
 20 
 7282.7998046875 
 30 
 0 
 11 
 3061.53588867188 
 21 
 7281.00048828125 
 31 
 0 
 0 
LINE
 10 
 3061.53588867188 
 20 
 7281.00048828125 
 30 
 0 
 11 
 3086.19213867188 
 21 
 7280.400390625 
 31 
 0 
 0 
LINE
 10 
 3086.19213867188 
 20 
 7280.400390625 
 30 
 0 
 11 
 3118 
 21 
 7281 
 31 
 0 
 0 
LINE
 10 
 3118 
 20 
 7281 
 30 
 0 
 11 
 3167.28002929688 
 21 
 7281.671875 
 31 
 0 
 0 
LINE
 10 
 3167.28002929688 
 20 
 7281.671875 
 30 
 0 
 11 
 3199.76000976563 
 21 
 7279.416015625 
 31 
 0 
 0 
LINE
 10 
 3199.76000976563 
 20 
 7279.416015625 
 30 
 0 
 11 
 3218.80004882813 
 21 
 7273.22412109375 
 31 
 0 
 0 
LINE
 10 
 3218.80004882813 
 20 
 7273.22412109375 
 30 
 0 
 11 
 3227.76000976563 
 21 
 7262.087890625 
 31 
 0 
 0 
LINE
 10 
 3227.76000976563 
 20 
 7262.087890625 
 30 
 0 
 11 
 3230 
 21 
 7245 
 31 
 0 
 0 
LINE
 10 
 3230 
 20 
 7245 
 30 
 0 
 11 
 3227.73583984375 
 21 
 7230.22412109375 
 31 
 0 
 0 
LINE
 10 
 3227.73583984375 
 20 
 7230.22412109375 
 30 
 0 
 11 
 3219.56811523438 
 21 
 7220.15185546875 
 31 
 0 
 0 
LINE
 10 
 3219.56811523438 
 20 
 7220.15185546875 
 30 
 0 
 11 
 3203.43212890625 
 21 
 7213.96826171875 
 31 
 0 
 0 
LINE
 10 
 3203.43212890625 
 20 
 7213.96826171875 
 30 
 0 
 11 
 3177.26391601563 
 21 
 7210.85595703125 
 31 
 0 
 0 
LINE
 10 
 3177.26391601563 
 20 
 7210.85595703125 
 30 
 0 
 11 
 3139 
 21 
 7210 
 31 
 0 
 0 
LINE
 10 
 3139 
 20 
 7210 
 30 
 0 
 11 
 3120.57568359375 
 21 
 7209.54345703125 
 31 
 0 
 0 
LINE
 10 
 3120.57568359375 
 20 
 7209.54345703125 
 30 
 0 
 11 
 3104.408203125 
 21 
 7208.2724609375 
 31 
 0 
 0 
LINE
 10 
 3104.408203125 
 20 
 7208.2724609375 
 30 
 0 
 11 
 3091.55200195313 
 21 
 7206.328125 
 31 
 0 
 0 
LINE
 10 
 3091.55200195313 
 20 
 7206.328125 
 30 
 0 
 11 
 3083.06396484375 
 21 
 7203.8564453125 
 31 
 0 
 0 
LINE
 10 
 3083.06396484375 
 20 
 7203.8564453125 
 30 
 0 
 11 
 3080 
 21 
 7201 
 31 
 0 
 0 
LINE
 10 
 3080 
 20 
 7201 
 30 
 0 
 11 
 3081.3759765625 
 21 
 7197.01611328125 
 31 
 0 
 0 
LINE
 10 
 3081.3759765625 
 20 
 7197.01611328125 
 30 
 0 
 11 
 3085.248046875 
 21 
 7191.44775390625 
 31 
 0 
 0 
LINE
 10 
 3085.248046875 
 20 
 7191.44775390625 
 30 
 0 
 11 
 3091.23217773438 
 21 
 7184.8720703125 
 31 
 0 
 0 
LINE
 10 
 3091.23217773438 
 20 
 7184.8720703125 
 30 
 0 
 11 
 3098.94409179688 
 21 
 7177.8642578125 
 31 
 0 
 0 
LINE
 10 
 3098.94409179688 
 20 
 7177.8642578125 
 30 
 0 
 11 
 3108 
 21 
 7171 
 31 
 0 
 0 
LINE
 10 
 3108 
 20 
 7171 
 30 
 0 
 11 
 3115.88793945313 
 21 
 7164.591796875 
 31 
 0 
 0 
LINE
 10 
 3115.88793945313 
 20 
 7164.591796875 
 30 
 0 
 11 
 3121.42407226563 
 21 
 7158.8564453125 
 31 
 0 
 0 
LINE
 10 
 3121.42407226563 
 20 
 7158.8564453125 
 30 
 0 
 11 
 3124.416015625 
 21 
 7154.224609375 
 31 
 0 
 0 
LINE
 10 
 3124.416015625 
 20 
 7154.224609375 
 30 
 0 
 11 
 3124.67211914063 
 21 
 7151.1279296875 
 31 
 0 
 0 
LINE
 10 
 3124.67211914063 
 20 
 7151.1279296875 
 30 
 0 
 11 
 3122 
 21 
 7150 
 31 
 0 
 0 
LINE
 10 
 3122 
 20 
 7150 
 30 
 0 
 11 
 3116.591796875 
 21 
 7151.02392578125 
 31 
 0 
 0 
LINE
 10 
 3116.591796875 
 20 
 7151.02392578125 
 30 
 0 
 11 
 3109.21606445313 
 21 
 7153.8720703125 
 31 
 0 
 0 
LINE
 10 
 3109.21606445313 
 20 
 7153.8720703125 
 30 
 0 
 11 
 3100.54418945313 
 21 
 7158.2080078125 
 31 
 0 
 0 
LINE
 10 
 3100.54418945313 
 20 
 7158.2080078125 
 30 
 0 
 11 
 3091.248046875 
 21 
 7163.6962890625 
 31 
 0 
 0 
LINE
 10 
 3091.248046875 
 20 
 7163.6962890625 
 30 
 0 
 11 
 3082 
 21 
 7170 
 31 
 0 
 0 
LINE
 10 
 3082 
 20 
 7170 
 30 
 0 
 11 
 3072.30395507813 
 21 
 7176.5283203125 
 31 
 0 
 0 
LINE
 10 
 3072.30395507813 
 20 
 7176.5283203125 
 30 
 0 
 11 
 3061.7919921875 
 21 
 7182.6240234375 
 31 
 0 
 0 
LINE
 10 
 3061.7919921875 
 20 
 7182.6240234375 
 30 
 0 
 11 
 3051.32788085938 
 21 
 7187.85595703125 
 31 
 0 
 0 
LINE
 10 
 3051.32788085938 
 20 
 7187.85595703125 
 30 
 0 
 11 
 3041.77612304688 
 21 
 7191.7919921875 
 31 
 0 
 0 
LINE
 10 
 3041.77612304688 
 20 
 7191.7919921875 
 30 
 0 
 11 
 3034 
 21 
 7194 
 31 
 0 
 0 
LINE
 10 
 3034 
 20 
 7194 
 30 
 0 
 11 
 3026.080078125 
 21 
 7196.24755859375 
 31 
 0 
 0 
LINE
 10 
 3026.080078125 
 20 
 7196.24755859375 
 30 
 0 
 11 
 3017.2001953125 
 21 
 7199.263671875 
 31 
 0 
 0 
LINE
 10 
 3017.2001953125 
 20 
 7199.263671875 
 30 
 0 
 11 
 3008.080078125 
 21 
 7202.85595703125 
 31 
 0 
 0 
LINE
 10 
 3008.080078125 
 20 
 7202.85595703125 
 30 
 0 
 11 
 2999.44018554688 
 21 
 7206.83203125 
 31 
 0 
 0 
LINE
 10 
 2999.44018554688 
 20 
 7206.83203125 
 30 
 0 
 11 
 2992 
 21 
 7211 
 31 
 0 
 0 
LINE
 10 
 2992 
 20 
 7211 
 30 
 0 
 11 
 2974.97583007813 
 21 
 7219.23193359375 
 31 
 0 
 0 
LINE
 10 
 2974.97583007813 
 20 
 7219.23193359375 
 30 
 0 
 11 
 2965.96801757813 
 21 
 7217.81640625 
 31 
 0 
 0 
LINE
 10 
 2965.96801757813 
 20 
 7217.81640625 
 30 
 0 
 11 
 2965.07177734375 
 21 
 7207.18408203125 
 31 
 0 
 0 
LINE
 10 
 2965.07177734375 
 20 
 7207.18408203125 
 30 
 0 
 11 
 2972.38403320313 
 21 
 7187.76806640625 
 31 
 0 
 0 
LINE
 10 
 2972.38403320313 
 20 
 7187.76806640625 
 30 
 0 
 11 
 2988 
 21 
 7160 
 31 
 0 
 0 
LINE
 10 
 2988 
 20 
 7160 
 30 
 0 
 11 
 3000.78393554688 
 21 
 7139.0556640625 
 31 
 0 
 0 
LINE
 10 
 3000.78393554688 
 20 
 7139.0556640625 
 30 
 0 
 11 
 3008.19189453125 
 21 
 7124.68798828125 
 31 
 0 
 0 
LINE
 10 
 3008.19189453125 
 20 
 7124.68798828125 
 30 
 0 
 11 
 3010.60815429688 
 21 
 7115.79248046875 
 31 
 0 
 0 
LINE
 10 
 3010.60815429688 
 20 
 7115.79248046875 
 30 
 0 
 11 
 3008.416015625 
 21 
 7111.26416015625 
 31 
 0 
 0 
LINE
 10 
 3008.416015625 
 20 
 7111.26416015625 
 30 
 0 
 11 
 3002 
 21 
 7110 
 31 
 0 
 0 
LINE
 10 
 3002 
 20 
 7110 
 30 
 0 
 11 
 2995.74389648438 
 21 
 7111.3759765625 
 31 
 0 
 0 
LINE
 10 
 2995.74389648438 
 20 
 7111.3759765625 
 30 
 0 
 11 
 2988.19213867188 
 21 
 7115.248046875 
 31 
 0 
 0 
LINE
 10 
 2988.19213867188 
 20 
 7115.248046875 
 30 
 0 
 11 
 2979.96801757813 
 21 
 7121.23193359375 
 31 
 0 
 0 
LINE
 10 
 2979.96801757813 
 20 
 7121.23193359375 
 30 
 0 
 11 
 2971.69604492188 
 21 
 7128.9443359375 
 31 
 0 
 0 
LINE
 10 
 2971.69604492188 
 20 
 7128.9443359375 
 30 
 0 
 11 
 2964 
 21 
 7138 
 31 
 0 
 0 
LINE
 10 
 2964 
 20 
 7138 
 30 
 0 
 11 
 2954.01611328125 
 21 
 7148.95947265625 
 31 
 0 
 0 
LINE
 10 
 2954.01611328125 
 20 
 7148.95947265625 
 30 
 0 
 11 
 2946.2880859375 
 21 
 7155.6005859375 
 31 
 0 
 0 
LINE
 10 
 2946.2880859375 
 20 
 7155.6005859375 
 30 
 0 
 11 
 2939.95190429688 
 21 
 7158.16015625 
 31 
 0 
 0 
LINE
 10 
 2939.95190429688 
 20 
 7158.16015625 
 30 
 0 
 11 
 2934.14404296875 
 21 
 7156.8798828125 
 31 
 0 
 0 
LINE
 10 
 2934.14404296875 
 20 
 7156.8798828125 
 30 
 0 
 11 
 2928 
 21 
 7152 
 31 
 0 
 0 
LINE
 10 
 2928 
 20 
 7152 
 30 
 0 
 11 
 2922.99194335938 
 21 
 7145.423828125 
 31 
 0 
 0 
LINE
 10 
 2922.99194335938 
 20 
 7145.423828125 
 30 
 0 
 11 
 2921.29614257813 
 21 
 7138.0322265625 
 31 
 0 
 0 
LINE
 10 
 2921.29614257813 
 20 
 7138.0322265625 
 30 
 0 
 11 
 2923.10400390625 
 21 
 7128.52783203125 
 31 
 0 
 0 
LINE
 10 
 2923.10400390625 
 20 
 7128.52783203125 
 30 
 0 
 11 
 2928.60791015625 
 21 
 7115.6162109375 
 31 
 0 
 0 
LINE
 10 
 2928.60791015625 
 20 
 7115.6162109375 
 30 
 0 
 11 
 2938 
 21 
 7098 
 31 
 0 
 0 
LINE
 10 
 2938 
 20 
 7098 
 30 
 0 
 11 
 2944.77587890625 
 21 
 7084.6875 
 31 
 0 
 0 
LINE
 10 
 2944.77587890625 
 20 
 7084.6875 
 30 
 0 
 11 
 2950.4482421875 
 21 
 7072.8642578125 
 31 
 0 
 0 
LINE
 10 
 2950.4482421875 
 20 
 7072.8642578125 
 30 
 0 
 11 
 2954.63208007813 
 21 
 7063.2958984375 
 31 
 0 
 0 
LINE
 10 
 2954.63208007813 
 20 
 7063.2958984375 
 30 
 0 
 11 
 2956.94409179688 
 21 
 7056.751953125 
 31 
 0 
 0 
LINE
 10 
 2956.94409179688 
 20 
 7056.751953125 
 30 
 0 
 11 
 2957 
 21 
 7054 
 31 
 0 
 0 
LINE
 10 
 2957 
 20 
 7054 
 30 
 0 
 11 
 2951.93603515625 
 21 
 7053.95166015625 
 31 
 0 
 0 
LINE
 10 
 2951.93603515625 
 20 
 7053.95166015625 
 30 
 0 
 11 
 2940.00805664063 
 21 
 7056.01611328125 
 31 
 0 
 0 
LINE
 10 
 2940.00805664063 
 20 
 7056.01611328125 
 30 
 0 
 11 
 2922.51196289063 
 21 
 7059.904296875 
 31 
 0 
 0 
LINE
 10 
 2922.51196289063 
 20 
 7059.904296875 
 30 
 0 
 11 
 2900.74389648438 
 21 
 7065.328125 
 31 
 0 
 0 
LINE
 10 
 2900.74389648438 
 20 
 7065.328125 
 30 
 0 
 11 
 2876 
 21 
 7072 
 31 
 0 
 0 
LINE
 10 
 2876 
 20 
 7072 
 30 
 0 
 11 
 2798 
 21 
 7094 
 31 
 0 
 0 
LINE
 10 
 2798 
 20 
 7094 
 30 
 0 
 11 
 2805 
 21 
 7139 
 31 
 0 
 0 
LINE
 10 
 2805 
 20 
 7139 
 30 
 0 
 11 
 2810.81567382813 
 21 
 7170.9833984375 
 31 
 0 
 0 
LINE
 10 
 2810.81567382813 
 20 
 7170.9833984375 
 30 
 0 
 11 
 2818.16796875 
 21 
 7193.751953125 
 31 
 0 
 0 
LINE
 10 
 2818.16796875 
 20 
 7193.751953125 
 30 
 0 
 11 
 2828.11206054688 
 21 
 7209.1279296875 
 31 
 0 
 0 
LINE
 10 
 2828.11206054688 
 20 
 7209.1279296875 
 30 
 0 
 11 
 2841.7041015625 
 21 
 7218.93603515625 
 31 
 0 
 0 
LINE
 10 
 2841.7041015625 
 20 
 7218.93603515625 
 30 
 0 
 11 
 2860 
 21 
 7225 
 31 
 0 
 0 
LINE
 10 
 2860 
 20 
 7225 
 30 
 0 
 11 
 2870.416015625 
 21 
 7227.97607421875 
 31 
 0 
 0 
LINE
 10 
 2870.416015625 
 20 
 7227.97607421875 
 30 
 0 
 11 
 2878.76806640625 
 21 
 7232.0078125 
 31 
 0 
 0 
LINE
 10 
 2878.76806640625 
 20 
 7232.0078125 
 30 
 0 
 11 
 2884.91186523438 
 21 
 7236.9521484375 
 31 
 0 
 0 
LINE
 10 
 2884.91186523438 
 20 
 7236.9521484375 
 30 
 0 
 11 
 2888.7041015625 
 21 
 7242.6640625 
 31 
 0 
 0 
LINE
 10 
 2888.7041015625 
 20 
 7242.6640625 
 30 
 0 
 11 
 2890 
 21 
 7249 
 31 
 0 
 0 
LINE
 10 
 2890 
 20 
 7249 
 30 
 0 
 11 
 2892.0478515625 
 21 
 7256.16796875 
 31 
 0 
 0 
LINE
 10 
 2892.0478515625 
 20 
 7256.16796875 
 30 
 0 
 11 
 2897.744140625 
 21 
 7266.26416015625 
 31 
 0 
 0 
LINE
 10 
 2897.744140625 
 20 
 7266.26416015625 
 30 
 0 
 11 
 2906.416015625 
 21 
 7278.3759765625 
 31 
 0 
 0 
LINE
 10 
 2906.416015625 
 20 
 7278.3759765625 
 30 
 0 
 11 
 2917.39208984375 
 21 
 7291.59228515625 
 31 
 0 
 0 
LINE
 10 
 2917.39208984375 
 20 
 7291.59228515625 
 30 
 0 
 11 
 2930 
 21 
 7305 
 31 
 0 
 0 
LINE
 10 
 2930 
 20 
 7305 
 30 
 0 
 11 
 2943.01586914063 
 21 
 7318.82373046875 
 31 
 0 
 0 
LINE
 10 
 2943.01586914063 
 20 
 7318.82373046875 
 30 
 0 
 11 
 2956.12817382813 
 21 
 7334.23193359375 
 31 
 0 
 0 
LINE
 10 
 2956.12817382813 
 20 
 7334.23193359375 
 30 
 0 
 11 
 2968.23193359375 
 21 
 7349.92822265625 
 31 
 0 
 0 
LINE
 10 
 2968.23193359375 
 20 
 7349.92822265625 
 30 
 0 
 11 
 2978.22412109375 
 21 
 7364.6162109375 
 31 
 0 
 0 
LINE
 10 
 2978.22412109375 
 20 
 7364.6162109375 
 30 
 0 
 11 
 2985 
 21 
 7377 
 31 
 0 
 0 
LINE
 10 
 2985 
 20 
 7377 
 30 
 0 
 11 
 2998.81591796875 
 21 
 7398.5673828125 
 31 
 0 
 0 
LINE
 10 
 2998.81591796875 
 20 
 7398.5673828125 
 30 
 0 
 11 
 3017.76806640625 
 21 
 7418.26416015625 
 31 
 0 
 0 
LINE
 10 
 3017.76806640625 
 20 
 7418.26416015625 
 30 
 0 
 11 
 3040.51196289063 
 21 
 7435.17578125 
 31 
 0 
 0 
LINE
 10 
 3040.51196289063 
 20 
 7435.17578125 
 30 
 0 
 11 
 3065.7041015625 
 21 
 7448.39208984375 
 31 
 0 
 0 
LINE
 10 
 3065.7041015625 
 20 
 7448.39208984375 
 30 
 0 
 11 
 3092 
 21 
 7457 
 31 
 0 
 0 
LINE
 10 
 3092 
 20 
 7457 
 30 
 0 
 11 
 3114.11181640625 
 21 
 7464.9599609375 
 31 
 0 
 0 
LINE
 10 
 3114.11181640625 
 20 
 7464.9599609375 
 30 
 0 
 11 
 3135.4560546875 
 21 
 7478.68017578125 
 31 
 0 
 0 
LINE
 10 
 3135.4560546875 
 20 
 7478.68017578125 
 30 
 0 
 11 
 3153.34399414063 
 21 
 7495.5205078125 
 31 
 0 
 0 
LINE
 10 
 3153.34399414063 
 20 
 7495.5205078125 
 30 
 0 
 11 
 3165.08813476563 
 21 
 7512.84033203125 
 31 
 0 
 0 
LINE
 10 
 3165.08813476563 
 20 
 7512.84033203125 
 30 
 0 
 11 
 3168 
 21 
 7528 
 31 
 0 
 0 
LINE
 10 
 3168 
 20 
 7528 
 30 
 0 
 11 
 3169.84790039063 
 21 
 7539.93603515625 
 31 
 0 
 0 
LINE
 10 
 3169.84790039063 
 20 
 7539.93603515625 
 30 
 0 
 11 
 3178.46411132813 
 21 
 7553.6484375 
 31 
 0 
 0 
LINE
 10 
 3178.46411132813 
 20 
 7553.6484375 
 30 
 0 
 11 
 3191.255859375 
 21 
 7566.59228515625 
 31 
 0 
 0 
LINE
 10 
 3191.255859375 
 20 
 7566.59228515625 
 30 
 0 
 11 
 3205.63208007813 
 21 
 7576.22412109375 
 31 
 0 
 0 
LINE
 10 
 3205.63208007813 
 20 
 7576.22412109375 
 30 
 0 
 11 
 3219 
 21 
 7580 
 31 
 0 
 0 
LINE
 10 
 3219 
 20 
 7580 
 30 
 0 
 11 
 3224.15991210938 
 21 
 7581.58349609375 
 31 
 0 
 0 
LINE
 10 
 3224.15991210938 
 20 
 7581.58349609375 
 30 
 0 
 11 
 3231.9599609375 
 21 
 7585.9521484375 
 31 
 0 
 0 
LINE
 10 
 3231.9599609375 
 20 
 7585.9521484375 
 30 
 0 
 11 
 3241.68017578125 
 21 
 7592.5283203125 
 31 
 0 
 0 
LINE
 10 
 3241.68017578125 
 20 
 7592.5283203125 
 30 
 0 
 11 
 3252.60009765625 
 21 
 7600.736328125 
 31 
 0 
 0 
LINE
 10 
 3252.60009765625 
 20 
 7600.736328125 
 30 
 0 
 11 
 3264 
 21 
 7610 
 31 
 0 
 0 
LINE
 10 
 3264 
 20 
 7610 
 30 
 0 
 11 
 3279.66381835938 
 21 
 7622.328125 
 31 
 0 
 0 
LINE
 10 
 3279.66381835938 
 20 
 7622.328125 
 30 
 0 
 11 
 3296.19189453125 
 21 
 7632.06396484375 
 31 
 0 
 0 
LINE
 10 
 3296.19189453125 
 20 
 7632.06396484375 
 30 
 0 
 11 
 3314.68798828125 
 21 
 7639.73583984375 
 31 
 0 
 0 
LINE
 10 
 3314.68798828125 
 20 
 7639.73583984375 
 30 
 0 
 11 
 3336.25610351563 
 21 
 7645.8720703125 
 31 
 0 
 0 
LINE
 10 
 3336.25610351563 
 20 
 7645.8720703125 
 30 
 0 
 11 
 3362 
 21 
 7651 
 31 
 0 
 0 
LINE
 10 
 3362 
 20 
 7651 
 30 
 0 
 11 
 3383.248046875 
 21 
 7655.24755859375 
 31 
 0 
 0 
LINE
 10 
 3383.248046875 
 20 
 7655.24755859375 
 30 
 0 
 11 
 3404.06420898438 
 21 
 7660.50439453125 
 31 
 0 
 0 
LINE
 10 
 3404.06420898438 
 20 
 7660.50439453125 
 30 
 0 
 11 
 3423.05590820313 
 21 
 7666.33642578125 
 31 
 0 
 0 
LINE
 10 
 3423.05590820313 
 20 
 7666.33642578125 
 30 
 0 
 11 
 3438.83203125 
 21 
 7672.31201171875 
 31 
 0 
 0 
LINE
 10 
 3438.83203125 
 20 
 7672.31201171875 
 30 
 0 
 11 
 3450 
 21 
 7678 
 31 
 0 
 0 
LINE
 10 
 3450 
 20 
 7678 
 30 
 0 
 11 
 3479.40771484375 
 21 
 7694.69580078125 
 31 
 0 
 0 
LINE
 10 
 3479.40771484375 
 20 
 7694.69580078125 
 30 
 0 
 11 
 3515.82397460938 
 21 
 7711.0078125 
 31 
 0 
 0 
LINE
 10 
 3515.82397460938 
 20 
 7711.0078125 
 30 
 0 
 11 
 3553.53588867188 
 21 
 7724.87255859375 
 31 
 0 
 0 
LINE
 10 
 3553.53588867188 
 20 
 7724.87255859375 
 30 
 0 
 11 
 3586.83203125 
 21 
 7734.22412109375 
 31 
 0 
 0 
LINE
 10 
 3586.83203125 
 20 
 7734.22412109375 
 30 
 0 
 11 
 3610 
 21 
 7737 
 31 
 0 
 0 
LINE
 10 
 3610 
 20 
 7737 
 30 
 0 
 11 
 3618.47973632813 
 21 
 7735.60009765625 
 31 
 0 
 0 
LINE
 10 
 3618.47973632813 
 20 
 7735.60009765625 
 30 
 0 
 11 
 3625.76000976563 
 21 
 7732.76025390625 
 31 
 0 
 0 
LINE
 10 
 3625.76000976563 
 20 
 7732.76025390625 
 30 
 0 
 11 
 3631.60009765625 
 21 
 7728.72021484375 
 31 
 0 
 0 
LINE
 10 
 3631.60009765625 
 20 
 7728.72021484375 
 30 
 0 
 11 
 3635.76000976563 
 21 
 7723.72021484375 
 31 
 0 
 0 
LINE
 10 
 3635.76000976563 
 20 
 7723.72021484375 
 30 
 0 
 11 
 3638 
 21 
 7718 
 31 
 0 
 0 
LINE
 10 
 1883 
 20 
 7151 
 30 
 0 
 11 
 1885.15197753906 
 21 
 7140.81591796875 
 31 
 0 
 0 
LINE
 10 
 1885.15197753906 
 20 
 7140.81591796875 
 30 
 0 
 11 
 1881.01599121094 
 21 
 7125.2080078125 
 31 
 0 
 0 
LINE
 10 
 1881.01599121094 
 20 
 7125.2080078125 
 30 
 0 
 11 
 1872.70397949219 
 21 
 7108.591796875 
 31 
 0 
 0 
LINE
 10 
 1872.70397949219 
 20 
 7108.591796875 
 30 
 0 
 11 
 1862.32800292969 
 21 
 7095.38427734375 
 31 
 0 
 0 
LINE
 10 
 1862.32800292969 
 20 
 7095.38427734375 
 30 
 0 
 11 
 1852 
 21 
 7090 
 31 
 0 
 0 
LINE
 10 
 1852 
 20 
 7090 
 30 
 0 
 11 
 1847.49597167969 
 21 
 7091.37548828125 
 31 
 0 
 0 
LINE
 10 
 1847.49597167969 
 20 
 7091.37548828125 
 30 
 0 
 11 
 1842.60803222656 
 21 
 7095.248046875 
 31 
 0 
 0 
LINE
 10 
 1842.60803222656 
 20 
 7095.248046875 
 30 
 0 
 11 
 1837.67199707031 
 21 
 7101.232421875 
 31 
 0 
 0 
LINE
 10 
 1837.67199707031 
 20 
 7101.232421875 
 30 
 0 
 11 
 1833.02404785156 
 21 
 7108.94384765625 
 31 
 0 
 0 
LINE
 10 
 1833.02404785156 
 20 
 7108.94384765625 
 30 
 0 
 11 
 1829 
 21 
 7118 
 31 
 0 
 0 
LINE
 10 
 1829 
 20 
 7118 
 30 
 0 
 11 
 1823.82397460938 
 21 
 7129.69580078125 
 31 
 0 
 0 
LINE
 10 
 1823.82397460938 
 20 
 7129.69580078125 
 30 
 0 
 11 
 1819.75207519531 
 21 
 7136.2080078125 
 31 
 0 
 0 
LINE
 10 
 1819.75207519531 
 20 
 7136.2080078125 
 30 
 0 
 11 
 1815.96801757813 
 21 
 7137.87158203125 
 31 
 0 
 0 
LINE
 10 
 1815.96801757813 
 20 
 7137.87158203125 
 30 
 0 
 11 
 1811.65600585938 
 21 
 7135.0244140625 
 31 
 0 
 0 
LINE
 10 
 1811.65600585938 
 20 
 7135.0244140625 
 30 
 0 
 11 
 1806 
 21 
 7128 
 31 
 0 
 0 
LINE
 10 
 1806 
 20 
 7128 
 30 
 0 
 11 
 1801.38391113281 
 21 
 7120.607421875 
 31 
 0 
 0 
LINE
 10 
 1801.38391113281 
 20 
 7120.607421875 
 30 
 0 
 11 
 1796.19213867188 
 21 
 7109.904296875 
 31 
 0 
 0 
LINE
 10 
 1796.19213867188 
 20 
 7109.904296875 
 30 
 0 
 11 
 1790.80810546875 
 21 
 7096.89599609375 
 31 
 0 
 0 
LINE
 10 
 1790.80810546875 
 20 
 7096.89599609375 
 30 
 0 
 11 
 1785.61608886719 
 21 
 7082.59228515625 
 31 
 0 
 0 
LINE
 10 
 1785.61608886719 
 20 
 7082.59228515625 
 30 
 0 
 11 
 1781 
 21 
 7068 
 31 
 0 
 0 
LINE
 10 
 1781 
 20 
 7068 
 30 
 0 
 11 
 1741.52795410156 
 21 
 6932.89599609375 
 31 
 0 
 0 
LINE
 10 
 1741.52795410156 
 20 
 6932.89599609375 
 30 
 0 
 11 
 1711.46411132813 
 21 
 6844.2080078125 
 31 
 0 
 0 
LINE
 10 
 1711.46411132813 
 20 
 6844.2080078125 
 30 
 0 
 11 
 1682.93603515625 
 21 
 6785.47216796875 
 31 
 0 
 0 
LINE
 10 
 1682.93603515625 
 20 
 6785.47216796875 
 30 
 0 
 11 
 1648.07202148438 
 21 
 6740.22412109375 
 31 
 0 
 0 
LINE
 10 
 1648.07202148438 
 20 
 6740.22412109375 
 30 
 0 
 11 
 1599 
 21 
 6692 
 31 
 0 
 0 
LINE
 10 
 1599 
 20 
 6692 
 30 
 0 
 11 
 1574.27197265625 
 21 
 6668.0078125 
 31 
 0 
 0 
LINE
 10 
 1574.27197265625 
 20 
 6668.0078125 
 30 
 0 
 11 
 1552.61608886719 
 21 
 6646.22412109375 
 31 
 0 
 0 
LINE
 10 
 1552.61608886719 
 20 
 6646.22412109375 
 30 
 0 
 11 
 1535.42407226563 
 21 
 6628.1357421875 
 31 
 0 
 0 
LINE
 10 
 1535.42407226563 
 20 
 6628.1357421875 
 30 
 0 
 11 
 1524.08801269531 
 21 
 6615.23193359375 
 31 
 0 
 0 
LINE
 10 
 1524.08801269531 
 20 
 6615.23193359375 
 30 
 0 
 11 
 1520 
 21 
 6609 
 31 
 0 
 0 
LINE
 10 
 1520 
 20 
 6609 
 30 
 0 
 11 
 1524.03991699219 
 21 
 6603.35205078125 
 31 
 0 
 0 
LINE
 10 
 1524.03991699219 
 20 
 6603.35205078125 
 30 
 0 
 11 
 1534.56005859375 
 21 
 6600.7763671875 
 31 
 0 
 0 
LINE
 10 
 1534.56005859375 
 20 
 6600.7763671875 
 30 
 0 
 11 
 1549.15991210938 
 21 
 6601.22412109375 
 31 
 0 
 0 
LINE
 10 
 1549.15991210938 
 20 
 6601.22412109375 
 30 
 0 
 11 
 1565.44006347656 
 21 
 6604.64794921875 
 31 
 0 
 0 
LINE
 10 
 1565.44006347656 
 20 
 6604.64794921875 
 30 
 0 
 11 
 1581 
 21 
 6611 
 31 
 0 
 0 
LINE
 10 
 1581 
 20 
 6611 
 30 
 0 
 11 
 1587.88000488281 
 21 
 6614.11962890625 
 31 
 0 
 0 
LINE
 10 
 1587.88000488281 
 20 
 6614.11962890625 
 30 
 0 
 11 
 1595.00012207031 
 21 
 6616.27978515625 
 31 
 0 
 0 
LINE
 10 
 1595.00012207031 
 20 
 6616.27978515625 
 30 
 0 
 11 
 1601.88012695313 
 21 
 6617.47998046875 
 31 
 0 
 0 
LINE
 10 
 1601.88012695313 
 20 
 6617.47998046875 
 30 
 0 
 11 
 1608.0400390625 
 21 
 6617.72021484375 
 31 
 0 
 0 
LINE
 10 
 1608.0400390625 
 20 
 6617.72021484375 
 30 
 0 
 11 
 1613 
 21 
 6617 
 31 
 0 
 0 
LINE
 10 
 1613 
 20 
 6617 
 30 
 0 
 11 
 1614.09594726563 
 21 
 6614.0712890625 
 31 
 0 
 0 
LINE
 10 
 1614.09594726563 
 20 
 6614.0712890625 
 30 
 0 
 11 
 1609.52807617188 
 21 
 6609.17578125 
 31 
 0 
 0 
LINE
 10 
 1609.52807617188 
 20 
 6609.17578125 
 30 
 0 
 11 
 1600.11193847656 
 21 
 6602.74365234375 
 31 
 0 
 0 
LINE
 10 
 1600.11193847656 
 20 
 6602.74365234375 
 30 
 0 
 11 
 1586.6640625 
 21 
 6595.2080078125 
 31 
 0 
 0 
LINE
 10 
 1586.6640625 
 20 
 6595.2080078125 
 30 
 0 
 11 
 1570 
 21 
 6587 
 31 
 0 
 0 
LINE
 10 
 1570 
 20 
 6587 
 30 
 0 
 11 
 1530.09594726563 
 21 
 6563.07958984375 
 31 
 0 
 0 
LINE
 10 
 1530.09594726563 
 20 
 6563.07958984375 
 30 
 0 
 11 
 1500.36804199219 
 21 
 6530.76025390625 
 31 
 0 
 0 
LINE
 10 
 1500.36804199219 
 20 
 6530.76025390625 
 30 
 0 
 11 
 1478.99206542969 
 21 
 6486.2001953125 
 31 
 0 
 0 
LINE
 10 
 1478.99206542969 
 20 
 6486.2001953125 
 30 
 0 
 11 
 1464.14404296875 
 21 
 6425.56005859375 
 31 
 0 
 0 
LINE
 10 
 1464.14404296875 
 20 
 6425.56005859375 
 30 
 0 
 11 
 1454 
 21 
 6345 
 31 
 0 
 0 
LINE
 10 
 1454 
 20 
 6345 
 30 
 0 
 11 
 1450.35192871094 
 21 
 6302.83984375 
 31 
 0 
 0 
LINE
 10 
 1450.35192871094 
 20 
 6302.83984375 
 30 
 0 
 11 
 1447.61596679688 
 21 
 6266.43994140625 
 31 
 0 
 0 
LINE
 10 
 1447.61596679688 
 20 
 6266.43994140625 
 30 
 0 
 11 
 1445.50402832031 
 21 
 6230.52001953125 
 31 
 0 
 0 
LINE
 10 
 1445.50402832031 
 20 
 6230.52001953125 
 30 
 0 
 11 
 1443.72802734375 
 21 
 6189.80029296875 
 31 
 0 
 0 
LINE
 10 
 1443.72802734375 
 20 
 6189.80029296875 
 30 
 0 
 11 
 1442 
 21 
 6139 
 31 
 0 
 0 
LINE
 10 
 1442 
 20 
 6139 
 30 
 0 
 11 
 1440.47985839844 
 21 
 6119.38330078125 
 31 
 0 
 0 
LINE
 10 
 1440.47985839844 
 20 
 6119.38330078125 
 30 
 0 
 11 
 1438 
 21 
 6105.43212890625 
 31 
 0 
 0 
LINE
 10 
 1438 
 20 
 6105.43212890625 
 30 
 0 
 11 
 1434.07995605469 
 21 
 6096.087890625 
 31 
 0 
 0 
LINE
 10 
 1434.07995605469 
 20 
 6096.087890625 
 30 
 0 
 11 
 1428.23999023438 
 21 
 6090.2958984375 
 31 
 0 
 0 
LINE
 10 
 1428.23999023438 
 20 
 6090.2958984375 
 30 
 0 
 11 
 1420 
 21 
 6087 
 31 
 0 
 0 
LINE
 10 
 1420 
 20 
 6087 
 30 
 0 
 11 
 1406.90405273438 
 21 
 6080.65576171875 
 31 
 0 
 0 
LINE
 10 
 1406.90405273438 
 20 
 6080.65576171875 
 30 
 0 
 11 
 1401.15209960938 
 21 
 6071.04833984375 
 31 
 0 
 0 
LINE
 10 
 1401.15209960938 
 20 
 6071.04833984375 
 30 
 0 
 11 
 1402.64807128906 
 21 
 6059.7119140625 
 31 
 0 
 0 
LINE
 10 
 1402.64807128906 
 20 
 6059.7119140625 
 30 
 0 
 11 
 1411.29602050781 
 21 
 6048.18408203125 
 31 
 0 
 0 
LINE
 10 
 1411.29602050781 
 20 
 6048.18408203125 
 30 
 0 
 11 
 1427 
 21 
 6038 
 31 
 0 
 0 
LINE
 10 
 1427 
 20 
 6038 
 30 
 0 
 11 
 1442.43994140625 
 21 
 6025.87158203125 
 31 
 0 
 0 
LINE
 10 
 1442.43994140625 
 20 
 6025.87158203125 
 30 
 0 
 11 
 1455.48010253906 
 21 
 6005.2958984375 
 31 
 0 
 0 
LINE
 10 
 1455.48010253906 
 20 
 6005.2958984375 
 30 
 0 
 11 
 1466.59997558594 
 21 
 5974.78369140625 
 31 
 0 
 0 
LINE
 10 
 1466.59997558594 
 20 
 5974.78369140625 
 30 
 0 
 11 
 1476.28002929688 
 21 
 5932.84814453125 
 31 
 0 
 0 
LINE
 10 
 1476.28002929688 
 20 
 5932.84814453125 
 30 
 0 
 11 
 1485 
 21 
 5878 
 31 
 0 
 0 
LINE
 10 
 1485 
 20 
 5878 
 30 
 0 
 11 
 1492 
 21 
 5827 
 31 
 0 
 0 
LINE
 10 
 1492 
 20 
 5827 
 30 
 0 
 11 
 1459 
 21 
 5851 
 31 
 0 
 0 
LINE
 10 
 1459 
 20 
 5851 
 30 
 0 
 11 
 1395.93603515625 
 21 
 5898.1279296875 
 31 
 0 
 0 
LINE
 10 
 1395.93603515625 
 20 
 5898.1279296875 
 30 
 0 
 11 
 1344.72802734375 
 21 
 5944.82421875 
 31 
 0 
 0 
LINE
 10 
 1344.72802734375 
 20 
 5944.82421875 
 30 
 0 
 11 
 1303.55200195313 
 21 
 5993.05615234375 
 31 
 0 
 0 
LINE
 10 
 1303.55200195313 
 20 
 5993.05615234375 
 30 
 0 
 11 
 1270.583984375 
 21 
 6044.7919921875 
 31 
 0 
 0 
LINE
 10 
 1270.583984375 
 20 
 6044.7919921875 
 30 
 0 
 11 
 1244 
 21 
 6102 
 31 
 0 
 0 
LINE
 10 
 1244 
 20 
 6102 
 30 
 0 
 11 
 1230.19995117188 
 21 
 6141.53564453125 
 31 
 0 
 0 
LINE
 10 
 1230.19995117188 
 20 
 6141.53564453125 
 30 
 0 
 11 
 1222.40002441406 
 21 
 6174.20849609375 
 31 
 0 
 0 
LINE
 10 
 1222.40002441406 
 20 
 6174.20849609375 
 30 
 0 
 11 
 1220.59997558594 
 21 
 6198.912109375 
 31 
 0 
 0 
LINE
 10 
 1220.59997558594 
 20 
 6198.912109375 
 30 
 0 
 11 
 1224.80004882813 
 21 
 6214.54443359375 
 31 
 0 
 0 
LINE
 10 
 1224.80004882813 
 20 
 6214.54443359375 
 30 
 0 
 11 
 1235 
 21 
 6220 
 31 
 0 
 0 
LINE
 10 
 1235 
 20 
 6220 
 30 
 0 
 11 
 1247.78393554688 
 21 
 6224.27197265625 
 31 
 0 
 0 
LINE
 10 
 1247.78393554688 
 20 
 6224.27197265625 
 30 
 0 
 11 
 1257.83203125 
 21 
 6235.45654296875 
 31 
 0 
 0 
LINE
 10 
 1257.83203125 
 20 
 6235.45654296875 
 30 
 0 
 11 
 1264.08801269531 
 21 
 6251.1044921875 
 31 
 0 
 0 
LINE
 10 
 1264.08801269531 
 20 
 6251.1044921875 
 30 
 0 
 11 
 1265.49609375 
 21 
 6268.76806640625 
 31 
 0 
 0 
LINE
 10 
 1265.49609375 
 20 
 6268.76806640625 
 30 
 0 
 11 
 1261 
 21 
 6286 
 31 
 0 
 0 
LINE
 10 
 1261 
 20 
 6286 
 30 
 0 
 11 
 1255.77600097656 
 21 
 6295.40771484375 
 31 
 0 
 0 
LINE
 10 
 1255.77600097656 
 20 
 6295.40771484375 
 30 
 0 
 11 
 1249.44799804688 
 21 
 6302.22412109375 
 31 
 0 
 0 
LINE
 10 
 1249.44799804688 
 20 
 6302.22412109375 
 30 
 0 
 11 
 1241.63208007813 
 21 
 6306.73583984375 
 31 
 0 
 0 
LINE
 10 
 1241.63208007813 
 20 
 6306.73583984375 
 30 
 0 
 11 
 1231.94409179688 
 21 
 6309.23193359375 
 31 
 0 
 0 
LINE
 10 
 1231.94409179688 
 20 
 6309.23193359375 
 30 
 0 
 11 
 1220 
 21 
 6310 
 31 
 0 
 0 
LINE
 10 
 1220 
 20 
 6310 
 30 
 0 
 11 
 1206.31994628906 
 21 
 6310.3037109375 
 31 
 0 
 0 
LINE
 10 
 1206.31994628906 
 20 
 6310.3037109375 
 30 
 0 
 11 
 1198.40002441406 
 21 
 6311.9521484375 
 31 
 0 
 0 
LINE
 10 
 1198.40002441406 
 20 
 6311.9521484375 
 30 
 0 
 11 
 1195.52001953125 
 21 
 6316.04833984375 
 31 
 0 
 0 
LINE
 10 
 1195.52001953125 
 20 
 6316.04833984375 
 30 
 0 
 11 
 1196.96008300781 
 21 
 6323.6962890625 
 31 
 0 
 0 
LINE
 10 
 1196.96008300781 
 20 
 6323.6962890625 
 30 
 0 
 11 
 1202 
 21 
 6336 
 31 
 0 
 0 
LINE
 10 
 1202 
 20 
 6336 
 30 
 0 
 11 
 1207.31201171875 
 21 
 6344.767578125 
 31 
 0 
 0 
LINE
 10 
 1207.31201171875 
 20 
 6344.767578125 
 30 
 0 
 11 
 1214.49609375 
 21 
 6353.82373046875 
 31 
 0 
 0 
LINE
 10 
 1214.49609375 
 20 
 6353.82373046875 
 30 
 0 
 11 
 1223.02392578125 
 21 
 6362.49609375 
 31 
 0 
 0 
LINE
 10 
 1223.02392578125 
 20 
 6362.49609375 
 30 
 0 
 11 
 1232.36804199219 
 21 
 6370.1123046875 
 31 
 0 
 0 
LINE
 10 
 1232.36804199219 
 20 
 6370.1123046875 
 30 
 0 
 11 
 1242 
 21 
 6376 
 31 
 0 
 0 
LINE
 10 
 1242 
 20 
 6376 
 30 
 0 
 11 
 1251.47998046875 
 21 
 6382 
 31 
 0 
 0 
LINE
 10 
 1251.47998046875 
 20 
 6382 
 30 
 0 
 11 
 1261.44006347656 
 21 
 6389.919921875 
 31 
 0 
 0 
LINE
 10 
 1261.44006347656 
 20 
 6389.919921875 
 30 
 0 
 11 
 1271.16003417969 
 21 
 6399.0400390625 
 31 
 0 
 0 
LINE
 10 
 1271.16003417969 
 20 
 6399.0400390625 
 30 
 0 
 11 
 1279.92004394531 
 21 
 6408.64013671875 
 31 
 0 
 0 
LINE
 10 
 1279.92004394531 
 20 
 6408.64013671875 
 30 
 0 
 11 
 1287 
 21 
 6418 
 31 
 0 
 0 
LINE
 10 
 1287 
 20 
 6418 
 30 
 0 
 11 
 1293.47204589844 
 21 
 6427.93603515625 
 31 
 0 
 0 
LINE
 10 
 1293.47204589844 
 20 
 6427.93603515625 
 30 
 0 
 11 
 1301.57592773438 
 21 
 6439.16845703125 
 31 
 0 
 0 
LINE
 10 
 1301.57592773438 
 20 
 6439.16845703125 
 30 
 0 
 11 
 1310.54406738281 
 21 
 6450.83203125 
 31 
 0 
 0 
LINE
 10 
 1310.54406738281 
 20 
 6450.83203125 
 30 
 0 
 11 
 1319.60803222656 
 21 
 6462.06396484375 
 31 
 0 
 0 
LINE
 10 
 1319.60803222656 
 20 
 6462.06396484375 
 30 
 0 
 11 
 1328 
 21 
 6472 
 31 
 0 
 0 
LINE
 10 
 1328 
 20 
 6472 
 30 
 0 
 11 
 1345.30395507813 
 21 
 6499.1201171875 
 31 
 0 
 0 
LINE
 10 
 1345.30395507813 
 20 
 6499.1201171875 
 30 
 0 
 11 
 1340.912109375 
 21 
 6515.2001953125 
 31 
 0 
 0 
LINE
 10 
 1340.912109375 
 20 
 6515.2001953125 
 30 
 0 
 11 
 1318.56799316406 
 21 
 6519.52001953125 
 31 
 0 
 0 
LINE
 10 
 1318.56799316406 
 20 
 6519.52001953125 
 30 
 0 
 11 
 1282.01599121094 
 21 
 6511.3603515625 
 31 
 0 
 0 
LINE
 10 
 1282.01599121094 
 20 
 6511.3603515625 
 30 
 0 
 11 
 1235 
 21 
 6490 
 31 
 0 
 0 
LINE
 10 
 1235 
 20 
 6490 
 30 
 0 
 11 
 1180 
 21 
 6460 
 31 
 0 
 0 
LINE
 10 
 1180 
 20 
 6460 
 30 
 0 
 11 
 1175 
 21 
 6482 
 31 
 0 
 0 
LINE
 10 
 1175 
 20 
 6482 
 30 
 0 
 11 
 1174.01599121094 
 21 
 6495.6474609375 
 31 
 0 
 0 
LINE
 10 
 1174.01599121094 
 20 
 6495.6474609375 
 30 
 0 
 11 
 1174.56799316406 
 21 
 6519.42431640625 
 31 
 0 
 0 
LINE
 10 
 1174.56799316406 
 20 
 6519.42431640625 
 30 
 0 
 11 
 1176.51208496094 
 21 
 6550.97607421875 
 31 
 0 
 0 
LINE
 10 
 1176.51208496094 
 20 
 6550.97607421875 
 30 
 0 
 11 
 1179.70397949219 
 21 
 6587.9521484375 
 31 
 0 
 0 
LINE
 10 
 1179.70397949219 
 20 
 6587.9521484375 
 30 
 0 
 11 
 1184 
 21 
 6628 
 31 
 0 
 0 
LINE
 10 
 1184 
 20 
 6628 
 30 
 0 
 11 
 1192.83190917969 
 21 
 6696.40771484375 
 31 
 0 
 0 
LINE
 10 
 1192.83190917969 
 20 
 6696.40771484375 
 30 
 0 
 11 
 1204.01599121094 
 21 
 6745.904296875 
 31 
 0 
 0 
LINE
 10 
 1204.01599121094 
 20 
 6745.904296875 
 30 
 0 
 11 
 1221.58410644531 
 21 
 6785.89599609375 
 31 
 0 
 0 
LINE
 10 
 1221.58410644531 
 20 
 6785.89599609375 
 30 
 0 
 11 
 1249.56799316406 
 21 
 6825.7919921875 
 31 
 0 
 0 
LINE
 10 
 1249.56799316406 
 20 
 6825.7919921875 
 30 
 0 
 11 
 1292 
 21 
 6875 
 31 
 0 
 0 
LINE
 10 
 1292 
 20 
 6875 
 30 
 0 
 11 
 1311.16784667969 
 21 
 6894.8876953125 
 31 
 0 
 0 
LINE
 10 
 1311.16784667969 
 20 
 6894.8876953125 
 30 
 0 
 11 
 1330.6240234375 
 21 
 6911.70361328125 
 31 
 0 
 0 
LINE
 10 
 1330.6240234375 
 20 
 6911.70361328125 
 30 
 0 
 11 
 1350.89599609375 
 21 
 6925.9765625 
 31 
 0 
 0 
LINE
 10 
 1350.89599609375 
 20 
 6925.9765625 
 30 
 0 
 11 
 1372.51208496094 
 21 
 6938.23193359375 
 31 
 0 
 0 
LINE
 10 
 1372.51208496094 
 20 
 6938.23193359375 
 30 
 0 
 11 
 1396 
 21 
 6949 
 31 
 0 
 0 
LINE
 10 
 1396 
 20 
 6949 
 30 
 0 
 11 
 1447.32788085938 
 21 
 6969.6396484375 
 31 
 0 
 0 
LINE
 10 
 1447.32788085938 
 20 
 6969.6396484375 
 30 
 0 
 11 
 1482.86401367188 
 21 
 6985.00048828125 
 31 
 0 
 0 
LINE
 10 
 1482.86401367188 
 20 
 6985.00048828125 
 30 
 0 
 11 
 1506.73596191406 
 21 
 6997.240234375 
 31 
 0 
 0 
LINE
 10 
 1506.73596191406 
 20 
 6997.240234375 
 30 
 0 
 11 
 1523.07202148438 
 21 
 7008.52001953125 
 31 
 0 
 0 
LINE
 10 
 1523.07202148438 
 20 
 7008.52001953125 
 30 
 0 
 11 
 1536 
 21 
 7021 
 31 
 0 
 0 
LINE
 10 
 1536 
 20 
 7021 
 30 
 0 
 11 
 1569.70397949219 
 21 
 7051.39990234375 
 31 
 0 
 0 
LINE
 10 
 1569.70397949219 
 20 
 7051.39990234375 
 30 
 0 
 11 
 1617.47204589844 
 21 
 7085.400390625 
 31 
 0 
 0 
LINE
 10 
 1617.47204589844 
 20 
 7085.400390625 
 30 
 0 
 11 
 1671.28796386719 
 21 
 7118.2001953125 
 31 
 0 
 0 
LINE
 10 
 1671.28796386719 
 20 
 7118.2001953125 
 30 
 0 
 11 
 1723.13598632813 
 21 
 7145 
 31 
 0 
 0 
LINE
 10 
 1723.13598632813 
 20 
 7145 
 30 
 0 
 11 
 1765 
 21 
 7161 
 31 
 0 
 0 
LINE
 10 
 1765 
 20 
 7161 
 30 
 0 
 11 
 1788.69592285156 
 21 
 7164.27978515625 
 31 
 0 
 0 
LINE
 10 
 1788.69592285156 
 20 
 7164.27978515625 
 30 
 0 
 11 
 1817.04797363281 
 21 
 7164.68017578125 
 31 
 0 
 0 
LINE
 10 
 1817.04797363281 
 20 
 7164.68017578125 
 30 
 0 
 11 
 1845.35192871094 
 21 
 7162.43994140625 
 31 
 0 
 0 
LINE
 10 
 1845.35192871094 
 20 
 7162.43994140625 
 30 
 0 
 11 
 1868.90405273438 
 21 
 7157.80029296875 
 31 
 0 
 0 
LINE
 10 
 1868.90405273438 
 20 
 7157.80029296875 
 30 
 0 
 11 
 1883 
 21 
 7151 
 31 
 0 
 0 
LINE
 10 
 2523 
 20 
 7016 
 30 
 0 
 11 
 2533.18383789063 
 21 
 7008.75146484375 
 31 
 0 
 0 
LINE
 10 
 2533.18383789063 
 20 
 7008.75146484375 
 30 
 0 
 11 
 2538.47192382813 
 21 
 6998.81591796875 
 31 
 0 
 0 
LINE
 10 
 2538.47192382813 
 20 
 6998.81591796875 
 30 
 0 
 11 
 2538.76806640625 
 21 
 6985.904296875 
 31 
 0 
 0 
LINE
 10 
 2538.76806640625 
 20 
 6985.904296875 
 30 
 0 
 11 
 2533.97607421875 
 21 
 6969.72802734375 
 31 
 0 
 0 
LINE
 10 
 2533.97607421875 
 20 
 6969.72802734375 
 30 
 0 
 11 
 2524 
 21 
 6950 
 31 
 0 
 0 
LINE
 10 
 2524 
 20 
 6950 
 30 
 0 
 11 
 2514.9521484375 
 21 
 6930.31982421875 
 31 
 0 
 0 
LINE
 10 
 2514.9521484375 
 20 
 6930.31982421875 
 30 
 0 
 11 
 2512.81616210938 
 21 
 6913.76025390625 
 31 
 0 
 0 
LINE
 10 
 2512.81616210938 
 20 
 6913.76025390625 
 30 
 0 
 11 
 2517.30395507813 
 21 
 6901.0400390625 
 31 
 0 
 0 
LINE
 10 
 2517.30395507813 
 20 
 6901.0400390625 
 30 
 0 
 11 
 2528.12817382813 
 21 
 6892.8798828125 
 31 
 0 
 0 
LINE
 10 
 2528.12817382813 
 20 
 6892.8798828125 
 30 
 0 
 11 
 2545 
 21 
 6890 
 31 
 0 
 0 
LINE
 10 
 2545 
 20 
 6890 
 30 
 0 
 11 
 2552.97607421875 
 21 
 6889.3115234375 
 31 
 0 
 0 
LINE
 10 
 2552.97607421875 
 20 
 6889.3115234375 
 30 
 0 
 11 
 2559.84814453125 
 21 
 6887.37646484375 
 31 
 0 
 0 
LINE
 10 
 2559.84814453125 
 20 
 6887.37646484375 
 30 
 0 
 11 
 2565.23193359375 
 21 
 6884.38427734375 
 31 
 0 
 0 
LINE
 10 
 2565.23193359375 
 20 
 6884.38427734375 
 30 
 0 
 11 
 2568.744140625 
 21 
 6880.52783203125 
 31 
 0 
 0 
LINE
 10 
 2568.744140625 
 20 
 6880.52783203125 
 30 
 0 
 11 
 2570 
 21 
 6876 
 31 
 0 
 0 
LINE
 10 
 2570 
 20 
 6876 
 30 
 0 
 11 
 2574.52807617188 
 21 
 6857.61572265625 
 31 
 0 
 0 
LINE
 10 
 2574.52807617188 
 20 
 6857.61572265625 
 30 
 0 
 11 
 2586.54418945313 
 21 
 6839.80810546875 
 31 
 0 
 0 
LINE
 10 
 2586.54418945313 
 20 
 6839.80810546875 
 30 
 0 
 11 
 2603.69604492188 
 21 
 6824.591796875 
 31 
 0 
 0 
LINE
 10 
 2603.69604492188 
 20 
 6824.591796875 
 30 
 0 
 11 
 2623.63208007813 
 21 
 6813.98388671875 
 31 
 0 
 0 
LINE
 10 
 2623.63208007813 
 20 
 6813.98388671875 
 30 
 0 
 11 
 2644 
 21 
 6810 
 31 
 0 
 0 
LINE
 10 
 2644 
 20 
 6810 
 30 
 0 
 11 
 2658.89575195313 
 21 
 6808.99169921875 
 31 
 0 
 0 
LINE
 10 
 2658.89575195313 
 20 
 6808.99169921875 
 30 
 0 
 11 
 2671.00830078125 
 21 
 6805.2958984375 
 31 
 0 
 0 
LINE
 10 
 2671.00830078125 
 20 
 6805.2958984375 
 30 
 0 
 11 
 2681.8720703125 
 21 
 6797.904296875 
 31 
 0 
 0 
LINE
 10 
 2681.8720703125 
 20 
 6797.904296875 
 30 
 0 
 11 
 2693.02416992188 
 21 
 6785.80810546875 
 31 
 0 
 0 
LINE
 10 
 2693.02416992188 
 20 
 6785.80810546875 
 30 
 0 
 11 
 2706 
 21 
 6768 
 31 
 0 
 0 
LINE
 10 
 2706 
 20 
 6768 
 30 
 0 
 11 
 2719.28784179688 
 21 
 6746.3037109375 
 31 
 0 
 0 
LINE
 10 
 2719.28784179688 
 20 
 6746.3037109375 
 30 
 0 
 11 
 2727.583984375 
 21 
 6725.71240234375 
 31 
 0 
 0 
LINE
 10 
 2727.583984375 
 20 
 6725.71240234375 
 30 
 0 
 11 
 2732.13598632813 
 21 
 6699.16796875 
 31 
 0 
 0 
LINE
 10 
 2732.13598632813 
 20 
 6699.16796875 
 30 
 0 
 11 
 2734.19189453125 
 21 
 6659.6162109375 
 31 
 0 
 0 
LINE
 10 
 2734.19189453125 
 20 
 6659.6162109375 
 30 
 0 
 11 
 2735 
 21 
 6600 
 31 
 0 
 0 
LINE
 10 
 2735 
 20 
 6600 
 30 
 0 
 11 
 2734.54418945313 
 21 
 6551.51171875 
 31 
 0 
 0 
LINE
 10 
 2734.54418945313 
 20 
 6551.51171875 
 30 
 0 
 11 
 2733.27221679688 
 21 
 6492.1767578125 
 31 
 0 
 0 
LINE
 10 
 2733.27221679688 
 20 
 6492.1767578125 
 30 
 0 
 11 
 2731.328125 
 21 
 6426.98388671875 
 31 
 0 
 0 
LINE
 10 
 2731.328125 
 20 
 6426.98388671875 
 30 
 0 
 11 
 2728.85595703125 
 21 
 6360.92822265625 
 31 
 0 
 0 
LINE
 10 
 2728.85595703125 
 20 
 6360.92822265625 
 30 
 0 
 11 
 2726 
 21 
 6299 
 31 
 0 
 0 
LINE
 10 
 2726 
 20 
 6299 
 30 
 0 
 11 
 2722.21606445313 
 21 
 6201.6796875 
 31 
 0 
 0 
LINE
 10 
 2722.21606445313 
 20 
 6201.6796875 
 30 
 0 
 11 
 2721.88793945313 
 21 
 6131.00048828125 
 31 
 0 
 0 
LINE
 10 
 2721.88793945313 
 20 
 6131.00048828125 
 30 
 0 
 11 
 2725.35205078125 
 21 
 6084.080078125 
 31 
 0 
 0 
LINE
 10 
 2725.35205078125 
 20 
 6084.080078125 
 30 
 0 
 11 
 2732.94409179688 
 21 
 6058.0400390625 
 31 
 0 
 0 
LINE
 10 
 2732.94409179688 
 20 
 6058.0400390625 
 30 
 0 
 11 
 2745 
 21 
 6050 
 31 
 0 
 0 
LINE
 10 
 2745 
 20 
 6050 
 30 
 0 
 11 
 2755.11987304688 
 21 
 6053.767578125 
 31 
 0 
 0 
LINE
 10 
 2755.11987304688 
 20 
 6053.767578125 
 30 
 0 
 11 
 2762.11987304688 
 21 
 6069.10400390625 
 31 
 0 
 0 
LINE
 10 
 2762.11987304688 
 20 
 6069.10400390625 
 30 
 0 
 11 
 2766.9599609375 
 21 
 6102.0556640625 
 31 
 0 
 0 
LINE
 10 
 2766.9599609375 
 20 
 6102.0556640625 
 30 
 0 
 11 
 2770.60009765625 
 21 
 6158.671875 
 31 
 0 
 0 
LINE
 10 
 2770.60009765625 
 20 
 6158.671875 
 30 
 0 
 11 
 2774 
 21 
 6245 
 31 
 0 
 0 
LINE
 10 
 2774 
 20 
 6245 
 30 
 0 
 11 
 2781.34399414063 
 21 
 6361.9833984375 
 31 
 0 
 0 
LINE
 10 
 2781.34399414063 
 20 
 6361.9833984375 
 30 
 0 
 11 
 2795.31201171875 
 21 
 6465.43212890625 
 31 
 0 
 0 
LINE
 10 
 2795.31201171875 
 20 
 6465.43212890625 
 30 
 0 
 11 
 2814.60791015625 
 21 
 6549.48779296875 
 31 
 0 
 0 
LINE
 10 
 2814.60791015625 
 20 
 6549.48779296875 
 30 
 0 
 11 
 2837.93603515625 
 21 
 6608.29638671875 
 31 
 0 
 0 
LINE
 10 
 2837.93603515625 
 20 
 6608.29638671875 
 30 
 0 
 11 
 2864 
 21 
 6636 
 31 
 0 
 0 
LINE
 10 
 2864 
 20 
 6636 
 30 
 0 
 11 
 2879 
 21 
 6637.423828125 
 31 
 0 
 0 
LINE
 10 
 2879 
 20 
 6637.423828125 
 30 
 0 
 11 
 2896.8798828125 
 21 
 6632.9921875 
 31 
 0 
 0 
LINE
 10 
 2896.8798828125 
 20 
 6632.9921875 
 30 
 0 
 11 
 2914.76000976563 
 21 
 6624.0478515625 
 31 
 0 
 0 
LINE
 10 
 2914.76000976563 
 20 
 6624.0478515625 
 30 
 0 
 11 
 2929.76000976563 
 21 
 6611.93603515625 
 31 
 0 
 0 
LINE
 10 
 2929.76000976563 
 20 
 6611.93603515625 
 30 
 0 
 11 
 2939 
 21 
 6598 
 31 
 0 
 0 
LINE
 10 
 2939 
 20 
 6598 
 30 
 0 
 11 
 2942.09594726563 
 21 
 6588.7998046875 
 31 
 0 
 0 
LINE
 10 
 2942.09594726563 
 20 
 6588.7998046875 
 30 
 0 
 11 
 2945.28784179688 
 21 
 6577.4404296875 
 31 
 0 
 0 
LINE
 10 
 2945.28784179688 
 20 
 6577.4404296875 
 30 
 0 
 11 
 2948.43188476563 
 21 
 6564.8798828125 
 31 
 0 
 0 
LINE
 10 
 2948.43188476563 
 20 
 6564.8798828125 
 30 
 0 
 11 
 2951.38403320313 
 21 
 6552.080078125 
 31 
 0 
 0 
LINE
 10 
 2951.38403320313 
 20 
 6552.080078125 
 30 
 0 
 11 
 2954 
 21 
 6540 
 31 
 0 
 0 
LINE
 10 
 2954 
 20 
 6540 
 30 
 0 
 11 
 2956.7998046875 
 21 
 6523.48779296875 
 31 
 0 
 0 
LINE
 10 
 2956.7998046875 
 20 
 6523.48779296875 
 30 
 0 
 11 
 2957.68017578125 
 21 
 6514.4638671875 
 31 
 0 
 0 
LINE
 10 
 2957.68017578125 
 20 
 6514.4638671875 
 30 
 0 
 11 
 2956.15991210938 
 21 
 6512.49609375 
 31 
 0 
 0 
LINE
 10 
 2956.15991210938 
 20 
 6512.49609375 
 30 
 0 
 11 
 2951.76000976563 
 21 
 6517.15185546875 
 31 
 0 
 0 
LINE
 10 
 2951.76000976563 
 20 
 6517.15185546875 
 30 
 0 
 11 
 2944 
 21 
 6528 
 31 
 0 
 0 
LINE
 10 
 2944 
 20 
 6528 
 30 
 0 
 11 
 2931.22387695313 
 21 
 6540.439453125 
 31 
 0 
 0 
LINE
 10 
 2931.22387695313 
 20 
 6540.439453125 
 30 
 0 
 11 
 2916.912109375 
 21 
 6547.60009765625 
 31 
 0 
 0 
LINE
 10 
 2916.912109375 
 20 
 6547.60009765625 
 30 
 0 
 11 
 2902.88793945313 
 21 
 6549.240234375 
 31 
 0 
 0 
LINE
 10 
 2902.88793945313 
 20 
 6549.240234375 
 30 
 0 
 11 
 2890.97607421875 
 21 
 6545.1201171875 
 31 
 0 
 0 
LINE
 10 
 2890.97607421875 
 20 
 6545.1201171875 
 30 
 0 
 11 
 2883 
 21 
 6535 
 31 
 0 
 0 
LINE
 10 
 2883 
 20 
 6535 
 30 
 0 
 11 
 2882.1279296875 
 21 
 6528.9677734375 
 31 
 0 
 0 
LINE
 10 
 2882.1279296875 
 20 
 6528.9677734375 
 30 
 0 
 11 
 2882.98413085938 
 21 
 6522.02392578125 
 31 
 0 
 0 
LINE
 10 
 2882.98413085938 
 20 
 6522.02392578125 
 30 
 0 
 11 
 2885.3759765625 
 21 
 6514.6962890625 
 31 
 0 
 0 
LINE
 10 
 2885.3759765625 
 20 
 6514.6962890625 
 30 
 0 
 11 
 2889.11206054688 
 21 
 6507.51220703125 
 31 
 0 
 0 
LINE
 10 
 2889.11206054688 
 20 
 6507.51220703125 
 30 
 0 
 11 
 2894 
 21 
 6501 
 31 
 0 
 0 
LINE
 10 
 2894 
 20 
 6501 
 30 
 0 
 11 
 2899.1201171875 
 21 
 6494.25537109375 
 31 
 0 
 0 
LINE
 10 
 2899.1201171875 
 20 
 6494.25537109375 
 30 
 0 
 11 
 2903.52001953125 
 21 
 6486.408203125 
 31 
 0 
 0 
LINE
 10 
 2903.52001953125 
 20 
 6486.408203125 
 30 
 0 
 11 
 2906.9599609375 
 21 
 6478.0322265625 
 31 
 0 
 0 
LINE
 10 
 2906.9599609375 
 20 
 6478.0322265625 
 30 
 0 
 11 
 2909.2001953125 
 21 
 6469.7041015625 
 31 
 0 
 0 
LINE
 10 
 2909.2001953125 
 20 
 6469.7041015625 
 30 
 0 
 11 
 2910 
 21 
 6462 
 31 
 0 
 0 
LINE
 10 
 2910 
 20 
 6462 
 30 
 0 
 11 
 2911.7119140625 
 21 
 6453.17578125 
 31 
 0 
 0 
LINE
 10 
 2911.7119140625 
 20 
 6453.17578125 
 30 
 0 
 11 
 2916.49609375 
 21 
 6441.80810546875 
 31 
 0 
 0 
LINE
 10 
 2916.49609375 
 20 
 6441.80810546875 
 30 
 0 
 11 
 2923.82397460938 
 21 
 6428.9521484375 
 31 
 0 
 0 
LINE
 10 
 2923.82397460938 
 20 
 6428.9521484375 
 30 
 0 
 11 
 2933.16796875 
 21 
 6415.6640625 
 31 
 0 
 0 
LINE
 10 
 2933.16796875 
 20 
 6415.6640625 
 30 
 0 
 11 
 2944 
 21 
 6403 
 31 
 0 
 0 
LINE
 10 
 2944 
 20 
 6403 
 30 
 0 
 11 
 2966.86401367188 
 21 
 6374.3994140625 
 31 
 0 
 0 
LINE
 10 
 2966.86401367188 
 20 
 6374.3994140625 
 30 
 0 
 11 
 2985.55224609375 
 21 
 6346.27978515625 
 31 
 0 
 0 
LINE
 10 
 2985.55224609375 
 20 
 6346.27978515625 
 30 
 0 
 11 
 2999.00805664063 
 21 
 6320.56005859375 
 31 
 0 
 0 
LINE
 10 
 2999.00805664063 
 20 
 6320.56005859375 
 30 
 0 
 11 
 3006.17602539063 
 21 
 6299.16015625 
 31 
 0 
 0 
LINE
 10 
 3006.17602539063 
 20 
 6299.16015625 
 30 
 0 
 11 
 3006 
 21 
 6284 
 31 
 0 
 0 
LINE
 10 
 3006 
 20 
 6284 
 30 
 0 
 11 
 2997.18383789063 
 21 
 6274.3916015625 
 31 
 0 
 0 
LINE
 10 
 2997.18383789063 
 20 
 6274.3916015625 
 30 
 0 
 11 
 2981.072265625 
 21 
 6270.73583984375 
 31 
 0 
 0 
LINE
 10 
 2981.072265625 
 20 
 6270.73583984375 
 30 
 0 
 11 
 2958.76806640625 
 21 
 6272.984375 
 31 
 0 
 0 
LINE
 10 
 2958.76806640625 
 20 
 6272.984375 
 30 
 0 
 11 
 2931.37622070313 
 21 
 6281.08837890625 
 31 
 0 
 0 
LINE
 10 
 2931.37622070313 
 20 
 6281.08837890625 
 30 
 0 
 11 
 2900 
 21 
 6295 
 31 
 0 
 0 
LINE
 10 
 2900 
 20 
 6295 
 30 
 0 
 11 
 2848.8720703125 
 21 
 6315.43994140625 
 31 
 0 
 0 
LINE
 10 
 2848.8720703125 
 20 
 6315.43994140625 
 30 
 0 
 11 
 2817.13623046875 
 21 
 6316.19970703125 
 31 
 0 
 0 
LINE
 10 
 2817.13623046875 
 20 
 6316.19970703125 
 30 
 0 
 11 
 2805.4638671875 
 21 
 6298.240234375 
 31 
 0 
 0 
LINE
 10 
 2805.4638671875 
 20 
 6298.240234375 
 30 
 0 
 11 
 2814.52807617188 
 21 
 6262.52001953125 
 31 
 0 
 0 
LINE
 10 
 2814.52807617188 
 20 
 6262.52001953125 
 30 
 0 
 11 
 2845 
 21 
 6210 
 31 
 0 
 0 
LINE
 10 
 2845 
 20 
 6210 
 30 
 0 
 11 
 2852.95190429688 
 21 
 6196.10400390625 
 31 
 0 
 0 
LINE
 10 
 2852.95190429688 
 20 
 6196.10400390625 
 30 
 0 
 11 
 2860.85620117188 
 21 
 6178.27197265625 
 31 
 0 
 0 
LINE
 10 
 2860.85620117188 
 20 
 6178.27197265625 
 30 
 0 
 11 
 2868.18408203125 
 21 
 6158.087890625 
 31 
 0 
 0 
LINE
 10 
 2868.18408203125 
 20 
 6158.087890625 
 30 
 0 
 11 
 2874.40795898438 
 21 
 6137.13623046875 
 31 
 0 
 0 
LINE
 10 
 2874.40795898438 
 20 
 6137.13623046875 
 30 
 0 
 11 
 2879 
 21 
 6117 
 31 
 0 
 0 
LINE
 10 
 2879 
 20 
 6117 
 30 
 0 
 11 
 2883.02392578125 
 21 
 6097.43994140625 
 31 
 0 
 0 
LINE
 10 
 2883.02392578125 
 20 
 6097.43994140625 
 30 
 0 
 11 
 2887.67211914063 
 21 
 6078.1201171875 
 31 
 0 
 0 
LINE
 10 
 2887.67211914063 
 20 
 6078.1201171875 
 30 
 0 
 11 
 2892.60791015625 
 21 
 6060.47998046875 
 31 
 0 
 0 
LINE
 10 
 2892.60791015625 
 20 
 6060.47998046875 
 30 
 0 
 11 
 2897.49609375 
 21 
 6045.96044921875 
 31 
 0 
 0 
LINE
 10 
 2897.49609375 
 20 
 6045.96044921875 
 30 
 0 
 11 
 2902 
 21 
 6036 
 31 
 0 
 0 
LINE
 10 
 2902 
 20 
 6036 
 30 
 0 
 11 
 2907.18383789063 
 21 
 6026.45556640625 
 31 
 0 
 0 
LINE
 10 
 2907.18383789063 
 20 
 6026.45556640625 
 30 
 0 
 11 
 2913.9521484375 
 21 
 6014.12841796875 
 31 
 0 
 0 
LINE
 10 
 2913.9521484375 
 20 
 6014.12841796875 
 30 
 0 
 11 
 2921.72802734375 
 21 
 6000.072265625 
 31 
 0 
 0 
LINE
 10 
 2921.72802734375 
 20 
 6000.072265625 
 30 
 0 
 11 
 2929.93603515625 
 21 
 5985.34423828125 
 31 
 0 
 0 
LINE
 10 
 2929.93603515625 
 20 
 5985.34423828125 
 30 
 0 
 11 
 2938 
 21 
 5971 
 31 
 0 
 0 
LINE
 10 
 2938 
 20 
 5971 
 30 
 0 
 11 
 2945.43188476563 
 21 
 5956.10400390625 
 31 
 0 
 0 
LINE
 10 
 2945.43188476563 
 20 
 5956.10400390625 
 30 
 0 
 11 
 2950.89599609375 
 21 
 5941.83203125 
 31 
 0 
 0 
LINE
 10 
 2950.89599609375 
 20 
 5941.83203125 
 30 
 0 
 11 
 2954.34399414063 
 21 
 5928.80810546875 
 31 
 0 
 0 
LINE
 10 
 2954.34399414063 
 20 
 5928.80810546875 
 30 
 0 
 11 
 2955.72802734375 
 21 
 5917.65625 
 31 
 0 
 0 
LINE
 10 
 2955.72802734375 
 20 
 5917.65625 
 30 
 0 
 11 
 2955 
 21 
 5909 
 31 
 0 
 0 
LINE
 10 
 2955 
 20 
 5909 
 30 
 0 
 11 
 2953.1357421875 
 21 
 5900.11181640625 
 31 
 0 
 0 
LINE
 10 
 2953.1357421875 
 20 
 5900.11181640625 
 30 
 0 
 11 
 2956.40795898438 
 21 
 5894.5361328125 
 31 
 0 
 0 
LINE
 10 
 2956.40795898438 
 20 
 5894.5361328125 
 30 
 0 
 11 
 2967.31176757813 
 21 
 5891.50439453125 
 31 
 0 
 0 
LINE
 10 
 2967.31176757813 
 20 
 5891.50439453125 
 30 
 0 
 11 
 2988.34399414063 
 21 
 5890.248046875 
 31 
 0 
 0 
LINE
 10 
 2988.34399414063 
 20 
 5890.248046875 
 30 
 0 
 11 
 3022 
 21 
 5890 
 31 
 0 
 0 
LINE
 10 
 3022 
 20 
 5890 
 30 
 0 
 11 
 3095 
 21 
 5890 
 31 
 0 
 0 
LINE
 10 
 3095 
 20 
 5890 
 30 
 0 
 11 
 3118 
 21 
 5933 
 31 
 0 
 0 
LINE
 10 
 3118 
 20 
 5933 
 30 
 0 
 11 
 3126.14404296875 
 21 
 5947.68798828125 
 31 
 0 
 0 
LINE
 10 
 3126.14404296875 
 20 
 5947.68798828125 
 30 
 0 
 11 
 3135.63232421875 
 21 
 5963.3837890625 
 31 
 0 
 0 
LINE
 10 
 3135.63232421875 
 20 
 5963.3837890625 
 30 
 0 
 11 
 3145.64794921875 
 21 
 5978.93603515625 
 31 
 0 
 0 
LINE
 10 
 3145.64794921875 
 20 
 5978.93603515625 
 30 
 0 
 11 
 3155.3759765625 
 21 
 5993.19189453125 
 31 
 0 
 0 
LINE
 10 
 3155.3759765625 
 20 
 5993.19189453125 
 30 
 0 
 11 
 3164 
 21 
 6005 
 31 
 0 
 0 
LINE
 10 
 3164 
 20 
 6005 
 30 
 0 
 11 
 3174.8876953125 
 21 
 6017.7919921875 
 31 
 0 
 0 
LINE
 10 
 3174.8876953125 
 20 
 6017.7919921875 
 30 
 0 
 11 
 3183.18408203125 
 21 
 6025.255859375 
 31 
 0 
 0 
LINE
 10 
 3183.18408203125 
 20 
 6025.255859375 
 30 
 0 
 11 
 3190.13598632813 
 21 
 6027.82421875 
 31 
 0 
 0 
LINE
 10 
 3190.13598632813 
 20 
 6027.82421875 
 30 
 0 
 11 
 3196.99194335938 
 21 
 6025.92822265625 
 31 
 0 
 0 
LINE
 10 
 3196.99194335938 
 20 
 6025.92822265625 
 30 
 0 
 11 
 3205 
 21 
 6020 
 31 
 0 
 0 
LINE
 10 
 3205 
 20 
 6020 
 30 
 0 
 11 
 3211.13598632813 
 21 
 6013.5595703125 
 31 
 0 
 0 
LINE
 10 
 3211.13598632813 
 20 
 6013.5595703125 
 30 
 0 
 11 
 3215.2080078125 
 21 
 6005.919921875 
 31 
 0 
 0 
LINE
 10 
 3215.2080078125 
 20 
 6005.919921875 
 30 
 0 
 11 
 3217.31201171875 
 21 
 5996.60009765625 
 31 
 0 
 0 
LINE
 10 
 3217.31201171875 
 20 
 5996.60009765625 
 30 
 0 
 11 
 3217.54418945313 
 21 
 5985.1201171875 
 31 
 0 
 0 
LINE
 10 
 3217.54418945313 
 20 
 5985.1201171875 
 30 
 0 
 11 
 3216 
 21 
 5971 
 31 
 0 
 0 
LINE
 10 
 3216 
 20 
 5971 
 30 
 0 
 11 
 3213.76806640625 
 21 
 5955.47998046875 
 31 
 0 
 0 
LINE
 10 
 3213.76806640625 
 20 
 5955.47998046875 
 30 
 0 
 11 
 3210.86401367188 
 21 
 5934.2001953125 
 31 
 0 
 0 
LINE
 10 
 3210.86401367188 
 20 
 5934.2001953125 
 30 
 0 
 11 
 3207.57592773438 
 21 
 5909.080078125 
 31 
 0 
 0 
LINE
 10 
 3207.57592773438 
 20 
 5909.080078125 
 30 
 0 
 11 
 3204.19213867188 
 21 
 5882.0400390625 
 31 
 0 
 0 
LINE
 10 
 3204.19213867188 
 20 
 5882.0400390625 
 30 
 0 
 11 
 3201 
 21 
 5855 
 31 
 0 
 0 
LINE
 10 
 3201 
 20 
 5855 
 30 
 0 
 11 
 3193.2958984375 
 21 
 5808.095703125 
 31 
 0 
 0 
LINE
 10 
 3193.2958984375 
 20 
 5808.095703125 
 30 
 0 
 11 
 3182.328125 
 21 
 5775.2080078125 
 31 
 0 
 0 
LINE
 10 
 3182.328125 
 20 
 5775.2080078125 
 30 
 0 
 11 
 3166.51196289063 
 21 
 5754.2724609375 
 31 
 0 
 0 
LINE
 10 
 3166.51196289063 
 20 
 5754.2724609375 
 30 
 0 
 11 
 3144.26416015625 
 21 
 5743.22412109375 
 31 
 0 
 0 
LINE
 10 
 3144.26416015625 
 20 
 5743.22412109375 
 30 
 0 
 11 
 3114 
 21 
 5740 
 31 
 0 
 0 
LINE
 10 
 3114 
 20 
 5740 
 30 
 0 
 11 
 3091.64794921875 
 21 
 5737.40771484375 
 31 
 0 
 0 
LINE
 10 
 3091.64794921875 
 20 
 5737.40771484375 
 30 
 0 
 11 
 3076.7841796875 
 21 
 5728.3837890625 
 31 
 0 
 0 
LINE
 10 
 3076.7841796875 
 20 
 5728.3837890625 
 30 
 0 
 11 
 3068.49584960938 
 21 
 5711.05615234375 
 31 
 0 
 0 
LINE
 10 
 3068.49584960938 
 20 
 5711.05615234375 
 30 
 0 
 11 
 3065.8720703125 
 21 
 5683.55224609375 
 31 
 0 
 0 
LINE
 10 
 3065.8720703125 
 20 
 5683.55224609375 
 30 
 0 
 11 
 3068 
 21 
 5644 
 31 
 0 
 0 
LINE
 10 
 3068 
 20 
 5644 
 30 
 0 
 11 
 3069.6318359375 
 21 
 5609.6240234375 
 31 
 0 
 0 
LINE
 10 
 3069.6318359375 
 20 
 5609.6240234375 
 30 
 0 
 11 
 3067.3759765625 
 21 
 5589.31201171875 
 31 
 0 
 0 
LINE
 10 
 3067.3759765625 
 20 
 5589.31201171875 
 30 
 0 
 11 
 3059.50415039063 
 21 
 5581.2880859375 
 31 
 0 
 0 
LINE
 10 
 3059.50415039063 
 20 
 5581.2880859375 
 30 
 0 
 11 
 3044.2880859375 
 21 
 5583.77587890625 
 31 
 0 
 0 
LINE
 10 
 3044.2880859375 
 20 
 5583.77587890625 
 30 
 0 
 11 
 3020 
 21 
 5595 
 31 
 0 
 0 
LINE
 10 
 3020 
 20 
 5595 
 30 
 0 
 11 
 3002.23974609375 
 21 
 5606.60791015625 
 31 
 0 
 0 
LINE
 10 
 3002.23974609375 
 20 
 5606.60791015625 
 30 
 0 
 11 
 2985.919921875 
 21 
 5621.14404296875 
 31 
 0 
 0 
LINE
 10 
 2985.919921875 
 20 
 5621.14404296875 
 30 
 0 
 11 
 2972.47998046875 
 21 
 5636.97607421875 
 31 
 0 
 0 
LINE
 10 
 2972.47998046875 
 20 
 5636.97607421875 
 30 
 0 
 11 
 2963.36010742188 
 21 
 5652.47216796875 
 31 
 0 
 0 
LINE
 10 
 2963.36010742188 
 20 
 5652.47216796875 
 30 
 0 
 11 
 2960 
 21 
 5666 
 31 
 0 
 0 
LINE
 10 
 2960 
 20 
 5666 
 30 
 0 
 11 
 2962.03979492188 
 21 
 5672.095703125 
 31 
 0 
 0 
LINE
 10 
 2962.03979492188 
 20 
 5672.095703125 
 30 
 0 
 11 
 2967.68017578125 
 21 
 5681.408203125 
 31 
 0 
 0 
LINE
 10 
 2967.68017578125 
 20 
 5681.408203125 
 30 
 0 
 11 
 2976.2001953125 
 21 
 5693.07177734375 
 31 
 0 
 0 
LINE
 10 
 2976.2001953125 
 20 
 5693.07177734375 
 30 
 0 
 11 
 2986.88012695313 
 21 
 5706.22412109375 
 31 
 0 
 0 
LINE
 10 
 2986.88012695313 
 20 
 5706.22412109375 
 30 
 0 
 11 
 2999 
 21 
 5720 
 31 
 0 
 0 
LINE
 10 
 2999 
 20 
 5720 
 30 
 0 
 11 
 3011.35205078125 
 21 
 5734.3359375 
 31 
 0 
 0 
LINE
 10 
 3011.35205078125 
 20 
 5734.3359375 
 30 
 0 
 11 
 3022.69604492188 
 21 
 5749.0078125 
 31 
 0 
 0 
LINE
 10 
 3022.69604492188 
 20 
 5749.0078125 
 30 
 0 
 11 
 3032.26416015625 
 21 
 5762.912109375 
 31 
 0 
 0 
LINE
 10 
 3032.26416015625 
 20 
 5762.912109375 
 30 
 0 
 11 
 3039.2880859375 
 21 
 5774.94384765625 
 31 
 0 
 0 
LINE
 10 
 3039.2880859375 
 20 
 5774.94384765625 
 30 
 0 
 11 
 3043 
 21 
 5784 
 31 
 0 
 0 
LINE
 10 
 3043 
 20 
 5784 
 30 
 0 
 11 
 3044.6318359375 
 21 
 5791.3193359375 
 31 
 0 
 0 
LINE
 10 
 3044.6318359375 
 20 
 5791.3193359375 
 30 
 0 
 11 
 3046.93603515625 
 21 
 5799.60009765625 
 31 
 0 
 0 
LINE
 10 
 3046.93603515625 
 20 
 5799.60009765625 
 30 
 0 
 11 
 3049.6240234375 
 21 
 5808.1201171875 
 31 
 0 
 0 
LINE
 10 
 3049.6240234375 
 20 
 5808.1201171875 
 30 
 0 
 11 
 3052.40795898438 
 21 
 5816.16015625 
 31 
 0 
 0 
LINE
 10 
 3052.40795898438 
 20 
 5816.16015625 
 30 
 0 
 11 
 3055 
 21 
 5823 
 31 
 0 
 0 
LINE
 10 
 3055 
 20 
 5823 
 30 
 0 
 11 
 3056.7919921875 
 21 
 5830.5283203125 
 31 
 0 
 0 
LINE
 10 
 3056.7919921875 
 20 
 5830.5283203125 
 30 
 0 
 11 
 3053.49609375 
 21 
 5835.46435546875 
 31 
 0 
 0 
LINE
 10 
 3053.49609375 
 20 
 5835.46435546875 
 30 
 0 
 11 
 3042.90405273438 
 21 
 5838.3359375 
 31 
 0 
 0 
LINE
 10 
 3042.90405273438 
 20 
 5838.3359375 
 30 
 0 
 11 
 3022.80810546875 
 21 
 5839.67236328125 
 31 
 0 
 0 
LINE
 10 
 3022.80810546875 
 20 
 5839.67236328125 
 30 
 0 
 11 
 2991 
 21 
 5840 
 31 
 0 
 0 
LINE
 10 
 2991 
 20 
 5840 
 30 
 0 
 11 
 2920 
 21 
 5840 
 31 
 0 
 0 
LINE
 10 
 2920 
 20 
 5840 
 30 
 0 
 11 
 2879 
 21 
 5753 
 31 
 0 
 0 
LINE
 10 
 2879 
 20 
 5753 
 30 
 0 
 11 
 2838 
 21 
 5665 
 31 
 0 
 0 
LINE
 10 
 2838 
 20 
 5665 
 30 
 0 
 11 
 2824 
 21 
 5710 
 31 
 0 
 0 
LINE
 10 
 2824 
 20 
 5710 
 30 
 0 
 11 
 2819.1357421875 
 21 
 5728.02392578125 
 31 
 0 
 0 
LINE
 10 
 2819.1357421875 
 20 
 5728.02392578125 
 30 
 0 
 11 
 2814.3681640625 
 21 
 5750.75244140625 
 31 
 0 
 0 
LINE
 10 
 2814.3681640625 
 20 
 5750.75244140625 
 30 
 0 
 11 
 2810.03198242188 
 21 
 5776.16845703125 
 31 
 0 
 0 
LINE
 10 
 2810.03198242188 
 20 
 5776.16845703125 
 30 
 0 
 11 
 2806.46411132813 
 21 
 5802.25634765625 
 31 
 0 
 0 
LINE
 10 
 2806.46411132813 
 20 
 5802.25634765625 
 30 
 0 
 11 
 2804 
 21 
 5827 
 31 
 0 
 0 
LINE
 10 
 2804 
 20 
 5827 
 30 
 0 
 11 
 2798.22387695313 
 21 
 5870.4560546875 
 31 
 0 
 0 
LINE
 10 
 2798.22387695313 
 20 
 5870.4560546875 
 30 
 0 
 11 
 2790.43212890625 
 21 
 5898.8876953125 
 31 
 0 
 0 
LINE
 10 
 2790.43212890625 
 20 
 5898.8876953125 
 30 
 0 
 11 
 2780.52807617188 
 21 
 5912.39208984375 
 31 
 0 
 0 
LINE
 10 
 2780.52807617188 
 20 
 5912.39208984375 
 30 
 0 
 11 
 2768.416015625 
 21 
 5911.06396484375 
 31 
 0 
 0 
LINE
 10 
 2768.416015625 
 20 
 5911.06396484375 
 30 
 0 
 11 
 2754 
 21 
 5895 
 31 
 0 
 0 
LINE
 10 
 2754 
 20 
 5895 
 30 
 0 
 11 
 2746.76806640625 
 21 
 5882.07958984375 
 31 
 0 
 0 
LINE
 10 
 2746.76806640625 
 20 
 5882.07958984375 
 30 
 0 
 11 
 2742.94409179688 
 21 
 5868.68017578125 
 31 
 0 
 0 
LINE
 10 
 2742.94409179688 
 20 
 5868.68017578125 
 30 
 0 
 11 
 2742.3359375 
 21 
 5851.43994140625 
 31 
 0 
 0 
LINE
 10 
 2742.3359375 
 20 
 5851.43994140625 
 30 
 0 
 11 
 2744.751953125 
 21 
 5827 
 31 
 0 
 0 
LINE
 10 
 2744.751953125 
 20 
 5827 
 30 
 0 
 11 
 2750 
 21 
 5792 
 31 
 0 
 0 
LINE
 10 
 2750 
 20 
 5792 
 30 
 0 
 11 
 2753.99975585938 
 21 
 5766.60791015625 
 31 
 0 
 0 
LINE
 10 
 2753.99975585938 
 20 
 5766.60791015625 
 30 
 0 
 11 
 2758.48022460938 
 21 
 5741.984375 
 31 
 0 
 0 
LINE
 10 
 2758.48022460938 
 20 
 5741.984375 
 30 
 0 
 11 
 2762.9599609375 
 21 
 5719.85595703125 
 31 
 0 
 0 
LINE
 10 
 2762.9599609375 
 20 
 5719.85595703125 
 30 
 0 
 11 
 2766.9599609375 
 21 
 5701.9521484375 
 31 
 0 
 0 
LINE
 10 
 2766.9599609375 
 20 
 5701.9521484375 
 30 
 0 
 11 
 2770 
 21 
 5690 
 31 
 0 
 0 
LINE
 10 
 2770 
 20 
 5690 
 30 
 0 
 11 
 2773.19189453125 
 21 
 5678.7197265625 
 31 
 0 
 0 
LINE
 10 
 2773.19189453125 
 20 
 5678.7197265625 
 30 
 0 
 11 
 2776.57592773438 
 21 
 5662.64013671875 
 31 
 0 
 0 
LINE
 10 
 2776.57592773438 
 20 
 5662.64013671875 
 30 
 0 
 11 
 2779.86401367188 
 21 
 5643.2001953125 
 31 
 0 
 0 
LINE
 10 
 2779.86401367188 
 20 
 5643.2001953125 
 30 
 0 
 11 
 2782.76806640625 
 21 
 5621.83984375 
 31 
 0 
 0 
LINE
 10 
 2782.76806640625 
 20 
 5621.83984375 
 30 
 0 
 11 
 2785 
 21 
 5600 
 31 
 0 
 0 
LINE
 10 
 2785 
 20 
 5600 
 30 
 0 
 11 
 2791 
 21 
 5535 
 31 
 0 
 0 
LINE
 10 
 2791 
 20 
 5535 
 30 
 0 
 11 
 2710 
 21 
 5468 
 31 
 0 
 0 
LINE
 10 
 2710 
 20 
 5468 
 30 
 0 
 11 
 2683.3837890625 
 21 
 5446.3359375 
 31 
 0 
 0 
LINE
 10 
 2683.3837890625 
 20 
 5446.3359375 
 30 
 0 
 11 
 2658.59204101563 
 21 
 5427.64794921875 
 31 
 0 
 0 
LINE
 10 
 2658.59204101563 
 20 
 5427.64794921875 
 30 
 0 
 11 
 2637.2080078125 
 21 
 5412.99169921875 
 31 
 0 
 0 
LINE
 10 
 2637.2080078125 
 20 
 5412.99169921875 
 30 
 0 
 11 
 2620.81616210938 
 21 
 5403.42431640625 
 31 
 0 
 0 
LINE
 10 
 2620.81616210938 
 20 
 5403.42431640625 
 30 
 0 
 11 
 2611 
 21 
 5400 
 31 
 0 
 0 
LINE
 10 
 2611 
 20 
 5400 
 30 
 0 
 11 
 2604.5361328125 
 21 
 5398.408203125 
 31 
 0 
 0 
LINE
 10 
 2604.5361328125 
 20 
 5398.408203125 
 30 
 0 
 11 
 2596.48803710938 
 21 
 5393.984375 
 31 
 0 
 0 
LINE
 10 
 2596.48803710938 
 20 
 5393.984375 
 30 
 0 
 11 
 2587.671875 
 21 
 5387.255859375 
 31 
 0 
 0 
LINE
 10 
 2587.671875 
 20 
 5387.255859375 
 30 
 0 
 11 
 2578.90405273438 
 21 
 5378.751953125 
 31 
 0 
 0 
LINE
 10 
 2578.90405273438 
 20 
 5378.751953125 
 30 
 0 
 11 
 2571 
 21 
 5369 
 31 
 0 
 0 
LINE
 10 
 2571 
 20 
 5369 
 30 
 0 
 11 
 2562.50390625 
 21 
 5358.56787109375 
 31 
 0 
 0 
LINE
 10 
 2562.50390625 
 20 
 5358.56787109375 
 30 
 0 
 11 
 2555.11206054688 
 21 
 5351.3037109375 
 31 
 0 
 0 
LINE
 10 
 2555.11206054688 
 20 
 5351.3037109375 
 30 
 0 
 11 
 2548.96801757813 
 21 
 5347.25634765625 
 31 
 0 
 0 
LINE
 10 
 2548.96801757813 
 20 
 5347.25634765625 
 30 
 0 
 11 
 2544.21606445313 
 21 
 5346.47216796875 
 31 
 0 
 0 
LINE
 10 
 2544.21606445313 
 20 
 5346.47216796875 
 30 
 0 
 11 
 2541 
 21 
 5349 
 31 
 0 
 0 
LINE
 10 
 2541 
 20 
 5349 
 30 
 0 
 11 
 2526.02416992188 
 21 
 5352.0478515625 
 31 
 0 
 0 
LINE
 10 
 2526.02416992188 
 20 
 5352.0478515625 
 30 
 0 
 11 
 2497.03173828125 
 21 
 5344.82421875 
 31 
 0 
 0 
LINE
 10 
 2497.03173828125 
 20 
 5344.82421875 
 30 
 0 
 11 
 2459.92797851563 
 21 
 5329.77587890625 
 31 
 0 
 0 
LINE
 10 
 2459.92797851563 
 20 
 5329.77587890625 
 30 
 0 
 11 
 2420.61596679688 
 21 
 5309.35205078125 
 31 
 0 
 0 
LINE
 10 
 2420.61596679688 
 20 
 5309.35205078125 
 30 
 0 
 11 
 2385 
 21 
 5286 
 31 
 0 
 0 
LINE
 10 
 2385 
 20 
 5286 
 30 
 0 
 11 
 2366.9599609375 
 21 
 5272.7919921875 
 31 
 0 
 0 
LINE
 10 
 2366.9599609375 
 20 
 5272.7919921875 
 30 
 0 
 11 
 2350.84008789063 
 21 
 5263.85595703125 
 31 
 0 
 0 
LINE
 10 
 2350.84008789063 
 20 
 5263.85595703125 
 30 
 0 
 11 
 2334.23999023438 
 21 
 5258.423828125 
 31 
 0 
 0 
LINE
 10 
 2334.23999023438 
 20 
 5258.423828125 
 30 
 0 
 11 
 2314.76000976563 
 21 
 5255.72802734375 
 31 
 0 
 0 
LINE
 10 
 2314.76000976563 
 20 
 5255.72802734375 
 30 
 0 
 11 
 2290 
 21 
 5255 
 31 
 0 
 0 
LINE
 10 
 2290 
 20 
 5255 
 30 
 0 
 11 
 2250.23193359375 
 21 
 5259.60009765625 
 31 
 0 
 0 
LINE
 10 
 2250.23193359375 
 20 
 5259.60009765625 
 30 
 0 
 11 
 2205.13598632813 
 21 
 5271.64013671875 
 31 
 0 
 0 
LINE
 10 
 2205.13598632813 
 20 
 5271.64013671875 
 30 
 0 
 11 
 2161.6240234375 
 21 
 5288.47998046875 
 31 
 0 
 0 
LINE
 10 
 2161.6240234375 
 20 
 5288.47998046875 
 30 
 0 
 11 
 2126.60791015625 
 21 
 5307.47998046875 
 31 
 0 
 0 
LINE
 10 
 2126.60791015625 
 20 
 5307.47998046875 
 30 
 0 
 11 
 2107 
 21 
 5326 
 31 
 0 
 0 
LINE
 10 
 2107 
 20 
 5326 
 30 
 0 
 11 
 2104.17602539063 
 21 
 5330.5283203125 
 31 
 0 
 0 
LINE
 10 
 2104.17602539063 
 20 
 5330.5283203125 
 30 
 0 
 11 
 2100.72802734375 
 21 
 5334.38427734375 
 31 
 0 
 0 
LINE
 10 
 2100.72802734375 
 20 
 5334.38427734375 
 30 
 0 
 11 
 2096.99194335938 
 21 
 5337.3759765625 
 31 
 0 
 0 
LINE
 10 
 2096.99194335938 
 20 
 5337.3759765625 
 30 
 0 
 11 
 2093.30395507813 
 21 
 5339.31201171875 
 31 
 0 
 0 
LINE
 10 
 2093.30395507813 
 20 
 5339.31201171875 
 30 
 0 
 11 
 2090 
 21 
 5340 
 31 
 0 
 0 
LINE
 10 
 2090 
 20 
 5340 
 30 
 0 
 11 
 2060.98388671875 
 21 
 5351.431640625 
 31 
 0 
 0 
LINE
 10 
 2060.98388671875 
 20 
 5351.431640625 
 30 
 0 
 11 
 1995.87194824219 
 21 
 5380.576171875 
 31 
 0 
 0 
LINE
 10 
 1995.87194824219 
 20 
 5380.576171875 
 30 
 0 
 11 
 1911.36804199219 
 21 
 5419.7041015625 
 31 
 0 
 0 
LINE
 10 
 1911.36804199219 
 20 
 5419.7041015625 
 30 
 0 
 11 
 1824.17602539063 
 21 
 5461.08837890625 
 31 
 0 
 0 
LINE
 10 
 1824.17602539063 
 20 
 5461.08837890625 
 30 
 0 
 11 
 1751 
 21 
 5497 
 31 
 0 
 0 
LINE
 10 
 1751 
 20 
 5497 
 30 
 0 
 11 
 1724.91198730469 
 21 
 5511.28759765625 
 31 
 0 
 0 
LINE
 10 
 1724.91198730469 
 20 
 5511.28759765625 
 30 
 0 
 11 
 1706.4560546875 
 21 
 5525.14404296875 
 31 
 0 
 0 
LINE
 10 
 1706.4560546875 
 20 
 5525.14404296875 
 30 
 0 
 11 
 1691.74401855469 
 21 
 5543.65625 
 31 
 0 
 0 
LINE
 10 
 1691.74401855469 
 20 
 5543.65625 
 30 
 0 
 11 
 1676.88806152344 
 21 
 5571.912109375 
 31 
 0 
 0 
LINE
 10 
 1676.88806152344 
 20 
 5571.912109375 
 30 
 0 
 11 
 1658 
 21 
 5615 
 31 
 0 
 0 
LINE
 10 
 1658 
 20 
 5615 
 30 
 0 
 11 
 1644.02404785156 
 21 
 5645.37548828125 
 31 
 0 
 0 
LINE
 10 
 1644.02404785156 
 20 
 5645.37548828125 
 30 
 0 
 11 
 1629.23205566406 
 21 
 5675.1279296875 
 31 
 0 
 0 
LINE
 10 
 1629.23205566406 
 20 
 5675.1279296875 
 30 
 0 
 11 
 1614.72802734375 
 21 
 5702.1923828125 
 31 
 0 
 0 
LINE
 10 
 1614.72802734375 
 20 
 5702.1923828125 
 30 
 0 
 11 
 1601.61596679688 
 21 
 5724.50439453125 
 31 
 0 
 0 
LINE
 10 
 1601.61596679688 
 20 
 5724.50439453125 
 30 
 0 
 11 
 1591 
 21 
 5740 
 31 
 0 
 0 
LINE
 10 
 1591 
 20 
 5740 
 30 
 0 
 11 
 1568.7998046875 
 21 
 5769.416015625 
 31 
 0 
 0 
LINE
 10 
 1568.7998046875 
 20 
 5769.416015625 
 30 
 0 
 11 
 1554.04016113281 
 21 
 5794.1279296875 
 31 
 0 
 0 
LINE
 10 
 1554.04016113281 
 20 
 5794.1279296875 
 30 
 0 
 11 
 1545.28002929688 
 21 
 5817.83203125 
 31 
 0 
 0 
LINE
 10 
 1545.28002929688 
 20 
 5817.83203125 
 30 
 0 
 11 
 1541.07995605469 
 21 
 5844.22412109375 
 31 
 0 
 0 
LINE
 10 
 1541.07995605469 
 20 
 5844.22412109375 
 30 
 0 
 11 
 1540 
 21 
 5877 
 31 
 0 
 0 
LINE
 10 
 1540 
 20 
 5877 
 30 
 0 
 11 
 1539.55200195313 
 21 
 5896.27197265625 
 31 
 0 
 0 
LINE
 10 
 1539.55200195313 
 20 
 5896.27197265625 
 30 
 0 
 11 
 1538.3359375 
 21 
 5913.81591796875 
 31 
 0 
 0 
LINE
 10 
 1538.3359375 
 20 
 5913.81591796875 
 30 
 0 
 11 
 1536.5439453125 
 21 
 5928.62353515625 
 31 
 0 
 0 
LINE
 10 
 1536.5439453125 
 20 
 5928.62353515625 
 30 
 0 
 11 
 1534.36804199219 
 21 
 5939.68798828125 
 31 
 0 
 0 
LINE
 10 
 1534.36804199219 
 20 
 5939.68798828125 
 30 
 0 
 11 
 1532 
 21 
 5946 
 31 
 0 
 0 
LINE
 10 
 1532 
 20 
 5946 
 30 
 0 
 11 
 1515.86401367188 
 21 
 5991.23974609375 
 31 
 0 
 0 
LINE
 10 
 1515.86401367188 
 20 
 5991.23974609375 
 30 
 0 
 11 
 1506.11206054688 
 21 
 6074.39990234375 
 31 
 0 
 0 
LINE
 10 
 1506.11206054688 
 20 
 6074.39990234375 
 30 
 0 
 11 
 1503.12805175781 
 21 
 6179.64013671875 
 31 
 0 
 0 
LINE
 10 
 1503.12805175781 
 20 
 6179.64013671875 
 30 
 0 
 11 
 1507.29602050781 
 21 
 6291.1201171875 
 31 
 0 
 0 
LINE
 10 
 1507.29602050781 
 20 
 6291.1201171875 
 30 
 0 
 11 
 1519 
 21 
 6393 
 31 
 0 
 0 
LINE
 10 
 1519 
 20 
 6393 
 30 
 0 
 11 
 1528.27209472656 
 21 
 6430.439453125 
 31 
 0 
 0 
LINE
 10 
 1528.27209472656 
 20 
 6430.439453125 
 30 
 0 
 11 
 1542.77600097656 
 21 
 6467.16015625 
 31 
 0 
 0 
LINE
 10 
 1542.77600097656 
 20 
 6467.16015625 
 30 
 0 
 11 
 1560.54406738281 
 21 
 6499.56005859375 
 31 
 0 
 0 
LINE
 10 
 1560.54406738281 
 20 
 6499.56005859375 
 30 
 0 
 11 
 1579.60803222656 
 21 
 6524.0400390625 
 31 
 0 
 0 
LINE
 10 
 1579.60803222656 
 20 
 6524.0400390625 
 30 
 0 
 11 
 1598 
 21 
 6537 
 31 
 0 
 0 
LINE
 10 
 1598 
 20 
 6537 
 30 
 0 
 11 
 1604.70385742188 
 21 
 6540.1357421875 
 31 
 0 
 0 
LINE
 10 
 1604.70385742188 
 20 
 6540.1357421875 
 30 
 0 
 11 
 1613.47204589844 
 21 
 6545.5283203125 
 31 
 0 
 0 
LINE
 10 
 1613.47204589844 
 20 
 6545.5283203125 
 30 
 0 
 11 
 1623.48791503906 
 21 
 6552.55224609375 
 31 
 0 
 0 
LINE
 10 
 1623.48791503906 
 20 
 6552.55224609375 
 30 
 0 
 11 
 1633.93603515625 
 21 
 6560.583984375 
 31 
 0 
 0 
LINE
 10 
 1633.93603515625 
 20 
 6560.583984375 
 30 
 0 
 11 
 1644 
 21 
 6569 
 31 
 0 
 0 
LINE
 10 
 1644 
 20 
 6569 
 30 
 0 
 11 
 1697.2080078125 
 21 
 6620.14404296875 
 31 
 0 
 0 
LINE
 10 
 1697.2080078125 
 20 
 6620.14404296875 
 30 
 0 
 11 
 1739.42407226563 
 21 
 6669.51171875 
 31 
 0 
 0 
LINE
 10 
 1739.42407226563 
 20 
 6669.51171875 
 30 
 0 
 11 
 1774.53601074219 
 21 
 6723.0078125 
 31 
 0 
 0 
LINE
 10 
 1774.53601074219 
 20 
 6723.0078125 
 30 
 0 
 11 
 1806.43200683594 
 21 
 6786.5361328125 
 31 
 0 
 0 
LINE
 10 
 1806.43200683594 
 20 
 6786.5361328125 
 30 
 0 
 11 
 1839 
 21 
 6866 
 31 
 0 
 0 
LINE
 10 
 1839 
 20 
 6866 
 30 
 0 
 11 
 1870 
 21 
 6947 
 31 
 0 
 0 
LINE
 10 
 1870 
 20 
 6947 
 30 
 0 
 11 
 2018 
 21 
 6975 
 31 
 0 
 0 
LINE
 10 
 2018 
 20 
 6975 
 30 
 0 
 11 
 2066.32788085938 
 21 
 6984.1435546875 
 31 
 0 
 0 
LINE
 10 
 2066.32788085938 
 20 
 6984.1435546875 
 30 
 0 
 11 
 2112.06396484375 
 21 
 6993.1923828125 
 31 
 0 
 0 
LINE
 10 
 2112.06396484375 
 20 
 6993.1923828125 
 30 
 0 
 11 
 2152.13598632813 
 21 
 7001.56787109375 
 31 
 0 
 0 
LINE
 10 
 2152.13598632813 
 20 
 7001.56787109375 
 30 
 0 
 11 
 2183.47216796875 
 21 
 7008.6962890625 
 31 
 0 
 0 
LINE
 10 
 2183.47216796875 
 20 
 7008.6962890625 
 30 
 0 
 11 
 2203 
 21 
 7014 
 31 
 0 
 0 
LINE
 10 
 2203 
 20 
 7014 
 30 
 0 
 11 
 2249.81591796875 
 21 
 7019.9677734375 
 31 
 0 
 0 
LINE
 10 
 2249.81591796875 
 20 
 7019.9677734375 
 30 
 0 
 11 
 2326.00805664063 
 21 
 7023.34375 
 31 
 0 
 0 
LINE
 10 
 2326.00805664063 
 20 
 7023.34375 
 30 
 0 
 11 
 2410.7919921875 
 21 
 7023.93603515625 
 31 
 0 
 0 
LINE
 10 
 2410.7919921875 
 20 
 7023.93603515625 
 30 
 0 
 11 
 2483.38403320313 
 21 
 7021.55224609375 
 31 
 0 
 0 
LINE
 10 
 2483.38403320313 
 20 
 7021.55224609375 
 30 
 0 
 11 
 2523 
 21 
 7016 
 31 
 0 
 0 
LINE
 10 
 555 
 20 
 6720 
 30 
 0 
 11 
 565.583984375 
 21 
 6712.9033203125 
 31 
 0 
 0 
LINE
 10 
 565.583984375 
 20 
 6712.9033203125 
 30 
 0 
 11 
 575.351989746094 
 21 
 6705.23193359375 
 31 
 0 
 0 
LINE
 10 
 575.351989746094 
 20 
 6705.23193359375 
 30 
 0 
 11 
 583.72802734375 
 21 
 6697.60791015625 
 31 
 0 
 0 
LINE
 10 
 583.72802734375 
 20 
 6697.60791015625 
 30 
 0 
 11 
 590.135986328125 
 21 
 6690.65625 
 31 
 0 
 0 
LINE
 10 
 590.135986328125 
 20 
 6690.65625 
 30 
 0 
 11 
 594 
 21 
 6685 
 31 
 0 
 0 
LINE
 10 
 594 
 20 
 6685 
 30 
 0 
 11 
 607.296020507813 
 21 
 6671.0556640625 
 31 
 0 
 0 
LINE
 10 
 607.296020507813 
 20 
 6671.0556640625 
 30 
 0 
 11 
 634.608032226563 
 21 
 6651.6884765625 
 31 
 0 
 0 
LINE
 10 
 634.608032226563 
 20 
 6651.6884765625 
 30 
 0 
 11 
 667.872009277344 
 21 
 6631.79248046875 
 31 
 0 
 0 
LINE
 10 
 667.872009277344 
 20 
 6631.79248046875 
 30 
 0 
 11 
 699.024047851563 
 21 
 6616.26416015625 
 31 
 0 
 0 
LINE
 10 
 699.024047851563 
 20 
 6616.26416015625 
 30 
 0 
 11 
 720 
 21 
 6610 
 31 
 0 
 0 
LINE
 10 
 720 
 20 
 6610 
 30 
 0 
 11 
 728.736022949219 
 21 
 6608.17578125 
 31 
 0 
 0 
LINE
 10 
 728.736022949219 
 20 
 6608.17578125 
 30 
 0 
 11 
 744.288024902344 
 21 
 6603.087890625 
 31 
 0 
 0 
LINE
 10 
 744.288024902344 
 20 
 6603.087890625 
 30 
 0 
 11 
 765.072021484375 
 21 
 6595.31201171875 
 31 
 0 
 0 
LINE
 10 
 765.072021484375 
 20 
 6595.31201171875 
 30 
 0 
 11 
 789.504028320313 
 21 
 6585.423828125 
 31 
 0 
 0 
LINE
 10 
 789.504028320313 
 20 
 6585.423828125 
 30 
 0 
 11 
 816 
 21 
 6574 
 31 
 0 
 0 
LINE
 10 
 816 
 20 
 6574 
 30 
 0 
 11 
 852.5439453125 
 21 
 6556.5517578125 
 31 
 0 
 0 
LINE
 10 
 852.5439453125 
 20 
 6556.5517578125 
 30 
 0 
 11 
 878.432006835938 
 21 
 6541.6962890625 
 31 
 0 
 0 
LINE
 10 
 878.432006835938 
 20 
 6541.6962890625 
 30 
 0 
 11 
 897.648010253906 
 21 
 6526.26416015625 
 31 
 0 
 0 
LINE
 10 
 897.648010253906 
 20 
 6526.26416015625 
 30 
 0 
 11 
 914.176025390625 
 21 
 6507.087890625 
 31 
 0 
 0 
LINE
 10 
 914.176025390625 
 20 
 6507.087890625 
 30 
 0 
 11 
 932 
 21 
 6481 
 31 
 0 
 0 
LINE
 10 
 932 
 20 
 6481 
 30 
 0 
 11 
 946.607971191406 
 21 
 6456.8955078125 
 31 
 0 
 0 
LINE
 10 
 946.607971191406 
 20 
 6456.8955078125 
 30 
 0 
 11 
 965.343994140625 
 21 
 6423.76806640625 
 31 
 0 
 0 
LINE
 10 
 965.343994140625 
 20 
 6423.76806640625 
 30 
 0 
 11 
 986.576049804688 
 21 
 6384.59228515625 
 31 
 0 
 0 
LINE
 10 
 986.576049804688 
 20 
 6384.59228515625 
 30 
 0 
 11 
 1008.67199707031 
 21 
 6342.34423828125 
 31 
 0 
 0 
LINE
 10 
 1008.67199707031 
 20 
 6342.34423828125 
 30 
 0 
 11 
 1030 
 21 
 6300 
 31 
 0 
 0 
LINE
 10 
 1030 
 20 
 6300 
 30 
 0 
 11 
 1082.84008789063 
 21 
 6200.0234375 
 31 
 0 
 0 
LINE
 10 
 1082.84008789063 
 20 
 6200.0234375 
 30 
 0 
 11 
 1139.0400390625 
 21 
 6103.55224609375 
 31 
 0 
 0 
LINE
 10 
 1139.0400390625 
 20 
 6103.55224609375 
 30 
 0 
 11 
 1194.52001953125 
 21 
 6016.9677734375 
 31 
 0 
 0 
LINE
 10 
 1194.52001953125 
 20 
 6016.9677734375 
 30 
 0 
 11 
 1245.20007324219 
 21 
 5946.65625 
 31 
 0 
 0 
LINE
 10 
 1245.20007324219 
 20 
 5946.65625 
 30 
 0 
 11 
 1287 
 21 
 5899 
 31 
 0 
 0 
LINE
 10 
 1287 
 20 
 5899 
 30 
 0 
 11 
 1306.07189941406 
 21 
 5881.31982421875 
 31 
 0 
 0 
LINE
 10 
 1306.07189941406 
 20 
 5881.31982421875 
 30 
 0 
 11 
 1330.61608886719 
 21 
 5859.56005859375 
 31 
 0 
 0 
LINE
 10 
 1330.61608886719 
 20 
 5859.56005859375 
 30 
 0 
 11 
 1358.42395019531 
 21 
 5835.64013671875 
 31 
 0 
 0 
LINE
 10 
 1358.42395019531 
 20 
 5835.64013671875 
 30 
 0 
 11 
 1387.28796386719 
 21 
 5811.47998046875 
 31 
 0 
 0 
LINE
 10 
 1387.28796386719 
 20 
 5811.47998046875 
 30 
 0 
 11 
 1415 
 21 
 5789 
 31 
 0 
 0 
LINE
 10 
 1415 
 20 
 5789 
 30 
 0 
 11 
 1478.80004882813 
 21 
 5736.95166015625 
 31 
 0 
 0 
LINE
 10 
 1478.80004882813 
 20 
 5736.95166015625 
 30 
 0 
 11 
 1526.76000976563 
 21 
 5695.416015625 
 31 
 0 
 0 
LINE
 10 
 1526.76000976563 
 20 
 5695.416015625 
 30 
 0 
 11 
 1561.52001953125 
 21 
 5661.7041015625 
 31 
 0 
 0 
LINE
 10 
 1561.52001953125 
 20 
 5661.7041015625 
 30 
 0 
 11 
 1585.71997070313 
 21 
 5633.1279296875 
 31 
 0 
 0 
LINE
 10 
 1585.71997070313 
 20 
 5633.1279296875 
 30 
 0 
 11 
 1602 
 21 
 5607 
 31 
 0 
 0 
LINE
 10 
 1602 
 20 
 5607 
 30 
 0 
 11 
 1611.583984375 
 21 
 5585.43212890625 
 31 
 0 
 0 
LINE
 10 
 1611.583984375 
 20 
 5585.43212890625 
 30 
 0 
 11 
 1616.27197265625 
 21 
 5570.5361328125 
 31 
 0 
 0 
LINE
 10 
 1616.27197265625 
 20 
 5570.5361328125 
 30 
 0 
 11 
 1615.96789550781 
 21 
 5563.22412109375 
 31 
 0 
 0 
LINE
 10 
 1615.96789550781 
 20 
 5563.22412109375 
 30 
 0 
 11 
 1610.57604980469 
 21 
 5564.408203125 
 31 
 0 
 0 
LINE
 10 
 1610.57604980469 
 20 
 5564.408203125 
 30 
 0 
 11 
 1600 
 21 
 5575 
 31 
 0 
 0 
LINE
 10 
 1600 
 20 
 5575 
 30 
 0 
 11 
 1595.50402832031 
 21 
 5579.63232421875 
 31 
 0 
 0 
LINE
 10 
 1595.50402832031 
 20 
 5579.63232421875 
 30 
 0 
 11 
 1590.67211914063 
 21 
 5583.736328125 
 31 
 0 
 0 
LINE
 10 
 1590.67211914063 
 20 
 5583.736328125 
 30 
 0 
 11 
 1585.88793945313 
 21 
 5587.02392578125 
 31 
 0 
 0 
LINE
 10 
 1585.88793945313 
 20 
 5587.02392578125 
 30 
 0 
 11 
 1581.53601074219 
 21 
 5589.2080078125 
 31 
 0 
 0 
LINE
 10 
 1581.53601074219 
 20 
 5589.2080078125 
 30 
 0 
 11 
 1578 
 21 
 5590 
 31 
 0 
 0 
LINE
 10 
 1578 
 20 
 5590 
 30 
 0 
 11 
 1572.83996582031 
 21 
 5591.58349609375 
 31 
 0 
 0 
LINE
 10 
 1572.83996582031 
 20 
 5591.58349609375 
 30 
 0 
 11 
 1565.04016113281 
 21 
 5595.9521484375 
 31 
 0 
 0 
LINE
 10 
 1565.04016113281 
 20 
 5595.9521484375 
 30 
 0 
 11 
 1555.32006835938 
 21 
 5602.52783203125 
 31 
 0 
 0 
LINE
 10 
 1555.32006835938 
 20 
 5602.52783203125 
 30 
 0 
 11 
 1544.40002441406 
 21 
 5610.73583984375 
 31 
 0 
 0 
LINE
 10 
 1544.40002441406 
 20 
 5610.73583984375 
 30 
 0 
 11 
 1533 
 21 
 5620 
 31 
 0 
 0 
LINE
 10 
 1533 
 20 
 5620 
 30 
 0 
 11 
 1504.63195800781 
 21 
 5642.50341796875 
 31 
 0 
 0 
LINE
 10 
 1504.63195800781 
 20 
 5642.50341796875 
 30 
 0 
 11 
 1487.01611328125 
 21 
 5650.27197265625 
 31 
 0 
 0 
LINE
 10 
 1487.01611328125 
 20 
 5650.27197265625 
 30 
 0 
 11 
 1480.58410644531 
 21 
 5643.68798828125 
 31 
 0 
 0 
LINE
 10 
 1480.58410644531 
 20 
 5643.68798828125 
 30 
 0 
 11 
 1485.76806640625 
 21 
 5623.13623046875 
 31 
 0 
 0 
LINE
 10 
 1485.76806640625 
 20 
 5623.13623046875 
 30 
 0 
 11 
 1503 
 21 
 5589 
 31 
 0 
 0 
LINE
 10 
 1503 
 20 
 5589 
 30 
 0 
 11 
 1544.57592773438 
 21 
 5541.96826171875 
 31 
 0 
 0 
LINE
 10 
 1544.57592773438 
 20 
 5541.96826171875 
 30 
 0 
 11 
 1614.32800292969 
 21 
 5488.26416015625 
 31 
 0 
 0 
LINE
 10 
 1614.32800292969 
 20 
 5488.26416015625 
 30 
 0 
 11 
 1698.19189453125 
 21 
 5436.576171875 
 31 
 0 
 0 
LINE
 10 
 1698.19189453125 
 20 
 5436.576171875 
 30 
 0 
 11 
 1782.10400390625 
 21 
 5395.59228515625 
 31 
 0 
 0 
LINE
 10 
 1782.10400390625 
 20 
 5395.59228515625 
 30 
 0 
 11 
 1852 
 21 
 5374 
 31 
 0 
 0 
LINE
 10 
 1852 
 20 
 5374 
 30 
 0 
 11 
 1864.35192871094 
 21 
 5371.3837890625 
 31 
 0 
 0 
LINE
 10 
 1864.35192871094 
 20 
 5371.3837890625 
 30 
 0 
 11 
 1875.69604492188 
 21 
 5368.43212890625 
 31 
 0 
 0 
LINE
 10 
 1875.69604492188 
 20 
 5368.43212890625 
 30 
 0 
 11 
 1885.26403808594 
 21 
 5365.2880859375 
 31 
 0 
 0 
LINE
 10 
 1885.26403808594 
 20 
 5365.2880859375 
 30 
 0 
 11 
 1892.2880859375 
 21 
 5362.09619140625 
 31 
 0 
 0 
LINE
 10 
 1892.2880859375 
 20 
 5362.09619140625 
 30 
 0 
 11 
 1896 
 21 
 5359 
 31 
 0 
 0 
LINE
 10 
 1896 
 20 
 5359 
 30 
 0 
 11 
 1899.83190917969 
 21 
 5355.56787109375 
 31 
 0 
 0 
LINE
 10 
 1899.83190917969 
 20 
 5355.56787109375 
 30 
 0 
 11 
 1907.21618652344 
 21 
 5351.4638671875 
 31 
 0 
 0 
LINE
 10 
 1907.21618652344 
 20 
 5351.4638671875 
 30 
 0 
 11 
 1917.38403320313 
 21 
 5346.97607421875 
 31 
 0 
 0 
LINE
 10 
 1917.38403320313 
 20 
 5346.97607421875 
 30 
 0 
 11 
 1929.56811523438 
 21 
 5342.39208984375 
 31 
 0 
 0 
LINE
 10 
 1929.56811523438 
 20 
 5342.39208984375 
 30 
 0 
 11 
 1943 
 21 
 5338 
 31 
 0 
 0 
LINE
 10 
 1943 
 20 
 5338 
 30 
 0 
 11 
 1968.77587890625 
 21 
 5331.0478515625 
 31 
 0 
 0 
LINE
 10 
 1968.77587890625 
 20 
 5331.0478515625 
 30 
 0 
 11 
 1985.52807617188 
 21 
 5326.5439453125 
 31 
 0 
 0 
LINE
 10 
 1985.52807617188 
 20 
 5326.5439453125 
 30 
 0 
 11 
 1995.99206542969 
 21 
 5323.81591796875 
 31 
 0 
 0 
LINE
 10 
 1995.99206542969 
 20 
 5323.81591796875 
 30 
 0 
 11 
 2002.90405273438 
 21 
 5322.1923828125 
 31 
 0 
 0 
LINE
 10 
 2002.90405273438 
 20 
 5322.1923828125 
 30 
 0 
 11 
 2009 
 21 
 5321 
 31 
 0 
 0 
LINE
 10 
 2009 
 20 
 5321 
 30 
 0 
 11 
 2012.63989257813 
 21 
 5320.2080078125 
 31 
 0 
 0 
LINE
 10 
 2012.63989257813 
 20 
 5320.2080078125 
 30 
 0 
 11 
 2017.23999023438 
 21 
 5318.02392578125 
 31 
 0 
 0 
LINE
 10 
 2017.23999023438 
 20 
 5318.02392578125 
 30 
 0 
 11 
 2022.31994628906 
 21 
 5314.73583984375 
 31 
 0 
 0 
LINE
 10 
 2022.31994628906 
 20 
 5314.73583984375 
 30 
 0 
 11 
 2027.40002441406 
 21 
 5310.63232421875 
 31 
 0 
 0 
LINE
 10 
 2027.40002441406 
 20 
 5310.63232421875 
 30 
 0 
 11 
 2032 
 21 
 5306 
 31 
 0 
 0 
LINE
 10 
 2032 
 20 
 5306 
 30 
 0 
 11 
 2038.3359375 
 21 
 5301.0478515625 
 31 
 0 
 0 
LINE
 10 
 2038.3359375 
 20 
 5301.0478515625 
 30 
 0 
 11 
 2047.16809082031 
 21 
 5294.9443359375 
 31 
 0 
 0 
LINE
 10 
 2047.16809082031 
 20 
 5294.9443359375 
 30 
 0 
 11 
 2057.63208007813 
 21 
 5288.2158203125 
 31 
 0 
 0 
LINE
 10 
 2057.63208007813 
 20 
 5288.2158203125 
 30 
 0 
 11 
 2068.86401367188 
 21 
 5281.39208984375 
 31 
 0 
 0 
LINE
 10 
 2068.86401367188 
 20 
 5281.39208984375 
 30 
 0 
 11 
 2080 
 21 
 5275 
 31 
 0 
 0 
LINE
 10 
 2080 
 20 
 5275 
 30 
 0 
 11 
 2093.10375976563 
 21 
 5267.80810546875 
 31 
 0 
 0 
LINE
 10 
 2093.10375976563 
 20 
 5267.80810546875 
 30 
 0 
 11 
 2108.751953125 
 21 
 5258.74365234375 
 31 
 0 
 0 
LINE
 10 
 2108.751953125 
 20 
 5258.74365234375 
 30 
 0 
 11 
 2125.64794921875 
 21 
 5248.576171875 
 31 
 0 
 0 
LINE
 10 
 2125.64794921875 
 20 
 5248.576171875 
 30 
 0 
 11 
 2142.49609375 
 21 
 5238.072265625 
 31 
 0 
 0 
LINE
 10 
 2142.49609375 
 20 
 5238.072265625 
 30 
 0 
 11 
 2158 
 21 
 5228 
 31 
 0 
 0 
LINE
 10 
 2158 
 20 
 5228 
 30 
 0 
 11 
 2200 
 21 
 5199 
 31 
 0 
 0 
LINE
 10 
 2200 
 20 
 5199 
 30 
 0 
 11 
 2146 
 21 
 5127 
 31 
 0 
 0 
LINE
 10 
 2146 
 20 
 5127 
 30 
 0 
 11 
 2127.47192382813 
 21 
 5103.24853515625 
 31 
 0 
 0 
LINE
 10 
 2127.47192382813 
 20 
 5103.24853515625 
 30 
 0 
 11 
 2109.85620117188 
 21 
 5080.984375 
 31 
 0 
 0 
LINE
 10 
 2109.85620117188 
 20 
 5080.984375 
 30 
 0 
 11 
 2094.30395507813 
 21 
 5061.69580078125 
 31 
 0 
 0 
LINE
 10 
 2094.30395507813 
 20 
 5061.69580078125 
 30 
 0 
 11 
 2081.96801757813 
 21 
 5046.8720703125 
 31 
 0 
 0 
LINE
 10 
 2081.96801757813 
 20 
 5046.8720703125 
 30 
 0 
 11 
 2074 
 21 
 5038 
 31 
 0 
 0 
LINE
 10 
 2074 
 20 
 5038 
 30 
 0 
 11 
 2069.11181640625 
 21 
 5031.98388671875 
 31 
 0 
 0 
LINE
 10 
 2069.11181640625 
 20 
 5031.98388671875 
 30 
 0 
 11 
 2065.3759765625 
 21 
 5025.15185546875 
 31 
 0 
 0 
LINE
 10 
 2065.3759765625 
 20 
 5025.15185546875 
 30 
 0 
 11 
 2062.98413085938 
 21 
 5018.1279296875 
 31 
 0 
 0 
LINE
 10 
 2062.98413085938 
 20 
 5018.1279296875 
 30 
 0 
 11 
 2062.12817382813 
 21 
 5011.5361328125 
 31 
 0 
 0 
LINE
 10 
 2062.12817382813 
 20 
 5011.5361328125 
 30 
 0 
 11 
 2063 
 21 
 5006 
 31 
 0 
 0 
LINE
 10 
 2063 
 20 
 5006 
 30 
 0 
 11 
 2063.97607421875 
 21 
 4997.03955078125 
 31 
 0 
 0 
LINE
 10 
 2063.97607421875 
 20 
 4997.03955078125 
 30 
 0 
 11 
 2063.3681640625 
 21 
 4980.8798828125 
 31 
 0 
 0 
LINE
 10 
 2063.3681640625 
 20 
 4980.8798828125 
 30 
 0 
 11 
 2061.27197265625 
 21 
 4959.2001953125 
 31 
 0 
 0 
LINE
 10 
 2061.27197265625 
 20 
 4959.2001953125 
 30 
 0 
 11 
 2057.7841796875 
 21 
 4933.68017578125 
 31 
 0 
 0 
LINE
 10 
 2057.7841796875 
 20 
 4933.68017578125 
 30 
 0 
 11 
 2053 
 21 
 4906 
 31 
 0 
 0 
LINE
 10 
 2053 
 20 
 4906 
 30 
 0 
 11 
 2046.15991210938 
 21 
 4868.015625 
 31 
 0 
 0 
LINE
 10 
 2046.15991210938 
 20 
 4868.015625 
 30 
 0 
 11 
 2042.44006347656 
 21 
 4839.0078125 
 31 
 0 
 0 
LINE
 10 
 2042.44006347656 
 20 
 4839.0078125 
 30 
 0 
 11 
 2041.84008789063 
 21 
 4814.9921875 
 31 
 0 
 0 
LINE
 10 
 2041.84008789063 
 20 
 4814.9921875 
 30 
 0 
 11 
 2044.36010742188 
 21 
 4791.98388671875 
 31 
 0 
 0 
LINE
 10 
 2044.36010742188 
 20 
 4791.98388671875 
 30 
 0 
 11 
 2050 
 21 
 4766 
 31 
 0 
 0 
LINE
 10 
 2050 
 20 
 4766 
 30 
 0 
 11 
 2061.2080078125 
 21 
 4728.16015625 
 31 
 0 
 0 
LINE
 10 
 2061.2080078125 
 20 
 4728.16015625 
 30 
 0 
 11 
 2071.744140625 
 21 
 4711.68017578125 
 31 
 0 
 0 
LINE
 10 
 2071.744140625 
 20 
 4711.68017578125 
 30 
 0 
 11 
 2081.17602539063 
 21 
 4716.3203125 
 31 
 0 
 0 
LINE
 10 
 2081.17602539063 
 20 
 4716.3203125 
 30 
 0 
 11 
 2089.07202148438 
 21 
 4741.84033203125 
 31 
 0 
 0 
LINE
 10 
 2089.07202148438 
 20 
 4741.84033203125 
 30 
 0 
 11 
 2095 
 21 
 4788 
 31 
 0 
 0 
LINE
 10 
 2095 
 20 
 4788 
 30 
 0 
 11 
 2101.94384765625 
 21 
 4859.11181640625 
 31 
 0 
 0 
LINE
 10 
 2101.94384765625 
 20 
 4859.11181640625 
 30 
 0 
 11 
 2110.23193359375 
 21 
 4923.6962890625 
 31 
 0 
 0 
LINE
 10 
 2110.23193359375 
 20 
 4923.6962890625 
 30 
 0 
 11 
 2119.04809570313 
 21 
 4976.423828125 
 31 
 0 
 0 
LINE
 10 
 2119.04809570313 
 20 
 4976.423828125 
 30 
 0 
 11 
 2127.57592773438 
 21 
 5011.96826171875 
 31 
 0 
 0 
LINE
 10 
 2127.57592773438 
 20 
 5011.96826171875 
 30 
 0 
 11 
 2135 
 21 
 5025 
 31 
 0 
 0 
LINE
 10 
 2135 
 20 
 5025 
 30 
 0 
 11 
 2138.91186523438 
 21 
 5021.6962890625 
 31 
 0 
 0 
LINE
 10 
 2138.91186523438 
 20 
 5021.6962890625 
 30 
 0 
 11 
 2143.25610351563 
 21 
 5012.48779296875 
 31 
 0 
 0 
LINE
 10 
 2143.25610351563 
 20 
 5012.48779296875 
 30 
 0 
 11 
 2147.74389648438 
 21 
 4998.43212890625 
 31 
 0 
 0 
LINE
 10 
 2147.74389648438 
 20 
 4998.43212890625 
 30 
 0 
 11 
 2152.087890625 
 21 
 4980.583984375 
 31 
 0 
 0 
LINE
 10 
 2152.087890625 
 20 
 4980.583984375 
 30 
 0 
 11 
 2156 
 21 
 4960 
 31 
 0 
 0 
LINE
 10 
 2156 
 20 
 4960 
 30 
 0 
 11 
 2162.94409179688 
 21 
 4920.03173828125 
 31 
 0 
 0 
LINE
 10 
 2162.94409179688 
 20 
 4920.03173828125 
 30 
 0 
 11 
 2169.7919921875 
 21 
 4891.5361328125 
 31 
 0 
 0 
LINE
 10 
 2169.7919921875 
 20 
 4891.5361328125 
 30 
 0 
 11 
 2177.16796875 
 21 
 4873.02392578125 
 31 
 0 
 0 
LINE
 10 
 2177.16796875 
 20 
 4873.02392578125 
 30 
 0 
 11 
 2185.69604492188 
 21 
 4863.00830078125 
 31 
 0 
 0 
LINE
 10 
 2185.69604492188 
 20 
 4863.00830078125 
 30 
 0 
 11 
 2196 
 21 
 4860 
 31 
 0 
 0 
LINE
 10 
 2196 
 20 
 4860 
 30 
 0 
 11 
 2201.2958984375 
 21 
 4861.904296875 
 31 
 0 
 0 
LINE
 10 
 2201.2958984375 
 20 
 4861.904296875 
 30 
 0 
 11 
 2205.248046875 
 21 
 4868.0322265625 
 31 
 0 
 0 
LINE
 10 
 2205.248046875 
 20 
 4868.0322265625 
 30 
 0 
 11 
 2207.95190429688 
 21 
 4879.00830078125 
 31 
 0 
 0 
LINE
 10 
 2207.95190429688 
 20 
 4879.00830078125 
 30 
 0 
 11 
 2209.50415039063 
 21 
 4895.4560546875 
 31 
 0 
 0 
LINE
 10 
 2209.50415039063 
 20 
 4895.4560546875 
 30 
 0 
 11 
 2210 
 21 
 4918 
 31 
 0 
 0 
LINE
 10 
 2210 
 20 
 4918 
 30 
 0 
 11 
 2212.45581054688 
 21 
 4955.5361328125 
 31 
 0 
 0 
LINE
 10 
 2212.45581054688 
 20 
 4955.5361328125 
 30 
 0 
 11 
 2220.76806640625 
 21 
 4983.328125 
 31 
 0 
 0 
LINE
 10 
 2220.76806640625 
 20 
 4983.328125 
 30 
 0 
 11 
 2238.15209960938 
 21 
 5005.55224609375 
 31 
 0 
 0 
LINE
 10 
 2238.15209960938 
 20 
 5005.55224609375 
 30 
 0 
 11 
 2267.82397460938 
 21 
 5026.38427734375 
 31 
 0 
 0 
LINE
 10 
 2267.82397460938 
 20 
 5026.38427734375 
 30 
 0 
 11 
 2313 
 21 
 5050 
 31 
 0 
 0 
LINE
 10 
 2313 
 20 
 5050 
 30 
 0 
 11 
 2335.9677734375 
 21 
 5061.73583984375 
 31 
 0 
 0 
LINE
 10 
 2335.9677734375 
 20 
 5061.73583984375 
 30 
 0 
 11 
 2356.10400390625 
 21 
 5073.56787109375 
 31 
 0 
 0 
LINE
 10 
 2356.10400390625 
 20 
 5073.56787109375 
 30 
 0 
 11 
 2372.25610351563 
 21 
 5084.6318359375 
 31 
 0 
 0 
LINE
 10 
 2372.25610351563 
 20 
 5084.6318359375 
 30 
 0 
 11 
 2383.27197265625 
 21 
 5094.06396484375 
 31 
 0 
 0 
LINE
 10 
 2383.27197265625 
 20 
 5094.06396484375 
 30 
 0 
 11 
 2388 
 21 
 5101 
 31 
 0 
 0 
LINE
 10 
 2388 
 20 
 5101 
 30 
 0 
 11 
 2386.91186523438 
 21 
 5116.080078125 
 31 
 0 
 0 
LINE
 10 
 2386.91186523438 
 20 
 5116.080078125 
 30 
 0 
 11 
 2378.576171875 
 21 
 5129.47998046875 
 31 
 0 
 0 
LINE
 10 
 2378.576171875 
 20 
 5129.47998046875 
 30 
 0 
 11 
 2364.38403320313 
 21 
 5140.240234375 
 31 
 0 
 0 
LINE
 10 
 2364.38403320313 
 20 
 5140.240234375 
 30 
 0 
 11 
 2345.72802734375 
 21 
 5147.39990234375 
 31 
 0 
 0 
LINE
 10 
 2345.72802734375 
 20 
 5147.39990234375 
 30 
 0 
 11 
 2324 
 21 
 5150 
 31 
 0 
 0 
LINE
 10 
 2324 
 20 
 5150 
 30 
 0 
 11 
 2310.48022460938 
 21 
 5150.5283203125 
 31 
 0 
 0 
LINE
 10 
 2310.48022460938 
 20 
 5150.5283203125 
 30 
 0 
 11 
 2300.80004882813 
 21 
 5152.30419921875 
 31 
 0 
 0 
LINE
 10 
 2300.80004882813 
 20 
 5152.30419921875 
 30 
 0 
 11 
 2294.47998046875 
 21 
 5155.6162109375 
 31 
 0 
 0 
LINE
 10 
 2294.47998046875 
 20 
 5155.6162109375 
 30 
 0 
 11 
 2291.0400390625 
 21 
 5160.75244140625 
 31 
 0 
 0 
LINE
 10 
 2291.0400390625 
 20 
 5160.75244140625 
 30 
 0 
 11 
 2290 
 21 
 5168 
 31 
 0 
 0 
LINE
 10 
 2290 
 20 
 5168 
 30 
 0 
 11 
 2291.82397460938 
 21 
 5175.6396484375 
 31 
 0 
 0 
LINE
 10 
 2291.82397460938 
 20 
 5175.6396484375 
 30 
 0 
 11 
 2297.8720703125 
 21 
 5182.080078125 
 31 
 0 
 0 
LINE
 10 
 2297.8720703125 
 20 
 5182.080078125 
 30 
 0 
 11 
 2309.00805664063 
 21 
 5187.7998046875 
 31 
 0 
 0 
LINE
 10 
 2309.00805664063 
 20 
 5187.7998046875 
 30 
 0 
 11 
 2326.09594726563 
 21 
 5193.2802734375 
 31 
 0 
 0 
LINE
 10 
 2326.09594726563 
 20 
 5193.2802734375 
 30 
 0 
 11 
 2350 
 21 
 5199 
 31 
 0 
 0 
LINE
 10 
 2350 
 20 
 5199 
 30 
 0 
 11 
 2370.60791015625 
 21 
 5203.95166015625 
 31 
 0 
 0 
LINE
 10 
 2370.60791015625 
 20 
 5203.95166015625 
 30 
 0 
 11 
 2391.744140625 
 21 
 5210.05615234375 
 31 
 0 
 0 
LINE
 10 
 2391.744140625 
 20 
 5210.05615234375 
 30 
 0 
 11 
 2411.77612304688 
 21 
 5216.7841796875 
 31 
 0 
 0 
LINE
 10 
 2411.77612304688 
 20 
 5216.7841796875 
 30 
 0 
 11 
 2429.07202148438 
 21 
 5223.60791015625 
 31 
 0 
 0 
LINE
 10 
 2429.07202148438 
 20 
 5223.60791015625 
 30 
 0 
 11 
 2442 
 21 
 5230 
 31 
 0 
 0 
LINE
 10 
 2442 
 20 
 5230 
 30 
 0 
 11 
 2454.16772460938 
 21 
 5235.79931640625 
 31 
 0 
 0 
LINE
 10 
 2454.16772460938 
 20 
 5235.79931640625 
 30 
 0 
 11 
 2468.30419921875 
 21 
 5242.080078125 
 31 
 0 
 0 
LINE
 10 
 2468.30419921875 
 20 
 5242.080078125 
 30 
 0 
 11 
 2483.25610351563 
 21 
 5248.3603515625 
 31 
 0 
 0 
LINE
 10 
 2483.25610351563 
 20 
 5248.3603515625 
 30 
 0 
 11 
 2497.8720703125 
 21 
 5254.16015625 
 31 
 0 
 0 
LINE
 10 
 2497.8720703125 
 20 
 5254.16015625 
 30 
 0 
 11 
 2511 
 21 
 5259 
 31 
 0 
 0 
LINE
 10 
 2511 
 20 
 5259 
 30 
 0 
 11 
 2523.17578125 
 21 
 5264.04052734375 
 31 
 0 
 0 
LINE
 10 
 2523.17578125 
 20 
 5264.04052734375 
 30 
 0 
 11 
 2536.16821289063 
 21 
 5271.48046875 
 31 
 0 
 0 
LINE
 10 
 2536.16821289063 
 20 
 5271.48046875 
 30 
 0 
 11 
 2548.8720703125 
 21 
 5280.60009765625 
 31 
 0 
 0 
LINE
 10 
 2548.8720703125 
 20 
 5280.60009765625 
 30 
 0 
 11 
 2560.18408203125 
 21 
 5290.68017578125 
 31 
 0 
 0 
LINE
 10 
 2560.18408203125 
 20 
 5290.68017578125 
 30 
 0 
 11 
 2569 
 21 
 5301 
 31 
 0 
 0 
LINE
 10 
 2569 
 20 
 5301 
 30 
 0 
 11 
 2578.99169921875 
 21 
 5313.43212890625 
 31 
 0 
 0 
LINE
 10 
 2578.99169921875 
 20 
 5313.43212890625 
 30 
 0 
 11 
 2586.77612304688 
 21 
 5321.01611328125 
 31 
 0 
 0 
LINE
 10 
 2586.77612304688 
 20 
 5321.01611328125 
 30 
 0 
 11 
 2593.26391601563 
 21 
 5324.18408203125 
 31 
 0 
 0 
LINE
 10 
 2593.26391601563 
 20 
 5324.18408203125 
 30 
 0 
 11 
 2599.36791992188 
 21 
 5323.3681640625 
 31 
 0 
 0 
LINE
 10 
 2599.36791992188 
 20 
 5323.3681640625 
 30 
 0 
 11 
 2606 
 21 
 5319 
 31 
 0 
 0 
LINE
 10 
 2606 
 20 
 5319 
 30 
 0 
 11 
 2614.68774414063 
 21 
 5315.94384765625 
 31 
 0 
 0 
LINE
 10 
 2614.68774414063 
 20 
 5315.94384765625 
 30 
 0 
 11 
 2626.7841796875 
 21 
 5319.9921875 
 31 
 0 
 0 
LINE
 10 
 2626.7841796875 
 20 
 5319.9921875 
 30 
 0 
 11 
 2644.73583984375 
 21 
 5332.96826171875 
 31 
 0 
 0 
LINE
 10 
 2644.73583984375 
 20 
 5332.96826171875 
 30 
 0 
 11 
 2670.99194335938 
 21 
 5356.6962890625 
 31 
 0 
 0 
LINE
 10 
 2670.99194335938 
 20 
 5356.6962890625 
 30 
 0 
 11 
 2708 
 21 
 5393 
 31 
 0 
 0 
LINE
 10 
 2708 
 20 
 5393 
 30 
 0 
 11 
 2736.15991210938 
 21 
 5420.47998046875 
 31 
 0 
 0 
LINE
 10 
 2736.15991210938 
 20 
 5420.47998046875 
 30 
 0 
 11 
 2761.919921875 
 21 
 5444.3603515625 
 31 
 0 
 0 
LINE
 10 
 2761.919921875 
 20 
 5444.3603515625 
 30 
 0 
 11 
 2783.60009765625 
 21 
 5463.2001953125 
 31 
 0 
 0 
LINE
 10 
 2783.60009765625 
 20 
 5463.2001953125 
 30 
 0 
 11 
 2799.52001953125 
 21 
 5475.56005859375 
 31 
 0 
 0 
LINE
 10 
 2799.52001953125 
 20 
 5475.56005859375 
 30 
 0 
 11 
 2808 
 21 
 5480 
 31 
 0 
 0 
LINE
 10 
 2808 
 20 
 5480 
 30 
 0 
 11 
 2816.31201171875 
 21 
 5476.23193359375 
 31 
 0 
 0 
LINE
 10 
 2816.31201171875 
 20 
 5476.23193359375 
 30 
 0 
 11 
 2819.77612304688 
 21 
 5466.65625 
 31 
 0 
 0 
LINE
 10 
 2819.77612304688 
 20 
 5466.65625 
 30 
 0 
 11 
 2818.583984375 
 21 
 5453.86376953125 
 31 
 0 
 0 
LINE
 10 
 2818.583984375 
 20 
 5453.86376953125 
 30 
 0 
 11 
 2812.92797851563 
 21 
 5440.4482421875 
 31 
 0 
 0 
LINE
 10 
 2812.92797851563 
 20 
 5440.4482421875 
 30 
 0 
 11 
 2803 
 21 
 5429 
 31 
 0 
 0 
LINE
 10 
 2803 
 20 
 5429 
 30 
 0 
 11 
 2782.57568359375 
 21 
 5408.2236328125 
 31 
 0 
 0 
LINE
 10 
 2782.57568359375 
 20 
 5408.2236328125 
 30 
 0 
 11 
 2758.16796875 
 21 
 5378.9521484375 
 31 
 0 
 0 
LINE
 10 
 2758.16796875 
 20 
 5378.9521484375 
 30 
 0 
 11 
 2734.67211914063 
 21 
 5347.56787109375 
 31 
 0 
 0 
LINE
 10 
 2734.67211914063 
 20 
 5347.56787109375 
 30 
 0 
 11 
 2716.98413085938 
 21 
 5320.4560546875 
 31 
 0 
 0 
LINE
 10 
 2716.98413085938 
 20 
 5320.4560546875 
 30 
 0 
 11 
 2710 
 21 
 5304 
 31 
 0 
 0 
LINE
 10 
 2710 
 20 
 5304 
 30 
 0 
 11 
 2713.8798828125 
 21 
 5292.8955078125 
 31 
 0 
 0 
LINE
 10 
 2713.8798828125 
 20 
 5292.8955078125 
 30 
 0 
 11 
 2724.71997070313 
 21 
 5290.5283203125 
 31 
 0 
 0 
LINE
 10 
 2724.71997070313 
 20 
 5290.5283203125 
 30 
 0 
 11 
 2741.31982421875 
 21 
 5296.51171875 
 31 
 0 
 0 
LINE
 10 
 2741.31982421875 
 20 
 5296.51171875 
 30 
 0 
 11 
 2762.47998046875 
 21 
 5310.4638671875 
 31 
 0 
 0 
LINE
 10 
 2762.47998046875 
 20 
 5310.4638671875 
 30 
 0 
 11 
 2787 
 21 
 5332 
 31 
 0 
 0 
LINE
 10 
 2787 
 20 
 5332 
 30 
 0 
 11 
 2800.68774414063 
 21 
 5345.8798828125 
 31 
 0 
 0 
LINE
 10 
 2800.68774414063 
 20 
 5345.8798828125 
 30 
 0 
 11 
 2812.50415039063 
 21 
 5359.2802734375 
 31 
 0 
 0 
LINE
 10 
 2812.50415039063 
 20 
 5359.2802734375 
 30 
 0 
 11 
 2821.77587890625 
 21 
 5371.240234375 
 31 
 0 
 0 
LINE
 10 
 2821.77587890625 
 20 
 5371.240234375 
 30 
 0 
 11 
 2827.83203125 
 21 
 5380.80029296875 
 31 
 0 
 0 
LINE
 10 
 2827.83203125 
 20 
 5380.80029296875 
 30 
 0 
 11 
 2830 
 21 
 5387 
 31 
 0 
 0 
LINE
 10 
 2830 
 20 
 5387 
 30 
 0 
 11 
 2831.83203125 
 21 
 5395.7998046875 
 31 
 0 
 0 
LINE
 10 
 2831.83203125 
 20 
 5395.7998046875 
 30 
 0 
 11 
 2836.49609375 
 21 
 5399.56005859375 
 31 
 0 
 0 
LINE
 10 
 2836.49609375 
 20 
 5399.56005859375 
 30 
 0 
 11 
 2842.744140625 
 21 
 5398.52001953125 
 31 
 0 
 0 
LINE
 10 
 2842.744140625 
 20 
 5398.52001953125 
 30 
 0 
 11 
 2849.328125 
 21 
 5392.919921875 
 31 
 0 
 0 
LINE
 10 
 2849.328125 
 20 
 5392.919921875 
 30 
 0 
 11 
 2855 
 21 
 5383 
 31 
 0 
 0 
LINE
 10 
 2855 
 20 
 5383 
 30 
 0 
 11 
 2871.08813476563 
 21 
 5340.7197265625 
 31 
 0 
 0 
LINE
 10 
 2871.08813476563 
 20 
 5340.7197265625 
 30 
 0 
 11 
 2886.02392578125 
 21 
 5296.27978515625 
 31 
 0 
 0 
LINE
 10 
 2886.02392578125 
 20 
 5296.27978515625 
 30 
 0 
 11 
 2898.416015625 
 21 
 5254.47998046875 
 31 
 0 
 0 
LINE
 10 
 2898.416015625 
 20 
 5254.47998046875 
 30 
 0 
 11 
 2906.8720703125 
 21 
 5220.1201171875 
 31 
 0 
 0 
LINE
 10 
 2906.8720703125 
 20 
 5220.1201171875 
 30 
 0 
 11 
 2910 
 21 
 5198 
 31 
 0 
 0 
LINE
 10 
 2910 
 20 
 5198 
 30 
 0 
 11 
 2909.43994140625 
 21 
 5185.4873046875 
 31 
 0 
 0 
LINE
 10 
 2909.43994140625 
 20 
 5185.4873046875 
 30 
 0 
 11 
 2906.9599609375 
 21 
 5177.34375 
 31 
 0 
 0 
LINE
 10 
 2906.9599609375 
 20 
 5177.34375 
 30 
 0 
 11 
 2901.36010742188 
 21 
 5172.65576171875 
 31 
 0 
 0 
LINE
 10 
 2901.36010742188 
 20 
 5172.65576171875 
 30 
 0 
 11 
 2891.43994140625 
 21 
 5170.51220703125 
 31 
 0 
 0 
LINE
 10 
 2891.43994140625 
 20 
 5170.51220703125 
 30 
 0 
 11 
 2876 
 21 
 5170 
 31 
 0 
 0 
LINE
 10 
 2876 
 20 
 5170 
 30 
 0 
 11 
 2853.98388671875 
 21 
 5172.1435546875 
 31 
 0 
 0 
LINE
 10 
 2853.98388671875 
 20 
 5172.1435546875 
 30 
 0 
 11 
 2837.63208007813 
 21 
 5179.47216796875 
 31 
 0 
 0 
LINE
 10 
 2837.63208007813 
 20 
 5179.47216796875 
 30 
 0 
 11 
 2825.88793945313 
 21 
 5193.328125 
 31 
 0 
 0 
LINE
 10 
 2825.88793945313 
 20 
 5193.328125 
 30 
 0 
 11 
 2817.69604492188 
 21 
 5215.05615234375 
 31 
 0 
 0 
LINE
 10 
 2817.69604492188 
 20 
 5215.05615234375 
 30 
 0 
 11 
 2812 
 21 
 5246 
 31 
 0 
 0 
LINE
 10 
 2812 
 20 
 5246 
 30 
 0 
 11 
 2805.81591796875 
 21 
 5275.48828125 
 31 
 0 
 0 
LINE
 10 
 2805.81591796875 
 20 
 5275.48828125 
 30 
 0 
 11 
 2798.2880859375 
 21 
 5291.82421875 
 31 
 0 
 0 
LINE
 10 
 2798.2880859375 
 20 
 5291.82421875 
 30 
 0 
 11 
 2789.75219726563 
 21 
 5294.81591796875 
 31 
 0 
 0 
LINE
 10 
 2789.75219726563 
 20 
 5294.81591796875 
 30 
 0 
 11 
 2780.5439453125 
 21 
 5284.27197265625 
 31 
 0 
 0 
LINE
 10 
 2780.5439453125 
 20 
 5284.27197265625 
 30 
 0 
 11 
 2771 
 21 
 5260 
 31 
 0 
 0 
LINE
 10 
 2771 
 20 
 5260 
 30 
 0 
 11 
 2765.96801757813 
 21 
 5245.6796875 
 31 
 0 
 0 
LINE
 10 
 2765.96801757813 
 20 
 5245.6796875 
 30 
 0 
 11 
 2758.583984375 
 21 
 5229.919921875 
 31 
 0 
 0 
LINE
 10 
 2758.583984375 
 20 
 5229.919921875 
 30 
 0 
 11 
 2749.6162109375 
 21 
 5213.919921875 
 31 
 0 
 0 
LINE
 10 
 2749.6162109375 
 20 
 5213.919921875 
 30 
 0 
 11 
 2739.83203125 
 21 
 5198.8798828125 
 31 
 0 
 0 
LINE
 10 
 2739.83203125 
 20 
 5198.8798828125 
 30 
 0 
 11 
 2730 
 21 
 5186 
 31 
 0 
 0 
LINE
 10 
 2730 
 20 
 5186 
 30 
 0 
 11 
 2714.67163085938 
 21 
 5167.1201171875 
 31 
 0 
 0 
LINE
 10 
 2714.67163085938 
 20 
 5167.1201171875 
 30 
 0 
 11 
 2704.81616210938 
 21 
 5151.599609375 
 31 
 0 
 0 
LINE
 10 
 2704.81616210938 
 20 
 5151.599609375 
 30 
 0 
 11 
 2700.6240234375 
 21 
 5139.919921875 
 31 
 0 
 0 
LINE
 10 
 2700.6240234375 
 20 
 5139.919921875 
 30 
 0 
 11 
 2702.2880859375 
 21 
 5132.56005859375 
 31 
 0 
 0 
LINE
 10 
 2702.2880859375 
 20 
 5132.56005859375 
 30 
 0 
 11 
 2710 
 21 
 5130 
 31 
 0 
 0 
LINE
 10 
 2710 
 20 
 5130 
 30 
 0 
 11 
 2715.50366210938 
 21 
 5125.74365234375 
 31 
 0 
 0 
LINE
 10 
 2715.50366210938 
 20 
 5125.74365234375 
 30 
 0 
 11 
 2718.75219726563 
 21 
 5114.67236328125 
 31 
 0 
 0 
LINE
 10 
 2718.75219726563 
 20 
 5114.67236328125 
 30 
 0 
 11 
 2719.64819335938 
 21 
 5099.328125 
 31 
 0 
 0 
LINE
 10 
 2719.64819335938 
 20 
 5099.328125 
 30 
 0 
 11 
 2718.09594726563 
 21 
 5082.255859375 
 31 
 0 
 0 
LINE
 10 
 2718.09594726563 
 20 
 5082.255859375 
 30 
 0 
 11 
 2714 
 21 
 5066 
 31 
 0 
 0 
LINE
 10 
 2714 
 20 
 5066 
 30 
 0 
 11 
 2709.68798828125 
 21 
 5059.7275390625 
 31 
 0 
 0 
LINE
 10 
 2709.68798828125 
 20 
 5059.7275390625 
 30 
 0 
 11 
 2702.30395507813 
 21 
 5055.18408203125 
 31 
 0 
 0 
LINE
 10 
 2702.30395507813 
 20 
 5055.18408203125 
 30 
 0 
 11 
 2691.17602539063 
 21 
 5052.17626953125 
 31 
 0 
 0 
LINE
 10 
 2691.17602539063 
 20 
 5052.17626953125 
 30 
 0 
 11 
 2675.63208007813 
 21 
 5050.51220703125 
 31 
 0 
 0 
LINE
 10 
 2675.63208007813 
 20 
 5050.51220703125 
 30 
 0 
 11 
 2655 
 21 
 5050 
 31 
 0 
 0 
LINE
 10 
 2655 
 20 
 5050 
 30 
 0 
 11 
 2626.83984375 
 21 
 5051.576171875 
 31 
 0 
 0 
LINE
 10 
 2626.83984375 
 20 
 5051.576171875 
 30 
 0 
 11 
 2605.16015625 
 21 
 5056.84765625 
 31 
 0 
 0 
LINE
 10 
 2605.16015625 
 20 
 5056.84765625 
 30 
 0 
 11 
 2588.76000976563 
 21 
 5066.6318359375 
 31 
 0 
 0 
LINE
 10 
 2588.76000976563 
 20 
 5066.6318359375 
 30 
 0 
 11 
 2576.43994140625 
 21 
 5081.744140625 
 31 
 0 
 0 
LINE
 10 
 2576.43994140625 
 20 
 5081.744140625 
 30 
 0 
 11 
 2567 
 21 
 5103 
 31 
 0 
 0 
LINE
 10 
 2567 
 20 
 5103 
 30 
 0 
 11 
 2558.4638671875 
 21 
 5116.255859375 
 31 
 0 
 0 
LINE
 10 
 2558.4638671875 
 20 
 5116.255859375 
 30 
 0 
 11 
 2547.43212890625 
 21 
 5119.5283203125 
 31 
 0 
 0 
LINE
 10 
 2547.43212890625 
 20 
 5119.5283203125 
 30 
 0 
 11 
 2535.96801757813 
 21 
 5113.8720703125 
 31 
 0 
 0 
LINE
 10 
 2535.96801757813 
 20 
 5113.8720703125 
 30 
 0 
 11 
 2526.13598632813 
 21 
 5100.34423828125 
 31 
 0 
 0 
LINE
 10 
 2526.13598632813 
 20 
 5100.34423828125 
 30 
 0 
 11 
 2520 
 21 
 5080 
 31 
 0 
 0 
LINE
 10 
 2520 
 20 
 5080 
 30 
 0 
 11 
 2517.19189453125 
 21 
 5067.0078125 
 31 
 0 
 0 
LINE
 10 
 2517.19189453125 
 20 
 5067.0078125 
 30 
 0 
 11 
 2512.65600585938 
 21 
 5051.6640625 
 31 
 0 
 0 
LINE
 10 
 2512.65600585938 
 20 
 5051.6640625 
 30 
 0 
 11 
 2506.82397460938 
 21 
 5035.2158203125 
 31 
 0 
 0 
LINE
 10 
 2506.82397460938 
 20 
 5035.2158203125 
 30 
 0 
 11 
 2500.12817382813 
 21 
 5018.912109375 
 31 
 0 
 0 
LINE
 10 
 2500.12817382813 
 20 
 5018.912109375 
 30 
 0 
 11 
 2493 
 21 
 5004 
 31 
 0 
 0 
LINE
 10 
 2493 
 20 
 5004 
 30 
 0 
 11 
 2473.38403320313 
 21 
 4954.94384765625 
 31 
 0 
 0 
LINE
 10 
 2473.38403320313 
 20 
 4954.94384765625 
 30 
 0 
 11 
 2464.7119140625 
 21 
 4905.31201171875 
 31 
 0 
 0 
LINE
 10 
 2464.7119140625 
 20 
 4905.31201171875 
 30 
 0 
 11 
 2466.64794921875 
 21 
 4861.00830078125 
 31 
 0 
 0 
LINE
 10 
 2466.64794921875 
 20 
 4861.00830078125 
 30 
 0 
 11 
 2478.85595703125 
 21 
 4827.93603515625 
 31 
 0 
 0 
LINE
 10 
 2478.85595703125 
 20 
 4827.93603515625 
 30 
 0 
 11 
 2501 
 21 
 4812 
 31 
 0 
 0 
LINE
 10 
 2501 
 20 
 4812 
 30 
 0 
 11 
 2507.7919921875 
 21 
 4812.416015625 
 31 
 0 
 0 
LINE
 10 
 2507.7919921875 
 20 
 4812.416015625 
 30 
 0 
 11 
 2512.85595703125 
 21 
 4816.76806640625 
 31 
 0 
 0 
LINE
 10 
 2512.85595703125 
 20 
 4816.76806640625 
 30 
 0 
 11 
 2516.6240234375 
 21 
 4826.1123046875 
 31 
 0 
 0 
LINE
 10 
 2516.6240234375 
 20 
 4826.1123046875 
 30 
 0 
 11 
 2519.52807617188 
 21 
 4841.50390625 
 31 
 0 
 0 
LINE
 10 
 2519.52807617188 
 20 
 4841.50390625 
 30 
 0 
 11 
 2522 
 21 
 4864 
 31 
 0 
 0 
LINE
 10 
 2522 
 20 
 4864 
 30 
 0 
 11 
 2524.64819335938 
 21 
 4885.49609375 
 31 
 0 
 0 
LINE
 10 
 2524.64819335938 
 20 
 4885.49609375 
 30 
 0 
 11 
 2529.02416992188 
 21 
 4905.64794921875 
 31 
 0 
 0 
LINE
 10 
 2529.02416992188 
 20 
 4905.64794921875 
 30 
 0 
 11 
 2535.17602539063 
 21 
 4924.55224609375 
 31 
 0 
 0 
LINE
 10 
 2535.17602539063 
 20 
 4924.55224609375 
 30 
 0 
 11 
 2543.15209960938 
 21 
 4942.30419921875 
 31 
 0 
 0 
LINE
 10 
 2543.15209960938 
 20 
 4942.30419921875 
 30 
 0 
 11 
 2553 
 21 
 4959 
 31 
 0 
 0 
LINE
 10 
 2553 
 20 
 4959 
 30 
 0 
 11 
 2566.744140625 
 21 
 4978.6240234375 
 31 
 0 
 0 
LINE
 10 
 2566.744140625 
 20 
 4978.6240234375 
 30 
 0 
 11 
 2578.23217773438 
 21 
 4990.7119140625 
 31 
 0 
 0 
LINE
 10 
 2578.23217773438 
 20 
 4990.7119140625 
 30 
 0 
 11 
 2591.44799804688 
 21 
 4997.087890625 
 31 
 0 
 0 
LINE
 10 
 2591.44799804688 
 20 
 4997.087890625 
 30 
 0 
 11 
 2610.3759765625 
 21 
 4999.576171875 
 31 
 0 
 0 
LINE
 10 
 2610.3759765625 
 20 
 4999.576171875 
 30 
 0 
 11 
 2639 
 21 
 5000 
 31 
 0 
 0 
LINE
 10 
 2639 
 20 
 5000 
 30 
 0 
 11 
 2698 
 21 
 5000 
 31 
 0 
 0 
LINE
 10 
 2698 
 20 
 5000 
 30 
 0 
 11 
 2705 
 21 
 4951 
 31 
 0 
 0 
LINE
 10 
 2705 
 20 
 4951 
 30 
 0 
 11 
 2712.18383789063 
 21 
 4920.52783203125 
 31 
 0 
 0 
LINE
 10 
 2712.18383789063 
 20 
 4920.52783203125 
 30 
 0 
 11 
 2724.31225585938 
 21 
 4892.98388671875 
 31 
 0 
 0 
LINE
 10 
 2724.31225585938 
 20 
 4892.98388671875 
 30 
 0 
 11 
 2739.84814453125 
 21 
 4870.576171875 
 31 
 0 
 0 
LINE
 10 
 2739.84814453125 
 20 
 4870.576171875 
 30 
 0 
 11 
 2757.25610351563 
 21 
 4855.51220703125 
 31 
 0 
 0 
LINE
 10 
 2757.25610351563 
 20 
 4855.51220703125 
 30 
 0 
 11 
 2775 
 21 
 4850 
 31 
 0 
 0 
LINE
 10 
 2775 
 20 
 4850 
 30 
 0 
 11 
 2783.72802734375 
 21 
 4850.31982421875 
 31 
 0 
 0 
LINE
 10 
 2783.72802734375 
 20 
 4850.31982421875 
 30 
 0 
 11 
 2788.18383789063 
 21 
 4854.00048828125 
 31 
 0 
 0 
LINE
 10 
 2788.18383789063 
 20 
 4854.00048828125 
 30 
 0 
 11 
 2788.17602539063 
 21 
 4865.1201171875 
 31 
 0 
 0 
LINE
 10 
 2788.17602539063 
 20 
 4865.1201171875 
 30 
 0 
 11 
 2783.51196289063 
 21 
 4887.76025390625 
 31 
 0 
 0 
LINE
 10 
 2783.51196289063 
 20 
 4887.76025390625 
 30 
 0 
 11 
 2774 
 21 
 4926 
 31 
 0 
 0 
LINE
 10 
 2774 
 20 
 4926 
 30 
 0 
 11 
 2766.34399414063 
 21 
 4957.263671875 
 31 
 0 
 0 
LINE
 10 
 2766.34399414063 
 20 
 4957.263671875 
 30 
 0 
 11 
 2762.67211914063 
 21 
 4978.1123046875 
 31 
 0 
 0 
LINE
 10 
 2762.67211914063 
 20 
 4978.1123046875 
 30 
 0 
 11 
 2763.1279296875 
 21 
 4992.52783203125 
 31 
 0 
 0 
LINE
 10 
 2763.1279296875 
 20 
 4992.52783203125 
 30 
 0 
 11 
 2767.85595703125 
 21 
 5004.49609375 
 31 
 0 
 0 
LINE
 10 
 2767.85595703125 
 20 
 5004.49609375 
 30 
 0 
 11 
 2777 
 21 
 5018 
 31 
 0 
 0 
LINE
 10 
 2777 
 20 
 5018 
 30 
 0 
 11 
 2797.99169921875 
 21 
 5040.84814453125 
 31 
 0 
 0 
LINE
 10 
 2797.99169921875 
 20 
 5040.84814453125 
 30 
 0 
 11 
 2824.69604492188 
 21 
 5060.62451171875 
 31 
 0 
 0 
LINE
 10 
 2824.69604492188 
 20 
 5060.62451171875 
 30 
 0 
 11 
 2854.90405273438 
 21 
 5076.17578125 
 31 
 0 
 0 
LINE
 10 
 2854.90405273438 
 20 
 5076.17578125 
 30 
 0 
 11 
 2886.40795898438 
 21 
 5086.35205078125 
 31 
 0 
 0 
LINE
 10 
 2886.40795898438 
 20 
 5086.35205078125 
 30 
 0 
 11 
 2917 
 21 
 5090 
 31 
 0 
 0 
LINE
 10 
 2917 
 20 
 5090 
 30 
 0 
 11 
 2930.53588867188 
 21 
 5090.5595703125 
 31 
 0 
 0 
LINE
 10 
 2930.53588867188 
 20 
 5090.5595703125 
 30 
 0 
 11 
 2942.96801757813 
 21 
 5092.080078125 
 31 
 0 
 0 
LINE
 10 
 2942.96801757813 
 20 
 5092.080078125 
 30 
 0 
 11 
 2953.43188476563 
 21 
 5094.3203125 
 31 
 0 
 0 
LINE
 10 
 2953.43188476563 
 20 
 5094.3203125 
 30 
 0 
 11 
 2961.06396484375 
 21 
 5097.0400390625 
 31 
 0 
 0 
LINE
 10 
 2961.06396484375 
 20 
 5097.0400390625 
 30 
 0 
 11 
 2965 
 21 
 5100 
 31 
 0 
 0 
LINE
 10 
 2965 
 20 
 5100 
 30 
 0 
 11 
 2969.27197265625 
 21 
 5103.34375 
 31 
 0 
 0 
LINE
 10 
 2969.27197265625 
 20 
 5103.34375 
 30 
 0 
 11 
 2977.81616210938 
 21 
 5106.1123046875 
 31 
 0 
 0 
LINE
 10 
 2977.81616210938 
 20 
 5106.1123046875 
 30 
 0 
 11 
 2989.6240234375 
 21 
 5108.2080078125 
 31 
 0 
 0 
LINE
 10 
 2989.6240234375 
 20 
 5108.2080078125 
 30 
 0 
 11 
 3003.68798828125 
 21 
 5109.5361328125 
 31 
 0 
 0 
LINE
 10 
 3003.68798828125 
 20 
 5109.5361328125 
 30 
 0 
 11 
 3019 
 21 
 5110 
 31 
 0 
 0 
LINE
 10 
 3019 
 20 
 5110 
 30 
 0 
 11 
 3042.1279296875 
 21 
 5108.4638671875 
 31 
 0 
 0 
LINE
 10 
 3042.1279296875 
 20 
 5108.4638671875 
 30 
 0 
 11 
 3066.98413085938 
 21 
 5102.9921875 
 31 
 0 
 0 
LINE
 10 
 3066.98413085938 
 20 
 5102.9921875 
 30 
 0 
 11 
 3096.97607421875 
 21 
 5092.2880859375 
 31 
 0 
 0 
LINE
 10 
 3096.97607421875 
 20 
 5092.2880859375 
 30 
 0 
 11 
 3135.51220703125 
 21 
 5075.05615234375 
 31 
 0 
 0 
LINE
 10 
 3135.51220703125 
 20 
 5075.05615234375 
 30 
 0 
 11 
 3186 
 21 
 5050 
 31 
 0 
 0 
LINE
 10 
 3186 
 20 
 5050 
 30 
 0 
 11 
 3238.68798828125 
 21 
 5022.72021484375 
 31 
 0 
 0 
LINE
 10 
 3238.68798828125 
 20 
 5022.72021484375 
 30 
 0 
 11 
 3276.06396484375 
 21 
 5001.2001953125 
 31 
 0 
 0 
LINE
 10 
 3276.06396484375 
 20 
 5001.2001953125 
 30 
 0 
 11 
 3302.49609375 
 21 
 4982.3203125 
 31 
 0 
 0 
LINE
 10 
 3302.49609375 
 20 
 4982.3203125 
 30 
 0 
 11 
 3322.35205078125 
 21 
 4962.9599609375 
 31 
 0 
 0 
LINE
 10 
 3322.35205078125 
 20 
 4962.9599609375 
 30 
 0 
 11 
 3340 
 21 
 4940 
 31 
 0 
 0 
LINE
 10 
 3340 
 20 
 4940 
 30 
 0 
 11 
 3352.07983398438 
 21 
 4923.9599609375 
 31 
 0 
 0 
LINE
 10 
 3352.07983398438 
 20 
 4923.9599609375 
 30 
 0 
 11 
 3364.88012695313 
 21 
 4908.8798828125 
 31 
 0 
 0 
LINE
 10 
 3364.88012695313 
 20 
 4908.8798828125 
 30 
 0 
 11 
 3377.43994140625 
 21 
 4895.72021484375 
 31 
 0 
 0 
LINE
 10 
 3377.43994140625 
 20 
 4895.72021484375 
 30 
 0 
 11 
 3388.80004882813 
 21 
 4885.4404296875 
 31 
 0 
 0 
LINE
 10 
 3388.80004882813 
 20 
 4885.4404296875 
 30 
 0 
 11 
 3398 
 21 
 4879 
 31 
 0 
 0 
LINE
 10 
 3398 
 20 
 4879 
 30 
 0 
 11 
 3405.6640625 
 21 
 4873.50390625 
 31 
 0 
 0 
LINE
 10 
 3405.6640625 
 20 
 4873.50390625 
 30 
 0 
 11 
 3411.7919921875 
 21 
 4866.71240234375 
 31 
 0 
 0 
LINE
 10 
 3411.7919921875 
 20 
 4866.71240234375 
 30 
 0 
 11 
 3416.28784179688 
 21 
 4858.76806640625 
 31 
 0 
 0 
LINE
 10 
 3416.28784179688 
 20 
 4858.76806640625 
 30 
 0 
 11 
 3419.05615234375 
 21 
 4849.81640625 
 31 
 0 
 0 
LINE
 10 
 3419.05615234375 
 20 
 4849.81640625 
 30 
 0 
 11 
 3420 
 21 
 4840 
 31 
 0 
 0 
LINE
 10 
 3420 
 20 
 4840 
 30 
 0 
 11 
 3415.67993164063 
 21 
 4811.18408203125 
 31 
 0 
 0 
LINE
 10 
 3415.67993164063 
 20 
 4811.18408203125 
 30 
 0 
 11 
 3403.67993164063 
 21 
 4768.35205078125 
 31 
 0 
 0 
LINE
 10 
 3403.67993164063 
 20 
 4768.35205078125 
 30 
 0 
 11 
 3385.44018554688 
 21 
 4715.72802734375 
 31 
 0 
 0 
LINE
 10 
 3385.44018554688 
 20 
 4715.72802734375 
 30 
 0 
 11 
 3362.39990234375 
 21 
 4657.5361328125 
 31 
 0 
 0 
LINE
 10 
 3362.39990234375 
 20 
 4657.5361328125 
 30 
 0 
 11 
 3336 
 21 
 4598 
 31 
 0 
 0 
LINE
 10 
 3336 
 20 
 4598 
 30 
 0 
 11 
 3324.57592773438 
 21 
 4573.6318359375 
 31 
 0 
 0 
LINE
 10 
 3324.57592773438 
 20 
 4573.6318359375 
 30 
 0 
 11 
 3314.68823242188 
 21 
 4551.85595703125 
 31 
 0 
 0 
LINE
 10 
 3314.68823242188 
 20 
 4551.85595703125 
 30 
 0 
 11 
 3306.912109375 
 21 
 4534.06396484375 
 31 
 0 
 0 
LINE
 10 
 3306.912109375 
 20 
 4534.06396484375 
 30 
 0 
 11 
 3301.82397460938 
 21 
 4521.64794921875 
 31 
 0 
 0 
LINE
 10 
 3301.82397460938 
 20 
 4521.64794921875 
 30 
 0 
 11 
 3300 
 21 
 4516 
 31 
 0 
 0 
LINE
 10 
 3300 
 20 
 4516 
 30 
 0 
 11 
 3302.16772460938 
 21 
 4514.22412109375 
 31 
 0 
 0 
LINE
 10 
 3302.16772460938 
 20 
 4514.22412109375 
 30 
 0 
 11 
 3308.22412109375 
 21 
 4512.59228515625 
 31 
 0 
 0 
LINE
 10 
 3308.22412109375 
 20 
 4512.59228515625 
 30 
 0 
 11 
 3317.49609375 
 21 
 4511.248046875 
 31 
 0 
 0 
LINE
 10 
 3317.49609375 
 20 
 4511.248046875 
 30 
 0 
 11 
 3329.31201171875 
 21 
 4510.3359375 
 31 
 0 
 0 
LINE
 10 
 3329.31201171875 
 20 
 4510.3359375 
 30 
 0 
 11 
 3343 
 21 
 4510 
 31 
 0 
 0 
LINE
 10 
 3343 
 20 
 4510 
 30 
 0 
 11 
 3372.05615234375 
 21 
 4513.087890625 
 31 
 0 
 0 
LINE
 10 
 3372.05615234375 
 20 
 4513.087890625 
 30 
 0 
 11 
 3395.92797851563 
 21 
 4522.46435546875 
 31 
 0 
 0 
LINE
 10 
 3395.92797851563 
 20 
 4522.46435546875 
 30 
 0 
 11 
 3416.8720703125 
 21 
 4540.095703125 
 31 
 0 
 0 
LINE
 10 
 3416.8720703125 
 20 
 4540.095703125 
 30 
 0 
 11 
 3437.14404296875 
 21 
 4567.9521484375 
 31 
 0 
 0 
LINE
 10 
 3437.14404296875 
 20 
 4567.9521484375 
 30 
 0 
 11 
 3459 
 21 
 4608 
 31 
 0 
 0 
LINE
 10 
 3459 
 20 
 4608 
 30 
 0 
 11 
 3477.01586914063 
 21 
 4641.62353515625 
 31 
 0 
 0 
LINE
 10 
 3477.01586914063 
 20 
 4641.62353515625 
 30 
 0 
 11 
 3494.88793945313 
 21 
 4662.19189453125 
 31 
 0 
 0 
LINE
 10 
 3494.88793945313 
 20 
 4662.19189453125 
 30 
 0 
 11 
 3521.35205078125 
 21 
 4673.4482421875 
 31 
 0 
 0 
LINE
 10 
 3521.35205078125 
 20 
 4673.4482421875 
 30 
 0 
 11 
 3565.14404296875 
 21 
 4679.13623046875 
 31 
 0 
 0 
LINE
 10 
 3565.14404296875 
 20 
 4679.13623046875 
 30 
 0 
 11 
 3635 
 21 
 4683 
 31 
 0 
 0 
LINE
 10 
 3635 
 20 
 4683 
 30 
 0 
 11 
 3661.1279296875 
 21 
 4685.015625 
 31 
 0 
 0 
LINE
 10 
 3661.1279296875 
 20 
 4685.015625 
 30 
 0 
 11 
 3685.62426757813 
 21 
 4687.3681640625 
 31 
 0 
 0 
LINE
 10 
 3685.62426757813 
 20 
 4687.3681640625 
 30 
 0 
 11 
 3706.85595703125 
 21 
 4689.912109375 
 31 
 0 
 0 
LINE
 10 
 3706.85595703125 
 20 
 4689.912109375 
 30 
 0 
 11 
 3723.19213867188 
 21 
 4692.50439453125 
 31 
 0 
 0 
LINE
 10 
 3723.19213867188 
 20 
 4692.50439453125 
 30 
 0 
 11 
 3733 
 21 
 4695 
 31 
 0 
 0 
LINE
 10 
 3733 
 20 
 4695 
 30 
 0 
 11 
 3740.14379882813 
 21 
 4697.31982421875 
 31 
 0 
 0 
LINE
 10 
 3740.14379882813 
 20 
 4697.31982421875 
 30 
 0 
 11 
 3745.03198242188 
 21 
 4696.759765625 
 31 
 0 
 0 
LINE
 10 
 3745.03198242188 
 20 
 4696.759765625 
 30 
 0 
 11 
 3748.0478515625 
 21 
 4692.83984375 
 31 
 0 
 0 
LINE
 10 
 3748.0478515625 
 20 
 4692.83984375 
 30 
 0 
 11 
 3749.57592773438 
 21 
 4685.080078125 
 31 
 0 
 0 
LINE
 10 
 3749.57592773438 
 20 
 4685.080078125 
 30 
 0 
 11 
 3750 
 21 
 4673 
 31 
 0 
 0 
LINE
 10 
 3750 
 20 
 4673 
 30 
 0 
 11 
 3749.32006835938 
 21 
 4662.927734375 
 31 
 0 
 0 
LINE
 10 
 3749.32006835938 
 20 
 4662.927734375 
 30 
 0 
 11 
 3747.43994140625 
 21 
 4652.42431640625 
 31 
 0 
 0 
LINE
 10 
 3747.43994140625 
 20 
 4652.42431640625 
 30 
 0 
 11 
 3744.60009765625 
 21 
 4642.255859375 
 31 
 0 
 0 
LINE
 10 
 3744.60009765625 
 20 
 4642.255859375 
 30 
 0 
 11 
 3741.0400390625 
 21 
 4633.19189453125 
 31 
 0 
 0 
LINE
 10 
 3741.0400390625 
 20 
 4633.19189453125 
 30 
 0 
 11 
 3737 
 21 
 4626 
 31 
 0 
 0 
LINE
 10 
 3737 
 20 
 4626 
 30 
 0 
 11 
 3730.86401367188 
 21 
 4618.64794921875 
 31 
 0 
 0 
LINE
 10 
 3730.86401367188 
 20 
 4618.64794921875 
 30 
 0 
 11 
 3725.11206054688 
 21 
 4614.46435546875 
 31 
 0 
 0 
LINE
 10 
 3725.11206054688 
 20 
 4614.46435546875 
 30 
 0 
 11 
 3718.92797851563 
 21 
 4613.255859375 
 31 
 0 
 0 
LINE
 10 
 3718.92797851563 
 20 
 4613.255859375 
 30 
 0 
 11 
 3711.49609375 
 21 
 4614.83203125 
 31 
 0 
 0 
LINE
 10 
 3711.49609375 
 20 
 4614.83203125 
 30 
 0 
 11 
 3702 
 21 
 4619 
 31 
 0 
 0 
LINE
 10 
 3702 
 20 
 4619 
 30 
 0 
 11 
 3686.02368164063 
 21 
 4626.7041015625 
 31 
 0 
 0 
LINE
 10 
 3686.02368164063 
 20 
 4626.7041015625 
 30 
 0 
 11 
 3674.27221679688 
 21 
 4629.0322265625 
 31 
 0 
 0 
LINE
 10 
 3674.27221679688 
 20 
 4629.0322265625 
 30 
 0 
 11 
 3665.2080078125 
 21 
 4625.408203125 
 31 
 0 
 0 
LINE
 10 
 3665.2080078125 
 20 
 4625.408203125 
 30 
 0 
 11 
 3657.29614257813 
 21 
 4615.25634765625 
 31 
 0 
 0 
LINE
 10 
 3657.29614257813 
 20 
 4615.25634765625 
 30 
 0 
 11 
 3649 
 21 
 4598 
 31 
 0 
 0 
LINE
 10 
 3649 
 20 
 4598 
 30 
 0 
 11 
 3644.84790039063 
 21 
 4587.431640625 
 31 
 0 
 0 
LINE
 10 
 3644.84790039063 
 20 
 4587.431640625 
 30 
 0 
 11 
 3640.98413085938 
 21 
 4577.77587890625 
 31 
 0 
 0 
LINE
 10 
 3640.98413085938 
 20 
 4577.77587890625 
 30 
 0 
 11 
 3637.69604492188 
 21 
 4569.7041015625 
 31 
 0 
 0 
LINE
 10 
 3637.69604492188 
 20 
 4569.7041015625 
 30 
 0 
 11 
 3635.27197265625 
 21 
 4563.88818359375 
 31 
 0 
 0 
LINE
 10 
 3635.27197265625 
 20 
 4563.88818359375 
 30 
 0 
 11 
 3634 
 21 
 4561 
 31 
 0 
 0 
LINE
 10 
 3634 
 20 
 4561 
 30 
 0 
 11 
 3631.55200195313 
 21 
 4560.95166015625 
 31 
 0 
 0 
LINE
 10 
 3631.55200195313 
 20 
 4560.95166015625 
 30 
 0 
 11 
 3626.89599609375 
 21 
 4563.01611328125 
 31 
 0 
 0 
LINE
 10 
 3626.89599609375 
 20 
 4563.01611328125 
 30 
 0 
 11 
 3620.46411132813 
 21 
 4566.90380859375 
 31 
 0 
 0 
LINE
 10 
 3620.46411132813 
 20 
 4566.90380859375 
 30 
 0 
 11 
 3612.68798828125 
 21 
 4572.328125 
 31 
 0 
 0 
LINE
 10 
 3612.68798828125 
 20 
 4572.328125 
 30 
 0 
 11 
 3604 
 21 
 4579 
 31 
 0 
 0 
LINE
 10 
 3604 
 20 
 4579 
 30 
 0 
 11 
 3586.44799804688 
 21 
 4589.8955078125 
 31 
 0 
 0 
LINE
 10 
 3586.44799804688 
 20 
 4589.8955078125 
 30 
 0 
 11 
 3573.02416992188 
 21 
 4592.9677734375 
 31 
 0 
 0 
LINE
 10 
 3573.02416992188 
 20 
 4592.9677734375 
 30 
 0 
 11 
 3564.97607421875 
 21 
 4588.7919921875 
 31 
 0 
 0 
LINE
 10 
 3564.97607421875 
 20 
 4588.7919921875 
 30 
 0 
 11 
 3563.55200195313 
 21 
 4577.94384765625 
 31 
 0 
 0 
LINE
 10 
 3563.55200195313 
 20 
 4577.94384765625 
 30 
 0 
 11 
 3570 
 21 
 4561 
 31 
 0 
 0 
LINE
 10 
 3570 
 20 
 4561 
 30 
 0 
 11 
 3574.58374023438 
 21 
 4551.18408203125 
 31 
 0 
 0 
LINE
 10 
 3574.58374023438 
 20 
 4551.18408203125 
 30 
 0 
 11 
 3575.95190429688 
 21 
 4545.35205078125 
 31 
 0 
 0 
LINE
 10 
 3575.95190429688 
 20 
 4545.35205078125 
 30 
 0 
 11 
 3573.52807617188 
 21 
 4542.92822265625 
 31 
 0 
 0 
LINE
 10 
 3573.52807617188 
 20 
 4542.92822265625 
 30 
 0 
 11 
 3566.73608398438 
 21 
 4543.3359375 
 31 
 0 
 0 
LINE
 10 
 3566.73608398438 
 20 
 4543.3359375 
 30 
 0 
 11 
 3555 
 21 
 4546 
 31 
 0 
 0 
LINE
 10 
 3555 
 20 
 4546 
 30 
 0 
 11 
 3544.087890625 
 21 
 4547.99169921875 
 31 
 0 
 0 
LINE
 10 
 3544.087890625 
 20 
 4547.99169921875 
 30 
 0 
 11 
 3536.10375976563 
 21 
 4547.77587890625 
 31 
 0 
 0 
LINE
 10 
 3536.10375976563 
 20 
 4547.77587890625 
 30 
 0 
 11 
 3530.3759765625 
 21 
 4545.06396484375 
 31 
 0 
 0 
LINE
 10 
 3530.3759765625 
 20 
 4545.06396484375 
 30 
 0 
 11 
 3526.23193359375 
 21 
 4539.568359375 
 31 
 0 
 0 
LINE
 10 
 3526.23193359375 
 20 
 4539.568359375 
 30 
 0 
 11 
 3523 
 21 
 4531 
 31 
 0 
 0 
LINE
 10 
 3523 
 20 
 4531 
 30 
 0 
 11 
 3509.087890625 
 21 
 4511.935546875 
 31 
 0 
 0 
LINE
 10 
 3509.087890625 
 20 
 4511.935546875 
 30 
 0 
 11 
 3479.62377929688 
 21 
 4488.408203125 
 31 
 0 
 0 
LINE
 10 
 3479.62377929688 
 20 
 4488.408203125 
 30 
 0 
 11 
 3440.416015625 
 21 
 4464.1123046875 
 31 
 0 
 0 
LINE
 10 
 3440.416015625 
 20 
 4464.1123046875 
 30 
 0 
 11 
 3397.27197265625 
 21 
 4442.744140625 
 31 
 0 
 0 
LINE
 10 
 3397.27197265625 
 20 
 4442.744140625 
 30 
 0 
 11 
 3356 
 21 
 4428 
 31 
 0 
 0 
LINE
 10 
 3356 
 20 
 4428 
 30 
 0 
 11 
 3309 
 21 
 4416 
 31 
 0 
 0 
LINE
 10 
 3309 
 20 
 4416 
 30 
 0 
 11 
 3274 
 21 
 4453 
 31 
 0 
 0 
LINE
 10 
 3274 
 20 
 4453 
 30 
 0 
 11 
 3262.03979492188 
 21 
 4464.52783203125 
 31 
 0 
 0 
LINE
 10 
 3262.03979492188 
 20 
 4464.52783203125 
 30 
 0 
 11 
 3249.60009765625 
 21 
 4474.6640625 
 31 
 0 
 0 
LINE
 10 
 3249.60009765625 
 20 
 4474.6640625 
 30 
 0 
 11 
 3237.63989257813 
 21 
 4482.736328125 
 31 
 0 
 0 
LINE
 10 
 3237.63989257813 
 20 
 4482.736328125 
 30 
 0 
 11 
 3227.1201171875 
 21 
 4488.07177734375 
 31 
 0 
 0 
LINE
 10 
 3227.1201171875 
 20 
 4488.07177734375 
 30 
 0 
 11 
 3219 
 21 
 4490 
 31 
 0 
 0 
LINE
 10 
 3219 
 20 
 4490 
 30 
 0 
 11 
 3211.64794921875 
 21 
 4490.90380859375 
 31 
 0 
 0 
LINE
 10 
 3211.64794921875 
 20 
 4490.90380859375 
 30 
 0 
 11 
 3206.26416015625 
 21 
 4493.8720703125 
 31 
 0 
 0 
LINE
 10 
 3206.26416015625 
 20 
 4493.8720703125 
 30 
 0 
 11 
 3202.65600585938 
 21 
 4499.2880859375 
 31 
 0 
 0 
LINE
 10 
 3202.65600585938 
 20 
 4499.2880859375 
 30 
 0 
 11 
 3200.63208007813 
 21 
 4507.5361328125 
 31 
 0 
 0 
LINE
 10 
 3200.63208007813 
 20 
 4507.5361328125 
 30 
 0 
 11 
 3200 
 21 
 4519 
 31 
 0 
 0 
LINE
 10 
 3200 
 20 
 4519 
 30 
 0 
 11 
 3197.57592773438 
 21 
 4536.09619140625 
 31 
 0 
 0 
LINE
 10 
 3197.57592773438 
 20 
 4536.09619140625 
 30 
 0 
 11 
 3191.16821289063 
 21 
 4552.568359375 
 31 
 0 
 0 
LINE
 10 
 3191.16821289063 
 20 
 4552.568359375 
 30 
 0 
 11 
 3182.07202148438 
 21 
 4566.591796875 
 31 
 0 
 0 
LINE
 10 
 3182.07202148438 
 20 
 4566.591796875 
 30 
 0 
 11 
 3171.583984375 
 21 
 4576.34423828125 
 31 
 0 
 0 
LINE
 10 
 3171.583984375 
 20 
 4576.34423828125 
 30 
 0 
 11 
 3161 
 21 
 4580 
 31 
 0 
 0 
LINE
 10 
 3161 
 20 
 4580 
 30 
 0 
 11 
 3151.751953125 
 21 
 4576.7197265625 
 31 
 0 
 0 
LINE
 10 
 3151.751953125 
 20 
 4576.7197265625 
 30 
 0 
 11 
 3142.4560546875 
 21 
 4567.68017578125 
 31 
 0 
 0 
LINE
 10 
 3142.4560546875 
 20 
 4567.68017578125 
 30 
 0 
 11 
 3133.78393554688 
 21 
 4554.080078125 
 31 
 0 
 0 
LINE
 10 
 3133.78393554688 
 20 
 4554.080078125 
 30 
 0 
 11 
 3126.408203125 
 21 
 4537.1201171875 
 31 
 0 
 0 
LINE
 10 
 3126.408203125 
 20 
 4537.1201171875 
 30 
 0 
 11 
 3121 
 21 
 4518 
 31 
 0 
 0 
LINE
 10 
 3121 
 20 
 4518 
 30 
 0 
 11 
 3117.86401367188 
 21 
 4503.416015625 
 31 
 0 
 0 
LINE
 10 
 3117.86401367188 
 20 
 4503.416015625 
 30 
 0 
 11 
 3115.1123046875 
 21 
 4497.56787109375 
 31 
 0 
 0 
LINE
 10 
 3115.1123046875 
 20 
 4497.56787109375 
 30 
 0 
 11 
 3111.92797851563 
 21 
 4501.51220703125 
 31 
 0 
 0 
LINE
 10 
 3111.92797851563 
 20 
 4501.51220703125 
 30 
 0 
 11 
 3107.49609375 
 21 
 4516.30419921875 
 31 
 0 
 0 
LINE
 10 
 3107.49609375 
 20 
 4516.30419921875 
 30 
 0 
 11 
 3101 
 21 
 4543 
 31 
 0 
 0 
LINE
 10 
 3101 
 20 
 4543 
 30 
 0 
 11 
 3092.55981445313 
 21 
 4572.70361328125 
 31 
 0 
 0 
LINE
 10 
 3092.55981445313 
 20 
 4572.70361328125 
 30 
 0 
 11 
 3084.1201171875 
 21 
 4590.5517578125 
 31 
 0 
 0 
LINE
 10 
 3084.1201171875 
 20 
 4590.5517578125 
 30 
 0 
 11 
 3074 
 21 
 4597.64794921875 
 31 
 0 
 0 
LINE
 10 
 3074 
 20 
 4597.64794921875 
 30 
 0 
 11 
 3060.52001953125 
 21 
 4595.09619140625 
 31 
 0 
 0 
LINE
 10 
 3060.52001953125 
 20 
 4595.09619140625 
 30 
 0 
 11 
 3042 
 21 
 4584 
 31 
 0 
 0 
LINE
 10 
 3042 
 20 
 4584 
 30 
 0 
 11 
 3033.18383789063 
 21 
 4576.51171875 
 31 
 0 
 0 
LINE
 10 
 3033.18383789063 
 20 
 4576.51171875 
 30 
 0 
 11 
 3026.912109375 
 21 
 4567.7763671875 
 31 
 0 
 0 
LINE
 10 
 3026.912109375 
 20 
 4567.7763671875 
 30 
 0 
 11 
 3022.84814453125 
 21 
 4556.7841796875 
 31 
 0 
 0 
LINE
 10 
 3022.84814453125 
 20 
 4556.7841796875 
 30 
 0 
 11 
 3020.65600585938 
 21 
 4542.5283203125 
 31 
 0 
 0 
LINE
 10 
 3020.65600585938 
 20 
 4542.5283203125 
 30 
 0 
 11 
 3020 
 21 
 4524 
 31 
 0 
 0 
LINE
 10 
 3020 
 20 
 4524 
 30 
 0 
 11 
 3018.72802734375 
 21 
 4498.83984375 
 31 
 0 
 0 
LINE
 10 
 3018.72802734375 
 20 
 4498.83984375 
 30 
 0 
 11 
 3015.10400390625 
 21 
 4484.72021484375 
 31 
 0 
 0 
LINE
 10 
 3015.10400390625 
 20 
 4484.72021484375 
 30 
 0 
 11 
 3009.416015625 
 21 
 4481.8798828125 
 31 
 0 
 0 
LINE
 10 
 3009.416015625 
 20 
 4481.8798828125 
 30 
 0 
 11 
 3001.9521484375 
 21 
 4490.56005859375 
 31 
 0 
 0 
LINE
 10 
 3001.9521484375 
 20 
 4490.56005859375 
 30 
 0 
 11 
 2993 
 21 
 4511 
 31 
 0 
 0 
LINE
 10 
 2993 
 20 
 4511 
 30 
 0 
 11 
 2983.03198242188 
 21 
 4530.2158203125 
 31 
 0 
 0 
LINE
 10 
 2983.03198242188 
 20 
 4530.2158203125 
 30 
 0 
 11 
 2973.97607421875 
 21 
 4535.60791015625 
 31 
 0 
 0 
LINE
 10 
 2973.97607421875 
 20 
 4535.60791015625 
 30 
 0 
 11 
 2966.50390625 
 21 
 4527.9921875 
 31 
 0 
 0 
LINE
 10 
 2966.50390625 
 20 
 4527.9921875 
 30 
 0 
 11 
 2961.2880859375 
 21 
 4508.18408203125 
 31 
 0 
 0 
LINE
 10 
 2961.2880859375 
 20 
 4508.18408203125 
 30 
 0 
 11 
 2959 
 21 
 4477 
 31 
 0 
 0 
LINE
 10 
 2959 
 20 
 4477 
 30 
 0 
 11 
 2956.78369140625 
 21 
 4445.08837890625 
 31 
 0 
 0 
LINE
 10 
 2956.78369140625 
 20 
 4445.08837890625 
 30 
 0 
 11 
 2952.072265625 
 21 
 4440.583984375 
 31 
 0 
 0 
LINE
 10 
 2952.072265625 
 20 
 4440.583984375 
 30 
 0 
 11 
 2945.96801757813 
 21 
 4459.93603515625 
 31 
 0 
 0 
LINE
 10 
 2945.96801757813 
 20 
 4459.93603515625 
 30 
 0 
 11 
 2939.576171875 
 21 
 4499.591796875 
 31 
 0 
 0 
LINE
 10 
 2939.576171875 
 20 
 4499.591796875 
 30 
 0 
 11 
 2934 
 21 
 4556 
 31 
 0 
 0 
LINE
 10 
 2934 
 20 
 4556 
 30 
 0 
 11 
 2931.39208984375 
 21 
 4582.39990234375 
 31 
 0 
 0 
LINE
 10 
 2931.39208984375 
 20 
 4582.39990234375 
 30 
 0 
 11 
 2928.49609375 
 21 
 4605.43994140625 
 31 
 0 
 0 
LINE
 10 
 2928.49609375 
 20 
 4605.43994140625 
 30 
 0 
 11 
 2925.50390625 
 21 
 4623.68017578125 
 31 
 0 
 0 
LINE
 10 
 2925.50390625 
 20 
 4623.68017578125 
 30 
 0 
 11 
 2922.60815429688 
 21 
 4635.68017578125 
 31 
 0 
 0 
LINE
 10 
 2922.60815429688 
 20 
 4635.68017578125 
 30 
 0 
 11 
 2920 
 21 
 4640 
 31 
 0 
 0 
LINE
 10 
 2920 
 20 
 4640 
 30 
 0 
 11 
 2917.39208984375 
 21 
 4636.583984375 
 31 
 0 
 0 
LINE
 10 
 2917.39208984375 
 20 
 4636.583984375 
 30 
 0 
 11 
 2914.49609375 
 21 
 4627.07177734375 
 31 
 0 
 0 
LINE
 10 
 2914.49609375 
 20 
 4627.07177734375 
 30 
 0 
 11 
 2911.50390625 
 21 
 4612.568359375 
 31 
 0 
 0 
LINE
 10 
 2911.50390625 
 20 
 4612.568359375 
 30 
 0 
 11 
 2908.60815429688 
 21 
 4594.17626953125 
 31 
 0 
 0 
LINE
 10 
 2908.60815429688 
 20 
 4594.17626953125 
 30 
 0 
 11 
 2906 
 21 
 4573 
 31 
 0 
 0 
LINE
 10 
 2906 
 20 
 4573 
 30 
 0 
 11 
 2903.76806640625 
 21 
 4549.84765625 
 31 
 0 
 0 
LINE
 10 
 2903.76806640625 
 20 
 4549.84765625 
 30 
 0 
 11 
 2900.86401367188 
 21 
 4526.98388671875 
 31 
 0 
 0 
LINE
 10 
 2900.86401367188 
 20 
 4526.98388671875 
 30 
 0 
 11 
 2897.57592773438 
 21 
 4505.89599609375 
 31 
 0 
 0 
LINE
 10 
 2897.57592773438 
 20 
 4505.89599609375 
 30 
 0 
 11 
 2894.19213867188 
 21 
 4488.072265625 
 31 
 0 
 0 
LINE
 10 
 2894.19213867188 
 20 
 4488.072265625 
 30 
 0 
 11 
 2891 
 21 
 4475 
 31 
 0 
 0 
LINE
 10 
 2891 
 20 
 4475 
 30 
 0 
 11 
 2886.60009765625 
 21 
 4461.18359375 
 31 
 0 
 0 
LINE
 10 
 2886.60009765625 
 20 
 4461.18359375 
 30 
 0 
 11 
 2883.88012695313 
 21 
 4454.9521484375 
 31 
 0 
 0 
LINE
 10 
 2883.88012695313 
 20 
 4454.9521484375 
 30 
 0 
 11 
 2882.36010742188 
 21 
 4456.92822265625 
 31 
 0 
 0 
LINE
 10 
 2882.36010742188 
 20 
 4456.92822265625 
 30 
 0 
 11 
 2881.56005859375 
 21 
 4467.73583984375 
 31 
 0 
 0 
LINE
 10 
 2881.56005859375 
 20 
 4467.73583984375 
 30 
 0 
 11 
 2881 
 21 
 4488 
 31 
 0 
 0 
LINE
 10 
 2881 
 20 
 4488 
 30 
 0 
 11 
 2878.76000976563 
 21 
 4516.8798828125 
 31 
 0 
 0 
LINE
 10 
 2878.76000976563 
 20 
 4516.8798828125 
 30 
 0 
 11 
 2873.39990234375 
 21 
 4539.76025390625 
 31 
 0 
 0 
LINE
 10 
 2873.39990234375 
 20 
 4539.76025390625 
 30 
 0 
 11 
 2865.15991210938 
 21 
 4556.39990234375 
 31 
 0 
 0 
LINE
 10 
 2865.15991210938 
 20 
 4556.39990234375 
 30 
 0 
 11 
 2854.28002929688 
 21 
 4566.56005859375 
 31 
 0 
 0 
LINE
 10 
 2854.28002929688 
 20 
 4566.56005859375 
 30 
 0 
 11 
 2841 
 21 
 4570 
 31 
 0 
 0 
LINE
 10 
 2841 
 20 
 4570 
 30 
 0 
 11 
 2833.22387695313 
 21 
 4571.583984375 
 31 
 0 
 0 
LINE
 10 
 2833.22387695313 
 20 
 4571.583984375 
 30 
 0 
 11 
 2827.51220703125 
 21 
 4577.39208984375 
 31 
 0 
 0 
LINE
 10 
 2827.51220703125 
 20 
 4577.39208984375 
 30 
 0 
 11 
 2823.2880859375 
 21 
 4589.0078125 
 31 
 0 
 0 
LINE
 10 
 2823.2880859375 
 20 
 4589.0078125 
 30 
 0 
 11 
 2819.97607421875 
 21 
 4608.01611328125 
 31 
 0 
 0 
LINE
 10 
 2819.97607421875 
 20 
 4608.01611328125 
 30 
 0 
 11 
 2817 
 21 
 4636 
 31 
 0 
 0 
LINE
 10 
 2817 
 20 
 4636 
 30 
 0 
 11 
 2813.744140625 
 21 
 4672.54345703125 
 31 
 0 
 0 
LINE
 10 
 2813.744140625 
 20 
 4672.54345703125 
 30 
 0 
 11 
 2809.43212890625 
 21 
 4695.79248046875 
 31 
 0 
 0 
LINE
 10 
 2809.43212890625 
 20 
 4695.79248046875 
 30 
 0 
 11 
 2803.248046875 
 21 
 4707.56787109375 
 31 
 0 
 0 
LINE
 10 
 2803.248046875 
 20 
 4707.56787109375 
 30 
 0 
 11 
 2794.3759765625 
 21 
 4709.6962890625 
 31 
 0 
 0 
LINE
 10 
 2794.3759765625 
 20 
 4709.6962890625 
 30 
 0 
 11 
 2782 
 21 
 4704 
 31 
 0 
 0 
LINE
 10 
 2782 
 20 
 4704 
 30 
 0 
 11 
 2774.97607421875 
 21 
 4696.37548828125 
 31 
 0 
 0 
LINE
 10 
 2774.97607421875 
 20 
 4696.37548828125 
 30 
 0 
 11 
 2769.248046875 
 21 
 4683.08837890625 
 31 
 0 
 0 
LINE
 10 
 2769.248046875 
 20 
 4683.08837890625 
 30 
 0 
 11 
 2764.43212890625 
 21 
 4662.31201171875 
 31 
 0 
 0 
LINE
 10 
 2764.43212890625 
 20 
 4662.31201171875 
 30 
 0 
 11 
 2760.14404296875 
 21 
 4632.22412109375 
 31 
 0 
 0 
LINE
 10 
 2760.14404296875 
 20 
 4632.22412109375 
 30 
 0 
 11 
 2756 
 21 
 4591 
 31 
 0 
 0 
LINE
 10 
 2756 
 20 
 4591 
 30 
 0 
 11 
 2751.82397460938 
 21 
 4542.91162109375 
 31 
 0 
 0 
LINE
 10 
 2751.82397460938 
 20 
 4542.91162109375 
 30 
 0 
 11 
 2748.0322265625 
 21 
 4513.49609375 
 31 
 0 
 0 
LINE
 10 
 2748.0322265625 
 20 
 4513.49609375 
 30 
 0 
 11 
 2743.328125 
 21 
 4498.6240234375 
 31 
 0 
 0 
LINE
 10 
 2743.328125 
 20 
 4498.6240234375 
 30 
 0 
 11 
 2736.416015625 
 21 
 4494.16796875 
 31 
 0 
 0 
LINE
 10 
 2736.416015625 
 20 
 4494.16796875 
 30 
 0 
 11 
 2726 
 21 
 4496 
 31 
 0 
 0 
LINE
 10 
 2726 
 20 
 4496 
 30 
 0 
 11 
 2718.68017578125 
 21 
 4498.57568359375 
 31 
 0 
 0 
LINE
 10 
 2718.68017578125 
 20 
 4498.57568359375 
 30 
 0 
 11 
 2710.40014648438 
 21 
 4502.4482421875 
 31 
 0 
 0 
LINE
 10 
 2710.40014648438 
 20 
 4502.4482421875 
 30 
 0 
 11 
 2701.88012695313 
 21 
 4507.23193359375 
 31 
 0 
 0 
LINE
 10 
 2701.88012695313 
 20 
 4507.23193359375 
 30 
 0 
 11 
 2693.84008789063 
 21 
 4512.5439453125 
 31 
 0 
 0 
LINE
 10 
 2693.84008789063 
 20 
 4512.5439453125 
 30 
 0 
 11 
 2687 
 21 
 4518 
 31 
 0 
 0 
LINE
 10 
 2687 
 20 
 4518 
 30 
 0 
 11 
 2678.93603515625 
 21 
 4525.05615234375 
 31 
 0 
 0 
LINE
 10 
 2678.93603515625 
 20 
 4525.05615234375 
 30 
 0 
 11 
 2673.3681640625 
 21 
 4528.12841796875 
 31 
 0 
 0 
LINE
 10 
 2673.3681640625 
 20 
 4528.12841796875 
 30 
 0 
 11 
 2669.43188476563 
 21 
 4527.072265625 
 31 
 0 
 0 
LINE
 10 
 2669.43188476563 
 20 
 4527.072265625 
 30 
 0 
 11 
 2666.26416015625 
 21 
 4521.744140625 
 31 
 0 
 0 
LINE
 10 
 2666.26416015625 
 20 
 4521.744140625 
 30 
 0 
 11 
 2663 
 21 
 4512 
 31 
 0 
 0 
LINE
 10 
 2663 
 20 
 4512 
 30 
 0 
 11 
 2660.54418945313 
 21 
 4505.103515625 
 31 
 0 
 0 
LINE
 10 
 2660.54418945313 
 20 
 4505.103515625 
 30 
 0 
 11 
 2657.0322265625 
 21 
 4499.07177734375 
 31 
 0 
 0 
LINE
 10 
 2657.0322265625 
 20 
 4499.07177734375 
 30 
 0 
 11 
 2652.84790039063 
 21 
 4494.2880859375 
 31 
 0 
 0 
LINE
 10 
 2652.84790039063 
 20 
 4494.2880859375 
 30 
 0 
 11 
 2648.3759765625 
 21 
 4491.13623046875 
 31 
 0 
 0 
LINE
 10 
 2648.3759765625 
 20 
 4491.13623046875 
 30 
 0 
 11 
 2644 
 21 
 4490 
 31 
 0 
 0 
LINE
 10 
 2644 
 20 
 4490 
 30 
 0 
 11 
 2639.01586914063 
 21 
 4488.86376953125 
 31 
 0 
 0 
LINE
 10 
 2639.01586914063 
 20 
 4488.86376953125 
 30 
 0 
 11 
 2633.88793945313 
 21 
 4485.71240234375 
 31 
 0 
 0 
LINE
 10 
 2633.88793945313 
 20 
 4485.71240234375 
 30 
 0 
 11 
 2628.95190429688 
 21 
 4480.927734375 
 31 
 0 
 0 
LINE
 10 
 2628.95190429688 
 20 
 4480.927734375 
 30 
 0 
 11 
 2624.54418945313 
 21 
 4474.89599609375 
 31 
 0 
 0 
LINE
 10 
 2624.54418945313 
 20 
 4474.89599609375 
 30 
 0 
 11 
 2621 
 21 
 4468 
 31 
 0 
 0 
LINE
 10 
 2621 
 20 
 4468 
 30 
 0 
 11 
 2617.7197265625 
 21 
 4459.2236328125 
 31 
 0 
 0 
LINE
 10 
 2617.7197265625 
 20 
 4459.2236328125 
 30 
 0 
 11 
 2614.919921875 
 21 
 4454.43212890625 
 31 
 0 
 0 
LINE
 10 
 2614.919921875 
 20 
 4454.43212890625 
 30 
 0 
 11 
 2612.36010742188 
 21 
 4453.5283203125 
 31 
 0 
 0 
LINE
 10 
 2612.36010742188 
 20 
 4453.5283203125 
 30 
 0 
 11 
 2609.80004882813 
 21 
 4456.416015625 
 31 
 0 
 0 
LINE
 10 
 2609.80004882813 
 20 
 4456.416015625 
 30 
 0 
 11 
 2607 
 21 
 4463 
 31 
 0 
 0 
LINE
 10 
 2607 
 20 
 4463 
 30 
 0 
 11 
 2604.03979492188 
 21 
 4468.60791015625 
 31 
 0 
 0 
LINE
 10 
 2604.03979492188 
 20 
 4468.60791015625 
 30 
 0 
 11 
 2600.1201171875 
 21 
 4473.30419921875 
 31 
 0 
 0 
LINE
 10 
 2600.1201171875 
 20 
 4473.30419921875 
 30 
 0 
 11 
 2595.47998046875 
 21 
 4476.89599609375 
 31 
 0 
 0 
LINE
 10 
 2595.47998046875 
 20 
 4476.89599609375 
 30 
 0 
 11 
 2590.36010742188 
 21 
 4479.19189453125 
 31 
 0 
 0 
LINE
 10 
 2590.36010742188 
 20 
 4479.19189453125 
 30 
 0 
 11 
 2585 
 21 
 4480 
 31 
 0 
 0 
LINE
 10 
 2585 
 20 
 4480 
 30 
 0 
 11 
 2578.62377929688 
 21 
 4479.44775390625 
 31 
 0 
 0 
LINE
 10 
 2578.62377929688 
 20 
 4479.44775390625 
 30 
 0 
 11 
 2575.0322265625 
 21 
 4477.50390625 
 31 
 0 
 0 
LINE
 10 
 2575.0322265625 
 20 
 4477.50390625 
 30 
 0 
 11 
 2574.12817382813 
 21 
 4473.73583984375 
 31 
 0 
 0 
LINE
 10 
 2574.12817382813 
 20 
 4473.73583984375 
 30 
 0 
 11 
 2575.81591796875 
 21 
 4467.7119140625 
 31 
 0 
 0 
LINE
 10 
 2575.81591796875 
 20 
 4467.7119140625 
 30 
 0 
 11 
 2580 
 21 
 4459 
 31 
 0 
 0 
LINE
 10 
 2580 
 20 
 4459 
 30 
 0 
 11 
 2583.22387695313 
 21 
 4452.11962890625 
 31 
 0 
 0 
LINE
 10 
 2583.22387695313 
 20 
 4452.11962890625 
 30 
 0 
 11 
 2585.63208007813 
 21 
 4445 
 31 
 0 
 0 
LINE
 10 
 2585.63208007813 
 20 
 4445 
 30 
 0 
 11 
 2587.1279296875 
 21 
 4438.1201171875 
 31 
 0 
 0 
LINE
 10 
 2587.1279296875 
 20 
 4438.1201171875 
 30 
 0 
 11 
 2587.61596679688 
 21 
 4431.9599609375 
 31 
 0 
 0 
LINE
 10 
 2587.61596679688 
 20 
 4431.9599609375 
 30 
 0 
 11 
 2587 
 21 
 4427 
 31 
 0 
 0 
LINE
 10 
 2587 
 20 
 4427 
 30 
 0 
 11 
 2581.98413085938 
 21 
 4425.3359375 
 31 
 0 
 0 
LINE
 10 
 2581.98413085938 
 20 
 4425.3359375 
 30 
 0 
 11 
 2570.8720703125 
 21 
 4435.76806640625 
 31 
 0 
 0 
LINE
 10 
 2570.8720703125 
 20 
 4435.76806640625 
 30 
 0 
 11 
 2552.36791992188 
 21 
 4459.83203125 
 31 
 0 
 0 
LINE
 10 
 2552.36791992188 
 20 
 4459.83203125 
 30 
 0 
 11 
 2525.17602539063 
 21 
 4499.06396484375 
 31 
 0 
 0 
LINE
 10 
 2525.17602539063 
 20 
 4499.06396484375 
 30 
 0 
 11 
 2488 
 21 
 4555 
 31 
 0 
 0 
LINE
 10 
 2488 
 20 
 4555 
 30 
 0 
 11 
 2476.744140625 
 21 
 4570.6875 
 31 
 0 
 0 
LINE
 10 
 2476.744140625 
 20 
 4570.6875 
 30 
 0 
 11 
 2465.15209960938 
 21 
 4584.744140625 
 31 
 0 
 0 
LINE
 10 
 2465.15209960938 
 20 
 4584.744140625 
 30 
 0 
 11 
 2454.087890625 
 21 
 4596.255859375 
 31 
 0 
 0 
LINE
 10 
 2454.087890625 
 20 
 4596.255859375 
 30 
 0 
 11 
 2444.416015625 
 21 
 4604.31201171875 
 31 
 0 
 0 
LINE
 10 
 2444.416015625 
 20 
 4604.31201171875 
 30 
 0 
 11 
 2437 
 21 
 4608 
 31 
 0 
 0 
LINE
 10 
 2437 
 20 
 4608 
 30 
 0 
 11 
 2429.1279296875 
 21 
 4608.77587890625 
 31 
 0 
 0 
LINE
 10 
 2429.1279296875 
 20 
 4608.77587890625 
 30 
 0 
 11 
 2424.42407226563 
 21 
 4606.76806640625 
 31 
 0 
 0 
LINE
 10 
 2424.42407226563 
 20 
 4606.76806640625 
 30 
 0 
 11 
 2422.4560546875 
 21 
 4600.8720703125 
 31 
 0 
 0 
LINE
 10 
 2422.4560546875 
 20 
 4600.8720703125 
 30 
 0 
 11 
 2422.7919921875 
 21 
 4589.98388671875 
 31 
 0 
 0 
LINE
 10 
 2422.7919921875 
 20 
 4589.98388671875 
 30 
 0 
 11 
 2425 
 21 
 4573 
 31 
 0 
 0 
LINE
 10 
 2425 
 20 
 4573 
 30 
 0 
 11 
 2428.17602539063 
 21 
 4557.91162109375 
 31 
 0 
 0 
LINE
 10 
 2428.17602539063 
 20 
 4557.91162109375 
 30 
 0 
 11 
 2432.64819335938 
 21 
 4538.93603515625 
 31 
 0 
 0 
LINE
 10 
 2432.64819335938 
 20 
 4538.93603515625 
 30 
 0 
 11 
 2438.03198242188 
 21 
 4517.70361328125 
 31 
 0 
 0 
LINE
 10 
 2438.03198242188 
 20 
 4517.70361328125 
 30 
 0 
 11 
 2443.94409179688 
 21 
 4495.84814453125 
 31 
 0 
 0 
LINE
 10 
 2443.94409179688 
 20 
 4495.84814453125 
 30 
 0 
 11 
 2450 
 21 
 4475 
 31 
 0 
 0 
LINE
 10 
 2450 
 20 
 4475 
 30 
 0 
 11 
 2464.7119140625 
 21 
 4425.02392578125 
 31 
 0 
 0 
LINE
 10 
 2464.7119140625 
 20 
 4425.02392578125 
 30 
 0 
 11 
 2473.13598632813 
 21 
 4391.751953125 
 31 
 0 
 0 
LINE
 10 
 2473.13598632813 
 20 
 4391.751953125 
 30 
 0 
 11 
 2475.70385742188 
 21 
 4371.96826171875 
 31 
 0 
 0 
LINE
 10 
 2475.70385742188 
 20 
 4371.96826171875 
 30 
 0 
 11 
 2472.84790039063 
 21 
 4362.4560546875 
 31 
 0 
 0 
LINE
 10 
 2472.84790039063 
 20 
 4362.4560546875 
 30 
 0 
 11 
 2465 
 21 
 4360 
 31 
 0 
 0 
LINE
 10 
 2465 
 20 
 4360 
 30 
 0 
 11 
 2455.88793945313 
 21 
 4359.2314453125 
 31 
 0 
 0 
LINE
 10 
 2455.88793945313 
 20 
 4359.2314453125 
 30 
 0 
 11 
 2451.38403320313 
 21 
 4356.255859375 
 31 
 0 
 0 
LINE
 10 
 2451.38403320313 
 20 
 4356.255859375 
 30 
 0 
 11 
 2451.5361328125 
 21 
 4350.06396484375 
 31 
 0 
 0 
LINE
 10 
 2451.5361328125 
 20 
 4350.06396484375 
 30 
 0 
 11 
 2456.39208984375 
 21 
 4339.64794921875 
 31 
 0 
 0 
LINE
 10 
 2456.39208984375 
 20 
 4339.64794921875 
 30 
 0 
 11 
 2466 
 21 
 4324 
 31 
 0 
 0 
LINE
 10 
 2466 
 20 
 4324 
 30 
 0 
 11 
 2478.64794921875 
 21 
 4302.3837890625 
 31 
 0 
 0 
LINE
 10 
 2478.64794921875 
 20 
 4302.3837890625 
 30 
 0 
 11 
 2477.18408203125 
 21 
 4296.27197265625 
 31 
 0 
 0 
LINE
 10 
 2477.18408203125 
 20 
 4296.27197265625 
 30 
 0 
 11 
 2461.89599609375 
 21 
 4305.56787109375 
 31 
 0 
 0 
LINE
 10 
 2461.89599609375 
 20 
 4305.56787109375 
 30 
 0 
 11 
 2433.07202148438 
 21 
 4330.17626953125 
 31 
 0 
 0 
LINE
 10 
 2433.07202148438 
 20 
 4330.17626953125 
 30 
 0 
 11 
 2391 
 21 
 4370 
 31 
 0 
 0 
LINE
 10 
 2391 
 20 
 4370 
 30 
 0 
 11 
 2349.56811523438 
 21 
 4408.9599609375 
 31 
 0 
 0 
LINE
 10 
 2349.56811523438 
 20 
 4408.9599609375 
 30 
 0 
 11 
 2318.50390625 
 21 
 4434.240234375 
 31 
 0 
 0 
LINE
 10 
 2318.50390625 
 20 
 4434.240234375 
 30 
 0 
 11 
 2295.4560546875 
 21 
 4447.0400390625 
 31 
 0 
 0 
LINE
 10 
 2295.4560546875 
 20 
 4447.0400390625 
 30 
 0 
 11 
 2278.07202148438 
 21 
 4448.56005859375 
 31 
 0 
 0 
LINE
 10 
 2278.07202148438 
 20 
 4448.56005859375 
 30 
 0 
 11 
 2264 
 21 
 4440 
 31 
 0 
 0 
LINE
 10 
 2264 
 20 
 4440 
 30 
 0 
 11 
 2258.3759765625 
 21 
 4439.03955078125 
 31 
 0 
 0 
LINE
 10 
 2258.3759765625 
 20 
 4439.03955078125 
 30 
 0 
 11 
 2248.76782226563 
 21 
 4443.35986328125 
 31 
 0 
 0 
LINE
 10 
 2248.76782226563 
 20 
 4443.35986328125 
 30 
 0 
 11 
 2235.27197265625 
 21 
 4452.9599609375 
 31 
 0 
 0 
LINE
 10 
 2235.27197265625 
 20 
 4452.9599609375 
 30 
 0 
 11 
 2217.98413085938 
 21 
 4467.83984375 
 31 
 0 
 0 
LINE
 10 
 2217.98413085938 
 20 
 4467.83984375 
 30 
 0 
 11 
 2197 
 21 
 4488 
 31 
 0 
 0 
LINE
 10 
 2197 
 20 
 4488 
 30 
 0 
 11 
 2139 
 21 
 4546 
 31 
 0 
 0 
LINE
 10 
 2139 
 20 
 4546 
 30 
 0 
 11 
 2220 
 21 
 4582 
 31 
 0 
 0 
LINE
 10 
 2220 
 20 
 4582 
 30 
 0 
 11 
 2251.74389648438 
 21 
 4597.13623046875 
 31 
 0 
 0 
LINE
 10 
 2251.74389648438 
 20 
 4597.13623046875 
 30 
 0 
 11 
 2274.51196289063 
 21 
 4609.48828125 
 31 
 0 
 0 
LINE
 10 
 2274.51196289063 
 20 
 4609.48828125 
 30 
 0 
 11 
 2289.40795898438 
 21 
 4619.8720703125 
 31 
 0 
 0 
LINE
 10 
 2289.40795898438 
 20 
 4619.8720703125 
 30 
 0 
 11 
 2297.5361328125 
 21 
 4629.10400390625 
 31 
 0 
 0 
LINE
 10 
 2297.5361328125 
 20 
 4629.10400390625 
 30 
 0 
 11 
 2300 
 21 
 4638 
 31 
 0 
 0 
LINE
 10 
 2300 
 20 
 4638 
 30 
 0 
 11 
 2296.27197265625 
 21 
 4654.57568359375 
 31 
 0 
 0 
LINE
 10 
 2296.27197265625 
 20 
 4654.57568359375 
 30 
 0 
 11 
 2284.576171875 
 21 
 4662.3681640625 
 31 
 0 
 0 
LINE
 10 
 2284.576171875 
 20 
 4662.3681640625 
 30 
 0 
 11 
 2264.14404296875 
 21 
 4661.47216796875 
 31 
 0 
 0 
LINE
 10 
 2264.14404296875 
 20 
 4661.47216796875 
 30 
 0 
 11 
 2234.2080078125 
 21 
 4651.98388671875 
 31 
 0 
 0 
LINE
 10 
 2234.2080078125 
 20 
 4651.98388671875 
 30 
 0 
 11 
 2194 
 21 
 4634 
 31 
 0 
 0 
LINE
 10 
 2194 
 20 
 4634 
 30 
 0 
 11 
 2161.59985351563 
 21 
 4618.400390625 
 31 
 0 
 0 
LINE
 10 
 2161.59985351563 
 20 
 4618.400390625 
 30 
 0 
 11 
 2136.88012695313 
 21 
 4608.3203125 
 31 
 0 
 0 
LINE
 10 
 2136.88012695313 
 20 
 4608.3203125 
 30 
 0 
 11 
 2116.9599609375 
 21 
 4603.0400390625 
 31 
 0 
 0 
LINE
 10 
 2116.9599609375 
 20 
 4603.0400390625 
 30 
 0 
 11 
 2098.9599609375 
 21 
 4601.84033203125 
 31 
 0 
 0 
LINE
 10 
 2098.9599609375 
 20 
 4601.84033203125 
 30 
 0 
 11 
 2080 
 21 
 4604 
 31 
 0 
 0 
LINE
 10 
 2080 
 20 
 4604 
 30 
 0 
 11 
 2053.30395507813 
 21 
 4605.40771484375 
 31 
 0 
 0 
LINE
 10 
 2053.30395507813 
 20 
 4605.40771484375 
 30 
 0 
 11 
 2037.07202148438 
 21 
 4600.38427734375 
 31 
 0 
 0 
LINE
 10 
 2037.07202148438 
 20 
 4600.38427734375 
 30 
 0 
 11 
 2031.68798828125 
 21 
 4589.4560546875 
 31 
 0 
 0 
LINE
 10 
 2031.68798828125 
 20 
 4589.4560546875 
 30 
 0 
 11 
 2037.53601074219 
 21 
 4573.15234375 
 31 
 0 
 0 
LINE
 10 
 2037.53601074219 
 20 
 4573.15234375 
 30 
 0 
 11 
 2055 
 21 
 4552 
 31 
 0 
 0 
LINE
 10 
 2055 
 20 
 4552 
 30 
 0 
 11 
 2078.95190429688 
 21 
 4524.3037109375 
 31 
 0 
 0 
LINE
 10 
 2078.95190429688 
 20 
 4524.3037109375 
 30 
 0 
 11 
 2108.61596679688 
 21 
 4483.55224609375 
 31 
 0 
 0 
LINE
 10 
 2108.61596679688 
 20 
 4483.55224609375 
 30 
 0 
 11 
 2140.10400390625 
 21 
 4435.64794921875 
 31 
 0 
 0 
LINE
 10 
 2140.10400390625 
 20 
 4435.64794921875 
 30 
 0 
 11 
 2169.52807617188 
 21 
 4386.49609375 
 31 
 0 
 0 
LINE
 10 
 2169.52807617188 
 20 
 4386.49609375 
 30 
 0 
 11 
 2193 
 21 
 4342 
 31 
 0 
 0 
LINE
 10 
 2193 
 20 
 4342 
 30 
 0 
 11 
 2202.43994140625 
 21 
 4324.0556640625 
 31 
 0 
 0 
LINE
 10 
 2202.43994140625 
 20 
 4324.0556640625 
 30 
 0 
 11 
 2214.52001953125 
 21 
 4302.60791015625 
 31 
 0 
 0 
LINE
 10 
 2214.52001953125 
 20 
 4302.60791015625 
 30 
 0 
 11 
 2228.28002929688 
 21 
 4279.43212890625 
 31 
 0 
 0 
LINE
 10 
 2228.28002929688 
 20 
 4279.43212890625 
 30 
 0 
 11 
 2242.76000976563 
 21 
 4256.30419921875 
 31 
 0 
 0 
LINE
 10 
 2242.76000976563 
 20 
 4256.30419921875 
 30 
 0 
 11 
 2257 
 21 
 4235 
 31 
 0 
 0 
LINE
 10 
 2257 
 20 
 4235 
 30 
 0 
 11 
 2322.32788085938 
 21 
 4138.07958984375 
 31 
 0 
 0 
LINE
 10 
 2322.32788085938 
 20 
 4138.07958984375 
 30 
 0 
 11 
 2380.744140625 
 21 
 4049.07983398438 
 31 
 0 
 0 
LINE
 10 
 2380.744140625 
 20 
 4049.07983398438 
 30 
 0 
 11 
 2427.49584960938 
 21 
 3975.44018554688 
 31 
 0 
 0 
LINE
 10 
 2427.49584960938 
 20 
 3975.44018554688 
 30 
 0 
 11 
 2457.83203125 
 21 
 3924.60009765625 
 31 
 0 
 0 
LINE
 10 
 2457.83203125 
 20 
 3924.60009765625 
 30 
 0 
 11 
 2467 
 21 
 3904 
 31 
 0 
 0 
LINE
 10 
 2467 
 20 
 3904 
 30 
 0 
 11 
 2462.51977539063 
 21 
 3904.94409179688 
 31 
 0 
 0 
LINE
 10 
 2462.51977539063 
 20 
 3904.94409179688 
 30 
 0 
 11 
 2452.27978515625 
 21 
 3910.83227539063 
 31 
 0 
 0 
LINE
 10 
 2452.27978515625 
 20 
 3910.83227539063 
 30 
 0 
 11 
 2437.47998046875 
 21 
 3920.84814453125 
 31 
 0 
 0 
LINE
 10 
 2437.47998046875 
 20 
 3920.84814453125 
 30 
 0 
 11 
 2419.32006835938 
 21 
 3934.17602539063 
 31 
 0 
 0 
LINE
 10 
 2419.32006835938 
 20 
 3934.17602539063 
 30 
 0 
 11 
 2399 
 21 
 3950 
 31 
 0 
 0 
LINE
 10 
 2399 
 20 
 3950 
 30 
 0 
 11 
 2339.92797851563 
 21 
 3995.11206054688 
 31 
 0 
 0 
LINE
 10 
 2339.92797851563 
 20 
 3995.11206054688 
 30 
 0 
 11 
 2283.30419921875 
 21 
 4034.17626953125 
 31 
 0 
 0 
LINE
 10 
 2283.30419921875 
 20 
 4034.17626953125 
 30 
 0 
 11 
 2221.01611328125 
 21 
 4072.18408203125 
 31 
 0 
 0 
LINE
 10 
 2221.01611328125 
 20 
 4072.18408203125 
 30 
 0 
 11 
 2144.95190429688 
 21 
 4114.1279296875 
 31 
 0 
 0 
LINE
 10 
 2144.95190429688 
 20 
 4114.1279296875 
 30 
 0 
 11 
 2047 
 21 
 4165 
 31 
 0 
 0 
LINE
 10 
 2047 
 20 
 4165 
 30 
 0 
 11 
 1870 
 21 
 4255 
 31 
 0 
 0 
LINE
 10 
 1870 
 20 
 4255 
 30 
 0 
 11 
 1870 
 21 
 4389 
 31 
 0 
 0 
LINE
 10 
 1870 
 20 
 4389 
 30 
 0 
 11 
 1868.27185058594 
 21 
 4475.27978515625 
 31 
 0 
 0 
LINE
 10 
 1868.27185058594 
 20 
 4475.27978515625 
 30 
 0 
 11 
 1863.3759765625 
 21 
 4547.400390625 
 31 
 0 
 0 
LINE
 10 
 1863.3759765625 
 20 
 4547.400390625 
 30 
 0 
 11 
 1855.74401855469 
 21 
 4602.47998046875 
 31 
 0 
 0 
LINE
 10 
 1855.74401855469 
 20 
 4602.47998046875 
 30 
 0 
 11 
 1845.80798339844 
 21 
 4637.64013671875 
 31 
 0 
 0 
LINE
 10 
 1845.80798339844 
 20 
 4637.64013671875 
 30 
 0 
 11 
 1834 
 21 
 4650 
 31 
 0 
 0 
LINE
 10 
 1834 
 20 
 4650 
 30 
 0 
 11 
 1828.31994628906 
 21 
 4646.72802734375 
 31 
 0 
 0 
LINE
 10 
 1828.31994628906 
 20 
 4646.72802734375 
 30 
 0 
 11 
 1824.32006835938 
 21 
 4635.34375 
 31 
 0 
 0 
LINE
 10 
 1824.32006835938 
 20 
 4635.34375 
 30 
 0 
 11 
 1821.76000976563 
 21 
 4613.49609375 
 31 
 0 
 0 
LINE
 10 
 1821.76000976563 
 20 
 4613.49609375 
 30 
 0 
 11 
 1820.40002441406 
 21 
 4578.83203125 
 31 
 0 
 0 
LINE
 10 
 1820.40002441406 
 20 
 4578.83203125 
 30 
 0 
 11 
 1820 
 21 
 4529 
 31 
 0 
 0 
LINE
 10 
 1820 
 20 
 4529 
 30 
 0 
 11 
 1819.73596191406 
 21 
 4471.23193359375 
 31 
 0 
 0 
LINE
 10 
 1819.73596191406 
 20 
 4471.23193359375 
 30 
 0 
 11 
 1818.36804199219 
 21 
 4435.97607421875 
 31 
 0 
 0 
LINE
 10 
 1818.36804199219 
 20 
 4435.97607421875 
 30 
 0 
 11 
 1815.03198242188 
 21 
 4417.90380859375 
 31 
 0 
 0 
LINE
 10 
 1815.03198242188 
 20 
 4417.90380859375 
 30 
 0 
 11 
 1808.86401367188 
 21 
 4411.68798828125 
 31 
 0 
 0 
LINE
 10 
 1808.86401367188 
 20 
 4411.68798828125 
 30 
 0 
 11 
 1799 
 21 
 4412 
 31 
 0 
 0 
LINE
 10 
 1799 
 20 
 4412 
 30 
 0 
 11 
 1791.19189453125 
 21 
 4414.3359375 
 31 
 0 
 0 
LINE
 10 
 1791.19189453125 
 20 
 4414.3359375 
 30 
 0 
 11 
 1782.61608886719 
 21 
 4418.6884765625 
 31 
 0 
 0 
LINE
 10 
 1782.61608886719 
 20 
 4418.6884765625 
 30 
 0 
 11 
 1773.94409179688 
 21 
 4424.671875 
 31 
 0 
 0 
LINE
 10 
 1773.94409179688 
 20 
 4424.671875 
 30 
 0 
 11 
 1765.84802246094 
 21 
 4431.904296875 
 31 
 0 
 0 
LINE
 10 
 1765.84802246094 
 20 
 4431.904296875 
 30 
 0 
 11 
 1759 
 21 
 4440 
 31 
 0 
 0 
LINE
 10 
 1759 
 20 
 4440 
 30 
 0 
 11 
 1751.28796386719 
 21 
 4453.0400390625 
 31 
 0 
 0 
LINE
 10 
 1751.28796386719 
 20 
 4453.0400390625 
 30 
 0 
 11 
 1747.22399902344 
 21 
 4467.759765625 
 31 
 0 
 0 
LINE
 10 
 1747.22399902344 
 20 
 4467.759765625 
 30 
 0 
 11 
 1746.61608886719 
 21 
 4488.9599609375 
 31 
 0 
 0 
LINE
 10 
 1746.61608886719 
 20 
 4488.9599609375 
 30 
 0 
 11 
 1749.27197265625 
 21 
 4521.43994140625 
 31 
 0 
 0 
LINE
 10 
 1749.27197265625 
 20 
 4521.43994140625 
 30 
 0 
 11 
 1755 
 21 
 4570 
 31 
 0 
 0 
LINE
 10 
 1755 
 20 
 4570 
 30 
 0 
 11 
 1763.28796386719 
 21 
 4638.912109375 
 31 
 0 
 0 
LINE
 10 
 1763.28796386719 
 20 
 4638.912109375 
 30 
 0 
 11 
 1767.78405761719 
 21 
 4692.17626953125 
 31 
 0 
 0 
LINE
 10 
 1767.78405761719 
 20 
 4692.17626953125 
 30 
 0 
 11 
 1768.53601074219 
 21 
 4729.98388671875 
 31 
 0 
 0 
LINE
 10 
 1768.53601074219 
 20 
 4729.98388671875 
 30 
 0 
 11 
 1765.59204101563 
 21 
 4752.52783203125 
 31 
 0 
 0 
LINE
 10 
 1765.59204101563 
 20 
 4752.52783203125 
 30 
 0 
 11 
 1759 
 21 
 4760 
 31 
 0 
 0 
LINE
 10 
 1759 
 20 
 4760 
 30 
 0 
 11 
 1755.47192382813 
 21 
 4758.408203125 
 31 
 0 
 0 
LINE
 10 
 1755.47192382813 
 20 
 4758.408203125 
 30 
 0 
 11 
 1751.17602539063 
 21 
 4753.984375 
 31 
 0 
 0 
LINE
 10 
 1751.17602539063 
 20 
 4753.984375 
 30 
 0 
 11 
 1746.54406738281 
 21 
 4747.255859375 
 31 
 0 
 0 
LINE
 10 
 1746.54406738281 
 20 
 4747.255859375 
 30 
 0 
 11 
 1742.00805664063 
 21 
 4738.751953125 
 31 
 0 
 0 
LINE
 10 
 1742.00805664063 
 20 
 4738.751953125 
 30 
 0 
 11 
 1738 
 21 
 4729 
 31 
 0 
 0 
LINE
 10 
 1738 
 20 
 4729 
 30 
 0 
 11 
 1728.94409179688 
 21 
 4709.89599609375 
 31 
 0 
 0 
LINE
 10 
 1728.94409179688 
 20 
 4709.89599609375 
 30 
 0 
 11 
 1721.23205566406 
 21 
 4708.408203125 
 31 
 0 
 0 
LINE
 10 
 1721.23205566406 
 20 
 4708.408203125 
 30 
 0 
 11 
 1715.24792480469 
 21 
 4723.671875 
 31 
 0 
 0 
LINE
 10 
 1715.24792480469 
 20 
 4723.671875 
 30 
 0 
 11 
 1711.37609863281 
 21 
 4754.82421875 
 31 
 0 
 0 
LINE
 10 
 1711.37609863281 
 20 
 4754.82421875 
 30 
 0 
 11 
 1710 
 21 
 4801 
 31 
 0 
 0 
LINE
 10 
 1710 
 20 
 4801 
 30 
 0 
 11 
 1709.43981933594 
 21 
 4836.45556640625 
 31 
 0 
 0 
LINE
 10 
 1709.43981933594 
 20 
 4836.45556640625 
 30 
 0 
 11 
 1706.96008300781 
 21 
 4861.92822265625 
 31 
 0 
 0 
LINE
 10 
 1706.96008300781 
 20 
 4861.92822265625 
 30 
 0 
 11 
 1701.35998535156 
 21 
 4882.072265625 
 31 
 0 
 0 
LINE
 10 
 1701.35998535156 
 20 
 4882.072265625 
 30 
 0 
 11 
 1691.44006347656 
 21 
 4901.54443359375 
 31 
 0 
 0 
LINE
 10 
 1691.44006347656 
 20 
 4901.54443359375 
 30 
 0 
 11 
 1676 
 21 
 4925 
 31 
 0 
 0 
LINE
 10 
 1676 
 20 
 4925 
 30 
 0 
 11 
 1659.52783203125 
 21 
 4948.37548828125 
 31 
 0 
 0 
LINE
 10 
 1659.52783203125 
 20 
 4948.37548828125 
 30 
 0 
 11 
 1650.30395507813 
 21 
 4964.408203125 
 31 
 0 
 0 
LINE
 10 
 1650.30395507813 
 20 
 4964.408203125 
 30 
 0 
 11 
 1647.416015625 
 21 
 4976.5517578125 
 31 
 0 
 0 
LINE
 10 
 1647.416015625 
 20 
 4976.5517578125 
 30 
 0 
 11 
 1649.95202636719 
 21 
 4988.26416015625 
 31 
 0 
 0 
LINE
 10 
 1649.95202636719 
 20 
 4988.26416015625 
 30 
 0 
 11 
 1657 
 21 
 5003 
 31 
 0 
 0 
LINE
 10 
 1657 
 20 
 5003 
 30 
 0 
 11 
 1672 
 21 
 5033 
 31 
 0 
 0 
LINE
 10 
 1672 
 20 
 5033 
 30 
 0 
 11 
 1690 
 21 
 5009 
 31 
 0 
 0 
LINE
 10 
 1690 
 20 
 5009 
 30 
 0 
 11 
 1704.56799316406 
 21 
 4993.591796875 
 31 
 0 
 0 
LINE
 10 
 1704.56799316406 
 20 
 4993.591796875 
 30 
 0 
 11 
 1713.18395996094 
 21 
 4990.6162109375 
 31 
 0 
 0 
LINE
 10 
 1713.18395996094 
 20 
 4990.6162109375 
 30 
 0 
 11 
 1715.416015625 
 21 
 4998.34423828125 
 31 
 0 
 0 
LINE
 10 
 1715.416015625 
 20 
 4998.34423828125 
 30 
 0 
 11 
 1710.83203125 
 21 
 5015.04833984375 
 31 
 0 
 0 
LINE
 10 
 1710.83203125 
 20 
 5015.04833984375 
 30 
 0 
 11 
 1699 
 21 
 5039 
 31 
 0 
 0 
LINE
 10 
 1699 
 20 
 5039 
 30 
 0 
 11 
 1676 
 21 
 5080 
 31 
 0 
 0 
LINE
 10 
 1676 
 20 
 5080 
 30 
 0 
 11 
 1714 
 21 
 5119 
 31 
 0 
 0 
LINE
 10 
 1714 
 20 
 5119 
 30 
 0 
 11 
 1734.17602539063 
 21 
 5141.9599609375 
 31 
 0 
 0 
LINE
 10 
 1734.17602539063 
 20 
 5141.9599609375 
 30 
 0 
 11 
 1744.36804199219 
 21 
 5160.3603515625 
 31 
 0 
 0 
LINE
 10 
 1744.36804199219 
 20 
 5160.3603515625 
 30 
 0 
 11 
 1744.67199707031 
 21 
 5175.8798828125 
 31 
 0 
 0 
LINE
 10 
 1744.67199707031 
 20 
 5175.8798828125 
 30 
 0 
 11 
 1735.18408203125 
 21 
 5190.2001953125 
 31 
 0 
 0 
LINE
 10 
 1735.18408203125 
 20 
 5190.2001953125 
 30 
 0 
 11 
 1716 
 21 
 5205 
 31 
 0 
 0 
LINE
 10 
 1716 
 20 
 5205 
 30 
 0 
 11 
 1686.66394042969 
 21 
 5213.8876953125 
 31 
 0 
 0 
LINE
 10 
 1686.66394042969 
 20 
 5213.8876953125 
 30 
 0 
 11 
 1659.63208007813 
 21 
 5204.58447265625 
 31 
 0 
 0 
LINE
 10 
 1659.63208007813 
 20 
 5204.58447265625 
 30 
 0 
 11 
 1638.16796875 
 21 
 5180.73583984375 
 31 
 0 
 0 
LINE
 10 
 1638.16796875 
 20 
 5180.73583984375 
 30 
 0 
 11 
 1625.53601074219 
 21 
 5145.9921875 
 31 
 0 
 0 
LINE
 10 
 1625.53601074219 
 20 
 5145.9921875 
 30 
 0 
 11 
 1625 
 21 
 5104 
 31 
 0 
 0 
LINE
 10 
 1625 
 20 
 5104 
 30 
 0 
 11 
 1626.47985839844 
 21 
 5078.45556640625 
 31 
 0 
 0 
LINE
 10 
 1626.47985839844 
 20 
 5078.45556640625 
 30 
 0 
 11 
 1623.88000488281 
 21 
 5055.16845703125 
 31 
 0 
 0 
LINE
 10 
 1623.88000488281 
 20 
 5055.16845703125 
 30 
 0 
 11 
 1617.44006347656 
 21 
 5034.9521484375 
 31 
 0 
 0 
LINE
 10 
 1617.44006347656 
 20 
 5034.9521484375 
 30 
 0 
 11 
 1607.40002441406 
 21 
 5018.6240234375 
 31 
 0 
 0 
LINE
 10 
 1607.40002441406 
 20 
 5018.6240234375 
 30 
 0 
 11 
 1594 
 21 
 5007 
 31 
 0 
 0 
LINE
 10 
 1594 
 20 
 5007 
 30 
 0 
 11 
 1584.78393554688 
 21 
 4998.70361328125 
 31 
 0 
 0 
LINE
 10 
 1584.78393554688 
 20 
 4998.70361328125 
 30 
 0 
 11 
 1581.23205566406 
 21 
 4987.19189453125 
 31 
 0 
 0 
LINE
 10 
 1581.23205566406 
 20 
 4987.19189453125 
 30 
 0 
 11 
 1583.48791503906 
 21 
 4970.92822265625 
 31 
 0 
 0 
LINE
 10 
 1583.48791503906 
 20 
 4970.92822265625 
 30 
 0 
 11 
 1591.69604492188 
 21 
 4948.37646484375 
 31 
 0 
 0 
LINE
 10 
 1591.69604492188 
 20 
 4948.37646484375 
 30 
 0 
 11 
 1606 
 21 
 4918 
 31 
 0 
 0 
LINE
 10 
 1606 
 20 
 4918 
 30 
 0 
 11 
 1622.91198730469 
 21 
 4873.15185546875 
 31 
 0 
 0 
LINE
 10 
 1622.91198730469 
 20 
 4873.15185546875 
 30 
 0 
 11 
 1642.41613769531 
 21 
 4805.93603515625 
 31 
 0 
 0 
LINE
 10 
 1642.41613769531 
 20 
 4805.93603515625 
 30 
 0 
 11 
 1660.86401367188 
 21 
 4730.94384765625 
 31 
 0 
 0 
LINE
 10 
 1660.86401367188 
 20 
 4730.94384765625 
 30 
 0 
 11 
 1674.60803222656 
 21 
 4662.76806640625 
 31 
 0 
 0 
LINE
 10 
 1674.60803222656 
 20 
 4662.76806640625 
 30 
 0 
 11 
 1680 
 21 
 4616 
 31 
 0 
 0 
LINE
 10 
 1680 
 20 
 4616 
 30 
 0 
 11 
 1679.41589355469 
 21 
 4605.2158203125 
 31 
 0 
 0 
LINE
 10 
 1679.41589355469 
 20 
 4605.2158203125 
 30 
 0 
 11 
 1676.76806640625 
 21 
 4598.84814453125 
 31 
 0 
 0 
LINE
 10 
 1676.76806640625 
 20 
 4598.84814453125 
 30 
 0 
 11 
 1670.71203613281 
 21 
 4596.27197265625 
 31 
 0 
 0 
LINE
 10 
 1670.71203613281 
 20 
 4596.27197265625 
 30 
 0 
 11 
 1659.90405273438 
 21 
 4596.8642578125 
 31 
 0 
 0 
LINE
 10 
 1659.90405273438 
 20 
 4596.8642578125 
 30 
 0 
 11 
 1643 
 21 
 4600 
 31 
 0 
 0 
LINE
 10 
 1643 
 20 
 4600 
 30 
 0 
 11 
 1591.23999023438 
 21 
 4617.34375 
 31 
 0 
 0 
LINE
 10 
 1591.23999023438 
 20 
 4617.34375 
 30 
 0 
 11 
 1522.92004394531 
 21 
 4649.9521484375 
 31 
 0 
 0 
LINE
 10 
 1522.92004394531 
 20 
 4649.9521484375 
 30 
 0 
 11 
 1451.47998046875 
 21 
 4690.2880859375 
 31 
 0 
 0 
LINE
 10 
 1451.47998046875 
 20 
 4690.2880859375 
 30 
 0 
 11 
 1390.36010742188 
 21 
 4730.81591796875 
 31 
 0 
 0 
LINE
 10 
 1390.36010742188 
 20 
 4730.81591796875 
 30 
 0 
 11 
 1353 
 21 
 4764 
 31 
 0 
 0 
LINE
 10 
 1353 
 20 
 4764 
 30 
 0 
 11 
 1330.31982421875 
 21 
 4787.81591796875 
 31 
 0 
 0 
LINE
 10 
 1330.31982421875 
 20 
 4787.81591796875 
 30 
 0 
 11 
 1303.56005859375 
 21 
 4808.60791015625 
 31 
 0 
 0 
LINE
 10 
 1303.56005859375 
 20 
 4808.60791015625 
 30 
 0 
 11 
 1273.43994140625 
 21 
 4825.9921875 
 31 
 0 
 0 
LINE
 10 
 1273.43994140625 
 20 
 4825.9921875 
 30 
 0 
 11 
 1240.68005371094 
 21 
 4839.583984375 
 31 
 0 
 0 
LINE
 10 
 1240.68005371094 
 20 
 4839.583984375 
 30 
 0 
 11 
 1206 
 21 
 4849 
 31 
 0 
 0 
LINE
 10 
 1206 
 20 
 4849 
 30 
 0 
 11 
 1185.95190429688 
 21 
 4853.23974609375 
 31 
 0 
 0 
LINE
 10 
 1185.95190429688 
 20 
 4853.23974609375 
 30 
 0 
 11 
 1166.33605957031 
 21 
 4858.43994140625 
 31 
 0 
 0 
LINE
 10 
 1166.33605957031 
 20 
 4858.43994140625 
 30 
 0 
 11 
 1148.5439453125 
 21 
 4864.1201171875 
 31 
 0 
 0 
LINE
 10 
 1148.5439453125 
 20 
 4864.1201171875 
 30 
 0 
 11 
 1133.96801757813 
 21 
 4869.80029296875 
 31 
 0 
 0 
LINE
 10 
 1133.96801757813 
 20 
 4869.80029296875 
 30 
 0 
 11 
 1124 
 21 
 4875 
 31 
 0 
 0 
LINE
 10 
 1124 
 20 
 4875 
 30 
 0 
 11 
 1115.93603515625 
 21 
 4879.6318359375 
 31 
 0 
 0 
LINE
 10 
 1115.93603515625 
 20 
 4879.6318359375 
 30 
 0 
 11 
 1107.72802734375 
 21 
 4883.736328125 
 31 
 0 
 0 
LINE
 10 
 1107.72802734375 
 20 
 4883.736328125 
 30 
 0 
 11 
 1099.95202636719 
 21 
 4887.02392578125 
 31 
 0 
 0 
LINE
 10 
 1099.95202636719 
 20 
 4887.02392578125 
 30 
 0 
 11 
 1093.18395996094 
 21 
 4889.2080078125 
 31 
 0 
 0 
LINE
 10 
 1093.18395996094 
 20 
 4889.2080078125 
 30 
 0 
 11 
 1088 
 21 
 4890 
 31 
 0 
 0 
LINE
 10 
 1088 
 20 
 4890 
 30 
 0 
 11 
 1082.74389648438 
 21 
 4891.60009765625 
 31 
 0 
 0 
LINE
 10 
 1082.74389648438 
 20 
 4891.60009765625 
 30 
 0 
 11 
 1074.751953125 
 21 
 4896.080078125 
 31 
 0 
 0 
LINE
 10 
 1074.751953125 
 20 
 4896.080078125 
 30 
 0 
 11 
 1064.88793945313 
 21 
 4902.9599609375 
 31 
 0 
 0 
LINE
 10 
 1064.88793945313 
 20 
 4902.9599609375 
 30 
 0 
 11 
 1054.01599121094 
 21 
 4911.76025390625 
 31 
 0 
 0 
LINE
 10 
 1054.01599121094 
 20 
 4911.76025390625 
 30 
 0 
 11 
 1043 
 21 
 4922 
 31 
 0 
 0 
LINE
 10 
 1043 
 20 
 4922 
 30 
 0 
 11 
 1030.35205078125 
 21 
 4935.6796875 
 31 
 0 
 0 
LINE
 10 
 1030.35205078125 
 20 
 4935.6796875 
 30 
 0 
 11 
 1021.01605224609 
 21 
 4948.39990234375 
 31 
 0 
 0 
LINE
 10 
 1021.01605224609 
 20 
 4948.39990234375 
 30 
 0 
 11 
 1014.70404052734 
 21 
 4960.8798828125 
 31 
 0 
 0 
LINE
 10 
 1014.70404052734 
 20 
 4960.8798828125 
 30 
 0 
 11 
 1011.12799072266 
 21 
 4973.83984375 
 31 
 0 
 0 
LINE
 10 
 1011.12799072266 
 20 
 4973.83984375 
 30 
 0 
 11 
 1010 
 21 
 4988 
 31 
 0 
 0 
LINE
 10 
 1010 
 20 
 4988 
 30 
 0 
 11 
 1009.53594970703 
 21 
 4999.255859375 
 31 
 0 
 0 
LINE
 10 
 1009.53594970703 
 20 
 4999.255859375 
 30 
 0 
 11 
 1008.2080078125 
 21 
 5010.84814453125 
 31 
 0 
 0 
LINE
 10 
 1008.2080078125 
 20 
 5010.84814453125 
 30 
 0 
 11 
 1006.11199951172 
 21 
 5021.912109375 
 31 
 0 
 0 
LINE
 10 
 1006.11199951172 
 20 
 5021.912109375 
 30 
 0 
 11 
 1003.34399414063 
 21 
 5031.583984375 
 31 
 0 
 0 
LINE
 10 
 1003.34399414063 
 20 
 5031.583984375 
 30 
 0 
 11 
 1000 
 21 
 5039 
 31 
 0 
 0 
LINE
 10 
 1000 
 20 
 5039 
 30 
 0 
 11 
 997.583923339844 
 21 
 5047.35205078125 
 31 
 0 
 0 
LINE
 10 
 997.583923339844 
 20 
 5047.35205078125 
 30 
 0 
 11 
 999.152038574219 
 21 
 5056.3759765625 
 31 
 0 
 0 
LINE
 10 
 999.152038574219 
 20 
 5056.3759765625 
 30 
 0 
 11 
 1005.32800292969 
 21 
 5067.22412109375 
 31 
 0 
 0 
LINE
 10 
 1005.32800292969 
 20 
 5067.22412109375 
 30 
 0 
 11 
 1016.73602294922 
 21 
 5081.0478515625 
 31 
 0 
 0 
LINE
 10 
 1016.73602294922 
 20 
 5081.0478515625 
 30 
 0 
 11 
 1034 
 21 
 5099 
 31 
 0 
 0 
LINE
 10 
 1034 
 20 
 5099 
 30 
 0 
 11 
 1053.61596679688 
 21 
 5117.3994140625 
 31 
 0 
 0 
LINE
 10 
 1053.61596679688 
 20 
 5117.3994140625 
 30 
 0 
 11 
 1068.04797363281 
 21 
 5128.83984375 
 31 
 0 
 0 
LINE
 10 
 1068.04797363281 
 20 
 5128.83984375 
 30 
 0 
 11 
 1079.07202148438 
 21 
 5134.27978515625 
 31 
 0 
 0 
LINE
 10 
 1079.07202148438 
 20 
 5134.27978515625 
 30 
 0 
 11 
 1088.46398925781 
 21 
 5134.68017578125 
 31 
 0 
 0 
LINE
 10 
 1088.46398925781 
 20 
 5134.68017578125 
 30 
 0 
 11 
 1098 
 21 
 5131 
 31 
 0 
 0 
LINE
 10 
 1098 
 20 
 5131 
 30 
 0 
 11 
 1105.89599609375 
 21 
 5127.5517578125 
 31 
 0 
 0 
LINE
 10 
 1105.89599609375 
 20 
 5127.5517578125 
 30 
 0 
 11 
 1115.80798339844 
 21 
 5124.5361328125 
 31 
 0 
 0 
LINE
 10 
 1115.80798339844 
 20 
 5124.5361328125 
 30 
 0 
 11 
 1126.8720703125 
 21 
 5122.14404296875 
 31 
 0 
 0 
LINE
 10 
 1126.8720703125 
 20 
 5122.14404296875 
 30 
 0 
 11 
 1138.22399902344 
 21 
 5120.56787109375 
 31 
 0 
 0 
LINE
 10 
 1138.22399902344 
 20 
 5120.56787109375 
 30 
 0 
 11 
 1149 
 21 
 5120 
 31 
 0 
 0 
LINE
 10 
 1149 
 20 
 5120 
 30 
 0 
 11 
 1162.59191894531 
 21 
 5120.52001953125 
 31 
 0 
 0 
LINE
 10 
 1162.59191894531 
 20 
 5120.52001953125 
 30 
 0 
 11 
 1171.57604980469 
 21 
 5122.72021484375 
 31 
 0 
 0 
LINE
 10 
 1171.57604980469 
 20 
 5122.72021484375 
 30 
 0 
 11 
 1176.86401367188 
 21 
 5127.56005859375 
 31 
 0 
 0 
LINE
 10 
 1176.86401367188 
 20 
 5127.56005859375 
 30 
 0 
 11 
 1179.36804199219 
 21 
 5136 
 31 
 0 
 0 
LINE
 10 
 1179.36804199219 
 20 
 5136 
 30 
 0 
 11 
 1180 
 21 
 5149 
 31 
 0 
 0 
LINE
 10 
 1180 
 20 
 5149 
 30 
 0 
 11 
 1180.97595214844 
 21 
 5160.30419921875 
 31 
 0 
 0 
LINE
 10 
 1180.97595214844 
 20 
 5160.30419921875 
 30 
 0 
 11 
 1183.96801757813 
 21 
 5170.31201171875 
 31 
 0 
 0 
LINE
 10 
 1183.96801757813 
 20 
 5170.31201171875 
 30 
 0 
 11 
 1189.07202148438 
 21 
 5179.16796875 
 31 
 0 
 0 
LINE
 10 
 1189.07202148438 
 20 
 5179.16796875 
 30 
 0 
 11 
 1196.38403320313 
 21 
 5187.01611328125 
 31 
 0 
 0 
LINE
 10 
 1196.38403320313 
 20 
 5187.01611328125 
 30 
 0 
 11 
 1206 
 21 
 5194 
 31 
 0 
 0 
LINE
 10 
 1206 
 20 
 5194 
 30 
 0 
 11 
 1221.6240234375 
 21 
 5210.20751953125 
 31 
 0 
 0 
LINE
 10 
 1221.6240234375 
 20 
 5210.20751953125 
 30 
 0 
 11 
 1228.99194335938 
 21 
 5228.8642578125 
 31 
 0 
 0 
LINE
 10 
 1228.99194335938 
 20 
 5228.8642578125 
 30 
 0 
 11 
 1228.248046875 
 21 
 5246.416015625 
 31 
 0 
 0 
LINE
 10 
 1228.248046875 
 20 
 5246.416015625 
 30 
 0 
 11 
 1219.53601074219 
 21 
 5259.31201171875 
 31 
 0 
 0 
LINE
 10 
 1219.53601074219 
 20 
 5259.31201171875 
 30 
 0 
 11 
 1203 
 21 
 5264 
 31 
 0 
 0 
LINE
 10 
 1203 
 20 
 5264 
 30 
 0 
 11 
 1195.61596679688 
 21 
 5264.576171875 
 31 
 0 
 0 
LINE
 10 
 1195.61596679688 
 20 
 5264.576171875 
 30 
 0 
 11 
 1189.28796386719 
 21 
 5266.2080078125 
 31 
 0 
 0 
LINE
 10 
 1189.28796386719 
 20 
 5266.2080078125 
 30 
 0 
 11 
 1184.35205078125 
 21 
 5268.751953125 
 31 
 0 
 0 
LINE
 10 
 1184.35205078125 
 20 
 5268.751953125 
 30 
 0 
 11 
 1181.14404296875 
 21 
 5272.06396484375 
 31 
 0 
 0 
LINE
 10 
 1181.14404296875 
 20 
 5272.06396484375 
 30 
 0 
 11 
 1180 
 21 
 5276 
 31 
 0 
 0 
LINE
 10 
 1180 
 20 
 5276 
 30 
 0 
 11 
 1176.25598144531 
 21 
 5284.8876953125 
 31 
 0 
 0 
LINE
 10 
 1176.25598144531 
 20 
 5284.8876953125 
 30 
 0 
 11 
 1166.36804199219 
 21 
 5291.90380859375 
 31 
 0 
 0 
LINE
 10 
 1166.36804199219 
 20 
 5291.90380859375 
 30 
 0 
 11 
 1152.35205078125 
 21 
 5296.3759765625 
 31 
 0 
 0 
LINE
 10 
 1152.35205078125 
 20 
 5296.3759765625 
 30 
 0 
 11 
 1136.22399902344 
 21 
 5297.63232421875 
 31 
 0 
 0 
LINE
 10 
 1136.22399902344 
 20 
 5297.63232421875 
 30 
 0 
 11 
 1120 
 21 
 5295 
 31 
 0 
 0 
LINE
 10 
 1120 
 20 
 5295 
 30 
 0 
 11 
 1106.66394042969 
 21 
 5287.935546875 
 31 
 0 
 0 
LINE
 10 
 1106.66394042969 
 20 
 5287.935546875 
 30 
 0 
 11 
 1095.15209960938 
 21 
 5276.64794921875 
 31 
 0 
 0 
LINE
 10 
 1095.15209960938 
 20 
 5276.64794921875 
 30 
 0 
 11 
 1086.80798339844 
 21 
 5263.39208984375 
 31 
 0 
 0 
LINE
 10 
 1086.80798339844 
 20 
 5263.39208984375 
 30 
 0 
 11 
 1082.97607421875 
 21 
 5250.42431640625 
 31 
 0 
 0 
LINE
 10 
 1082.97607421875 
 20 
 5250.42431640625 
 30 
 0 
 11 
 1085 
 21 
 5240 
 31 
 0 
 0 
LINE
 10 
 1085 
 20 
 5240 
 30 
 0 
 11 
 1085.51196289063 
 21 
 5236.65576171875 
 31 
 0 
 0 
LINE
 10 
 1085.51196289063 
 20 
 5236.65576171875 
 30 
 0 
 11 
 1083.57604980469 
 21 
 5233.88818359375 
 31 
 0 
 0 
LINE
 10 
 1083.57604980469 
 20 
 5233.88818359375 
 30 
 0 
 11 
 1079.38403320313 
 21 
 5231.7919921875 
 31 
 0 
 0 
LINE
 10 
 1079.38403320313 
 20 
 5231.7919921875 
 30 
 0 
 11 
 1073.12805175781 
 21 
 5230.46435546875 
 31 
 0 
 0 
LINE
 10 
 1073.12805175781 
 20 
 5230.46435546875 
 30 
 0 
 11 
 1065 
 21 
 5230 
 31 
 0 
 0 
LINE
 10 
 1065 
 20 
 5230 
 30 
 0 
 11 
 1049.52795410156 
 21 
 5227.44775390625 
 31 
 0 
 0 
LINE
 10 
 1049.52795410156 
 20 
 5227.44775390625 
 30 
 0 
 11 
 1038.42395019531 
 21 
 5220.6240234375 
 31 
 0 
 0 
LINE
 10 
 1038.42395019531 
 20 
 5220.6240234375 
 30 
 0 
 11 
 1032.4560546875 
 21 
 5210.77587890625 
 31 
 0 
 0 
LINE
 10 
 1032.4560546875 
 20 
 5210.77587890625 
 30 
 0 
 11 
 1032.39196777344 
 21 
 5199.15185546875 
 31 
 0 
 0 
LINE
 10 
 1032.39196777344 
 20 
 5199.15185546875 
 30 
 0 
 11 
 1039 
 21 
 5187 
 31 
 0 
 0 
LINE
 10 
 1039 
 20 
 5187 
 30 
 0 
 11 
 1041.81591796875 
 21 
 5180.51220703125 
 31 
 0 
 0 
LINE
 10 
 1041.81591796875 
 20 
 5180.51220703125 
 30 
 0 
 11 
 1040.40808105469 
 21 
 5172.5361328125 
 31 
 0 
 0 
LINE
 10 
 1040.40808105469 
 20 
 5172.5361328125 
 30 
 0 
 11 
 1034.39196777344 
 21 
 5162.30419921875 
 31 
 0 
 0 
LINE
 10 
 1034.39196777344 
 20 
 5162.30419921875 
 30 
 0 
 11 
 1023.38403320313 
 21 
 5149.04833984375 
 31 
 0 
 0 
LINE
 10 
 1023.38403320313 
 20 
 5149.04833984375 
 30 
 0 
 11 
 1007 
 21 
 5132 
 31 
 0 
 0 
LINE
 10 
 1007 
 20 
 5132 
 30 
 0 
 11 
 987.335998535156 
 21 
 5113.17529296875 
 31 
 0 
 0 
LINE
 10 
 987.335998535156 
 20 
 5113.17529296875 
 30 
 0 
 11 
 972.088012695313 
 21 
 5101.408203125 
 31 
 0 
 0 
LINE
 10 
 972.088012695313 
 20 
 5101.408203125 
 30 
 0 
 11 
 958.472045898438 
 21 
 5095.35205078125 
 31 
 0 
 0 
LINE
 10 
 958.472045898438 
 20 
 5095.35205078125 
 30 
 0 
 11 
 943.704040527344 
 21 
 5093.6640625 
 31 
 0 
 0 
LINE
 10 
 943.704040527344 
 20 
 5093.6640625 
 30 
 0 
 11 
 925 
 21 
 5095 
 31 
 0 
 0 
LINE
 10 
 925 
 20 
 5095 
 30 
 0 
 11 
 909.735961914063 
 21 
 5097.64013671875 
 31 
 0 
 0 
LINE
 10 
 909.735961914063 
 20 
 5097.64013671875 
 30 
 0 
 11 
 896.248046875 
 21 
 5101.9599609375 
 31 
 0 
 0 
LINE
 10 
 896.248046875 
 20 
 5101.9599609375 
 30 
 0 
 11 
 884.392028808594 
 21 
 5107.9599609375 
 31 
 0 
 0 
LINE
 10 
 884.392028808594 
 20 
 5107.9599609375 
 30 
 0 
 11 
 874.023986816406 
 21 
 5115.64013671875 
 31 
 0 
 0 
LINE
 10 
 874.023986816406 
 20 
 5115.64013671875 
 30 
 0 
 11 
 865 
 21 
 5125 
 31 
 0 
 0 
LINE
 10 
 865 
 20 
 5125 
 30 
 0 
 11 
 855.85595703125 
 21 
 5136.49609375 
 31 
 0 
 0 
LINE
 10 
 855.85595703125 
 20 
 5136.49609375 
 30 
 0 
 11 
 842.488037109375 
 21 
 5153.12841796875 
 31 
 0 
 0 
LINE
 10 
 842.488037109375 
 20 
 5153.12841796875 
 30 
 0 
 11 
 826.192016601563 
 21 
 5173.31201171875 
 31 
 0 
 0 
LINE
 10 
 826.192016601563 
 20 
 5173.31201171875 
 30 
 0 
 11 
 808.264038085938 
 21 
 5195.4638671875 
 31 
 0 
 0 
LINE
 10 
 808.264038085938 
 20 
 5195.4638671875 
 30 
 0 
 11 
 790 
 21 
 5218 
 31 
 0 
 0 
LINE
 10 
 790 
 20 
 5218 
 30 
 0 
 11 
 744.087951660156 
 21 
 5273.9677734375 
 31 
 0 
 0 
LINE
 10 
 744.087951660156 
 20 
 5273.9677734375 
 30 
 0 
 11 
 715.504028320313 
 21 
 5311.98388671875 
 31 
 0 
 0 
LINE
 10 
 715.504028320313 
 20 
 5311.98388671875 
 30 
 0 
 11 
 702.3759765625 
 21 
 5335.2158203125 
 31 
 0 
 0 
LINE
 10 
 702.3759765625 
 20 
 5335.2158203125 
 30 
 0 
 11 
 702.83203125 
 21 
 5346.83203125 
 31 
 0 
 0 
LINE
 10 
 702.83203125 
 20 
 5346.83203125 
 30 
 0 
 11 
 715 
 21 
 5350 
 31 
 0 
 0 
LINE
 10 
 715 
 20 
 5350 
 30 
 0 
 11 
 719.632019042969 
 21 
 5350.5595703125 
 31 
 0 
 0 
LINE
 10 
 719.632019042969 
 20 
 5350.5595703125 
 30 
 0 
 11 
 723.736022949219 
 21 
 5352.080078125 
 31 
 0 
 0 
LINE
 10 
 723.736022949219 
 20 
 5352.080078125 
 30 
 0 
 11 
 727.023986816406 
 21 
 5354.3203125 
 31 
 0 
 0 
LINE
 10 
 727.023986816406 
 20 
 5354.3203125 
 30 
 0 
 11 
 729.2080078125 
 21 
 5357.0400390625 
 31 
 0 
 0 
LINE
 10 
 729.2080078125 
 20 
 5357.0400390625 
 30 
 0 
 11 
 730 
 21 
 5360 
 31 
 0 
 0 
LINE
 10 
 730 
 20 
 5360 
 30 
 0 
 11 
 729.207946777344 
 21 
 5365.271484375 
 31 
 0 
 0 
LINE
 10 
 729.207946777344 
 20 
 5365.271484375 
 30 
 0 
 11 
 727.024047851563 
 21 
 5373.3759765625 
 31 
 0 
 0 
LINE
 10 
 727.024047851563 
 20 
 5373.3759765625 
 30 
 0 
 11 
 723.736022949219 
 21 
 5383.5439453125 
 31 
 0 
 0 
LINE
 10 
 723.736022949219 
 20 
 5383.5439453125 
 30 
 0 
 11 
 719.632019042969 
 21 
 5395.00830078125 
 31 
 0 
 0 
LINE
 10 
 719.632019042969 
 20 
 5395.00830078125 
 30 
 0 
 11 
 715 
 21 
 5407 
 31 
 0 
 0 
LINE
 10 
 715 
 20 
 5407 
 30 
 0 
 11 
 710.367980957031 
 21 
 5419.18359375 
 31 
 0 
 0 
LINE
 10 
 710.367980957031 
 20 
 5419.18359375 
 30 
 0 
 11 
 706.263977050781 
 21 
 5432.232421875 
 31 
 0 
 0 
LINE
 10 
 706.263977050781 
 20 
 5432.232421875 
 30 
 0 
 11 
 702.976013183594 
 21 
 5445.08837890625 
 31 
 0 
 0 
LINE
 10 
 702.976013183594 
 20 
 5445.08837890625 
 30 
 0 
 11 
 700.7919921875 
 21 
 5456.6962890625 
 31 
 0 
 0 
LINE
 10 
 700.7919921875 
 20 
 5456.6962890625 
 30 
 0 
 11 
 700 
 21 
 5466 
 31 
 0 
 0 
LINE
 10 
 700 
 20 
 5466 
 30 
 0 
 11 
 699.43994140625 
 21 
 5473.3359375 
 31 
 0 
 0 
LINE
 10 
 699.43994140625 
 20 
 5473.3359375 
 30 
 0 
 11 
 697.919982910156 
 21 
 5480.5283203125 
 31 
 0 
 0 
LINE
 10 
 697.919982910156 
 20 
 5480.5283203125 
 30 
 0 
 11 
 695.680053710938 
 21 
 5486.95166015625 
 31 
 0 
 0 
LINE
 10 
 695.680053710938 
 20 
 5486.95166015625 
 30 
 0 
 11 
 692.960021972656 
 21 
 5491.98388671875 
 31 
 0 
 0 
LINE
 10 
 692.960021972656 
 20 
 5491.98388671875 
 30 
 0 
 11 
 690 
 21 
 5495 
 31 
 0 
 0 
LINE
 10 
 690 
 20 
 5495 
 30 
 0 
 11 
 668.3759765625 
 21 
 5533.3837890625 
 31 
 0 
 0 
LINE
 10 
 668.3759765625 
 20 
 5533.3837890625 
 30 
 0 
 11 
 632.208068847656 
 21 
 5630.9521484375 
 31 
 0 
 0 
LINE
 10 
 632.208068847656 
 20 
 5630.9521484375 
 30 
 0 
 11 
 581.351989746094 
 21 
 5788.328125 
 31 
 0 
 0 
LINE
 10 
 581.351989746094 
 20 
 5788.328125 
 30 
 0 
 11 
 515.664001464844 
 21 
 6006.13623046875 
 31 
 0 
 0 
LINE
 10 
 515.664001464844 
 20 
 6006.13623046875 
 30 
 0 
 11 
 435 
 21 
 6285 
 31 
 0 
 0 
LINE
 10 
 435 
 20 
 6285 
 30 
 0 
 11 
 422.063995361328 
 21 
 6326.103515625 
 31 
 0 
 0 
LINE
 10 
 422.063995361328 
 20 
 6326.103515625 
 30 
 0 
 11 
 408.792022705078 
 21 
 6359.91259765625 
 31 
 0 
 0 
LINE
 10 
 408.792022705078 
 20 
 6359.91259765625 
 30 
 0 
 11 
 393.888031005859 
 21 
 6388.9677734375 
 31 
 0 
 0 
LINE
 10 
 393.888031005859 
 20 
 6388.9677734375 
 30 
 0 
 11 
 376.055999755859 
 21 
 6415.81591796875 
 31 
 0 
 0 
LINE
 10 
 376.055999755859 
 20 
 6415.81591796875 
 30 
 0 
 11 
 354 
 21 
 6443 
 31 
 0 
 0 
LINE
 10 
 354 
 20 
 6443 
 30 
 0 
 11 
 332.888000488281 
 21 
 6470.45556640625 
 31 
 0 
 0 
LINE
 10 
 332.888000488281 
 20 
 6470.45556640625 
 30 
 0 
 11 
 322.384002685547 
 21 
 6494.88818359375 
 31 
 0 
 0 
LINE
 10 
 322.384002685547 
 20 
 6494.88818359375 
 30 
 0 
 11 
 322.535980224609 
 21 
 6517.591796875 
 31 
 0 
 0 
LINE
 10 
 322.535980224609 
 20 
 6517.591796875 
 30 
 0 
 11 
 333.391998291016 
 21 
 6539.8642578125 
 31 
 0 
 0 
LINE
 10 
 333.391998291016 
 20 
 6539.8642578125 
 30 
 0 
 11 
 355 
 21 
 6563 
 31 
 0 
 0 
LINE
 10 
 355 
 20 
 6563 
 30 
 0 
 11 
 375.839996337891 
 21 
 6585.72802734375 
 31 
 0 
 0 
LINE
 10 
 375.839996337891 
 20 
 6585.72802734375 
 30 
 0 
 11 
 387.800018310547 
 21 
 6608.26416015625 
 31 
 0 
 0 
LINE
 10 
 387.800018310547 
 20 
 6608.26416015625 
 30 
 0 
 11 
 390.639984130859 
 21 
 6628.736328125 
 31 
 0 
 0 
LINE
 10 
 390.639984130859 
 20 
 6628.736328125 
 30 
 0 
 11 
 384.119995117188 
 21 
 6645.27197265625 
 31 
 0 
 0 
LINE
 10 
 384.119995117188 
 20 
 6645.27197265625 
 30 
 0 
 11 
 368 
 21 
 6656 
 31 
 0 
 0 
LINE
 10 
 368 
 20 
 6656 
 30 
 0 
 11 
 357.664001464844 
 21 
 6659.39208984375 
 31 
 0 
 0 
LINE
 10 
 357.664001464844 
 20 
 6659.39208984375 
 30 
 0 
 11 
 353.472015380859 
 21 
 6663.4560546875 
 31 
 0 
 0 
LINE
 10 
 353.472015380859 
 20 
 6663.4560546875 
 30 
 0 
 11 
 356.048004150391 
 21 
 6669.82373046875 
 31 
 0 
 0 
LINE
 10 
 356.048004150391 
 20 
 6669.82373046875 
 30 
 0 
 11 
 366.016021728516 
 21 
 6680.1279296875 
 31 
 0 
 0 
LINE
 10 
 366.016021728516 
 20 
 6680.1279296875 
 30 
 0 
 11 
 384 
 21 
 6696 
 31 
 0 
 0 
LINE
 10 
 384 
 20 
 6696 
 30 
 0 
 11 
 417.623992919922 
 21 
 6719.2314453125 
 31 
 0 
 0 
LINE
 10 
 417.623992919922 
 20 
 6719.2314453125 
 30 
 0 
 11 
 452.832000732422 
 21 
 6733.5361328125 
 31 
 0 
 0 
LINE
 10 
 452.832000732422 
 20 
 6733.5361328125 
 30 
 0 
 11 
 488.328002929688 
 21 
 6738.6240234375 
 31 
 0 
 0 
LINE
 10 
 488.328002929688 
 20 
 6738.6240234375 
 30 
 0 
 11 
 522.815979003906 
 21 
 6734.2080078125 
 31 
 0 
 0 
LINE
 10 
 522.815979003906 
 20 
 6734.2080078125 
 30 
 0 
 11 
 555 
 21 
 6720 
 31 
 0 
 0 
LINE
 10 
 2828 
 20 
 2020 
 30 
 0 
 11 
 2861.53588867188 
 21 
 1900.19982910156 
 31 
 0 
 0 
LINE
 10 
 2861.53588867188 
 20 
 1900.19982910156 
 30 
 0 
 11 
 2892.0478515625 
 21 
 1765.0400390625 
 31 
 0 
 0 
LINE
 10 
 2892.0478515625 
 20 
 1765.0400390625 
 30 
 0 
 11 
 2916.99194335938 
 21 
 1628.67993164063 
 31 
 0 
 0 
LINE
 10 
 2916.99194335938 
 20 
 1628.67993164063 
 30 
 0 
 11 
 2933.82397460938 
 21 
 1505.28002929688 
 31 
 0 
 0 
LINE
 10 
 2933.82397460938 
 20 
 1505.28002929688 
 30 
 0 
 11 
 2940 
 21 
 1409 
 31 
 0 
 0 
LINE
 10 
 2940 
 20 
 1409 
 30 
 0 
 11 
 2937.50415039063 
 21 
 1350.31201171875 
 31 
 0 
 0 
LINE
 10 
 2937.50415039063 
 20 
 1350.31201171875 
 30 
 0 
 11 
 2930.11206054688 
 21 
 1321.81604003906 
 31 
 0 
 0 
LINE
 10 
 2930.11206054688 
 20 
 1321.81604003906 
 30 
 0 
 11 
 2917.96801757813 
 21 
 1323.46398925781 
 31 
 0 
 0 
LINE
 10 
 2917.96801757813 
 20 
 1323.46398925781 
 30 
 0 
 11 
 2901.21606445313 
 21 
 1355.2080078125 
 31 
 0 
 0 
LINE
 10 
 2901.21606445313 
 20 
 1355.2080078125 
 30 
 0 
 11 
 2880 
 21 
 1417 
 31 
 0 
 0 
LINE
 10 
 2880 
 20 
 1417 
 30 
 0 
 11 
 2858 
 21 
 1490 
 31 
 0 
 0 
LINE
 10 
 2858 
 20 
 1490 
 30 
 0 
 11 
 2816 
 21 
 1453 
 31 
 0 
 0 
LINE
 10 
 2816 
 20 
 1453 
 30 
 0 
 11 
 2773 
 21 
 1416 
 31 
 0 
 0 
LINE
 10 
 2773 
 20 
 1416 
 30 
 0 
 11 
 2786 
 21 
 1365 
 31 
 0 
 0 
LINE
 10 
 2786 
 20 
 1365 
 30 
 0 
 11 
 2790.52783203125 
 21 
 1344.54406738281 
 31 
 0 
 0 
LINE
 10 
 2790.52783203125 
 20 
 1344.54406738281 
 30 
 0 
 11 
 2794.38403320313 
 21 
 1317.27197265625 
 31 
 0 
 0 
LINE
 10 
 2794.38403320313 
 20 
 1317.27197265625 
 30 
 0 
 11 
 2797.3759765625 
 21 
 1285.72802734375 
 31 
 0 
 0 
LINE
 10 
 2797.3759765625 
 20 
 1285.72802734375 
 30 
 0 
 11 
 2799.31201171875 
 21 
 1252.4560546875 
 31 
 0 
 0 
LINE
 10 
 2799.31201171875 
 20 
 1252.4560546875 
 30 
 0 
 11 
 2800 
 21 
 1220 
 31 
 0 
 0 
LINE
 10 
 2800 
 20 
 1220 
 30 
 0 
 11 
 2799.29565429688 
 21 
 1177.06396484375 
 31 
 0 
 0 
LINE
 10 
 2799.29565429688 
 20 
 1177.06396484375 
 30 
 0 
 11 
 2797.96801757813 
 21 
 1150.83203125 
 31 
 0 
 0 
LINE
 10 
 2797.96801757813 
 20 
 1150.83203125 
 30 
 0 
 11 
 2795.39208984375 
 21 
 1138.56799316406 
 31 
 0 
 0 
LINE
 10 
 2795.39208984375 
 20 
 1138.56799316406 
 30 
 0 
 11 
 2790.94409179688 
 21 
 1137.53601074219 
 31 
 0 
 0 
LINE
 10 
 2790.94409179688 
 20 
 1137.53601074219 
 30 
 0 
 11 
 2784 
 21 
 1145 
 31 
 0 
 0 
LINE
 10 
 2784 
 20 
 1145 
 30 
 0 
 11 
 2770.10375976563 
 21 
 1170.91186523438 
 31 
 0 
 0 
LINE
 10 
 2770.10375976563 
 20 
 1170.91186523438 
 30 
 0 
 11 
 2755.15209960938 
 21 
 1210.21606445313 
 31 
 0 
 0 
LINE
 10 
 2755.15209960938 
 20 
 1210.21606445313 
 30 
 0 
 11 
 2741.44799804688 
 21 
 1255.6640625 
 31 
 0 
 0 
LINE
 10 
 2741.44799804688 
 20 
 1255.6640625 
 30 
 0 
 11 
 2731.29614257813 
 21 
 1300.00805664063 
 31 
 0 
 0 
LINE
 10 
 2731.29614257813 
 20 
 1300.00805664063 
 30 
 0 
 11 
 2727 
 21 
 1336 
 31 
 0 
 0 
LINE
 10 
 2727 
 20 
 1336 
 30 
 0 
 11 
 2725.72778320313 
 21 
 1349.51208496094 
 31 
 0 
 0 
LINE
 10 
 2725.72778320313 
 20 
 1349.51208496094 
 30 
 0 
 11 
 2723.30419921875 
 21 
 1362.97595214844 
 31 
 0 
 0 
LINE
 10 
 2723.30419921875 
 20 
 1362.97595214844 
 30 
 0 
 11 
 2720.01586914063 
 21 
 1375.38403320313 
 31 
 0 
 0 
LINE
 10 
 2720.01586914063 
 20 
 1375.38403320313 
 30 
 0 
 11 
 2716.15209960938 
 21 
 1385.72802734375 
 31 
 0 
 0 
LINE
 10 
 2716.15209960938 
 20 
 1385.72802734375 
 30 
 0 
 11 
 2712 
 21 
 1393 
 31 
 0 
 0 
LINE
 10 
 2712 
 20 
 1393 
 30 
 0 
 11 
 2701.84790039063 
 21 
 1417.61596679688 
 31 
 0 
 0 
LINE
 10 
 2701.84790039063 
 20 
 1417.61596679688 
 30 
 0 
 11 
 2695.583984375 
 21 
 1457.44812011719 
 31 
 0 
 0 
LINE
 10 
 2695.583984375 
 20 
 1457.44812011719 
 30 
 0 
 11 
 2693.49609375 
 21 
 1504.67199707031 
 31 
 0 
 0 
LINE
 10 
 2693.49609375 
 20 
 1504.67199707031 
 30 
 0 
 11 
 2695.8720703125 
 21 
 1551.46398925781 
 31 
 0 
 0 
LINE
 10 
 2695.8720703125 
 20 
 1551.46398925781 
 30 
 0 
 11 
 2703 
 21 
 1590 
 31 
 0 
 0 
LINE
 10 
 2703 
 20 
 1590 
 30 
 0 
 11 
 2718 
 21 
 1635 
 31 
 0 
 0 
LINE
 10 
 2718 
 20 
 1635 
 30 
 0 
 11 
 2725 
 21 
 1605 
 31 
 0 
 0 
LINE
 10 
 2725 
 20 
 1605 
 30 
 0 
 11 
 2728.07202148438 
 21 
 1592.99987792969 
 31 
 0 
 0 
LINE
 10 
 2728.07202148438 
 20 
 1592.99987792969 
 30 
 0 
 11 
 2732.29614257813 
 21 
 1577.16003417969 
 31 
 0 
 0 
LINE
 10 
 2732.29614257813 
 20 
 1577.16003417969 
 30 
 0 
 11 
 2737.3837890625 
 21 
 1558.919921875 
 31 
 0 
 0 
LINE
 10 
 2737.3837890625 
 20 
 1558.919921875 
 30 
 0 
 11 
 2743.04809570313 
 21 
 1539.72009277344 
 31 
 0 
 0 
LINE
 10 
 2743.04809570313 
 20 
 1539.72009277344 
 30 
 0 
 11 
 2749 
 21 
 1521 
 31 
 0 
 0 
LINE
 10 
 2749 
 20 
 1521 
 30 
 0 
 11 
 2766 
 21 
 1467 
 31 
 0 
 0 
LINE
 10 
 2766 
 20 
 1467 
 30 
 0 
 11 
 2804 
 21 
 1500 
 31 
 0 
 0 
LINE
 10 
 2804 
 20 
 1500 
 30 
 0 
 11 
 2820.47998046875 
 21 
 1515.62390136719 
 31 
 0 
 0 
LINE
 10 
 2820.47998046875 
 20 
 1515.62390136719 
 30 
 0 
 11 
 2830.9599609375 
 21 
 1528.03210449219 
 31 
 0 
 0 
LINE
 10 
 2830.9599609375 
 20 
 1528.03210449219 
 30 
 0 
 11 
 2836.40014648438 
 21 
 1539.52807617188 
 31 
 0 
 0 
LINE
 10 
 2836.40014648438 
 20 
 1539.52807617188 
 30 
 0 
 11 
 2837.76000976563 
 21 
 1552.416015625 
 31 
 0 
 0 
LINE
 10 
 2837.76000976563 
 20 
 1552.416015625 
 30 
 0 
 11 
 2836 
 21 
 1569 
 31 
 0 
 0 
LINE
 10 
 2836 
 20 
 1569 
 30 
 0 
 11 
 2832.81567382813 
 21 
 1590.43188476563 
 31 
 0 
 0 
LINE
 10 
 2832.81567382813 
 20 
 1590.43188476563 
 30 
 0 
 11 
 2828.2880859375 
 21 
 1628.13598632813 
 31 
 0 
 0 
LINE
 10 
 2828.2880859375 
 20 
 1628.13598632813 
 30 
 0 
 11 
 2822.751953125 
 21 
 1678.22399902344 
 31 
 0 
 0 
LINE
 10 
 2822.751953125 
 20 
 1678.22399902344 
 30 
 0 
 11 
 2816.5439453125 
 21 
 1736.80810546875 
 31 
 0 
 0 
LINE
 10 
 2816.5439453125 
 20 
 1736.80810546875 
 30 
 0 
 11 
 2810 
 21 
 1800 
 31 
 0 
 0 
LINE
 10 
 2810 
 20 
 1800 
 30 
 0 
 11 
 2803.83984375 
 21 
 1864.43994140625 
 31 
 0 
 0 
LINE
 10 
 2803.83984375 
 20 
 1864.43994140625 
 30 
 0 
 11 
 2797.67993164063 
 21 
 1926.48010253906 
 31 
 0 
 0 
LINE
 10 
 2797.67993164063 
 20 
 1926.48010253906 
 30 
 0 
 11 
 2792 
 21 
 1981.79992675781 
 31 
 0 
 0 
LINE
 10 
 2792 
 20 
 1981.79992675781 
 30 
 0 
 11 
 2787.28002929688 
 21 
 2026.080078125 
 31 
 0 
 0 
LINE
 10 
 2787.28002929688 
 20 
 2026.080078125 
 30 
 0 
 11 
 2784 
 21 
 2055 
 31 
 0 
 0 
LINE
 10 
 2784 
 20 
 2055 
 30 
 0 
 11 
 2781.27978515625 
 21 
 2081.28002929688 
 31 
 0 
 0 
LINE
 10 
 2781.27978515625 
 20 
 2081.28002929688 
 30 
 0 
 11 
 2780.47998046875 
 21 
 2097.47998046875 
 31 
 0 
 0 
LINE
 10 
 2780.47998046875 
 20 
 2097.47998046875 
 30 
 0 
 11 
 2781.84008789063 
 21 
 2105.0400390625 
 31 
 0 
 0 
LINE
 10 
 2781.84008789063 
 20 
 2105.0400390625 
 30 
 0 
 11 
 2785.60009765625 
 21 
 2105.39990234375 
 31 
 0 
 0 
LINE
 10 
 2785.60009765625 
 20 
 2105.39990234375 
 30 
 0 
 11 
 2792 
 21 
 2100 
 31 
 0 
 0 
LINE
 10 
 2792 
 20 
 2100 
 30 
 0 
 11 
 2797.66381835938 
 21 
 2092.06396484375 
 31 
 0 
 0 
LINE
 10 
 2797.66381835938 
 20 
 2092.06396484375 
 30 
 0 
 11 
 2804.671875 
 21 
 2078.751953125 
 31 
 0 
 0 
LINE
 10 
 2804.671875 
 20 
 2078.751953125 
 30 
 0 
 11 
 2812.4482421875 
 21 
 2061.40795898438 
 31 
 0 
 0 
LINE
 10 
 2812.4482421875 
 20 
 2061.40795898438 
 30 
 0 
 11 
 2820.416015625 
 21 
 2041.3759765625 
 31 
 0 
 0 
LINE
 10 
 2820.416015625 
 20 
 2041.3759765625 
 30 
 0 
 11 
 2828 
 21 
 2020 
 31 
 0 
 0 
LINE
 10 
 3658 
 20 
 8062 
 30 
 0 
 11 
 3637.423828125 
 21 
 8033.45556640625 
 31 
 0 
 0 
LINE
 10 
 3637.423828125 
 20 
 8033.45556640625 
 30 
 0 
 11 
 3618.43212890625 
 21 
 7995.40869140625 
 31 
 0 
 0 
LINE
 10 
 3618.43212890625 
 20 
 7995.40869140625 
 30 
 0 
 11 
 3602.12817382813 
 21 
 7950.83251953125 
 31 
 0 
 0 
LINE
 10 
 3602.12817382813 
 20 
 7950.83251953125 
 30 
 0 
 11 
 3589.61596679688 
 21 
 7902.7041015625 
 31 
 0 
 0 
LINE
 10 
 3589.61596679688 
 20 
 7902.7041015625 
 30 
 0 
 11 
 3582 
 21 
 7854 
 31 
 0 
 0 
LINE
 10 
 3582 
 20 
 7854 
 30 
 0 
 11 
 3575 
 21 
 7786 
 31 
 0 
 0 
LINE
 10 
 3575 
 20 
 7786 
 30 
 0 
 11 
 3515 
 21 
 7773 
 31 
 0 
 0 
LINE
 10 
 3515 
 20 
 7773 
 30 
 0 
 11 
 3493.70385742188 
 21 
 7767.6796875 
 31 
 0 
 0 
LINE
 10 
 3493.70385742188 
 20 
 7767.6796875 
 30 
 0 
 11 
 3470.63208007813 
 21 
 7761.64013671875 
 31 
 0 
 0 
LINE
 10 
 3470.63208007813 
 20 
 7761.64013671875 
 30 
 0 
 11 
 3447.60791015625 
 21 
 7755.35986328125 
 31 
 0 
 0 
LINE
 10 
 3447.60791015625 
 20 
 7755.35986328125 
 30 
 0 
 11 
 3426.4560546875 
 21 
 7749.3203125 
 31 
 0 
 0 
LINE
 10 
 3426.4560546875 
 20 
 7749.3203125 
 30 
 0 
 11 
 3409 
 21 
 7744 
 31 
 0 
 0 
LINE
 10 
 3409 
 20 
 7744 
 30 
 0 
 11 
 3391.16772460938 
 21 
 7739.03173828125 
 31 
 0 
 0 
LINE
 10 
 3391.16772460938 
 20 
 7739.03173828125 
 30 
 0 
 11 
 3370.02416992188 
 21 
 7734.01611328125 
 31 
 0 
 0 
LINE
 10 
 3370.02416992188 
 20 
 7734.01611328125 
 30 
 0 
 11 
 3347.29614257813 
 21 
 7729.3837890625 
 31 
 0 
 0 
LINE
 10 
 3347.29614257813 
 20 
 7729.3837890625 
 30 
 0 
 11 
 3324.71215820313 
 21 
 7725.56787109375 
 31 
 0 
 0 
LINE
 10 
 3324.71215820313 
 20 
 7725.56787109375 
 30 
 0 
 11 
 3304 
 21 
 7723 
 31 
 0 
 0 
LINE
 10 
 3304 
 20 
 7723 
 30 
 0 
 11 
 3284.28784179688 
 21 
 7720.76806640625 
 31 
 0 
 0 
LINE
 10 
 3284.28784179688 
 20 
 7720.76806640625 
 30 
 0 
 11 
 3265.58422851563 
 21 
 7717.8642578125 
 31 
 0 
 0 
LINE
 10 
 3265.58422851563 
 20 
 7717.8642578125 
 30 
 0 
 11 
 3249.13598632813 
 21 
 7714.576171875 
 31 
 0 
 0 
LINE
 10 
 3249.13598632813 
 20 
 7714.576171875 
 30 
 0 
 11 
 3236.19189453125 
 21 
 7711.1923828125 
 31 
 0 
 0 
LINE
 10 
 3236.19189453125 
 20 
 7711.1923828125 
 30 
 0 
 11 
 3228 
 21 
 7708 
 31 
 0 
 0 
LINE
 10 
 3228 
 20 
 7708 
 30 
 0 
 11 
 3221.080078125 
 21 
 7705.7275390625 
 31 
 0 
 0 
LINE
 10 
 3221.080078125 
 20 
 7705.7275390625 
 30 
 0 
 11 
 3213.68017578125 
 21 
 7704.94384765625 
 31 
 0 
 0 
LINE
 10 
 3213.68017578125 
 20 
 7704.94384765625 
 30 
 0 
 11 
 3206.0400390625 
 21 
 7705.69580078125 
 31 
 0 
 0 
LINE
 10 
 3206.0400390625 
 20 
 7705.69580078125 
 30 
 0 
 11 
 3198.40014648438 
 21 
 7708.0322265625 
 31 
 0 
 0 
LINE
 10 
 3198.40014648438 
 20 
 7708.0322265625 
 30 
 0 
 11 
 3191 
 21 
 7712 
 31 
 0 
 0 
LINE
 10 
 3191 
 20 
 7712 
 30 
 0 
 11 
 3176.86401367188 
 21 
 7716.82373046875 
 31 
 0 
 0 
LINE
 10 
 3176.86401367188 
 20 
 7716.82373046875 
 30 
 0 
 11 
 3163.11206054688 
 21 
 7715.07177734375 
 31 
 0 
 0 
LINE
 10 
 3163.11206054688 
 20 
 7715.07177734375 
 30 
 0 
 11 
 3151.32788085938 
 21 
 7707.60791015625 
 31 
 0 
 0 
LINE
 10 
 3151.32788085938 
 20 
 7707.60791015625 
 30 
 0 
 11 
 3143.09619140625 
 21 
 7695.2958984375 
 31 
 0 
 0 
LINE
 10 
 3143.09619140625 
 20 
 7695.2958984375 
 30 
 0 
 11 
 3140 
 21 
 7679 
 31 
 0 
 0 
LINE
 10 
 3140 
 20 
 7679 
 30 
 0 
 11 
 3139.15991210938 
 21 
 7672.03125 
 31 
 0 
 0 
LINE
 10 
 3139.15991210938 
 20 
 7672.03125 
 30 
 0 
 11 
 3136.63989257813 
 21 
 7666.6962890625 
 31 
 0 
 0 
LINE
 10 
 3136.63989257813 
 20 
 7666.6962890625 
 30 
 0 
 11 
 3132.43994140625 
 21 
 7662.94384765625 
 31 
 0 
 0 
LINE
 10 
 3132.43994140625 
 20 
 7662.94384765625 
 30 
 0 
 11 
 3126.56005859375 
 21 
 7660.72802734375 
 31 
 0 
 0 
LINE
 10 
 3126.56005859375 
 20 
 7660.72802734375 
 30 
 0 
 11 
 3119 
 21 
 7660 
 31 
 0 
 0 
LINE
 10 
 3119 
 20 
 7660 
 30 
 0 
 11 
 3091.5439453125 
 21 
 7655.5361328125 
 31 
 0 
 0 
LINE
 10 
 3091.5439453125 
 20 
 7655.5361328125 
 30 
 0 
 11 
 3071.912109375 
 21 
 7644.44873046875 
 31 
 0 
 0 
LINE
 10 
 3071.912109375 
 20 
 7644.44873046875 
 30 
 0 
 11 
 3062.40795898438 
 21 
 7630.19189453125 
 31 
 0 
 0 
LINE
 10 
 3062.40795898438 
 20 
 7630.19189453125 
 30 
 0 
 11 
 3065.3359375 
 21 
 7616.22412109375 
 31 
 0 
 0 
LINE
 10 
 3065.3359375 
 20 
 7616.22412109375 
 30 
 0 
 11 
 3083 
 21 
 7606 
 31 
 0 
 0 
LINE
 10 
 3083 
 20 
 7606 
 30 
 0 
 11 
 3105 
 21 
 7599 
 31 
 0 
 0 
LINE
 10 
 3105 
 20 
 7599 
 30 
 0 
 11 
 3082 
 21 
 7590 
 31 
 0 
 0 
LINE
 10 
 3082 
 20 
 7590 
 30 
 0 
 11 
 3074.5361328125 
 21 
 7585.90380859375 
 31 
 0 
 0 
LINE
 10 
 3074.5361328125 
 20 
 7585.90380859375 
 30 
 0 
 11 
 3066.92797851563 
 21 
 7580.0322265625 
 31 
 0 
 0 
LINE
 10 
 3066.92797851563 
 20 
 7580.0322265625 
 30 
 0 
 11 
 3059.751953125 
 21 
 7573.00830078125 
 31 
 0 
 0 
LINE
 10 
 3059.751953125 
 20 
 7573.00830078125 
 30 
 0 
 11 
 3053.583984375 
 21 
 7565.4560546875 
 31 
 0 
 0 
LINE
 10 
 3053.583984375 
 20 
 7565.4560546875 
 30 
 0 
 11 
 3049 
 21 
 7558 
 31 
 0 
 0 
LINE
 10 
 3049 
 20 
 7558 
 30 
 0 
 11 
 3043.61596679688 
 21 
 7549.70361328125 
 31 
 0 
 0 
LINE
 10 
 3043.61596679688 
 20 
 7549.70361328125 
 30 
 0 
 11 
 3035.2080078125 
 21 
 7540.83251953125 
 31 
 0 
 0 
LINE
 10 
 3035.2080078125 
 20 
 7540.83251953125 
 30 
 0 
 11 
 3024.59204101563 
 21 
 7532.00830078125 
 31 
 0 
 0 
LINE
 10 
 3024.59204101563 
 20 
 7532.00830078125 
 30 
 0 
 11 
 3012.583984375 
 21 
 7523.85595703125 
 31 
 0 
 0 
LINE
 10 
 3012.583984375 
 20 
 7523.85595703125 
 30 
 0 
 11 
 3000 
 21 
 7517 
 31 
 0 
 0 
LINE
 10 
 3000 
 20 
 7517 
 30 
 0 
 11 
 2962.97583007813 
 21 
 7491.3359375 
 31 
 0 
 0 
LINE
 10 
 2962.97583007813 
 20 
 7491.3359375 
 30 
 0 
 11 
 2915.72827148438 
 21 
 7448.48779296875 
 31 
 0 
 0 
LINE
 10 
 2915.72827148438 
 20 
 7448.48779296875 
 30 
 0 
 11 
 2869.39208984375 
 21 
 7400.072265625 
 31 
 0 
 0 
LINE
 10 
 2869.39208984375 
 20 
 7400.072265625 
 30 
 0 
 11 
 2835.10400390625 
 21 
 7357.7041015625 
 31 
 0 
 0 
LINE
 10 
 2835.10400390625 
 20 
 7357.7041015625 
 30 
 0 
 11 
 2824 
 21 
 7333 
 31 
 0 
 0 
LINE
 10 
 2824 
 20 
 7333 
 30 
 0 
 11 
 2823.72802734375 
 21 
 7323.83203125 
 31 
 0 
 0 
LINE
 10 
 2823.72802734375 
 20 
 7323.83203125 
 30 
 0 
 11 
 2815.583984375 
 21 
 7320.1357421875 
 31 
 0 
 0 
LINE
 10 
 2815.583984375 
 20 
 7320.1357421875 
 30 
 0 
 11 
 2802.97607421875 
 21 
 7321.6240234375 
 31 
 0 
 0 
LINE
 10 
 2802.97607421875 
 20 
 7321.6240234375 
 30 
 0 
 11 
 2789.31201171875 
 21 
 7328.00830078125 
 31 
 0 
 0 
LINE
 10 
 2789.31201171875 
 20 
 7328.00830078125 
 30 
 0 
 11 
 2778 
 21 
 7339 
 31 
 0 
 0 
LINE
 10 
 2778 
 20 
 7339 
 30 
 0 
 11 
 2772.82397460938 
 21 
 7345.0556640625 
 31 
 0 
 0 
LINE
 10 
 2772.82397460938 
 20 
 7345.0556640625 
 30 
 0 
 11 
 2766.11206054688 
 21 
 7350.96826171875 
 31 
 0 
 0 
LINE
 10 
 2766.11206054688 
 20 
 7350.96826171875 
 30 
 0 
 11 
 2758.48803710938 
 21 
 7356.35205078125 
 31 
 0 
 0 
LINE
 10 
 2758.48803710938 
 20 
 7356.35205078125 
 30 
 0 
 11 
 2750.576171875 
 21 
 7360.82421875 
 31 
 0 
 0 
LINE
 10 
 2750.576171875 
 20 
 7360.82421875 
 30 
 0 
 11 
 2743 
 21 
 7364 
 31 
 0 
 0 
LINE
 10 
 2743 
 20 
 7364 
 30 
 0 
 11 
 2735.61596679688 
 21 
 7367.18359375 
 31 
 0 
 0 
LINE
 10 
 2735.61596679688 
 20 
 7367.18359375 
 30 
 0 
 11 
 2729.2880859375 
 21 
 7371.71240234375 
 31 
 0 
 0 
LINE
 10 
 2729.2880859375 
 20 
 7371.71240234375 
 30 
 0 
 11 
 2724.35205078125 
 21 
 7377.248046875 
 31 
 0 
 0 
LINE
 10 
 2724.35205078125 
 20 
 7377.248046875 
 30 
 0 
 11 
 2721.14404296875 
 21 
 7383.4560546875 
 31 
 0 
 0 
LINE
 10 
 2721.14404296875 
 20 
 7383.4560546875 
 30 
 0 
 11 
 2720 
 21 
 7390 
 31 
 0 
 0 
LINE
 10 
 2720 
 20 
 7390 
 30 
 0 
 11 
 2719.20776367188 
 21 
 7395.95166015625 
 31 
 0 
 0 
LINE
 10 
 2719.20776367188 
 20 
 7395.95166015625 
 30 
 0 
 11 
 2717.02416992188 
 21 
 7401.6162109375 
 31 
 0 
 0 
LINE
 10 
 2717.02416992188 
 20 
 7401.6162109375 
 30 
 0 
 11 
 2713.73608398438 
 21 
 7406.7041015625 
 31 
 0 
 0 
LINE
 10 
 2713.73608398438 
 20 
 7406.7041015625 
 30 
 0 
 11 
 2709.63208007813 
 21 
 7410.92822265625 
 31 
 0 
 0 
LINE
 10 
 2709.63208007813 
 20 
 7410.92822265625 
 30 
 0 
 11 
 2705 
 21 
 7414 
 31 
 0 
 0 
LINE
 10 
 2705 
 20 
 7414 
 30 
 0 
 11 
 2692.64013671875 
 21 
 7410.7119140625 
 31 
 0 
 0 
LINE
 10 
 2692.64013671875 
 20 
 7410.7119140625 
 30 
 0 
 11 
 2680.52001953125 
 21 
 7394.65625 
 31 
 0 
 0 
LINE
 10 
 2680.52001953125 
 20 
 7394.65625 
 30 
 0 
 11 
 2670.080078125 
 21 
 7369.14404296875 
 31 
 0 
 0 
LINE
 10 
 2670.080078125 
 20 
 7369.14404296875 
 30 
 0 
 11 
 2662.76000976563 
 21 
 7337.48828125 
 31 
 0 
 0 
LINE
 10 
 2662.76000976563 
 20 
 7337.48828125 
 30 
 0 
 11 
 2660 
 21 
 7303 
 31 
 0 
 0 
LINE
 10 
 2660 
 20 
 7303 
 30 
 0 
 11 
 2659.69580078125 
 21 
 7283.91162109375 
 31 
 0 
 0 
LINE
 10 
 2659.69580078125 
 20 
 7283.91162109375 
 30 
 0 
 11 
 2658.52807617188 
 21 
 7271.73583984375 
 31 
 0 
 0 
LINE
 10 
 2658.52807617188 
 20 
 7271.73583984375 
 30 
 0 
 11 
 2656.11206054688 
 21 
 7265.7041015625 
 31 
 0 
 0 
LINE
 10 
 2656.11206054688 
 20 
 7265.7041015625 
 30 
 0 
 11 
 2652.06396484375 
 21 
 7265.04833984375 
 31 
 0 
 0 
LINE
 10 
 2652.06396484375 
 20 
 7265.04833984375 
 30 
 0 
 11 
 2646 
 21 
 7269 
 31 
 0 
 0 
LINE
 10 
 2646 
 20 
 7269 
 30 
 0 
 11 
 2634.98413085938 
 21 
 7273.27197265625 
 31 
 0 
 0 
LINE
 10 
 2634.98413085938 
 20 
 7273.27197265625 
 30 
 0 
 11 
 2624.83227539063 
 21 
 7267.17626953125 
 31 
 0 
 0 
LINE
 10 
 2624.83227539063 
 20 
 7267.17626953125 
 30 
 0 
 11 
 2615.68823242188 
 21 
 7251.14453125 
 31 
 0 
 0 
LINE
 10 
 2615.68823242188 
 20 
 7251.14453125 
 30 
 0 
 11 
 2607.69604492188 
 21 
 7225.60791015625 
 31 
 0 
 0 
LINE
 10 
 2607.69604492188 
 20 
 7225.60791015625 
 30 
 0 
 11 
 2601 
 21 
 7191 
 31 
 0 
 0 
LINE
 10 
 2601 
 20 
 7191 
 30 
 0 
 11 
 2595 
 21 
 7145 
 31 
 0 
 0 
LINE
 10 
 2595 
 20 
 7145 
 30 
 0 
 11 
 2540 
 21 
 7133 
 31 
 0 
 0 
LINE
 10 
 2540 
 20 
 7133 
 30 
 0 
 11 
 2518.31982421875 
 21 
 7129.44775390625 
 31 
 0 
 0 
LINE
 10 
 2518.31982421875 
 20 
 7129.44775390625 
 30 
 0 
 11 
 2490.8798828125 
 21 
 7126.18408203125 
 31 
 0 
 0 
LINE
 10 
 2490.8798828125 
 20 
 7126.18408203125 
 30 
 0 
 11 
 2460.080078125 
 21 
 7123.49609375 
 31 
 0 
 0 
LINE
 10 
 2460.080078125 
 20 
 7123.49609375 
 30 
 0 
 11 
 2428.32006835938 
 21 
 7121.67236328125 
 31 
 0 
 0 
LINE
 10 
 2428.32006835938 
 20 
 7121.67236328125 
 30 
 0 
 11 
 2398 
 21 
 7121 
 31 
 0 
 0 
LINE
 10 
 2398 
 20 
 7121 
 30 
 0 
 11 
 2370.18383789063 
 21 
 7119.95166015625 
 31 
 0 
 0 
LINE
 10 
 2370.18383789063 
 20 
 7119.95166015625 
 30 
 0 
 11 
 2345.39208984375 
 21 
 7118.13623046875 
 31 
 0 
 0 
LINE
 10 
 2345.39208984375 
 20 
 7118.13623046875 
 30 
 0 
 11 
 2325.2080078125 
 21 
 7115.744140625 
 31 
 0 
 0 
LINE
 10 
 2325.2080078125 
 20 
 7115.744140625 
 30 
 0 
 11 
 2311.21606445313 
 21 
 7112.96826171875 
 31 
 0 
 0 
LINE
 10 
 2311.21606445313 
 20 
 7112.96826171875 
 30 
 0 
 11 
 2305 
 21 
 7110 
 31 
 0 
 0 
LINE
 10 
 2305 
 20 
 7110 
 30 
 0 
 11 
 2297.73583984375 
 21 
 7106.767578125 
 31 
 0 
 0 
LINE
 10 
 2297.73583984375 
 20 
 7106.767578125 
 30 
 0 
 11 
 2281.44799804688 
 21 
 7104.3037109375 
 31 
 0 
 0 
LINE
 10 
 2281.44799804688 
 20 
 7104.3037109375 
 30 
 0 
 11 
 2257.19189453125 
 21 
 7102.65625 
 31 
 0 
 0 
LINE
 10 
 2257.19189453125 
 20 
 7102.65625 
 30 
 0 
 11 
 2226.02392578125 
 21 
 7101.8720703125 
 31 
 0 
 0 
LINE
 10 
 2226.02392578125 
 20 
 7101.8720703125 
 30 
 0 
 11 
 2189 
 21 
 7102 
 31 
 0 
 0 
LINE
 10 
 2189 
 20 
 7102 
 30 
 0 
 11 
 2125.14404296875 
 21 
 7105.359375 
 31 
 0 
 0 
LINE
 10 
 2125.14404296875 
 20 
 7105.359375 
 30 
 0 
 11 
 2088.7919921875 
 21 
 7111.3603515625 
 31 
 0 
 0 
LINE
 10 
 2088.7919921875 
 20 
 7111.3603515625 
 30 
 0 
 11 
 2080.56811523438 
 21 
 7119.27978515625 
 31 
 0 
 0 
LINE
 10 
 2080.56811523438 
 20 
 7119.27978515625 
 30 
 0 
 11 
 2101.09594726563 
 21 
 7128.39990234375 
 31 
 0 
 0 
LINE
 10 
 2101.09594726563 
 20 
 7128.39990234375 
 30 
 0 
 11 
 2151 
 21 
 7138 
 31 
 0 
 0 
LINE
 10 
 2151 
 20 
 7138 
 30 
 0 
 11 
 2190.5439453125 
 21 
 7144.86376953125 
 31 
 0 
 0 
LINE
 10 
 2190.5439453125 
 20 
 7144.86376953125 
 30 
 0 
 11 
 2218.23193359375 
 21 
 7152.3525390625 
 31 
 0 
 0 
LINE
 10 
 2218.23193359375 
 20 
 7152.3525390625 
 30 
 0 
 11 
 2234.44799804688 
 21 
 7160.6083984375 
 31 
 0 
 0 
LINE
 10 
 2234.44799804688 
 20 
 7160.6083984375 
 30 
 0 
 11 
 2239.57592773438 
 21 
 7169.7763671875 
 31 
 0 
 0 
LINE
 10 
 2239.57592773438 
 20 
 7169.7763671875 
 30 
 0 
 11 
 2234 
 21 
 7180 
 31 
 0 
 0 
LINE
 10 
 2234 
 20 
 7180 
 30 
 0 
 11 
 2226.7119140625 
 21 
 7183.83935546875 
 31 
 0 
 0 
LINE
 10 
 2226.7119140625 
 20 
 7183.83935546875 
 30 
 0 
 11 
 2214.09594726563 
 21 
 7185.76025390625 
 31 
 0 
 0 
LINE
 10 
 2214.09594726563 
 20 
 7185.76025390625 
 30 
 0 
 11 
 2195.6240234375 
 21 
 7185.76025390625 
 31 
 0 
 0 
LINE
 10 
 2195.6240234375 
 20 
 7185.76025390625 
 30 
 0 
 11 
 2170.76806640625 
 21 
 7183.84033203125 
 31 
 0 
 0 
LINE
 10 
 2170.76806640625 
 20 
 7183.84033203125 
 30 
 0 
 11 
 2139 
 21 
 7180 
 31 
 0 
 0 
LINE
 10 
 2139 
 20 
 7180 
 30 
 0 
 11 
 2068.06396484375 
 21 
 7172.69580078125 
 31 
 0 
 0 
LINE
 10 
 2068.06396484375 
 20 
 7172.69580078125 
 30 
 0 
 11 
 2013.35192871094 
 21 
 7170.04833984375 
 31 
 0 
 0 
LINE
 10 
 2013.35192871094 
 20 
 7170.04833984375 
 30 
 0 
 11 
 1972.60791015625 
 21 
 7172.15234375 
 31 
 0 
 0 
LINE
 10 
 1972.60791015625 
 20 
 7172.15234375 
 30 
 0 
 11 
 1943.57604980469 
 21 
 7179.10400390625 
 31 
 0 
 0 
LINE
 10 
 1943.57604980469 
 20 
 7179.10400390625 
 30 
 0 
 11 
 1924 
 21 
 7191 
 31 
 0 
 0 
LINE
 10 
 1924 
 20 
 7191 
 30 
 0 
 11 
 1893.23205566406 
 21 
 7207.3994140625 
 31 
 0 
 0 
LINE
 10 
 1893.23205566406 
 20 
 7207.3994140625 
 30 
 0 
 11 
 1847.53601074219 
 21 
 7216.84033203125 
 31 
 0 
 0 
LINE
 10 
 1847.53601074219 
 20 
 7216.84033203125 
 30 
 0 
 11 
 1793.82397460938 
 21 
 7219.080078125 
 31 
 0 
 0 
LINE
 10 
 1793.82397460938 
 20 
 7219.080078125 
 30 
 0 
 11 
 1739.00805664063 
 21 
 7213.88037109375 
 31 
 0 
 0 
LINE
 10 
 1739.00805664063 
 20 
 7213.88037109375 
 30 
 0 
 11 
 1690 
 21 
 7201 
 31 
 0 
 0 
LINE
 10 
 1690 
 20 
 7201 
 30 
 0 
 11 
 1658.64001464844 
 21 
 7189.57568359375 
 31 
 0 
 0 
LINE
 10 
 1658.64001464844 
 20 
 7189.57568359375 
 30 
 0 
 11 
 1635.92004394531 
 21 
 7182.80810546875 
 31 
 0 
 0 
LINE
 10 
 1635.92004394531 
 20 
 7182.80810546875 
 30 
 0 
 11 
 1620.88000488281 
 21 
 7180.55224609375 
 31 
 0 
 0 
LINE
 10 
 1620.88000488281 
 20 
 7180.55224609375 
 30 
 0 
 11 
 1612.56005859375 
 21 
 7182.6640625 
 31 
 0 
 0 
LINE
 10 
 1612.56005859375 
 20 
 7182.6640625 
 30 
 0 
 11 
 1610 
 21 
 7189 
 31 
 0 
 0 
LINE
 10 
 1610 
 20 
 7189 
 30 
 0 
 11 
 1616.85595703125 
 21 
 7199.6796875 
 31 
 0 
 0 
LINE
 10 
 1616.85595703125 
 20 
 7199.6796875 
 30 
 0 
 11 
 1634.12805175781 
 21 
 7213 
 31 
 0 
 0 
LINE
 10 
 1634.12805175781 
 20 
 7213 
 30 
 0 
 11 
 1656.87194824219 
 21 
 7226.080078125 
 31 
 0 
 0 
LINE
 10 
 1656.87194824219 
 20 
 7226.080078125 
 30 
 0 
 11 
 1680.14404296875 
 21 
 7236.0400390625 
 31 
 0 
 0 
LINE
 10 
 1680.14404296875 
 20 
 7236.0400390625 
 30 
 0 
 11 
 1699 
 21 
 7240 
 31 
 0 
 0 
LINE
 10 
 1699 
 20 
 7240 
 30 
 0 
 11 
 1712.5439453125 
 21 
 7244.30322265625 
 31 
 0 
 0 
LINE
 10 
 1712.5439453125 
 20 
 7244.30322265625 
 30 
 0 
 11 
 1719.51208496094 
 21 
 7255.232421875 
 31 
 0 
 0 
LINE
 10 
 1719.51208496094 
 20 
 7255.232421875 
 30 
 0 
 11 
 1719.80798339844 
 21 
 7269.80810546875 
 31 
 0 
 0 
LINE
 10 
 1719.80798339844 
 20 
 7269.80810546875 
 30 
 0 
 11 
 1713.33605957031 
 21 
 7285.05615234375 
 31 
 0 
 0 
LINE
 10 
 1713.33605957031 
 20 
 7285.05615234375 
 30 
 0 
 11 
 1700 
 21 
 7298 
 31 
 0 
 0 
LINE
 10 
 1700 
 20 
 7298 
 30 
 0 
 11 
 1689.83996582031 
 21 
 7302.43994140625 
 31 
 0 
 0 
LINE
 10 
 1689.83996582031 
 20 
 7302.43994140625 
 30 
 0 
 11 
 1679.19995117188 
 21 
 7301.60009765625 
 31 
 0 
 0 
LINE
 10 
 1679.19995117188 
 20 
 7301.60009765625 
 30 
 0 
 11 
 1665.43994140625 
 21 
 7294.03955078125 
 31 
 0 
 0 
LINE
 10 
 1665.43994140625 
 20 
 7294.03955078125 
 30 
 0 
 11 
 1645.92004394531 
 21 
 7278.3203125 
 31 
 0 
 0 
LINE
 10 
 1645.92004394531 
 20 
 7278.3203125 
 30 
 0 
 11 
 1618 
 21 
 7253 
 31 
 0 
 0 
LINE
 10 
 1618 
 20 
 7253 
 30 
 0 
 11 
 1572.81604003906 
 21 
 7211.64794921875 
 31 
 0 
 0 
LINE
 10 
 1572.81604003906 
 20 
 7211.64794921875 
 30 
 0 
 11 
 1537.08801269531 
 21 
 7177.7841796875 
 31 
 0 
 0 
LINE
 10 
 1537.08801269531 
 20 
 7177.7841796875 
 30 
 0 
 11 
 1511.15209960938 
 21 
 7151.6962890625 
 31 
 0 
 0 
LINE
 10 
 1511.15209960938 
 20 
 7151.6962890625 
 30 
 0 
 11 
 1495.34399414063 
 21 
 7133.67236328125 
 31 
 0 
 0 
LINE
 10 
 1495.34399414063 
 20 
 7133.67236328125 
 30 
 0 
 11 
 1490 
 21 
 7124 
 31 
 0 
 0 
LINE
 10 
 1490 
 20 
 7124 
 30 
 0 
 11 
 1489.19201660156 
 21 
 7120.72021484375 
 31 
 0 
 0 
LINE
 10 
 1489.19201660156 
 20 
 7120.72021484375 
 30 
 0 
 11 
 1486.89599609375 
 21 
 7116 
 31 
 0 
 0 
LINE
 10 
 1486.89599609375 
 20 
 7116 
 30 
 0 
 11 
 1483.30407714844 
 21 
 7110.31982421875 
 31 
 0 
 0 
LINE
 10 
 1483.30407714844 
 20 
 7110.31982421875 
 30 
 0 
 11 
 1478.60803222656 
 21 
 7104.16015625 
 31 
 0 
 0 
LINE
 10 
 1478.60803222656 
 20 
 7104.16015625 
 30 
 0 
 11 
 1473 
 21 
 7098 
 31 
 0 
 0 
LINE
 10 
 1473 
 20 
 7098 
 30 
 0 
 11 
 1467.31188964844 
 21 
 7091.14404296875 
 31 
 0 
 0 
LINE
 10 
 1467.31188964844 
 20 
 7091.14404296875 
 30 
 0 
 11 
 1461.3359375 
 21 
 7082.9921875 
 31 
 0 
 0 
LINE
 10 
 1461.3359375 
 20 
 7082.9921875 
 30 
 0 
 11 
 1455.50402832031 
 21 
 7074.16796875 
 31 
 0 
 0 
LINE
 10 
 1455.50402832031 
 20 
 7074.16796875 
 30 
 0 
 11 
 1450.248046875 
 21 
 7065.29638671875 
 31 
 0 
 0 
LINE
 10 
 1450.248046875 
 20 
 7065.29638671875 
 30 
 0 
 11 
 1446 
 21 
 7057 
 31 
 0 
 0 
LINE
 10 
 1446 
 20 
 7057 
 30 
 0 
 11 
 1441.31188964844 
 21 
 7049.98388671875 
 31 
 0 
 0 
LINE
 10 
 1441.31188964844 
 20 
 7049.98388671875 
 30 
 0 
 11 
 1434.89611816406 
 21 
 7043.591796875 
 31 
 0 
 0 
LINE
 10 
 1434.89611816406 
 20 
 7043.591796875 
 30 
 0 
 11 
 1427.42407226563 
 21 
 7038.2080078125 
 31 
 0 
 0 
LINE
 10 
 1427.42407226563 
 20 
 7038.2080078125 
 30 
 0 
 11 
 1419.56799316406 
 21 
 7034.21630859375 
 31 
 0 
 0 
LINE
 10 
 1419.56799316406 
 20 
 7034.21630859375 
 30 
 0 
 11 
 1412 
 21 
 7032 
 31 
 0 
 0 
LINE
 10 
 1412 
 20 
 7032 
 30 
 0 
 11 
 1398.03198242188 
 21 
 7033.78369140625 
 31 
 0 
 0 
LINE
 10 
 1398.03198242188 
 20 
 7033.78369140625 
 30 
 0 
 11 
 1386.416015625 
 21 
 7043.392578125 
 31 
 0 
 0 
LINE
 10 
 1386.416015625 
 20 
 7043.392578125 
 30 
 0 
 11 
 1377.583984375 
 21 
 7060.0078125 
 31 
 0 
 0 
LINE
 10 
 1377.583984375 
 20 
 7060.0078125 
 30 
 0 
 11 
 1371.96801757813 
 21 
 7082.81591796875 
 31 
 0 
 0 
LINE
 10 
 1371.96801757813 
 20 
 7082.81591796875 
 30 
 0 
 11 
 1370 
 21 
 7111 
 31 
 0 
 0 
LINE
 10 
 1370 
 20 
 7111 
 30 
 0 
 11 
 1367.03991699219 
 21 
 7130.19970703125 
 31 
 0 
 0 
LINE
 10 
 1367.03991699219 
 20 
 7130.19970703125 
 30 
 0 
 11 
 1359.28002929688 
 21 
 7142.92041015625 
 31 
 0 
 0 
LINE
 10 
 1359.28002929688 
 20 
 7142.92041015625 
 30 
 0 
 11 
 1348.40002441406 
 21 
 7148.43994140625 
 31 
 0 
 0 
LINE
 10 
 1348.40002441406 
 20 
 7148.43994140625 
 30 
 0 
 11 
 1336.080078125 
 21 
 7146.0400390625 
 31 
 0 
 0 
LINE
 10 
 1336.080078125 
 20 
 7146.0400390625 
 30 
 0 
 11 
 1324 
 21 
 7135 
 31 
 0 
 0 
LINE
 10 
 1324 
 20 
 7135 
 30 
 0 
 11 
 1319.47192382813 
 21 
 7126.7919921875 
 31 
 0 
 0 
LINE
 10 
 1319.47192382813 
 20 
 7126.7919921875 
 30 
 0 
 11 
 1315.61596679688 
 21 
 7114.9365234375 
 31 
 0 
 0 
LINE
 10 
 1315.61596679688 
 20 
 7114.9365234375 
 30 
 0 
 11 
 1312.6240234375 
 21 
 7100.58447265625 
 31 
 0 
 0 
LINE
 10 
 1312.6240234375 
 20 
 7100.58447265625 
 30 
 0 
 11 
 1310.68811035156 
 21 
 7084.88818359375 
 31 
 0 
 0 
LINE
 10 
 1310.68811035156 
 20 
 7084.88818359375 
 30 
 0 
 11 
 1310 
 21 
 7069 
 31 
 0 
 0 
LINE
 10 
 1310 
 20 
 7069 
 30 
 0 
 11 
 1304.31994628906 
 21 
 7029.47998046875 
 31 
 0 
 0 
LINE
 10 
 1304.31994628906 
 20 
 7029.47998046875 
 30 
 0 
 11 
 1290 
 21 
 7006.5205078125 
 31 
 0 
 0 
LINE
 10 
 1290 
 20 
 7006.5205078125 
 30 
 0 
 11 
 1271.11999511719 
 21 
 7001.31982421875 
 31 
 0 
 0 
LINE
 10 
 1271.11999511719 
 20 
 7001.31982421875 
 30 
 0 
 11 
 1251.76000976563 
 21 
 7015.080078125 
 31 
 0 
 0 
LINE
 10 
 1251.76000976563 
 20 
 7015.080078125 
 30 
 0 
 11 
 1236 
 21 
 7049 
 31 
 0 
 0 
LINE
 10 
 1236 
 20 
 7049 
 30 
 0 
 11 
 1232.56799316406 
 21 
 7058.751953125 
 31 
 0 
 0 
LINE
 10 
 1232.56799316406 
 20 
 7058.751953125 
 30 
 0 
 11 
 1228.46398925781 
 21 
 7067.25634765625 
 31 
 0 
 0 
LINE
 10 
 1228.46398925781 
 20 
 7067.25634765625 
 30 
 0 
 11 
 1223.97607421875 
 21 
 7073.984375 
 31 
 0 
 0 
LINE
 10 
 1223.97607421875 
 20 
 7073.984375 
 30 
 0 
 11 
 1219.39208984375 
 21 
 7078.408203125 
 31 
 0 
 0 
LINE
 10 
 1219.39208984375 
 20 
 7078.408203125 
 30 
 0 
 11 
 1215 
 21 
 7080 
 31 
 0 
 0 
LINE
 10 
 1215 
 20 
 7080 
 30 
 0 
 11 
 1205.32788085938 
 21 
 7076.57568359375 
 31 
 0 
 0 
LINE
 10 
 1205.32788085938 
 20 
 7076.57568359375 
 30 
 0 
 11 
 1193.54406738281 
 21 
 7067.96826171875 
 31 
 0 
 0 
LINE
 10 
 1193.54406738281 
 20 
 7067.96826171875 
 30 
 0 
 11 
 1182.09594726563 
 21 
 7056.67236328125 
 31 
 0 
 0 
LINE
 10 
 1182.09594726563 
 20 
 7056.67236328125 
 30 
 0 
 11 
 1173.43200683594 
 21 
 7045.18408203125 
 31 
 0 
 0 
LINE
 10 
 1173.43200683594 
 20 
 7045.18408203125 
 30 
 0 
 11 
 1170 
 21 
 7036 
 31 
 0 
 0 
LINE
 10 
 1170 
 20 
 7036 
 30 
 0 
 11 
 1168.98400878906 
 21 
 7032.263671875 
 31 
 0 
 0 
LINE
 10 
 1168.98400878906 
 20 
 7032.263671875 
 30 
 0 
 11 
 1166.19201660156 
 21 
 7026.27197265625 
 31 
 0 
 0 
LINE
 10 
 1166.19201660156 
 20 
 7026.27197265625 
 30 
 0 
 11 
 1162.00793457031 
 21 
 7018.64794921875 
 31 
 0 
 0 
LINE
 10 
 1162.00793457031 
 20 
 7018.64794921875 
 30 
 0 
 11 
 1156.81604003906 
 21 
 7010.01611328125 
 31 
 0 
 0 
LINE
 10 
 1156.81604003906 
 20 
 7010.01611328125 
 30 
 0 
 11 
 1151 
 21 
 7001 
 31 
 0 
 0 
LINE
 10 
 1151 
 20 
 7001 
 30 
 0 
 11 
 1134.53601074219 
 21 
 6975.0556640625 
 31 
 0 
 0 
LINE
 10 
 1134.53601074219 
 20 
 6975.0556640625 
 30 
 0 
 11 
 1125.84802246094 
 21 
 6953.04833984375 
 31 
 0 
 0 
LINE
 10 
 1125.84802246094 
 20 
 6953.04833984375 
 30 
 0 
 11 
 1124.7919921875 
 21 
 6934.11181640625 
 31 
 0 
 0 
LINE
 10 
 1124.7919921875 
 20 
 6934.11181640625 
 30 
 0 
 11 
 1131.22399902344 
 21 
 6917.38427734375 
 31 
 0 
 0 
LINE
 10 
 1131.22399902344 
 20 
 6917.38427734375 
 30 
 0 
 11 
 1145 
 21 
 6902 
 31 
 0 
 0 
LINE
 10 
 1145 
 20 
 6902 
 30 
 0 
 11 
 1161.7919921875 
 21 
 6881.5517578125 
 31 
 0 
 0 
LINE
 10 
 1161.7919921875 
 20 
 6881.5517578125 
 30 
 0 
 11 
 1165.57592773438 
 21 
 6856.73583984375 
 31 
 0 
 0 
LINE
 10 
 1165.57592773438 
 20 
 6856.73583984375 
 30 
 0 
 11 
 1154.86401367188 
 21 
 6822.9443359375 
 31 
 0 
 0 
LINE
 10 
 1154.86401367188 
 20 
 6822.9443359375 
 30 
 0 
 11 
 1128.16796875 
 21 
 6775.568359375 
 31 
 0 
 0 
LINE
 10 
 1128.16796875 
 20 
 6775.568359375 
 30 
 0 
 11 
 1084 
 21 
 6710 
 31 
 0 
 0 
LINE
 10 
 1084 
 20 
 6710 
 30 
 0 
 11 
 1065.75988769531 
 21 
 6685.2080078125 
 31 
 0 
 0 
LINE
 10 
 1065.75988769531 
 20 
 6685.2080078125 
 30 
 0 
 11 
 1046.80004882813 
 21 
 6661.18408203125 
 31 
 0 
 0 
LINE
 10 
 1046.80004882813 
 20 
 6661.18408203125 
 30 
 0 
 11 
 1028.56005859375 
 21 
 6639.65576171875 
 31 
 0 
 0 
LINE
 10 
 1028.56005859375 
 20 
 6639.65576171875 
 30 
 0 
 11 
 1012.47998046875 
 21 
 6622.35205078125 
 31 
 0 
 0 
LINE
 10 
 1012.47998046875 
 20 
 6622.35205078125 
 30 
 0 
 11 
 1000 
 21 
 6611 
 31 
 0 
 0 
LINE
 10 
 1000 
 20 
 6611 
 30 
 0 
 11 
 983.952026367188 
 21 
 6599.912109375 
 31 
 0 
 0 
LINE
 10 
 983.952026367188 
 20 
 6599.912109375 
 30 
 0 
 11 
 971.93603515625 
 21 
 6594.056640625 
 31 
 0 
 0 
LINE
 10 
 971.93603515625 
 20 
 6594.056640625 
 30 
 0 
 11 
 960.5439453125 
 21 
 6593.14404296875 
 31 
 0 
 0 
LINE
 10 
 960.5439453125 
 20 
 6593.14404296875 
 30 
 0 
 11 
 946.368041992188 
 21 
 6596.88818359375 
 31 
 0 
 0 
LINE
 10 
 946.368041992188 
 20 
 6596.88818359375 
 30 
 0 
 11 
 926 
 21 
 6605 
 31 
 0 
 0 
LINE
 10 
 926 
 20 
 6605 
 30 
 0 
 11 
 877.567993164063 
 21 
 6624.71240234375 
 31 
 0 
 0 
LINE
 10 
 877.567993164063 
 20 
 6624.71240234375 
 30 
 0 
 11 
 829.183959960938 
 21 
 6643.416015625 
 31 
 0 
 0 
LINE
 10 
 829.183959960938 
 20 
 6643.416015625 
 30 
 0 
 11 
 784.015991210938 
 21 
 6659.8642578125 
 31 
 0 
 0 
LINE
 10 
 784.015991210938 
 20 
 6659.8642578125 
 30 
 0 
 11 
 745.231994628906 
 21 
 6672.80810546875 
 31 
 0 
 0 
LINE
 10 
 745.231994628906 
 20 
 6672.80810546875 
 30 
 0 
 11 
 716 
 21 
 6681 
 31 
 0 
 0 
LINE
 10 
 716 
 20 
 6681 
 30 
 0 
 11 
 671.703979492188 
 21 
 6695.34375 
 31 
 0 
 0 
LINE
 10 
 671.703979492188 
 20 
 6695.34375 
 30 
 0 
 11 
 649.152038574219 
 21 
 6711.0322265625 
 31 
 0 
 0 
LINE
 10 
 649.152038574219 
 20 
 6711.0322265625 
 30 
 0 
 11 
 648.247985839844 
 21 
 6728.4482421875 
 31 
 0 
 0 
LINE
 10 
 648.247985839844 
 20 
 6728.4482421875 
 30 
 0 
 11 
 668.89599609375 
 21 
 6747.97607421875 
 31 
 0 
 0 
LINE
 10 
 668.89599609375 
 20 
 6747.97607421875 
 30 
 0 
 11 
 711 
 21 
 6770 
 31 
 0 
 0 
LINE
 10 
 711 
 20 
 6770 
 30 
 0 
 11 
 734.447998046875 
 21 
 6779.0556640625 
 31 
 0 
 0 
LINE
 10 
 734.447998046875 
 20 
 6779.0556640625 
 30 
 0 
 11 
 754.824035644531 
 21 
 6784.84814453125 
 31 
 0 
 0 
LINE
 10 
 754.824035644531 
 20 
 6784.84814453125 
 30 
 0 
 11 
 774.575988769531 
 21 
 6787.71240234375 
 31 
 0 
 0 
LINE
 10 
 774.575988769531 
 20 
 6787.71240234375 
 30 
 0 
 11 
 796.152038574219 
 21 
 6787.984375 
 31 
 0 
 0 
LINE
 10 
 796.152038574219 
 20 
 6787.984375 
 30 
 0 
 11 
 822 
 21 
 6786 
 31 
 0 
 0 
LINE
 10 
 822 
 20 
 6786 
 30 
 0 
 11 
 880 
 21 
 6779 
 31 
 0 
 0 
LINE
 10 
 880 
 20 
 6779 
 30 
 0 
 11 
 880 
 21 
 6827 
 31 
 0 
 0 
LINE
 10 
 880 
 20 
 6827 
 30 
 0 
 11 
 877.503967285156 
 21 
 6858.3125 
 31 
 0 
 0 
LINE
 10 
 877.503967285156 
 20 
 6858.3125 
 30 
 0 
 11 
 870.591979980469 
 21 
 6884.05615234375 
 31 
 0 
 0 
LINE
 10 
 870.591979980469 
 20 
 6884.05615234375 
 30 
 0 
 11 
 860.128051757813 
 21 
 6902.744140625 
 31 
 0 
 0 
LINE
 10 
 860.128051757813 
 20 
 6902.744140625 
 30 
 0 
 11 
 846.976013183594 
 21 
 6912.88818359375 
 31 
 0 
 0 
LINE
 10 
 846.976013183594 
 20 
 6912.88818359375 
 30 
 0 
 11 
 832 
 21 
 6913 
 31 
 0 
 0 
LINE
 10 
 832 
 20 
 6913 
 30 
 0 
 11 
 824.6240234375 
 21 
 6909.3681640625 
 31 
 0 
 0 
LINE
 10 
 824.6240234375 
 20 
 6909.3681640625 
 30 
 0 
 11 
 814.031982421875 
 21 
 6903.6240234375 
 31 
 0 
 0 
LINE
 10 
 814.031982421875 
 20 
 6903.6240234375 
 30 
 0 
 11 
 801.328002929688 
 21 
 6896.29638671875 
 31 
 0 
 0 
LINE
 10 
 801.328002929688 
 20 
 6896.29638671875 
 30 
 0 
 11 
 787.616027832031 
 21 
 6887.912109375 
 31 
 0 
 0 
LINE
 10 
 787.616027832031 
 20 
 6887.912109375 
 30 
 0 
 11 
 774 
 21 
 6879 
 31 
 0 
 0 
LINE
 10 
 774 
 20 
 6879 
 30 
 0 
 11 
 758.071960449219 
 21 
 6868.8076171875 
 31 
 0 
 0 
LINE
 10 
 758.071960449219 
 20 
 6868.8076171875 
 30 
 0 
 11 
 738.976013183594 
 21 
 6857.9443359375 
 31 
 0 
 0 
LINE
 10 
 738.976013183594 
 20 
 6857.9443359375 
 30 
 0 
 11 
 718.343994140625 
 21 
 6847.17578125 
 31 
 0 
 0 
LINE
 10 
 718.343994140625 
 20 
 6847.17578125 
 30 
 0 
 11 
 697.808044433594 
 21 
 6837.27197265625 
 31 
 0 
 0 
LINE
 10 
 697.808044433594 
 20 
 6837.27197265625 
 30 
 0 
 11 
 679 
 21 
 6829 
 31 
 0 
 0 
LINE
 10 
 679 
 20 
 6829 
 30 
 0 
 11 
 652.424011230469 
 21 
 6819.56787109375 
 31 
 0 
 0 
LINE
 10 
 652.424011230469 
 20 
 6819.56787109375 
 30 
 0 
 11 
 627.432067871094 
 21 
 6813.7841796875 
 31 
 0 
 0 
LINE
 10 
 627.432067871094 
 20 
 6813.7841796875 
 30 
 0 
 11 
 597.927978515625 
 21 
 6811.21630859375 
 31 
 0 
 0 
LINE
 10 
 597.927978515625 
 20 
 6811.21630859375 
 30 
 0 
 11 
 557.815979003906 
 21 
 6811.43212890625 
 31 
 0 
 0 
LINE
 10 
 557.815979003906 
 20 
 6811.43212890625 
 30 
 0 
 11 
 501 
 21 
 6814 
 31 
 0 
 0 
LINE
 10 
 501 
 20 
 6814 
 30 
 0 
 11 
 461.080017089844 
 21 
 6816.72802734375 
 31 
 0 
 0 
LINE
 10 
 461.080017089844 
 20 
 6816.72802734375 
 30 
 0 
 11 
 424.52001953125 
 21 
 6819.984375 
 31 
 0 
 0 
LINE
 10 
 424.52001953125 
 20 
 6819.984375 
 30 
 0 
 11 
 393.720001220703 
 21 
 6823.576171875 
 31 
 0 
 0 
LINE
 10 
 393.720001220703 
 20 
 6823.576171875 
 30 
 0 
 11 
 371.080017089844 
 21 
 6827.31201171875 
 31 
 0 
 0 
LINE
 10 
 371.080017089844 
 20 
 6827.31201171875 
 30 
 0 
 11 
 359 
 21 
 6831 
 31 
 0 
 0 
LINE
 10 
 359 
 20 
 6831 
 30 
 0 
 11 
 351.648010253906 
 21 
 6836.1357421875 
 31 
 0 
 0 
LINE
 10 
 351.648010253906 
 20 
 6836.1357421875 
 30 
 0 
 11 
 346.264007568359 
 21 
 6843.5283203125 
 31 
 0 
 0 
LINE
 10 
 346.264007568359 
 20 
 6843.5283203125 
 30 
 0 
 11 
 342.656005859375 
 21 
 6853.751953125 
 31 
 0 
 0 
LINE
 10 
 342.656005859375 
 20 
 6853.751953125 
 30 
 0 
 11 
 340.632019042969 
 21 
 6867.38427734375 
 31 
 0 
 0 
LINE
 10 
 340.632019042969 
 20 
 6867.38427734375 
 30 
 0 
 11 
 340 
 21 
 6885 
 31 
 0 
 0 
LINE
 10 
 340 
 20 
 6885 
 30 
 0 
 11 
 339.536010742188 
 21 
 6899.1279296875 
 31 
 0 
 0 
LINE
 10 
 339.536010742188 
 20 
 6899.1279296875 
 30 
 0 
 11 
 338.2080078125 
 21 
 6912.10400390625 
 31 
 0 
 0 
LINE
 10 
 338.2080078125 
 20 
 6912.10400390625 
 30 
 0 
 11 
 336.111999511719 
 21 
 6923.01611328125 
 31 
 0 
 0 
LINE
 10 
 336.111999511719 
 20 
 6923.01611328125 
 30 
 0 
 11 
 333.344024658203 
 21 
 6930.9521484375 
 31 
 0 
 0 
LINE
 10 
 333.344024658203 
 20 
 6930.9521484375 
 30 
 0 
 11 
 330 
 21 
 6935 
 31 
 0 
 0 
LINE
 10 
 330 
 20 
 6935 
 30 
 0 
 11 
 322.31201171875 
 21 
 6943.35986328125 
 31 
 0 
 0 
LINE
 10 
 322.31201171875 
 20 
 6943.35986328125 
 30 
 0 
 11 
 321.296020507813 
 21 
 6956.52001953125 
 31 
 0 
 0 
LINE
 10 
 321.296020507813 
 20 
 6956.52001953125 
 30 
 0 
 11 
 327.623992919922 
 21 
 6976.39990234375 
 31 
 0 
 0 
LINE
 10 
 327.623992919922 
 20 
 6976.39990234375 
 30 
 0 
 11 
 341.968017578125 
 21 
 7004.92041015625 
 31 
 0 
 0 
LINE
 10 
 341.968017578125 
 20 
 7004.92041015625 
 30 
 0 
 11 
 365 
 21 
 7044 
 31 
 0 
 0 
LINE
 10 
 365 
 20 
 7044 
 30 
 0 
 11 
 379.279968261719 
 21 
 7068.22412109375 
 31 
 0 
 0 
LINE
 10 
 379.279968261719 
 20 
 7068.22412109375 
 30 
 0 
 11 
 391.640014648438 
 21 
 7090.67236328125 
 31 
 0 
 0 
LINE
 10 
 391.640014648438 
 20 
 7090.67236328125 
 30 
 0 
 11 
 401.359985351563 
 21 
 7109.80810546875 
 31 
 0 
 0 
LINE
 10 
 401.359985351563 
 20 
 7109.80810546875 
 30 
 0 
 11 
 407.720001220703 
 21 
 7124.09619140625 
 31 
 0 
 0 
LINE
 10 
 407.720001220703 
 20 
 7124.09619140625 
 30 
 0 
 11 
 410 
 21 
 7132 
 31 
 0 
 0 
LINE
 10 
 410 
 20 
 7132 
 30 
 0 
 11 
 412.607971191406 
 21 
 7139.03173828125 
 31 
 0 
 0 
LINE
 10 
 412.607971191406 
 20 
 7139.03173828125 
 30 
 0 
 11 
 419.824005126953 
 21 
 7149.8564453125 
 31 
 0 
 0 
LINE
 10 
 419.824005126953 
 20 
 7149.8564453125 
 30 
 0 
 11 
 430.736022949219 
 21 
 7163.4638671875 
 31 
 0 
 0 
LINE
 10 
 430.736022949219 
 20 
 7163.4638671875 
 30 
 0 
 11 
 444.432006835938 
 21 
 7178.84814453125 
 31 
 0 
 0 
LINE
 10 
 444.432006835938 
 20 
 7178.84814453125 
 30 
 0 
 11 
 460 
 21 
 7195 
 31 
 0 
 0 
LINE
 10 
 460 
 20 
 7195 
 30 
 0 
 11 
 511 
 21 
 7245 
 31 
 0 
 0 
LINE
 10 
 511 
 20 
 7245 
 30 
 0 
 11 
 773 
 21 
 7245 
 31 
 0 
 0 
LINE
 10 
 773 
 20 
 7245 
 30 
 0 
 11 
 858.504028320313 
 21 
 7244.6474609375 
 31 
 0 
 0 
LINE
 10 
 858.504028320313 
 20 
 7244.6474609375 
 30 
 0 
 11 
 938.632019042969 
 21 
 7243.6240234375 
 31 
 0 
 0 
LINE
 10 
 938.632019042969 
 20 
 7243.6240234375 
 30 
 0 
 11 
 1008.00799560547 
 21 
 7241.97607421875 
 31 
 0 
 0 
LINE
 10 
 1008.00799560547 
 20 
 7241.97607421875 
 30 
 0 
 11 
 1061.25598144531 
 21 
 7239.751953125 
 31 
 0 
 0 
LINE
 10 
 1061.25598144531 
 20 
 7239.751953125 
 30 
 0 
 11 
 1093 
 21 
 7237 
 31 
 0 
 0 
LINE
 10 
 1093 
 20 
 7237 
 30 
 0 
 11 
 1118.89587402344 
 21 
 7234.31201171875 
 31 
 0 
 0 
LINE
 10 
 1118.89587402344 
 20 
 7234.31201171875 
 30 
 0 
 11 
 1135.52807617188 
 21 
 7233.73583984375 
 31 
 0 
 0 
LINE
 10 
 1135.52807617188 
 20 
 7233.73583984375 
 30 
 0 
 11 
 1144.91198730469 
 21 
 7235.7041015625 
 31 
 0 
 0 
LINE
 10 
 1144.91198730469 
 20 
 7235.7041015625 
 30 
 0 
 11 
 1149.06396484375 
 21 
 7240.64794921875 
 31 
 0 
 0 
LINE
 10 
 1149.06396484375 
 20 
 7240.64794921875 
 30 
 0 
 11 
 1150 
 21 
 7249 
 31 
 0 
 0 
LINE
 10 
 1150 
 20 
 7249 
 30 
 0 
 11 
 1149.31994628906 
 21 
 7255.27978515625 
 31 
 0 
 0 
LINE
 10 
 1149.31994628906 
 20 
 7255.27978515625 
 30 
 0 
 11 
 1147.43994140625 
 21 
 7261.7998046875 
 31 
 0 
 0 
LINE
 10 
 1147.43994140625 
 20 
 7261.7998046875 
 30 
 0 
 11 
 1144.59997558594 
 21 
 7268.080078125 
 31 
 0 
 0 
LINE
 10 
 1144.59997558594 
 20 
 7268.080078125 
 30 
 0 
 11 
 1141.0400390625 
 21 
 7273.64013671875 
 31 
 0 
 0 
LINE
 10 
 1141.0400390625 
 20 
 7273.64013671875 
 30 
 0 
 11 
 1137 
 21 
 7278 
 31 
 0 
 0 
LINE
 10 
 1137 
 20 
 7278 
 30 
 0 
 11 
 1069.2080078125 
 21 
 7290.7119140625 
 31 
 0 
 0 
LINE
 10 
 1069.2080078125 
 20 
 7290.7119140625 
 30 
 0 
 11 
 928.263977050781 
 21 
 7302.17578125 
 31 
 0 
 0 
LINE
 10 
 928.263977050781 
 20 
 7302.17578125 
 30 
 0 
 11 
 761.015991210938 
 21 
 7310.18408203125 
 31 
 0 
 0 
LINE
 10 
 761.015991210938 
 20 
 7310.18408203125 
 30 
 0 
 11 
 614.31201171875 
 21 
 7312.5283203125 
 31 
 0 
 0 
LINE
 10 
 614.31201171875 
 20 
 7312.5283203125 
 30 
 0 
 11 
 535 
 21 
 7307 
 31 
 0 
 0 
LINE
 10 
 535 
 20 
 7307 
 30 
 0 
 11 
 510.496002197266 
 21 
 7295.8876953125 
 31 
 0 
 0 
LINE
 10 
 510.496002197266 
 20 
 7295.8876953125 
 30 
 0 
 11 
 482.727996826172 
 21 
 7279.5439453125 
 31 
 0 
 0 
LINE
 10 
 482.727996826172 
 20 
 7279.5439453125 
 30 
 0 
 11 
 457.311981201172 
 21 
 7261.85595703125 
 31 
 0 
 0 
LINE
 10 
 457.311981201172 
 20 
 7261.85595703125 
 30 
 0 
 11 
 439.864013671875 
 21 
 7246.7119140625 
 31 
 0 
 0 
LINE
 10 
 439.864013671875 
 20 
 7246.7119140625 
 30 
 0 
 11 
 436 
 21 
 7238 
 31 
 0 
 0 
LINE
 10 
 436 
 20 
 7238 
 30 
 0 
 11 
 435.287994384766 
 21 
 7234.17578125 
 31 
 0 
 0 
LINE
 10 
 435.287994384766 
 20 
 7234.17578125 
 30 
 0 
 11 
 430.064025878906 
 21 
 7226.8486328125 
 31 
 0 
 0 
LINE
 10 
 430.064025878906 
 20 
 7226.8486328125 
 30 
 0 
 11 
 421.096008300781 
 21 
 7216.83203125 
 31 
 0 
 0 
LINE
 10 
 421.096008300781 
 20 
 7216.83203125 
 30 
 0 
 11 
 409.152008056641 
 21 
 7204.94384765625 
 31 
 0 
 0 
LINE
 10 
 409.152008056641 
 20 
 7204.94384765625 
 30 
 0 
 11 
 395 
 21 
 7192 
 31 
 0 
 0 
LINE
 10 
 395 
 20 
 7192 
 30 
 0 
 11 
 380.719970703125 
 21 
 7178.8232421875 
 31 
 0 
 0 
LINE
 10 
 380.719970703125 
 20 
 7178.8232421875 
 30 
 0 
 11 
 368.360015869141 
 21 
 7166.27197265625 
 31 
 0 
 0 
LINE
 10 
 368.360015869141 
 20 
 7166.27197265625 
 30 
 0 
 11 
 358.640014648438 
 21 
 7155.2080078125 
 31 
 0 
 0 
LINE
 10 
 358.640014648438 
 20 
 7155.2080078125 
 30 
 0 
 11 
 352.279998779297 
 21 
 7146.49609375 
 31 
 0 
 0 
LINE
 10 
 352.279998779297 
 20 
 7146.49609375 
 30 
 0 
 11 
 350 
 21 
 7141 
 31 
 0 
 0 
LINE
 10 
 350 
 20 
 7141 
 30 
 0 
 11 
 344.559997558594 
 21 
 7121.6474609375 
 31 
 0 
 0 
LINE
 10 
 344.559997558594 
 20 
 7121.6474609375 
 30 
 0 
 11 
 330.960021972656 
 21 
 7091.54443359375 
 31 
 0 
 0 
LINE
 10 
 330.960021972656 
 20 
 7091.54443359375 
 30 
 0 
 11 
 313.279998779297 
 21 
 7058.416015625 
 31 
 0 
 0 
LINE
 10 
 313.279998779297 
 20 
 7058.416015625 
 30 
 0 
 11 
 295.600006103516 
 21 
 7029.9921875 
 31 
 0 
 0 
LINE
 10 
 295.600006103516 
 20 
 7029.9921875 
 30 
 0 
 11 
 282 
 21 
 7014 
 31 
 0 
 0 
LINE
 10 
 282 
 20 
 7014 
 30 
 0 
 11 
 277.599975585938 
 21 
 7009.759765625 
 31 
 0 
 0 
LINE
 10 
 277.599975585938 
 20 
 7009.759765625 
 30 
 0 
 11 
 274.160003662109 
 21 
 7004.56005859375 
 31 
 0 
 0 
LINE
 10 
 274.160003662109 
 20 
 7004.56005859375 
 30 
 0 
 11 
 271.920013427734 
 21 
 6998.8798828125 
 31 
 0 
 0 
LINE
 10 
 271.920013427734 
 20 
 6998.8798828125 
 30 
 0 
 11 
 271.119995117188 
 21 
 6993.2001953125 
 31 
 0 
 0 
LINE
 10 
 271.119995117188 
 20 
 6993.2001953125 
 30 
 0 
 11 
 272 
 21 
 6988 
 31 
 0 
 0 
LINE
 10 
 272 
 20 
 6988 
 30 
 0 
 11 
 274.776000976563 
 21 
 6964.86376953125 
 31 
 0 
 0 
LINE
 10 
 274.776000976563 
 20 
 6964.86376953125 
 30 
 0 
 11 
 270.928009033203 
 21 
 6932.9921875 
 31 
 0 
 0 
LINE
 10 
 270.928009033203 
 20 
 6932.9921875 
 30 
 0 
 11 
 261.992004394531 
 21 
 6898.2880859375 
 31 
 0 
 0 
LINE
 10 
 261.992004394531 
 20 
 6898.2880859375 
 30 
 0 
 11 
 249.504013061523 
 21 
 6866.65625 
 31 
 0 
 0 
LINE
 10 
 249.504013061523 
 20 
 6866.65625 
 30 
 0 
 11 
 235 
 21 
 6844 
 31 
 0 
 0 
LINE
 10 
 235 
 20 
 6844 
 30 
 0 
 11 
 218.688003540039 
 21 
 6822.095703125 
 31 
 0 
 0 
LINE
 10 
 218.688003540039 
 20 
 6822.095703125 
 30 
 0 
 11 
 210.583999633789 
 21 
 6801.96826171875 
 31 
 0 
 0 
LINE
 10 
 210.583999633789 
 20 
 6801.96826171875 
 30 
 0 
 11 
 210.735992431641 
 21 
 6785.39208984375 
 31 
 0 
 0 
LINE
 10 
 210.735992431641 
 20 
 6785.39208984375 
 30 
 0 
 11 
 219.192001342773 
 21 
 6774.14404296875 
 31 
 0 
 0 
LINE
 10 
 219.192001342773 
 20 
 6774.14404296875 
 30 
 0 
 11 
 236 
 21 
 6770 
 31 
 0 
 0 
LINE
 10 
 236 
 20 
 6770 
 30 
 0 
 11 
 248.175994873047 
 21 
 6769.72802734375 
 31 
 0 
 0 
LINE
 10 
 248.175994873047 
 20 
 6769.72802734375 
 30 
 0 
 11 
 254.928009033203 
 21 
 6768.30419921875 
 31 
 0 
 0 
LINE
 10 
 254.928009033203 
 20 
 6768.30419921875 
 30 
 0 
 11 
 256.592010498047 
 21 
 6764.81640625 
 31 
 0 
 0 
LINE
 10 
 256.592010498047 
 20 
 6764.81640625 
 30 
 0 
 11 
 253.504013061523 
 21 
 6758.35205078125 
 31 
 0 
 0 
LINE
 10 
 253.504013061523 
 20 
 6758.35205078125 
 30 
 0 
 11 
 246 
 21 
 6748 
 31 
 0 
 0 
LINE
 10 
 246 
 20 
 6748 
 30 
 0 
 11 
 227.271987915039 
 21 
 6717.59228515625 
 31 
 0 
 0 
LINE
 10 
 227.271987915039 
 20 
 6717.59228515625 
 30 
 0 
 11 
 212.336013793945 
 21 
 6686.41650390625 
 31 
 0 
 0 
LINE
 10 
 212.336013793945 
 20 
 6686.41650390625 
 30 
 0 
 11 
 201.863998413086 
 21 
 6656.34423828125 
 31 
 0 
 0 
LINE
 10 
 201.863998413086 
 20 
 6656.34423828125 
 30 
 0 
 11 
 196.52799987793 
 21 
 6629.248046875 
 31 
 0 
 0 
LINE
 10 
 196.52799987793 
 20 
 6629.248046875 
 30 
 0 
 11 
 197 
 21 
 6607 
 31 
 0 
 0 
LINE
 10 
 197 
 20 
 6607 
 30 
 0 
 11 
 206.759994506836 
 21 
 6571.5517578125 
 31 
 0 
 0 
LINE
 10 
 206.759994506836 
 20 
 6571.5517578125 
 30 
 0 
 11 
 223.240005493164 
 21 
 6533.65625 
 31 
 0 
 0 
LINE
 10 
 223.240005493164 
 20 
 6533.65625 
 30 
 0 
 11 
 245.240005493164 
 21 
 6495.18408203125 
 31 
 0 
 0 
LINE
 10 
 245.240005493164 
 20 
 6495.18408203125 
 30 
 0 
 11 
 271.559997558594 
 21 
 6458.00830078125 
 31 
 0 
 0 
LINE
 10 
 271.559997558594 
 20 
 6458.00830078125 
 30 
 0 
 11 
 301 
 21 
 6424 
 31 
 0 
 0 
LINE
 10 
 301 
 20 
 6424 
 30 
 0 
 11 
 332.752014160156 
 21 
 6386.50390625 
 31 
 0 
 0 
LINE
 10 
 332.752014160156 
 20 
 6386.50390625 
 30 
 0 
 11 
 356.776000976563 
 21 
 6345.072265625 
 31 
 0 
 0 
LINE
 10 
 356.776000976563 
 20 
 6345.072265625 
 30 
 0 
 11 
 374.223999023438 
 21 
 6296.48828125 
 31 
 0 
 0 
LINE
 10 
 374.223999023438 
 20 
 6296.48828125 
 30 
 0 
 11 
 386.247985839844 
 21 
 6237.5361328125 
 31 
 0 
 0 
LINE
 10 
 386.247985839844 
 20 
 6237.5361328125 
 30 
 0 
 11 
 394 
 21 
 6165 
 31 
 0 
 0 
LINE
 10 
 394 
 20 
 6165 
 30 
 0 
 11 
 410.127990722656 
 21 
 6005.3759765625 
 31 
 0 
 0 
LINE
 10 
 410.127990722656 
 20 
 6005.3759765625 
 30 
 0 
 11 
 433.984008789063 
 21 
 5859.52783203125 
 31 
 0 
 0 
LINE
 10 
 433.984008789063 
 20 
 5859.52783203125 
 30 
 0 
 11 
 466.575988769531 
 21 
 5722.9921875 
 31 
 0 
 0 
LINE
 10 
 466.575988769531 
 20 
 5722.9921875 
 30 
 0 
 11 
 508.912017822266 
 21 
 5591.30419921875 
 31 
 0 
 0 
LINE
 10 
 508.912017822266 
 20 
 5591.30419921875 
 30 
 0 
 11 
 562 
 21 
 5460 
 31 
 0 
 0 
LINE
 10 
 562 
 20 
 5460 
 30 
 0 
 11 
 590.423950195313 
 21 
 5399.73583984375 
 31 
 0 
 0 
LINE
 10 
 590.423950195313 
 20 
 5399.73583984375 
 30 
 0 
 11 
 620.192016601563 
 21 
 5344.84814453125 
 31 
 0 
 0 
LINE
 10 
 620.192016601563 
 20 
 5344.84814453125 
 30 
 0 
 11 
 649.047973632813 
 21 
 5298.7919921875 
 31 
 0 
 0 
LINE
 10 
 649.047973632813 
 20 
 5298.7919921875 
 30 
 0 
 11 
 674.736022949219 
 21 
 5265.0244140625 
 31 
 0 
 0 
LINE
 10 
 674.736022949219 
 20 
 5265.0244140625 
 30 
 0 
 11 
 695 
 21 
 5247 
 31 
 0 
 0 
LINE
 10 
 695 
 20 
 5247 
 30 
 0 
 11 
 708.864013671875 
 21 
 5235.82373046875 
 31 
 0 
 0 
LINE
 10 
 708.864013671875 
 20 
 5235.82373046875 
 30 
 0 
 11 
 733.192016601563 
 21 
 5211.35205078125 
 31 
 0 
 0 
LINE
 10 
 733.192016601563 
 20 
 5211.35205078125 
 30 
 0 
 11 
 765.488037109375 
 21 
 5176.3681640625 
 31 
 0 
 0 
LINE
 10 
 765.488037109375 
 20 
 5176.3681640625 
 30 
 0 
 11 
 803.255981445313 
 21 
 5133.65625 
 31 
 0 
 0 
LINE
 10 
 803.255981445313 
 20 
 5133.65625 
 30 
 0 
 11 
 844 
 21 
 5086 
 31 
 0 
 0 
LINE
 10 
 844 
 20 
 5086 
 30 
 0 
 11 
 892.431945800781 
 21 
 5028.248046875 
 31 
 0 
 0 
LINE
 10 
 892.431945800781 
 20 
 5028.248046875 
 30 
 0 
 11 
 928.096069335938 
 21 
 4983.50439453125 
 31 
 0 
 0 
LINE
 10 
 928.096069335938 
 20 
 4983.50439453125 
 30 
 0 
 11 
 952.14404296875 
 21 
 4950.1357421875 
 31 
 0 
 0 
LINE
 10 
 952.14404296875 
 20 
 4950.1357421875 
 30 
 0 
 11 
 965.72802734375 
 21 
 4926.51220703125 
 31 
 0 
 0 
LINE
 10 
 965.72802734375 
 20 
 4926.51220703125 
 30 
 0 
 11 
 970 
 21 
 4911 
 31 
 0 
 0 
LINE
 10 
 970 
 20 
 4911 
 30 
 0 
 11 
 971.679931640625 
 21 
 4895.07177734375 
 31 
 0 
 0 
LINE
 10 
 971.679931640625 
 20 
 4895.07177734375 
 30 
 0 
 11 
 977.680053710938 
 21 
 4877.89599609375 
 31 
 0 
 0 
LINE
 10 
 977.680053710938 
 20 
 4877.89599609375 
 30 
 0 
 11 
 989.440002441406 
 21 
 4856.7841796875 
 31 
 0 
 0 
LINE
 10 
 989.440002441406 
 20 
 4856.7841796875 
 30 
 0 
 11 
 1008.40002441406 
 21 
 4829.0478515625 
 31 
 0 
 0 
LINE
 10 
 1008.40002441406 
 20 
 4829.0478515625 
 30 
 0 
 11 
 1036 
 21 
 4792 
 31 
 0 
 0 
LINE
 10 
 1036 
 20 
 4792 
 30 
 0 
 11 
 1046.09594726563 
 21 
 4776.751953125 
 31 
 0 
 0 
LINE
 10 
 1046.09594726563 
 20 
 4776.751953125 
 30 
 0 
 11 
 1055.56799316406 
 21 
 4759.5361328125 
 31 
 0 
 0 
LINE
 10 
 1055.56799316406 
 20 
 4759.5361328125 
 30 
 0 
 11 
 1063.7919921875 
 21 
 4741.744140625 
 31 
 0 
 0 
LINE
 10 
 1063.7919921875 
 20 
 4741.744140625 
 30 
 0 
 11 
 1070.14404296875 
 21 
 4724.76806640625 
 31 
 0 
 0 
LINE
 10 
 1070.14404296875 
 20 
 4724.76806640625 
 30 
 0 
 11 
 1074 
 21 
 4710 
 31 
 0 
 0 
LINE
 10 
 1074 
 20 
 4710 
 30 
 0 
 11 
 1092.86389160156 
 21 
 4634.10400390625 
 31 
 0 
 0 
LINE
 10 
 1092.86389160156 
 20 
 4634.10400390625 
 30 
 0 
 11 
 1128.91198730469 
 21 
 4525.47216796875 
 31 
 0 
 0 
LINE
 10 
 1128.91198730469 
 20 
 4525.47216796875 
 30 
 0 
 11 
 1176.52795410156 
 21 
 4398.88818359375 
 31 
 0 
 0 
LINE
 10 
 1176.52795410156 
 20 
 4398.88818359375 
 30 
 0 
 11 
 1230.09606933594 
 21 
 4269.13623046875 
 31 
 0 
 0 
LINE
 10 
 1230.09606933594 
 20 
 4269.13623046875 
 30 
 0 
 11 
 1284 
 21 
 4151 
 31 
 0 
 0 
LINE
 10 
 1284 
 20 
 4151 
 30 
 0 
 11 
 1292.07995605469 
 21 
 4133.408203125 
 31 
 0 
 0 
LINE
 10 
 1292.07995605469 
 20 
 4133.408203125 
 30 
 0 
 11 
 1299.19995117188 
 21 
 4117.30419921875 
 31 
 0 
 0 
LINE
 10 
 1299.19995117188 
 20 
 4117.30419921875 
 30 
 0 
 11 
 1304.88000488281 
 21 
 4103.6962890625 
 31 
 0 
 0 
LINE
 10 
 1304.88000488281 
 20 
 4103.6962890625 
 30 
 0 
 11 
 1308.64001464844 
 21 
 4093.59204101563 
 31 
 0 
 0 
LINE
 10 
 1308.64001464844 
 20 
 4093.59204101563 
 30 
 0 
 11 
 1310 
 21 
 4088 
 31 
 0 
 0 
LINE
 10 
 1310 
 20 
 4088 
 30 
 0 
 11 
 1318.48803710938 
 21 
 4064.7919921875 
 31 
 0 
 0 
LINE
 10 
 1318.48803710938 
 20 
 4064.7919921875 
 30 
 0 
 11 
 1340.94409179688 
 21 
 4031.21606445313 
 31 
 0 
 0 
LINE
 10 
 1340.94409179688 
 20 
 4031.21606445313 
 30 
 0 
 11 
 1372.85595703125 
 21 
 3992.744140625 
 31 
 0 
 0 
LINE
 10 
 1372.85595703125 
 20 
 3992.744140625 
 30 
 0 
 11 
 1409.71203613281 
 21 
 3954.84814453125 
 31 
 0 
 0 
LINE
 10 
 1409.71203613281 
 20 
 3954.84814453125 
 30 
 0 
 11 
 1447 
 21 
 3923 
 31 
 0 
 0 
LINE
 10 
 1447 
 20 
 3923 
 30 
 0 
 11 
 1503.85607910156 
 21 
 3883.87182617188 
 31 
 0 
 0 
LINE
 10 
 1503.85607910156 
 20 
 3883.87182617188 
 30 
 0 
 11 
 1559.36804199219 
 21 
 3854.77612304688 
 31 
 0 
 0 
LINE
 10 
 1559.36804199219 
 20 
 3854.77612304688 
 30 
 0 
 11 
 1615.55212402344 
 21 
 3834.94409179688 
 31 
 0 
 0 
LINE
 10 
 1615.55212402344 
 20 
 3834.94409179688 
 30 
 0 
 11 
 1674.42407226563 
 21 
 3823.60815429688 
 31 
 0 
 0 
LINE
 10 
 1674.42407226563 
 20 
 3823.60815429688 
 30 
 0 
 11 
 1738 
 21 
 3820 
 31 
 0 
 0 
LINE
 10 
 1738 
 20 
 3820 
 30 
 0 
 11 
 1778.47192382813 
 21 
 3820.6640625 
 31 
 0 
 0 
LINE
 10 
 1778.47192382813 
 20 
 3820.6640625 
 30 
 0 
 11 
 1810.97607421875 
 21 
 3823.39184570313 
 31 
 0 
 0 
LINE
 10 
 1810.97607421875 
 20 
 3823.39184570313 
 30 
 0 
 11 
 1840.74401855469 
 21 
 3829.2880859375 
 31 
 0 
 0 
LINE
 10 
 1840.74401855469 
 20 
 3829.2880859375 
 30 
 0 
 11 
 1873.00805664063 
 21 
 3839.4560546875 
 31 
 0 
 0 
LINE
 10 
 1873.00805664063 
 20 
 3839.4560546875 
 30 
 0 
 11 
 1913 
 21 
 3855 
 31 
 0 
 0 
LINE
 10 
 1913 
 20 
 3855 
 30 
 0 
 11 
 1941.04797363281 
 21 
 3865.93603515625 
 31 
 0 
 0 
LINE
 10 
 1941.04797363281 
 20 
 3865.93603515625 
 30 
 0 
 11 
 1966.50402832031 
 21 
 3875.52807617188 
 31 
 0 
 0 
LINE
 10 
 1966.50402832031 
 20 
 3875.52807617188 
 30 
 0 
 11 
 1987.73608398438 
 21 
 3883.15185546875 
 31 
 0 
 0 
LINE
 10 
 1987.73608398438 
 20 
 3883.15185546875 
 30 
 0 
 11 
 2003.11206054688 
 21 
 3888.18408203125 
 31 
 0 
 0 
LINE
 10 
 2003.11206054688 
 20 
 3888.18408203125 
 30 
 0 
 11 
 2011 
 21 
 3890 
 31 
 0 
 0 
LINE
 10 
 2011 
 20 
 3890 
 30 
 0 
 11 
 2023.4638671875 
 21 
 3884.759765625 
 31 
 0 
 0 
LINE
 10 
 2023.4638671875 
 20 
 3884.759765625 
 30 
 0 
 11 
 2050.47192382813 
 21 
 3870.15991210938 
 31 
 0 
 0 
LINE
 10 
 2050.47192382813 
 20 
 3870.15991210938 
 30 
 0 
 11 
 2089.04809570313 
 21 
 3847.88012695313 
 31 
 0 
 0 
LINE
 10 
 2089.04809570313 
 20 
 3847.88012695313 
 30 
 0 
 11 
 2136.21606445313 
 21 
 3819.60009765625 
 31 
 0 
 0 
LINE
 10 
 2136.21606445313 
 20 
 3819.60009765625 
 30 
 0 
 11 
 2189 
 21 
 3787 
 31 
 0 
 0 
LINE
 10 
 2189 
 20 
 3787 
 30 
 0 
 11 
 2244.16796875 
 21 
 3753.07202148438 
 31 
 0 
 0 
LINE
 10 
 2244.16796875 
 20 
 3753.07202148438 
 30 
 0 
 11 
 2297.9443359375 
 21 
 3720.05615234375 
 31 
 0 
 0 
LINE
 10 
 2297.9443359375 
 20 
 3720.05615234375 
 30 
 0 
 11 
 2346.5361328125 
 21 
 3690.30395507813 
 31 
 0 
 0 
LINE
 10 
 2346.5361328125 
 20 
 3690.30395507813 
 30 
 0 
 11 
 2386.15209960938 
 21 
 3666.16796875 
 31 
 0 
 0 
LINE
 10 
 2386.15209960938 
 20 
 3666.16796875 
 30 
 0 
 11 
 2413 
 21 
 3650 
 31 
 0 
 0 
LINE
 10 
 2413 
 20 
 3650 
 30 
 0 
 11 
 2459.255859375 
 21 
 3620.671875 
 31 
 0 
 0 
LINE
 10 
 2459.255859375 
 20 
 3620.671875 
 30 
 0 
 11 
 2498.16821289063 
 21 
 3591.77612304688 
 31 
 0 
 0 
LINE
 10 
 2498.16821289063 
 20 
 3591.77612304688 
 30 
 0 
 11 
 2529.35205078125 
 21 
 3563.74389648438 
 31 
 0 
 0 
LINE
 10 
 2529.35205078125 
 20 
 3563.74389648438 
 30 
 0 
 11 
 2552.42407226563 
 21 
 3537.00805664063 
 31 
 0 
 0 
LINE
 10 
 2552.42407226563 
 20 
 3537.00805664063 
 30 
 0 
 11 
 2567 
 21 
 3512 
 31 
 0 
 0 
LINE
 10 
 2567 
 20 
 3512 
 30 
 0 
 11 
 2581.07202148438 
 21 
 3468.0078125 
 31 
 0 
 0 
LINE
 10 
 2581.07202148438 
 20 
 3468.0078125 
 30 
 0 
 11 
 2592.93603515625 
 21 
 3410.6240234375 
 31 
 0 
 0 
LINE
 10 
 2592.93603515625 
 20 
 3410.6240234375 
 30 
 0 
 11 
 2602.06396484375 
 21 
 3343.73608398438 
 31 
 0 
 0 
LINE
 10 
 2602.06396484375 
 20 
 3343.73608398438 
 30 
 0 
 11 
 2607.92797851563 
 21 
 3271.23217773438 
 31 
 0 
 0 
LINE
 10 
 2607.92797851563 
 20 
 3271.23217773438 
 30 
 0 
 11 
 2610 
 21 
 3197 
 31 
 0 
 0 
LINE
 10 
 2610 
 20 
 3197 
 30 
 0 
 11 
 2610.46411132813 
 21 
 3155.09594726563 
 31 
 0 
 0 
LINE
 10 
 2610.46411132813 
 20 
 3155.09594726563 
 30 
 0 
 11 
 2611.7919921875 
 21 
 3109.68798828125 
 31 
 0 
 0 
LINE
 10 
 2611.7919921875 
 20 
 3109.68798828125 
 30 
 0 
 11 
 2613.88793945313 
 21 
 3064.23217773438 
 31 
 0 
 0 
LINE
 10 
 2613.88793945313 
 20 
 3064.23217773438 
 30 
 0 
 11 
 2616.65600585938 
 21 
 3022.18408203125 
 31 
 0 
 0 
LINE
 10 
 2616.65600585938 
 20 
 3022.18408203125 
 30 
 0 
 11 
 2620 
 21 
 2987 
 31 
 0 
 0 
LINE
 10 
 2620 
 20 
 2987 
 30 
 0 
 11 
 2624.2158203125 
 21 
 2945.671875 
 31 
 0 
 0 
LINE
 10 
 2624.2158203125 
 20 
 2945.671875 
 30 
 0 
 11 
 2630.44799804688 
 21 
 2886.5361328125 
 31 
 0 
 0 
LINE
 10 
 2630.44799804688 
 20 
 2886.5361328125 
 30 
 0 
 11 
 2638.07202148438 
 21 
 2815.06420898438 
 31 
 0 
 0 
LINE
 10 
 2638.07202148438 
 20 
 2815.06420898438 
 30 
 0 
 11 
 2646.46411132813 
 21 
 2736.72802734375 
 31 
 0 
 0 
LINE
 10 
 2646.46411132813 
 20 
 2736.72802734375 
 30 
 0 
 11 
 2655 
 21 
 2657 
 31 
 0 
 0 
LINE
 10 
 2655 
 20 
 2657 
 30 
 0 
 11 
 2666.88793945313 
 21 
 2542.57592773438 
 31 
 0 
 0 
LINE
 10 
 2666.88793945313 
 20 
 2542.57592773438 
 30 
 0 
 11 
 2674.26416015625 
 21 
 2449.12817382813 
 31 
 0 
 0 
LINE
 10 
 2674.26416015625 
 20 
 2449.12817382813 
 30 
 0 
 11 
 2677.89599609375 
 21 
 2355.39208984375 
 31 
 0 
 0 
LINE
 10 
 2677.89599609375 
 20 
 2355.39208984375 
 30 
 0 
 11 
 2678.55200195313 
 21 
 2240.10400390625 
 31 
 0 
 0 
LINE
 10 
 2678.55200195313 
 20 
 2240.10400390625 
 30 
 0 
 11 
 2677 
 21 
 2082 
 31 
 0 
 0 
LINE
 10 
 2677 
 20 
 2082 
 30 
 0 
 11 
 2675.01611328125 
 21 
 1940.71997070313 
 31 
 0 
 0 
LINE
 10 
 2675.01611328125 
 20 
 1940.71997070313 
 30 
 0 
 11 
 2672.408203125 
 21 
 1839.0400390625 
 31 
 0 
 0 
LINE
 10 
 2672.408203125 
 20 
 1839.0400390625 
 30 
 0 
 11 
 2668.7919921875 
 21 
 1768.79992675781 
 31 
 0 
 0 
LINE
 10 
 2668.7919921875 
 20 
 1768.79992675781 
 30 
 0 
 11 
 2663.7841796875 
 21 
 1721.84008789063 
 31 
 0 
 0 
LINE
 10 
 2663.7841796875 
 20 
 1721.84008789063 
 30 
 0 
 11 
 2657 
 21 
 1690 
 31 
 0 
 0 
LINE
 10 
 2657 
 20 
 1690 
 30 
 0 
 11 
 2644.36010742188 
 21 
 1622.40002441406 
 31 
 0 
 0 
LINE
 10 
 2644.36010742188 
 20 
 1622.40002441406 
 30 
 0 
 11 
 2638.67993164063 
 21 
 1536.07995605469 
 31 
 0 
 0 
LINE
 10 
 2638.67993164063 
 20 
 1536.07995605469 
 30 
 0 
 11 
 2639.71997070313 
 21 
 1443.76000976563 
 31 
 0 
 0 
LINE
 10 
 2639.71997070313 
 20 
 1443.76000976563 
 30 
 0 
 11 
 2647.23999023438 
 21 
 1358.16003417969 
 31 
 0 
 0 
LINE
 10 
 2647.23999023438 
 20 
 1358.16003417969 
 30 
 0 
 11 
 2661 
 21 
 1292 
 31 
 0 
 0 
LINE
 10 
 2661 
 20 
 1292 
 30 
 0 
 11 
 2677.07202148438 
 21 
 1244.05603027344 
 31 
 0 
 0 
LINE
 10 
 2677.07202148438 
 20 
 1244.05603027344 
 30 
 0 
 11 
 2691.65625 
 21 
 1202.44799804688 
 31 
 0 
 0 
LINE
 10 
 2691.65625 
 20 
 1202.44799804688 
 30 
 0 
 11 
 2704.7041015625 
 21 
 1167.51196289063 
 31 
 0 
 0 
LINE
 10 
 2704.7041015625 
 20 
 1167.51196289063 
 30 
 0 
 11 
 2716.16796875 
 21 
 1139.583984375 
 31 
 0 
 0 
LINE
 10 
 2716.16796875 
 20 
 1139.583984375 
 30 
 0 
 11 
 2726 
 21 
 1119 
 31 
 0 
 0 
LINE
 10 
 2726 
 20 
 1119 
 30 
 0 
 11 
 2732.85595703125 
 21 
 1103.85595703125 
 31 
 0 
 0 
LINE
 10 
 2732.85595703125 
 20 
 1103.85595703125 
 30 
 0 
 11 
 2734.52807617188 
 21 
 1091.92797851563 
 31 
 0 
 0 
LINE
 10 
 2734.52807617188 
 20 
 1091.92797851563 
 30 
 0 
 11 
 2729.67211914063 
 21 
 1079.47204589844 
 31 
 0 
 0 
LINE
 10 
 2729.67211914063 
 20 
 1079.47204589844 
 30 
 0 
 11 
 2716.94409179688 
 21 
 1062.74401855469 
 31 
 0 
 0 
LINE
 10 
 2716.94409179688 
 20 
 1062.74401855469 
 30 
 0 
 11 
 2695 
 21 
 1038 
 31 
 0 
 0 
LINE
 10 
 2695 
 20 
 1038 
 30 
 0 
 11 
 2659.18383789063 
 21 
 993.536010742188 
 31 
 0 
 0 
LINE
 10 
 2659.18383789063 
 20 
 993.536010742188 
 30 
 0 
 11 
 2620.63208007813 
 21 
 938.607971191406 
 31 
 0 
 0 
LINE
 10 
 2620.63208007813 
 20 
 938.607971191406 
 30 
 0 
 11 
 2585.48803710938 
 21 
 882.911987304688 
 31 
 0 
 0 
LINE
 10 
 2585.48803710938 
 20 
 882.911987304688 
 30 
 0 
 11 
 2559.89599609375 
 21 
 836.14404296875 
 31 
 0 
 0 
LINE
 10 
 2559.89599609375 
 20 
 836.14404296875 
 30 
 0 
 11 
 2550 
 21 
 808 
 31 
 0 
 0 
LINE
 10 
 2550 
 20 
 808 
 30 
 0 
 11 
 2552.39965820313 
 21 
 796.343994140625 
 31 
 0 
 0 
LINE
 10 
 2552.39965820313 
 20 
 796.343994140625 
 30 
 0 
 11 
 2559.60009765625 
 21 
 791.31201171875 
 31 
 0 
 0 
LINE
 10 
 2559.60009765625 
 20 
 791.31201171875 
 30 
 0 
 11 
 2571.60009765625 
 21 
 792.808044433594 
 31 
 0 
 0 
LINE
 10 
 2571.60009765625 
 20 
 792.808044433594 
 30 
 0 
 11 
 2588.39990234375 
 21 
 800.736022949219 
 31 
 0 
 0 
LINE
 10 
 2588.39990234375 
 20 
 800.736022949219 
 30 
 0 
 11 
 2610 
 21 
 815 
 31 
 0 
 0 
LINE
 10 
 2610 
 20 
 815 
 30 
 0 
 11 
 2633.40795898438 
 21 
 830.10400390625 
 31 
 0 
 0 
LINE
 10 
 2633.40795898438 
 20 
 830.10400390625 
 30 
 0 
 11 
 2652.78393554688 
 21 
 838.152038574219 
 31 
 0 
 0 
LINE
 10 
 2652.78393554688 
 20 
 838.152038574219 
 30 
 0 
 11 
 2667.4560546875 
 21 
 839.047973632813 
 31 
 0 
 0 
LINE
 10 
 2667.4560546875 
 20 
 839.047973632813 
 30 
 0 
 11 
 2676.75219726563 
 21 
 832.695983886719 
 31 
 0 
 0 
LINE
 10 
 2676.75219726563 
 20 
 832.695983886719 
 30 
 0 
 11 
 2680 
 21 
 819 
 31 
 0 
 0 
LINE
 10 
 2680 
 20 
 819 
 30 
 0 
 11 
 2670.3681640625 
 21 
 789.591979980469 
 31 
 0 
 0 
LINE
 10 
 2670.3681640625 
 20 
 789.591979980469 
 30 
 0 
 11 
 2645.6640625 
 21 
 739.015991210938 
 31 
 0 
 0 
LINE
 10 
 2645.6640625 
 20 
 739.015991210938 
 30 
 0 
 11 
 2612.17602539063 
 21 
 678.744018554688 
 31 
 0 
 0 
LINE
 10 
 2612.17602539063 
 20 
 678.744018554688 
 30 
 0 
 11 
 2576.19189453125 
 21 
 620.247985839844 
 31 
 0 
 0 
LINE
 10 
 2576.19189453125 
 20 
 620.247985839844 
 30 
 0 
 11 
 2544 
 21 
 575 
 31 
 0 
 0 
LINE
 10 
 2544 
 20 
 575 
 30 
 0 
 11 
 2522.97583007813 
 21 
 546.599975585938 
 31 
 0 
 0 
LINE
 10 
 2522.97583007813 
 20 
 546.599975585938 
 30 
 0 
 11 
 2500.60791015625 
 21 
 514.119995117188 
 31 
 0 
 0 
LINE
 10 
 2500.60791015625 
 20 
 514.119995117188 
 30 
 0 
 11 
 2480.35205078125 
 21 
 482.839965820313 
 31 
 0 
 0 
LINE
 10 
 2480.35205078125 
 20 
 482.839965820313 
 30 
 0 
 11 
 2465.6640625 
 21 
 458.040008544922 
 31 
 0 
 0 
LINE
 10 
 2465.6640625 
 20 
 458.040008544922 
 30 
 0 
 11 
 2460 
 21 
 445 
 31 
 0 
 0 
LINE
 10 
 2460 
 20 
 445 
 30 
 0 
 11 
 2464.31982421875 
 21 
 441.007995605469 
 31 
 0 
 0 
LINE
 10 
 2464.31982421875 
 20 
 441.007995605469 
 30 
 0 
 11 
 2475.36010742188 
 21 
 439.703979492188 
 31 
 0 
 0 
LINE
 10 
 2475.36010742188 
 20 
 439.703979492188 
 30 
 0 
 11 
 2490.23999023438 
 21 
 440.89599609375 
 31 
 0 
 0 
LINE
 10 
 2490.23999023438 
 20 
 440.89599609375 
 30 
 0 
 11 
 2506.080078125 
 21 
 444.392028808594 
 31 
 0 
 0 
LINE
 10 
 2506.080078125 
 20 
 444.392028808594 
 30 
 0 
 11 
 2520 
 21 
 450 
 31 
 0 
 0 
LINE
 10 
 2520 
 20 
 450 
 30 
 0 
 11 
 2539.27197265625 
 21 
 467.631988525391 
 31 
 0 
 0 
LINE
 10 
 2539.27197265625 
 20 
 467.631988525391 
 30 
 0 
 11 
 2568.576171875 
 21 
 503.216033935547 
 31 
 0 
 0 
LINE
 10 
 2568.576171875 
 20 
 503.216033935547 
 30 
 0 
 11 
 2604.74389648438 
 21 
 552.383972167969 
 31 
 0 
 0 
LINE
 10 
 2604.74389648438 
 20 
 552.383972167969 
 30 
 0 
 11 
 2644.60791015625 
 21 
 610.768005371094 
 31 
 0 
 0 
LINE
 10 
 2644.60791015625 
 20 
 610.768005371094 
 30 
 0 
 11 
 2685 
 21 
 674 
 31 
 0 
 0 
LINE
 10 
 2685 
 20 
 674 
 30 
 0 
 11 
 2733 
 21 
 752 
 31 
 0 
 0 
LINE
 10 
 2733 
 20 
 752 
 30 
 0 
 11 
 2747 
 21 
 726 
 31 
 0 
 0 
LINE
 10 
 2747 
 20 
 726 
 30 
 0 
 11 
 2752.2158203125 
 21 
 717.919982910156 
 31 
 0 
 0 
LINE
 10 
 2752.2158203125 
 20 
 717.919982910156 
 30 
 0 
 11 
 2758.00805664063 
 21 
 710.799987792969 
 31 
 0 
 0 
LINE
 10 
 2758.00805664063 
 20 
 710.799987792969 
 30 
 0 
 11 
 2763.9921875 
 21 
 705.119995117188 
 31 
 0 
 0 
LINE
 10 
 2763.9921875 
 20 
 705.119995117188 
 30 
 0 
 11 
 2769.7841796875 
 21 
 701.359985351563 
 31 
 0 
 0 
LINE
 10 
 2769.7841796875 
 20 
 701.359985351563 
 30 
 0 
 11 
 2775 
 21 
 700 
 31 
 0 
 0 
LINE
 10 
 2775 
 20 
 700 
 30 
 0 
 11 
 2779.7119140625 
 21 
 698.183959960938 
 31 
 0 
 0 
LINE
 10 
 2779.7119140625 
 20 
 698.183959960938 
 30 
 0 
 11 
 2785.09594726563 
 21 
 693.152038574219 
 31 
 0 
 0 
LINE
 10 
 2785.09594726563 
 20 
 693.152038574219 
 30 
 0 
 11 
 2790.6240234375 
 21 
 685.528015136719 
 31 
 0 
 0 
LINE
 10 
 2790.6240234375 
 20 
 685.528015136719 
 30 
 0 
 11 
 2795.76806640625 
 21 
 675.93603515625 
 31 
 0 
 0 
LINE
 10 
 2795.76806640625 
 20 
 675.93603515625 
 30 
 0 
 11 
 2800 
 21 
 665 
 31 
 0 
 0 
LINE
 10 
 2800 
 20 
 665 
 30 
 0 
 11 
 2803.89575195313 
 21 
 654.06396484375 
 31 
 0 
 0 
LINE
 10 
 2803.89575195313 
 20 
 654.06396484375 
 30 
 0 
 11 
 2808.12817382813 
 21 
 644.472045898438 
 31 
 0 
 0 
LINE
 10 
 2808.12817382813 
 20 
 644.472045898438 
 30 
 0 
 11 
 2812.31201171875 
 21 
 636.848022460938 
 31 
 0 
 0 
LINE
 10 
 2812.31201171875 
 20 
 636.848022460938 
 30 
 0 
 11 
 2816.06396484375 
 21 
 631.816040039063 
 31 
 0 
 0 
LINE
 10 
 2816.06396484375 
 20 
 631.816040039063 
 30 
 0 
 11 
 2819 
 21 
 630 
 31 
 0 
 0 
LINE
 10 
 2819 
 20 
 630 
 30 
 0 
 11 
 2823.65576171875 
 21 
 632.495971679688 
 31 
 0 
 0 
LINE
 10 
 2823.65576171875 
 20 
 632.495971679688 
 30 
 0 
 11 
 2832.24829101563 
 21 
 639.408020019531 
 31 
 0 
 0 
LINE
 10 
 2832.24829101563 
 20 
 639.408020019531 
 30 
 0 
 11 
 2843.912109375 
 21 
 649.872009277344 
 31 
 0 
 0 
LINE
 10 
 2843.912109375 
 20 
 649.872009277344 
 30 
 0 
 11 
 2857.78393554688 
 21 
 663.023986816406 
 31 
 0 
 0 
LINE
 10 
 2857.78393554688 
 20 
 663.023986816406 
 30 
 0 
 11 
 2873 
 21 
 678 
 31 
 0 
 0 
LINE
 10 
 2873 
 20 
 678 
 30 
 0 
 11 
 2921 
 21 
 726 
 31 
 0 
 0 
LINE
 10 
 2921 
 20 
 726 
 30 
 0 
 11 
 2909 
 21 
 779 
 31 
 0 
 0 
LINE
 10 
 2909 
 20 
 779 
 30 
 0 
 11 
 2902.4638671875 
 21 
 818.303894042969 
 31 
 0 
 0 
LINE
 10 
 2902.4638671875 
 20 
 818.303894042969 
 30 
 0 
 11 
 2902.31201171875 
 21 
 846.952026367188 
 31 
 0 
 0 
LINE
 10 
 2902.31201171875 
 20 
 846.952026367188 
 30 
 0 
 11 
 2908.92797851563 
 21 
 866.048034667969 
 31 
 0 
 0 
LINE
 10 
 2908.92797851563 
 20 
 866.048034667969 
 30 
 0 
 11 
 2922.69604492188 
 21 
 876.695983886719 
 31 
 0 
 0 
LINE
 10 
 2922.69604492188 
 20 
 876.695983886719 
 30 
 0 
 11 
 2944 
 21 
 880 
 31 
 0 
 0 
LINE
 10 
 2944 
 20 
 880 
 30 
 0 
 11 
 2955.927734375 
 21 
 879.440002441406 
 31 
 0 
 0 
LINE
 10 
 2955.927734375 
 20 
 879.440002441406 
 30 
 0 
 11 
 2969.34399414063 
 21 
 877.919982910156 
 31 
 0 
 0 
LINE
 10 
 2969.34399414063 
 20 
 877.919982910156 
 30 
 0 
 11 
 2983.09594726563 
 21 
 875.680053710938 
 31 
 0 
 0 
LINE
 10 
 2983.09594726563 
 20 
 875.680053710938 
 30 
 0 
 11 
 2996.03198242188 
 21 
 872.960021972656 
 31 
 0 
 0 
LINE
 10 
 2996.03198242188 
 20 
 872.960021972656 
 30 
 0 
 11 
 3007 
 21 
 870 
 31 
 0 
 0 
LINE
 10 
 3007 
 20 
 870 
 30 
 0 
 11 
 3021.02392578125 
 21 
 864.143981933594 
 31 
 0 
 0 
LINE
 10 
 3021.02392578125 
 20 
 864.143981933594 
 30 
 0 
 11 
 3030.39184570313 
 21 
 856.752014160156 
 31 
 0 
 0 
LINE
 10 
 3030.39184570313 
 20 
 856.752014160156 
 30 
 0 
 11 
 3036.4482421875 
 21 
 845.088012695313 
 31 
 0 
 0 
LINE
 10 
 3036.4482421875 
 20 
 845.088012695313 
 30 
 0 
 11 
 3040.53588867188 
 21 
 826.416015625 
 31 
 0 
 0 
LINE
 10 
 3040.53588867188 
 20 
 826.416015625 
 30 
 0 
 11 
 3044 
 21 
 798 
 31 
 0 
 0 
LINE
 10 
 3044 
 20 
 798 
 30 
 0 
 11 
 3047.83984375 
 21 
 751.343933105469 
 31 
 0 
 0 
LINE
 10 
 3047.83984375 
 20 
 751.343933105469 
 30 
 0 
 11 
 3049.76000976563 
 21 
 706.032043457031 
 31 
 0 
 0 
LINE
 10 
 3049.76000976563 
 20 
 706.032043457031 
 30 
 0 
 11 
 3049.76000976563 
 21 
 667.248046875 
 31 
 0 
 0 
LINE
 10 
 3049.76000976563 
 20 
 667.248046875 
 30 
 0 
 11 
 3047.84008789063 
 21 
 640.176025390625 
 31 
 0 
 0 
LINE
 10 
 3047.84008789063 
 20 
 640.176025390625 
 30 
 0 
 11 
 3044 
 21 
 630 
 31 
 0 
 0 
LINE
 10 
 3044 
 20 
 630 
 30 
 0 
 11 
 3039.95166015625 
 21 
 631.599975585938 
 31 
 0 
 0 
LINE
 10 
 3039.95166015625 
 20 
 631.599975585938 
 30 
 0 
 11 
 3032.01586914063 
 21 
 636.079956054688 
 31 
 0 
 0 
LINE
 10 
 3032.01586914063 
 20 
 636.079956054688 
 30 
 0 
 11 
 3021.10400390625 
 21 
 642.960021972656 
 31 
 0 
 0 
LINE
 10 
 3021.10400390625 
 20 
 642.960021972656 
 30 
 0 
 11 
 3008.1279296875 
 21 
 651.760009765625 
 31 
 0 
 0 
LINE
 10 
 3008.1279296875 
 20 
 651.760009765625 
 30 
 0 
 11 
 2994 
 21 
 662 
 31 
 0 
 0 
LINE
 10 
 2994 
 20 
 662 
 30 
 0 
 11 
 2950 
 21 
 693 
 31 
 0 
 0 
LINE
 10 
 2950 
 20 
 693 
 30 
 0 
 11 
 2887 
 21 
 632 
 31 
 0 
 0 
LINE
 10 
 2887 
 20 
 632 
 30 
 0 
 11 
 2863.41577148438 
 21 
 609.039978027344 
 31 
 0 
 0 
LINE
 10 
 2863.41577148438 
 20 
 609.039978027344 
 30 
 0 
 11 
 2846.408203125 
 21 
 590.399963378906 
 31 
 0 
 0 
LINE
 10 
 2846.408203125 
 20 
 590.399963378906 
 30 
 0 
 11 
 2835.59204101563 
 21 
 575.839965820313 
 31 
 0 
 0 
LINE
 10 
 2835.59204101563 
 20 
 575.839965820313 
 30 
 0 
 11 
 2830.583984375 
 21 
 565.119995117188 
 31 
 0 
 0 
LINE
 10 
 2830.583984375 
 20 
 565.119995117188 
 30 
 0 
 11 
 2831 
 21 
 558 
 31 
 0 
 0 
LINE
 10 
 2831 
 20 
 558 
 30 
 0 
 11 
 2834.65576171875 
 21 
 551.007995605469 
 31 
 0 
 0 
LINE
 10 
 2834.65576171875 
 20 
 551.007995605469 
 30 
 0 
 11 
 2839.36791992188 
 21 
 539.264038085938 
 31 
 0 
 0 
LINE
 10 
 2839.36791992188 
 20 
 539.264038085938 
 30 
 0 
 11 
 2844.751953125 
 21 
 524.015991210938 
 31 
 0 
 0 
LINE
 10 
 2844.751953125 
 20 
 524.015991210938 
 30 
 0 
 11 
 2850.42407226563 
 21 
 506.512023925781 
 31 
 0 
 0 
LINE
 10 
 2850.42407226563 
 20 
 506.512023925781 
 30 
 0 
 11 
 2856 
 21 
 488 
 31 
 0 
 0 
LINE
 10 
 2856 
 20 
 488 
 30 
 0 
 11 
 2868.6396484375 
 21 
 452.663970947266 
 31 
 0 
 0 
LINE
 10 
 2868.6396484375 
 20 
 452.663970947266 
 30 
 0 
 11 
 2880.56005859375 
 21 
 433.311981201172 
 31 
 0 
 0 
LINE
 10 
 2880.56005859375 
 20 
 433.311981201172 
 30 
 0 
 11 
 2890.56005859375 
 21 
 430.328002929688 
 31 
 0 
 0 
LINE
 10 
 2890.56005859375 
 20 
 430.328002929688 
 30 
 0 
 11 
 2897.44018554688 
 21 
 444.096008300781 
 31 
 0 
 0 
LINE
 10 
 2897.44018554688 
 20 
 444.096008300781 
 30 
 0 
 11 
 2900 
 21 
 475 
 31 
 0 
 0 
LINE
 10 
 2900 
 20 
 475 
 30 
 0 
 11 
 2900.61572265625 
 21 
 492.599975585938 
 31 
 0 
 0 
LINE
 10 
 2900.61572265625 
 20 
 492.599975585938 
 30 
 0 
 11 
 2902.52807617188 
 21 
 506.119995117188 
 31 
 0 
 0 
LINE
 10 
 2902.52807617188 
 20 
 506.119995117188 
 30 
 0 
 11 
 2905.83203125 
 21 
 516.0400390625 
 31 
 0 
 0 
LINE
 10 
 2905.83203125 
 20 
 516.0400390625 
 30 
 0 
 11 
 2910.6240234375 
 21 
 522.840026855469 
 31 
 0 
 0 
LINE
 10 
 2910.6240234375 
 20 
 522.840026855469 
 30 
 0 
 11 
 2917 
 21 
 527 
 31 
 0 
 0 
LINE
 10 
 2917 
 20 
 527 
 30 
 0 
 11 
 2936.68798828125 
 21 
 528.664001464844 
 31 
 0 
 0 
LINE
 10 
 2936.68798828125 
 20 
 528.664001464844 
 30 
 0 
 11 
 2962.42407226563 
 21 
 523.032043457031 
 31 
 0 
 0 
LINE
 10 
 2962.42407226563 
 20 
 523.032043457031 
 30 
 0 
 11 
 2989.2158203125 
 21 
 512.168029785156 
 31 
 0 
 0 
LINE
 10 
 2989.2158203125 
 20 
 512.168029785156 
 30 
 0 
 11 
 3012.07202148438 
 21 
 498.136016845703 
 31 
 0 
 0 
LINE
 10 
 3012.07202148438 
 20 
 498.136016845703 
 30 
 0 
 11 
 3026 
 21 
 483 
 31 
 0 
 0 
LINE
 10 
 3026 
 20 
 483 
 30 
 0 
 11 
 3052.751953125 
 21 
 445.088012695313 
 31 
 0 
 0 
LINE
 10 
 3052.751953125 
 20 
 445.088012695313 
 30 
 0 
 11 
 3093.37622070313 
 21 
 406.744018554688 
 31 
 0 
 0 
LINE
 10 
 3093.37622070313 
 20 
 406.744018554688 
 30 
 0 
 11 
 3140.6240234375 
 21 
 373.055999755859 
 31 
 0 
 0 
LINE
 10 
 3140.6240234375 
 20 
 373.055999755859 
 30 
 0 
 11 
 3187.248046875 
 21 
 349.111999511719 
 31 
 0 
 0 
LINE
 10 
 3187.248046875 
 20 
 349.111999511719 
 30 
 0 
 11 
 3226 
 21 
 340 
 31 
 0 
 0 
LINE
 10 
 3226 
 20 
 340 
 30 
 0 
 11 
 3239.43994140625 
 21 
 339.440002441406 
 31 
 0 
 0 
LINE
 10 
 3239.43994140625 
 20 
 339.440002441406 
 30 
 0 
 11 
 3249.0400390625 
 21 
 337.440002441406 
 31 
 0 
 0 
LINE
 10 
 3249.0400390625 
 20 
 337.440002441406 
 30 
 0 
 11 
 3255.52001953125 
 21 
 333.52001953125 
 31 
 0 
 0 
LINE
 10 
 3255.52001953125 
 20 
 333.52001953125 
 30 
 0 
 11 
 3259.60009765625 
 21 
 327.200012207031 
 31 
 0 
 0 
LINE
 10 
 3259.60009765625 
 20 
 327.200012207031 
 30 
 0 
 11 
 3262 
 21 
 318 
 31 
 0 
 0 
LINE
 10 
 3262 
 20 
 318 
 30 
 0 
 11 
 3269.919921875 
 21 
 301.304016113281 
 31 
 0 
 0 
LINE
 10 
 3269.919921875 
 20 
 301.304016113281 
 30 
 0 
 11 
 3287.68017578125 
 21 
 293.152008056641 
 31 
 0 
 0 
LINE
 10 
 3287.68017578125 
 20 
 293.152008056641 
 30 
 0 
 11 
 3315.28002929688 
 21 
 293.447998046875 
 31 
 0 
 0 
LINE
 10 
 3315.28002929688 
 20 
 293.447998046875 
 30 
 0 
 11 
 3352.71997070313 
 21 
 302.096008300781 
 31 
 0 
 0 
LINE
 10 
 3352.71997070313 
 20 
 302.096008300781 
 30 
 0 
 11 
 3400 
 21 
 319 
 31 
 0 
 0 
LINE
 10 
 3400 
 20 
 319 
 30 
 0 
 11 
 3458.57592773438 
 21 
 341.488006591797 
 31 
 0 
 0 
LINE
 10 
 3458.57592773438 
 20 
 341.488006591797 
 30 
 0 
 11 
 3493.48803710938 
 21 
 348.904022216797 
 31 
 0 
 0 
LINE
 10 
 3493.48803710938 
 20 
 348.904022216797 
 30 
 0 
 11 
 3507.7119140625 
 21 
 339.376007080078 
 31 
 0 
 0 
LINE
 10 
 3507.7119140625 
 20 
 339.376007080078 
 30 
 0 
 11 
 3504.22412109375 
 21 
 311.032012939453 
 31 
 0 
 0 
LINE
 10 
 3504.22412109375 
 20 
 311.032012939453 
 30 
 0 
 11 
 3486 
 21 
 262 
 31 
 0 
 0 
LINE
 10 
 3486 
 20 
 262 
 30 
 0 
 11 
 3470.14404296875 
 21 
 219.024002075195 
 31 
 0 
 0 
LINE
 10 
 3470.14404296875 
 20 
 219.024002075195 
 30 
 0 
 11 
 3459.7119140625 
 21 
 182.432006835938 
 31 
 0 
 0 
LINE
 10 
 3459.7119140625 
 20 
 182.432006835938 
 30 
 0 
 11 
 3454.60815429688 
 21 
 152.128005981445 
 31 
 0 
 0 
LINE
 10 
 3454.60815429688 
 20 
 152.128005981445 
 30 
 0 
 11 
 3454.73608398438 
 21 
 128.016006469727 
 31 
 0 
 0 
LINE
 10 
 3454.73608398438 
 20 
 128.016006469727 
 30 
 0 
 11 
 3460 
 21 
 110 
 31 
 0 
 0 
LINE
 10 
 3460 
 20 
 110 
 30 
 0 
 11 
 3476.75170898438 
 21 
 91.0400009155273 
 31 
 0 
 0 
LINE
 10 
 3476.75170898438 
 20 
 91.0400009155273 
 30 
 0 
 11 
 3497.05615234375 
 21 
 94.4000015258789 
 31 
 0 
 0 
LINE
 10 
 3497.05615234375 
 20 
 94.4000015258789 
 30 
 0 
 11 
 3522.78393554688 
 21 
 122.240005493164 
 31 
 0 
 0 
LINE
 10 
 3522.78393554688 
 20 
 122.240005493164 
 30 
 0 
 11 
 3555.80810546875 
 21 
 176.720001220703 
 31 
 0 
 0 
LINE
 10 
 3555.80810546875 
 20 
 176.720001220703 
 30 
 0 
 11 
 3598 
 21 
 260 
 31 
 0 
 0 
LINE
 10 
 3598 
 20 
 260 
 30 
 0 
 11 
 3623.28784179688 
 21 
 308.511993408203 
 31 
 0 
 0 
LINE
 10 
 3623.28784179688 
 20 
 308.511993408203 
 30 
 0 
 11 
 3649.583984375 
 21 
 352.176025390625 
 31 
 0 
 0 
LINE
 10 
 3649.583984375 
 20 
 352.176025390625 
 30 
 0 
 11 
 3674.5361328125 
 21 
 387.584014892578 
 31 
 0 
 0 
LINE
 10 
 3674.5361328125 
 20 
 387.584014892578 
 30 
 0 
 11 
 3695.7919921875 
 21 
 411.328002929688 
 31 
 0 
 0 
LINE
 10 
 3695.7919921875 
 20 
 411.328002929688 
 30 
 0 
 11 
 3711 
 21 
 420 
 31 
 0 
 0 
LINE
 10 
 3711 
 20 
 420 
 30 
 0 
 11 
 3713.61572265625 
 21 
 418.06396484375 
 31 
 0 
 0 
LINE
 10 
 3713.61572265625 
 20 
 418.06396484375 
 30 
 0 
 11 
 3715.3681640625 
 21 
 412.671997070313 
 31 
 0 
 0 
LINE
 10 
 3715.3681640625 
 20 
 412.671997070313 
 30 
 0 
 11 
 3716.11206054688 
 21 
 404.447998046875 
 31 
 0 
 0 
LINE
 10 
 3716.11206054688 
 20 
 404.447998046875 
 30 
 0 
 11 
 3715.7041015625 
 21 
 394.015991210938 
 31 
 0 
 0 
LINE
 10 
 3715.7041015625 
 20 
 394.015991210938 
 30 
 0 
 11 
 3714 
 21 
 382 
 31 
 0 
 0 
LINE
 10 
 3714 
 20 
 382 
 30 
 0 
 11 
 3712.85595703125 
 21 
 354.167999267578 
 31 
 0 
 0 
LINE
 10 
 3712.85595703125 
 20 
 354.167999267578 
 30 
 0 
 11 
 3718.04809570313 
 21 
 327.824005126953 
 31 
 0 
 0 
LINE
 10 
 3718.04809570313 
 20 
 327.824005126953 
 30 
 0 
 11 
 3729.912109375 
 21 
 302.296020507813 
 31 
 0 
 0 
LINE
 10 
 3729.912109375 
 20 
 302.296020507813 
 30 
 0 
 11 
 3748.7841796875 
 21 
 276.911987304688 
 31 
 0 
 0 
LINE
 10 
 3748.7841796875 
 20 
 276.911987304688 
 30 
 0 
 11 
 3775 
 21 
 251 
 31 
 0 
 0 
LINE
 10 
 3775 
 20 
 251 
 30 
 0 
 11 
 3796.26391601563 
 21 
 233.520004272461 
 31 
 0 
 0 
LINE
 10 
 3796.26391601563 
 20 
 233.520004272461 
 30 
 0 
 11 
 3812.87231445313 
 21 
 223.959991455078 
 31 
 0 
 0 
LINE
 10 
 3812.87231445313 
 20 
 223.959991455078 
 30 
 0 
 11 
 3827.84814453125 
 21 
 221.839996337891 
 31 
 0 
 0 
LINE
 10 
 3827.84814453125 
 20 
 221.839996337891 
 30 
 0 
 11 
 3844.21606445313 
 21 
 226.68000793457 
 31 
 0 
 0 
LINE
 10 
 3844.21606445313 
 20 
 226.68000793457 
 30 
 0 
 11 
 3865 
 21 
 238 
 31 
 0 
 0 
LINE
 10 
 3865 
 20 
 238 
 30 
 0 
 11 
 3879.82397460938 
 21 
 246.600006103516 
 31 
 0 
 0 
LINE
 10 
 3879.82397460938 
 20 
 246.600006103516 
 30 
 0 
 11 
 3892.15209960938 
 21 
 250.639999389648 
 31 
 0 
 0 
LINE
 10 
 3892.15209960938 
 20 
 250.639999389648 
 30 
 0 
 11 
 3905.96801757813 
 21 
 249.880004882813 
 31 
 0 
 0 
LINE
 10 
 3905.96801757813 
 20 
 249.880004882813 
 30 
 0 
 11 
 3925.25610351563 
 21 
 244.080001831055 
 31 
 0 
 0 
LINE
 10 
 3925.25610351563 
 20 
 244.080001831055 
 30 
 0 
 11 
 3954 
 21 
 233 
 31 
 0 
 0 
LINE
 10 
 3954 
 20 
 233 
 30 
 0 
 11 
 3973.10375976563 
 21 
 225.743988037109 
 31 
 0 
 0 
LINE
 10 
 3973.10375976563 
 20 
 225.743988037109 
 30 
 0 
 11 
 3991.15234375 
 21 
 219.832000732422 
 31 
 0 
 0 
LINE
 10 
 3991.15234375 
 20 
 219.832000732422 
 30 
 0 
 11 
 4006.84790039063 
 21 
 215.647994995117 
 31 
 0 
 0 
LINE
 10 
 4006.84790039063 
 20 
 215.647994995117 
 30 
 0 
 11 
 4018.89599609375 
 21 
 213.57600402832 
 31 
 0 
 0 
LINE
 10 
 4018.89599609375 
 20 
 213.57600402832 
 30 
 0 
 11 
 4026 
 21 
 214 
 31 
 0 
 0 
LINE
 10 
 4026 
 20 
 214 
 30 
 0 
 11 
 4035.89599609375 
 21 
 220.543991088867 
 31 
 0 
 0 
LINE
 10 
 4035.89599609375 
 20 
 220.543991088867 
 30 
 0 
 11 
 4039.408203125 
 21 
 229.872009277344 
 31 
 0 
 0 
LINE
 10 
 4039.408203125 
 20 
 229.872009277344 
 30 
 0 
 11 
 4036.8720703125 
 21 
 240.927993774414 
 31 
 0 
 0 
LINE
 10 
 4036.8720703125 
 20 
 240.927993774414 
 30 
 0 
 11 
 4028.6240234375 
 21 
 252.656005859375 
 31 
 0 
 0 
LINE
 10 
 4028.6240234375 
 20 
 252.656005859375 
 30 
 0 
 11 
 4015 
 21 
 264 
 31 
 0 
 0 
LINE
 10 
 4015 
 20 
 264 
 30 
 0 
 11 
 3998.42407226563 
 21 
 278.279998779297 
 31 
 0 
 0 
LINE
 10 
 3998.42407226563 
 20 
 278.279998779297 
 30 
 0 
 11 
 3988.23217773438 
 21 
 295.200012207031 
 31 
 0 
 0 
LINE
 10 
 3988.23217773438 
 20 
 295.200012207031 
 30 
 0 
 11 
 3984.328125 
 21 
 315.480010986328 
 31 
 0 
 0 
LINE
 10 
 3984.328125 
 20 
 315.480010986328 
 30 
 0 
 11 
 3986.6162109375 
 21 
 339.839996337891 
 31 
 0 
 0 
LINE
 10 
 3986.6162109375 
 20 
 339.839996337891 
 30 
 0 
 11 
 3995 
 21 
 369 
 31 
 0 
 0 
LINE
 10 
 3995 
 20 
 369 
 30 
 0 
 11 
 4005.45581054688 
 21 
 405.199981689453 
 31 
 0 
 0 
LINE
 10 
 4005.45581054688 
 20 
 405.199981689453 
 30 
 0 
 11 
 4008.80810546875 
 21 
 439.47998046875 
 31 
 0 
 0 
LINE
 10 
 4008.80810546875 
 20 
 439.47998046875 
 30 
 0 
 11 
 4004.43188476563 
 21 
 477.360015869141 
 31 
 0 
 0 
LINE
 10 
 4004.43188476563 
 20 
 477.360015869141 
 30 
 0 
 11 
 3991.7041015625 
 21 
 524.360046386719 
 31 
 0 
 0 
LINE
 10 
 3991.7041015625 
 20 
 524.360046386719 
 30 
 0 
 11 
 3970 
 21 
 586 
 31 
 0 
 0 
LINE
 10 
 3970 
 20 
 586 
 30 
 0 
 11 
 3964.751953125 
 21 
 594.031982421875 
 31 
 0 
 0 
LINE
 10 
 3964.751953125 
 20 
 594.031982421875 
 30 
 0 
 11 
 3955.61596679688 
 21 
 603.216064453125 
 31 
 0 
 0 
LINE
 10 
 3955.61596679688 
 20 
 603.216064453125 
 30 
 0 
 11 
 3943.50390625 
 21 
 612.783996582031 
 31 
 0 
 0 
LINE
 10 
 3943.50390625 
 20 
 612.783996582031 
 30 
 0 
 11 
 3929.328125 
 21 
 621.968017578125 
 31 
 0 
 0 
LINE
 10 
 3929.328125 
 20 
 621.968017578125 
 30 
 0 
 11 
 3914 
 21 
 630 
 31 
 0 
 0 
LINE
 10 
 3914 
 20 
 630 
 30 
 0 
 11 
 3891.18408203125 
 21 
 641.079956054688 
 31 
 0 
 0 
LINE
 10 
 3891.18408203125 
 20 
 641.079956054688 
 30 
 0 
 11 
 3875.47192382813 
 21 
 646.880004882813 
 31 
 0 
 0 
LINE
 10 
 3875.47192382813 
 20 
 646.880004882813 
 30 
 0 
 11 
 3863.16796875 
 21 
 647.640014648438 
 31 
 0 
 0 
LINE
 10 
 3863.16796875 
 20 
 647.640014648438 
 30 
 0 
 11 
 3850.576171875 
 21 
 643.600036621094 
 31 
 0 
 0 
LINE
 10 
 3850.576171875 
 20 
 643.600036621094 
 30 
 0 
 11 
 3834 
 21 
 635 
 31 
 0 
 0 
LINE
 10 
 3834 
 20 
 635 
 30 
 0 
 11 
 3821.2158203125 
 21 
 629.143981933594 
 31 
 0 
 0 
LINE
 10 
 3821.2158203125 
 20 
 629.143981933594 
 30 
 0 
 11 
 3808.2880859375 
 21 
 624.872009277344 
 31 
 0 
 0 
LINE
 10 
 3808.2880859375 
 20 
 624.872009277344 
 30 
 0 
 11 
 3795.55224609375 
 21 
 622.328002929688 
 31 
 0 
 0 
LINE
 10 
 3795.55224609375 
 20 
 622.328002929688 
 30 
 0 
 11 
 3783.34399414063 
 21 
 621.656005859375 
 31 
 0 
 0 
LINE
 10 
 3783.34399414063 
 20 
 621.656005859375 
 30 
 0 
 11 
 3772 
 21 
 623 
 31 
 0 
 0 
LINE
 10 
 3772 
 20 
 623 
 30 
 0 
 11 
 3761.57592773438 
 21 
 624.087951660156 
 31 
 0 
 0 
LINE
 10 
 3761.57592773438 
 20 
 624.087951660156 
 30 
 0 
 11 
 3750.04809570313 
 21 
 623.783996582031 
 31 
 0 
 0 
LINE
 10 
 3750.04809570313 
 20 
 623.783996582031 
 30 
 0 
 11 
 3738.23193359375 
 21 
 622.135986328125 
 31 
 0 
 0 
LINE
 10 
 3738.23193359375 
 20 
 622.135986328125 
 30 
 0 
 11 
 3726.94409179688 
 21 
 619.192016601563 
 31 
 0 
 0 
LINE
 10 
 3726.94409179688 
 20 
 619.192016601563 
 30 
 0 
 11 
 3717 
 21 
 615 
 31 
 0 
 0 
LINE
 10 
 3717 
 20 
 615 
 30 
 0 
 11 
 3704.591796875 
 21 
 608.903991699219 
 31 
 0 
 0 
LINE
 10 
 3704.591796875 
 20 
 608.903991699219 
 30 
 0 
 11 
 3696.69580078125 
 21 
 606.31201171875 
 31 
 0 
 0 
LINE
 10 
 3696.69580078125 
 20 
 606.31201171875 
 30 
 0 
 11 
 3692.30395507813 
 21 
 607.367980957031 
 31 
 0 
 0 
LINE
 10 
 3692.30395507813 
 20 
 607.367980957031 
 30 
 0 
 11 
 3690.40795898438 
 21 
 612.216003417969 
 31 
 0 
 0 
LINE
 10 
 3690.40795898438 
 20 
 612.216003417969 
 30 
 0 
 11 
 3690 
 21 
 621 
 31 
 0 
 0 
LINE
 10 
 3690 
 20 
 621 
 30 
 0 
 11 
 3683.80004882813 
 21 
 637.1279296875 
 31 
 0 
 0 
LINE
 10 
 3683.80004882813 
 20 
 637.1279296875 
 30 
 0 
 11 
 3665.84008789063 
 21 
 641.304016113281 
 31 
 0 
 0 
LINE
 10 
 3665.84008789063 
 20 
 641.304016113281 
 30 
 0 
 11 
 3637.080078125 
 21 
 633.815979003906 
 31 
 0 
 0 
LINE
 10 
 3637.080078125 
 20 
 633.815979003906 
 30 
 0 
 11 
 3598.48022460938 
 21 
 614.952026367188 
 31 
 0 
 0 
LINE
 10 
 3598.48022460938 
 20 
 614.952026367188 
 30 
 0 
 11 
 3551 
 21 
 585 
 31 
 0 
 0 
LINE
 10 
 3551 
 20 
 585 
 30 
 0 
 11 
 3525.2158203125 
 21 
 567.760009765625 
 31 
 0 
 0 
LINE
 10 
 3525.2158203125 
 20 
 567.760009765625 
 30 
 0 
 11 
 3501.68798828125 
 21 
 552.679992675781 
 31 
 0 
 0 
LINE
 10 
 3501.68798828125 
 20 
 552.679992675781 
 30 
 0 
 11 
 3481.9521484375 
 21 
 540.719970703125 
 31 
 0 
 0 
LINE
 10 
 3481.9521484375 
 20 
 540.719970703125 
 30 
 0 
 11 
 3467.54418945313 
 21 
 532.840026855469 
 31 
 0 
 0 
LINE
 10 
 3467.54418945313 
 20 
 532.840026855469 
 30 
 0 
 11 
 3460 
 21 
 530 
 31 
 0 
 0 
LINE
 10 
 3460 
 20 
 530 
 30 
 0 
 11 
 3457.35205078125 
 21 
 531.495971679688 
 31 
 0 
 0 
LINE
 10 
 3457.35205078125 
 20 
 531.495971679688 
 30 
 0 
 11 
 3456.576171875 
 21 
 535.72802734375 
 31 
 0 
 0 
LINE
 10 
 3456.576171875 
 20 
 535.72802734375 
 30 
 0 
 11 
 3457.6240234375 
 21 
 542.31201171875 
 31 
 0 
 0 
LINE
 10 
 3457.6240234375 
 20 
 542.31201171875 
 30 
 0 
 11 
 3460.4482421875 
 21 
 550.864013671875 
 31 
 0 
 0 
LINE
 10 
 3460.4482421875 
 20 
 550.864013671875 
 30 
 0 
 11 
 3465 
 21 
 561 
 31 
 0 
 0 
LINE
 10 
 3465 
 20 
 561 
 30 
 0 
 11 
 3475.21606445313 
 21 
 584.528015136719 
 31 
 0 
 0 
LINE
 10 
 3475.21606445313 
 20 
 584.528015136719 
 30 
 0 
 11 
 3476.16796875 
 21 
 600.903991699219 
 31 
 0 
 0 
LINE
 10 
 3476.16796875 
 20 
 600.903991699219 
 30 
 0 
 11 
 3466.51196289063 
 21 
 611.616027832031 
 31 
 0 
 0 
LINE
 10 
 3466.51196289063 
 20 
 611.616027832031 
 30 
 0 
 11 
 3444.90405273438 
 21 
 618.151977539063 
 31 
 0 
 0 
LINE
 10 
 3444.90405273438 
 20 
 618.151977539063 
 30 
 0 
 11 
 3410 
 21 
 622 
 31 
 0 
 0 
LINE
 10 
 3410 
 20 
 622 
 30 
 0 
 11 
 3380.27197265625 
 21 
 625.399963378906 
 31 
 0 
 0 
LINE
 10 
 3380.27197265625 
 20 
 625.399963378906 
 30 
 0 
 11 
 3357.93627929688 
 21 
 630.960021972656 
 31 
 0 
 0 
LINE
 10 
 3357.93627929688 
 20 
 630.960021972656 
 30 
 0 
 11 
 3342.4638671875 
 21 
 638.919982910156 
 31 
 0 
 0 
LINE
 10 
 3342.4638671875 
 20 
 638.919982910156 
 30 
 0 
 11 
 3333.328125 
 21 
 649.52001953125 
 31 
 0 
 0 
LINE
 10 
 3333.328125 
 20 
 649.52001953125 
 30 
 0 
 11 
 3330 
 21 
 663 
 31 
 0 
 0 
LINE
 10 
 3330 
 20 
 663 
 30 
 0 
 11 
 3334.77587890625 
 21 
 665.263977050781 
 31 
 0 
 0 
LINE
 10 
 3334.77587890625 
 20 
 665.263977050781 
 30 
 0 
 11 
 3348.04809570313 
 21 
 667.192016601563 
 31 
 0 
 0 
LINE
 10 
 3348.04809570313 
 20 
 667.192016601563 
 30 
 0 
 11 
 3368.23217773438 
 21 
 668.688049316406 
 31 
 0 
 0 
LINE
 10 
 3368.23217773438 
 20 
 668.688049316406 
 30 
 0 
 11 
 3393.744140625 
 21 
 669.656005859375 
 31 
 0 
 0 
LINE
 10 
 3393.744140625 
 20 
 669.656005859375 
 30 
 0 
 11 
 3423 
 21 
 670 
 31 
 0 
 0 
LINE
 10 
 3423 
 20 
 670 
 30 
 0 
 11 
 3453.97607421875 
 21 
 670.567993164063 
 31 
 0 
 0 
LINE
 10 
 3453.97607421875 
 20 
 670.567993164063 
 30 
 0 
 11 
 3481.20825195313 
 21 
 672.143981933594 
 31 
 0 
 0 
LINE
 10 
 3481.20825195313 
 20 
 672.143981933594 
 30 
 0 
 11 
 3503.35205078125 
 21 
 674.536010742188 
 31 
 0 
 0 
LINE
 10 
 3503.35205078125 
 20 
 674.536010742188 
 30 
 0 
 11 
 3519.06396484375 
 21 
 677.552001953125 
 31 
 0 
 0 
LINE
 10 
 3519.06396484375 
 20 
 677.552001953125 
 30 
 0 
 11 
 3527 
 21 
 681 
 31 
 0 
 0 
LINE
 10 
 3527 
 20 
 681 
 30 
 0 
 11 
 3531.4560546875 
 21 
 684.839965820313 
 31 
 0 
 0 
LINE
 10 
 3531.4560546875 
 20 
 684.839965820313 
 30 
 0 
 11 
 3535.28784179688 
 21 
 686.760009765625 
 31 
 0 
 0 
LINE
 10 
 3535.28784179688 
 20 
 686.760009765625 
 30 
 0 
 11 
 3538.59204101563 
 21 
 686.760009765625 
 31 
 0 
 0 
LINE
 10 
 3538.59204101563 
 20 
 686.760009765625 
 30 
 0 
 11 
 3541.46411132813 
 21 
 684.840026855469 
 31 
 0 
 0 
LINE
 10 
 3541.46411132813 
 20 
 684.840026855469 
 30 
 0 
 11 
 3544 
 21 
 681 
 31 
 0 
 0 
LINE
 10 
 3544 
 20 
 681 
 30 
 0 
 11 
 3547.17602539063 
 21 
 677.551940917969 
 31 
 0 
 0 
LINE
 10 
 3547.17602539063 
 20 
 677.551940917969 
 30 
 0 
 11 
 3551.64794921875 
 21 
 674.536010742188 
 31 
 0 
 0 
LINE
 10 
 3551.64794921875 
 20 
 674.536010742188 
 30 
 0 
 11 
 3557.03198242188 
 21 
 672.14404296875 
 31 
 0 
 0 
LINE
 10 
 3557.03198242188 
 20 
 672.14404296875 
 30 
 0 
 11 
 3562.94409179688 
 21 
 670.567993164063 
 31 
 0 
 0 
LINE
 10 
 3562.94409179688 
 20 
 670.567993164063 
 30 
 0 
 11 
 3569 
 21 
 670 
 31 
 0 
 0 
LINE
 10 
 3569 
 20 
 670 
 30 
 0 
 11 
 3579.52001953125 
 21 
 674.047973632813 
 31 
 0 
 0 
LINE
 10 
 3579.52001953125 
 20 
 674.047973632813 
 30 
 0 
 11 
 3588.11987304688 
 21 
 685.583984375 
 31 
 0 
 0 
LINE
 10 
 3588.11987304688 
 20 
 685.583984375 
 30 
 0 
 11 
 3594.56005859375 
 21 
 703.695983886719 
 31 
 0 
 0 
LINE
 10 
 3594.56005859375 
 20 
 703.695983886719 
 30 
 0 
 11 
 3598.60009765625 
 21 
 727.471984863281 
 31 
 0 
 0 
LINE
 10 
 3598.60009765625 
 20 
 727.471984863281 
 30 
 0 
 11 
 3600 
 21 
 756 
 31 
 0 
 0 
LINE
 10 
 3600 
 20 
 756 
 30 
 0 
 11 
 3600.45581054688 
 21 
 766.455993652344 
 31 
 0 
 0 
LINE
 10 
 3600.45581054688 
 20 
 766.455993652344 
 30 
 0 
 11 
 3602.68798828125 
 21 
 771.007995605469 
 31 
 0 
 0 
LINE
 10 
 3602.68798828125 
 20 
 771.007995605469 
 30 
 0 
 11 
 3607.99194335938 
 21 
 769.032043457031 
 31 
 0 
 0 
LINE
 10 
 3607.99194335938 
 20 
 769.032043457031 
 30 
 0 
 11 
 3617.6640625 
 21 
 759.904052734375 
 31 
 0 
 0 
LINE
 10 
 3617.6640625 
 20 
 759.904052734375 
 30 
 0 
 11 
 3633 
 21 
 743 
 31 
 0 
 0 
LINE
 10 
 3633 
 20 
 743 
 30 
 0 
 11 
 3651.59985351563 
 21 
 725.85595703125 
 31 
 0 
 0 
LINE
 10 
 3651.59985351563 
 20 
 725.85595703125 
 30 
 0 
 11 
 3667.31982421875 
 21 
 716.488037109375 
 31 
 0 
 0 
LINE
 10 
 3667.31982421875 
 20 
 716.488037109375 
 30 
 0 
 11 
 3679.43994140625 
 21 
 714.992004394531 
 31 
 0 
 0 
LINE
 10 
 3679.43994140625 
 20 
 714.992004394531 
 30 
 0 
 11 
 3687.23999023438 
 21 
 721.463989257813 
 31 
 0 
 0 
LINE
 10 
 3687.23999023438 
 20 
 721.463989257813 
 30 
 0 
 11 
 3690 
 21 
 736 
 31 
 0 
 0 
LINE
 10 
 3690 
 20 
 736 
 30 
 0 
 11 
 3688.52001953125 
 21 
 743.487915039063 
 31 
 0 
 0 
LINE
 10 
 3688.52001953125 
 20 
 743.487915039063 
 30 
 0 
 11 
 3684.40014648438 
 21 
 755.583984375 
 31 
 0 
 0 
LINE
 10 
 3684.40014648438 
 20 
 755.583984375 
 30 
 0 
 11 
 3678.1201171875 
 21 
 771.135986328125 
 31 
 0 
 0 
LINE
 10 
 3678.1201171875 
 20 
 771.135986328125 
 30 
 0 
 11 
 3670.16015625 
 21 
 788.992004394531 
 31 
 0 
 0 
LINE
 10 
 3670.16015625 
 20 
 788.992004394531 
 30 
 0 
 11 
 3661 
 21 
 808 
 31 
 0 
 0 
LINE
 10 
 3661 
 20 
 808 
 30 
 0 
 11 
 3642.51171875 
 21 
 847.47998046875 
 31 
 0 
 0 
LINE
 10 
 3642.51171875 
 20 
 847.47998046875 
 30 
 0 
 11 
 3628.53588867188 
 21 
 882.640014648438 
 31 
 0 
 0 
LINE
 10 
 3628.53588867188 
 20 
 882.640014648438 
 30 
 0 
 11 
 3618.30395507813 
 21 
 916.360046386719 
 31 
 0 
 0 
LINE
 10 
 3618.30395507813 
 20 
 916.360046386719 
 30 
 0 
 11 
 3611.04809570313 
 21 
 951.52001953125 
 31 
 0 
 0 
LINE
 10 
 3611.04809570313 
 20 
 951.52001953125 
 30 
 0 
 11 
 3606 
 21 
 991 
 31 
 0 
 0 
LINE
 10 
 3606 
 20 
 991 
 30 
 0 
 11 
 3600 
 21 
 1047 
 31 
 0 
 0 
LINE
 10 
 3600 
 20 
 1047 
 30 
 0 
 11 
 3683 
 21 
 1068 
 31 
 0 
 0 
LINE
 10 
 3683 
 20 
 1068 
 30 
 0 
 11 
 3748.7998046875 
 21 
 1084.87194824219 
 31 
 0 
 0 
LINE
 10 
 3748.7998046875 
 20 
 1084.87194824219 
 30 
 0 
 11 
 3788.2001953125 
 21 
 1090.416015625 
 31 
 0 
 0 
LINE
 10 
 3788.2001953125 
 20 
 1090.416015625 
 30 
 0 
 11 
 3810.80029296875 
 21 
 1080.02404785156 
 31 
 0 
 0 
LINE
 10 
 3810.80029296875 
 20 
 1080.02404785156 
 30 
 0 
 11 
 3826.2001953125 
 21 
 1049.08801269531 
 31 
 0 
 0 
LINE
 10 
 3826.2001953125 
 20 
 1049.08801269531 
 30 
 0 
 11 
 3844 
 21 
 993 
 31 
 0 
 0 
LINE
 10 
 3844 
 20 
 993 
 30 
 0 
 11 
 3864.51196289063 
 21 
 934.463989257813 
 31 
 0 
 0 
LINE
 10 
 3864.51196289063 
 20 
 934.463989257813 
 30 
 0 
 11 
 3884.01611328125 
 21 
 887.351989746094 
 31 
 0 
 0 
LINE
 10 
 3884.01611328125 
 20 
 887.351989746094 
 30 
 0 
 11 
 3902.46411132813 
 21 
 851.808044433594 
 31 
 0 
 0 
LINE
 10 
 3902.46411132813 
 20 
 851.808044433594 
 30 
 0 
 11 
 3919.80810546875 
 21 
 827.976013183594 
 31 
 0 
 0 
LINE
 10 
 3919.80810546875 
 20 
 827.976013183594 
 30 
 0 
 11 
 3936 
 21 
 816 
 31 
 0 
 0 
LINE
 10 
 3936 
 20 
 816 
 30 
 0 
 11 
 3952.47998046875 
 21 
 810.967956542969 
 31 
 0 
 0 
LINE
 10 
 3952.47998046875 
 20 
 810.967956542969 
 30 
 0 
 11 
 3964.8798828125 
 21 
 810.304016113281 
 31 
 0 
 0 
LINE
 10 
 3964.8798828125 
 20 
 810.304016113281 
 30 
 0 
 11 
 3973.44018554688 
 21 
 814.056030273438 
 31 
 0 
 0 
LINE
 10 
 3973.44018554688 
 20 
 814.056030273438 
 30 
 0 
 11 
 3978.40014648438 
 21 
 822.272033691406 
 31 
 0 
 0 
LINE
 10 
 3978.40014648438 
 20 
 822.272033691406 
 30 
 0 
 11 
 3980 
 21 
 835 
 31 
 0 
 0 
LINE
 10 
 3980 
 20 
 835 
 30 
 0 
 11 
 3980.73583984375 
 21 
 846.815979003906 
 31 
 0 
 0 
LINE
 10 
 3980.73583984375 
 20 
 846.815979003906 
 30 
 0 
 11 
 3984.44799804688 
 21 
 854.16796875 
 31 
 0 
 0 
LINE
 10 
 3984.44799804688 
 20 
 854.16796875 
 30 
 0 
 11 
 3993.39208984375 
 21 
 858.111999511719 
 31 
 0 
 0 
LINE
 10 
 3993.39208984375 
 20 
 858.111999511719 
 30 
 0 
 11 
 4009.82397460938 
 21 
 859.704040527344 
 31 
 0 
 0 
LINE
 10 
 4009.82397460938 
 20 
 859.704040527344 
 30 
 0 
 11 
 4036 
 21 
 860 
 31 
 0 
 0 
LINE
 10 
 4036 
 20 
 860 
 30 
 0 
 11 
 4063.087890625 
 21 
 860.648010253906 
 31 
 0 
 0 
LINE
 10 
 4063.087890625 
 20 
 860.648010253906 
 30 
 0 
 11 
 4083.50390625 
 21 
 863.744018554688 
 31 
 0 
 0 
LINE
 10 
 4083.50390625 
 20 
 863.744018554688 
 30 
 0 
 11 
 4101.3759765625 
 21 
 871.016052246094 
 31 
 0 
 0 
LINE
 10 
 4101.3759765625 
 20 
 871.016052246094 
 30 
 0 
 11 
 4120.83203125 
 21 
 884.192016601563 
 31 
 0 
 0 
LINE
 10 
 4120.83203125 
 20 
 884.192016601563 
 30 
 0 
 11 
 4146 
 21 
 905 
 31 
 0 
 0 
LINE
 10 
 4146 
 20 
 905 
 30 
 0 
 11 
 4175.58349609375 
 21 
 929.311950683594 
 31 
 0 
 0 
LINE
 10 
 4175.58349609375 
 20 
 929.311950683594 
 30 
 0 
 11 
 4196.671875 
 21 
 943.736083984375 
 31 
 0 
 0 
LINE
 10 
 4196.671875 
 20 
 943.736083984375 
 30 
 0 
 11 
 4210.3681640625 
 21 
 948.703979492188 
 31 
 0 
 0 
LINE
 10 
 4210.3681640625 
 20 
 948.703979492188 
 30 
 0 
 11 
 4217.77587890625 
 21 
 944.648010253906 
 31 
 0 
 0 
LINE
 10 
 4217.77587890625 
 20 
 944.648010253906 
 30 
 0 
 11 
 4220 
 21 
 932 
 31 
 0 
 0 
LINE
 10 
 4220 
 20 
 932 
 30 
 0 
 11 
 4207.73583984375 
 21 
 909.487976074219 
 31 
 0 
 0 
LINE
 10 
 4207.73583984375 
 20 
 909.487976074219 
 30 
 0 
 11 
 4176.60791015625 
 21 
 882.704040527344 
 31 
 0 
 0 
LINE
 10 
 4176.60791015625 
 20 
 882.704040527344 
 30 
 0 
 11 
 4135.11181640625 
 21 
 856.976013183594 
 31 
 0 
 0 
LINE
 10 
 4135.11181640625 
 20 
 856.976013183594 
 30 
 0 
 11 
 4091.744140625 
 21 
 837.632019042969 
 31 
 0 
 0 
LINE
 10 
 4091.744140625 
 20 
 837.632019042969 
 30 
 0 
 11 
 4055 
 21 
 830 
 31 
 0 
 0 
LINE
 10 
 4055 
 20 
 830 
 30 
 0 
 11 
 4038.26391601563 
 21 
 827.888000488281 
 31 
 0 
 0 
LINE
 10 
 4038.26391601563 
 20 
 827.888000488281 
 30 
 0 
 11 
 4027.912109375 
 21 
 822.223999023438 
 31 
 0 
 0 
LINE
 10 
 4027.912109375 
 20 
 822.223999023438 
 30 
 0 
 11 
 4024.328125 
 21 
 814.015991210938 
 31 
 0 
 0 
LINE
 10 
 4024.328125 
 20 
 814.015991210938 
 30 
 0 
 11 
 4027.89599609375 
 21 
 804.272033691406 
 31 
 0 
 0 
LINE
 10 
 4027.89599609375 
 20 
 804.272033691406 
 30 
 0 
 11 
 4039 
 21 
 794 
 31 
 0 
 0 
LINE
 10 
 4039 
 20 
 794 
 30 
 0 
 11 
 4050.98364257813 
 21 
 780.335998535156 
 31 
 0 
 0 
LINE
 10 
 4050.98364257813 
 20 
 780.335998535156 
 30 
 0 
 11 
 4058.07202148438 
 21 
 760.288024902344 
 31 
 0 
 0 
LINE
 10 
 4058.07202148438 
 20 
 760.288024902344 
 30 
 0 
 11 
 4060.16796875 
 21 
 734.671997070313 
 31 
 0 
 0 
LINE
 10 
 4060.16796875 
 20 
 734.671997070313 
 30 
 0 
 11 
 4057.17602539063 
 21 
 704.304016113281 
 31 
 0 
 0 
LINE
 10 
 4057.17602539063 
 20 
 704.304016113281 
 30 
 0 
 11 
 4049 
 21 
 670 
 31 
 0 
 0 
LINE
 10 
 4049 
 20 
 670 
 30 
 0 
 11 
 4044 
 21 
 632.976013183594 
 31 
 0 
 0 
LINE
 10 
 4044 
 20 
 632.976013183594 
 30 
 0 
 11 
 4046.19995117188 
 21 
 586.447998046875 
 31 
 0 
 0 
LINE
 10 
 4046.19995117188 
 20 
 586.447998046875 
 30 
 0 
 11 
 4054.39990234375 
 21 
 537.231994628906 
 31 
 0 
 0 
LINE
 10 
 4054.39990234375 
 20 
 537.231994628906 
 30 
 0 
 11 
 4067.40014648438 
 21 
 492.144012451172 
 31 
 0 
 0 
LINE
 10 
 4067.40014648438 
 20 
 492.144012451172 
 30 
 0 
 11 
 4084 
 21 
 458 
 31 
 0 
 0 
LINE
 10 
 4084 
 20 
 458 
 30 
 0 
 11 
 4094.7998046875 
 21 
 443.06396484375 
 31 
 0 
 0 
LINE
 10 
 4094.7998046875 
 20 
 443.06396484375 
 30 
 0 
 11 
 4104.64013671875 
 21 
 433.552001953125 
 31 
 0 
 0 
LINE
 10 
 4104.64013671875 
 20 
 433.552001953125 
 30 
 0 
 11 
 4115.68017578125 
 21 
 428.407989501953 
 31 
 0 
 0 
LINE
 10 
 4115.68017578125 
 20 
 428.407989501953 
 30 
 0 
 11 
 4130.080078125 
 21 
 426.576019287109 
 31 
 0 
 0 
LINE
 10 
 4130.080078125 
 20 
 426.576019287109 
 30 
 0 
 11 
 4150 
 21 
 427 
 31 
 0 
 0 
LINE
 10 
 4150 
 20 
 427 
 30 
 0 
 11 
 4169.56787109375 
 21 
 426.095977783203 
 31 
 0 
 0 
LINE
 10 
 4169.56787109375 
 20 
 426.095977783203 
 30 
 0 
 11 
 4196.86376953125 
 21 
 422.408020019531 
 31 
 0 
 0 
LINE
 10 
 4196.86376953125 
 20 
 422.408020019531 
 30 
 0 
 11 
 4229.77587890625 
 21 
 416.272003173828 
 31 
 0 
 0 
LINE
 10 
 4229.77587890625 
 20 
 416.272003173828 
 30 
 0 
 11 
 4266.19189453125 
 21 
 408.024017333984 
 31 
 0 
 0 
LINE
 10 
 4266.19189453125 
 20 
 408.024017333984 
 30 
 0 
 11 
 4304 
 21 
 398 
 31 
 0 
 0 
LINE
 10 
 4304 
 20 
 398 
 30 
 0 
 11 
 4358.86376953125 
 21 
 382.767974853516 
 31 
 0 
 0 
LINE
 10 
 4358.86376953125 
 20 
 382.767974853516 
 30 
 0 
 11 
 4403.7919921875 
 21 
 373.344024658203 
 31 
 0 
 0 
LINE
 10 
 4403.7919921875 
 20 
 373.344024658203 
 30 
 0 
 11 
 4451.88818359375 
 21 
 368.335998535156 
 31 
 0 
 0 
LINE
 10 
 4451.88818359375 
 20 
 368.335998535156 
 30 
 0 
 11 
 4516.25634765625 
 21 
 366.351989746094 
 31 
 0 
 0 
LINE
 10 
 4516.25634765625 
 20 
 366.351989746094 
 30 
 0 
 11 
 4610 
 21 
 366 
 31 
 0 
 0 
LINE
 10 
 4610 
 20 
 366 
 30 
 0 
 11 
 4690.6162109375 
 21 
 365.919982910156 
 31 
 0 
 0 
LINE
 10 
 4690.6162109375 
 20 
 365.919982910156 
 30 
 0 
 11 
 4749.248046875 
 21 
 367.040008544922 
 31 
 0 
 0 
LINE
 10 
 4749.248046875 
 20 
 367.040008544922 
 30 
 0 
 11 
 4790.07177734375 
 21 
 369.600006103516 
 31 
 0 
 0 
LINE
 10 
 4790.07177734375 
 20 
 369.600006103516 
 30 
 0 
 11 
 4817.26416015625 
 21 
 373.839996337891 
 31 
 0 
 0 
LINE
 10 
 4817.26416015625 
 20 
 373.839996337891 
 30 
 0 
 11 
 4835 
 21 
 380 
 31 
 0 
 0 
LINE
 10 
 4835 
 20 
 380 
 30 
 0 
 11 
 4844.64794921875 
 21 
 385.415985107422 
 31 
 0 
 0 
LINE
 10 
 4844.64794921875 
 20 
 385.415985107422 
 30 
 0 
 11 
 4852.90380859375 
 21 
 391.648010253906 
 31 
 0 
 0 
LINE
 10 
 4852.90380859375 
 20 
 391.648010253906 
 30 
 0 
 11 
 4859.33642578125 
 21 
 398.071990966797 
 31 
 0 
 0 
LINE
 10 
 4859.33642578125 
 20 
 398.071990966797 
 30 
 0 
 11 
 4863.51220703125 
 21 
 404.064025878906 
 31 
 0 
 0 
LINE
 10 
 4863.51220703125 
 20 
 404.064025878906 
 30 
 0 
 11 
 4865 
 21 
 409 
 31 
 0 
 0 
LINE
 10 
 4865 
 20 
 409 
 30 
 0 
 11 
 4859.40771484375 
 21 
 420.175994873047 
 31 
 0 
 0 
LINE
 10 
 4859.40771484375 
 20 
 420.175994873047 
 30 
 0 
 11 
 4840.423828125 
 21 
 429.048004150391 
 31 
 0 
 0 
LINE
 10 
 4840.423828125 
 20 
 429.048004150391 
 30 
 0 
 11 
 4804.73583984375 
 21 
 436.432006835938 
 31 
 0 
 0 
LINE
 10 
 4804.73583984375 
 20 
 436.432006835938 
 30 
 0 
 11 
 4749.0322265625 
 21 
 443.144012451172 
 31 
 0 
 0 
LINE
 10 
 4749.0322265625 
 20 
 443.144012451172 
 30 
 0 
 11 
 4670 
 21 
 450 
 31 
 0 
 0 
LINE
 10 
 4670 
 20 
 450 
 30 
 0 
 11 
 4550.27197265625 
 21 
 461.927978515625 
 31 
 0 
 0 
LINE
 10 
 4550.27197265625 
 20 
 461.927978515625 
 30 
 0 
 11 
 4462.65625 
 21 
 477.264007568359 
 31 
 0 
 0 
LINE
 10 
 4462.65625 
 20 
 477.264007568359 
 30 
 0 
 11 
 4402.30419921875 
 21 
 497.736022949219 
 31 
 0 
 0 
LINE
 10 
 4402.30419921875 
 20 
 497.736022949219 
 30 
 0 
 11 
 4364.3681640625 
 21 
 525.072021484375 
 31 
 0 
 0 
LINE
 10 
 4364.3681640625 
 20 
 525.072021484375 
 30 
 0 
 11 
 4344 
 21 
 561 
 31 
 0 
 0 
LINE
 10 
 4344 
 20 
 561 
 30 
 0 
 11 
 4338.263671875 
 21 
 574.512023925781 
 31 
 0 
 0 
LINE
 10 
 4338.263671875 
 20 
 574.512023925781 
 30 
 0 
 11 
 4331.47216796875 
 21 
 585.335998535156 
 31 
 0 
 0 
LINE
 10 
 4331.47216796875 
 20 
 585.335998535156 
 30 
 0 
 11 
 4323.0478515625 
 21 
 593.903991699219 
 31 
 0 
 0 
LINE
 10 
 4323.0478515625 
 20 
 593.903991699219 
 30 
 0 
 11 
 4312.416015625 
 21 
 600.648010253906 
 31 
 0 
 0 
LINE
 10 
 4312.416015625 
 20 
 600.648010253906 
 30 
 0 
 11 
 4299 
 21 
 606 
 31 
 0 
 0 
LINE
 10 
 4299 
 20 
 606 
 30 
 0 
 11 
 4275.95166015625 
 21 
 617.807983398438 
 31 
 0 
 0 
LINE
 10 
 4275.95166015625 
 20 
 617.807983398438 
 30 
 0 
 11 
 4257.65625 
 21 
 635.664001464844 
 31 
 0 
 0 
LINE
 10 
 4257.65625 
 20 
 635.664001464844 
 30 
 0 
 11 
 4244.7841796875 
 21 
 658.416015625 
 31 
 0 
 0 
LINE
 10 
 4244.7841796875 
 20 
 658.416015625 
 30 
 0 
 11 
 4238.00830078125 
 21 
 684.911987304688 
 31 
 0 
 0 
LINE
 10 
 4238.00830078125 
 20 
 684.911987304688 
 30 
 0 
 11 
 4238 
 21 
 714 
 31 
 0 
 0 
LINE
 10 
 4238 
 20 
 714 
 30 
 0 
 11 
 4240.8642578125 
 21 
 730.416015625 
 31 
 0 
 0 
LINE
 10 
 4240.8642578125 
 20 
 730.416015625 
 30 
 0 
 11 
 4246.03173828125 
 21 
 742.608032226563 
 31 
 0 
 0 
LINE
 10 
 4246.03173828125 
 20 
 742.608032226563 
 30 
 0 
 11 
 4255.56787109375 
 21 
 752.591979980469 
 31 
 0 
 0 
LINE
 10 
 4255.56787109375 
 20 
 752.591979980469 
 30 
 0 
 11 
 4271.5361328125 
 21 
 762.384033203125 
 31 
 0 
 0 
LINE
 10 
 4271.5361328125 
 20 
 762.384033203125 
 30 
 0 
 11 
 4296 
 21 
 774 
 31 
 0 
 0 
LINE
 10 
 4296 
 20 
 774 
 30 
 0 
 11 
 4345.9599609375 
 21 
 794.279968261719 
 31 
 0 
 0 
LINE
 10 
 4345.9599609375 
 20 
 794.279968261719 
 30 
 0 
 11 
 4388.47998046875 
 21 
 804.720031738281 
 31 
 0 
 0 
LINE
 10 
 4388.47998046875 
 20 
 804.720031738281 
 30 
 0 
 11 
 4428.1201171875 
 21 
 805.320007324219 
 31 
 0 
 0 
LINE
 10 
 4428.1201171875 
 20 
 805.320007324219 
 30 
 0 
 11 
 4469.4404296875 
 21 
 796.080017089844 
 31 
 0 
 0 
LINE
 10 
 4469.4404296875 
 20 
 796.080017089844 
 30 
 0 
 11 
 4517 
 21 
 777 
 31 
 0 
 0 
LINE
 10 
 4517 
 20 
 777 
 30 
 0 
 11 
 4534.16796875 
 21 
 764.664001464844 
 31 
 0 
 0 
LINE
 10 
 4534.16796875 
 20 
 764.664001464844 
 30 
 0 
 11 
 4567.7041015625 
 21 
 736.871948242188 
 31 
 0 
 0 
LINE
 10 
 4567.7041015625 
 20 
 736.871948242188 
 30 
 0 
 11 
 4614.05615234375 
 21 
 696.648010253906 
 31 
 0 
 0 
LINE
 10 
 4614.05615234375 
 20 
 696.648010253906 
 30 
 0 
 11 
 4669.671875 
 21 
 647.016052246094 
 31 
 0 
 0 
LINE
 10 
 4669.671875 
 20 
 647.016052246094 
 30 
 0 
 11 
 4731 
 21 
 591 
 31 
 0 
 0 
LINE
 10 
 4731 
 20 
 591 
 30 
 0 
 11 
 4824.11181640625 
 21 
 505.936004638672 
 31 
 0 
 0 
LINE
 10 
 4824.11181640625 
 20 
 505.936004638672 
 30 
 0 
 11 
 4887.896484375 
 21 
 449.287994384766 
 31 
 0 
 0 
LINE
 10 
 4887.896484375 
 20 
 449.287994384766 
 30 
 0 
 11 
 4930.22412109375 
 21 
 414.671997070313 
 31 
 0 
 0 
LINE
 10 
 4930.22412109375 
 20 
 414.671997070313 
 30 
 0 
 11 
 4958.96826171875 
 21 
 395.704010009766 
 31 
 0 
 0 
LINE
 10 
 4958.96826171875 
 20 
 395.704010009766 
 30 
 0 
 11 
 4982 
 21 
 386 
 31 
 0 
 0 
LINE
 10 
 4982 
 20 
 386 
 30 
 0 
 11 
 4990.18408203125 
 21 
 380.231964111328 
 31 
 0 
 0 
LINE
 10 
 4990.18408203125 
 20 
 380.231964111328 
 30 
 0 
 11 
 5003.07177734375 
 21 
 367.456024169922 
 31 
 0 
 0 
LINE
 10 
 5003.07177734375 
 20 
 367.456024169922 
 30 
 0 
 11 
 5019.3681640625 
 21 
 349.063995361328 
 31 
 0 
 0 
LINE
 10 
 5019.3681640625 
 20 
 349.063995361328 
 30 
 0 
 11 
 5037.7763671875 
 21 
 326.447998046875 
 31 
 0 
 0 
LINE
 10 
 5037.7763671875 
 20 
 326.447998046875 
 30 
 0 
 11 
 5057 
 21 
 301 
 31 
 0 
 0 
LINE
 10 
 5057 
 20 
 301 
 30 
 0 
 11 
 5088.43994140625 
 21 
 260.023986816406 
 31 
 0 
 0 
LINE
 10 
 5088.43994140625 
 20 
 260.023986816406 
 30 
 0 
 11 
 5113.400390625 
 21 
 232.63200378418 
 31 
 0 
 0 
LINE
 10 
 5113.400390625 
 20 
 232.63200378418 
 30 
 0 
 11 
 5130.43994140625 
 21 
 219.928009033203 
 31 
 0 
 0 
LINE
 10 
 5130.43994140625 
 20 
 219.928009033203 
 30 
 0 
 11 
 5138.1201171875 
 21 
 223.016006469727 
 31 
 0 
 0 
LINE
 10 
 5138.1201171875 
 20 
 223.016006469727 
 30 
 0 
 11 
 5135 
 21 
 243 
 31 
 0 
 0 
LINE
 10 
 5135 
 20 
 243 
 30 
 0 
 11 
 5132.88818359375 
 21 
 251.143997192383 
 31 
 0 
 0 
LINE
 10 
 5132.88818359375 
 20 
 251.143997192383 
 30 
 0 
 11 
 5130.34423828125 
 21 
 260.631988525391 
 31 
 0 
 0 
LINE
 10 
 5130.34423828125 
 20 
 260.631988525391 
 30 
 0 
 11 
 5127.65576171875 
 21 
 270.648010253906 
 31 
 0 
 0 
LINE
 10 
 5127.65576171875 
 20 
 270.648010253906 
 30 
 0 
 11 
 5125.1123046875 
 21 
 280.376007080078 
 31 
 0 
 0 
LINE
 10 
 5125.1123046875 
 20 
 280.376007080078 
 30 
 0 
 11 
 5123 
 21 
 289 
 31 
 0 
 0 
LINE
 10 
 5123 
 20 
 289 
 30 
 0 
 11 
 5107.912109375 
 21 
 320.215972900391 
 31 
 0 
 0 
LINE
 10 
 5107.912109375 
 20 
 320.215972900391 
 30 
 0 
 11 
 5076.45654296875 
 21 
 365.688018798828 
 31 
 0 
 0 
LINE
 10 
 5076.45654296875 
 20 
 365.688018798828 
 30 
 0 
 11 
 5033.14404296875 
 21 
 419.752014160156 
 31 
 0 
 0 
LINE
 10 
 5033.14404296875 
 20 
 419.752014160156 
 30 
 0 
 11 
 4982.48828125 
 21 
 476.744018554688 
 31 
 0 
 0 
LINE
 10 
 4982.48828125 
 20 
 476.744018554688 
 30 
 0 
 11 
 4929 
 21 
 531 
 31 
 0 
 0 
LINE
 10 
 4929 
 20 
 531 
 30 
 0 
 11 
 4904.271484375 
 21 
 555.935974121094 
 31 
 0 
 0 
LINE
 10 
 4904.271484375 
 20 
 555.935974121094 
 30 
 0 
 11 
 4882.6162109375 
 21 
 579.287963867188 
 31 
 0 
 0 
LINE
 10 
 4882.6162109375 
 20 
 579.287963867188 
 30 
 0 
 11 
 4865.42431640625 
 21 
 599.471984863281 
 31 
 0 
 0 
LINE
 10 
 4865.42431640625 
 20 
 599.471984863281 
 30 
 0 
 11 
 4854.087890625 
 21 
 614.903991699219 
 31 
 0 
 0 
LINE
 10 
 4854.087890625 
 20 
 614.903991699219 
 30 
 0 
 11 
 4850 
 21 
 624 
 31 
 0 
 0 
LINE
 10 
 4850 
 20 
 624 
 30 
 0 
 11 
 4848.17578125 
 21 
 630.815979003906 
 31 
 0 
 0 
LINE
 10 
 4848.17578125 
 20 
 630.815979003906 
 30 
 0 
 11 
 4843.08837890625 
 21 
 639.888000488281 
 31 
 0 
 0 
LINE
 10 
 4843.08837890625 
 20 
 639.888000488281 
 30 
 0 
 11 
 4835.31201171875 
 21 
 650.35205078125 
 31 
 0 
 0 
LINE
 10 
 4835.31201171875 
 20 
 650.35205078125 
 30 
 0 
 11 
 4825.42431640625 
 21 
 661.343994140625 
 31 
 0 
 0 
LINE
 10 
 4825.42431640625 
 20 
 661.343994140625 
 30 
 0 
 11 
 4814 
 21 
 672 
 31 
 0 
 0 
LINE
 10 
 4814 
 20 
 672 
 30 
 0 
 11 
 4791.0078125 
 21 
 695.320007324219 
 31 
 0 
 0 
LINE
 10 
 4791.0078125 
 20 
 695.320007324219 
 30 
 0 
 11 
 4771.42431640625 
 21 
 721.760009765625 
 31 
 0 
 0 
LINE
 10 
 4771.42431640625 
 20 
 721.760009765625 
 30 
 0 
 11 
 4755.5361328125 
 21 
 750.840026855469 
 31 
 0 
 0 
LINE
 10 
 4755.5361328125 
 20 
 750.840026855469 
 30 
 0 
 11 
 4743.63232421875 
 21 
 782.080017089844 
 31 
 0 
 0 
LINE
 10 
 4743.63232421875 
 20 
 782.080017089844 
 30 
 0 
 11 
 4736 
 21 
 815 
 31 
 0 
 0 
LINE
 10 
 4736 
 20 
 815 
 30 
 0 
 11 
 4729 
 21 
 855 
 31 
 0 
 0 
LINE
 10 
 4729 
 20 
 855 
 30 
 0 
 11 
 4792 
 21 
 878 
 31 
 0 
 0 
LINE
 10 
 4792 
 20 
 878 
 30 
 0 
 11 
 4834.44775390625 
 21 
 892.160034179688 
 31 
 0 
 0 
LINE
 10 
 4834.44775390625 
 20 
 892.160034179688 
 30 
 0 
 11 
 4861.34423828125 
 21 
 898.640014648438 
 31 
 0 
 0 
LINE
 10 
 4861.34423828125 
 20 
 898.640014648438 
 30 
 0 
 11 
 4873.2158203125 
 21 
 897.440002441406 
 31 
 0 
 0 
LINE
 10 
 4873.2158203125 
 20 
 897.440002441406 
 30 
 0 
 11 
 4870.59228515625 
 21 
 888.56005859375 
 31 
 0 
 0 
LINE
 10 
 4870.59228515625 
 20 
 888.56005859375 
 30 
 0 
 11 
 4854 
 21 
 872 
 31 
 0 
 0 
LINE
 10 
 4854 
 20 
 872 
 30 
 0 
 11 
 4843.912109375 
 21 
 862.623962402344 
 31 
 0 
 0 
LINE
 10 
 4843.912109375 
 20 
 862.623962402344 
 30 
 0 
 11 
 4834.49609375 
 21 
 852.911987304688 
 31 
 0 
 0 
LINE
 10 
 4834.49609375 
 20 
 852.911987304688 
 30 
 0 
 11 
 4826.423828125 
 21 
 843.488037109375 
 31 
 0 
 0 
LINE
 10 
 4826.423828125 
 20 
 843.488037109375 
 30 
 0 
 11 
 4820.3681640625 
 21 
 834.976013183594 
 31 
 0 
 0 
LINE
 10 
 4820.3681640625 
 20 
 834.976013183594 
 30 
 0 
 11 
 4817 
 21 
 828 
 31 
 0 
 0 
LINE
 10 
 4817 
 20 
 828 
 30 
 0 
 11 
 4816.49560546875 
 21 
 813.407958984375 
 31 
 0 
 0 
LINE
 10 
 4816.49560546875 
 20 
 813.407958984375 
 30 
 0 
 11 
 4824.72802734375 
 21 
 800.304016113281 
 31 
 0 
 0 
LINE
 10 
 4824.72802734375 
 20 
 800.304016113281 
 30 
 0 
 11 
 4840.11181640625 
 21 
 789.696044921875 
 31 
 0 
 0 
LINE
 10 
 4840.11181640625 
 20 
 789.696044921875 
 30 
 0 
 11 
 4861.06396484375 
 21 
 782.592041015625 
 31 
 0 
 0 
LINE
 10 
 4861.06396484375 
 20 
 782.592041015625 
 30 
 0 
 11 
 4886 
 21 
 780 
 31 
 0 
 0 
LINE
 10 
 4886 
 20 
 780 
 30 
 0 
 11 
 4902.36767578125 
 21 
 778.968017578125 
 31 
 0 
 0 
LINE
 10 
 4902.36767578125 
 20 
 778.968017578125 
 30 
 0 
 11 
 4917.34375 
 21 
 775.583984375 
 31 
 0 
 0 
LINE
 10 
 4917.34375 
 20 
 775.583984375 
 30 
 0 
 11 
 4931.93603515625 
 21 
 769.415954589844 
 31 
 0 
 0 
LINE
 10 
 4931.93603515625 
 20 
 769.415954589844 
 30 
 0 
 11 
 4947.15234375 
 21 
 760.031982421875 
 31 
 0 
 0 
LINE
 10 
 4947.15234375 
 20 
 760.031982421875 
 30 
 0 
 11 
 4964 
 21 
 747 
 31 
 0 
 0 
LINE
 10 
 4964 
 20 
 747 
 30 
 0 
 11 
 5003 
 21 
 714 
 31 
 0 
 0 
LINE
 10 
 5003 
 20 
 714 
 30 
 0 
 11 
 4954 
 21 
 700 
 31 
 0 
 0 
LINE
 10 
 4954 
 20 
 700 
 30 
 0 
 11 
 4924.359375 
 21 
 691.415893554688 
 31 
 0 
 0 
LINE
 10 
 4924.359375 
 20 
 691.415893554688 
 30 
 0 
 11 
 4904.56005859375 
 21 
 683.408020019531 
 31 
 0 
 0 
LINE
 10 
 4904.56005859375 
 20 
 683.408020019531 
 30 
 0 
 11 
 4893.8798828125 
 21 
 675.591979980469 
 31 
 0 
 0 
LINE
 10 
 4893.8798828125 
 20 
 675.591979980469 
 30 
 0 
 11 
 4891.60009765625 
 21 
 667.583984375 
 31 
 0 
 0 
LINE
 10 
 4891.60009765625 
 20 
 667.583984375 
 30 
 0 
 11 
 4897 
 21 
 659 
 31 
 0 
 0 
LINE
 10 
 4897 
 20 
 659 
 30 
 0 
 11 
 4905.85595703125 
 21 
 655.159912109375 
 31 
 0 
 0 
LINE
 10 
 4905.85595703125 
 20 
 655.159912109375 
 30 
 0 
 11 
 4923.68798828125 
 21 
 653.240051269531 
 31 
 0 
 0 
LINE
 10 
 4923.68798828125 
 20 
 653.240051269531 
 30 
 0 
 11 
 4951.7919921875 
 21 
 653.239990234375 
 31 
 0 
 0 
LINE
 10 
 4951.7919921875 
 20 
 653.239990234375 
 30 
 0 
 11 
 4991.46435546875 
 21 
 655.160034179688 
 31 
 0 
 0 
LINE
 10 
 4991.46435546875 
 20 
 655.160034179688 
 30 
 0 
 11 
 5044 
 21 
 659 
 31 
 0 
 0 
LINE
 10 
 5044 
 20 
 659 
 30 
 0 
 11 
 5180 
 21 
 671 
 31 
 0 
 0 
LINE
 10 
 5180 
 20 
 671 
 30 
 0 
 11 
 5229 
 21 
 634 
 31 
 0 
 0 
LINE
 10 
 5229 
 20 
 634 
 30 
 0 
 11 
 5250.095703125 
 21 
 617.247985839844 
 31 
 0 
 0 
LINE
 10 
 5250.095703125 
 20 
 617.247985839844 
 30 
 0 
 11 
 5265.04833984375 
 21 
 602.943969726563 
 31 
 0 
 0 
LINE
 10 
 5265.04833984375 
 20 
 602.943969726563 
 30 
 0 
 11 
 5275.15185546875 
 21 
 589.216003417969 
 31 
 0 
 0 
LINE
 10 
 5275.15185546875 
 20 
 589.216003417969 
 30 
 0 
 11 
 5281.7041015625 
 21 
 574.192016601563 
 31 
 0 
 0 
LINE
 10 
 5281.7041015625 
 20 
 574.192016601563 
 30 
 0 
 11 
 5286 
 21 
 556 
 31 
 0 
 0 
LINE
 10 
 5286 
 20 
 556 
 30 
 0 
 11 
 5293.599609375 
 21 
 530.455993652344 
 31 
 0 
 0 
LINE
 10 
 5293.599609375 
 20 
 530.455993652344 
 30 
 0 
 11 
 5309.1201171875 
 21 
 504.048034667969 
 31 
 0 
 0 
LINE
 10 
 5309.1201171875 
 20 
 504.048034667969 
 30 
 0 
 11 
 5334.240234375 
 21 
 474.712005615234 
 31 
 0 
 0 
LINE
 10 
 5334.240234375 
 20 
 474.712005615234 
 30 
 0 
 11 
 5370.64013671875 
 21 
 440.384002685547 
 31 
 0 
 0 
LINE
 10 
 5370.64013671875 
 20 
 440.384002685547 
 30 
 0 
 11 
 5420 
 21 
 399 
 31 
 0 
 0 
LINE
 10 
 5420 
 20 
 399 
 30 
 0 
 11 
 5451.02392578125 
 21 
 368.079956054688 
 31 
 0 
 0 
LINE
 10 
 5451.02392578125 
 20 
 368.079956054688 
 30 
 0 
 11 
 5474.2724609375 
 21 
 331.160034179688 
 31 
 0 
 0 
LINE
 10 
 5474.2724609375 
 20 
 331.160034179688 
 30 
 0 
 11 
 5489.408203125 
 21 
 289.199981689453 
 31 
 0 
 0 
LINE
 10 
 5489.408203125 
 20 
 289.199981689453 
 30 
 0 
 11 
 5496.09619140625 
 21 
 243.160003662109 
 31 
 0 
 0 
LINE
 10 
 5496.09619140625 
 20 
 243.160003662109 
 30 
 0 
 11 
 5494 
 21 
 194 
 31 
 0 
 0 
LINE
 10 
 5494 
 20 
 194 
 30 
 0 
 11 
 5491.79150390625 
 21 
 169.927993774414 
 31 
 0 
 0 
LINE
 10 
 5491.79150390625 
 20 
 169.927993774414 
 30 
 0 
 11 
 5491.4560546875 
 21 
 152.864013671875 
 31 
 0 
 0 
LINE
 10 
 5491.4560546875 
 20 
 152.864013671875 
 30 
 0 
 11 
 5493.423828125 
 21 
 140.936004638672 
 31 
 0 
 0 
LINE
 10 
 5493.423828125 
 20 
 140.936004638672 
 30 
 0 
 11 
 5498.1279296875 
 21 
 132.272003173828 
 31 
 0 
 0 
LINE
 10 
 5498.1279296875 
 20 
 132.272003173828 
 30 
 0 
 11 
 5506 
 21 
 125 
 31 
 0 
 0 
LINE
 10 
 5506 
 20 
 125 
 30 
 0 
 11 
 5521.8876953125 
 21 
 115.888000488281 
 31 
 0 
 0 
LINE
 10 
 5521.8876953125 
 20 
 115.888000488281 
 30 
 0 
 11 
 5538.7841796875 
 21 
 111.384002685547 
 31 
 0 
 0 
LINE
 10 
 5538.7841796875 
 20 
 111.384002685547 
 30 
 0 
 11 
 5555.5361328125 
 21 
 111.536003112793 
 31 
 0 
 0 
LINE
 10 
 5555.5361328125 
 20 
 111.536003112793 
 30 
 0 
 11 
 5570.9921875 
 21 
 116.391998291016 
 31 
 0 
 0 
LINE
 10 
 5570.9921875 
 20 
 116.391998291016 
 30 
 0 
 11 
 5584 
 21 
 126 
 31 
 0 
 0 
LINE
 10 
 5584 
 20 
 126 
 30 
 0 
 11 
 5597.2236328125 
 21 
 166.255996704102 
 31 
 0 
 0 
LINE
 10 
 5597.2236328125 
 20 
 166.255996704102 
 30 
 0 
 11 
 5599.55224609375 
 21 
 237.568008422852 
 31 
 0 
 0 
LINE
 10 
 5599.55224609375 
 20 
 237.568008422852 
 30 
 0 
 11 
 5592.56787109375 
 21 
 321.552001953125 
 31 
 0 
 0 
LINE
 10 
 5592.56787109375 
 20 
 321.552001953125 
 30 
 0 
 11 
 5577.8564453125 
 21 
 399.824005126953 
 31 
 0 
 0 
LINE
 10 
 5577.8564453125 
 20 
 399.824005126953 
 30 
 0 
 11 
 5557 
 21 
 454 
 31 
 0 
 0 
LINE
 10 
 5557 
 20 
 454 
 30 
 0 
 11 
 5550.3759765625 
 21 
 462.079956054688 
 31 
 0 
 0 
LINE
 10 
 5550.3759765625 
 20 
 462.079956054688 
 30 
 0 
 11 
 5542.88818359375 
 21 
 469.200012207031 
 31 
 0 
 0 
LINE
 10 
 5542.88818359375 
 20 
 469.200012207031 
 30 
 0 
 11 
 5535.11181640625 
 21 
 474.880004882813 
 31 
 0 
 0 
LINE
 10 
 5535.11181640625 
 20 
 474.880004882813 
 30 
 0 
 11 
 5527.6240234375 
 21 
 478.640014648438 
 31 
 0 
 0 
LINE
 10 
 5527.6240234375 
 20 
 478.640014648438 
 30 
 0 
 11 
 5521 
 21 
 480 
 31 
 0 
 0 
LINE
 10 
 5521 
 20 
 480 
 30 
 0 
 11 
 5507.16015625 
 21 
 481.255981445313 
 31 
 0 
 0 
LINE
 10 
 5507.16015625 
 20 
 481.255981445313 
 30 
 0 
 11 
 5499.080078125 
 21 
 485.248016357422 
 31 
 0 
 0 
LINE
 10 
 5499.080078125 
 20 
 485.248016357422 
 30 
 0 
 11 
 5496.52001953125 
 21 
 492.311981201172 
 31 
 0 
 0 
LINE
 10 
 5496.52001953125 
 20 
 492.311981201172 
 30 
 0 
 11 
 5499.240234375 
 21 
 502.784027099609 
 31 
 0 
 0 
LINE
 10 
 5499.240234375 
 20 
 502.784027099609 
 30 
 0 
 11 
 5507 
 21 
 517 
 31 
 0 
 0 
LINE
 10 
 5507 
 20 
 517 
 30 
 0 
 11 
 5520.02392578125 
 21 
 560.687927246094 
 31 
 0 
 0 
LINE
 10 
 5520.02392578125 
 20 
 560.687927246094 
 30 
 0 
 11 
 5527.67236328125 
 21 
 633.944030761719 
 31 
 0 
 0 
LINE
 10 
 5527.67236328125 
 20 
 633.944030761719 
 30 
 0 
 11 
 5529.6083984375 
 21 
 720.256042480469 
 31 
 0 
 0 
LINE
 10 
 5529.6083984375 
 20 
 720.256042480469 
 30 
 0 
 11 
 5525.49609375 
 21 
 803.111999511719 
 31 
 0 
 0 
LINE
 10 
 5525.49609375 
 20 
 803.111999511719 
 30 
 0 
 11 
 5515 
 21 
 866 
 31 
 0 
 0 
LINE
 10 
 5515 
 20 
 866 
 30 
 0 
 11 
 5495.8798828125 
 21 
 919.495971679688 
 31 
 0 
 0 
LINE
 10 
 5495.8798828125 
 20 
 919.495971679688 
 30 
 0 
 11 
 5468.3603515625 
 21 
 980.76806640625 
 31 
 0 
 0 
LINE
 10 
 5468.3603515625 
 20 
 980.76806640625 
 30 
 0 
 11 
 5435.7998046875 
 21 
 1043.19201660156 
 31 
 0 
 0 
LINE
 10 
 5435.7998046875 
 20 
 1043.19201660156 
 30 
 0 
 11 
 5401.56005859375 
 21 
 1100.14404296875 
 31 
 0 
 0 
LINE
 10 
 5401.56005859375 
 20 
 1100.14404296875 
 30 
 0 
 11 
 5369 
 21 
 1145 
 31 
 0 
 0 
LINE
 10 
 5369 
 20 
 1145 
 30 
 0 
 11 
 5355.03173828125 
 21 
 1163.07995605469 
 31 
 0 
 0 
LINE
 10 
 5355.03173828125 
 20 
 1163.07995605469 
 30 
 0 
 11 
 5340.29638671875 
 21 
 1183.80004882813 
 31 
 0 
 0 
LINE
 10 
 5340.29638671875 
 20 
 1183.80004882813 
 30 
 0 
 11 
 5325.9443359375 
 21 
 1205.47998046875 
 31 
 0 
 0 
LINE
 10 
 5325.9443359375 
 20 
 1205.47998046875 
 30 
 0 
 11 
 5313.1279296875 
 21 
 1226.44006347656 
 31 
 0 
 0 
LINE
 10 
 5313.1279296875 
 20 
 1226.44006347656 
 30 
 0 
 11 
 5303 
 21 
 1245 
 31 
 0 
 0 
LINE
 10 
 5303 
 20 
 1245 
 30 
 0 
 11 
 5294.22412109375 
 21 
 1261.47998046875 
 31 
 0 
 0 
LINE
 10 
 5294.22412109375 
 20 
 1261.47998046875 
 30 
 0 
 11 
 5285.1123046875 
 21 
 1277.71997070313 
 31 
 0 
 0 
LINE
 10 
 5285.1123046875 
 20 
 1277.71997070313 
 30 
 0 
 11 
 5276.2880859375 
 21 
 1292.52001953125 
 31 
 0 
 0 
LINE
 10 
 5276.2880859375 
 20 
 1292.52001953125 
 30 
 0 
 11 
 5268.3759765625 
 21 
 1304.68005371094 
 31 
 0 
 0 
LINE
 10 
 5268.3759765625 
 20 
 1304.68005371094 
 30 
 0 
 11 
 5262 
 21 
 1313 
 31 
 0 
 0 
LINE
 10 
 5262 
 20 
 1313 
 30 
 0 
 11 
 5249.4638671875 
 21 
 1322.55200195313 
 31 
 0 
 0 
LINE
 10 
 5249.4638671875 
 20 
 1322.55200195313 
 30 
 0 
 11 
 5233.9521484375 
 21 
 1328.21606445313 
 31 
 0 
 0 
LINE
 10 
 5233.9521484375 
 20 
 1328.21606445313 
 30 
 0 
 11 
 5218.0078125 
 21 
 1329.7041015625 
 31 
 0 
 0 
LINE
 10 
 5218.0078125 
 20 
 1329.7041015625 
 30 
 0 
 11 
 5204.17626953125 
 21 
 1326.72802734375 
 31 
 0 
 0 
LINE
 10 
 5204.17626953125 
 20 
 1326.72802734375 
 30 
 0 
 11 
 5195 
 21 
 1319 
 31 
 0 
 0 
LINE
 10 
 5195 
 20 
 1319 
 30 
 0 
 11 
 5193.11962890625 
 21 
 1306.30395507813 
 31 
 0 
 0 
LINE
 10 
 5193.11962890625 
 20 
 1306.30395507813 
 30 
 0 
 11 
 5197.48046875 
 21 
 1287.03198242188 
 31 
 0 
 0 
LINE
 10 
 5197.48046875 
 20 
 1287.03198242188 
 30 
 0 
 11 
 5206.8798828125 
 21 
 1264.2080078125 
 31 
 0 
 0 
LINE
 10 
 5206.8798828125 
 20 
 1264.2080078125 
 30 
 0 
 11 
 5220.1201171875 
 21 
 1240.85607910156 
 31 
 0 
 0 
LINE
 10 
 5220.1201171875 
 20 
 1240.85607910156 
 30 
 0 
 11 
 5236 
 21 
 1220 
 31 
 0 
 0 
LINE
 10 
 5236 
 20 
 1220 
 30 
 0 
 11 
 5270.759765625 
 21 
 1175.01599121094 
 31 
 0 
 0 
LINE
 10 
 5270.759765625 
 20 
 1175.01599121094 
 30 
 0 
 11 
 5308.8798828125 
 21 
 1116.44799804688 
 31 
 0 
 0 
LINE
 10 
 5308.8798828125 
 20 
 1116.44799804688 
 30 
 0 
 11 
 5346.52001953125 
 21 
 1050.87194824219 
 31 
 0 
 0 
LINE
 10 
 5346.52001953125 
 20 
 1050.87194824219 
 30 
 0 
 11 
 5379.84033203125 
 21 
 984.864013671875 
 31 
 0 
 0 
LINE
 10 
 5379.84033203125 
 20 
 984.864013671875 
 30 
 0 
 11 
 5405 
 21 
 925 
 31 
 0 
 0 
LINE
 10 
 5405 
 20 
 925 
 30 
 0 
 11 
 5420.92822265625 
 21 
 878.903991699219 
 31 
 0 
 0 
LINE
 10 
 5420.92822265625 
 20 
 878.903991699219 
 30 
 0 
 11 
 5431.14453125 
 21 
 842.552001953125 
 31 
 0 
 0 
LINE
 10 
 5431.14453125 
 20 
 842.552001953125 
 30 
 0 
 11 
 5436.89599609375 
 21 
 808.648010253906 
 31 
 0 
 0 
LINE
 10 
 5436.89599609375 
 20 
 808.648010253906 
 30 
 0 
 11 
 5439.43212890625 
 21 
 769.89599609375 
 31 
 0 
 0 
LINE
 10 
 5439.43212890625 
 20 
 769.89599609375 
 30 
 0 
 11 
 5440 
 21 
 719 
 31 
 0 
 0 
LINE
 10 
 5440 
 20 
 719 
 30 
 0 
 11 
 5439.5439453125 
 21 
 684.623962402344 
 31 
 0 
 0 
LINE
 10 
 5439.5439453125 
 20 
 684.623962402344 
 30 
 0 
 11 
 5438.27197265625 
 21 
 654.711975097656 
 31 
 0 
 0 
LINE
 10 
 5438.27197265625 
 20 
 654.711975097656 
 30 
 0 
 11 
 5436.328125 
 21 
 631.088012695313 
 31 
 0 
 0 
LINE
 10 
 5436.328125 
 20 
 631.088012695313 
 30 
 0 
 11 
 5433.8564453125 
 21 
 615.575988769531 
 31 
 0 
 0 
LINE
 10 
 5433.8564453125 
 20 
 615.575988769531 
 30 
 0 
 11 
 5431 
 21 
 610 
 31 
 0 
 0 
LINE
 10 
 5431 
 20 
 610 
 30 
 0 
 11 
 5408.79931640625 
 21 
 617.735961914063 
 31 
 0 
 0 
LINE
 10 
 5408.79931640625 
 20 
 617.735961914063 
 30 
 0 
 11 
 5371.00048828125 
 21 
 636.848022460938 
 31 
 0 
 0 
LINE
 10 
 5371.00048828125 
 20 
 636.848022460938 
 30 
 0 
 11 
 5328.39990234375 
 21 
 661.192016601563 
 31 
 0 
 0 
LINE
 10 
 5328.39990234375 
 20 
 661.192016601563 
 30 
 0 
 11 
 5291.7998046875 
 21 
 684.6240234375 
 31 
 0 
 0 
LINE
 10 
 5291.7998046875 
 20 
 684.6240234375 
 30 
 0 
 11 
 5272 
 21 
 701 
 31 
 0 
 0 
LINE
 10 
 5272 
 20 
 701 
 30 
 0 
 11 
 5253.087890625 
 21 
 715.944030761719 
 31 
 0 
 0 
LINE
 10 
 5253.087890625 
 20 
 715.944030761719 
 30 
 0 
 11 
 5221.98388671875 
 21 
 729.591979980469 
 31 
 0 
 0 
LINE
 10 
 5221.98388671875 
 20 
 729.591979980469 
 30 
 0 
 11 
 5184.73583984375 
 21 
 740.168029785156 
 31 
 0 
 0 
LINE
 10 
 5184.73583984375 
 20 
 740.168029785156 
 30 
 0 
 11 
 5147.39208984375 
 21 
 745.89599609375 
 31 
 0 
 0 
LINE
 10 
 5147.39208984375 
 20 
 745.89599609375 
 30 
 0 
 11 
 5116 
 21 
 745 
 31 
 0 
 0 
LINE
 10 
 5116 
 20 
 745 
 30 
 0 
 11 
 5102.1435546875 
 21 
 742.975952148438 
 31 
 0 
 0 
LINE
 10 
 5102.1435546875 
 20 
 742.975952148438 
 30 
 0 
 11 
 5089.15234375 
 21 
 742.968017578125 
 31 
 0 
 0 
LINE
 10 
 5089.15234375 
 20 
 742.968017578125 
 30 
 0 
 11 
 5076.68798828125 
 21 
 745.072021484375 
 31 
 0 
 0 
LINE
 10 
 5076.68798828125 
 20 
 745.072021484375 
 30 
 0 
 11 
 5064.416015625 
 21 
 749.383972167969 
 31 
 0 
 0 
LINE
 10 
 5064.416015625 
 20 
 749.383972167969 
 30 
 0 
 11 
 5052 
 21 
 756 
 31 
 0 
 0 
LINE
 10 
 5052 
 20 
 756 
 30 
 0 
 11 
 5039.17626953125 
 21 
 763.967956542969 
 31 
 0 
 0 
LINE
 10 
 5039.17626953125 
 20 
 763.967956542969 
 30 
 0 
 11 
 5031.48779296875 
 21 
 770.544006347656 
 31 
 0 
 0 
LINE
 10 
 5031.48779296875 
 20 
 770.544006347656 
 30 
 0 
 11 
 5028.31201171875 
 21 
 776.736022949219 
 31 
 0 
 0 
LINE
 10 
 5028.31201171875 
 20 
 776.736022949219 
 30 
 0 
 11 
 5029.02392578125 
 21 
 783.552001953125 
 31 
 0 
 0 
LINE
 10 
 5029.02392578125 
 20 
 783.552001953125 
 30 
 0 
 11 
 5033 
 21 
 792 
 31 
 0 
 0 
LINE
 10 
 5033 
 20 
 792 
 30 
 0 
 11 
 5037.9755859375 
 21 
 804.783996582031 
 31 
 0 
 0 
LINE
 10 
 5037.9755859375 
 20 
 804.783996582031 
 30 
 0 
 11 
 5035.12841796875 
 21 
 815.31201171875 
 31 
 0 
 0 
LINE
 10 
 5035.12841796875 
 20 
 815.31201171875 
 30 
 0 
 11 
 5024.7919921875 
 21 
 823.248046875 
 31 
 0 
 0 
LINE
 10 
 5024.7919921875 
 20 
 823.248046875 
 30 
 0 
 11 
 5007.30419921875 
 21 
 828.255981445313 
 31 
 0 
 0 
LINE
 10 
 5007.30419921875 
 20 
 828.255981445313 
 30 
 0 
 11 
 4983 
 21 
 830 
 31 
 0 
 0 
LINE
 10 
 4983 
 20 
 830 
 30 
 0 
 11 
 4953.70361328125 
 21 
 831.216003417969 
 31 
 0 
 0 
LINE
 10 
 4953.70361328125 
 20 
 831.216003417969 
 30 
 0 
 11 
 4936.55224609375 
 21 
 834.928100585938 
 31 
 0 
 0 
LINE
 10 
 4936.55224609375 
 20 
 834.928100585938 
 30 
 0 
 11 
 4931.4482421875 
 21 
 841.231994628906 
 31 
 0 
 0 
LINE
 10 
 4931.4482421875 
 20 
 841.231994628906 
 30 
 0 
 11 
 4938.2958984375 
 21 
 850.223999023438 
 31 
 0 
 0 
LINE
 10 
 4938.2958984375 
 20 
 850.223999023438 
 30 
 0 
 11 
 4957 
 21 
 862 
 31 
 0 
 0 
LINE
 10 
 4957 
 20 
 862 
 30 
 0 
 11 
 4991.15185546875 
 21 
 882.903930664063 
 31 
 0 
 0 
LINE
 10 
 4991.15185546875 
 20 
 882.903930664063 
 30 
 0 
 11 
 5027.17578125 
 21 
 910.671997070313 
 31 
 0 
 0 
LINE
 10 
 5027.17578125 
 20 
 910.671997070313 
 30 
 0 
 11 
 5059.02392578125 
 21 
 939.688049316406 
 31 
 0 
 0 
LINE
 10 
 5059.02392578125 
 20 
 939.688049316406 
 30 
 0 
 11 
 5080.64794921875 
 21 
 964.335998535156 
 31 
 0 
 0 
LINE
 10 
 5080.64794921875 
 20 
 964.335998535156 
 30 
 0 
 11 
 5086 
 21 
 979 
 31 
 0 
 0 
LINE
 10 
 5086 
 20 
 979 
 30 
 0 
 11 
 5081.8076171875 
 21 
 982.455932617188 
 31 
 0 
 0 
LINE
 10 
 5081.8076171875 
 20 
 982.455932617188 
 30 
 0 
 11 
 5074.5439453125 
 21 
 985.528015136719 
 31 
 0 
 0 
LINE
 10 
 5074.5439453125 
 20 
 985.528015136719 
 30 
 0 
 11 
 5064.97607421875 
 21 
 988.072021484375 
 31 
 0 
 0 
LINE
 10 
 5064.97607421875 
 20 
 988.072021484375 
 30 
 0 
 11 
 5053.8720703125 
 21 
 989.944030761719 
 31 
 0 
 0 
LINE
 10 
 5053.8720703125 
 20 
 989.944030761719 
 30 
 0 
 11 
 5042 
 21 
 991 
 31 
 0 
 0 
LINE
 10 
 5042 
 20 
 991 
 30 
 0 
 11 
 5027.52783203125 
 21 
 991.559997558594 
 31 
 0 
 0 
LINE
 10 
 5027.52783203125 
 20 
 991.559997558594 
 30 
 0 
 11 
 5023.18408203125 
 21 
 993.559997558594 
 31 
 0 
 0 
LINE
 10 
 5023.18408203125 
 20 
 993.559997558594 
 30 
 0 
 11 
 5029.97607421875 
 21 
 997.480041503906 
 31 
 0 
 0 
LINE
 10 
 5029.97607421875 
 20 
 997.480041503906 
 30 
 0 
 11 
 5048.912109375 
 21 
 1003.80004882813 
 31 
 0 
 0 
LINE
 10 
 5048.912109375 
 20 
 1003.80004882813 
 30 
 0 
 11 
 5081 
 21 
 1013 
 31 
 0 
 0 
LINE
 10 
 5081 
 20 
 1013 
 30 
 0 
 11 
 5127.0400390625 
 21 
 1027.72790527344 
 31 
 0 
 0 
LINE
 10 
 5127.0400390625 
 20 
 1027.72790527344 
 30 
 0 
 11 
 5161.80029296875 
 21 
 1041.78393554688 
 31 
 0 
 0 
LINE
 10 
 5161.80029296875 
 20 
 1041.78393554688 
 30 
 0 
 11 
 5185.0400390625 
 21 
 1054.97595214844 
 31 
 0 
 0 
LINE
 10 
 5185.0400390625 
 20 
 1054.97595214844 
 30 
 0 
 11 
 5196.52001953125 
 21 
 1067.11193847656 
 31 
 0 
 0 
LINE
 10 
 5196.52001953125 
 20 
 1067.11193847656 
 30 
 0 
 11 
 5196 
 21 
 1078 
 31 
 0 
 0 
LINE
 10 
 5196 
 20 
 1078 
 30 
 0 
 11 
 5181.3681640625 
 21 
 1087.03198242188 
 31 
 0 
 0 
LINE
 10 
 5181.3681640625 
 20 
 1087.03198242188 
 30 
 0 
 11 
 5150.7041015625 
 21 
 1088.57604980469 
 31 
 0 
 0 
LINE
 10 
 5150.7041015625 
 20 
 1088.57604980469 
 30 
 0 
 11 
 5100.4560546875 
 21 
 1082.10400390625 
 31 
 0 
 0 
LINE
 10 
 5100.4560546875 
 20 
 1082.10400390625 
 30 
 0 
 11 
 5027.072265625 
 21 
 1067.08801269531 
 31 
 0 
 0 
LINE
 10 
 5027.072265625 
 20 
 1067.08801269531 
 30 
 0 
 11 
 4927 
 21 
 1043 
 31 
 0 
 0 
LINE
 10 
 4927 
 20 
 1043 
 30 
 0 
 11 
 4826.73583984375 
 21 
 1018.68798828125 
 31 
 0 
 0 
LINE
 10 
 4826.73583984375 
 20 
 1018.68798828125 
 30 
 0 
 11 
 4764.72802734375 
 21 
 1007.14404296875 
 31 
 0 
 0 
LINE
 10 
 4764.72802734375 
 20 
 1007.14404296875 
 30 
 0 
 11 
 4731.9521484375 
 21 
 1008.65594482422 
 31 
 0 
 0 
LINE
 10 
 4731.9521484375 
 20 
 1008.65594482422 
 30 
 0 
 11 
 4719.38427734375 
 21 
 1023.51202392578 
 31 
 0 
 0 
LINE
 10 
 4719.38427734375 
 20 
 1023.51202392578 
 30 
 0 
 11 
 4718 
 21 
 1052 
 31 
 0 
 0 
LINE
 10 
 4718 
 20 
 1052 
 30 
 0 
 11 
 4719 
 21 
 1095.46398925781 
 31 
 0 
 0 
LINE
 10 
 4719 
 20 
 1095.46398925781 
 30 
 0 
 11 
 4718.080078125 
 21 
 1129.23205566406 
 31 
 0 
 0 
LINE
 10 
 4718.080078125 
 20 
 1129.23205566406 
 30 
 0 
 11 
 4714.759765625 
 21 
 1157.76806640625 
 31 
 0 
 0 
LINE
 10 
 4714.759765625 
 20 
 1157.76806640625 
 30 
 0 
 11 
 4708.56005859375 
 21 
 1185.53601074219 
 31 
 0 
 0 
LINE
 10 
 4708.56005859375 
 20 
 1185.53601074219 
 30 
 0 
 11 
 4699 
 21 
 1217 
 31 
 0 
 0 
LINE
 10 
 4699 
 20 
 1217 
 30 
 0 
 11 
 4692.583984375 
 21 
 1238.2880859375 
 31 
 0 
 0 
LINE
 10 
 4692.583984375 
 20 
 1238.2880859375 
 30 
 0 
 11 
 4686.7919921875 
 21 
 1261.30407714844 
 31 
 0 
 0 
LINE
 10 
 4686.7919921875 
 20 
 1261.30407714844 
 30 
 0 
 11 
 4682.0078125 
 21 
 1284.17602539063 
 31 
 0 
 0 
LINE
 10 
 4682.0078125 
 20 
 1284.17602539063 
 30 
 0 
 11 
 4678.6162109375 
 21 
 1305.03198242188 
 31 
 0 
 0 
LINE
 10 
 4678.6162109375 
 20 
 1305.03198242188 
 30 
 0 
 11 
 4677 
 21 
 1322 
 31 
 0 
 0 
LINE
 10 
 4677 
 20 
 1322 
 30 
 0 
 11 
 4676.46337890625 
 21 
 1340.29602050781 
 31 
 0 
 0 
LINE
 10 
 4676.46337890625 
 20 
 1340.29602050781 
 30 
 0 
 11 
 4677.51220703125 
 21 
 1352.68798828125 
 31 
 0 
 0 
LINE
 10 
 4677.51220703125 
 20 
 1352.68798828125 
 30 
 0 
 11 
 4680.5283203125 
 21 
 1360.23205566406 
 31 
 0 
 0 
LINE
 10 
 4680.5283203125 
 20 
 1360.23205566406 
 30 
 0 
 11 
 4685.89599609375 
 21 
 1363.98400878906 
 31 
 0 
 0 
LINE
 10 
 4685.89599609375 
 20 
 1363.98400878906 
 30 
 0 
 11 
 4694 
 21 
 1365 
 31 
 0 
 0 
LINE
 10 
 4694 
 20 
 1365 
 30 
 0 
 11 
 4701.75146484375 
 21 
 1363.35192871094 
 31 
 0 
 0 
LINE
 10 
 4701.75146484375 
 20 
 1363.35192871094 
 30 
 0 
 11 
 4708.49609375 
 21 
 1358.05603027344 
 31 
 0 
 0 
LINE
 10 
 4708.49609375 
 20 
 1358.05603027344 
 30 
 0 
 11 
 4714.6640625 
 21 
 1348.583984375 
 31 
 0 
 0 
LINE
 10 
 4714.6640625 
 20 
 1348.583984375 
 30 
 0 
 11 
 4720.68798828125 
 21 
 1334.40808105469 
 31 
 0 
 0 
LINE
 10 
 4720.68798828125 
 20 
 1334.40808105469 
 30 
 0 
 11 
 4727 
 21 
 1315 
 31 
 0 
 0 
LINE
 10 
 4727 
 20 
 1315 
 30 
 0 
 11 
 4742.912109375 
 21 
 1263.06396484375 
 31 
 0 
 0 
LINE
 10 
 4742.912109375 
 20 
 1263.06396484375 
 30 
 0 
 11 
 4756.61572265625 
 21 
 1224.23205566406 
 31 
 0 
 0 
LINE
 10 
 4756.61572265625 
 20 
 1224.23205566406 
 30 
 0 
 11 
 4769.26416015625 
 21 
 1195.76806640625 
 31 
 0 
 0 
LINE
 10 
 4769.26416015625 
 20 
 1195.76806640625 
 30 
 0 
 11 
 4782.00830078125 
 21 
 1174.93603515625 
 31 
 0 
 0 
LINE
 10 
 4782.00830078125 
 20 
 1174.93603515625 
 30 
 0 
 11 
 4796 
 21 
 1159 
 31 
 0 
 0 
LINE
 10 
 4796 
 20 
 1159 
 30 
 0 
 11 
 4805.61572265625 
 21 
 1150.82397460938 
 31 
 0 
 0 
LINE
 10 
 4805.61572265625 
 20 
 1150.82397460938 
 30 
 0 
 11 
 4814.1279296875 
 21 
 1145.43200683594 
 31 
 0 
 0 
LINE
 10 
 4814.1279296875 
 20 
 1145.43200683594 
 30 
 0 
 11 
 4821.63232421875 
 21 
 1142.72802734375 
 31 
 0 
 0 
LINE
 10 
 4821.63232421875 
 20 
 1142.72802734375 
 30 
 0 
 11 
 4828.22412109375 
 21 
 1142.61596679688 
 31 
 0 
 0 
LINE
 10 
 4828.22412109375 
 20 
 1142.61596679688 
 30 
 0 
 11 
 4834 
 21 
 1145 
 31 
 0 
 0 
LINE
 10 
 4834 
 20 
 1145 
 30 
 0 
 11 
 4868.07958984375 
 21 
 1169.42395019531 
 31 
 0 
 0 
LINE
 10 
 4868.07958984375 
 20 
 1169.42395019531 
 30 
 0 
 11 
 4903.83984375 
 21 
 1192.07202148438 
 31 
 0 
 0 
LINE
 10 
 4903.83984375 
 20 
 1192.07202148438 
 30 
 0 
 11 
 4940.56005859375 
 21 
 1212.60803222656 
 31 
 0 
 0 
LINE
 10 
 4940.56005859375 
 20 
 1212.60803222656 
 30 
 0 
 11 
 4977.52001953125 
 21 
 1230.69604492188 
 31 
 0 
 0 
LINE
 10 
 4977.52001953125 
 20 
 1230.69604492188 
 30 
 0 
 11 
 5014 
 21 
 1246 
 31 
 0 
 0 
LINE
 10 
 5014 
 20 
 1246 
 30 
 0 
 11 
 5058.95947265625 
 21 
 1264.96008300781 
 31 
 0 
 0 
LINE
 10 
 5058.95947265625 
 20 
 1264.96008300781 
 30 
 0 
 11 
 5094.3203125 
 21 
 1283.19995117188 
 31 
 0 
 0 
LINE
 10 
 5094.3203125 
 20 
 1283.19995117188 
 30 
 0 
 11 
 5122 
 21 
 1302.16003417969 
 31 
 0 
 0 
LINE
 10 
 5122 
 20 
 1302.16003417969 
 30 
 0 
 11 
 5143.92041015625 
 21 
 1323.28002929688 
 31 
 0 
 0 
LINE
 10 
 5143.92041015625 
 20 
 1323.28002929688 
 30 
 0 
 11 
 5162 
 21 
 1348 
 31 
 0 
 0 
LINE
 10 
 5162 
 20 
 1348 
 30 
 0 
 11 
 5170.93603515625 
 21 
 1363.88793945313 
 31 
 0 
 0 
LINE
 10 
 5170.93603515625 
 20 
 1363.88793945313 
 30 
 0 
 11 
 5176.3681640625 
 21 
 1378.38403320313 
 31 
 0 
 0 
LINE
 10 
 5176.3681640625 
 20 
 1378.38403320313 
 30 
 0 
 11 
 5178.63232421875 
 21 
 1393.93603515625 
 31 
 0 
 0 
LINE
 10 
 5178.63232421875 
 20 
 1393.93603515625 
 30 
 0 
 11 
 5178.064453125 
 21 
 1412.99194335938 
 31 
 0 
 0 
LINE
 10 
 5178.064453125 
 20 
 1412.99194335938 
 30 
 0 
 11 
 5175 
 21 
 1438 
 31 
 0 
 0 
LINE
 10 
 5175 
 20 
 1438 
 30 
 0 
 11 
 5168.49609375 
 21 
 1493.2958984375 
 31 
 0 
 0 
LINE
 10 
 5168.49609375 
 20 
 1493.2958984375 
 30 
 0 
 11 
 5166.16845703125 
 21 
 1529.96801757813 
 31 
 0 
 0 
LINE
 10 
 5166.16845703125 
 20 
 1529.96801757813 
 30 
 0 
 11 
 5168.59228515625 
 21 
 1552.19201660156 
 31 
 0 
 0 
LINE
 10 
 5168.59228515625 
 20 
 1552.19201660156 
 30 
 0 
 11 
 5176.34423828125 
 21 
 1564.14404296875 
 31 
 0 
 0 
LINE
 10 
 5176.34423828125 
 20 
 1564.14404296875 
 30 
 0 
 11 
 5190 
 21 
 1570 
 31 
 0 
 0 
LINE
 10 
 5190 
 20 
 1570 
 30 
 0 
 11 
 5201.05615234375 
 21 
 1573.47998046875 
 31 
 0 
 0 
LINE
 10 
 5201.05615234375 
 20 
 1573.47998046875 
 30 
 0 
 11 
 5208.3681640625 
 21 
 1578.88000488281 
 31 
 0 
 0 
LINE
 10 
 5208.3681640625 
 20 
 1578.88000488281 
 30 
 0 
 11 
 5212.751953125 
 21 
 1587.64001464844 
 31 
 0 
 0 
LINE
 10 
 5212.751953125 
 20 
 1587.64001464844 
 30 
 0 
 11 
 5215.02392578125 
 21 
 1601.20007324219 
 31 
 0 
 0 
LINE
 10 
 5215.02392578125 
 20 
 1601.20007324219 
 30 
 0 
 11 
 5216 
 21 
 1621 
 31 
 0 
 0 
LINE
 10 
 5216 
 20 
 1621 
 30 
 0 
 11 
 5219.05615234375 
 21 
 1650.94396972656 
 31 
 0 
 0 
LINE
 10 
 5219.05615234375 
 20 
 1650.94396972656 
 30 
 0 
 11 
 5227.24853515625 
 21 
 1680.31213378906 
 31 
 0 
 0 
LINE
 10 
 5227.24853515625 
 20 
 1680.31213378906 
 30 
 0 
 11 
 5240.91162109375 
 21 
 1710.20812988281 
 31 
 0 
 0 
LINE
 10 
 5240.91162109375 
 20 
 1710.20812988281 
 30 
 0 
 11 
 5260.3837890625 
 21 
 1741.73608398438 
 31 
 0 
 0 
LINE
 10 
 5260.3837890625 
 20 
 1741.73608398438 
 30 
 0 
 11 
 5286 
 21 
 1776 
 31 
 0 
 0 
LINE
 10 
 5286 
 20 
 1776 
 30 
 0 
 11 
 5296.83203125 
 21 
 1789.65588378906 
 31 
 0 
 0 
LINE
 10 
 5296.83203125 
 20 
 1789.65588378906 
 30 
 0 
 11 
 5306.17626953125 
 21 
 1802.44812011719 
 31 
 0 
 0 
LINE
 10 
 5306.17626953125 
 20 
 1802.44812011719 
 30 
 0 
 11 
 5313.50390625 
 21 
 1813.51208496094 
 31 
 0 
 0 
LINE
 10 
 5313.50390625 
 20 
 1813.51208496094 
 30 
 0 
 11 
 5318.2880859375 
 21 
 1821.98400878906 
 31 
 0 
 0 
LINE
 10 
 5318.2880859375 
 20 
 1821.98400878906 
 30 
 0 
 11 
 5320 
 21 
 1827 
 31 
 0 
 0 
LINE
 10 
 5320 
 20 
 1827 
 30 
 0 
 11 
 5317.7197265625 
 21 
 1832.50390625 
 31 
 0 
 0 
LINE
 10 
 5317.7197265625 
 20 
 1832.50390625 
 30 
 0 
 11 
 5311.3603515625 
 21 
 1841.27209472656 
 31 
 0 
 0 
LINE
 10 
 5311.3603515625 
 20 
 1841.27209472656 
 30 
 0 
 11 
 5301.6396484375 
 21 
 1852.48803710938 
 31 
 0 
 0 
LINE
 10 
 5301.6396484375 
 20 
 1852.48803710938 
 30 
 0 
 11 
 5289.2802734375 
 21 
 1865.33605957031 
 31 
 0 
 0 
LINE
 10 
 5289.2802734375 
 20 
 1865.33605957031 
 30 
 0 
 11 
 5275 
 21 
 1879 
 31 
 0 
 0 
LINE
 10 
 5275 
 20 
 1879 
 30 
 0 
 11 
 5255.9033203125 
 21 
 1897.24792480469 
 31 
 0 
 0 
LINE
 10 
 5255.9033203125 
 20 
 1897.24792480469 
 30 
 0 
 11 
 5243.671875 
 21 
 1910.98413085938 
 31 
 0 
 0 
LINE
 10 
 5243.671875 
 20 
 1910.98413085938 
 30 
 0 
 11 
 5237.48828125 
 21 
 1921.69604492188 
 31 
 0 
 0 
LINE
 10 
 5237.48828125 
 20 
 1921.69604492188 
 30 
 0 
 11 
 5236.5361328125 
 21 
 1930.8720703125 
 31 
 0 
 0 
LINE
 10 
 5236.5361328125 
 20 
 1930.8720703125 
 30 
 0 
 11 
 5240 
 21 
 1940 
 31 
 0 
 0 
LINE
 10 
 5240 
 20 
 1940 
 30 
 0 
 11 
 5247.18408203125 
 21 
 1957.92797851563 
 31 
 0 
 0 
LINE
 10 
 5247.18408203125 
 20 
 1957.92797851563 
 30 
 0 
 11 
 5249.47216796875 
 21 
 1975.90405273438 
 31 
 0 
 0 
LINE
 10 
 5249.47216796875 
 20 
 1975.90405273438 
 30 
 0 
 11 
 5246.76806640625 
 21 
 1994.21606445313 
 31 
 0 
 0 
LINE
 10 
 5246.76806640625 
 20 
 1994.21606445313 
 30 
 0 
 11 
 5238.97607421875 
 21 
 2013.15197753906 
 31 
 0 
 0 
LINE
 10 
 5238.97607421875 
 20 
 2013.15197753906 
 30 
 0 
 11 
 5226 
 21 
 2033 
 31 
 0 
 0 
LINE
 10 
 5226 
 20 
 2033 
 30 
 0 
 11 
 5198.1123046875 
 21 
 2072.72802734375 
 31 
 0 
 0 
LINE
 10 
 5198.1123046875 
 20 
 2072.72802734375 
 30 
 0 
 11 
 5181.69580078125 
 21 
 2105.30419921875 
 31 
 0 
 0 
LINE
 10 
 5181.69580078125 
 20 
 2105.30419921875 
 30 
 0 
 11 
 5175.02392578125 
 21 
 2139.416015625 
 31 
 0 
 0 
LINE
 10 
 5175.02392578125 
 20 
 2139.416015625 
 30 
 0 
 11 
 5176.3681640625 
 21 
 2183.751953125 
 31 
 0 
 0 
LINE
 10 
 5176.3681640625 
 20 
 2183.751953125 
 30 
 0 
 11 
 5184 
 21 
 2247 
 31 
 0 
 0 
LINE
 10 
 5184 
 20 
 2247 
 30 
 0 
 11 
 5190.27197265625 
 21 
 2300.83984375 
 31 
 0 
 0 
LINE
 10 
 5190.27197265625 
 20 
 2300.83984375 
 30 
 0 
 11 
 5194.81591796875 
 21 
 2365 
 31 
 0 
 0 
LINE
 10 
 5194.81591796875 
 20 
 2365 
 30 
 0 
 11 
 5197.82421875 
 21 
 2442.84008789063 
 31 
 0 
 0 
LINE
 10 
 5197.82421875 
 20 
 2442.84008789063 
 30 
 0 
 11 
 5199.48779296875 
 21 
 2537.72021484375 
 31 
 0 
 0 
LINE
 10 
 5199.48779296875 
 20 
 2537.72021484375 
 30 
 0 
 11 
 5200 
 21 
 2653 
 31 
 0 
 0 
LINE
 10 
 5200 
 20 
 2653 
 30 
 0 
 11 
 5199.1435546875 
 21 
 2801.3359375 
 31 
 0 
 0 
LINE
 10 
 5199.1435546875 
 20 
 2801.3359375 
 30 
 0 
 11 
 5196.0322265625 
 21 
 2911.36791992188 
 31 
 0 
 0 
LINE
 10 
 5196.0322265625 
 20 
 2911.36791992188 
 30 
 0 
 11 
 5189.84814453125 
 21 
 2995.43212890625 
 31 
 0 
 0 
LINE
 10 
 5189.84814453125 
 20 
 2995.43212890625 
 30 
 0 
 11 
 5179.77587890625 
 21 
 3065.86401367188 
 31 
 0 
 0 
LINE
 10 
 5179.77587890625 
 20 
 3065.86401367188 
 30 
 0 
 11 
 5165 
 21 
 3135 
 31 
 0 
 0 
LINE
 10 
 5165 
 20 
 3135 
 30 
 0 
 11 
 5159.91162109375 
 21 
 3162.81567382813 
 31 
 0 
 0 
LINE
 10 
 5159.91162109375 
 20 
 3162.81567382813 
 30 
 0 
 11 
 5154.53564453125 
 21 
 3202.96801757813 
 31 
 0 
 0 
LINE
 10 
 5154.53564453125 
 20 
 3202.96801757813 
 30 
 0 
 11 
 5149.30419921875 
 21 
 3251.7119140625 
 31 
 0 
 0 
LINE
 10 
 5149.30419921875 
 20 
 3251.7119140625 
 30 
 0 
 11 
 5144.64794921875 
 21 
 3305.30419921875 
 31 
 0 
 0 
LINE
 10 
 5144.64794921875 
 20 
 3305.30419921875 
 30 
 0 
 11 
 5141 
 21 
 3360 
 31 
 0 
 0 
LINE
 10 
 5141 
 20 
 3360 
 30 
 0 
 11 
 5136.9677734375 
 21 
 3415.20776367188 
 31 
 0 
 0 
LINE
 10 
 5136.9677734375 
 20 
 3415.20776367188 
 30 
 0 
 11 
 5132.263671875 
 21 
 3466.14379882813 
 31 
 0 
 0 
LINE
 10 
 5132.263671875 
 20 
 3466.14379882813 
 30 
 0 
 11 
 5127.17578125 
 21 
 3509.97583007813 
 31 
 0 
 0 
LINE
 10 
 5127.17578125 
 20 
 3509.97583007813 
 30 
 0 
 11 
 5121.9921875 
 21 
 3543.8720703125 
 31 
 0 
 0 
LINE
 10 
 5121.9921875 
 20 
 3543.8720703125 
 30 
 0 
 11 
 5117 
 21 
 3565 
 31 
 0 
 0 
LINE
 10 
 5117 
 20 
 3565 
 30 
 0 
 11 
 5111 
 21 
 3586.03198242188 
 31 
 0 
 0 
LINE
 10 
 5111 
 20 
 3586.03198242188 
 30 
 0 
 11 
 5103.080078125 
 21 
 3620.4560546875 
 31 
 0 
 0 
LINE
 10 
 5103.080078125 
 20 
 3620.4560546875 
 30 
 0 
 11 
 5093.9599609375 
 21 
 3664.86401367188 
 31 
 0 
 0 
LINE
 10 
 5093.9599609375 
 20 
 3664.86401367188 
 30 
 0 
 11 
 5084.35986328125 
 21 
 3715.84814453125 
 31 
 0 
 0 
LINE
 10 
 5084.35986328125 
 20 
 3715.84814453125 
 30 
 0 
 11 
 5075 
 21 
 3770 
 31 
 0 
 0 
LINE
 10 
 5075 
 20 
 3770 
 30 
 0 
 11 
 5063.66357421875 
 21 
 3834.88793945313 
 31 
 0 
 0 
LINE
 10 
 5063.66357421875 
 20 
 3834.88793945313 
 30 
 0 
 11 
 5052.23193359375 
 21 
 3891.18408203125 
 31 
 0 
 0 
LINE
 10 
 5052.23193359375 
 20 
 3891.18408203125 
 30 
 0 
 11 
 5040.3681640625 
 21 
 3940.13598632813 
 31 
 0 
 0 
LINE
 10 
 5040.3681640625 
 20 
 3940.13598632813 
 30 
 0 
 11 
 5027.73583984375 
 21 
 3982.9921875 
 31 
 0 
 0 
LINE
 10 
 5027.73583984375 
 20 
 3982.9921875 
 30 
 0 
 11 
 5014 
 21 
 4021 
 31 
 0 
 0 
LINE
 10 
 5014 
 20 
 4021 
 30 
 0 
 11 
 4998.94384765625 
 21 
 4060.92016601563 
 31 
 0 
 0 
LINE
 10 
 4998.94384765625 
 20 
 4060.92016601563 
 30 
 0 
 11 
 4989.072265625 
 21 
 4093.16015625 
 31 
 0 
 0 
LINE
 10 
 4989.072265625 
 20 
 4093.16015625 
 30 
 0 
 11 
 4983.328125 
 21 
 4123.23974609375 
 31 
 0 
 0 
LINE
 10 
 4983.328125 
 20 
 4123.23974609375 
 30 
 0 
 11 
 4980.65625 
 21 
 4156.68017578125 
 31 
 0 
 0 
LINE
 10 
 4980.65625 
 20 
 4156.68017578125 
 30 
 0 
 11 
 4980 
 21 
 4199 
 31 
 0 
 0 
LINE
 10 
 4980 
 20 
 4199 
 30 
 0 
 11 
 4979.45556640625 
 21 
 4243.47998046875 
 31 
 0 
 0 
LINE
 10 
 4979.45556640625 
 20 
 4243.47998046875 
 30 
 0 
 11 
 4976.60791015625 
 21 
 4276.43994140625 
 31 
 0 
 0 
LINE
 10 
 4976.60791015625 
 20 
 4276.43994140625 
 30 
 0 
 11 
 4969.6318359375 
 21 
 4305.56005859375 
 31 
 0 
 0 
LINE
 10 
 4969.6318359375 
 20 
 4305.56005859375 
 30 
 0 
 11 
 4956.7041015625 
 21 
 4338.52001953125 
 31 
 0 
 0 
LINE
 10 
 4956.7041015625 
 20 
 4338.52001953125 
 30 
 0 
 11 
 4936 
 21 
 4383 
 31 
 0 
 0 
LINE
 10 
 4936 
 20 
 4383 
 30 
 0 
 11 
 4909.43212890625 
 21 
 4439.7119140625 
 31 
 0 
 0 
LINE
 10 
 4909.43212890625 
 20 
 4439.7119140625 
 30 
 0 
 11 
 4892.17578125 
 21 
 4480.2958984375 
 31 
 0 
 0 
LINE
 10 
 4892.17578125 
 20 
 4480.2958984375 
 30 
 0 
 11 
 4882.50390625 
 21 
 4510.22412109375 
 31 
 0 
 0 
LINE
 10 
 4882.50390625 
 20 
 4510.22412109375 
 30 
 0 
 11 
 4878.68798828125 
 21 
 4534.96826171875 
 31 
 0 
 0 
LINE
 10 
 4878.68798828125 
 20 
 4534.96826171875 
 30 
 0 
 11 
 4879 
 21 
 4560 
 31 
 0 
 0 
LINE
 10 
 4879 
 20 
 4560 
 30 
 0 
 11 
 4877.4716796875 
 21 
 4577.6474609375 
 31 
 0 
 0 
LINE
 10 
 4877.4716796875 
 20 
 4577.6474609375 
 30 
 0 
 11 
 4871.33642578125 
 21 
 4600.3837890625 
 31 
 0 
 0 
LINE
 10 
 4871.33642578125 
 20 
 4600.3837890625 
 30 
 0 
 11 
 4860.06396484375 
 21 
 4629.69580078125 
 31 
 0 
 0 
LINE
 10 
 4860.06396484375 
 20 
 4629.69580078125 
 30 
 0 
 11 
 4843.12841796875 
 21 
 4667.07177734375 
 31 
 0 
 0 
LINE
 10 
 4843.12841796875 
 20 
 4667.07177734375 
 30 
 0 
 11 
 4820 
 21 
 4714 
 31 
 0 
 0 
LINE
 10 
 4820 
 20 
 4714 
 30 
 0 
 11 
 4791.8720703125 
 21 
 4770.23974609375 
 31 
 0 
 0 
LINE
 10 
 4791.8720703125 
 20 
 4770.23974609375 
 30 
 0 
 11 
 4774.25634765625 
 21 
 4809.68017578125 
 31 
 0 
 0 
LINE
 10 
 4774.25634765625 
 20 
 4809.68017578125 
 30 
 0 
 11 
 4764.7041015625 
 21 
 4840 
 31 
 0 
 0 
LINE
 10 
 4764.7041015625 
 20 
 4840 
 30 
 0 
 11 
 4760.76806640625 
 21 
 4868.8798828125 
 31 
 0 
 0 
LINE
 10 
 4760.76806640625 
 20 
 4868.8798828125 
 30 
 0 
 11 
 4760 
 21 
 4904 
 31 
 0 
 0 
LINE
 10 
 4760 
 20 
 4904 
 30 
 0 
 11 
 4756.7919921875 
 21 
 4955.35986328125 
 31 
 0 
 0 
LINE
 10 
 4756.7919921875 
 20 
 4955.35986328125 
 30 
 0 
 11 
 4747.77587890625 
 21 
 5005.52001953125 
 31 
 0 
 0 
LINE
 10 
 4747.77587890625 
 20 
 5005.52001953125 
 30 
 0 
 11 
 4733.86376953125 
 21 
 5051.60009765625 
 31 
 0 
 0 
LINE
 10 
 4733.86376953125 
 20 
 5051.60009765625 
 30 
 0 
 11 
 4715.96826171875 
 21 
 5090.72021484375 
 31 
 0 
 0 
LINE
 10 
 4715.96826171875 
 20 
 5090.72021484375 
 30 
 0 
 11 
 4695 
 21 
 5120 
 31 
 0 
 0 
LINE
 10 
 4695 
 20 
 5120 
 30 
 0 
 11 
 4677.98388671875 
 21 
 5144.27978515625 
 31 
 0 
 0 
LINE
 10 
 4677.98388671875 
 20 
 5144.27978515625 
 30 
 0 
 11 
 4658.232421875 
 21 
 5181.5205078125 
 31 
 0 
 0 
LINE
 10 
 4658.232421875 
 20 
 5181.5205078125 
 30 
 0 
 11 
 4639.48779296875 
 21 
 5223.31982421875 
 31 
 0 
 0 
LINE
 10 
 4639.48779296875 
 20 
 5223.31982421875 
 30 
 0 
 11 
 4625.49609375 
 21 
 5261.2802734375 
 31 
 0 
 0 
LINE
 10 
 4625.49609375 
 20 
 5261.2802734375 
 30 
 0 
 11 
 4620 
 21 
 5287 
 31 
 0 
 0 
LINE
 10 
 4620 
 20 
 5287 
 30 
 0 
 11 
 4613.49609375 
 21 
 5309.82421875 
 31 
 0 
 0 
LINE
 10 
 4613.49609375 
 20 
 5309.82421875 
 30 
 0 
 11 
 4597.248046875 
 21 
 5345.75244140625 
 31 
 0 
 0 
LINE
 10 
 4597.248046875 
 20 
 5345.75244140625 
 30 
 0 
 11 
 4576.15234375 
 21 
 5385.56787109375 
 31 
 0 
 0 
LINE
 10 
 4576.15234375 
 20 
 5385.56787109375 
 30 
 0 
 11 
 4555.10400390625 
 21 
 5420.05615234375 
 31 
 0 
 0 
LINE
 10 
 4555.10400390625 
 20 
 5420.05615234375 
 30 
 0 
 11 
 4539 
 21 
 5440 
 31 
 0 
 0 
LINE
 10 
 4539 
 20 
 5440 
 30 
 0 
 11 
 4530.8076171875 
 21 
 5447.54345703125 
 31 
 0 
 0 
LINE
 10 
 4530.8076171875 
 20 
 5447.54345703125 
 30 
 0 
 11 
 4526.50439453125 
 21 
 5454.75244140625 
 31 
 0 
 0 
LINE
 10 
 4526.50439453125 
 20 
 5454.75244140625 
 30 
 0 
 11 
 4525.89599609375 
 21 
 5463.68798828125 
 31 
 0 
 0 
LINE
 10 
 4525.89599609375 
 20 
 5463.68798828125 
 30 
 0 
 11 
 4528.7919921875 
 21 
 5476.416015625 
 31 
 0 
 0 
LINE
 10 
 4528.7919921875 
 20 
 5476.416015625 
 30 
 0 
 11 
 4535 
 21 
 5495 
 31 
 0 
 0 
LINE
 10 
 4535 
 20 
 5495 
 30 
 0 
 11 
 4549.1357421875 
 21 
 5554.775390625 
 31 
 0 
 0 
LINE
 10 
 4549.1357421875 
 20 
 5554.775390625 
 30 
 0 
 11 
 4548.72802734375 
 21 
 5611.5283203125 
 31 
 0 
 0 
LINE
 10 
 4548.72802734375 
 20 
 5611.5283203125 
 30 
 0 
 11 
 4534.35205078125 
 21 
 5663.1923828125 
 31 
 0 
 0 
LINE
 10 
 4534.35205078125 
 20 
 5663.1923828125 
 30 
 0 
 11 
 4506.583984375 
 21 
 5707.7041015625 
 31 
 0 
 0 
LINE
 10 
 4506.583984375 
 20 
 5707.7041015625 
 30 
 0 
 11 
 4466 
 21 
 5743 
 31 
 0 
 0 
LINE
 10 
 4466 
 20 
 5743 
 30 
 0 
 11 
 4450.6240234375 
 21 
 5753.51220703125 
 31 
 0 
 0 
LINE
 10 
 4450.6240234375 
 20 
 5753.51220703125 
 30 
 0 
 11 
 4432.99169921875 
 21 
 5766.3759765625 
 31 
 0 
 0 
LINE
 10 
 4432.99169921875 
 20 
 5766.3759765625 
 30 
 0 
 11 
 4414.4482421875 
 21 
 5780.583984375 
 31 
 0 
 0 
LINE
 10 
 4414.4482421875 
 20 
 5780.583984375 
 30 
 0 
 11 
 4396.3359375 
 21 
 5795.1279296875 
 31 
 0 
 0 
LINE
 10 
 4396.3359375 
 20 
 5795.1279296875 
 30 
 0 
 11 
 4380 
 21 
 5809 
 31 
 0 
 0 
LINE
 10 
 4380 
 20 
 5809 
 30 
 0 
 11 
 4335 
 21 
 5848 
 31 
 0 
 0 
LINE
 10 
 4335 
 20 
 5848 
 30 
 0 
 11 
 4407 
 21 
 5996 
 31 
 0 
 0 
LINE
 10 
 4407 
 20 
 5996 
 30 
 0 
 11 
 4448.50390625 
 21 
 6083.912109375 
 31 
 0 
 0 
LINE
 10 
 4448.50390625 
 20 
 6083.912109375 
 30 
 0 
 11 
 4475.9921875 
 21 
 6151.85595703125 
 31 
 0 
 0 
LINE
 10 
 4475.9921875 
 20 
 6151.85595703125 
 30 
 0 
 11 
 4491.52783203125 
 21 
 6206.744140625 
 31 
 0 
 0 
LINE
 10 
 4491.52783203125 
 20 
 6206.744140625 
 30 
 0 
 11 
 4497.17626953125 
 21 
 6255.48779296875 
 31 
 0 
 0 
LINE
 10 
 4497.17626953125 
 20 
 6255.48779296875 
 30 
 0 
 11 
 4495 
 21 
 6305 
 31 
 0 
 0 
LINE
 10 
 4495 
 20 
 6305 
 30 
 0 
 11 
 4492.568359375 
 21 
 6332.43994140625 
 31 
 0 
 0 
LINE
 10 
 4492.568359375 
 20 
 6332.43994140625 
 30 
 0 
 11 
 4492.82421875 
 21 
 6355.7998046875 
 31 
 0 
 0 
LINE
 10 
 4492.82421875 
 20 
 6355.7998046875 
 30 
 0 
 11 
 4496.2958984375 
 21 
 6378.43994140625 
 31 
 0 
 0 
LINE
 10 
 4496.2958984375 
 20 
 6378.43994140625 
 30 
 0 
 11 
 4503.51220703125 
 21 
 6403.72021484375 
 31 
 0 
 0 
LINE
 10 
 4503.51220703125 
 20 
 6403.72021484375 
 30 
 0 
 11 
 4515 
 21 
 6435 
 31 
 0 
 0 
LINE
 10 
 4515 
 20 
 6435 
 30 
 0 
 11 
 4523.7919921875 
 21 
 6459.3037109375 
 31 
 0 
 0 
LINE
 10 
 4523.7919921875 
 20 
 6459.3037109375 
 30 
 0 
 11 
 4531.81591796875 
 21 
 6484.23193359375 
 31 
 0 
 0 
LINE
 10 
 4531.81591796875 
 20 
 6484.23193359375 
 30 
 0 
 11 
 4538.5439453125 
 21 
 6508.00830078125 
 31 
 0 
 0 
LINE
 10 
 4538.5439453125 
 20 
 6508.00830078125 
 30 
 0 
 11 
 4543.4482421875 
 21 
 6528.85595703125 
 31 
 0 
 0 
LINE
 10 
 4543.4482421875 
 20 
 6528.85595703125 
 30 
 0 
 11 
 4546 
 21 
 6545 
 31 
 0 
 0 
LINE
 10 
 4546 
 20 
 6545 
 30 
 0 
 11 
 4561.81591796875 
 21 
 6703.63134765625 
 31 
 0 
 0 
LINE
 10 
 4561.81591796875 
 20 
 6703.63134765625 
 30 
 0 
 11 
 4571.248046875 
 21 
 6815.416015625 
 31 
 0 
 0 
LINE
 10 
 4571.248046875 
 20 
 6815.416015625 
 30 
 0 
 11 
 4574.8720703125 
 21 
 6890.3837890625 
 31 
 0 
 0 
LINE
 10 
 4574.8720703125 
 20 
 6890.3837890625 
 30 
 0 
 11 
 4573.26416015625 
 21 
 6938.568359375 
 31 
 0 
 0 
LINE
 10 
 4573.26416015625 
 20 
 6938.568359375 
 30 
 0 
 11 
 4567 
 21 
 6970 
 31 
 0 
 0 
LINE
 10 
 4567 
 20 
 6970 
 30 
 0 
 11 
 4539.3759765625 
 21 
 7051.58349609375 
 31 
 0 
 0 
LINE
 10 
 4539.3759765625 
 20 
 7051.58349609375 
 30 
 0 
 11 
 4513.2880859375 
 21 
 7124.91162109375 
 31 
 0 
 0 
LINE
 10 
 4513.2880859375 
 20 
 7124.91162109375 
 30 
 0 
 11 
 4489.31201171875 
 21 
 7188.4482421875 
 31 
 0 
 0 
LINE
 10 
 4489.31201171875 
 20 
 7188.4482421875 
 30 
 0 
 11 
 4468.02392578125 
 21 
 7240.65625 
 31 
 0 
 0 
LINE
 10 
 4468.02392578125 
 20 
 7240.65625 
 30 
 0 
 11 
 4450 
 21 
 7280 
 31 
 0 
 0 
LINE
 10 
 4450 
 20 
 7280 
 30 
 0 
 11 
 4440.36767578125 
 21 
 7299.6162109375 
 31 
 0 
 0 
LINE
 10 
 4440.36767578125 
 20 
 7299.6162109375 
 30 
 0 
 11 
 4432.22412109375 
 21 
 7316.92822265625 
 31 
 0 
 0 
LINE
 10 
 4432.22412109375 
 20 
 7316.92822265625 
 30 
 0 
 11 
 4426.095703125 
 21 
 7330.83203125 
 31 
 0 
 0 
LINE
 10 
 4426.095703125 
 20 
 7330.83203125 
 30 
 0 
 11 
 4422.51220703125 
 21 
 7340.22412109375 
 31 
 0 
 0 
LINE
 10 
 4422.51220703125 
 20 
 7340.22412109375 
 30 
 0 
 11 
 4422 
 21 
 7344 
 31 
 0 
 0 
LINE
 10 
 4422 
 20 
 7344 
 30 
 0 
 11 
 4433.5517578125 
 21 
 7346.2158203125 
 31 
 0 
 0 
LINE
 10 
 4433.5517578125 
 20 
 7346.2158203125 
 30 
 0 
 11 
 4463.5361328125 
 21 
 7350.2080078125 
 31 
 0 
 0 
LINE
 10 
 4463.5361328125 
 20 
 7350.2080078125 
 30 
 0 
 11 
 4508.5439453125 
 21 
 7355.591796875 
 31 
 0 
 0 
LINE
 10 
 4508.5439453125 
 20 
 7355.591796875 
 30 
 0 
 11 
 4565.16796875 
 21 
 7361.98388671875 
 31 
 0 
 0 
LINE
 10 
 4565.16796875 
 20 
 7361.98388671875 
 30 
 0 
 11 
 4630 
 21 
 7369 
 31 
 0 
 0 
LINE
 10 
 4630 
 20 
 7369 
 30 
 0 
 11 
 5032.02392578125 
 21 
 7416.44775390625 
 31 
 0 
 0 
LINE
 10 
 5032.02392578125 
 20 
 7416.44775390625 
 30 
 0 
 11 
 5540.9921875 
 21 
 7480.50439453125 
 31 
 0 
 0 
LINE
 10 
 5540.9921875 
 20 
 7480.50439453125 
 30 
 0 
 11 
 6070.64794921875 
 21 
 7549.93603515625 
 31 
 0 
 0 
LINE
 10 
 6070.64794921875 
 20 
 7549.93603515625 
 30 
 0 
 11 
 6534.736328125 
 21 
 7613.51220703125 
 31 
 0 
 0 
LINE
 10 
 6534.736328125 
 20 
 7613.51220703125 
 30 
 0 
 11 
 6847 
 21 
 7660 
 31 
 0 
 0 
LINE
 10 
 6847 
 20 
 7660 
 30 
 0 
 11 
 6870.16796875 
 21 
 7663.35986328125 
 31 
 0 
 0 
LINE
 10 
 6870.16796875 
 20 
 7663.35986328125 
 30 
 0 
 11 
 6890.50390625 
 21 
 7665.04052734375 
 31 
 0 
 0 
LINE
 10 
 6890.50390625 
 20 
 7665.04052734375 
 30 
 0 
 11 
 6908.05615234375 
 21 
 7665.0400390625 
 31 
 0 
 0 
LINE
 10 
 6908.05615234375 
 20 
 7665.0400390625 
 30 
 0 
 11 
 6922.8720703125 
 21 
 7663.3603515625 
 31 
 0 
 0 
LINE
 10 
 6922.8720703125 
 20 
 7663.3603515625 
 30 
 0 
 11 
 6935 
 21 
 7660 
 31 
 0 
 0 
LINE
 10 
 6935 
 20 
 7660 
 30 
 0 
 11 
 6971.53564453125 
 21 
 7651.61572265625 
 31 
 0 
 0 
LINE
 10 
 6971.53564453125 
 20 
 7651.61572265625 
 30 
 0 
 11 
 7013.4482421875 
 21 
 7650.04833984375 
 31 
 0 
 0 
LINE
 10 
 7013.4482421875 
 20 
 7650.04833984375 
 30 
 0 
 11 
 7054.59228515625 
 21 
 7654.67236328125 
 31 
 0 
 0 
LINE
 10 
 7054.59228515625 
 20 
 7654.67236328125 
 30 
 0 
 11 
 7088.82421875 
 21 
 7664.8642578125 
 31 
 0 
 0 
LINE
 10 
 7088.82421875 
 20 
 7664.8642578125 
 30 
 0 
 11 
 7110 
 21 
 7680 
 31 
 0 
 0 
LINE
 10 
 7110 
 20 
 7680 
 30 
 0 
 11 
 7125.5439453125 
 21 
 7683.4794921875 
 31 
 0 
 0 
LINE
 10 
 7125.5439453125 
 20 
 7683.4794921875 
 30 
 0 
 11 
 7165.47265625 
 21 
 7689.84033203125 
 31 
 0 
 0 
LINE
 10 
 7165.47265625 
 20 
 7689.84033203125 
 30 
 0 
 11 
 7225.1279296875 
 21 
 7698.3603515625 
 31 
 0 
 0 
LINE
 10 
 7225.1279296875 
 20 
 7698.3603515625 
 30 
 0 
 11 
 7299.8564453125 
 21 
 7708.3203125 
 31 
 0 
 0 
LINE
 10 
 7299.8564453125 
 20 
 7708.3203125 
 30 
 0 
 11 
 7385 
 21 
 7719 
 31 
 0 
 0 
LINE
 10 
 7385 
 20 
 7719 
 30 
 0 
 11 
 7470.87158203125 
 21 
 7730.28759765625 
 31 
 0 
 0 
LINE
 10 
 7470.87158203125 
 20 
 7730.28759765625 
 30 
 0 
 11 
 7546.6162109375 
 21 
 7740.904296875 
 31 
 0 
 0 
LINE
 10 
 7546.6162109375 
 20 
 7740.904296875 
 30 
 0 
 11 
 7607.6240234375 
 21 
 7750.17626953125 
 31 
 0 
 0 
LINE
 10 
 7607.6240234375 
 20 
 7750.17626953125 
 30 
 0 
 11 
 7649.2880859375 
 21 
 7757.43212890625 
 31 
 0 
 0 
LINE
 10 
 7649.2880859375 
 20 
 7757.43212890625 
 30 
 0 
 11 
 7667 
 21 
 7762 
 31 
 0 
 0 
LINE
 10 
 7667 
 20 
 7762 
 30 
 0 
 11 
 7673.6396484375 
 21 
 7763.77587890625 
 31 
 0 
 0 
LINE
 10 
 7673.6396484375 
 20 
 7763.77587890625 
 30 
 0 
 11 
 7684.11962890625 
 21 
 7760.60791015625 
 31 
 0 
 0 
LINE
 10 
 7684.11962890625 
 20 
 7760.60791015625 
 30 
 0 
 11 
 7698.68017578125 
 21 
 7752.35205078125 
 31 
 0 
 0 
LINE
 10 
 7698.68017578125 
 20 
 7752.35205078125 
 30 
 0 
 11 
 7717.56005859375 
 21 
 7738.8642578125 
 31 
 0 
 0 
LINE
 10 
 7717.56005859375 
 20 
 7738.8642578125 
 30 
 0 
 11 
 7741 
 21 
 7720 
 31 
 0 
 0 
LINE
 10 
 7741 
 20 
 7720 
 30 
 0 
 11 
 7803 
 21 
 7669 
 31 
 0 
 0 
LINE
 10 
 7803 
 20 
 7669 
 30 
 0 
 11 
 7755 
 21 
 7624 
 31 
 0 
 0 
LINE
 10 
 7755 
 20 
 7624 
 30 
 0 
 11 
 7728.2880859375 
 21 
 7600.1513671875 
 31 
 0 
 0 
LINE
 10 
 7728.2880859375 
 20 
 7600.1513671875 
 30 
 0 
 11 
 7709.064453125 
 21 
 7586.576171875 
 31 
 0 
 0 
LINE
 10 
 7709.064453125 
 20 
 7586.576171875 
 30 
 0 
 11 
 7693.29638671875 
 21 
 7582.02392578125 
 31 
 0 
 0 
LINE
 10 
 7693.29638671875 
 20 
 7582.02392578125 
 30 
 0 
 11 
 7676.9521484375 
 21 
 7585.248046875 
 31 
 0 
 0 
LINE
 10 
 7676.9521484375 
 20 
 7585.248046875 
 30 
 0 
 11 
 7656 
 21 
 7595 
 31 
 0 
 0 
LINE
 10 
 7656 
 20 
 7595 
 30 
 0 
 11 
 7633.080078125 
 21 
 7604.2236328125 
 31 
 0 
 0 
LINE
 10 
 7633.080078125 
 20 
 7604.2236328125 
 30 
 0 
 11 
 7618.80029296875 
 21 
 7603.9921875 
 31 
 0 
 0 
LINE
 10 
 7618.80029296875 
 20 
 7603.9921875 
 30 
 0 
 11 
 7613.88037109375 
 21 
 7595.64794921875 
 31 
 0 
 0 
LINE
 10 
 7613.88037109375 
 20 
 7595.64794921875 
 30 
 0 
 11 
 7619.0400390625 
 21 
 7580.5361328125 
 31 
 0 
 0 
LINE
 10 
 7619.0400390625 
 20 
 7580.5361328125 
 30 
 0 
 11 
 7635 
 21 
 7560 
 31 
 0 
 0 
LINE
 10 
 7635 
 20 
 7560 
 30 
 0 
 11 
 7648.72802734375 
 21 
 7543.84765625 
 31 
 0 
 0 
LINE
 10 
 7648.72802734375 
 20 
 7543.84765625 
 30 
 0 
 11 
 7652.904296875 
 21 
 7533.984375 
 31 
 0 
 0 
LINE
 10 
 7652.904296875 
 20 
 7533.984375 
 30 
 0 
 11 
 7647.81591796875 
 21 
 7530.6962890625 
 31 
 0 
 0 
LINE
 10 
 7647.81591796875 
 20 
 7530.6962890625 
 30 
 0 
 11 
 7633.751953125 
 21 
 7534.27197265625 
 31 
 0 
 0 
LINE
 10 
 7633.751953125 
 20 
 7534.27197265625 
 30 
 0 
 11 
 7611 
 21 
 7545 
 31 
 0 
 0 
LINE
 10 
 7611 
 20 
 7545 
 30 
 0 
 11 
 7585.328125 
 21 
 7554.3759765625 
 31 
 0 
 0 
LINE
 10 
 7585.328125 
 20 
 7554.3759765625 
 30 
 0 
 11 
 7571.9443359375 
 21 
 7551.12841796875 
 31 
 0 
 0 
LINE
 10 
 7571.9443359375 
 20 
 7551.12841796875 
 30 
 0 
 11 
 7570.89599609375 
 21 
 7536.7919921875 
 31 
 0 
 0 
LINE
 10 
 7570.89599609375 
 20 
 7536.7919921875 
 30 
 0 
 11 
 7582.23193359375 
 21 
 7512.90380859375 
 31 
 0 
 0 
LINE
 10 
 7582.23193359375 
 20 
 7512.90380859375 
 30 
 0 
 11 
 7606 
 21 
 7481 
 31 
 0 
 0 
LINE
 10 
 7606 
 20 
 7481 
 30 
 0 
 11 
 7623.03955078125 
 21 
 7461.0634765625 
 31 
 0 
 0 
LINE
 10 
 7623.03955078125 
 20 
 7461.0634765625 
 30 
 0 
 11 
 7632.64013671875 
 21 
 7447.751953125 
 31 
 0 
 0 
LINE
 10 
 7632.64013671875 
 20 
 7447.751953125 
 30 
 0 
 11 
 7635.52001953125 
 21 
 7438.80810546875 
 31 
 0 
 0 
LINE
 10 
 7635.52001953125 
 20 
 7438.80810546875 
 30 
 0 
 11 
 7632.39990234375 
 21 
 7431.97607421875 
 31 
 0 
 0 
LINE
 10 
 7632.39990234375 
 20 
 7431.97607421875 
 30 
 0 
 11 
 7624 
 21 
 7425 
 31 
 0 
 0 
LINE
 10 
 7624 
 20 
 7425 
 30 
 0 
 11 
 7615.34375 
 21 
 7418.1201171875 
 31 
 0 
 0 
LINE
 10 
 7615.34375 
 20 
 7418.1201171875 
 30 
 0 
 11 
 7610.91259765625 
 21 
 7411.9599609375 
 31 
 0 
 0 
LINE
 10 
 7610.91259765625 
 20 
 7411.9599609375 
 30 
 0 
 11 
 7610.60791015625 
 21 
 7404.84033203125 
 31 
 0 
 0 
LINE
 10 
 7610.60791015625 
 20 
 7404.84033203125 
 30 
 0 
 11 
 7614.33642578125 
 21 
 7395.080078125 
 31 
 0 
 0 
LINE
 10 
 7614.33642578125 
 20 
 7395.080078125 
 30 
 0 
 11 
 7622 
 21 
 7381 
 31 
 0 
 0 
LINE
 10 
 7622 
 20 
 7381 
 30 
 0 
 11 
 7629.83984375 
 21 
 7367.81591796875 
 31 
 0 
 0 
LINE
 10 
 7629.83984375 
 20 
 7367.81591796875 
 30 
 0 
 11 
 7641.76025390625 
 21 
 7349.68798828125 
 31 
 0 
 0 
LINE
 10 
 7641.76025390625 
 20 
 7349.68798828125 
 30 
 0 
 11 
 7656.56005859375 
 21 
 7328.15234375 
 31 
 0 
 0 
LINE
 10 
 7656.56005859375 
 20 
 7328.15234375 
 30 
 0 
 11 
 7673.0400390625 
 21 
 7304.744140625 
 31 
 0 
 0 
LINE
 10 
 7673.0400390625 
 20 
 7304.744140625 
 30 
 0 
 11 
 7690 
 21 
 7281 
 31 
 0 
 0 
LINE
 10 
 7690 
 20 
 7281 
 30 
 0 
 11 
 7713.47998046875 
 21 
 7250.6396484375 
 31 
 0 
 0 
LINE
 10 
 7713.47998046875 
 20 
 7250.6396484375 
 30 
 0 
 11 
 7731.68017578125 
 21 
 7230.1201171875 
 31 
 0 
 0 
LINE
 10 
 7731.68017578125 
 20 
 7230.1201171875 
 30 
 0 
 11 
 7747.240234375 
 21 
 7217.27978515625 
 31 
 0 
 0 
LINE
 10 
 7747.240234375 
 20 
 7217.27978515625 
 30 
 0 
 11 
 7762.80029296875 
 21 
 7209.96044921875 
 31 
 0 
 0 
LINE
 10 
 7762.80029296875 
 20 
 7209.96044921875 
 30 
 0 
 11 
 7781 
 21 
 7206 
 31 
 0 
 0 
LINE
 10 
 7781 
 20 
 7206 
 30 
 0 
 11 
 7799.927734375 
 21 
 7203.8154296875 
 31 
 0 
 0 
LINE
 10 
 7799.927734375 
 20 
 7203.8154296875 
 30 
 0 
 11 
 7815.7841796875 
 21 
 7205.328125 
 31 
 0 
 0 
LINE
 10 
 7815.7841796875 
 20 
 7205.328125 
 30 
 0 
 11 
 7831.97607421875 
 21 
 7211.83203125 
 31 
 0 
 0 
LINE
 10 
 7831.97607421875 
 20 
 7211.83203125 
 30 
 0 
 11 
 7851.912109375 
 21 
 7224.6240234375 
 31 
 0 
 0 
LINE
 10 
 7851.912109375 
 20 
 7224.6240234375 
 30 
 0 
 11 
 7879 
 21 
 7245 
 31 
 0 
 0 
LINE
 10 
 7879 
 20 
 7245 
 30 
 0 
 11 
 7898.78369140625 
 21 
 7260.48779296875 
 31 
 0 
 0 
LINE
 10 
 7898.78369140625 
 20 
 7260.48779296875 
 30 
 0 
 11 
 7918.7119140625 
 21 
 7277.22412109375 
 31 
 0 
 0 
LINE
 10 
 7918.7119140625 
 20 
 7277.22412109375 
 30 
 0 
 11 
 7937.248046875 
 21 
 7293.81591796875 
 31 
 0 
 0 
LINE
 10 
 7937.248046875 
 20 
 7293.81591796875 
 30 
 0 
 11 
 7952.85595703125 
 21 
 7308.8720703125 
 31 
 0 
 0 
LINE
 10 
 7952.85595703125 
 20 
 7308.8720703125 
 30 
 0 
 11 
 7964 
 21 
 7321 
 31 
 0 
 0 
LINE
 10 
 7964 
 20 
 7321 
 30 
 0 
 11 
 7981.119140625 
 21 
 7344.34375 
 31 
 0 
 0 
LINE
 10 
 7981.119140625 
 20 
 7344.34375 
 30 
 0 
 11 
 8001.1201171875 
 21 
 7376.232421875 
 31 
 0 
 0 
LINE
 10 
 8001.1201171875 
 20 
 7376.232421875 
 30 
 0 
 11 
 8020.16015625 
 21 
 7409.84814453125 
 31 
 0 
 0 
LINE
 10 
 8020.16015625 
 20 
 7409.84814453125 
 30 
 0 
 11 
 8034.39990234375 
 21 
 7438.3759765625 
 31 
 0 
 0 
LINE
 10 
 8034.39990234375 
 20 
 7438.3759765625 
 30 
 0 
 11 
 8040 
 21 
 7455 
 31 
 0 
 0 
LINE
 10 
 8040 
 20 
 7455 
 30 
 0 
 11 
 8037.71923828125 
 21 
 7456.671875 
 31 
 0 
 0 
LINE
 10 
 8037.71923828125 
 20 
 7456.671875 
 30 
 0 
 11 
 8031.3603515625 
 21 
 7458.05615234375 
 31 
 0 
 0 
LINE
 10 
 8031.3603515625 
 20 
 7458.05615234375 
 30 
 0 
 11 
 8021.6396484375 
 21 
 7459.1044921875 
 31 
 0 
 0 
LINE
 10 
 8021.6396484375 
 20 
 7459.1044921875 
 30 
 0 
 11 
 8009.2802734375 
 21 
 7459.76806640625 
 31 
 0 
 0 
LINE
 10 
 8009.2802734375 
 20 
 7459.76806640625 
 30 
 0 
 11 
 7995 
 21 
 7460 
 31 
 0 
 0 
LINE
 10 
 7995 
 20 
 7460 
 30 
 0 
 11 
 7975.1279296875 
 21 
 7459.4716796875 
 31 
 0 
 0 
LINE
 10 
 7975.1279296875 
 20 
 7459.4716796875 
 30 
 0 
 11 
 7961.06396484375 
 21 
 7457.21630859375 
 31 
 0 
 0 
LINE
 10 
 7961.06396484375 
 20 
 7457.21630859375 
 30 
 0 
 11 
 7950.93603515625 
 21 
 7452.224609375 
 31 
 0 
 0 
LINE
 10 
 7950.93603515625 
 20 
 7452.224609375 
 30 
 0 
 11 
 7942.8720703125 
 21 
 7443.48828125 
 31 
 0 
 0 
LINE
 10 
 7942.8720703125 
 20 
 7443.48828125 
 30 
 0 
 11 
 7935 
 21 
 7430 
 31 
 0 
 0 
LINE
 10 
 7935 
 20 
 7430 
 30 
 0 
 11 
 7927.935546875 
 21 
 7418.99169921875 
 31 
 0 
 0 
LINE
 10 
 7927.935546875 
 20 
 7418.99169921875 
 30 
 0 
 11 
 7918.08837890625 
 21 
 7406.97607421875 
 31 
 0 
 0 
LINE
 10 
 7918.08837890625 
 20 
 7406.97607421875 
 30 
 0 
 11 
 7906.27197265625 
 21 
 7394.8642578125 
 31 
 0 
 0 
LINE
 10 
 7906.27197265625 
 20 
 7394.8642578125 
 30 
 0 
 11 
 7893.30419921875 
 21 
 7383.568359375 
 31 
 0 
 0 
LINE
 10 
 7893.30419921875 
 20 
 7383.568359375 
 30 
 0 
 11 
 7880 
 21 
 7374 
 31 
 0 
 0 
LINE
 10 
 7880 
 20 
 7374 
 30 
 0 
 11 
 7859.66357421875 
 21 
 7358.8798828125 
 31 
 0 
 0 
LINE
 10 
 7859.66357421875 
 20 
 7358.8798828125 
 30 
 0 
 11 
 7840.67236328125 
 21 
 7341.3603515625 
 31 
 0 
 0 
LINE
 10 
 7840.67236328125 
 20 
 7341.3603515625 
 30 
 0 
 11 
 7824.84765625 
 21 
 7323.60009765625 
 31 
 0 
 0 
LINE
 10 
 7824.84765625 
 20 
 7323.60009765625 
 30 
 0 
 11 
 7814.01611328125 
 21 
 7307.76025390625 
 31 
 0 
 0 
LINE
 10 
 7814.01611328125 
 20 
 7307.76025390625 
 30 
 0 
 11 
 7810 
 21 
 7296 
 31 
 0 
 0 
LINE
 10 
 7810 
 20 
 7296 
 30 
 0 
 11 
 7811.3759765625 
 21 
 7294.2080078125 
 31 
 0 
 0 
LINE
 10 
 7811.3759765625 
 20 
 7294.2080078125 
 30 
 0 
 11 
 7815.248046875 
 21 
 7292.46435546875 
 31 
 0 
 0 
LINE
 10 
 7815.248046875 
 20 
 7292.46435546875 
 30 
 0 
 11 
 7821.232421875 
 21 
 7290.81591796875 
 31 
 0 
 0 
LINE
 10 
 7821.232421875 
 20 
 7290.81591796875 
 30 
 0 
 11 
 7828.9443359375 
 21 
 7289.31201171875 
 31 
 0 
 0 
LINE
 10 
 7828.9443359375 
 20 
 7289.31201171875 
 30 
 0 
 11 
 7838 
 21 
 7288 
 31 
 0 
 0 
LINE
 10 
 7838 
 20 
 7288 
 30 
 0 
 11 
 7850.8720703125 
 21 
 7285.90380859375 
 31 
 0 
 0 
LINE
 10 
 7850.8720703125 
 20 
 7285.90380859375 
 30 
 0 
 11 
 7856.736328125 
 21 
 7283.7119140625 
 31 
 0 
 0 
LINE
 10 
 7856.736328125 
 20 
 7283.7119140625 
 30 
 0 
 11 
 7855.06396484375 
 21 
 7280.3681640625 
 31 
 0 
 0 
LINE
 10 
 7855.06396484375 
 20 
 7280.3681640625 
 30 
 0 
 11 
 7845.328125 
 21 
 7274.81640625 
 31 
 0 
 0 
LINE
 10 
 7845.328125 
 20 
 7274.81640625 
 30 
 0 
 11 
 7827 
 21 
 7266 
 31 
 0 
 0 
LINE
 10 
 7827 
 20 
 7266 
 30 
 0 
 11 
 7789 
 21 
 7249 
 31 
 0 
 0 
LINE
 10 
 7789 
 20 
 7249 
 30 
 0 
 11 
 7750 
 21 
 7280 
 31 
 0 
 0 
LINE
 10 
 7750 
 20 
 7280 
 30 
 0 
 11 
 7736.28759765625 
 21 
 7291.19189453125 
 31 
 0 
 0 
LINE
 10 
 7736.28759765625 
 20 
 7291.19189453125 
 30 
 0 
 11 
 7721.18408203125 
 21 
 7304.736328125 
 31 
 0 
 0 
LINE
 10 
 7721.18408203125 
 20 
 7304.736328125 
 30 
 0 
 11 
 7705.9365234375 
 21 
 7319.3837890625 
 31 
 0 
 0 
LINE
 10 
 7705.9365234375 
 20 
 7319.3837890625 
 30 
 0 
 11 
 7691.79248046875 
 21 
 7333.88818359375 
 31 
 0 
 0 
LINE
 10 
 7691.79248046875 
 20 
 7333.88818359375 
 30 
 0 
 11 
 7680 
 21 
 7347 
 31 
 0 
 0 
LINE
 10 
 7680 
 20 
 7347 
 30 
 0 
 11 
 7647 
 21 
 7384 
 31 
 0 
 0 
LINE
 10 
 7647 
 20 
 7384 
 30 
 0 
 11 
 7679 
 21 
 7412 
 31 
 0 
 0 
LINE
 10 
 7679 
 20 
 7412 
 30 
 0 
 11 
 7691.29541015625 
 21 
 7423.74365234375 
 31 
 0 
 0 
LINE
 10 
 7691.29541015625 
 20 
 7423.74365234375 
 30 
 0 
 11 
 7699.60791015625 
 21 
 7434.19189453125 
 31 
 0 
 0 
LINE
 10 
 7699.60791015625 
 20 
 7434.19189453125 
 30 
 0 
 11 
 7704.27197265625 
 21 
 7443.9677734375 
 31 
 0 
 0 
LINE
 10 
 7704.27197265625 
 20 
 7443.9677734375 
 30 
 0 
 11 
 7705.6240234375 
 21 
 7453.6962890625 
 31 
 0 
 0 
LINE
 10 
 7705.6240234375 
 20 
 7453.6962890625 
 30 
 0 
 11 
 7704 
 21 
 7464 
 31 
 0 
 0 
LINE
 10 
 7704 
 20 
 7464 
 30 
 0 
 11 
 7702.447265625 
 21 
 7472.775390625 
 31 
 0 
 0 
LINE
 10 
 7702.447265625 
 20 
 7472.775390625 
 30 
 0 
 11 
 7702.6240234375 
 21 
 7479.96826171875 
 31 
 0 
 0 
LINE
 10 
 7702.6240234375 
 20 
 7479.96826171875 
 30 
 0 
 11 
 7704.576171875 
 21 
 7485.67236328125 
 31 
 0 
 0 
LINE
 10 
 7704.576171875 
 20 
 7485.67236328125 
 30 
 0 
 11 
 7708.35205078125 
 21 
 7489.98388671875 
 31 
 0 
 0 
LINE
 10 
 7708.35205078125 
 20 
 7489.98388671875 
 30 
 0 
 11 
 7714 
 21 
 7493 
 31 
 0 
 0 
LINE
 10 
 7714 
 20 
 7493 
 30 
 0 
 11 
 7719.11962890625 
 21 
 7496.0556640625 
 31 
 0 
 0 
LINE
 10 
 7719.11962890625 
 20 
 7496.0556640625 
 30 
 0 
 11 
 7723.5205078125 
 21 
 7500.16796875 
 31 
 0 
 0 
LINE
 10 
 7723.5205078125 
 20 
 7500.16796875 
 30 
 0 
 11 
 7726.9599609375 
 21 
 7504.9521484375 
 31 
 0 
 0 
LINE
 10 
 7726.9599609375 
 20 
 7504.9521484375 
 30 
 0 
 11 
 7729.2001953125 
 21 
 7510.0244140625 
 31 
 0 
 0 
LINE
 10 
 7729.2001953125 
 20 
 7510.0244140625 
 30 
 0 
 11 
 7730 
 21 
 7515 
 31 
 0 
 0 
LINE
 10 
 7730 
 20 
 7515 
 30 
 0 
 11 
 7740.2236328125 
 21 
 7535.2958984375 
 31 
 0 
 0 
LINE
 10 
 7740.2236328125 
 20 
 7535.2958984375 
 30 
 0 
 11 
 7765.232421875 
 21 
 7567.20849609375 
 31 
 0 
 0 
LINE
 10 
 7765.232421875 
 20 
 7567.20849609375 
 30 
 0 
 11 
 7796.52783203125 
 21 
 7601.47216796875 
 31 
 0 
 0 
LINE
 10 
 7796.52783203125 
 20 
 7601.47216796875 
 30 
 0 
 11 
 7825.6162109375 
 21 
 7628.82421875 
 31 
 0 
 0 
LINE
 10 
 7825.6162109375 
 20 
 7628.82421875 
 30 
 0 
 11 
 7844 
 21 
 7640 
 31 
 0 
 0 
LINE
 10 
 7844 
 20 
 7640 
 30 
 0 
 11 
 7850.64013671875 
 21 
 7637.95166015625 
 31 
 0 
 0 
LINE
 10 
 7850.64013671875 
 20 
 7637.95166015625 
 30 
 0 
 11 
 7862.56005859375 
 21 
 7632.255859375 
 31 
 0 
 0 
LINE
 10 
 7862.56005859375 
 20 
 7632.255859375 
 30 
 0 
 11 
 7878.56005859375 
 21 
 7623.583984375 
 31 
 0 
 0 
LINE
 10 
 7878.56005859375 
 20 
 7623.583984375 
 30 
 0 
 11 
 7897.4404296875 
 21 
 7612.60791015625 
 31 
 0 
 0 
LINE
 10 
 7897.4404296875 
 20 
 7612.60791015625 
 30 
 0 
 11 
 7918 
 21 
 7600 
 31 
 0 
 0 
LINE
 10 
 7918 
 20 
 7600 
 30 
 0 
 11 
 7963.935546875 
 21 
 7575.19140625 
 31 
 0 
 0 
LINE
 10 
 7963.935546875 
 20 
 7575.19140625 
 30 
 0 
 11 
 8002.767578125 
 21 
 7562.09619140625 
 31 
 0 
 0 
LINE
 10 
 8002.767578125 
 20 
 7562.09619140625 
 30 
 0 
 11 
 8030.03173828125 
 21 
 7560.90380859375 
 31 
 0 
 0 
LINE
 10 
 8030.03173828125 
 20 
 7560.90380859375 
 30 
 0 
 11 
 8041.26416015625 
 21 
 7571.80810546875 
 31 
 0 
 0 
LINE
 10 
 8041.26416015625 
 20 
 7571.80810546875 
 30 
 0 
 11 
 8032 
 21 
 7595 
 31 
 0 
 0 
LINE
 10 
 8032 
 20 
 7595 
 30 
 0 
 11 
 8004.94384765625 
 21 
 7615.07177734375 
 31 
 0 
 0 
LINE
 10 
 8004.94384765625 
 20 
 7615.07177734375 
 30 
 0 
 11 
 7947.7919921875 
 21 
 7651.65576171875 
 31 
 0 
 0 
LINE
 10 
 7947.7919921875 
 20 
 7651.65576171875 
 30 
 0 
 11 
 7880.3681640625 
 21 
 7692.7041015625 
 31 
 0 
 0 
LINE
 10 
 7880.3681640625 
 20 
 7692.7041015625 
 30 
 0 
 11 
 7822.49609375 
 21 
 7726.16796875 
 31 
 0 
 0 
LINE
 10 
 7822.49609375 
 20 
 7726.16796875 
 30 
 0 
 11 
 7794 
 21 
 7740 
 31 
 0 
 0 
LINE
 10 
 7794 
 20 
 7740 
 30 
 0 
 11 
 7788.51953125 
 21 
 7742.03955078125 
 31 
 0 
 0 
LINE
 10 
 7788.51953125 
 20 
 7742.03955078125 
 30 
 0 
 11 
 7778.72021484375 
 21 
 7747.68017578125 
 31 
 0 
 0 
LINE
 10 
 7778.72021484375 
 20 
 7747.68017578125 
 30 
 0 
 11 
 7765.56005859375 
 21 
 7756.2001953125 
 31 
 0 
 0 
LINE
 10 
 7765.56005859375 
 20 
 7756.2001953125 
 30 
 0 
 11 
 7750 
 21 
 7766.88037109375 
 31 
 0 
 0 
LINE
 10 
 7750 
 20 
 7766.88037109375 
 30 
 0 
 11 
 7733 
 21 
 7779 
 31 
 0 
 0 
LINE
 10 
 7733 
 20 
 7779 
 30 
 0 
 11 
 7715.81591796875 
 21 
 7792.07958984375 
 31 
 0 
 0 
LINE
 10 
 7715.81591796875 
 20 
 7792.07958984375 
 30 
 0 
 11 
 7698.728515625 
 21 
 7804.43994140625 
 31 
 0 
 0 
LINE
 10 
 7698.728515625 
 20 
 7804.43994140625 
 30 
 0 
 11 
 7683.0322265625 
 21 
 7815.35986328125 
 31 
 0 
 0 
LINE
 10 
 7683.0322265625 
 20 
 7815.35986328125 
 30 
 0 
 11 
 7670.0244140625 
 21 
 7824.1201171875 
 31 
 0 
 0 
LINE
 10 
 7670.0244140625 
 20 
 7824.1201171875 
 30 
 0 
 11 
 7661 
 21 
 7830 
 31 
 0 
 0 
LINE
 10 
 7661 
 20 
 7830 
 30 
 0 
 11 
 7651.90380859375 
 21 
 7834.14404296875 
 31 
 0 
 0 
LINE
 10 
 7651.90380859375 
 20 
 7834.14404296875 
 30 
 0 
 11 
 7645.83203125 
 21 
 7835.55224609375 
 31 
 0 
 0 
LINE
 10 
 7645.83203125 
 20 
 7835.55224609375 
 30 
 0 
 11 
 7642.2080078125 
 21 
 7833.8876953125 
 31 
 0 
 0 
LINE
 10 
 7642.2080078125 
 20 
 7833.8876953125 
 30 
 0 
 11 
 7640.4560546875 
 21 
 7828.81640625 
 31 
 0 
 0 
LINE
 10 
 7640.4560546875 
 20 
 7828.81640625 
 30 
 0 
 11 
 7640 
 21 
 7820 
 31 
 0 
 0 
LINE
 10 
 7640 
 20 
 7820 
 30 
 0 
 11 
 7639.43212890625 
 21 
 7813.69580078125 
 31 
 0 
 0 
LINE
 10 
 7639.43212890625 
 20 
 7813.69580078125 
 30 
 0 
 11 
 7637.85595703125 
 21 
 7808.2080078125 
 31 
 0 
 0 
LINE
 10 
 7637.85595703125 
 20 
 7808.2080078125 
 30 
 0 
 11 
 7635.46435546875 
 21 
 7803.8720703125 
 31 
 0 
 0 
LINE
 10 
 7635.46435546875 
 20 
 7803.8720703125 
 30 
 0 
 11 
 7632.4482421875 
 21 
 7801.0244140625 
 31 
 0 
 0 
LINE
 10 
 7632.4482421875 
 20 
 7801.0244140625 
 30 
 0 
 11 
 7629 
 21 
 7800 
 31 
 0 
 0 
LINE
 10 
 7629 
 20 
 7800 
 30 
 0 
 11 
 7612.927734375 
 21 
 7798.40771484375 
 31 
 0 
 0 
LINE
 10 
 7612.927734375 
 20 
 7798.40771484375 
 30 
 0 
 11 
 7574.82421875 
 21 
 7793.98388671875 
 31 
 0 
 0 
LINE
 10 
 7574.82421875 
 20 
 7793.98388671875 
 30 
 0 
 11 
 7519.05615234375 
 21 
 7787.255859375 
 31 
 0 
 0 
LINE
 10 
 7519.05615234375 
 20 
 7787.255859375 
 30 
 0 
 11 
 7449.9921875 
 21 
 7778.751953125 
 31 
 0 
 0 
LINE
 10 
 7449.9921875 
 20 
 7778.751953125 
 30 
 0 
 11 
 7372 
 21 
 7769 
 31 
 0 
 0 
LINE
 10 
 7372 
 20 
 7769 
 30 
 0 
 11 
 7268.767578125 
 21 
 7756.4638671875 
 31 
 0 
 0 
LINE
 10 
 7268.767578125 
 20 
 7756.4638671875 
 30 
 0 
 11 
 7196.3046875 
 21 
 7748.63232421875 
 31 
 0 
 0 
LINE
 10 
 7196.3046875 
 20 
 7748.63232421875 
 30 
 0 
 11 
 7148.65625 
 21 
 7745.16796875 
 31 
 0 
 0 
LINE
 10 
 7148.65625 
 20 
 7745.16796875 
 30 
 0 
 11 
 7119.8720703125 
 21 
 7745.73583984375 
 31 
 0 
 0 
LINE
 10 
 7119.8720703125 
 20 
 7745.73583984375 
 30 
 0 
 11 
 7104 
 21 
 7750 
 31 
 0 
 0 
LINE
 10 
 7104 
 20 
 7750 
 30 
 0 
 11 
 7076.40771484375 
 21 
 7757.431640625 
 31 
 0 
 0 
LINE
 10 
 7076.40771484375 
 20 
 7757.431640625 
 30 
 0 
 11 
 7037.10400390625 
 21 
 7758.576171875 
 31 
 0 
 0 
LINE
 10 
 7037.10400390625 
 20 
 7758.576171875 
 30 
 0 
 11 
 6991.89599609375 
 21 
 7754.10400390625 
 31 
 0 
 0 
LINE
 10 
 6991.89599609375 
 20 
 7754.10400390625 
 30 
 0 
 11 
 6946.59228515625 
 21 
 7744.68798828125 
 31 
 0 
 0 
LINE
 10 
 6946.59228515625 
 20 
 7744.68798828125 
 30 
 0 
 11 
 6907 
 21 
 7731 
 31 
 0 
 0 
LINE
 10 
 6907 
 20 
 7731 
 30 
 0 
 11 
 6884.94384765625 
 21 
 7722.58349609375 
 31 
 0 
 0 
LINE
 10 
 6884.94384765625 
 20 
 7722.58349609375 
 30 
 0 
 11 
 6857.99169921875 
 21 
 7715.27197265625 
 31 
 0 
 0 
LINE
 10 
 6857.99169921875 
 20 
 7715.27197265625 
 30 
 0 
 11 
 6825.56787109375 
 21 
 7708.96826171875 
 31 
 0 
 0 
LINE
 10 
 6825.56787109375 
 20 
 7708.96826171875 
 30 
 0 
 11 
 6787.09619140625 
 21 
 7703.576171875 
 31 
 0 
 0 
LINE
 10 
 6787.09619140625 
 20 
 7703.576171875 
 30 
 0 
 11 
 6742 
 21 
 7699 
 31 
 0 
 0 
LINE
 10 
 6742 
 20 
 7699 
 30 
 0 
 11 
 6358.83203125 
 21 
 7661.255859375 
 31 
 0 
 0 
LINE
 10 
 6358.83203125 
 20 
 7661.255859375 
 30 
 0 
 11 
 5923.5361328125 
 21 
 7612.328125 
 31 
 0 
 0 
LINE
 10 
 5923.5361328125 
 20 
 7612.328125 
 30 
 0 
 11 
 5474.22412109375 
 21 
 7556.8720703125 
 31 
 0 
 0 
LINE
 10 
 5474.22412109375 
 20 
 7556.8720703125 
 30 
 0 
 11 
 5049.0078125 
 21 
 7499.5439453125 
 31 
 0 
 0 
LINE
 10 
 5049.0078125 
 20 
 7499.5439453125 
 30 
 0 
 11 
 4686 
 21 
 7445 
 31 
 0 
 0 
LINE
 10 
 4686 
 20 
 7445 
 30 
 0 
 11 
 4596.0400390625 
 21 
 7430.7197265625 
 31 
 0 
 0 
LINE
 10 
 4596.0400390625 
 20 
 7430.7197265625 
 30 
 0 
 11 
 4514.47998046875 
 21 
 7418.3603515625 
 31 
 0 
 0 
LINE
 10 
 4514.47998046875 
 20 
 7418.3603515625 
 30 
 0 
 11 
 4446.60009765625 
 21 
 7408.640625 
 31 
 0 
 0 
LINE
 10 
 4446.60009765625 
 20 
 7408.640625 
 30 
 0 
 11 
 4397.68017578125 
 21 
 7402.2802734375 
 31 
 0 
 0 
LINE
 10 
 4397.68017578125 
 20 
 7402.2802734375 
 30 
 0 
 11 
 4373 
 21 
 7400 
 31 
 0 
 0 
LINE
 10 
 4373 
 20 
 7400 
 30 
 0 
 11 
 4332.7275390625 
 21 
 7407.9677734375 
 31 
 0 
 0 
LINE
 10 
 4332.7275390625 
 20 
 7407.9677734375 
 30 
 0 
 11 
 4289.86376953125 
 21 
 7429.18408203125 
 31 
 0 
 0 
LINE
 10 
 4289.86376953125 
 20 
 7429.18408203125 
 30 
 0 
 11 
 4249.73583984375 
 21 
 7459.6162109375 
 31 
 0 
 0 
LINE
 10 
 4249.73583984375 
 20 
 7459.6162109375 
 30 
 0 
 11 
 4217.671875 
 21 
 7495.23193359375 
 31 
 0 
 0 
LINE
 10 
 4217.671875 
 20 
 7495.23193359375 
 30 
 0 
 11 
 4199 
 21 
 7532 
 31 
 0 
 0 
LINE
 10 
 4199 
 20 
 7532 
 30 
 0 
 11 
 4179.45556640625 
 21 
 7568.431640625 
 31 
 0 
 0 
LINE
 10 
 4179.45556640625 
 20 
 7568.431640625 
 30 
 0 
 11 
 4142.00830078125 
 21 
 7609.3759765625 
 31 
 0 
 0 
LINE
 10 
 4142.00830078125 
 20 
 7609.3759765625 
 30 
 0 
 11 
 4093.23217773438 
 21 
 7649.50390625 
 31 
 0 
 0 
LINE
 10 
 4093.23217773438 
 20 
 7649.50390625 
 30 
 0 
 11 
 4039.7041015625 
 21 
 7683.48828125 
 31 
 0 
 0 
LINE
 10 
 4039.7041015625 
 20 
 7683.48828125 
 30 
 0 
 11 
 3988 
 21 
 7706 
 31 
 0 
 0 
LINE
 10 
 3988 
 20 
 7706 
 30 
 0 
 11 
 3955.64794921875 
 21 
 7718.39208984375 
 31 
 0 
 0 
LINE
 10 
 3955.64794921875 
 20 
 7718.39208984375 
 30 
 0 
 11 
 3926.22436523438 
 21 
 7735.05615234375 
 31 
 0 
 0 
LINE
 10 
 3926.22436523438 
 20 
 7735.05615234375 
 30 
 0 
 11 
 3902.17602539063 
 21 
 7754.02392578125 
 31 
 0 
 0 
LINE
 10 
 3902.17602539063 
 20 
 7754.02392578125 
 30 
 0 
 11 
 3885.9521484375 
 21 
 7773.328125 
 31 
 0 
 0 
LINE
 10 
 3885.9521484375 
 20 
 7773.328125 
 30 
 0 
 11 
 3880 
 21 
 7791 
 31 
 0 
 0 
LINE
 10 
 3880 
 20 
 7791 
 30 
 0 
 11 
 3876.89575195313 
 21 
 7798.3037109375 
 31 
 0 
 0 
LINE
 10 
 3876.89575195313 
 20 
 7798.3037109375 
 30 
 0 
 11 
 3869.08813476563 
 21 
 7800.23193359375 
 31 
 0 
 0 
LINE
 10 
 3869.08813476563 
 20 
 7800.23193359375 
 30 
 0 
 11 
 3858.83203125 
 21 
 7797.40771484375 
 31 
 0 
 0 
LINE
 10 
 3858.83203125 
 20 
 7797.40771484375 
 30 
 0 
 11 
 3848.38403320313 
 21 
 7790.4560546875 
 31 
 0 
 0 
LINE
 10 
 3848.38403320313 
 20 
 7790.4560546875 
 30 
 0 
 11 
 3840 
 21 
 7780 
 31 
 0 
 0 
LINE
 10 
 3840 
 20 
 7780 
 30 
 0 
 11 
 3829.10375976563 
 21 
 7767.255859375 
 31 
 0 
 0 
LINE
 10 
 3829.10375976563 
 20 
 7767.255859375 
 30 
 0 
 11 
 3814.27221679688 
 21 
 7761.32763671875 
 31 
 0 
 0 
LINE
 10 
 3814.27221679688 
 20 
 7761.32763671875 
 30 
 0 
 11 
 3797.08813476563 
 21 
 7762.07177734375 
 31 
 0 
 0 
LINE
 10 
 3797.08813476563 
 20 
 7762.07177734375 
 30 
 0 
 11 
 3779.13598632813 
 21 
 7769.34423828125 
 31 
 0 
 0 
LINE
 10 
 3779.13598632813 
 20 
 7769.34423828125 
 30 
 0 
 11 
 3762 
 21 
 7783 
 31 
 0 
 0 
LINE
 10 
 3762 
 20 
 7783 
 30 
 0 
 11 
 3738.4560546875 
 21 
 7813.07177734375 
 31 
 0 
 0 
LINE
 10 
 3738.4560546875 
 20 
 7813.07177734375 
 30 
 0 
 11 
 3720.5283203125 
 21 
 7848.3759765625 
 31 
 0 
 0 
LINE
 10 
 3720.5283203125 
 20 
 7848.3759765625 
 30 
 0 
 11 
 3708.07202148438 
 21 
 7889.34423828125 
 31 
 0 
 0 
LINE
 10 
 3708.07202148438 
 20 
 7889.34423828125 
 30 
 0 
 11 
 3700.94409179688 
 21 
 7936.408203125 
 31 
 0 
 0 
LINE
 10 
 3700.94409179688 
 20 
 7936.408203125 
 30 
 0 
 11 
 3699 
 21 
 7990 
 31 
 0 
 0 
LINE
 10 
 3699 
 20 
 7990 
 30 
 0 
 11 
 3698.64770507813 
 21 
 8018.30322265625 
 31 
 0 
 0 
LINE
 10 
 3698.64770507813 
 20 
 8018.30322265625 
 30 
 0 
 11 
 3697.6240234375 
 21 
 8043.39208984375 
 31 
 0 
 0 
LINE
 10 
 3697.6240234375 
 20 
 8043.39208984375 
 30 
 0 
 11 
 3695.97607421875 
 21 
 8063.72802734375 
 31 
 0 
 0 
LINE
 10 
 3695.97607421875 
 20 
 8063.72802734375 
 30 
 0 
 11 
 3693.751953125 
 21 
 8077.7763671875 
 31 
 0 
 0 
LINE
 10 
 3693.751953125 
 20 
 8077.7763671875 
 30 
 0 
 11 
 3691 
 21 
 8084 
 31 
 0 
 0 
LINE
 10 
 3691 
 20 
 8084 
 30 
 0 
 11 
 3687.37573242188 
 21 
 8084.30419921875 
 31 
 0 
 0 
LINE
 10 
 3687.37573242188 
 20 
 8084.30419921875 
 30 
 0 
 11 
 3681.68823242188 
 21 
 8081.87255859375 
 31 
 0 
 0 
LINE
 10 
 3681.68823242188 
 20 
 8081.87255859375 
 30 
 0 
 11 
 3674.51220703125 
 21 
 8077.087890625 
 31 
 0 
 0 
LINE
 10 
 3674.51220703125 
 20 
 8077.087890625 
 30 
 0 
 11 
 3666.42407226563 
 21 
 8070.33642578125 
 31 
 0 
 0 
LINE
 10 
 3666.42407226563 
 20 
 8070.33642578125 
 30 
 0 
 11 
 3658 
 21 
 8062 
 31 
 0 
 0 
ENDSEC
 0 
EOF
