  0
SECTION
  2
HEADER
  9
$ACADVER
  1
AC1014
  9
$HANDSEED
  5
FFFF
  9
$MEASUREMENT
 70
     1
  0
ENDSEC
  0
SECTION
  2
TABLES
  0
TABLE
  2
VPORT
  5
8
330
0
100
AcDbSymbolTable
 70
     4
  0
VPORT
  5
2E
330
8
100
AcDbSymbolTableRecord
100
AcDbViewportTableRecord
  2
*ACTIVE
 70
     0
 10
0.0
 20
0.0
 11
1.0
 21
1.0
 12
210.0
 22
148.5
 13
0.0
 23
0.0
 14
10.0
 24
10.0
 15
10.0
 25
10.0
 16
0.0
 26
0.0
 36
1.0
 17
0.0
 27
0.0
 37
0.0
 40
341.0
 41
1.24
 42
50.0
 43
0.0
 44
0.0
 50
0.0
 51
0.0
 71
     0
 72
   100
 73
     1
 74
     3
 75
     0
 76
     0
 77
     0
 78
     0
  0
ENDTAB
  0
TABLE
  2
LTYPE
  5
5
330
0
100
AcDbSymbolTable
 70
     1
  0
LTYPE
  5
14
330
5
100
AcDbSymbolTableRecord
100
AcDbLinetypeTableRecord
  2
BYBLOCK
 70
     0
  3

 72
    65
 73
     0
 40
0.0
  0
LTYPE
  5
15
330
5
100
AcDbSymbolTableRecord
100
AcDbLinetypeTableRecord
  2
BYLAYER
 70
     0
  3

 72
    65
 73
     0
 40
0.0
  0
LTYPE
  5
16
330
5
100
AcDbSymbolTableRecord
100
AcDbLinetypeTableRecord
  2
CONTINUOUS
 70
     0
  3
Solid line
 72
    65
 73
     0
 40
0.0
  0
ENDTAB
  0
TABLE
  2
LAYER
  5
2
100
AcDbSymbolTable
 70
1
  0
LAYER
  5
50
100
AcDbSymbolTableRecord
100
AcDbLayerTableRecord
  2
0
 70
0
  6
CONTINUOUS
  0
ENDTAB
  0
TABLE
  2
STYLE
  5
3
330
0
100
AcDbSymbolTable
 70
     1
  0
STYLE
  5
11
330
3
100
AcDbSymbolTableRecord
100
AcDbTextStyleTableRecord
  2
STANDARD
 70
     0
 40
0.0
 41
1.0
 50
0.0
 71
     0
 42
2.5
  3
txt
  4

  0
ENDTAB
  0
TABLE
  2
VIEW
  5
6
330
0
100
AcDbSymbolTable
 70
     0
  0
ENDTAB
  0
TABLE
  2
UCS
  5
7
330
0
100
AcDbSymbolTable
 70
     0
  0
ENDTAB
  0
TABLE
  2
APPID
  5
9
330
0
100
AcDbSymbolTable
 70
     2
  0
APPID
  5
12
330
9
100
AcDbSymbolTableRecord
100
AcDbRegAppTableRecord
  2
ACAD
 70
     0
  0
ENDTAB
  0
TABLE
  2
DIMSTYLE
  5
A
330
0
100
AcDbSymbolTable
 70
     1
  0
DIMSTYLE
105
27
330
A
100
AcDbSymbolTableRecord
100
AcDbDimStyleTableRecord
  2
ISO-25
 70
     0
  3

  4

  5

  6

  7

 40
1.0
 41
2.5
 42
0.625
 43
3.75
 44
1.25
 45
0.0
 46
0.0
 47
0.0
 48
0.0
140
2.5
141
2.5
142
0.0
143
0.03937007874016
144
1.0
145
0.0
146
1.0
147
0.625
 71
     0
 72
     0
 73
     0
 74
     0
 75
     0
 76
     0
 77
     1
 78
     8
170
     0
171
     3
172
     1
173
     0
174
     0
175
     0
176
     0
177
     0
178
     0
270
     2
271
     2
272
     2
273
     2
274
     3
340
11
275
     0
280
     0
281
     0
282
     0
283
     0
284
     8
285
     0
286
     0
287
     3
288
     0
  0
ENDTAB
  0
TABLE
  2
BLOCK_RECORD
  5
1
330
0
100
AcDbSymbolTable
 70
     1
  0
BLOCK_RECORD
  5
1F
330
1
100
AcDbSymbolTableRecord
100
AcDbBlockTableRecord
  2
*MODEL_SPACE
  0
BLOCK_RECORD
  5
1B
330
1
100
AcDbSymbolTableRecord
100
AcDbBlockTableRecord
  2
*PAPER_SPACE
  0
ENDTAB
  0
ENDSEC
  0
SECTION
  2
BLOCKS
  0
BLOCK
  5
20
330
1F
100
AcDbEntity
  8
0
100
AcDbBlockBegin
  2
*MODEL_SPACE
 70
     0
 10
0.0
 20
0.0
 30
0.0
  3
*MODEL_SPACE
  1

  0
ENDBLK
  5
21
330
1F
100
AcDbEntity
  8
0
100
AcDbBlockEnd
  0
BLOCK
  5
1C
330
1B
100
AcDbEntity
 67
     1
  8
0
100
AcDbBlockBegin
  2
*PAPER_SPACE
  1

  0
ENDBLK
  5
1D
330
1B
100
AcDbEntity
 67
     1
  8
0
100
AcDbBlockEnd
  0
ENDSEC
  0
SECTION
  2
ENTITIES
  0
SPLINE
  5
100
100
AcDbEntity
  8
0
 62
7
100
AcDbSpline
 70
8
 71
3
 72
8
 73
4
 74
0
 40
0
 40
0
 40
0
 40
0
 40
1
 40
1
 40
1
 40
1
 10
67.783021
 20
261.741642
 30
0.0
 10
67.782993
 20
261.741642
 30
0.0
 10
67.782993
 20
261.741642
 30
0.0
 10
67.783021
 20
261.741642
 30
0.0
  0
SPLINE
  5
101
100
AcDbEntity
  8
0
 62
7
100
AcDbSpline
 70
8
 71
3
 72
8
 73
4
 74
0
 40
0
 40
0
 40
0
 40
0
 40
1
 40
1
 40
1
 40
1
 10
66.916514
 20
258.549539
 30
0.0
 10
66.232267
 20
258.397591
 30
0.0
 10
65.548019
 20
258.245642
 30
0.0
 10
64.863771
 20
258.093694
 30
0.0
  0
LWPOLYLINE
  5
102
100
AcDbEntity
  8
0
 62
7
100
AcDbPolyline
 90
2
 70
0
 10
67.783021
 20
261.741642
 30
0.0
 10
67.783021
 20
261.741642
 30
0.0
  0
SPLINE
  5
103
100
AcDbEntity
  8
0
 62
7
100
AcDbSpline
 70
8
 71
3
 72
8
 73
4
 74
0
 40
0
 40
0
 40
0
 40
0
 40
1
 40
1
 40
1
 40
1
 10
70.765659
 20
260.689913
 30
0.0
 10
70.460830
 20
261.011646
 30
0.0
 10
70.156002
 20
261.333351
 30
0.0
 10
69.851174
 20
261.655084
 30
0.0
  0
LWPOLYLINE
  5
104
100
AcDbEntity
  8
0
 62
7
100
AcDbPolyline
 90
2
 70
0
 10
69.152251
 20
261.710231
 30
0.0
 10
67.783021
 20
261.741642
 30
0.0
  0
LWPOLYLINE
  5
105
100
AcDbEntity
  8
0
 62
7
100
AcDbPolyline
 90
2
 70
0
 10
69.851174
 20
261.655084
 30
0.0
 10
69.152251
 20
261.710231
 30
0.0
  0
LWPOLYLINE
  5
106
100
AcDbEntity
  8
0
 62
7
100
AcDbPolyline
 90
2
 70
0
 10
70.870391
 20
260.332732
 30
0.0
 10
70.765659
 20
260.689913
 30
0.0
  0
LWPOLYLINE
  5
107
100
AcDbEntity
  8
0
 62
7
100
AcDbPolyline
 90
2
 70
0
 10
70.910608
 20
260.251706
 30
0.0
 10
70.870391
 20
260.332732
 30
0.0
  0
SPLINE
  5
108
100
AcDbEntity
  8
0
 62
7
100
AcDbSpline
 70
8
 71
3
 72
8
 73
4
 74
0
 40
0
 40
0
 40
0
 40
0
 40
1
 40
1
 40
1
 40
1
 10
73.522264
 20
260.520156
 30
0.0
 10
73.133675
 20
260.522978
 30
0.0
 10
71.582565
 20
260.497296
 30
0.0
 10
71.195596
 20
260.482112
 30
0.0
  0
LWPOLYLINE
  5
109
100
AcDbEntity
  8
0
 62
7
100
AcDbPolyline
 90
2
 70
0
 10
70.949188
 20
260.280380
 30
0.0
 10
70.910608
 20
260.251706
 30
0.0
  0
LWPOLYLINE
  5
10a
100
AcDbEntity
  8
0
 62
7
100
AcDbPolyline
 90
2
 70
0
 10
71.195596
 20
260.482112
 30
0.0
 10
70.949188
 20
260.280380
 30
0.0
  0
SPLINE
  5
10b
100
AcDbEntity
  8
0
 62
7
100
AcDbSpline
 70
8
 71
3
 72
8
 73
4
 74
0
 40
0
 40
0
 40
0
 40
0
 40
1
 40
1
 40
1
 40
1
 10
71.330103
 20
258.950295
 30
0.0
 10
72.020955
 20
258.979505
 30
0.0
 10
72.711807
 20
259.008715
 30
0.0
 10
73.402658
 20
259.037925
 30
0.0
  0
LWPOLYLINE
  5
10c
100
AcDbEntity
  8
0
 62
7
100
AcDbPolyline
 90
2
 70
0
 10
73.914751
 20
259.721439
 30
0.0
 10
73.522264
 20
260.520156
 30
0.0
  0
LWPOLYLINE
  5
10d
100
AcDbEntity
  8
0
 62
7
100
AcDbPolyline
 90
2
 70
0
 10
73.402658
 20
259.037925
 30
0.0
 10
73.914751
 20
259.721439
 30
0.0
  0
SPLINE
  5
10e
100
AcDbEntity
  8
0
 62
7
100
AcDbSpline
 70
8
 71
3
 72
8
 73
4
 74
0
 40
0
 40
0
 40
0
 40
0
 40
1
 40
1
 40
1
 40
1
 10
69.219476
 20
258.471872
 30
0.0
 10
69.592650
 20
258.581007
 30
0.0
 10
69.965821
 20
258.690142
 30
0.0
 10
70.338995
 20
258.799278
 30
0.0
  0
SPLINE
  5
10f
100
AcDbEntity
  8
0
 62
7
100
AcDbSpline
 70
8
 71
3
 72
8
 73
4
 74
0
 40
0
 40
0
 40
0
 40
0
 40
1
 40
1
 40
1
 40
1
 10
66.916514
 20
258.549567
 30
0.0
 10
67.304841
 20
258.535739
 30
0.0
 10
68.840150
 20
258.483894
 30
0.0
 10
69.219476
 20
258.471872
 30
0.0
  0
SPLINE
  5
110
100
AcDbEntity
  8
0
 62
7
100
AcDbSpline
 70
8
 71
3
 72
8
 73
4
 74
0
 40
0
 40
0
 40
0
 40
0
 40
1
 40
1
 40
1
 40
1
 10
59.702181
 20
240.789436
 30
0.0
 10
59.718832
 20
240.821863
 30
0.0
 10
59.718832
 20
240.821863
 30
0.0
 10
59.702181
 20
240.789436
 30
0.0
  0
LWPOLYLINE
  5
111
100
AcDbEntity
  8
0
 62
7
100
AcDbPolyline
 90
2
 70
0
 10
70.893534
 20
259.039054
 30
0.0
 10
71.330103
 20
258.950323
 30
0.0
  0
SPLINE
  5
112
100
AcDbEntity
  8
0
 62
7
100
AcDbSpline
 70
8
 71
3
 72
8
 73
4
 74
0
 40
0
 40
0
 40
0
 40
0
 40
1
 40
1
 40
1
 40
1
 10
65.061129
 20
256.621990
 30
0.0
 10
64.995343
 20
257.112577
 30
0.0
 10
64.929557
 20
257.603135
 30
0.0
 10
64.863771
 20
258.093722
 30
0.0
  0
SPLINE
  5
113
100
AcDbEntity
  8
0
 62
7
100
AcDbSpline
 70
8
 71
3
 72
8
 73
4
 74
0
 40
0
 40
0
 40
0
 40
0
 40
1
 40
1
 40
1
 40
1
 10
63.565126
 20
255.602236
 30
0.0
 10
64.063793
 20
255.942145
 30
0.0
 10
64.562462
 20
256.282081
 30
0.0
 10
65.061129
 20
256.621990
 30
0.0
  0
SPLINE
  5
114
100
AcDbEntity
  8
0
 62
7
100
AcDbSpline
 70
8
 71
3
 72
8
 73
4
 74
0
 40
0
 40
0
 40
0
 40
0
 40
1
 40
1
 40
1
 40
1
 10
62.045415
 20
254.842099
 30
0.0
 10
62.551985
 20
255.095478
 30
0.0
 10
63.058556
 20
255.348857
 30
0.0
 10
63.565126
 20
255.602236
 30
0.0
  0
LWPOLYLINE
  5
115
100
AcDbEntity
  8
0
 62
7
100
AcDbPolyline
 90
2
 70
0
 10
70.338995
 20
258.799278
 30
0.0
 10
70.893534
 20
259.039054
 30
0.0
  0
SPLINE
  5
116
100
AcDbEntity
  8
0
 62
7
100
AcDbSpline
 70
8
 71
3
 72
8
 73
4
 74
0
 40
0
 40
0
 40
0
 40
0
 40
1
 40
1
 40
1
 40
1
 10
58.556217
 20
250.270325
 30
0.0
 10
58.996326
 20
250.795512
 30
0.0
 10
60.723114
 20
252.923552
 30
0.0
 10
61.146396
 20
253.462399
 30
0.0
  0
LWPOLYLINE
  5
117
100
AcDbEntity
  8
0
 62
7
100
AcDbPolyline
 90
2
 70
0
 10
59.702181
 20
240.789436
 30
0.0
 10
59.702181
 20
240.789436
 30
0.0
  0
SPLINE
  5
118
100
AcDbEntity
  8
0
 62
7
100
AcDbSpline
 70
8
 71
3
 72
8
 73
4
 74
0
 40
0
 40
0
 40
0
 40
0
 40
1
 40
1
 40
1
 40
1
 10
56.196473
 20
247.329033
 30
0.0
 10
56.493577
 20
247.769271
 30
0.0
 10
56.790683
 20
248.209510
 30
0.0
 10
57.087787
 20
248.649748
 30
0.0
  0
SPLINE
  5
119
100
AcDbEntity
  8
0
 62
7
100
AcDbSpline
 70
8
 71
3
 72
8
 73
4
 74
0
 40
0
 40
0
 40
0
 40
0
 40
1
 40
1
 40
1
 40
1
 10
54.508106
 20
245.219535
 30
0.0
 10
54.792293
 20
245.569913
 30
0.0
 10
55.917871
 20
246.976227
 30
0.0
 10
56.196473
 20
247.329033
 30
0.0
  0
SPLINE
  5
11a
100
AcDbEntity
  8
0
 62
7
100
AcDbSpline
 70
8
 71
3
 72
8
 73
4
 74
0
 40
0
 40
0
 40
0
 40
0
 40
1
 40
1
 40
1
 40
1
 10
53.085960
 20
242.801370
 30
0.0
 10
53.317716
 20
243.208927
 30
0.0
 10
54.265813
 20
244.821037
 30
0.0
 10
54.508106
 20
245.219535
 30
0.0
  0
SPLINE
  5
11b
100
AcDbEntity
  8
0
 62
7
100
AcDbSpline
 70
8
 71
3
 72
8
 73
4
 74
0
 40
0
 40
0
 40
0
 40
0
 40
1
 40
1
 40
1
 40
1
 10
52.923908
 20
240.028198
 30
0.0
 10
52.948829
 20
240.488672
 30
0.0
 10
53.056877
 20
242.337453
 30
0.0
 10
53.085960
 20
242.801370
 30
0.0
  0
SPLINE
  5
11c
100
AcDbEntity
  8
0
 62
7
100
AcDbSpline
 70
8
 71
3
 72
8
 73
4
 74
0
 40
0
 40
0
 40
0
 40
0
 40
1
 40
1
 40
1
 40
1
 10
52.681367
 20
237.565922
 30
0.0
 10
52.724640
 20
237.976047
 30
0.0
 10
52.886336
 20
239.617565
 30
0.0
 10
52.923908
 20
240.028198
 30
0.0
  0
LWPOLYLINE
  5
11d
100
AcDbEntity
  8
0
 62
7
100
AcDbPolyline
 90
2
 70
0
 10
61.146396
 20
253.462399
 30
0.0
 10
62.045415
 20
254.842099
 30
0.0
  0
LWPOLYLINE
  5
11e
100
AcDbEntity
  8
0
 62
7
100
AcDbPolyline
 90
2
 70
0
 10
57.087787
 20
248.649748
 30
0.0
 10
58.556217
 20
250.270325
 30
0.0
  0
LWPOLYLINE
  5
11f
100
AcDbEntity
  8
0
 62
7
100
AcDbPolyline
 90
2
 70
0
 10
52.445993
 20
236.687279
 30
0.0
 10
52.681367
 20
237.565922
 30
0.0
  0
LWPOLYLINE
  5
120
100
AcDbEntity
  8
0
 62
7
100
AcDbPolyline
 90
2
 70
0
 10
52.409615
 20
236.378613
 30
0.0
 10
52.445993
 20
236.687279
 30
0.0
  0
LWPOLYLINE
  5
121
100
AcDbEntity
  8
0
 62
7
100
AcDbPolyline
 90
2
 70
0
 10
52.415118
 20
236.269449
 30
0.0
 10
52.409474
 20
236.378613
 30
0.0
  0
LWPOLYLINE
  5
122
100
AcDbEntity
  8
0
 62
7
100
AcDbPolyline
 90
2
 70
0
 10
52.473002
 20
236.210493
 30
0.0
 10
52.415118
 20
236.269449
 30
0.0
  0
SPLINE
  5
123
100
AcDbEntity
  8
0
 62
7
100
AcDbSpline
 70
8
 71
3
 72
8
 73
4
 74
0
 40
0
 40
0
 40
0
 40
0
 40
1
 40
1
 40
1
 40
1
 10
53.570480
 20
238.241703
 30
0.0
 10
53.323713
 20
237.666421
 30
0.0
 10
53.076949
 20
237.091139
 30
0.0
 10
52.830182
 20
236.515858
 30
0.0
  0
SPLINE
  5
124
100
AcDbEntity
  8
0
 62
7
100
AcDbSpline
 70
8
 71
3
 72
8
 73
4
 74
0
 40
0
 40
0
 40
0
 40
0
 40
1
 40
1
 40
1
 40
1
 10
57.847896
 20
242.780965
 30
0.0
 10
55.976258
 20
241.829425
 30
0.0
 10
54.133694
 20
240.368501
 30
0.0
 10
53.570480
 20
238.241703
 30
0.0
  0
LWPOLYLINE
  5
125
100
AcDbEntity
  8
0
 62
7
100
AcDbPolyline
 90
2
 70
0
 10
52.527584
 20
236.216533
 30
0.0
 10
52.473002
 20
236.210324
 30
0.0
  0
LWPOLYLINE
  5
126
100
AcDbEntity
  8
0
 62
7
100
AcDbPolyline
 90
2
 70
0
 10
52.830182
 20
236.515858
 30
0.0
 10
52.527584
 20
236.216533
 30
0.0
  0
LWPOLYLINE
  5
127
100
AcDbEntity
  8
0
 62
7
100
AcDbPolyline
 90
2
 70
0
 10
59.272243
 20
243.409897
 30
0.0
 10
57.847896
 20
242.780965
 30
0.0
  0
LWPOLYLINE
  5
128
100
AcDbEntity
  8
0
 62
7
100
AcDbPolyline
 90
2
 70
0
 10
59.692275
 20
243.338241
 30
0.0
 10
59.272243
 20
243.409897
 30
0.0
  0
LWPOLYLINE
  5
129
100
AcDbEntity
  8
0
 62
7
100
AcDbPolyline
 90
2
 70
0
 10
60.037348
 20
243.049951
 30
0.0
 10
59.692275
 20
243.338241
 30
0.0
  0
LWPOLYLINE
  5
12a
100
AcDbEntity
  8
0
 62
7
100
AcDbPolyline
 90
2
 70
0
 10
60.324509
 20
242.718114
 30
0.0
 10
60.037348
 20
243.049951
 30
0.0
  0
SPLINE
  5
12b
100
AcDbEntity
  8
0
 62
7
100
AcDbSpline
 70
8
 71
3
 72
8
 73
4
 74
0
 40
0
 40
0
 40
0
 40
0
 40
1
 40
1
 40
1
 40
1
 10
61.986431
 20
241.991082
 30
0.0
 10
61.604999
 20
241.795078
 30
0.0
 10
60.082165
 20
240.993962
 30
0.0
 10
59.702181
 20
240.789436
 30
0.0
  0
SPLINE
  5
12c
100
AcDbEntity
  8
0
 62
7
100
AcDbSpline
 70
8
 71
3
 72
8
 73
4
 74
0
 40
0
 40
0
 40
0
 40
0
 40
1
 40
1
 40
1
 40
1
 10
64.970141
 20
241.613497
 30
0.0
 10
64.469899
 20
241.680299
 30
0.0
 10
62.480760
 20
241.932013
 30
0.0
 10
61.986431
 20
241.991082
 30
0.0
  0
LWPOLYLINE
  5
12d
100
AcDbEntity
  8
0
 62
7
100
AcDbPolyline
 90
2
 70
0
 10
60.419336
 20
242.341658
 30
0.0
 10
60.324509
 20
242.718114
 30
0.0
  0
SPLINE
  5
12e
100
AcDbEntity
  8
0
 62
7
100
AcDbSpline
 70
8
 71
3
 72
8
 73
4
 74
0
 40
0
 40
0
 40
0
 40
0
 40
1
 40
1
 40
1
 40
1
 10
69.214509
 20
240.028734
 30
0.0
 10
68.867054
 20
240.230184
 30
0.0
 10
67.483132
 20
241.010698
 30
0.0
 10
67.138623
 20
241.199533
 30
0.0
  0
SPLINE
  5
12f
100
AcDbEntity
  8
0
 62
7
100
AcDbSpline
 70
8
 71
3
 72
8
 73
4
 74
0
 40
0
 40
0
 40
0
 40
0
 40
1
 40
1
 40
1
 40
1
 10
71.378024
 20
238.644632
 30
0.0
 10
71.018056
 20
238.871708
 30
0.0
 10
69.575714
 20
239.794433
 30
0.0
 10
69.214509
 20
240.028734
 30
0.0
  0
LWPOLYLINE
  5
130
100
AcDbEntity
  8
0
 62
7
100
AcDbPolyline
 90
2
 70
0
 10
59.921016
 20
241.206137
 30
0.0
 10
60.419336
 20
242.341658
 30
0.0
  0
SPLINE
  5
131
100
AcDbEntity
  8
0
 62
7
100
AcDbSpline
 70
8
 71
3
 72
8
 73
4
 74
0
 40
0
 40
0
 40
0
 40
0
 40
1
 40
1
 40
1
 40
1
 10
73.421370
 20
236.627194
 30
0.0
 10
73.213747
 20
237.030490
 30
0.0
 10
73.006128
 20
237.433814
 30
0.0
 10
72.798505
 20
237.837109
 30
0.0
  0
LWPOLYLINE
  5
132
100
AcDbEntity
  8
0
 62
7
100
AcDbPolyline
 90
2
 70
0
 10
67.138623
 20
241.199533
 30
0.0
 10
64.970141
 20
241.613497
 30
0.0
  0
SPLINE
  5
133
100
AcDbEntity
  8
0
 62
7
100
AcDbSpline
 70
8
 71
3
 72
8
 73
4
 74
0
 40
0
 40
0
 40
0
 40
0
 40
1
 40
1
 40
1
 40
1
 10
73.979210
 20
235.255764
 30
0.0
 10
73.899505
 20
235.428794
 30
0.0
 10
73.623907
 20
236.027049
 30
0.0
 10
73.565811
 20
236.153146
 30
0.0
  0
SPLINE
  5
134
100
AcDbEntity
  8
0
 62
7
100
AcDbSpline
 70
8
 71
3
 72
8
 73
4
 74
0
 40
0
 40
0
 40
0
 40
0
 40
1
 40
1
 40
1
 40
1
 10
75.325834
 20
232.781917
 30
0.0
 10
75.100078
 20
233.195739
 30
0.0
 10
74.202330
 20
234.844961
 30
0.0
 10
73.979210
 20
235.255764
 30
0.0
  0
SPLINE
  5
135
100
AcDbEntity
  8
0
 62
7
100
AcDbSpline
 70
8
 71
3
 72
8
 73
4
 74
0
 40
0
 40
0
 40
0
 40
0
 40
1
 40
1
 40
1
 40
1
 10
78.144189
 20
228.502835
 30
0.0
 10
77.066196
 20
229.833118
 30
0.0
 10
76.192891
 20
231.310579
 30
0.0
 10
75.325834
 20
232.781917
 30
0.0
  0
SPLINE
  5
136
100
AcDbEntity
  8
0
 62
7
100
AcDbSpline
 70
8
 71
3
 72
8
 73
4
 74
0
 40
0
 40
0
 40
0
 40
0
 40
1
 40
1
 40
1
 40
1
 10
80.633474
 20
226.781392
 30
0.0
 10
80.218297
 20
227.062965
 30
0.0
 10
78.558774
 20
228.210594
 30
0.0
 10
78.144189
 20
228.502835
 30
0.0
  0
SPLINE
  5
137
100
AcDbEntity
  8
0
 62
7
100
AcDbSpline
 70
8
 71
3
 72
8
 73
4
 74
0
 40
0
 40
0
 40
0
 40
0
 40
1
 40
1
 40
1
 40
1
 10
84.338205
 20
226.790762
 30
0.0
 10
83.714754
 20
226.785400
 30
0.0
 10
81.244931
 20
226.779191
 30
0.0
 10
80.633474
 20
226.781449
 30
0.0
  0
SPLINE
  5
138
100
AcDbEntity
  8
0
 62
7
100
AcDbSpline
 70
8
 71
3
 72
8
 73
4
 74
0
 40
0
 40
0
 40
0
 40
0
 40
1
 40
1
 40
1
 40
1
 10
86.630696
 20
226.998562
 30
0.0
 10
86.254105
 20
226.965514
 30
0.0
 10
84.725778
 20
226.826971
 30
0.0
 10
84.338205
 20
226.790762
 30
0.0
  0
LWPOLYLINE
  5
139
100
AcDbEntity
  8
0
 62
7
100
AcDbPolyline
 90
2
 70
0
 10
72.798505
 20
237.837109
 30
0.0
 10
71.378024
 20
238.644632
 30
0.0
  0
LWPOLYLINE
  5
13a
100
AcDbEntity
  8
0
 62
7
100
AcDbPolyline
 90
2
 70
0
 10
73.565811
 20
236.153146
 30
0.0
 10
73.421370
 20
236.627194
 30
0.0
  0
LWPOLYLINE
  5
13b
100
AcDbEntity
  8
0
 62
7
100
AcDbPolyline
 90
2
 70
0
 10
87.903462
 20
226.493667
 30
0.0
 10
86.630696
 20
226.998562
 30
0.0
  0
LWPOLYLINE
  5
13c
100
AcDbEntity
  8
0
 62
7
100
AcDbPolyline
 90
2
 70
0
 10
88.631624
 20
226.102845
 30
0.0
 10
87.903462
 20
226.493667
 30
0.0
  0
LWPOLYLINE
  5
13d
100
AcDbEntity
  8
0
 62
7
100
AcDbPolyline
 90
2
 70
0
 10
88.840524
 20
226.026787
 30
0.0
 10
88.631624
 20
226.102845
 30
0.0
  0
SPLINE
  5
13e
100
AcDbEntity
  8
0
 62
7
100
AcDbSpline
 70
8
 71
3
 72
8
 73
4
 74
0
 40
0
 40
0
 40
0
 40
0
 40
1
 40
1
 40
1
 40
1
 10
87.210042
 20
197.348719
 30
0.0
 10
87.005084
 20
197.939354
 30
0.0
 10
86.185245
 20
200.301836
 30
0.0
 10
85.980287
 20
200.892471
 30
0.0
  0
SPLINE
  5
13f
100
AcDbEntity
  8
0
 62
7
100
AcDbSpline
 70
8
 71
3
 72
8
 73
4
 74
0
 40
0
 40
0
 40
0
 40
0
 40
1
 40
1
 40
1
 40
1
 10
87.210042
 20
197.348719
 30
0.0
 10
87.859190
 20
197.579690
 30
0.0
 10
88.508340
 20
197.810632
 30
0.0
 10
89.157488
 20
198.041603
 30
0.0
  0
SPLINE
  5
140
100
AcDbEntity
  8
0
 62
7
100
AcDbSpline
 70
8
 71
3
 72
8
 73
4
 74
0
 40
0
 40
0
 40
0
 40
0
 40
1
 40
1
 40
1
 40
1
 10
19.690533
 20
239.034324
 30
0.0
 10
21.459191
 20
239.618073
 30
0.0
 10
23.227878
 20
240.201793
 30
0.0
 10
24.996537
 20
240.785541
 30
0.0
  0
SPLINE
  5
141
100
AcDbEntity
  8
0
 62
7
100
AcDbSpline
 70
8
 71
3
 72
8
 73
4
 74
0
 40
0
 40
0
 40
0
 40
0
 40
1
 40
1
 40
1
 40
1
 10
85.910832
 20
203.731767
 30
0.0
 10
85.922883
 20
203.268217
 30
0.0
 10
85.969173
 20
201.375353
 30
0.0
 10
85.980287
 20
200.892442
 30
0.0
  0
LWPOLYLINE
  5
142
100
AcDbEntity
  8
0
 62
7
100
AcDbPolyline
 90
2
 70
0
 10
88.819584
 20
226.210316
 30
0.0
 10
88.840468
 20
226.026787
 30
0.0
  0
LWPOLYLINE
  5
143
100
AcDbEntity
  8
0
 62
7
100
AcDbPolyline
 90
2
 70
0
 10
88.641530
 20
226.859653
 30
0.0
 10
88.819584
 20
226.210316
 30
0.0
  0
LWPOLYLINE
  5
144
100
AcDbEntity
  8
0
 62
7
100
AcDbPolyline
 90
2
 70
0
 10
85.867821
 20
203.897121
 30
0.0
 10
85.910832
 20
203.731767
 30
0.0
  0
LWPOLYLINE
  5
145
100
AcDbEntity
  8
0
 62
7
100
AcDbPolyline
 90
2
 70
0
 10
85.866128
 20
203.895428
 30
0.0
 10
85.868950
 20
203.898250
 30
0.0
  0
LWPOLYLINE
  5
146
100
AcDbEntity
  8
0
 62
7
100
AcDbPolyline
 90
2
 70
0
 10
85.736052
 20
203.790159
 30
0.0
 10
85.866128
 20
203.895428
 30
0.0
  0
SPLINE
  5
147
100
AcDbEntity
  8
0
 62
7
100
AcDbSpline
 70
8
 71
3
 72
8
 73
4
 74
0
 40
0
 40
0
 40
0
 40
0
 40
1
 40
1
 40
1
 40
1
 10
84.628104
 20
200.514829
 30
0.0
 10
84.744597
 20
200.956733
 30
0.0
 10
84.861087
 20
201.398608
 30
0.0
 10
84.977580
 20
201.840511
 30
0.0
  0
LWPOLYLINE
  5
148
100
AcDbEntity
  8
0
 62
7
100
AcDbPolyline
 90
2
 70
0
 10
85.338626
 20
203.068065
 30
0.0
 10
85.736052
 20
203.790159
 30
0.0
  0
SPLINE
  5
149
100
AcDbEntity
  8
0
 62
7
100
AcDbSpline
 70
8
 71
3
 72
8
 73
4
 74
0
 40
0
 40
0
 40
0
 40
0
 40
1
 40
1
 40
1
 40
1
 10
83.673939
 20
197.690405
 30
0.0
 10
83.860620
 20
198.316403
 30
0.0
 10
84.047299
 20
198.942400
 30
0.0
 10
84.233980
 20
199.568397
 30
0.0
  0
SPLINE
  5
14a
100
AcDbEntity
  8
0
 62
7
100
AcDbSpline
 70
8
 71
3
 72
8
 73
4
 74
0
 40
0
 40
0
 40
0
 40
0
 40
1
 40
1
 40
1
 40
1
 10
81.989975
 20
194.718803
 30
0.0
 10
82.278813
 20
195.215796
 30
0.0
 10
83.401453
 20
197.196855
 30
0.0
 10
83.673939
 20
197.690405
 30
0.0
  0
SPLINE
  5
14b
100
AcDbEntity
  8
0
 62
7
100
AcDbSpline
 70
8
 71
3
 72
8
 73
4
 74
0
 40
0
 40
0
 40
0
 40
0
 40
1
 40
1
 40
1
 40
1
 10
79.024440
 20
189.690619
 30
0.0
 10
79.590553
 20
191.570727
 30
0.0
 10
80.593401
 20
193.331003
 30
0.0
 10
81.989975
 20
194.718803
 30
0.0
  0
SPLINE
  5
14c
100
AcDbEntity
  8
0
 62
7
100
AcDbSpline
 70
8
 71
3
 72
8
 73
4
 74
0
 40
0
 40
0
 40
0
 40
0
 40
1
 40
1
 40
1
 40
1
 10
76.574300
 20
184.493215
 30
0.0
 10
77.454673
 20
186.193942
 30
0.0
 10
78.354925
 20
187.892214
 30
0.0
 10
79.024440
 20
189.690619
 30
0.0
  0
SPLINE
  5
14d
100
AcDbEntity
  8
0
 62
7
100
AcDbSpline
 70
8
 71
3
 72
8
 73
4
 74
0
 40
0
 40
0
 40
0
 40
0
 40
1
 40
1
 40
1
 40
1
 10
75.059557
 20
181.778463
 30
0.0
 10
75.311508
 20
182.229228
 30
0.0
 10
76.321339
 20
184.039063
 30
0.0
 10
76.574300
 20
184.493215
 30
0.0
  0
LWPOLYLINE
  5
14e
100
AcDbEntity
  8
0
 62
7
100
AcDbPolyline
 90
2
 70
0
 10
84.977580
 20
201.840511
 30
0.0
 10
85.338626
 20
203.068065
 30
0.0
  0
SPLINE
  5
14f
100
AcDbEntity
  8
0
 62
7
100
AcDbSpline
 70
8
 71
3
 72
8
 73
4
 74
0
 40
0
 40
0
 40
0
 40
0
 40
1
 40
1
 40
1
 40
1
 10
72.015198
 20
177.550633
 30
0.0
 10
72.341382
 20
177.986807
 30
0.0
 10
73.638943
 20
179.715446
 30
0.0
 10
73.961543
 20
180.143577
 30
0.0
  0
LWPOLYLINE
  5
150
100
AcDbEntity
  8
0
 62
7
100
AcDbPolyline
 90
2
 70
0
 10
84.233980
 20
199.568397
 30
0.0
 10
84.628104
 20
200.514829
 30
0.0
  0
LWPOLYLINE
  5
151
100
AcDbEntity
  8
0
 62
7
100
AcDbPolyline
 90
2
 70
0
 10
73.961543
 20
180.143577
 30
0.0
 10
75.059557
 20
181.778463
 30
0.0
  0
LWPOLYLINE
  5
152
100
AcDbEntity
  8
0
 62
7
100
AcDbPolyline
 90
2
 70
0
 10
71.068201
 20
176.290567
 30
0.0
 10
72.015198
 20
177.550633
 30
0.0
  0
LWPOLYLINE
  5
153
100
AcDbEntity
  8
0
 62
7
100
AcDbPolyline
 90
2
 70
0
 10
70.688979
 20
175.898109
 30
0.0
 10
71.068201
 20
176.290567
 30
0.0
  0
LWPOLYLINE
  5
154
100
AcDbEntity
  8
0
 62
7
100
AcDbPolyline
 90
2
 70
0
 10
70.534067
 20
175.780704
 30
0.0
 10
70.688979
 20
175.898109
 30
0.0
  0
LWPOLYLINE
  5
155
100
AcDbEntity
  8
0
 62
7
100
AcDbPolyline
 90
2
 70
0
 10
70.365411
 20
175.723921
 30
0.0
 10
70.534067
 20
175.780704
 30
0.0
  0
LWPOLYLINE
  5
156
100
AcDbEntity
  8
0
 62
7
100
AcDbPolyline
 90
2
 70
0
 10
70.062248
 20
175.839124
 30
0.0
 10
70.365411
 20
175.723921
 30
0.0
  0
LWPOLYLINE
  5
157
100
AcDbEntity
  8
0
 62
7
100
AcDbPolyline
 90
2
 70
0
 10
69.681361
 20
176.107574
 30
0.0
 10
70.062248
 20
175.839124
 30
0.0
  0
LWPOLYLINE
  5
158
100
AcDbEntity
  8
0
 62
7
100
AcDbPolyline
 90
2
 70
0
 10
68.729397
 20
176.970214
 30
0.0
 10
69.681361
 20
176.107574
 30
0.0
  0
SPLINE
  5
159
100
AcDbEntity
  8
0
 62
7
100
AcDbSpline
 70
8
 71
3
 72
8
 73
4
 74
0
 40
0
 40
0
 40
0
 40
0
 40
1
 40
1
 40
1
 40
1
 10
68.575050
 20
182.852233
 30
0.0
 10
68.358777
 20
182.235013
 30
0.0
 10
67.530495
 20
179.755268
 30
0.0
 10
67.332623
 20
179.132629
 30
0.0
  0
SPLINE
  5
15a
100
AcDbEntity
  8
0
 62
7
100
AcDbSpline
 70
8
 71
3
 72
8
 73
4
 74
0
 40
0
 40
0
 40
0
 40
0
 40
1
 40
1
 40
1
 40
1
 10
69.388668
 20
184.589678
 30
0.0
 10
69.117461
 20
184.010530
 30
0.0
 10
68.846257
 20
183.431382
 30
0.0
 10
68.575050
 20
182.852233
 30
0.0
  0
SPLINE
  5
15b
100
AcDbEntity
  8
0
 62
7
100
AcDbSpline
 70
8
 71
3
 72
8
 73
4
 74
0
 40
0
 40
0
 40
0
 40
0
 40
1
 40
1
 40
1
 40
1
 10
69.420080
 20
185.351452
 30
0.0
 10
69.412234
 20
185.161122
 30
0.0
 10
69.391290
 20
184.653263
 30
0.0
 10
69.388668
 20
184.589678
 30
0.0
  0
LWPOLYLINE
  5
15c
100
AcDbEntity
  8
0
 62
7
100
AcDbPolyline
 90
2
 70
0
 10
67.822645
 20
178.103506
 30
0.0
 10
68.729397
 20
176.970214
 30
0.0
  0
LWPOLYLINE
  5
15d
100
AcDbEntity
  8
0
 62
7
100
AcDbPolyline
 90
2
 70
0
 10
67.332623
 20
179.132629
 30
0.0
 10
67.822645
 20
178.103506
 30
0.0
  0
LWPOLYLINE
  5
15e
100
AcDbEntity
  8
0
 62
7
100
AcDbPolyline
 90
2
 70
0
 10
69.335752
 20
185.593994
 30
0.0
 10
69.420080
 20
185.351452
 30
0.0
  0
LWPOLYLINE
  5
15f
100
AcDbEntity
  8
0
 62
7
100
AcDbPolyline
 90
2
 70
0
 10
69.296607
 20
185.590692
 30
0.0
 10
69.335752
 20
185.594079
 30
0.0
  0
SPLINE
  5
160
100
AcDbEntity
  8
0
 62
7
100
AcDbSpline
 70
8
 71
3
 72
8
 73
4
 74
0
 40
0
 40
0
 40
0
 40
0
 40
1
 40
1
 40
1
 40
1
 10
67.403178
 20
184.201058
 30
0.0
 10
67.840840
 20
184.454070
 30
0.0
 10
68.278499
 20
184.707083
 30
0.0
 10
68.716161
 20
184.960095
 30
0.0
  0
LWPOLYLINE
  5
161
100
AcDbEntity
  8
0
 62
7
100
AcDbPolyline
 90
2
 70
0
 10
69.160463
 20
185.505800
 30
0.0
 10
69.296607
 20
185.590692
 30
0.0
  0
LWPOLYLINE
  5
162
100
AcDbEntity
  8
0
 62
7
100
AcDbPolyline
 90
2
 70
0
 10
68.716161
 20
184.960095
 30
0.0
 10
69.160463
 20
185.505800
 30
0.0
  0
LWPOLYLINE
  5
163
100
AcDbEntity
  8
0
 62
7
100
AcDbPolyline
 90
2
 70
0
 10
65.552760
 20
184.651965
 30
0.0
 10
67.403178
 20
184.201058
 30
0.0
  0
SPLINE
  5
164
100
AcDbEntity
  8
0
 62
7
100
AcDbSpline
 70
8
 71
3
 72
8
 73
4
 74
0
 40
0
 40
0
 40
0
 40
0
 40
1
 40
1
 40
1
 40
1
 10
65.658594
 20
188.907876
 30
0.0
 10
65.510952
 20
188.435125
 30
0.0
 10
64.918946
 20
186.499617
 30
0.0
 10
64.770581
 20
186.004627
 30
0.0
  0
LWPOLYLINE
  5
165
100
AcDbEntity
  8
0
 62
7
100
AcDbPolyline
 90
2
 70
0
 10
64.825135
 20
185.208676
 30
0.0
 10
65.552760
 20
184.651965
 30
0.0
  0
LWPOLYLINE
  5
166
100
AcDbEntity
  8
0
 62
7
100
AcDbPolyline
 90
2
 70
0
 10
64.770581
 20
186.004627
 30
0.0
 10
64.825135
 20
185.208676
 30
0.0
  0
LWPOLYLINE
  5
167
100
AcDbEntity
  8
0
 62
7
100
AcDbPolyline
 90
2
 70
0
 10
65.823383
 20
189.547307
 30
0.0
 10
65.658594
 20
188.907876
 30
0.0
  0
LWPOLYLINE
  5
168
100
AcDbEntity
  8
0
 62
7
100
AcDbPolyline
 90
2
 70
0
 10
65.849291
 20
190.673430
 30
0.0
 10
65.823327
 20
189.547307
 30
0.0
  0
LWPOLYLINE
  5
169
100
AcDbEntity
  8
0
 62
7
100
AcDbPolyline
 90
2
 70
0
 10
65.906074
 20
192.062499
 30
0.0
 10
65.849291
 20
190.673430
 30
0.0
  0
LWPOLYLINE
  5
16a
100
AcDbEntity
  8
0
 62
7
100
AcDbPolyline
 90
2
 70
0
 10
66.484856
 20
193.049176
 30
0.0
 10
65.906074
 20
192.062499
 30
0.0
  0
LWPOLYLINE
  5
16b
100
AcDbEntity
  8
0
 62
7
100
AcDbPolyline
 90
2
 70
0
 10
66.977079
 20
193.767404
 30
0.0
 10
66.484856
 20
193.049176
 30
0.0
  0
SPLINE
  5
16c
100
AcDbEntity
  8
0
 62
7
100
AcDbSpline
 70
8
 71
3
 72
8
 73
4
 74
0
 40
0
 40
0
 40
0
 40
0
 40
1
 40
1
 40
1
 40
1
 10
66.477123
 20
196.211505
 30
0.0
 10
66.566059
 20
195.586975
 30
0.0
 10
66.654999
 20
194.962445
 30
0.0
 10
66.743936
 20
194.337916
 30
0.0
  0
LWPOLYLINE
  5
16d
100
AcDbEntity
  8
0
 62
7
100
AcDbPolyline
 90
2
 70
0
 10
66.945668
 20
193.986239
 30
0.0
 10
66.977079
 20
193.767404
 30
0.0
  0
LWPOLYLINE
  5
16e
100
AcDbEntity
  8
0
 62
7
100
AcDbPolyline
 90
2
 70
0
 10
66.743936
 20
194.337916
 30
0.0
 10
66.945668
 20
193.986239
 30
0.0
  0
LWPOLYLINE
  5
16f
100
AcDbEntity
  8
0
 62
7
100
AcDbPolyline
 90
2
 70
0
 10
66.528939
 20
196.991454
 30
0.0
 10
66.477123
 20
196.211505
 30
0.0
  0
LWPOLYLINE
  5
170
100
AcDbEntity
  8
0
 62
7
100
AcDbPolyline
 90
2
 70
0
 10
66.491460
 20
197.171709
 30
0.0
 10
66.528939
 20
196.991454
 30
0.0
  0
LWPOLYLINE
  5
171
100
AcDbEntity
  8
0
 62
7
100
AcDbPolyline
 90
2
 70
0
 10
66.517904
 20
197.172838
 30
0.0
 10
66.491375
 20
197.172838
 30
0.0
  0
LWPOLYLINE
  5
172
100
AcDbEntity
  8
0
 62
7
100
AcDbPolyline
 90
2
 70
0
 10
66.289163
 20
197.268737
 30
0.0
 10
66.517904
 20
197.172838
 30
0.0
  0
SPLINE
  5
173
100
AcDbEntity
  8
0
 62
7
100
AcDbSpline
 70
8
 71
3
 72
8
 73
4
 74
0
 40
0
 40
0
 40
0
 40
0
 40
1
 40
1
 40
1
 40
1
 10
64.556149
 20
199.226118
 30
0.0
 10
64.930424
 20
198.847799
 30
0.0
 10
65.304695
 20
198.469480
 30
0.0
 10
65.678970
 20
198.091161
 30
0.0
  0
SPLINE
  5
174
100
AcDbEntity
  8
0
 62
7
100
AcDbSpline
 70
8
 71
3
 72
8
 73
4
 74
0
 40
0
 40
0
 40
0
 40
0
 40
1
 40
1
 40
1
 40
1
 10
62.244890
 20
199.978522
 30
0.0
 10
62.633993
 20
199.853752
 30
0.0
 10
64.174830
 20
199.352130
 30
0.0
 10
64.556149
 20
199.226118
 30
0.0
  0
LWPOLYLINE
  5
175
100
AcDbEntity
  8
0
 62
7
100
AcDbPolyline
 90
2
 70
0
 10
66.085765
 20
197.469933
 30
0.0
 10
66.289163
 20
197.268737
 30
0.0
  0
SPLINE
  5
176
100
AcDbEntity
  8
0
 62
7
100
AcDbSpline
 70
8
 71
3
 72
8
 73
4
 74
0
 40
0
 40
0
 40
0
 40
0
 40
1
 40
1
 40
1
 40
1
 10
59.363147
 20
201.692796
 30
0.0
 10
59.693875
 20
201.327347
 30
0.0
 10
60.024600
 20
200.961897
 30
0.0
 10
60.355328
 20
200.596448
 30
0.0
  0
SPLINE
  5
177
100
AcDbEntity
  8
0
 62
7
100
AcDbSpline
 70
8
 71
3
 72
8
 73
4
 74
0
 40
0
 40
0
 40
0
 40
0
 40
1
 40
1
 40
1
 40
1
 10
59.317399
 20
203.006343
 30
0.0
 10
59.332639
 20
202.568504
 30
0.0
 10
59.347899
 20
202.130636
 30
0.0
 10
59.363147
 20
201.692796
 30
0.0
  0
SPLINE
  5
178
100
AcDbEntity
  8
0
 62
7
100
AcDbSpline
 70
8
 71
3
 72
8
 73
4
 74
0
 40
0
 40
0
 40
0
 40
0
 40
1
 40
1
 40
1
 40
1
 10
59.589122
 20
204.593307
 30
0.0
 10
59.498549
 20
204.064310
 30
0.0
 10
59.407973
 20
203.535341
 30
0.0
 10
59.317399
 20
203.006343
 30
0.0
  0
SPLINE
  5
179
100
AcDbEntity
  8
0
 62
7
100
AcDbSpline
 70
8
 71
3
 72
8
 73
4
 74
0
 40
0
 40
0
 40
0
 40
0
 40
1
 40
1
 40
1
 40
1
 10
59.025807
 20
205.789986
 30
0.0
 10
59.213578
 20
205.391093
 30
0.0
 10
59.401352
 20
204.992200
 30
0.0
 10
59.589122
 20
204.593307
 30
0.0
  0
LWPOLYLINE
  5
17a
100
AcDbEntity
  8
0
 62
7
100
AcDbPolyline
 90
2
 70
0
 10
65.678970
 20
198.091161
 30
0.0
 10
66.085765
 20
197.469933
 30
0.0
  0
LWPOLYLINE
  5
17b
100
AcDbEntity
  8
0
 62
7
100
AcDbPolyline
 90
2
 70
0
 10
60.355328
 20
200.596448
 30
0.0
 10
62.244890
 20
199.978522
 30
0.0
  0
LWPOLYLINE
  5
17c
100
AcDbEntity
  8
0
 62
7
100
AcDbPolyline
 90
2
 70
0
 10
58.498842
 20
206.087081
 30
0.0
 10
59.025807
 20
205.789986
 30
0.0
  0
LWPOLYLINE
  5
17d
100
AcDbEntity
  8
0
 62
7
100
AcDbPolyline
 90
2
 70
0
 10
58.112987
 20
206.203949
 30
0.0
 10
58.498842
 20
206.087081
 30
0.0
  0
LWPOLYLINE
  5
17e
100
AcDbEntity
  8
0
 62
7
100
AcDbPolyline
 90
2
 70
0
 10
57.835168
 20
206.269538
 30
0.0
 10
58.112987
 20
206.203949
 30
0.0
  0
SPLINE
  5
17f
100
AcDbEntity
  8
0
 62
7
100
AcDbSpline
 70
8
 71
3
 72
8
 73
4
 74
0
 40
0
 40
0
 40
0
 40
0
 40
1
 40
1
 40
1
 40
1
 10
54.597317
 20
207.468982
 30
0.0
 10
55.256390
 20
207.296460
 30
0.0
 10
55.915464
 20
207.123909
 30
0.0
 10
56.574538
 20
206.951387
 30
0.0
  0
SPLINE
  5
180
100
AcDbEntity
  8
0
 62
7
100
AcDbSpline
 70
8
 71
3
 72
8
 73
4
 74
0
 40
0
 40
0
 40
0
 40
0
 40
1
 40
1
 40
1
 40
1
 10
52.852196
 20
207.659172
 30
0.0
 10
53.433904
 20
207.595785
 30
0.0
 10
54.015609
 20
207.532369
 30
0.0
 10
54.597317
 20
207.468982
 30
0.0
  0
LWPOLYLINE
  5
181
100
AcDbEntity
  8
0
 62
7
100
AcDbPolyline
 90
2
 70
0
 10
57.469718
 20
206.431053
 30
0.0
 10
57.835168
 20
206.269538
 30
0.0
  0
SPLINE
  5
182
100
AcDbEntity
  8
0
 62
7
100
AcDbSpline
 70
8
 71
3
 72
8
 73
4
 74
0
 40
0
 40
0
 40
0
 40
0
 40
1
 40
1
 40
1
 40
1
 10
47.590840
 20
208.556525
 30
0.0
 10
48.132684
 20
208.498867
 30
0.0
 10
50.293075
 20
208.265187
 30
0.0
 10
50.831428
 20
208.205977
 30
0.0
  0
SPLINE
  5
183
100
AcDbEntity
  8
0
 62
7
100
AcDbSpline
 70
8
 71
3
 72
8
 73
4
 74
0
 40
0
 40
0
 40
0
 40
0
 40
1
 40
1
 40
1
 40
1
 10
45.150041
 20
208.966651
 30
0.0
 10
45.553994
 20
208.897196
 30
0.0
 10
47.181194
 20
208.623779
 30
0.0
 10
47.590840
 20
208.556525
 30
0.0
  0
SPLINE
  5
184
100
AcDbEntity
  8
0
 62
7
100
AcDbSpline
 70
8
 71
3
 72
8
 73
4
 74
0
 40
0
 40
0
 40
0
 40
0
 40
1
 40
1
 40
1
 40
1
 10
43.121569
 20
209.588951
 30
0.0
 10
43.797725
 20
209.381517
 30
0.0
 10
44.473884
 20
209.174084
 30
0.0
 10
45.150041
 20
208.966651
 30
0.0
  0
SPLINE
  5
185
100
AcDbEntity
  8
0
 62
7
100
AcDbSpline
 70
8
 71
3
 72
8
 73
4
 74
0
 40
0
 40
0
 40
0
 40
0
 40
1
 40
1
 40
1
 40
1
 10
39.381588
 20
212.249121
 30
0.0
 10
40.526877
 20
211.241475
 30
0.0
 10
41.621112
 20
210.063366
 30
0.0
 10
43.121569
 20
209.588951
 30
0.0
  0
SPLINE
  5
186
100
AcDbEntity
  8
0
 62
7
100
AcDbSpline
 70
8
 71
3
 72
8
 73
4
 74
0
 40
0
 40
0
 40
0
 40
0
 40
1
 40
1
 40
1
 40
1
 10
30.857038
 20
217.072271
 30
0.0
 10
34.090912
 20
216.340412
 30
0.0
 10
37.042319
 20
214.577708
 30
0.0
 10
39.381588
 20
212.249121
 30
0.0
  0
SPLINE
  5
187
100
AcDbEntity
  8
0
 62
7
100
AcDbSpline
 70
8
 71
3
 72
8
 73
4
 74
0
 40
0
 40
0
 40
0
 40
0
 40
1
 40
1
 40
1
 40
1
 10
25.874615
 20
218.626694
 30
0.0
 10
27.513993
 20
218.042776
 30
0.0
 10
29.178309
 20
217.530289
 30
0.0
 10
30.857038
 20
217.072271
 30
0.0
  0
SPLINE
  5
188
100
AcDbEntity
  8
0
 62
7
100
AcDbSpline
 70
8
 71
3
 72
8
 73
4
 74
0
 40
0
 40
0
 40
0
 40
0
 40
1
 40
1
 40
1
 40
1
 10
20.020705
 20
220.314524
 30
0.0
 10
21.992591
 20
219.827860
 30
0.0
 10
23.955532
 20
219.295025
 30
0.0
 10
25.874615
 20
218.626694
 30
0.0
  0
SPLINE
  5
189
100
AcDbEntity
  8
0
 62
7
100
AcDbSpline
 70
8
 71
3
 72
8
 73
4
 74
0
 40
0
 40
0
 40
0
 40
0
 40
1
 40
1
 40
1
 40
1
 10
14.399967
 20
222.324229
 30
0.0
 10
16.098211
 20
221.233411
 30
0.0
 10
18.095441
 20
220.807651
 30
0.0
 10
20.020705
 20
220.314524
 30
0.0
  0
SPLINE
  5
18a
100
AcDbEntity
  8
0
 62
7
100
AcDbSpline
 70
8
 71
3
 72
8
 73
4
 74
0
 40
0
 40
0
 40
0
 40
0
 40
1
 40
1
 40
1
 40
1
 10
11.523163
 20
225.951236
 30
0.0
 10
12.213817
 20
224.568008
 30
0.0
 10
13.059383
 20
223.171290
 30
0.0
 10
14.399967
 20
222.324229
 30
0.0
  0
LWPOLYLINE
  5
18b
100
AcDbEntity
  8
0
 62
7
100
AcDbPolyline
 90
2
 70
0
 10
56.574538
 20
206.951387
 30
0.0
 10
57.469718
 20
206.431053
 30
0.0
  0
LWPOLYLINE
  5
18c
100
AcDbEntity
  8
0
 62
7
100
AcDbPolyline
 90
2
 70
0
 10
50.831428
 20
208.205977
 30
0.0
 10
52.852196
 20
207.659172
 30
0.0
  0
LWPOLYLINE
  5
18d
100
AcDbEntity
  8
0
 62
7
100
AcDbPolyline
 90
2
 70
0
 10
10.804399
 20
227.115967
 30
0.0
 10
11.523163
 20
225.951236
 30
0.0
  0
LWPOLYLINE
  5
18e
100
AcDbEntity
  8
0
 62
7
100
AcDbPolyline
 90
2
 70
0
 10
10.108214
 20
227.874439
 30
0.0
 10
10.804399
 20
227.115967
 30
0.0
  0
LWPOLYLINE
  5
18f
100
AcDbEntity
  8
0
 62
7
100
AcDbPolyline
 90
2
 70
0
 10
8.575832
 20
229.024269
 30
0.0
 10
10.108214
 20
227.874439
 30
0.0
  0
LWPOLYLINE
  5
190
100
AcDbEntity
  8
0
 62
7
100
AcDbPolyline
 90
2
 70
0
 10
7.872477
 20
229.454771
 30
0.0
 10
8.575832
 20
229.024269
 30
0.0
  0
LWPOLYLINE
  5
191
100
AcDbEntity
  8
0
 62
7
100
AcDbPolyline
 90
2
 70
0
 10
7.293160
 20
229.628394
 30
0.0
 10
7.872477
 20
229.454771
 30
0.0
  0
LWPOLYLINE
  5
192
100
AcDbEntity
  8
0
 62
7
100
AcDbPolyline
 90
2
 70
0
 10
6.036368
 20
229.957465
 30
0.0
 10
7.293160
 20
229.628394
 30
0.0
  0
LWPOLYLINE
  5
193
100
AcDbEntity
  8
0
 62
7
100
AcDbPolyline
 90
2
 70
0
 10
5.688021
 20
231.164078
 30
0.0
 10
6.036368
 20
229.957465
 30
0.0
  0
SPLINE
  5
194
100
AcDbEntity
  8
0
 62
7
100
AcDbSpline
 70
8
 71
3
 72
8
 73
4
 74
0
 40
0
 40
0
 40
0
 40
0
 40
1
 40
1
 40
1
 40
1
 10
11.290555
 20
233.999536
 30
0.0
 10
9.609612
 20
233.470595
 30
0.0
 10
7.885375
 20
233.072605
 30
0.0
 10
6.247498
 20
232.412036
 30
0.0
  0
SPLINE
  5
195
100
AcDbEntity
  8
0
 62
7
100
AcDbSpline
 70
8
 71
3
 72
8
 73
4
 74
0
 40
0
 40
0
 40
0
 40
0
 40
1
 40
1
 40
1
 40
1
 10
19.690533
 20
239.034324
 30
0.0
 10
17.067052
 20
237.102598
 30
0.0
 10
14.530297
 20
234.819251
 30
0.0
 10
11.290555
 20
233.999536
 30
0.0
  0
SPLINE
  5
196
100
AcDbEntity
  8
0
 62
7
100
AcDbSpline
 70
8
 71
3
 72
8
 73
4
 74
0
 40
0
 40
0
 40
0
 40
0
 40
1
 40
1
 40
1
 40
1
 10
57.025416
 20
260.420927
 30
0.0
 10
59.271992
 20
260.858399
 30
0.0
 10
61.518560
 20
261.295900
 30
0.0
 10
63.765136
 20
261.733373
 30
0.0
  0
SPLINE
  5
197
100
AcDbEntity
  8
0
 62
7
100
AcDbSpline
 70
8
 71
3
 72
8
 73
4
 74
0
 40
0
 40
0
 40
0
 40
0
 40
1
 40
1
 40
1
 40
1
 10
29.286612
 20
241.271161
 30
0.0
 10
28.573242
 20
241.176588
 30
0.0
 10
25.713183
 20
240.852851
 30
0.0
 10
24.996537
 20
240.785541
 30
0.0
  0
LWPOLYLINE
  5
198
100
AcDbEntity
  8
0
 62
7
100
AcDbPolyline
 90
2
 70
0
 10
5.700693
 20
231.866867
 30
0.0
 10
5.687993
 20
231.164078
 30
0.0
  0
LWPOLYLINE
  5
199
100
AcDbEntity
  8
0
 62
7
100
AcDbPolyline
 90
2
 70
0
 10
6.247498
 20
232.412036
 30
0.0
 10
5.700693
 20
231.866867
 30
0.0
  0
SPLINE
  5
19a
100
AcDbEntity
  8
0
 62
7
100
AcDbSpline
 70
8
 71
3
 72
8
 73
4
 74
0
 40
0
 40
0
 40
0
 40
0
 40
1
 40
1
 40
1
 40
1
 10
34.512154
 20
243.883382
 30
0.0
 10
33.643141
 20
242.961418
 30
0.0
 10
32.608102
 20
241.892530
 30
0.0
 10
31.253362
 20
241.763949
 30
0.0
  0
SPLINE
  5
19b
100
AcDbEntity
  8
0
 62
7
100
AcDbSpline
 70
8
 71
3
 72
8
 73
4
 74
0
 40
0
 40
0
 40
0
 40
0
 40
1
 40
1
 40
1
 40
1
 10
36.689442
 20
245.841835
 30
0.0
 10
36.328771
 20
245.520609
 30
0.0
 10
34.877245
 20
244.214965
 30
0.0
 10
34.512154
 20
243.883382
 30
0.0
  0
SPLINE
  5
19c
100
AcDbEntity
  8
0
 62
7
100
AcDbSpline
 70
8
 71
3
 72
8
 73
4
 74
0
 40
0
 40
0
 40
0
 40
0
 40
1
 40
1
 40
1
 40
1
 10
38.909741
 20
246.277840
 30
0.0
 10
38.169641
 20
246.132495
 30
0.0
 10
37.429542
 20
245.987179
 30
0.0
 10
36.689442
 20
245.841835
 30
0.0
  0
LWPOLYLINE
  5
19d
100
AcDbEntity
  8
0
 62
7
100
AcDbPolyline
 90
2
 70
0
 10
30.420468
 20
241.617335
 30
0.0
 10
29.286612
 20
241.271161
 30
0.0
  0
LWPOLYLINE
  5
19e
100
AcDbEntity
  8
0
 62
7
100
AcDbPolyline
 90
2
 70
0
 10
31.253362
 20
241.763949
 30
0.0
 10
30.420468
 20
241.617335
 30
0.0
  0
SPLINE
  5
19f
100
AcDbEntity
  8
0
 62
7
100
AcDbSpline
 70
8
 71
3
 72
8
 73
4
 74
0
 40
0
 40
0
 40
0
 40
0
 40
1
 40
1
 40
1
 40
1
 10
43.099527
 20
249.310092
 30
0.0
 10
42.825306
 20
248.945912
 30
0.0
 10
41.722873
 20
247.496588
 30
0.0
 10
41.445874
 20
247.136106
 30
0.0
  0
SPLINE
  5
1a0
100
AcDbEntity
  8
0
 62
7
100
AcDbSpline
 70
8
 71
3
 72
8
 73
4
 74
0
 40
0
 40
0
 40
0
 40
0
 40
1
 40
1
 40
1
 40
1
 10
45.470307
 20
251.796611
 30
0.0
 10
45.069100
 20
251.381123
 30
0.0
 10
43.488579
 20
249.723434
 30
0.0
 10
43.099527
 20
249.310092
 30
0.0
  0
SPLINE
  5
1a1
100
AcDbEntity
  8
0
 62
7
100
AcDbSpline
 70
8
 71
3
 72
8
 73
4
 74
0
 40
0
 40
0
 40
0
 40
0
 40
1
 40
1
 40
1
 40
1
 10
49.783565
 20
254.444109
 30
0.0
 10
48.277918
 20
253.680246
 30
0.0
 10
46.815149
 20
252.820823
 30
0.0
 10
45.470307
 20
251.796611
 30
0.0
  0
SPLINE
  5
1a2
100
AcDbEntity
  8
0
 62
7
100
AcDbSpline
 70
8
 71
3
 72
8
 73
4
 74
0
 40
0
 40
0
 40
0
 40
0
 40
1
 40
1
 40
1
 40
1
 10
53.090843
 20
257.811472
 30
0.0
 10
52.421801
 20
256.353286
 30
0.0
 10
51.242790
 20
255.123249
 30
0.0
 10
49.783565
 20
254.444109
 30
0.0
  0
SPLINE
  5
1a3
100
AcDbEntity
  8
0
 62
7
100
AcDbSpline
 70
8
 71
3
 72
8
 73
4
 74
0
 40
0
 40
0
 40
0
 40
0
 40
1
 40
1
 40
1
 40
1
 10
55.432412
 20
259.261727
 30
0.0
 10
55.038168
 20
259.026410
 30
0.0
 10
53.477120
 20
258.059573
 30
0.0
 10
53.090843
 20
257.811472
 30
0.0
  0
LWPOLYLINE
  5
1a4
100
AcDbEntity
  8
0
 62
7
100
AcDbPolyline
 90
2
 70
0
 10
40.374305
 20
246.426119
 30
0.0
 10
38.909741
 20
246.277840
 30
0.0
  0
LWPOLYLINE
  5
1a5
100
AcDbEntity
  8
0
 62
7
100
AcDbPolyline
 90
2
 70
0
 10
41.445874
 20
247.136106
 30
0.0
 10
40.374305
 20
246.426119
 30
0.0
  0
LWPOLYLINE
  5
1a6
100
AcDbEntity
  8
0
 62
7
100
AcDbPolyline
 90
2
 70
0
 10
55.646845
 20
259.340552
 30
0.0
 10
55.432412
 20
259.261727
 30
0.0
  0
SPLINE
  5
1a7
100
AcDbEntity
  8
0
 62
7
100
AcDbSpline
 70
8
 71
3
 72
8
 73
4
 74
0
 40
0
 40
0
 40
0
 40
0
 40
1
 40
1
 40
1
 40
1
 10
67.782937
 20
261.741642
 30
0.0
 10
67.116376
 20
261.741642
 30
0.0
 10
64.437844
 20
261.735151
 30
0.0
 10
63.765136
 20
261.733457
 30
0.0
  0
SPLINE
  5
1a8
100
AcDbEntity
  8
0
 62
7
100
AcDbSpline
 70
8
 71
3
 72
8
 73
4
 74
0
 40
0
 40
0
 40
0
 40
0
 40
1
 40
1
 40
1
 40
1
 10
133.334074
 20
228.531481
 30
0.0
 10
133.709819
 20
227.751870
 30
0.0
 10
134.085564
 20
226.972287
 30
0.0
 10
134.461309
 20
226.192677
 30
0.0
  0
SPLINE
  5
1a9
100
AcDbEntity
  8
0
 62
7
100
AcDbSpline
 70
8
 71
3
 72
8
 73
4
 74
0
 40
0
 40
0
 40
0
 40
0
 40
1
 40
1
 40
1
 40
1
 10
89.291422
 20
229.112999
 30
0.0
 10
89.175587
 20
228.741962
 30
0.0
 10
88.742325
 20
227.239721
 30
0.0
 10
88.641530
 20
226.859624
 30
0.0
  0
LWPOLYLINE
  5
1aa
100
AcDbEntity
  8
0
 62
7
100
AcDbPolyline
 90
2
 70
0
 10
56.041504
 20
259.588032
 30
0.0
 10
55.646845
 20
259.340552
 30
0.0
  0
LWPOLYLINE
  5
1ab
100
AcDbEntity
  8
0
 62
7
100
AcDbPolyline
 90
2
 70
0
 10
57.025416
 20
260.420927
 30
0.0
 10
56.041504
 20
259.588032
 30
0.0
  0
SPLINE
  5
1ac
100
AcDbEntity
  8
0
 62
7
100
AcDbSpline
 70
8
 71
3
 72
8
 73
4
 74
0
 40
0
 40
0
 40
0
 40
0
 40
1
 40
1
 40
1
 40
1
 10
91.696927
 20
227.651173
 30
0.0
 10
91.629653
 20
227.829396
 30
0.0
 10
91.398144
 20
228.442722
 30
0.0
 10
91.349661
 20
228.571161
 30
0.0
  0
SPLINE
  5
1ad
100
AcDbEntity
  8
0
 62
7
100
AcDbSpline
 70
8
 71
3
 72
8
 73
4
 74
0
 40
0
 40
0
 40
0
 40
0
 40
1
 40
1
 40
1
 40
1
 10
91.543138
 20
226.279206
 30
0.0
 10
91.594401
 20
226.736519
 30
0.0
 10
91.645664
 20
227.193860
 30
0.0
 10
91.696927
 20
227.651173
 30
0.0
  0
SPLINE
  5
1ae
100
AcDbEntity
  8
0
 62
7
100
AcDbSpline
 70
8
 71
3
 72
8
 73
4
 74
0
 40
0
 40
0
 40
0
 40
0
 40
1
 40
1
 40
1
 40
1
 10
91.357930
 20
225.223074
 30
0.0
 10
91.390834
 20
225.410695
 30
0.0
 10
91.514306
 20
226.114783
 30
0.0
 10
91.543138
 20
226.279206
 30
0.0
  0
LWPOLYLINE
  5
1af
100
AcDbEntity
  8
0
 62
7
100
AcDbPolyline
 90
2
 70
0
 10
90.344794
 20
229.318062
 30
0.0
 10
89.291422
 20
229.112999
 30
0.0
  0
LWPOLYLINE
  5
1b0
100
AcDbEntity
  8
0
 62
7
100
AcDbPolyline
 90
2
 70
0
 10
91.349661
 20
228.571161
 30
0.0
 10
90.344794
 20
229.318062
 30
0.0
  0
LWPOLYLINE
  5
1b1
100
AcDbEntity
  8
0
 62
7
100
AcDbPolyline
 90
2
 70
0
 10
91.319895
 20
224.906675
 30
0.0
 10
91.357930
 20
225.223074
 30
0.0
  0
LWPOLYLINE
  5
1b2
100
AcDbEntity
  8
0
 62
7
100
AcDbPolyline
 90
2
 70
0
 10
91.445571
 20
224.931482
 30
0.0
 10
91.319895
 20
224.906647
 30
0.0
  0
SPLINE
  5
1b3
100
AcDbEntity
  8
0
 62
7
100
AcDbSpline
 70
8
 71
3
 72
8
 73
4
 74
0
 40
0
 40
0
 40
0
 40
0
 40
1
 40
1
 40
1
 40
1
 10
95.622130
 20
224.726448
 30
0.0
 10
95.234272
 20
224.810042
 30
0.0
 10
93.698955
 20
225.137815
 30
0.0
 10
93.319151
 20
225.218107
 30
0.0
  0
SPLINE
  5
1b4
100
AcDbEntity
  8
0
 62
7
100
AcDbSpline
 70
8
 71
3
 72
8
 73
4
 74
0
 40
0
 40
0
 40
0
 40
0
 40
1
 40
1
 40
1
 40
1
 10
97.684226
 20
224.290414
 30
0.0
 10
96.996860
 20
224.435759
 30
0.0
 10
96.309496
 20
224.581103
 30
0.0
 10
95.622130
 20
224.726448
 30
0.0
  0
LWPOLYLINE
  5
1b5
100
AcDbEntity
  8
0
 62
7
100
AcDbPolyline
 90
2
 70
0
 10
92.049151
 20
225.114503
 30
0.0
 10
91.445571
 20
224.931482
 30
0.0
  0
LWPOLYLINE
  5
1b6
100
AcDbEntity
  8
0
 62
7
100
AcDbPolyline
 90
2
 70
0
 10
93.319151
 20
225.218107
 30
0.0
 10
92.049151
 20
225.114503
 30
0.0
  0
LWPOLYLINE
  5
1b7
100
AcDbEntity
  8
0
 62
7
100
AcDbPolyline
 90
2
 70
0
 10
98.388128
 20
224.218222
 30
0.0
 10
97.684226
 20
224.290414
 30
0.0
  0
LWPOLYLINE
  5
1b8
100
AcDbEntity
  8
0
 62
7
100
AcDbPolyline
 90
2
 70
0
 10
98.761852
 20
224.245795
 30
0.0
 10
98.388128
 20
224.218137
 30
0.0
  0
SPLINE
  5
1b9
100
AcDbEntity
  8
0
 62
7
100
AcDbSpline
 70
8
 71
3
 72
8
 73
4
 74
0
 40
0
 40
0
 40
0
 40
0
 40
1
 40
1
 40
1
 40
1
 10
102.490273
 20
228.011147
 30
0.0
 10
102.081951
 20
227.603901
 30
0.0
 10
100.462481
 20
225.975591
 30
0.0
 10
100.061068
 20
225.568712
 30
0.0
  0
SPLINE
  5
1ba
100
AcDbEntity
  8
0
 62
7
100
AcDbSpline
 70
8
 71
3
 72
8
 73
4
 74
0
 40
0
 40
0
 40
0
 40
0
 40
1
 40
1
 40
1
 40
1
 10
105.578179
 20
231.301351
 30
0.0
 10
105.080943
 20
230.737273
 30
0.0
 10
103.022338
 20
228.543814
 30
0.0
 10
102.490273
 20
228.011147
 30
0.0
  0
LWPOLYLINE
  5
1bb
100
AcDbEntity
  8
0
 62
7
100
AcDbPolyline
 90
2
 70
0
 10
99.349447
 20
224.703305
 30
0.0
 10
98.761852
 20
224.245795
 30
0.0
  0
LWPOLYLINE
  5
1bc
100
AcDbEntity
  8
0
 62
7
100
AcDbPolyline
 90
2
 70
0
 10
100.061068
 20
225.568712
 30
0.0
 10
99.349447
 20
224.703305
 30
0.0
  0
SPLINE
  5
1bd
100
AcDbEntity
  8
0
 62
7
100
AcDbSpline
 70
8
 71
3
 72
8
 73
4
 74
0
 40
0
 40
0
 40
0
 40
0
 40
1
 40
1
 40
1
 40
1
 10
109.963097
 20
232.617099
 30
0.0
 10
109.485808
 20
232.540391
 30
0.0
 10
107.588524
 20
232.241263
 30
0.0
 10
107.117174
 20
232.168394
 30
0.0
  0
SPLINE
  5
1be
100
AcDbEntity
  8
0
 62
7
100
AcDbSpline
 70
8
 71
3
 72
8
 73
4
 74
0
 40
0
 40
0
 40
0
 40
0
 40
1
 40
1
 40
1
 40
1
 10
115.707863
 20
232.138083
 30
0.0
 10
113.947575
 20
233.046415
 30
0.0
 10
111.852047
 20
233.111721
 30
0.0
 10
109.963097
 20
232.617099
 30
0.0
  0
LWPOLYLINE
  5
1bf
100
AcDbEntity
  8
0
 62
7
100
AcDbPolyline
 90
2
 70
0
 10
106.081991
 20
232.012409
 30
0.0
 10
105.578179
 20
231.301351
 30
0.0
  0
LWPOLYLINE
  5
1c0
100
AcDbEntity
  8
0
 62
7
100
AcDbPolyline
 90
2
 70
0
 10
107.117174
 20
232.168394
 30
0.0
 10
106.081991
 20
232.012409
 30
0.0
  0
SPLINE
  5
1c1
100
AcDbEntity
  8
0
 62
7
100
AcDbSpline
 70
8
 71
3
 72
8
 73
4
 74
0
 40
0
 40
0
 40
0
 40
0
 40
1
 40
1
 40
1
 40
1
 10
121.619648
 20
232.450616
 30
0.0
 10
121.140172
 20
232.380201
 30
0.0
 10
119.234805
 20
232.090641
 30
0.0
 10
118.761597
 20
232.016276
 30
0.0
  0
SPLINE
  5
1c2
100
AcDbEntity
  8
0
 62
7
100
AcDbSpline
 70
8
 71
3
 72
8
 73
4
 74
0
 40
0
 40
0
 40
0
 40
0
 40
1
 40
1
 40
1
 40
1
 10
125.269244
 20
233.595507
 30
0.0
 10
124.659969
 20
233.396597
 30
0.0
 10
122.226905
 20
232.633327
 30
0.0
 10
121.619648
 20
232.450616
 30
0.0
  0
SPLINE
  5
1c3
100
AcDbEntity
  8
0
 62
7
100
AcDbSpline
 70
8
 71
3
 72
8
 73
4
 74
0
 40
0
 40
0
 40
0
 40
0
 40
1
 40
1
 40
1
 40
1
 10
129.967251
 20
235.046863
 30
0.0
 10
128.318249
 20
234.966288
 30
0.0
 10
126.632877
 20
234.567283
 30
0.0
 10
125.269244
 20
233.595507
 30
0.0
  0
SPLINE
  5
1c4
100
AcDbEntity
  8
0
 62
7
100
AcDbSpline
 70
8
 71
3
 72
8
 73
4
 74
0
 40
0
 40
0
 40
0
 40
0
 40
1
 40
1
 40
1
 40
1
 10
133.810875
 20
235.363798
 30
0.0
 10
133.176986
 20
235.311898
 30
0.0
 10
130.614572
 20
235.100626
 30
0.0
 10
129.967251
 20
235.046863
 30
0.0
  0
LWPOLYLINE
  5
1c5
100
AcDbEntity
  8
0
 62
7
100
AcDbPolyline
 90
2
 70
0
 10
117.221500
 20
231.634288
 30
0.0
 10
115.707863
 20
232.138083
 30
0.0
  0
LWPOLYLINE
  5
1c6
100
AcDbEntity
  8
0
 62
7
100
AcDbPolyline
 90
2
 70
0
 10
118.761597
 20
232.016276
 30
0.0
 10
117.221500
 20
231.634288
 30
0.0
  0
LWPOLYLINE
  5
1c7
100
AcDbEntity
  8
0
 62
7
100
AcDbPolyline
 90
2
 70
0
 10
134.476194
 20
235.373733
 30
0.0
 10
133.810875
 20
235.363855
 30
0.0
  0
LWPOLYLINE
  5
1c8
100
AcDbEntity
  8
0
 62
7
100
AcDbPolyline
 90
2
 70
0
 10
134.903385
 20
235.233158
 30
0.0
 10
134.476194
 20
235.373733
 30
0.0
  0
SPLINE
  5
1c9
100
AcDbEntity
  8
0
 62
7
100
AcDbSpline
 70
8
 71
3
 72
8
 73
4
 74
0
 40
0
 40
0
 40
0
 40
0
 40
1
 40
1
 40
1
 40
1
 10
134.681245
 20
232.393861
 30
0.0
 10
134.846241
 20
232.993950
 30
0.0
 10
135.011239
 20
233.594039
 30
0.0
 10
135.176235
 20
234.194128
 30
0.0
  0
SPLINE
  5
1ca
100
AcDbEntity
  8
0
 62
7
100
AcDbSpline
 70
8
 71
3
 72
8
 73
4
 74
0
 40
0
 40
0
 40
0
 40
0
 40
1
 40
1
 40
1
 40
1
 10
133.334074
 20
228.531481
 30
0.0
 10
133.419370
 20
229.865827
 30
0.0
 10
133.616881
 20
231.430862
 30
0.0
 10
134.681245
 20
232.393861
 30
0.0
  0
SPLINE
  5
1cb
100
AcDbEntity
  8
0
 62
7
100
AcDbSpline
 70
8
 71
3
 72
8
 73
4
 74
0
 40
0
 40
0
 40
0
 40
0
 40
1
 40
1
 40
1
 40
1
 10
136.973197
 20
225.287026
 30
0.0
 10
136.555601
 20
225.437902
 30
0.0
 10
134.881010
 20
226.041660
 30
0.0
 10
134.461309
 20
226.192677
 30
0.0
  0
SPLINE
  5
1cc
100
AcDbEntity
  8
0
 62
7
100
AcDbSpline
 70
8
 71
3
 72
8
 73
4
 74
0
 40
0
 40
0
 40
0
 40
0
 40
1
 40
1
 40
1
 40
1
 10
141.113375
 20
225.393960
 30
0.0
 10
139.873366
 20
224.645224
 30
0.0
 10
138.273403
 20
224.759524
 30
0.0
 10
136.973197
 20
225.287026
 30
0.0
  0
SPLINE
  5
1cd
100
AcDbEntity
  8
0
 62
7
100
AcDbSpline
 70
8
 71
3
 72
8
 73
4
 74
0
 40
0
 40
0
 40
0
 40
0
 40
1
 40
1
 40
1
 40
1
 10
142.846397
 20
225.858102
 30
0.0
 10
142.268722
 20
225.703388
 30
0.0
 10
141.691050
 20
225.548674
 30
0.0
 10
141.113375
 20
225.393960
 30
0.0
  0
SPLINE
  5
1ce
100
AcDbEntity
  8
0
 62
7
100
AcDbSpline
 70
8
 71
3
 72
8
 73
4
 74
0
 40
0
 40
0
 40
0
 40
0
 40
1
 40
1
 40
1
 40
1
 10
144.212307
 20
224.695573
 30
0.0
 10
143.757004
 20
225.083092
 30
0.0
 10
143.301700
 20
225.470583
 30
0.0
 10
142.846397
 20
225.858102
 30
0.0
  0
SPLINE
  5
1cf
100
AcDbEntity
  8
0
 62
7
100
AcDbSpline
 70
8
 71
3
 72
8
 73
4
 74
0
 40
0
 40
0
 40
0
 40
0
 40
1
 40
1
 40
1
 40
1
 10
145.327418
 20
223.727099
 30
0.0
 10
144.955714
 20
224.049933
 30
0.0
 10
144.584011
 20
224.372739
 30
0.0
 10
144.212307
 20
224.695573
 30
0.0
  0
SPLINE
  5
1d0
100
AcDbEntity
  8
0
 62
7
100
AcDbSpline
 70
8
 71
3
 72
8
 73
4
 74
0
 40
0
 40
0
 40
0
 40
0
 40
1
 40
1
 40
1
 40
1
 10
146.421029
 20
224.228692
 30
0.0
 10
146.056491
 20
224.061504
 30
0.0
 10
145.691956
 20
223.894287
 30
0.0
 10
145.327418
 20
223.727099
 30
0.0
  0
SPLINE
  5
1d1
100
AcDbEntity
  8
0
 62
7
100
AcDbSpline
 70
8
 71
3
 72
8
 73
4
 74
0
 40
0
 40
0
 40
0
 40
0
 40
1
 40
1
 40
1
 40
1
 10
149.922899
 20
225.904951
 30
0.0
 10
149.338561
 20
225.635260
 30
0.0
 10
147.003982
 20
224.517744
 30
0.0
 10
146.421029
 20
224.228692
 30
0.0
  0
LWPOLYLINE
  5
1d2
100
AcDbEntity
  8
0
 62
7
100
AcDbPolyline
 90
2
 70
0
 10
135.102925
 20
234.835196
 30
0.0
 10
134.903385
 20
235.233158
 30
0.0
  0
LWPOLYLINE
  5
1d3
100
AcDbEntity
  8
0
 62
7
100
AcDbPolyline
 90
2
 70
0
 10
135.176235
 20
234.194128
 30
0.0
 10
135.102925
 20
234.835196
 30
0.0
  0
LWPOLYLINE
  5
1d4
100
AcDbEntity
  8
0
 62
7
100
AcDbPolyline
 90
2
 70
0
 10
150.628454
 20
225.913220
 30
0.0
 10
149.922899
 20
225.905036
 30
0.0
  0
LWPOLYLINE
  5
1d5
100
AcDbEntity
  8
0
 62
7
100
AcDbPolyline
 90
2
 70
0
 10
150.883668
 20
226.065903
 30
0.0
 10
150.628454
 20
225.913220
 30
0.0
  0
SPLINE
  5
1d6
100
AcDbEntity
  8
0
 62
7
100
AcDbSpline
 70
8
 71
3
 72
8
 73
4
 74
0
 40
0
 40
0
 40
0
 40
0
 40
1
 40
1
 40
1
 40
1
 10
147.731807
 20
207.896746
 30
0.0
 10
148.344052
 20
207.798815
 30
0.0
 10
150.782260
 20
207.351945
 30
0.0
 10
151.389120
 20
207.226469
 30
0.0
  0
SPLINE
  5
1d7
100
AcDbEntity
  8
0
 62
7
100
AcDbSpline
 70
8
 71
3
 72
8
 73
4
 74
0
 40
0
 40
0
 40
0
 40
0
 40
1
 40
1
 40
1
 40
1
 10
144.377111
 20
208.574757
 30
0.0
 10
144.923897
 20
208.459413
 30
0.0
 10
147.160361
 20
208.007406
 30
0.0
 10
147.731807
 20
207.896746
 30
0.0
  0
SPLINE
  5
1d8
100
AcDbEntity
  8
0
 62
7
100
AcDbSpline
 70
8
 71
3
 72
8
 73
4
 74
0
 40
0
 40
0
 40
0
 40
0
 40
1
 40
1
 40
1
 40
1
 10
143.194752
 20
209.026200
 30
0.0
 10
143.588873
 20
208.875719
 30
0.0
 10
143.982990
 20
208.725238
 30
0.0
 10
144.377111
 20
208.574757
 30
0.0
  0
SPLINE
  5
1d9
100
AcDbEntity
  8
0
 62
7
100
AcDbSpline
 70
8
 71
3
 72
8
 73
4
 74
0
 40
0
 40
0
 40
0
 40
0
 40
1
 40
1
 40
1
 40
1
 10
142.081851
 20
208.347653
 30
0.0
 10
142.452818
 20
208.573826
 30
0.0
 10
142.823785
 20
208.800027
 30
0.0
 10
143.194752
 20
209.026200
 30
0.0
  0
LWPOLYLINE
  5
1da
100
AcDbEntity
  8
0
 62
7
100
AcDbPolyline
 90
2
 70
0
 10
151.688992
 20
226.901534
 30
0.0
 10
150.883668
 20
226.065903
 30
0.0
  0
SPLINE
  5
1db
100
AcDbEntity
  8
0
 62
7
100
AcDbSpline
 70
8
 71
3
 72
8
 73
4
 74
0
 40
0
 40
0
 40
0
 40
0
 40
1
 40
1
 40
1
 40
1
 10
151.389120
 20
207.226469
 30
0.0
 10
153.804504
 20
206.241259
 30
0.0
 10
156.445701
 20
206.294994
 30
0.0
 10
158.992584
 20
206.016017
 30
0.0
  0
LWPOLYLINE
  5
1dc
100
AcDbEntity
  8
0
 62
7
100
AcDbPolyline
 90
7
 70
0
 10
158.992584
 20
206.016017
 30
0.0
 10
160.825375
 20
205.980175
 30
0.0
 10
161.227211
 20
206.206743
 30
0.0
 10
161.444940
 20
206.614639
 30
0.0
 10
161.500614
 20
206.738647
 30
0.0
 10
161.664876
 20
206.254128
 30
0.0
 10
162.269006
 20
205.852300
 30
0.0
  0
SPLINE
  5
1dd
100
AcDbEntity
  8
0
 62
7
100
AcDbSpline
 70
8
 71
3
 72
8
 73
4
 74
0
 40
0
 40
0
 40
0
 40
0
 40
1
 40
1
 40
1
 40
1
 10
162.269006
 20
205.852300
 30
0.0
 10
162.693601
 20
205.796420
 30
0.0
 10
164.413760
 20
205.577755
 30
0.0
 10
164.849246
 20
205.524330
 30
0.0
  0
LWPOLYLINE
  5
1de
100
AcDbEntity
  8
0
 62
7
100
AcDbPolyline
 90
6
 70
0
 10
164.849246
 20
205.524330
 30
0.0
 10
166.651720
 20
205.373849
 30
0.0
 10
167.258608
 20
205.256445
 30
0.0
 10
167.512718
 20
205.159417
 30
0.0
 10
168.064485
 20
204.893196
 30
0.0
 10
168.820200
 20
204.792866
 30
0.0
  0
SPLINE
  5
1df
100
AcDbEntity
  8
0
 62
7
100
AcDbSpline
 70
8
 71
3
 72
8
 73
4
 74
0
 40
0
 40
0
 40
0
 40
0
 40
1
 40
1
 40
1
 40
1
 10
168.820200
 20
204.792866
 30
0.0
 10
170.057022
 20
204.786093
 30
0.0
 10
171.035921
 20
205.935133
 30
0.0
 10
171.236727
 20
207.091425
 30
0.0
  0
LWPOLYLINE
  5
1e0
100
AcDbEntity
  8
0
 62
7
100
AcDbPolyline
 90
5
 70
0
 10
171.236727
 20
207.091425
 30
0.0
 10
171.230123
 20
207.998741
 30
0.0
 10
170.542760
 20
208.636479
 30
0.0
 10
169.961777
 20
209.172814
 30
0.0
 10
169.800273
 20
209.864597
 30
0.0
  0
SPLINE
  5
1e1
100
AcDbEntity
  8
0
 62
7
100
AcDbSpline
 70
8
 71
3
 72
8
 73
4
 74
0
 40
0
 40
0
 40
0
 40
0
 40
1
 40
1
 40
1
 40
1
 10
169.800273
 20
209.864597
 30
0.0
 10
169.578867
 20
210.283528
 30
0.0
 10
169.357463
 20
210.702430
 30
0.0
 10
169.136057
 20
211.121361
 30
0.0
  0
SPLINE
  5
1e2
100
AcDbEntity
  8
0
 62
7
100
AcDbSpline
 70
8
 71
3
 72
8
 73
4
 74
0
 40
0
 40
0
 40
0
 40
0
 40
1
 40
1
 40
1
 40
1
 10
169.136057
 20
211.121361
 30
0.0
 10
168.788791
 20
211.374006
 30
0.0
 10
168.441528
 20
211.626652
 30
0.0
 10
168.094262
 20
211.879297
 30
0.0
  0
SPLINE
  5
1e3
100
AcDbEntity
  8
0
 62
7
100
AcDbSpline
 70
8
 71
3
 72
8
 73
4
 74
0
 40
0
 40
0
 40
0
 40
0
 40
1
 40
1
 40
1
 40
1
 10
168.094262
 20
211.879297
 30
0.0
 10
167.595045
 20
212.052017
 30
0.0
 10
167.095828
 20
212.224709
 30
0.0
 10
166.596610
 20
212.397429
 30
0.0
  0
SPLINE
  5
1e4
100
AcDbEntity
  8
0
 62
7
100
AcDbSpline
 70
8
 71
3
 72
8
 73
4
 74
0
 40
0
 40
0
 40
0
 40
0
 40
1
 40
1
 40
1
 40
1
 10
166.596610
 20
212.397429
 30
0.0
 10
166.123668
 20
212.244916
 30
0.0
 10
165.650723
 20
212.092431
 30
0.0
 10
165.177780
 20
211.939918
 30
0.0
  0
SPLINE
  5
1e5
100
AcDbEntity
  8
0
 62
7
100
AcDbSpline
 70
8
 71
3
 72
8
 73
4
 74
0
 40
0
 40
0
 40
0
 40
0
 40
1
 40
1
 40
1
 40
1
 10
165.177780
 20
211.939918
 30
0.0
 10
165.104470
 20
211.556096
 30
0.0
 10
165.031158
 20
211.172246
 30
0.0
 10
164.957847
 20
210.788423
 30
0.0
  0
SPLINE
  5
1e6
100
AcDbEntity
  8
0
 62
7
100
AcDbSpline
 70
8
 71
3
 72
8
 73
4
 74
0
 40
0
 40
0
 40
0
 40
0
 40
1
 40
1
 40
1
 40
1
 10
164.957847
 20
210.788423
 30
0.0
 10
164.934338
 20
210.599391
 30
0.0
 10
164.887295
 20
210.221270
 30
0.0
 10
164.887292
 20
210.221241
 30
0.0
  0
LWPOLYLINE
  5
1e7
100
AcDbEntity
  8
0
 62
7
100
AcDbPolyline
 90
4
 70
0
 10
164.887292
 20
210.221241
 30
0.0
 10
164.291978
 20
209.459439
 30
0.0
 10
163.584769
 20
208.855879
 30
0.0
 10
163.518624
 20
208.861523
 30
0.0
  0
LWPOLYLINE
  5
1e8
100
AcDbEntity
  8
0
 62
7
100
AcDbPolyline
 90
2
 70
0
 10
163.518624
 20
208.861382
 30
0.0
 10
163.388537
 20
209.043274
 30
0.0
  0
SPLINE
  5
1e9
100
AcDbEntity
  8
0
 62
7
100
AcDbSpline
 70
8
 71
3
 72
8
 73
4
 74
0
 40
0
 40
0
 40
0
 40
0
 40
1
 40
1
 40
1
 40
1
 10
163.388537
 20
209.043274
 30
0.0
 10
162.993499
 20
209.223699
 30
0.0
 10
162.598461
 20
209.404152
 30
0.0
 10
162.203424
 20
209.584576
 30
0.0
  0
LWPOLYLINE
  5
1ea
100
AcDbEntity
  8
0
 62
7
100
AcDbPolyline
 90
8
 70
0
 10
162.203424
 20
209.584576
 30
0.0
 10
161.535903
 20
209.466607
 30
0.0
 10
161.089416
 20
209.048777
 30
0.0
 10
161.015003
 20
208.920903
 30
0.0
 10
160.930116
 20
208.929087
 30
0.0
 10
160.082346
 20
209.539929
 30
0.0
 10
158.670684
 20
210.709034
 30
0.0
 10
158.370273
 20
211.450432
 30
0.0
  0
SPLINE
  5
1eb
100
AcDbEntity
  8
0
 62
7
100
AcDbSpline
 70
8
 71
3
 72
8
 73
4
 74
0
 40
0
 40
0
 40
0
 40
0
 40
1
 40
1
 40
1
 40
1
 10
158.370273
 20
211.450432
 30
0.0
 10
158.365080
 20
212.813170
 30
0.0
 10
157.194414
 20
213.869443
 30
0.0
 10
156.093753
 20
214.455647
 30
0.0
  0
SPLINE
  5
1ec
100
AcDbEntity
  8
0
 62
7
100
AcDbSpline
 70
8
 71
3
 72
8
 73
4
 74
0
 40
0
 40
0
 40
0
 40
0
 40
1
 40
1
 40
1
 40
1
 10
156.093753
 20
214.455647
 30
0.0
 10
155.684017
 20
214.638104
 30
0.0
 10
155.274278
 20
214.820561
 30
0.0
 10
154.864542
 20
215.003017
 30
0.0
  0
LWPOLYLINE
  5
1ed
100
AcDbEntity
  8
0
 62
7
100
AcDbPolyline
 90
3
 70
0
 10
154.864542
 20
215.003017
 30
0.0
 10
153.878418
 20
215.235060
 30
0.0
 10
153.119396
 20
215.592805
 30
0.0
  0
SPLINE
  5
1ee
100
AcDbEntity
  8
0
 62
7
100
AcDbSpline
 70
8
 71
3
 72
8
 73
4
 74
0
 40
0
 40
0
 40
0
 40
0
 40
1
 40
1
 40
1
 40
1
 10
153.119396
 20
215.592805
 30
0.0
 10
153.150195
 20
215.780793
 30
0.0
 10
153.260069
 20
216.451438
 30
0.0
 10
153.284208
 20
216.598786
 30
0.0
  0
LWPOLYLINE
  5
1ef
100
AcDbEntity
  8
0
 62
7
100
AcDbPolyline
 90
4
 70
0
 10
153.284208
 20
216.598786
 30
0.0
 10
153.574699
 20
217.035892
 30
0.0
 10
153.772035
 20
217.189675
 30
0.0
 10
153.804555
 20
217.173024
 30
0.0
  0
LWPOLYLINE
  5
1f0
100
AcDbEntity
  8
0
 62
7
100
AcDbPolyline
 90
7
 70
0
 10
153.804555
 20
217.173137
 30
0.0
 10
153.854717
 20
216.879908
 30
0.0
 10
154.354118
 20
215.817144
 30
0.0
 10
155.306068
 20
215.235060
 30
0.0
 10
155.592148
 20
215.350828
 30
0.0
 10
155.894213
 20
215.613210
 30
0.0
 10
156.556775
 20
216.443338
 30
0.0
  0
LWPOLYLINE
  5
1f1
100
AcDbEntity
  8
0
 62
7
100
AcDbPolyline
 90
2
 70
0
 10
156.711114
 20
218.989406
 30
0.0
 10
156.284473
 20
220.004193
 30
0.0
  0
SPLINE
  5
1f2
100
AcDbEntity
  8
0
 62
7
100
AcDbSpline
 70
8
 71
3
 72
8
 73
4
 74
0
 40
0
 40
0
 40
0
 40
0
 40
1
 40
1
 40
1
 40
1
 10
156.284473
 20
220.004193
 30
0.0
 10
156.236162
 20
220.188455
 30
0.0
 10
156.121509
 20
220.625759
 30
0.0
 10
156.112495
 20
220.660133
 30
0.0
  0
LWPOLYLINE
  5
1f3
100
AcDbEntity
  8
0
 62
7
100
AcDbPolyline
 90
3
 70
0
 10
156.112495
 20
220.660133
 30
0.0
 10
155.882639
 20
221.365689
 30
0.0
 10
155.351819
 20
222.273541
 30
0.0
  0
SPLINE
  5
1f4
100
AcDbEntity
  8
0
 62
7
100
AcDbSpline
 70
8
 71
3
 72
8
 73
4
 74
0
 40
0
 40
0
 40
0
 40
0
 40
1
 40
1
 40
1
 40
1
 10
156.711114
 20
218.989406
 30
0.0
 10
156.659667
 20
218.140707
 30
0.0
 10
156.608221
 20
217.292037
 30
0.0
 10
156.556775
 20
216.443338
 30
0.0
  0
SPLINE
  5
1f5
100
AcDbEntity
  8
0
 62
7
100
AcDbSpline
 70
8
 71
3
 72
8
 73
4
 74
0
 40
0
 40
0
 40
0
 40
0
 40
1
 40
1
 40
1
 40
1
 10
155.214566
 20
224.143264
 30
0.0
 10
155.411718
 20
224.724613
 30
0.0
 10
155.608867
 20
225.305963
 30
0.0
 10
155.806019
 20
225.887312
 30
0.0
  0
SPLINE
  5
1f6
100
AcDbEntity
  8
0
 62
7
100
AcDbSpline
 70
8
 71
3
 72
8
 73
4
 74
0
 40
0
 40
0
 40
0
 40
0
 40
1
 40
1
 40
1
 40
1
 10
155.806019
 20
225.887312
 30
0.0
 10
155.687508
 20
226.349225
 30
0.0
 10
155.568997
 20
226.811139
 30
0.0
 10
155.450486
 20
227.273052
 30
0.0
  0
SPLINE
  5
1f7
100
AcDbEntity
  8
0
 62
7
100
AcDbSpline
 70
8
 71
3
 72
8
 73
4
 74
0
 40
0
 40
0
 40
0
 40
0
 40
1
 40
1
 40
1
 40
1
 10
153.010255
 20
227.448904
 30
0.0
 10
152.569833
 20
227.266448
 30
0.0
 10
152.129414
 20
227.083991
 30
0.0
 10
151.688992
 20
226.901534
 30
0.0
  0
SPLINE
  5
1f8
100
AcDbEntity
  8
0
 62
7
100
AcDbSpline
 70
8
 71
3
 72
8
 73
4
 74
0
 40
0
 40
0
 40
0
 40
0
 40
1
 40
1
 40
1
 40
1
 10
155.214566
 20
224.143264
 30
0.0
 10
155.260317
 20
223.520032
 30
0.0
 10
155.306068
 20
222.896773
 30
0.0
 10
155.351819
 20
222.273541
 30
0.0
  0
SPLINE
  5
1f9
100
AcDbEntity
  8
0
 62
7
100
AcDbSpline
 70
8
 71
3
 72
8
 73
4
 74
0
 40
0
 40
0
 40
0
 40
0
 40
1
 40
1
 40
1
 40
1
 10
131.693660
 20
208.783093
 30
0.0
 10
133.363524
 20
208.222177
 30
0.0
 10
134.478965
 20
206.785186
 30
0.0
 10
135.557127
 20
205.485186
 30
0.0
  0
SPLINE
  5
1fa
100
AcDbEntity
  8
0
 62
7
100
AcDbSpline
 70
8
 71
3
 72
8
 73
4
 74
0
 40
0
 40
0
 40
0
 40
0
 40
1
 40
1
 40
1
 40
1
 10
128.431016
 20
209.876168
 30
0.0
 10
128.972626
 20
209.696647
 30
0.0
 10
131.147721
 20
208.967921
 30
0.0
 10
131.693660
 20
208.783093
 30
0.0
  0
SPLINE
  5
1fb
100
AcDbEntity
  8
0
 62
7
100
AcDbSpline
 70
8
 71
3
 72
8
 73
4
 74
0
 40
0
 40
0
 40
0
 40
0
 40
1
 40
1
 40
1
 40
1
 10
125.725654
 20
210.583925
 30
0.0
 10
126.175948
 20
210.464997
 30
0.0
 10
127.979523
 20
209.993178
 30
0.0
 10
128.431016
 20
209.876168
 30
0.0
  0
SPLINE
  5
1fc
100
AcDbEntity
  8
0
 62
7
100
AcDbSpline
 70
8
 71
3
 72
8
 73
4
 74
0
 40
0
 40
0
 40
0
 40
0
 40
1
 40
1
 40
1
 40
1
 10
123.507562
 20
210.783456
 30
0.0
 10
124.246925
 20
210.716937
 30
0.0
 10
124.986291
 20
210.650445
 30
0.0
 10
125.725654
 20
210.583925
 30
0.0
  0
SPLINE
  5
1fd
100
AcDbEntity
  8
0
 62
7
100
AcDbSpline
 70
8
 71
3
 72
8
 73
4
 74
0
 40
0
 40
0
 40
0
 40
0
 40
1
 40
1
 40
1
 40
1
 10
121.195214
 20
208.953443
 30
0.0
 10
121.583213
 20
209.264677
 30
0.0
 10
123.124778
 20
210.484696
 30
0.0
 10
123.507562
 20
210.783456
 30
0.0
  0
SPLINE
  5
1fe
100
AcDbEntity
  8
0
 62
7
100
AcDbSpline
 70
8
 71
3
 72
8
 73
4
 74
0
 40
0
 40
0
 40
0
 40
0
 40
1
 40
1
 40
1
 40
1
 10
118.143686
 20
206.456990
 30
0.0
 10
118.650594
 20
206.867256
 30
0.0
 10
120.684948
 20
208.531549
 30
0.0
 10
121.195214
 20
208.953443
 30
0.0
  0
SPLINE
  5
1ff
100
AcDbEntity
  8
0
 62
7
100
AcDbSpline
 70
8
 71
3
 72
8
 73
4
 74
0
 40
0
 40
0
 40
0
 40
0
 40
1
 40
1
 40
1
 40
1
 10
114.991837
 20
205.839064
 30
0.0
 10
115.519271
 20
205.938124
 30
0.0
 10
117.620502
 20
206.350056
 30
0.0
 10
118.143686
 20
206.456990
 30
0.0
  0
LWPOLYLINE
  5
200
100
AcDbEntity
  8
0
 62
7
100
AcDbPolyline
 90
3
 70
0
 10
155.450486
 20
227.273052
 30
0.0
 10
154.404277
 20
227.625829
 30
0.0
 10
153.010255
 20
227.448904
 30
0.0
  0
SPLINE
  5
201
100
AcDbEntity
  8
0
 62
7
100
AcDbSpline
 70
8
 71
3
 72
8
 73
4
 74
0
 40
0
 40
0
 40
0
 40
0
 40
1
 40
1
 40
1
 40
1
 10
111.434846
 20
204.927910
 30
0.0
 10
111.922120
 20
205.133509
 30
0.0
 10
112.409396
 20
205.339107
 30
0.0
 10
112.896670
 20
205.544706
 30
0.0
  0
SPLINE
  5
202
100
AcDbEntity
  8
0
 62
7
100
AcDbSpline
 70
8
 71
3
 72
8
 73
4
 74
0
 40
0
 40
0
 40
0
 40
0
 40
1
 40
1
 40
1
 40
1
 10
109.106513
 20
205.237677
 30
0.0
 10
109.496555
 20
205.183716
 30
0.0
 10
111.048777
 20
204.977214
 30
0.0
 10
111.434846
 20
204.927910
 30
0.0
  0
SPLINE
  5
203
100
AcDbEntity
  8
0
 62
7
100
AcDbSpline
 70
8
 71
3
 72
8
 73
4
 74
0
 40
0
 40
0
 40
0
 40
0
 40
1
 40
1
 40
1
 40
1
 10
105.006572
 20
205.452109
 30
0.0
 10
105.685759
 20
205.421968
 30
0.0
 10
108.419053
 20
205.279022
 30
0.0
 10
109.106513
 20
205.237677
 30
0.0
  0
LWPOLYLINE
  5
204
100
AcDbEntity
  8
0
 62
7
100
AcDbPolyline
 90
2
 70
0
 10
113.512377
 20
205.775113
 30
0.0
 10
114.991837
 20
205.839064
 30
0.0
  0
LWPOLYLINE
  5
205
100
AcDbEntity
  8
0
 62
7
100
AcDbPolyline
 90
2
 70
0
 10
112.896670
 20
205.544706
 30
0.0
 10
113.512377
 20
205.775113
 30
0.0
  0
LWPOLYLINE
  5
206
100
AcDbEntity
  8
0
 62
7
100
AcDbPolyline
 90
2
 70
0
 10
103.773503
 20
204.827580
 30
0.0
 10
105.006572
 20
205.452109
 30
0.0
  0
SPLINE
  5
207
100
AcDbEntity
  8
0
 62
7
100
AcDbSpline
 70
8
 71
3
 72
8
 73
4
 74
0
 40
0
 40
0
 40
0
 40
0
 40
1
 40
1
 40
1
 40
1
 10
102.019537
 20
200.764567
 30
0.0
 10
102.333363
 20
201.320009
 30
0.0
 10
102.647188
 20
201.875451
 30
0.0
 10
102.961014
 20
202.430892
 30
0.0
  0
LWPOLYLINE
  5
208
100
AcDbEntity
  8
0
 62
7
100
AcDbPolyline
 90
2
 70
0
 10
103.333084
 20
203.830997
 30
0.0
 10
103.773503
 20
204.827580
 30
0.0
  0
SPLINE
  5
209
100
AcDbEntity
  8
0
 62
7
100
AcDbSpline
 70
8
 71
3
 72
8
 73
4
 74
0
 40
0
 40
0
 40
0
 40
0
 40
1
 40
1
 40
1
 40
1
 10
99.685692
 20
199.039258
 30
0.0
 10
100.183439
 20
199.273164
 30
0.0
 10
100.681186
 20
199.507070
 30
0.0
 10
101.178933
 20
199.740976
 30
0.0
  0
SPLINE
  5
20a
100
AcDbEntity
  8
0
 62
7
100
AcDbSpline
 70
8
 71
3
 72
8
 73
4
 74
0
 40
0
 40
0
 40
0
 40
0
 40
1
 40
1
 40
1
 40
1
 10
98.401361
 20
198.465472
 30
0.0
 10
98.829472
 20
198.656734
 30
0.0
 10
99.257581
 20
198.847996
 30
0.0
 10
99.685692
 20
199.039258
 30
0.0
  0
LWPOLYLINE
  5
20b
100
AcDbEntity
  8
0
 62
7
100
AcDbPolyline
 90
2
 70
0
 10
102.961014
 20
202.430892
 30
0.0
 10
103.333084
 20
203.830997
 30
0.0
  0
LWPOLYLINE
  5
20c
100
AcDbEntity
  8
0
 62
7
100
AcDbPolyline
 90
2
 70
0
 10
101.178933
 20
199.740976
 30
0.0
 10
102.019537
 20
200.764567
 30
0.0
  0
LWPOLYLINE
  5
20d
100
AcDbEntity
  8
0
 62
7
100
AcDbPolyline
 90
2
 70
0
 10
98.029841
 20
197.968253
 30
0.0
 10
98.401361
 20
198.465472
 30
0.0
  0
LWPOLYLINE
  5
20e
100
AcDbEntity
  8
0
 62
7
100
AcDbPolyline
 90
2
 70
0
 10
97.684229
 20
197.204278
 30
0.0
 10
98.029841
 20
197.968253
 30
0.0
  0
LWPOLYLINE
  5
20f
100
AcDbEntity
  8
0
 62
7
100
AcDbPolyline
 90
2
 70
0
 10
95.672845
 20
191.948989
 30
0.0
 10
96.167837
 20
192.852975
 30
0.0
  0
LWPOLYLINE
  5
210
100
AcDbEntity
  8
0
 62
7
100
AcDbPolyline
 90
2
 70
0
 10
95.021310
 20
190.877984
 30
0.0
 10
95.672845
 20
191.948989
 30
0.0
  0
LWPOLYLINE
  5
211
100
AcDbEntity
  8
0
 62
7
100
AcDbPolyline
 90
2
 70
0
 10
94.457416
 20
190.740175
 30
0.0
 10
95.021310
 20
190.877984
 30
0.0
  0
LWPOLYLINE
  5
212
100
AcDbEntity
  8
0
 62
7
100
AcDbPolyline
 90
2
 70
0
 10
93.945337
 20
191.002557
 30
0.0
 10
94.457416
 20
190.740175
 30
0.0
  0
LWPOLYLINE
  5
213
100
AcDbEntity
  8
0
 62
7
100
AcDbPolyline
 90
2
 70
0
 10
93.292145
 20
192.421937
 30
0.0
 10
93.945337
 20
191.002557
 30
0.0
  0
LWPOLYLINE
  5
214
100
AcDbEntity
  8
0
 62
7
100
AcDbPolyline
 90
2
 70
0
 10
93.261279
 20
193.281840
 30
0.0
 10
93.292145
 20
192.421937
 30
0.0
  0
LWPOLYLINE
  5
215
100
AcDbEntity
  8
0
 62
7
100
AcDbPolyline
 90
2
 70
0
 10
94.111803
 20
193.525455
 30
0.0
 10
93.916672
 20
193.509368
 30
0.0
  0
LWPOLYLINE
  5
216
100
AcDbEntity
  8
0
 62
7
100
AcDbPolyline
 90
2
 70
0
 10
93.920539
 20
193.733819
 30
0.0
 10
94.111812
 20
193.525455
 30
0.0
  0
SPLINE
  5
217
100
AcDbEntity
  8
0
 62
7
100
AcDbSpline
 70
8
 71
3
 72
8
 73
4
 74
0
 40
0
 40
0
 40
0
 40
0
 40
1
 40
1
 40
1
 40
1
 10
95.823885
 20
200.444302
 30
0.0
 10
95.500292
 20
200.069454
 30
0.0
 10
94.218901
 20
198.582651
 30
0.0
 10
93.901799
 20
198.214097
 30
0.0
  0
LWPOLYLINE
  5
218
100
AcDbEntity
  8
0
 62
7
100
AcDbPolyline
 90
2
 70
0
 10
93.298219
 20
194.271255
 30
0.0
 10
93.920539
 20
193.733819
 30
0.0
  0
LWPOLYLINE
  5
219
100
AcDbEntity
  8
0
 62
7
100
AcDbPolyline
 90
2
 70
0
 10
93.901799
 20
198.214097
 30
0.0
 10
92.771256
 20
197.326085
 30
0.0
  0
LWPOLYLINE
  5
21a
100
AcDbEntity
  8
0
 62
7
100
AcDbPolyline
 90
2
 70
0
 10
96.872298
 20
201.800859
 30
0.0
 10
95.823885
 20
200.444302
 30
0.0
  0
LWPOLYLINE
  5
21b
100
AcDbEntity
  8
0
 62
7
100
AcDbPolyline
 90
2
 70
0
 10
97.128062
 20
202.820048
 30
0.0
 10
96.872298
 20
201.800859
 30
0.0
  0
LWPOLYLINE
  5
21c
100
AcDbEntity
  8
0
 62
7
100
AcDbPolyline
 90
2
 70
0
 10
97.065222
 20
203.451182
 30
0.0
 10
97.128062
 20
202.820048
 30
0.0
  0
LWPOLYLINE
  5
21d
100
AcDbEntity
  8
0
 62
7
100
AcDbPolyline
 90
2
 70
0
 10
96.935135
 20
203.615463
 30
0.0
 10
97.065222
 20
203.451182
 30
0.0
  0
SPLINE
  5
21e
100
AcDbEntity
  8
0
 62
7
100
AcDbSpline
 70
8
 71
3
 72
8
 73
4
 74
0
 40
0
 40
0
 40
0
 40
0
 40
1
 40
1
 40
1
 40
1
 10
94.823983
 20
202.346564
 30
0.0
 10
95.169962
 20
202.551429
 30
0.0
 10
95.515941
 20
202.756294
 30
0.0
 10
95.861920
 20
202.961159
 30
0.0
  0
LWPOLYLINE
  5
21f
100
AcDbEntity
  8
0
 62
7
100
AcDbPolyline
 90
2
 70
0
 10
96.569129
 20
203.488661
 30
0.0
 10
96.935135
 20
203.615463
 30
0.0
  0
SPLINE
  5
220
100
AcDbEntity
  8
0
 62
7
100
AcDbSpline
 70
8
 71
3
 72
8
 73
4
 74
0
 40
0
 40
0
 40
0
 40
0
 40
1
 40
1
 40
1
 40
1
 10
91.639610
 20
202.040635
 30
0.0
 10
92.223347
 20
202.132696
 30
0.0
 10
92.807084
 20
202.224729
 30
0.0
 10
93.390822
 20
202.316790
 30
0.0
  0
SPLINE
  5
221
100
AcDbEntity
  8
0
 62
7
100
AcDbSpline
 70
8
 71
3
 72
8
 73
4
 74
0
 40
0
 40
0
 40
0
 40
0
 40
1
 40
1
 40
1
 40
1
 10
90.482059
 20
200.012163
 30
0.0
 10
90.675418
 20
200.356531
 30
0.0
 10
91.447120
 20
201.708827
 30
0.0
 10
91.639610
 20
202.040635
 30
0.0
  0
SPLINE
  5
222
100
AcDbEntity
  8
0
 62
7
100
AcDbSpline
 70
8
 71
3
 72
8
 73
4
 74
0
 40
0
 40
0
 40
0
 40
0
 40
1
 40
1
 40
1
 40
1
 10
89.157497
 20
198.041575
 30
0.0
 10
89.379747
 20
198.366638
 30
0.0
 10
90.262789
 20
199.680383
 30
0.0
 10
90.482059
 20
200.012163
 30
0.0
  0
SPLINE
  5
223
100
AcDbEntity
  8
0
 62
7
100
AcDbSpline
 70
8
 71
3
 72
8
 73
4
 74
0
 40
0
 40
0
 40
0
 40
0
 40
1
 40
1
 40
1
 40
1
 10
92.027657
 20
196.068757
 30
0.0
 10
92.451174
 20
195.469599
 30
0.0
 10
92.874694
 20
194.870413
 30
0.0
 10
93.298210
 20
194.271255
 30
0.0
  0
LWPOLYLINE
  5
224
100
AcDbEntity
  8
0
 62
7
100
AcDbPolyline
 90
2
 70
0
 10
95.861920
 20
202.961159
 30
0.0
 10
96.569129
 20
203.488661
 30
0.0
  0
LWPOLYLINE
  5
225
100
AcDbEntity
  8
0
 62
7
100
AcDbPolyline
 90
2
 70
0
 10
93.390822
 20
202.316790
 30
0.0
 10
94.823983
 20
202.346564
 30
0.0
  0
SPLINE
  5
226
100
AcDbEntity
  8
0
 62
7
100
AcDbSpline
 70
8
 71
3
 72
8
 73
4
 74
0
 40
0
 40
0
 40
0
 40
0
 40
1
 40
1
 40
1
 40
1
 10
96.405409
 20
194.399158
 30
0.0
 10
96.387855
 20
194.588840
 30
0.0
 10
96.327589
 20
195.240011
 30
0.0
 10
96.315011
 20
195.375901
 30
0.0
  0
LWPOLYLINE
  5
227
100
AcDbEntity
  8
0
 62
7
100
AcDbPolyline
 90
2
 70
0
 10
97.006235
 20
196.316265
 30
0.0
 10
97.684229
 20
197.204278
 30
0.0
  0
SPLINE
  5
228
100
AcDbEntity
  8
0
 62
7
100
AcDbSpline
 70
8
 71
3
 72
8
 73
4
 74
0
 40
0
 40
0
 40
0
 40
0
 40
1
 40
1
 40
1
 40
1
 10
96.167837
 20
192.852975
 30
0.0
 10
96.271424
 20
193.012854
 30
0.0
 10
96.517632
 20
193.392838
 30
0.0
 10
96.537151
 20
193.422951
 30
0.0
  0
LWPOLYLINE
  5
229
100
AcDbEntity
  8
0
 62
7
100
AcDbPolyline
 90
2
 70
0
 10
96.315011
 20
195.375901
 30
0.0
 10
97.006235
 20
196.316265
 30
0.0
  0
LWPOLYLINE
  5
22a
100
AcDbEntity
  8
0
 62
7
100
AcDbPolyline
 90
2
 70
0
 10
96.537151
 20
193.422951
 30
0.0
 10
96.405409
 20
194.399158
 30
0.0
  0
LWPOLYLINE
  5
22b
100
AcDbEntity
  8
0
 62
7
100
AcDbPolyline
 90
2
 70
0
 10
93.529170
 20
193.475304
 30
0.0
 10
93.261279
 20
193.281840
 30
0.0
  0
LWPOLYLINE
  5
22c
100
AcDbEntity
  8
0
 62
7
100
AcDbPolyline
 90
2
 70
0
 10
93.916672
 20
193.509481
 30
0.0
 10
93.529170
 20
193.475304
 30
0.0
  0
LWPOLYLINE
  5
22d
100
AcDbEntity
  8
0
 62
7
100
AcDbPolyline
 90
2
 70
0
 10
92.123017
 20
196.841566
 30
0.0
 10
92.027657
 20
196.068757
 30
0.0
  0
SPLINE
  5
22e
100
AcDbEntity
  8
0
 62
7
100
AcDbSpline
 70
8
 71
3
 72
8
 73
4
 74
0
 40
0
 40
0
 40
0
 40
0
 40
1
 40
1
 40
1
 40
1
 10
135.557127
 20
205.485186
 30
0.0
 10
136.043300
 20
204.936800
 30
0.0
 10
138.007468
 20
202.760951
 30
0.0
 10
138.503375
 20
202.221427
 30
0.0
  0
LWPOLYLINE
  5
22f
100
AcDbEntity
  8
0
 62
7
100
AcDbPolyline
 90
2
 70
0
 10
92.771248
 20
197.326085
 30
0.0
 10
92.123017
 20
196.841566
 30
0.0
  0
LWPOLYLINE
  5
230
100
AcDbEntity
  8
0
 62
7
100
AcDbPolyline
 90
3
 70
0
 10
144.100965
 20
200.940956
 30
0.0
 10
144.874321
 20
200.953092
 30
0.0
 10
145.229854
 20
201.310837
 30
0.0
  0
SPLINE
  5
231
100
AcDbEntity
  8
0
 62
7
100
AcDbSpline
 70
8
 71
3
 72
8
 73
4
 74
0
 40
0
 40
0
 40
0
 40
0
 40
1
 40
1
 40
1
 40
1
 10
138.503375
 20
202.221427
 30
0.0
 10
139.120369
 20
201.949675
 30
0.0
 10
139.737361
 20
201.677951
 30
0.0
 10
140.354355
 20
201.406200
 30
0.0
  0
LWPOLYLINE
  5
232
100
AcDbEntity
  8
0
 62
7
100
AcDbPolyline
 90
3
 70
0
 10
145.090396
 20
202.929212
 30
0.0
 10
144.911253
 20
203.275922
 30
0.0
 10
144.776204
 20
203.823828
 30
0.0
  0
LWPOLYLINE
  5
233
100
AcDbEntity
  8
0
 62
7
100
AcDbPolyline
 90
7
 70
0
 10
140.354355
 20
201.406200
 30
0.0
 10
141.132670
 20
201.539578
 30
0.0
 10
141.639790
 20
201.922695
 30
0.0
 10
141.767670
 20
202.099620
 30
0.0
 10
141.868545
 20
202.124455
 30
0.0
 10
142.657333
 20
201.731969
 30
0.0
 10
144.100965
 20
200.940956
 30
0.0
  0
LWPOLYLINE
  5
234
100
AcDbEntity
  8
0
 62
7
100
AcDbPolyline
 90
4
 70
0
 10
142.305106
 20
204.021158
 30
0.0
 10
142.000836
 20
203.614363
 30
0.0
 10
141.993104
 20
203.610412
 30
0.0
 10
141.926959
 20
203.714128
 30
0.0
  0
SPLINE
  5
235
100
AcDbEntity
  8
0
 62
7
100
AcDbSpline
 70
8
 71
3
 72
8
 73
4
 74
0
 40
0
 40
0
 40
0
 40
0
 40
1
 40
1
 40
1
 40
1
 10
141.926959
 20
203.714128
 30
0.0
 10
141.859158
 20
204.452760
 30
0.0
 10
141.791360
 20
205.191392
 30
0.0
 10
141.723559
 20
205.930024
 30
0.0
  0
SPLINE
  5
236
100
AcDbEntity
  8
0
 62
7
100
AcDbSpline
 70
8
 71
3
 72
8
 73
4
 74
0
 40
0
 40
0
 40
0
 40
0
 40
1
 40
1
 40
1
 40
1
 10
141.723559
 20
205.930024
 30
0.0
 10
141.781366
 20
206.338089
 30
0.0
 10
142.020228
 20
207.949832
 30
0.0
 10
142.081851
 20
208.347653
 30
0.0
  0
LWPOLYLINE
  5
237
100
AcDbEntity
  8
0
 62
7
100
AcDbPolyline
 90
5
 70
0
 10
144.776204
 20
203.823828
 30
0.0
 10
144.474139
 20
204.491905
 30
0.0
 10
143.693066
 20
204.735547
 30
0.0
 10
142.849154
 20
204.640749
 30
0.0
 10
142.305106
 20
204.021158
 30
0.0
  0
SPLINE
  5
238
100
AcDbEntity
  8
0
 62
7
100
AcDbSpline
 70
8
 71
3
 72
8
 73
4
 74
0
 40
0
 40
0
 40
0
 40
0
 40
1
 40
1
 40
1
 40
1
 10
145.374823
 20
201.852675
 30
0.0
 10
145.326162
 20
202.036853
 30
0.0
 10
145.136545
 20
202.754545
 30
0.0
 10
145.090396
 20
202.929212
 30
0.0
  0
LWPOLYLINE
  5
239
100
AcDbEntity
  8
0
 62
7
100
AcDbPolyline
 90
2
 70
0
 10
145.229854
 20
201.310837
 30
0.0
 10
145.374823
 20
201.852675
 30
0.0
  0
LWPOLYLINE
  5
23a
100
AcDbEntity
  8
0
 62
7
100
AcDbPolyline
 90
4
 70
0
 10
122.568236
 20
202.153073
 30
0.0
 10
122.568236
 20
202.153073
 30
0.0
 10
122.568236
 20
202.153073
 30
0.0
 10
122.568236
 20
202.153073
 30
0.0
  0
SPLINE
  5
23b
100
AcDbEntity
  8
0
 62
7
100
AcDbSpline
 70
8
 71
3
 72
8
 73
4
 74
0
 40
0
 40
0
 40
0
 40
0
 40
1
 40
1
 40
1
 40
1
 10
123.818390
 20
200.348374
 30
0.0
 10
123.810629
 20
200.538705
 30
0.0
 10
123.790789
 20
201.025256
 30
0.0
 10
123.788627
 20
201.078201
 30
0.0
  0
LWPOLYLINE
  5
23c
100
AcDbEntity
  8
0
 62
7
100
AcDbPolyline
 90
2
 70
0
 10
123.144808
 20
202.029036
 30
0.0
 10
122.568236
 20
202.153073
 30
0.0
  0
LWPOLYLINE
  5
23d
100
AcDbEntity
  8
0
 62
7
100
AcDbPolyline
 90
2
 70
0
 10
123.788627
 20
201.078201
 30
0.0
 10
123.144808
 20
202.029036
 30
0.0
  0
LWPOLYLINE
  5
23e
100
AcDbEntity
  8
0
 62
7
100
AcDbPolyline
 90
2
 70
0
 10
123.424823
 20
199.821437
 30
0.0
 10
123.818390
 20
200.348374
 30
0.0
  0
SPLINE
  5
23f
100
AcDbEntity
  8
0
 62
7
100
AcDbSpline
 70
8
 71
3
 72
8
 73
4
 74
0
 40
0
 40
0
 40
0
 40
0
 40
1
 40
1
 40
1
 40
1
 10
120.701822
 20
201.300874
 30
0.0
 10
120.922675
 20
200.900514
 30
0.0
 10
121.143528
 20
200.500153
 30
0.0
 10
121.364381
 20
200.099793
 30
0.0
  0
LWPOLYLINE
  5
240
100
AcDbEntity
  8
0
 62
7
100
AcDbPolyline
 90
2
 70
0
 10
122.463504
 20
199.469760
 30
0.0
 10
123.424823
 20
199.821437
 30
0.0
  0
LWPOLYLINE
  5
241
100
AcDbEntity
  8
0
 62
7
100
AcDbPolyline
 90
2
 70
0
 10
121.364381
 20
200.099793
 30
0.0
 10
122.463504
 20
199.469760
 30
0.0
  0
LWPOLYLINE
  5
242
100
AcDbEntity
  8
0
 62
7
100
AcDbPolyline
 90
2
 70
0
 10
121.062866
 20
201.787623
 30
0.0
 10
120.701822
 20
201.300874
 30
0.0
  0
LWPOLYLINE
  5
243
100
AcDbEntity
  8
0
 62
7
100
AcDbPolyline
 90
2
 70
0
 10
121.809764
 20
202.069845
 30
0.0
 10
121.062866
 20
201.787623
 30
0.0
  0
LWPOLYLINE
  5
244
100
AcDbEntity
  8
0
 62
7
100
AcDbPolyline
 90
2
 70
0
 10
122.568236
 20
202.153073
 30
0.0
 10
121.809764
 20
202.069845
 30
0.0
  0
LWPOLYLINE
  5
245
100
AcDbEntity
  8
0
 62
7
100
AcDbPolyline
 90
4
 70
0
 10
125.589448
 20
201.669090
 30
0.0
 10
125.589448
 20
201.669090
 30
0.0
 10
125.589448
 20
201.669090
 30
0.0
 10
125.589448
 20
201.669090
 30
0.0
  0
SPLINE
  5
246
100
AcDbEntity
  8
0
 62
7
100
AcDbSpline
 70
8
 71
3
 72
8
 73
4
 74
0
 40
0
 40
0
 40
0
 40
0
 40
1
 40
1
 40
1
 40
1
 10
126.707310
 20
200.939856
 30
0.0
 10
126.484987
 20
201.258993
 30
0.0
 10
126.262663
 20
201.578158
 30
0.0
 10
126.040340
 20
201.897295
 30
0.0
  0
SPLINE
  5
247
100
AcDbEntity
  8
0
 62
7
100
AcDbSpline
 70
8
 71
3
 72
8
 73
4
 74
0
 40
0
 40
0
 40
0
 40
0
 40
1
 40
1
 40
1
 40
1
 10
126.256968
 20
199.232722
 30
0.0
 10
126.407082
 20
199.801766
 30
0.0
 10
126.557196
 20
200.370811
 30
0.0
 10
126.707310
 20
200.939856
 30
0.0
  0
LWPOLYLINE
  5
248
100
AcDbEntity
  8
0
 62
7
100
AcDbPolyline
 90
4
 70
0
 10
125.510070
 20
201.929270
 30
0.0
 10
125.510070
 20
201.929270
 30
0.0
 10
125.510070
 20
201.929270
 30
0.0
 10
125.510070
 20
201.929270
 30
0.0
  0
LWPOLYLINE
  5
249
100
AcDbEntity
  8
0
 62
7
100
AcDbPolyline
 90
2
 70
0
 10
126.040340
 20
201.897295
 30
0.0
 10
125.510070
 20
201.929270
 30
0.0
  0
LWPOLYLINE
  5
24a
100
AcDbEntity
  8
0
 62
7
100
AcDbPolyline
 90
2
 70
0
 10
125.669373
 20
198.861769
 30
0.0
 10
126.256968
 20
199.232722
 30
0.0
  0
LWPOLYLINE
  5
24b
100
AcDbEntity
  8
0
 62
7
100
AcDbPolyline
 90
2
 70
0
 10
125.015631
 20
199.095477
 30
0.0
 10
125.669373
 20
198.861769
 30
0.0
  0
SPLINE
  5
24c
100
AcDbEntity
  8
0
 62
7
100
AcDbSpline
 70
8
 71
3
 72
8
 73
4
 74
0
 40
0
 40
0
 40
0
 40
0
 40
1
 40
1
 40
1
 40
1
 10
125.057524
 20
201.579795
 30
0.0
 10
124.970800
 20
201.148023
 30
0.0
 10
124.884073
 20
200.716223
 30
0.0
 10
124.797349
 20
200.284451
 30
0.0
  0
LWPOLYLINE
  5
24d
100
AcDbEntity
  8
0
 62
7
100
AcDbPolyline
 90
2
 70
0
 10
124.832076
 20
199.584399
 30
0.0
 10
125.015631
 20
199.095477
 30
0.0
  0
LWPOLYLINE
  5
24e
100
AcDbEntity
  8
0
 62
7
100
AcDbPolyline
 90
2
 70
0
 10
124.797349
 20
200.284451
 30
0.0
 10
124.832076
 20
199.584399
 30
0.0
  0
LWPOLYLINE
  5
24f
100
AcDbEntity
  8
0
 62
7
100
AcDbPolyline
 90
2
 70
0
 10
125.510070
 20
201.929270
 30
0.0
 10
125.057524
 20
201.579795
 30
0.0
  0
LWPOLYLINE
  5
250
100
AcDbEntity
  8
0
 62
7
100
AcDbPolyline
 90
5
 70
0
 10
146.476647
 20
201.621705
 30
0.0
 10
146.476647
 20
201.621705
 30
0.0
 10
146.476647
 20
201.621705
 30
0.0
 10
146.476647
 20
201.621705
 30
0.0
 10
145.885744
 20
201.617189
 30
0.0
  0
SPLINE
  5
251
100
AcDbEntity
  8
0
 62
7
100
AcDbSpline
 70
8
 71
3
 72
8
 73
4
 74
0
 40
0
 40
0
 40
0
 40
0
 40
1
 40
1
 40
1
 40
1
 10
145.885744
 20
201.617302
 30
0.0
 10
145.642657
 20
201.285663
 30
0.0
 10
145.399574
 20
200.953995
 30
0.0
 10
145.156487
 20
200.622356
 30
0.0
  0
SPLINE
  5
252
100
AcDbEntity
  8
0
 62
7
100
AcDbSpline
 70
8
 71
3
 72
8
 73
4
 74
0
 40
0
 40
0
 40
0
 40
0
 40
1
 40
1
 40
1
 40
1
 10
145.156487
 20
200.622356
 30
0.0
 10
145.193015
 20
200.435383
 30
0.0
 10
145.317221
 20
199.799650
 30
0.0
 10
145.342796
 20
199.668755
 30
0.0
  0
LWPOLYLINE
  5
253
100
AcDbEntity
  8
0
 62
7
100
AcDbPolyline
 90
5
 70
0
 10
145.342796
 20
199.668755
 30
0.0
 10
146.300808
 20
198.569076
 30
0.0
 10
147.500806
 20
197.625946
 30
0.0
 10
148.609849
 20
197.558692
 30
0.0
 10
150.069468
 20
198.176053
 30
0.0
  0
SPLINE
  5
254
100
AcDbEntity
  8
0
 62
7
100
AcDbSpline
 70
8
 71
3
 72
8
 73
4
 74
0
 40
0
 40
0
 40
0
 40
0
 40
1
 40
1
 40
1
 40
1
 10
150.069468
 20
198.176053
 30
0.0
 10
150.170157
 20
198.574213
 30
0.0
 10
150.270845
 20
198.972372
 30
0.0
 10
150.371533
 20
199.370531
 30
0.0
  0
SPLINE
  5
255
100
AcDbEntity
  8
0
 62
7
100
AcDbSpline
 70
8
 71
3
 72
8
 73
4
 74
0
 40
0
 40
0
 40
0
 40
0
 40
1
 40
1
 40
1
 40
1
 10
150.371533
 20
199.370531
 30
0.0
 10
149.980907
 20
199.782660
 30
0.0
 10
149.590277
 20
200.194789
 30
0.0
 10
149.199651
 20
200.606918
 30
0.0
  0
SPLINE
  5
256
100
AcDbEntity
  8
0
 62
7
100
AcDbSpline
 70
8
 71
3
 72
8
 73
4
 74
0
 40
0
 40
0
 40
0
 40
0
 40
1
 40
1
 40
1
 40
1
 10
120.239350
 20
179.559857
 30
0.0
 10
119.895676
 20
179.105310
 30
0.0
 10
118.520580
 20
177.259464
 30
0.0
 10
118.176703
 20
176.791088
 30
0.0
  0
LWPOLYLINE
  5
257
100
AcDbEntity
  8
0
 62
7
100
AcDbPolyline
 90
5
 70
0
 10
149.199651
 20
200.606918
 30
0.0
 10
148.362904
 20
200.993873
 30
0.0
 10
147.631444
 20
201.026385
 30
0.0
 10
147.024003
 20
201.244656
 30
0.0
 10
146.476647
 20
201.621705
 30
0.0
  0
LWPOLYLINE
  5
258
100
AcDbEntity
  8
0
 62
7
100
AcDbPolyline
 90
2
 70
0
 10
121.217758
 20
179.876793
 30
0.0
 10
120.239350
 20
179.559857
 30
0.0
  0
LWPOLYLINE
  5
259
100
AcDbEntity
  8
0
 62
7
100
AcDbPolyline
 90
2
 70
0
 10
122.012058
 20
179.319517
 30
0.0
 10
121.217758
 20
179.876793
 30
0.0
  0
LWPOLYLINE
  5
25a
100
AcDbEntity
  8
0
 62
7
100
AcDbPolyline
 90
2
 70
0
 10
122.033563
 20
178.444741
 30
0.0
 10
122.012058
 20
179.319517
 30
0.0
  0
LWPOLYLINE
  5
25b
100
AcDbEntity
  8
0
 62
7
100
AcDbPolyline
 90
2
 70
0
 10
121.410137
 20
176.887551
 30
0.0
 10
122.033563
 20
178.444741
 30
0.0
  0
LWPOLYLINE
  5
25c
100
AcDbEntity
  8
0
 62
7
100
AcDbPolyline
 90
2
 70
0
 10
120.759152
 20
175.260935
 30
0.0
 10
121.410137
 20
176.887551
 30
0.0
  0
LWPOLYLINE
  5
25d
100
AcDbEntity
  8
0
 62
7
100
AcDbPolyline
 90
2
 70
0
 10
120.820338
 20
174.376761
 30
0.0
 10
120.759152
 20
175.260935
 30
0.0
  0
LWPOLYLINE
  5
25e
100
AcDbEntity
  8
0
 62
7
100
AcDbPolyline
 90
2
 70
0
 10
121.057910
 20
173.038972
 30
0.0
 10
120.820338
 20
174.376761
 30
0.0
  0
LWPOLYLINE
  5
25f
100
AcDbEntity
  8
0
 62
7
100
AcDbPolyline
 90
2
 70
0
 10
120.276840
 20
171.551237
 30
0.0
 10
121.057910
 20
173.038972
 30
0.0
  0
LWPOLYLINE
  5
260
100
AcDbEntity
  8
0
 62
7
100
AcDbPolyline
 90
2
 70
0
 10
119.676014
 20
170.449357
 30
0.0
 10
120.276840
 20
171.551237
 30
0.0
  0
LWPOLYLINE
  5
261
100
AcDbEntity
  8
0
 62
7
100
AcDbPolyline
 90
2
 70
0
 10
119.762005
 20
169.641835
 30
0.0
 10
119.676014
 20
170.449357
 30
0.0
  0
SPLINE
  5
262
100
AcDbEntity
  8
0
 62
7
100
AcDbSpline
 70
8
 71
3
 72
8
 73
4
 74
0
 40
0
 40
0
 40
0
 40
0
 40
1
 40
1
 40
1
 40
1
 10
124.931289
 20
176.147283
 30
0.0
 10
124.919181
 20
175.411529
 30
0.0
 10
124.859280
 20
172.468770
 30
0.0
 10
124.841440
 20
171.733129
 30
0.0
  0
SPLINE
  5
263
100
AcDbEntity
  8
0
 62
7
100
AcDbSpline
 70
8
 71
3
 72
8
 73
4
 74
0
 40
0
 40
0
 40
0
 40
0
 40
1
 40
1
 40
1
 40
1
 10
125.177132
 20
181.491301
 30
0.0
 10
124.863456
 20
179.726453
 30
0.0
 10
124.962130
 20
177.929290
 30
0.0
 10
124.931289
 20
176.147283
 30
0.0
  0
LWPOLYLINE
  5
264
100
AcDbEntity
  8
0
 62
7
100
AcDbPolyline
 90
4
 70
0
 10
124.459450
 20
170.309911
 30
0.0
 10
123.939102
 20
168.456163
 30
0.0
 10
120.023831
 20
166.049005
 30
0.0
 10
119.945559
 20
166.222656
 30
0.0
  0
LWPOLYLINE
  5
265
100
AcDbEntity
  8
0
 62
7
100
AcDbPolyline
 90
2
 70
0
 10
124.841440
 20
171.733129
 30
0.0
 10
124.459450
 20
170.309911
 30
0.0
  0
SPLINE
  5
266
100
AcDbEntity
  8
0
 62
7
100
AcDbSpline
 70
8
 71
3
 72
8
 73
4
 74
0
 40
0
 40
0
 40
0
 40
0
 40
1
 40
1
 40
1
 40
1
 10
128.551672
 20
184.692746
 30
0.0
 10
128.231008
 20
184.430448
 30
0.0
 10
126.950718
 20
183.393451
 30
0.0
 10
126.631237
 20
183.137221
 30
0.0
  0
LWPOLYLINE
  5
267
100
AcDbEntity
  8
0
 62
7
100
AcDbPolyline
 90
2
 70
0
 10
125.697480
 20
182.538064
 30
0.0
 10
125.177132
 20
181.491301
 30
0.0
  0
LWPOLYLINE
  5
268
100
AcDbEntity
  8
0
 62
7
100
AcDbPolyline
 90
2
 70
0
 10
126.631237
 20
183.137221
 30
0.0
 10
125.697480
 20
182.538064
 30
0.0
  0
LWPOLYLINE
  5
269
100
AcDbEntity
  8
0
 62
7
100
AcDbPolyline
 90
2
 70
0
 10
112.242326
 20
170.284567
 30
0.0
 10
110.969569
 20
169.397091
 30
0.0
  0
LWPOLYLINE
  5
26a
100
AcDbEntity
  8
0
 62
7
100
AcDbPolyline
 90
2
 70
0
 10
113.039381
 20
171.211159
 30
0.0
 10
112.242326
 20
170.284567
 30
0.0
  0
LWPOLYLINE
  5
26b
100
AcDbEntity
  8
0
 62
7
100
AcDbPolyline
 90
2
 70
0
 10
114.236071
 20
171.490616
 30
0.0
 10
113.039381
 20
171.211159
 30
0.0
  0
SPLINE
  5
26c
100
AcDbEntity
  8
0
 62
7
100
AcDbSpline
 70
8
 71
3
 72
8
 73
4
 74
0
 40
0
 40
0
 40
0
 40
0
 40
1
 40
1
 40
1
 40
1
 10
116.525819
 20
174.457816
 30
0.0
 10
116.081906
 20
173.857529
 30
0.0
 10
115.637996
 20
173.257271
 30
0.0
 10
115.194083
 20
172.656984
 30
0.0
  0
LWPOLYLINE
  5
26d
100
AcDbEntity
  8
0
 62
7
100
AcDbPolyline
 90
2
 70
0
 10
114.677043
 20
171.741427
 30
0.0
 10
114.236071
 20
171.490616
 30
0.0
  0
LWPOLYLINE
  5
26e
100
AcDbEntity
  8
0
 62
7
100
AcDbPolyline
 90
2
 70
0
 10
115.194083
 20
172.656984
 30
0.0
 10
114.677043
 20
171.741427
 30
0.0
  0
LWPOLYLINE
  5
26f
100
AcDbEntity
  8
0
 62
7
100
AcDbPolyline
 90
2
 70
0
 10
117.293661
 20
175.323758
 30
0.0
 10
116.525819
 20
174.457816
 30
0.0
  0
SPLINE
  5
270
100
AcDbEntity
  8
0
 62
7
100
AcDbSpline
 70
8
 71
3
 72
8
 73
4
 74
0
 40
0
 40
0
 40
0
 40
0
 40
1
 40
1
 40
1
 40
1
 10
146.510824
 20
196.428223
 30
0.0
 10
145.939301
 20
196.808659
 30
0.0
 10
143.635589
 20
198.331473
 30
0.0
 10
143.055255
 20
198.712445
 30
0.0
  0
SPLINE
  5
271
100
AcDbEntity
  8
0
 62
7
100
AcDbSpline
 70
8
 71
3
 72
8
 73
4
 74
0
 40
0
 40
0
 40
0
 40
0
 40
1
 40
1
 40
1
 40
1
 10
157.068252
 20
190.767777
 30
0.0
 10
156.797491
 20
191.059989
 30
0.0
 10
155.701675
 20
192.251701
 30
0.0
 10
155.424528
 20
192.555372
 30
0.0
  0
SPLINE
  5
272
100
AcDbEntity
  8
0
 62
7
100
AcDbSpline
 70
8
 71
3
 72
8
 73
4
 74
0
 40
0
 40
0
 40
0
 40
0
 40
1
 40
1
 40
1
 40
1
 10
155.424528
 20
192.555372
 30
0.0
 10
155.009698
 20
192.965356
 30
0.0
 10
153.358257
 20
194.579667
 30
0.0
 10
152.947367
 20
194.976867
 30
0.0
  0
SPLINE
  5
273
100
AcDbEntity
  8
0
 62
7
100
AcDbSpline
 70
8
 71
3
 72
8
 73
4
 74
0
 40
0
 40
0
 40
0
 40
0
 40
1
 40
1
 40
1
 40
1
 10
150.230978
 20
195.475723
 30
0.0
 10
149.819112
 20
195.486447
 30
0.0
 10
148.199272
 20
195.534736
 30
0.0
 10
147.801220
 20
195.547915
 30
0.0
  0
LWPOLYLINE
  5
274
100
AcDbEntity
  8
0
 62
7
100
AcDbPolyline
 90
2
 70
0
 10
118.176709
 20
176.791088
 30
0.0
 10
117.293661
 20
175.323758
 30
0.0
  0
LWPOLYLINE
  5
275
100
AcDbEntity
  8
0
 62
7
100
AcDbPolyline
 90
7
 70
0
 10
109.377610
 20
167.870777
 30
0.0
 10
109.201221
 20
166.217689
 30
0.0
 10
109.010498
 20
164.578373
 30
0.0
 10
108.878759
 20
163.996854
 30
0.0
 10
108.764657
 20
163.718470
 30
0.0
 10
108.275179
 20
163.414771
 30
0.0
 10
107.473710
 20
163.167826
 30
0.0
  0
SPLINE
  5
276
100
AcDbEntity
  8
0
 62
7
100
AcDbSpline
 70
8
 71
3
 72
8
 73
4
 74
0
 40
0
 40
0
 40
0
 40
0
 40
1
 40
1
 40
1
 40
1
 10
107.473710
 20
163.167826
 30
0.0
 10
106.966893
 20
162.891643
 30
0.0
 10
104.961938
 20
161.767891
 30
0.0
 10
104.466280
 20
161.482197
 30
0.0
  0
SPLINE
  5
277
100
AcDbEntity
  8
0
 62
7
100
AcDbSpline
 70
8
 71
3
 72
8
 73
4
 74
0
 40
0
 40
0
 40
0
 40
0
 40
1
 40
1
 40
1
 40
1
 10
104.466280
 20
161.482197
 30
0.0
 10
104.336063
 20
160.921168
 30
0.0
 10
103.839603
 20
158.660794
 30
0.0
 10
103.721589
 20
158.091664
 30
0.0
  0
SPLINE
  5
278
100
AcDbEntity
  8
0
 62
7
100
AcDbSpline
 70
8
 71
3
 72
8
 73
4
 74
0
 40
0
 40
0
 40
0
 40
0
 40
1
 40
1
 40
1
 40
1
 10
103.721589
 20
158.091664
 30
0.0
 10
103.798754
 20
156.247229
 30
0.0
 10
103.672327
 20
154.402343
 30
0.0
 10
103.513230
 20
152.565753
 30
0.0
  0
SPLINE
  5
279
100
AcDbEntity
  8
0
 62
7
100
AcDbSpline
 70
8
 71
3
 72
8
 73
4
 74
0
 40
0
 40
0
 40
0
 40
0
 40
1
 40
1
 40
1
 40
1
 10
103.513230
 20
152.565753
 30
0.0
 10
103.436355
 20
151.952654
 30
0.0
 10
103.128775
 20
149.536465
 30
0.0
 10
103.051861
 20
148.941484
 30
0.0
  0
LWPOLYLINE
  5
27a
100
AcDbEntity
  8
0
 62
7
100
AcDbPolyline
 90
2
 70
0
 10
103.051861
 20
148.941484
 30
0.0
 10
102.144562
 20
146.981930
 30
0.0
  0
SPLINE
  5
27b
100
AcDbEntity
  8
0
 62
7
100
AcDbSpline
 70
8
 71
3
 72
8
 73
4
 74
0
 40
0
 40
0
 40
0
 40
0
 40
1
 40
1
 40
1
 40
1
 10
100.764871
 20
143.870882
 30
0.0
 10
100.476121
 20
143.411960
 30
0.0
 10
99.293945
 20
141.575681
 30
0.0
 10
98.991609
 20
141.116449
 30
0.0
  0
SPLINE
  5
27c
100
AcDbEntity
  8
0
 62
7
100
AcDbSpline
 70
8
 71
3
 72
8
 73
4
 74
0
 40
0
 40
0
 40
0
 40
0
 40
1
 40
1
 40
1
 40
1
 10
98.991609
 20
141.116449
 30
0.0
 10
98.631787
 20
140.602297
 30
0.0
 10
97.226924
 20
138.552517
 30
0.0
 10
96.884315
 20
138.041779
 30
0.0
  0
SPLINE
  5
27d
100
AcDbEntity
  8
0
 62
7
100
AcDbSpline
 70
8
 71
3
 72
8
 73
4
 74
0
 40
0
 40
0
 40
0
 40
0
 40
1
 40
1
 40
1
 40
1
 10
96.884315
 20
138.041779
 30
0.0
 10
97.049209
 20
137.429301
 30
0.0
 10
97.738960
 20
134.959489
 30
0.0
 10
97.918945
 20
134.337048
 30
0.0
  0
SPLINE
  5
27e
100
AcDbEntity
  8
0
 62
7
100
AcDbSpline
 70
8
 71
3
 72
8
 73
4
 74
0
 40
0
 40
0
 40
0
 40
0
 40
1
 40
1
 40
1
 40
1
 10
97.918945
 20
134.337048
 30
0.0
 10
98.720396
 20
133.002306
 30
0.0
 10
99.085705
 20
131.413706
 30
0.0
 10
98.958538
 20
129.862838
 30
0.0
  0
SPLINE
  5
27f
100
AcDbEntity
  8
0
 62
7
100
AcDbSpline
 70
8
 71
3
 72
8
 73
4
 74
0
 40
0
 40
0
 40
0
 40
0
 40
1
 40
1
 40
1
 40
1
 10
98.958589
 20
129.862838
 30
0.0
 10
98.793458
 20
129.187085
 30
0.0
 10
98.101867
 20
126.504873
 30
0.0
 10
97.921202
 20
125.839506
 30
0.0
  0
SPLINE
  5
280
100
AcDbEntity
  8
0
 62
7
100
AcDbSpline
 70
8
 71
3
 72
8
 73
4
 74
0
 40
0
 40
0
 40
0
 40
0
 40
1
 40
1
 40
1
 40
1
 10
97.921202
 20
125.839506
 30
0.0
 10
97.735554
 20
125.307941
 30
0.0
 10
97.019708
 20
123.188706
 30
0.0
 10
96.847434
 20
122.660668
 30
0.0
  0
SPLINE
  5
281
100
AcDbEntity
  8
0
 62
7
100
AcDbSpline
 70
8
 71
3
 72
8
 73
4
 74
0
 40
0
 40
0
 40
0
 40
0
 40
1
 40
1
 40
1
 40
1
 10
96.847434
 20
122.660668
 30
0.0
 10
96.794323
 20
120.241629
 30
0.0
 10
97.390181
 20
117.790698
 30
0.0
 10
98.664240
 20
115.723053
 30
0.0
  0
SPLINE
  5
282
100
AcDbEntity
  8
0
 62
7
100
AcDbSpline
 70
8
 71
3
 72
8
 73
4
 74
0
 40
0
 40
0
 40
0
 40
0
 40
1
 40
1
 40
1
 40
1
 10
98.664240
 20
115.723053
 30
0.0
 10
99.559426
 20
114.182120
 30
0.0
 10
100.189089
 20
112.499031
 30
0.0
 10
100.635384
 20
110.777560
 30
0.0
  0
SPLINE
  5
283
100
AcDbEntity
  8
0
 62
7
100
AcDbSpline
 70
8
 71
3
 72
8
 73
4
 74
0
 40
0
 40
0
 40
0
 40
0
 40
1
 40
1
 40
1
 40
1
 10
100.635384
 20
110.777560
 30
0.0
 10
101.199716
 20
108.672380
 30
0.0
 10
102.033538
 20
106.648508
 30
0.0
 10
102.999548
 20
104.698211
 30
0.0
  0
SPLINE
  5
284
100
AcDbEntity
  8
0
 62
7
100
AcDbSpline
 70
8
 71
3
 72
8
 73
4
 74
0
 40
0
 40
0
 40
0
 40
0
 40
1
 40
1
 40
1
 40
1
 10
104.513736
 20
99.122657
 30
0.0
 10
104.390777
 20
95.987648
 30
0.0
 10
104.403412
 20
92.848575
 30
0.0
 10
104.492230
 20
89.712861
 30
0.0
  0
SPLINE
  5
285
100
AcDbEntity
  8
0
 62
7
100
AcDbSpline
 70
8
 71
3
 72
8
 73
4
 74
0
 40
0
 40
0
 40
0
 40
0
 40
1
 40
1
 40
1
 40
1
 10
104.492230
 20
89.712861
 30
0.0
 10
104.628453
 20
86.983235
 30
0.0
 10
104.087944
 20
84.238596
 30
0.0
 10
103.034265
 20
81.723545
 30
0.0
  0
SPLINE
  5
286
100
AcDbEntity
  8
0
 62
7
100
AcDbSpline
 70
8
 71
3
 72
8
 73
4
 74
0
 40
0
 40
0
 40
0
 40
0
 40
1
 40
1
 40
1
 40
1
 10
103.034265
 20
81.723545
 30
0.0
 10
102.867737
 20
81.104010
 30
0.0
 10
102.212894
 20
78.632731
 30
0.0
 10
102.051999
 20
78.016640
 30
0.0
  0
SPLINE
  5
287
100
AcDbEntity
  8
0
 62
7
100
AcDbSpline
 70
8
 71
3
 72
8
 73
4
 74
0
 40
0
 40
0
 40
0
 40
0
 40
1
 40
1
 40
1
 40
1
 10
102.051999
 20
78.016640
 30
0.0
 10
101.983622
 20
77.592178
 30
0.0
 10
101.708015
 20
75.917951
 30
0.0
 10
101.638588
 20
75.505286
 30
0.0
  0
LWPOLYLINE
  5
288
100
AcDbEntity
  8
0
 62
7
100
AcDbPolyline
 90
2
 70
0
 10
101.638588
 20
75.505286
 30
0.0
 10
100.566474
 20
73.985039
 30
0.0
  0
SPLINE
  5
289
100
AcDbEntity
  8
0
 62
7
100
AcDbSpline
 70
8
 71
3
 72
8
 73
4
 74
0
 40
0
 40
0
 40
0
 40
0
 40
1
 40
1
 40
1
 40
1
 10
100.566474
 20
73.985039
 30
0.0
 10
100.298541
 20
73.584820
 30
0.0
 10
99.237633
 20
71.983717
 30
0.0
 10
98.975116
 20
71.583385
 30
0.0
  0
SPLINE
  5
28a
100
AcDbEntity
  8
0
 62
7
100
AcDbSpline
 70
8
 71
3
 72
8
 73
4
 74
0
 40
0
 40
0
 40
0
 40
0
 40
1
 40
1
 40
1
 40
1
 10
98.975116
 20
71.583385
 30
0.0
 10
98.725301
 20
71.275537
 30
0.0
 10
97.713639
 20
70.052555
 30
0.0
 10
97.457621
 20
69.748940
 30
0.0
  0
SPLINE
  5
28b
100
AcDbEntity
  8
0
 62
7
100
AcDbSpline
 70
8
 71
3
 72
8
 73
4
 74
0
 40
0
 40
0
 40
0
 40
0
 40
1
 40
1
 40
1
 40
1
 10
97.457621
 20
69.748940
 30
0.0
 10
97.017936
 20
69.217403
 30
0.0
 10
96.578248
 20
68.685837
 30
0.0
 10
96.138563
 20
68.154300
 30
0.0
  0
LWPOLYLINE
  5
28c
100
AcDbEntity
  8
0
 62
7
100
AcDbPolyline
 90
2
 70
0
 10
96.138563
 20
68.154300
 30
0.0
 10
95.580180
 20
66.123598
 30
0.0
  0
SPLINE
  5
28d
100
AcDbEntity
  8
0
 62
7
100
AcDbSpline
 70
8
 71
3
 72
8
 73
4
 74
0
 40
0
 40
0
 40
0
 40
0
 40
1
 40
1
 40
1
 40
1
 10
95.580180
 20
66.123598
 30
0.0
 10
95.460676
 20
65.675147
 30
0.0
 10
94.984426
 20
63.878916
 30
0.0
 10
94.865805
 20
63.429251
 30
0.0
  0
SPLINE
  5
28e
100
AcDbEntity
  8
0
 62
7
100
AcDbSpline
 70
8
 71
3
 72
8
 73
4
 74
0
 40
0
 40
0
 40
0
 40
0
 40
1
 40
1
 40
1
 40
1
 10
94.865805
 20
63.429251
 30
0.0
 10
94.670651
 20
63.038345
 30
0.0
 10
93.878005
 20
61.483188
 30
0.0
 10
93.676834
 20
61.096515
 30
0.0
  0
SPLINE
  5
28f
100
AcDbEntity
  8
0
 62
7
100
AcDbSpline
 70
8
 71
3
 72
8
 73
4
 74
0
 40
0
 40
0
 40
0
 40
0
 40
1
 40
1
 40
1
 40
1
 10
93.676834
 20
61.096515
 30
0.0
 10
93.398865
 20
60.762279
 30
0.0
 10
92.290186
 20
59.425054
 30
0.0
 10
92.013817
 20
59.090649
 30
0.0
  0
SPLINE
  5
290
100
AcDbEntity
  8
0
 62
7
100
AcDbSpline
 70
8
 71
3
 72
8
 73
4
 74
0
 40
0
 40
0
 40
0
 40
0
 40
1
 40
1
 40
1
 40
1
 10
92.013817
 20
59.090649
 30
0.0
 10
91.662151
 20
58.766996
 30
0.0
 10
90.243324
 20
57.472358
 30
0.0
 10
89.885576
 20
57.148706
 30
0.0
  0
LWPOLYLINE
  5
291
100
AcDbEntity
  8
0
 62
7
100
AcDbPolyline
 90
7
 70
0
 10
89.885576
 20
57.148706
 30
0.0
 10
88.850938
 20
56.299838
 30
0.0
 10
88.526270
 20
55.915649
 30
0.0
 10
88.386824
 20
55.570039
 30
0.0
 10
88.427605
 20
55.411826
 30
0.0
 10
88.565979
 20
55.288353
 30
0.0
 10
89.100084
 20
55.153875
 30
0.0
  0
SPLINE
  5
292
100
AcDbEntity
  8
0
 62
7
100
AcDbSpline
 70
8
 71
3
 72
8
 73
4
 74
0
 40
0
 40
0
 40
0
 40
0
 40
1
 40
1
 40
1
 40
1
 10
89.100084
 20
55.153875
 30
0.0
 10
89.613009
 20
55.128757
 30
0.0
 10
91.701019
 20
55.029104
 30
0.0
 10
92.232099
 20
55.004494
 30
0.0
  0
SPLINE
  5
293
100
AcDbEntity
  8
0
 62
7
100
AcDbSpline
 70
8
 71
3
 72
8
 73
4
 74
0
 40
0
 40
0
 40
0
 40
0
 40
1
 40
1
 40
1
 40
1
 10
92.232099
 20
55.004494
 30
0.0
 10
99.496318
 20
54.904390
 30
0.0
 10
106.761407
 20
54.945425
 30
0.0
 10
114.026050
 20
54.932838
 30
0.0
  0
SPLINE
  5
294
100
AcDbEntity
  8
0
 62
7
100
AcDbSpline
 70
8
 71
3
 72
8
 73
4
 74
0
 40
0
 40
0
 40
0
 40
0
 40
1
 40
1
 40
1
 40
1
 10
102.999548
 20
104.698211
 30
0.0
 10
103.900701
 20
103.010523
 30
0.0
 10
105.091792
 20
101.134225
 30
0.0
 10
104.513736
 20
99.122657
 30
0.0
  0
SPLINE
  5
295
100
AcDbEntity
  8
0
 62
7
100
AcDbSpline
 70
8
 71
3
 72
8
 73
4
 74
0
 40
0
 40
0
 40
0
 40
0
 40
1
 40
1
 40
1
 40
1
 10
146.290944
 20
53.267614
 30
0.0
 10
151.732875
 20
53.267614
 30
0.0
 10
157.173193
 20
53.435847
 30
0.0
 10
162.610224
 20
53.654005
 30
0.0
  0
SPLINE
  5
296
100
AcDbEntity
  8
0
 62
7
100
AcDbSpline
 70
8
 71
3
 72
8
 73
4
 74
0
 40
0
 40
0
 40
0
 40
0
 40
1
 40
1
 40
1
 40
1
 10
162.610224
 20
53.654005
 30
0.0
 10
165.048794
 20
53.759189
 30
0.0
 10
167.487518
 20
53.860902
 30
0.0
 10
169.926502
 20
53.956067
 30
0.0
  0
SPLINE
  5
297
100
AcDbEntity
  8
0
 62
7
100
AcDbSpline
 70
8
 71
3
 72
8
 73
4
 74
0
 40
0
 40
0
 40
0
 40
0
 40
1
 40
1
 40
1
 40
1
 10
169.926502
 20
53.956067
 30
0.0
 10
170.546051
 20
53.977798
 30
0.0
 10
173.024315
 20
54.062747
 30
0.0
 10
173.643900
 20
54.083406
 30
0.0
  0
SPLINE
  5
298
100
AcDbEntity
  8
0
 62
7
100
AcDbSpline
 70
8
 71
3
 72
8
 73
4
 74
0
 40
0
 40
0
 40
0
 40
0
 40
1
 40
1
 40
1
 40
1
 10
139.416739
 20
54.932838
 30
0.0
 10
139.791400
 20
51.400827
 30
0.0
 10
144.281708
 20
54.189719
 30
0.0
 10
146.290944
 20
53.267614
 30
0.0
  0
LWPOLYLINE
  5
299
100
AcDbEntity
  8
0
 62
7
100
AcDbPolyline
 90
2
 70
0
 10
114.026109
 20
54.932838
 30
0.0
 10
139.416739
 20
54.932838
 30
0.0
  0
SPLINE
  5
29a
100
AcDbEntity
  8
0
 62
7
100
AcDbSpline
 70
8
 71
3
 72
8
 73
4
 74
0
 40
0
 40
0
 40
0
 40
0
 40
1
 40
1
 40
1
 40
1
 10
175.779859
 20
56.075020
 30
0.0
 10
175.988686
 20
56.583020
 30
0.0
 10
176.816244
 20
58.601558
 30
0.0
 10
177.021196
 20
59.102841
 30
0.0
  0
SPLINE
  5
29b
100
AcDbEntity
  8
0
 62
7
100
AcDbSpline
 70
8
 71
3
 72
8
 73
4
 74
0
 40
0
 40
0
 40
0
 40
0
 40
1
 40
1
 40
1
 40
1
 10
177.021196
 20
59.102841
 30
0.0
 10
177.251072
 20
59.446813
 30
0.0
 10
178.181522
 20
60.821546
 30
0.0
 10
178.416873
 20
61.164926
 30
0.0
  0
SPLINE
  5
29c
100
AcDbEntity
  8
0
 62
7
100
AcDbSpline
 70
8
 71
3
 72
8
 73
4
 74
0
 40
0
 40
0
 40
0
 40
0
 40
1
 40
1
 40
1
 40
1
 10
178.416873
 20
61.164926
 30
0.0
 10
178.696053
 20
61.568870
 30
0.0
 10
179.804732
 20
63.191281
 30
0.0
 10
180.079890
 20
63.598556
 30
0.0
  0
SPLINE
  5
29d
100
AcDbEntity
  8
0
 62
7
100
AcDbSpline
 70
8
 71
3
 72
8
 73
4
 74
0
 40
0
 40
0
 40
0
 40
0
 40
1
 40
1
 40
1
 40
1
 10
180.079890
 20
63.598556
 30
0.0
 10
180.313271
 20
63.983789
 30
0.0
 10
181.250706
 20
65.517272
 30
0.0
 10
181.486040
 20
65.898780
 30
0.0
  0
LWPOLYLINE
  5
29e
100
AcDbEntity
  8
0
 62
7
100
AcDbPolyline
 90
3
 70
0
 10
181.486040
 20
65.898780
 30
0.0
 10
182.201515
 20
67.014997
 30
0.0
 10
182.359165
 20
68.526410
 30
0.0
  0
SPLINE
  5
29f
100
AcDbEntity
  8
0
 62
7
100
AcDbSpline
 70
8
 71
3
 72
8
 73
4
 74
0
 40
0
 40
0
 40
0
 40
0
 40
1
 40
1
 40
1
 40
1
 10
182.359165
 20
68.526410
 30
0.0
 10
182.448505
 20
68.935999
 30
0.0
 10
182.817818
 20
70.559878
 30
0.0
 10
182.913136
 20
70.962242
 30
0.0
  0
SPLINE
  5
2a0
100
AcDbEntity
  8
0
 62
7
100
AcDbSpline
 70
8
 71
3
 72
8
 73
4
 74
0
 40
0
 40
0
 40
0
 40
0
 40
1
 40
1
 40
1
 40
1
 10
182.913136
 20
70.962242
 30
0.0
 10
183.062863
 20
71.402537
 30
0.0
 10
183.656337
 20
73.175993
 30
0.0
 10
183.803349
 20
73.622412
 30
0.0
  0
SPLINE
  5
2a1
100
AcDbEntity
  8
0
 62
7
100
AcDbSpline
 70
8
 71
3
 72
8
 73
4
 74
0
 40
0
 40
0
 40
0
 40
0
 40
1
 40
1
 40
1
 40
1
 10
183.803349
 20
73.622412
 30
0.0
 10
183.975702
 20
74.017213
 30
0.0
 10
184.677950
 20
75.588541
 30
0.0
 10
184.856721
 20
75.979391
 30
0.0
  0
SPLINE
  5
2a2
100
AcDbEntity
  8
0
 62
7
100
AcDbSpline
 70
8
 71
3
 72
8
 73
4
 74
0
 40
0
 40
0
 40
0
 40
0
 40
1
 40
1
 40
1
 40
1
 10
184.856721
 20
75.979391
 30
0.0
 10
185.293852
 20
76.319074
 30
0.0
 10
187.062886
 20
77.678736
 30
0.0
 10
187.510270
 20
78.018898
 30
0.0
  0
SPLINE
  5
2a3
100
AcDbEntity
  8
0
 62
7
100
AcDbSpline
 70
8
 71
3
 72
8
 73
4
 74
0
 40
0
 40
0
 40
0
 40
0
 40
1
 40
1
 40
1
 40
1
 10
187.510270
 20
78.018898
 30
0.0
 10
187.825837
 20
78.284667
 30
0.0
 10
189.069382
 20
79.348137
 30
0.0
 10
189.375584
 20
79.614103
 30
0.0
  0
LWPOLYLINE
  5
2a4
100
AcDbEntity
  8
0
 62
7
100
AcDbPolyline
 90
6
 70
0
 10
189.375584
 20
79.614103
 30
0.0
 10
189.476456
 20
81.412733
 30
0.0
 10
189.284082
 20
82.177273
 30
0.0
 10
189.488027
 20
82.622084
 30
0.0
 10
190.083341
 20
83.895414
 30
0.0
 10
191.318063
 20
85.148311
 30
0.0
  0
SPLINE
  5
2a5
100
AcDbEntity
  8
0
 62
7
100
AcDbSpline
 70
8
 71
3
 72
8
 73
4
 74
0
 40
0
 40
0
 40
0
 40
0
 40
1
 40
1
 40
1
 40
1
 10
191.318063
 20
85.148311
 30
0.0
 10
191.718796
 20
85.578982
 30
0.0
 10
192.119529
 20
86.009682
 30
0.0
 10
192.520262
 20
86.440353
 30
0.0
  0
SPLINE
  5
2a6
100
AcDbEntity
  8
0
 62
7
100
AcDbSpline
 70
8
 71
3
 72
8
 73
4
 74
0
 40
0
 40
0
 40
0
 40
0
 40
1
 40
1
 40
1
 40
1
 10
192.520262
 20
86.440353
 30
0.0
 10
192.254209
 20
86.927638
 30
0.0
 10
191.988158
 20
87.414894
 30
0.0
 10
191.722104
 20
87.902179
 30
0.0
  0
LWPOLYLINE
  5
2a7
100
AcDbEntity
  8
0
 62
7
100
AcDbPolyline
 90
2
 70
0
 10
191.722104
 20
87.902179
 30
0.0
 10
191.350034
 20
88.268193
 30
0.0
  0
SPLINE
  5
2a8
100
AcDbEntity
  8
0
 62
7
100
AcDbSpline
 70
8
 71
3
 72
8
 73
4
 74
0
 40
0
 40
0
 40
0
 40
0
 40
1
 40
1
 40
1
 40
1
 10
191.350034
 20
88.268193
 30
0.0
 10
191.834392
 20
88.289078
 30
0.0
 10
193.741599
 20
88.368580
 30
0.0
 10
194.210841
 20
88.387263
 30
0.0
  0
LWPOLYLINE
  5
2a9
100
AcDbEntity
  8
0
 62
7
100
AcDbPolyline
 90
4
 70
0
 10
194.210841
 20
88.387263
 30
0.0
 10
194.630867
 20
88.290799
 30
0.0
 10
194.646304
 20
88.269915
 30
0.0
 10
194.626464
 20
88.190469
 30
0.0
  0
SPLINE
  5
2aa
100
AcDbEntity
  8
0
 62
7
100
AcDbSpline
 70
8
 71
3
 72
8
 73
4
 74
0
 40
0
 40
0
 40
0
 40
0
 40
1
 40
1
 40
1
 40
1
 10
194.626408
 20
88.190469
 30
0.0
 10
194.621920
 20
87.709337
 30
0.0
 10
194.633689
 20
85.795165
 30
0.0
 10
194.644047
 20
85.319197
 30
0.0
  0
LWPOLYLINE
  5
2ab
100
AcDbEntity
  8
0
 62
7
100
AcDbPolyline
 90
5
 70
0
 10
194.644047
 20
85.319197
 30
0.0
 10
195.288967
 20
84.699634
 30
0.0
 10
196.287768
 20
84.621374
 30
0.0
 10
197.296492
 20
84.906334
 30
0.0
 10
197.809674
 20
85.902945
 30
0.0
  0
SPLINE
  5
2ac
100
AcDbEntity
  8
0
 62
7
100
AcDbSpline
 70
8
 71
3
 72
8
 73
4
 74
0
 40
0
 40
0
 40
0
 40
0
 40
1
 40
1
 40
1
 40
1
 10
197.809674
 20
85.902945
 30
0.0
 10
198.002260
 20
86.237153
 30
0.0
 10
198.780575
 20
87.571810
 30
0.0
 10
198.977148
 20
87.904945
 30
0.0
  0
SPLINE
  5
2ad
100
AcDbEntity
  8
0
 62
7
100
AcDbSpline
 70
8
 71
3
 72
8
 73
4
 74
0
 40
0
 40
0
 40
0
 40
0
 40
1
 40
1
 40
1
 40
1
 10
198.977148
 20
87.904945
 30
0.0
 10
199.311920
 20
88.524507
 30
0.0
 10
199.646690
 20
89.144098
 30
0.0
 10
199.981462
 20
89.763661
 30
0.0
  0
SPLINE
  5
2ae
100
AcDbEntity
  8
0
 62
7
100
AcDbSpline
 70
8
 71
3
 72
8
 73
4
 74
0
 40
0
 40
0
 40
0
 40
0
 40
1
 40
1
 40
1
 40
1
 10
199.981462
 20
89.763661
 30
0.0
 10
199.978922
 20
90.399620
 30
0.0
 10
199.941115
 20
92.943289
 30
0.0
 10
199.924687
 20
93.579164
 30
0.0
  0
SPLINE
  5
2af
100
AcDbEntity
  8
0
 62
7
100
AcDbSpline
 70
8
 71
3
 72
8
 73
4
 74
0
 40
0
 40
0
 40
0
 40
0
 40
1
 40
1
 40
1
 40
1
 10
199.924687
 20
93.579164
 30
0.0
 10
199.907556
 20
94.027389
 30
0.0
 10
199.842160
 20
95.800112
 30
0.0
 10
199.826572
 20
96.238233
 30
0.0
  0
LWPOLYLINE
  5
2b0
100
AcDbEntity
  8
0
 62
7
100
AcDbPolyline
 90
6
 70
0
 10
199.826572
 20
96.238233
 30
0.0
 10
199.887205
 20
96.896940
 30
0.0
 10
199.989731
 20
97.159294
 30
0.0
 10
200.165569
 20
97.549551
 30
0.0
 10
200.270852
 20
98.210459
 30
0.0
 10
200.351328
 20
100.332093
 30
0.0
  0
SPLINE
  5
2b1
100
AcDbEntity
  8
0
 62
7
100
AcDbSpline
 70
8
 71
3
 72
8
 73
4
 74
0
 40
0
 40
0
 40
0
 40
0
 40
1
 40
1
 40
1
 40
1
 10
200.351328
 20
100.332093
 30
0.0
 10
200.330923
 20
100.755087
 30
0.0
 10
200.246031
 20
102.423444
 30
0.0
 10
200.223998
 20
102.834613
 30
0.0
  0
LWPOLYLINE
  5
2b2
100
AcDbEntity
  8
0
 62
7
100
AcDbPolyline
 90
2
 70
0
 10
200.223998
 20
102.834613
 30
0.0
 10
199.544900
 20
104.126655
 30
0.0
  0
SPLINE
  5
2b3
100
AcDbEntity
  8
0
 62
7
100
AcDbSpline
 70
8
 71
3
 72
8
 73
4
 74
0
 40
0
 40
0
 40
0
 40
0
 40
1
 40
1
 40
1
 40
1
 10
199.544900
 20
104.126655
 30
0.0
 10
199.392232
 20
104.501898
 30
0.0
 10
198.793247
 20
106.011137
 30
0.0
 10
198.646421
 20
106.390501
 30
0.0
  0
SPLINE
  5
2b4
100
AcDbEntity
  8
0
 62
7
100
AcDbSpline
 70
8
 71
3
 72
8
 73
4
 74
0
 40
0
 40
0
 40
0
 40
0
 40
1
 40
1
 40
1
 40
1
 10
198.646421
 20
106.390501
 30
0.0
 10
198.491867
 20
106.904060
 30
0.0
 10
197.863113
 20
108.963041
 30
0.0
 10
197.703290
 20
109.478971
 30
0.0
  0
SPLINE
  5
2b5
100
AcDbEntity
  8
0
 62
7
100
AcDbSpline
 70
8
 71
3
 72
8
 73
4
 74
0
 40
0
 40
0
 40
0
 40
0
 40
1
 40
1
 40
1
 40
1
 10
197.703290
 20
109.478971
 30
0.0
 10
197.580744
 20
109.928777
 30
0.0
 10
197.100083
 20
111.735677
 30
0.0
 10
196.982300
 20
112.189292
 30
0.0
  0
SPLINE
  5
2b6
100
AcDbEntity
  8
0
 62
7
100
AcDbSpline
 70
8
 71
3
 72
8
 73
4
 74
0
 40
0
 40
0
 40
0
 40
0
 40
1
 40
1
 40
1
 40
1
 10
196.982300
 20
112.189292
 30
0.0
 10
196.861105
 20
113.890838
 30
0.0
 10
196.960823
 20
115.596335
 30
0.0
 10
197.030808
 20
117.297402
 30
0.0
  0
SPLINE
  5
2b7
100
AcDbEntity
  8
0
 62
7
100
AcDbSpline
 70
8
 71
3
 72
8
 73
4
 74
0
 40
0
 40
0
 40
0
 40
0
 40
1
 40
1
 40
1
 40
1
 10
197.030808
 20
117.297402
 30
0.0
 10
196.931509
 20
117.926419
 30
0.0
 10
196.511483
 20
120.419400
 30
0.0
 10
196.400767
 20
121.036846
 30
0.0
  0
SPLINE
  5
2b8
100
AcDbEntity
  8
0
 62
7
100
AcDbSpline
 70
8
 71
3
 72
8
 73
4
 74
0
 40
0
 40
0
 40
0
 40
0
 40
1
 40
1
 40
1
 40
1
 10
196.400767
 20
121.036846
 30
0.0
 10
195.789420
 20
122.474204
 30
0.0
 10
195.397998
 20
123.989822
 30
0.0
 10
194.994617
 20
125.494518
 30
0.0
  0
SPLINE
  5
2b9
100
AcDbEntity
  8
0
 62
7
100
AcDbSpline
 70
8
 71
3
 72
8
 73
4
 74
0
 40
0
 40
0
 40
0
 40
0
 40
1
 40
1
 40
1
 40
1
 10
194.994617
 20
125.494518
 30
0.0
 10
194.525863
 20
127.339009
 30
0.0
 10
194.081476
 20
129.193322
 30
0.0
 10
193.800135
 20
131.077240
 30
0.0
  0
SPLINE
  5
2ba
100
AcDbEntity
  8
0
 62
7
100
AcDbSpline
 70
8
 71
3
 72
8
 73
4
 74
0
 40
0
 40
0
 40
0
 40
0
 40
1
 40
1
 40
1
 40
1
 10
193.800135
 20
131.077240
 30
0.0
 10
193.310832
 20
133.434163
 30
0.0
 10
192.137541
 20
135.599682
 30
0.0
 10
190.664270
 20
137.482358
 30
0.0
  0
SPLINE
  5
2bb
100
AcDbEntity
  8
0
 62
7
100
AcDbSpline
 70
8
 71
3
 72
8
 73
4
 74
0
 40
0
 40
0
 40
0
 40
0
 40
1
 40
1
 40
1
 40
1
 10
190.664270
 20
137.482358
 30
0.0
 10
189.492024
 20
138.811681
 30
0.0
 10
187.838893
 20
139.833947
 30
0.0
 10
186.024142
 20
139.881783
 30
0.0
  0
LWPOLYLINE
  5
2bc
100
AcDbEntity
  8
0
 62
7
100
AcDbPolyline
 90
3
 70
0
 10
186.024142
 20
139.881783
 30
0.0
 10
184.823594
 20
139.621067
 30
0.0
 10
183.535405
 20
138.463532
 30
0.0
  0
SPLINE
  5
2bd
100
AcDbEntity
  8
0
 62
7
100
AcDbSpline
 70
8
 71
3
 72
8
 73
4
 74
0
 40
0
 40
0
 40
0
 40
0
 40
1
 40
1
 40
1
 40
1
 10
183.535405
 20
138.463532
 30
0.0
 10
183.085548
 20
138.181479
 30
0.0
 10
181.281237
 20
137.080135
 30
0.0
 10
180.828936
 20
136.811516
 30
0.0
  0
SPLINE
  5
2be
100
AcDbEntity
  8
0
 62
7
100
AcDbSpline
 70
8
 71
3
 72
8
 73
4
 74
0
 40
0
 40
0
 40
0
 40
0
 40
1
 40
1
 40
1
 40
1
 10
180.828936
 20
136.811516
 30
0.0
 10
180.442286
 20
136.689709
 30
0.0
 10
178.907336
 20
136.200590
 30
0.0
 10
178.526511
 20
136.077851
 30
0.0
  0
SPLINE
  5
2bf
100
AcDbEntity
  8
0
 62
7
100
AcDbSpline
 70
8
 71
3
 72
8
 73
4
 74
0
 40
0
 40
0
 40
0
 40
0
 40
1
 40
1
 40
1
 40
1
 10
178.526511
 20
136.077851
 30
0.0
 10
178.182628
 20
135.780022
 30
0.0
 10
176.803121
 20
134.573240
 30
0.0
 10
176.457249
 20
134.267678
 30
0.0
  0
SPLINE
  5
2c0
100
AcDbEntity
  8
0
 62
7
100
AcDbSpline
 70
8
 71
3
 72
8
 73
4
 74
0
 40
0
 40
0
 40
0
 40
0
 40
1
 40
1
 40
1
 40
1
 10
176.457249
 20
134.267678
 30
0.0
 10
176.184168
 20
133.879566
 30
0.0
 10
175.105622
 20
132.331746
 30
0.0
 10
174.839432
 20
131.945949
 30
0.0
  0
LWPOLYLINE
  5
2c1
100
AcDbEntity
  8
0
 62
7
100
AcDbPolyline
 90
2
 70
0
 10
174.839432
 20
131.945949
 30
0.0
 10
173.618491
 20
130.252615
 30
0.0
  0
SPLINE
  5
2c2
100
AcDbEntity
  8
0
 62
7
100
AcDbSpline
 70
8
 71
3
 72
8
 73
4
 74
0
 40
0
 40
0
 40
0
 40
0
 40
1
 40
1
 40
1
 40
1
 10
173.618491
 20
130.252615
 30
0.0
 10
173.429507
 20
129.870486
 30
0.0
 10
172.688304
 20
128.322328
 30
0.0
 10
172.506688
 20
127.930350
 30
0.0
  0
LWPOLYLINE
  5
2c3
100
AcDbEntity
  8
0
 62
7
100
AcDbPolyline
 90
6
 70
0
 10
172.506688
 20
127.930350
 30
0.0
 10
171.920196
 20
126.262924
 30
0.0
 10
170.844774
 20
125.770672
 30
0.0
 10
170.476562
 20
125.653268
 30
0.0
 10
170.032835
 20
125.366079
 30
0.0
 10
169.023007
 20
124.443353
 30
0.0
  0
SPLINE
  5
2c4
100
AcDbEntity
  8
0
 62
7
100
AcDbSpline
 70
8
 71
3
 72
8
 73
4
 74
0
 40
0
 40
0
 40
0
 40
0
 40
1
 40
1
 40
1
 40
1
 10
173.643840
 20
54.083406
 30
0.0
 10
174.894195
 20
53.313616
 30
0.0
 10
175.635635
 20
55.336218
 30
0.0
 10
175.779800
 20
56.075020
 30
0.0
  0
SPLINE
  5
2c5
100
AcDbEntity
  8
0
 62
7
100
AcDbSpline
 70
8
 71
3
 72
8
 73
4
 74
0
 40
0
 40
0
 40
0
 40
0
 40
1
 40
1
 40
1
 40
1
 10
166.963115
 20
123.631428
 30
0.0
 10
166.586716
 20
123.707713
 30
0.0
 10
165.078958
 20
124.004977
 30
0.0
 10
164.701480
 20
124.077339
 30
0.0
  0
LWPOLYLINE
  5
2c6
100
AcDbEntity
  8
0
 62
7
100
AcDbPolyline
 90
4
 70
0
 10
164.701480
 20
124.077339
 30
0.0
 10
162.841130
 20
124.887091
 30
0.0
 10
161.920047
 20
126.564422
 30
0.0
 10
162.182977
 20
128.822200
 30
0.0
  0
SPLINE
  5
2c7
100
AcDbEntity
  8
0
 62
7
100
AcDbSpline
 70
8
 71
3
 72
8
 73
4
 74
0
 40
0
 40
0
 40
0
 40
0
 40
1
 40
1
 40
1
 40
1
 10
162.182977
 20
128.822200
 30
0.0
 10
162.233254
 20
129.326447
 30
0.0
 10
162.420300
 20
131.338776
 30
0.0
 10
162.463545
 20
131.840680
 30
0.0
  0
SPLINE
  5
2c8
100
AcDbEntity
  8
0
 62
7
100
AcDbSpline
 70
8
 71
3
 72
8
 73
4
 74
0
 40
0
 40
0
 40
0
 40
0
 40
1
 40
1
 40
1
 40
1
 10
162.463545
 20
131.840680
 30
0.0
 10
162.514528
 20
132.243129
 30
0.0
 10
162.730973
 20
133.847534
 30
0.0
 10
162.788213
 20
134.247273
 30
0.0
  0
SPLINE
  5
2c9
100
AcDbEntity
  8
0
 62
7
100
AcDbSpline
 70
8
 71
3
 72
8
 73
4
 74
0
 40
0
 40
0
 40
0
 40
0
 40
1
 40
1
 40
1
 40
1
 10
169.023007
 20
124.443353
 30
0.0
 10
168.807297
 20
123.823226
 30
0.0
 10
167.603305
 20
122.734695
 30
0.0
 10
166.963115
 20
123.631428
 30
0.0
  0
LWPOLYLINE
  5
2ca
100
AcDbEntity
  8
0
 62
7
100
AcDbPolyline
 90
12
 70
0
 10
162.788213
 20
134.247273
 30
0.0
 10
163.287061
 20
135.006282
 30
0.0
 10
163.799692
 20
135.180469
 30
0.0
 10
164.302951
 20
135.170027
 30
0.0
 10
164.684394
 20
135.408674
 30
0.0
 10
164.784162
 20
135.473726
 30
0.0
 10
165.054257
 20
135.561921
 30
0.0
 10
165.855173
 20
135.648478
 30
0.0
 10
167.184155
 20
135.940607
 30
0.0
 10
168.241385
 20
137.340147
 30
0.0
 10
168.755664
 20
137.963011
 30
0.0
 10
169.211518
 20
138.188478
 30
0.0
  0
SPLINE
  5
2cb
100
AcDbEntity
  8
0
 62
7
100
AcDbSpline
 70
8
 71
3
 72
8
 73
4
 74
0
 40
0
 40
0
 40
0
 40
0
 40
1
 40
1
 40
1
 40
1
 10
169.211518
 20
138.188478
 30
0.0
 10
170.136809
 20
138.181141
 30
0.0
 10
170.832255
 20
139.137930
 30
0.0
 10
170.787994
 20
140.026225
 30
0.0
  0
SPLINE
  5
2cc
100
AcDbEntity
  8
0
 62
7
100
AcDbSpline
 70
8
 71
3
 72
8
 73
4
 74
0
 40
0
 40
0
 40
0
 40
0
 40
1
 40
1
 40
1
 40
1
 10
102.144562
 20
146.981930
 30
0.0
 10
101.911720
 20
146.462444
 30
0.0
 10
100.991924
 20
144.388393
 30
0.0
 10
100.764871
 20
143.870882
 30
0.0
  0
LWPOLYLINE
  5
2cd
100
AcDbEntity
  8
0
 62
7
100
AcDbPolyline
 90
11
 70
0
 10
170.787994
 20
140.026225
 30
0.0
 10
170.874535
 20
140.613275
 30
0.0
 10
171.036039
 20
140.910907
 30
0.0
 10
171.293457
 20
141.506791
 30
0.0
 10
171.269750
 20
142.544719
 30
0.0
 10
171.459920
 20
144.567124
 30
0.0
 10
171.767497
 20
145.290318
 30
0.0
 10
172.046412
 20
145.526256
 30
0.0
 10
172.298868
 20
145.609483
 30
0.0
 10
172.599833
 20
145.801310
 30
0.0
 10
173.329089
 20
146.412039
 30
0.0
  0
SPLINE
  5
2ce
100
AcDbEntity
  8
0
 62
7
100
AcDbSpline
 70
8
 71
3
 72
8
 73
4
 74
0
 40
0
 40
0
 40
0
 40
0
 40
1
 40
1
 40
1
 40
1
 10
110.969569
 20
169.397091
 30
0.0
 10
110.787121
 20
169.342312
 30
0.0
 10
110.257220
 20
169.183195
 30
0.0
 10
110.174715
 20
169.158416
 30
0.0
  0
SPLINE
  5
2cf
100
AcDbEntity
  8
0
 62
7
100
AcDbSpline
 70
8
 71
3
 72
8
 73
4
 74
0
 40
0
 40
0
 40
0
 40
0
 40
1
 40
1
 40
1
 40
1
 10
110.174715
 20
169.158416
 30
0.0
 10
110.013832
 20
169.056421
 30
0.0
 10
109.657380
 20
168.830417
 30
0.0
 10
109.640037
 20
168.819411
 30
0.0
  0
SPLINE
  5
2d0
100
AcDbEntity
  8
0
 62
7
100
AcDbSpline
 70
8
 71
3
 72
8
 73
4
 74
0
 40
0
 40
0
 40
0
 40
0
 40
1
 40
1
 40
1
 40
1
 10
109.496722
 20
168.461130
 30
0.0
 10
109.459062
 20
168.274383
 30
0.0
 10
109.379687
 20
167.880824
 30
0.0
 10
109.377661
 20
167.870777
 30
0.0
  0
LWPOLYLINE
  5
2d1
100
AcDbEntity
  8
0
 62
7
100
AcDbPolyline
 90
2
 70
0
 10
109.640037
 20
168.819411
 30
0.0
 10
109.496722
 20
168.461130
 30
0.0
  0
LWPOLYLINE
  5
2d2
100
AcDbEntity
  8
0
 62
7
100
AcDbPolyline
 90
4
 70
0
 10
119.945559
 20
166.222656
 30
0.0
 10
119.857365
 20
166.850487
 30
0.0
 10
119.903116
 20
167.714229
 30
0.0
 10
119.762005
 20
169.641835
 30
0.0
  0
LWPOLYLINE
  5
2d3
100
AcDbEntity
  8
0
 62
7
100
AcDbPolyline
 90
5
 70
0
 10
173.329089
 20
146.412039
 30
0.0
 10
174.125596
 20
146.987518
 30
0.0
 10
174.803040
 20
147.219589
 30
0.0
 10
175.589074
 20
147.471473
 30
0.0
 10
176.388886
 20
148.061825
 30
0.0
  0
SPLINE
  5
2d4
100
AcDbEntity
  8
0
 62
7
100
AcDbSpline
 70
8
 71
3
 72
8
 73
4
 74
0
 40
0
 40
0
 40
0
 40
0
 40
1
 40
1
 40
1
 40
1
 10
176.388886
 20
148.061825
 30
0.0
 10
176.565616
 20
148.446325
 30
0.0
 10
177.258308
 20
149.998547
 30
0.0
 10
177.427927
 20
150.390159
 30
0.0
  0
SPLINE
  5
2d5
100
AcDbEntity
  8
0
 62
7
100
AcDbSpline
 70
8
 71
3
 72
8
 73
4
 74
0
 40
0
 40
0
 40
0
 40
0
 40
1
 40
1
 40
1
 40
1
 10
177.427927
 20
150.390159
 30
0.0
 10
177.398299
 20
151.097746
 30
0.0
 10
177.237715
 20
153.925867
 30
0.0
 10
177.187047
 20
154.632325
 30
0.0
  0
SPLINE
  5
2d6
100
AcDbEntity
  8
0
 62
7
100
AcDbSpline
 70
8
 71
3
 72
8
 73
4
 74
0
 40
0
 40
0
 40
0
 40
0
 40
1
 40
1
 40
1
 40
1
 10
177.187047
 20
154.632325
 30
0.0
 10
177.139617
 20
155.053147
 30
0.0
 10
176.954775
 20
156.716339
 30
0.0
 10
176.909784
 20
157.127113
 30
0.0
  0
LWPOLYLINE
  5
2d7
100
AcDbEntity
  8
0
 62
7
100
AcDbPolyline
 90
4
 70
0
 10
176.909784
 20
157.127113
 30
0.0
 10
177.066883
 20
158.136933
 30
0.0
 10
177.227837
 20
158.744388
 30
0.0
 10
177.327605
 20
159.753671
 30
0.0
  0
SPLINE
  5
2d8
100
AcDbEntity
  8
0
 62
7
100
AcDbSpline
 70
8
 71
3
 72
8
 73
4
 74
0
 40
0
 40
0
 40
0
 40
0
 40
1
 40
1
 40
1
 40
1
 10
177.327605
 20
159.753671
 30
0.0
 10
177.338894
 20
160.211407
 30
0.0
 10
177.382266
 20
162.048787
 30
0.0
 10
177.392649
 20
162.509740
 30
0.0
  0
SPLINE
  5
2d9
100
AcDbEntity
  8
0
 62
7
100
AcDbSpline
 70
8
 71
3
 72
8
 73
4
 74
0
 40
0
 40
0
 40
0
 40
0
 40
1
 40
1
 40
1
 40
1
 10
177.392649
 20
162.509740
 30
0.0
 10
177.375546
 20
162.979499
 30
0.0
 10
177.305349
 20
164.853257
 30
0.0
 10
177.287369
 20
165.320391
 30
0.0
  0
LWPOLYLINE
  5
2da
100
AcDbEntity
  8
0
 62
7
100
AcDbPolyline
 90
3
 70
0
 10
177.287369
 20
165.320391
 30
0.0
 10
177.009555
 20
167.088119
 30
0.0
 10
175.716404
 20
168.510829
 30
0.0
  0
SPLINE
  5
2db
100
AcDbEntity
  8
0
 62
7
100
AcDbSpline
 70
8
 71
3
 72
8
 73
4
 74
0
 40
0
 40
0
 40
0
 40
0
 40
1
 40
1
 40
1
 40
1
 10
175.716404
 20
168.510829
 30
0.0
 10
174.223576
 20
169.591655
 30
0.0
 10
173.257650
 20
171.307397
 30
0.0
 10
172.950957
 20
173.109047
 30
0.0
  0
LWPOLYLINE
  5
2dc
100
AcDbEntity
  8
0
 62
7
100
AcDbPolyline
 90
11
 70
0
 10
172.950957
 20
173.109047
 30
0.0
 10
172.875993
 20
174.186120
 30
0.0
 10
172.887564
 20
174.560403
 30
0.0
 10
172.909069
 20
174.683339
 30
0.0
 10
173.091523
 20
174.622690
 30
0.0
 10
173.703372
 20
174.212028
 30
0.0
 10
174.527439
 20
173.688929
 30
0.0
 10
175.305204
 20
173.466256
 30
0.0
 10
176.450628
 20
173.914369
 30
0.0
 10
176.996883
 20
174.906577
 30
0.0
 10
176.473234
 20
176.521086
 30
0.0
  0
SPLINE
  5
2dd
100
AcDbEntity
  8
0
 62
7
100
AcDbSpline
 70
8
 71
3
 72
8
 73
4
 74
0
 40
0
 40
0
 40
0
 40
0
 40
1
 40
1
 40
1
 40
1
 10
176.473234
 20
176.521086
 30
0.0
 10
176.257715
 20
176.842904
 30
0.0
 10
175.389368
 20
178.130176
 30
0.0
 10
175.170713
 20
178.451994
 30
0.0
  0
LWPOLYLINE
  5
2de
100
AcDbEntity
  8
0
 62
7
100
AcDbPolyline
 90
3
 70
0
 10
175.170713
 20
178.451994
 30
0.0
 10
174.440904
 20
179.522999
 30
0.0
 10
174.174666
 20
180.340992
 30
0.0
  0
SPLINE
  5
2df
100
AcDbEntity
  8
0
 62
7
100
AcDbSpline
 70
8
 71
3
 72
8
 73
4
 74
0
 40
0
 40
0
 40
0
 40
0
 40
1
 40
1
 40
1
 40
1
 10
174.174666
 20
180.340992
 30
0.0
 10
173.891530
 20
180.913536
 30
0.0
 10
172.725156
 20
183.213929
 30
0.0
 10
172.425109
 20
183.791610
 30
0.0
  0
LWPOLYLINE
  5
2e0
100
AcDbEntity
  8
0
 62
7
100
AcDbPolyline
 90
3
 70
0
 10
172.425109
 20
183.791610
 30
0.0
 10
170.849736
 20
185.055542
 30
0.0
 10
168.821814
 20
185.168544
 30
0.0
  0
SPLINE
  5
2e1
100
AcDbEntity
  8
0
 62
7
100
AcDbSpline
 70
8
 71
3
 72
8
 73
4
 74
0
 40
0
 40
0
 40
0
 40
0
 40
1
 40
1
 40
1
 40
1
 10
168.821814
 20
185.168544
 30
0.0
 10
168.415465
 20
185.219767
 30
0.0
 10
166.794891
 20
185.439506
 30
0.0
 10
166.390955
 20
185.498180
 30
0.0
  0
SPLINE
  5
2e2
100
AcDbEntity
  8
0
 62
7
100
AcDbSpline
 70
8
 71
3
 72
8
 73
4
 74
0
 40
0
 40
0
 40
0
 40
0
 40
1
 40
1
 40
1
 40
1
 10
166.390955
 20
185.498180
 30
0.0
 10
165.966546
 20
185.832274
 30
0.0
 10
164.261820
 20
187.189368
 30
0.0
 10
163.833866
 20
187.533820
 30
0.0
  0
SPLINE
  5
2e3
100
AcDbEntity
  8
0
 62
7
100
AcDbSpline
 70
8
 71
3
 72
8
 73
4
 74
0
 40
0
 40
0
 40
0
 40
0
 40
1
 40
1
 40
1
 40
1
 10
163.833866
 20
187.533820
 30
0.0
 10
162.575003
 20
189.011084
 30
0.0
 10
160.774118
 20
190.076163
 30
0.0
 10
158.821117
 20
190.258478
 30
0.0
  0
LWPOLYLINE
  5
2e4
100
AcDbEntity
  8
0
 62
7
100
AcDbPolyline
 90
2
 70
0
 10
158.821117
 20
190.258478
 30
0.0
 10
157.068252
 20
190.767777
 30
0.0
  0
SPLINE
  5
2e5
100
AcDbEntity
  8
0
 62
7
100
AcDbSpline
 70
8
 71
3
 72
8
 73
4
 74
0
 40
0
 40
0
 40
0
 40
0
 40
1
 40
1
 40
1
 40
1
 10
152.947367
 20
194.976867
 30
0.0
 10
152.497734
 20
195.063566
 30
0.0
 10
150.686807
 20
195.396136
 30
0.0
 10
150.230978
 20
195.475723
 30
0.0
  0
LWPOLYLINE
  5
2e6
100
AcDbEntity
  8
0
 62
7
100
AcDbPolyline
 90
4
 70
0
 10
132.473023
 20
194.837901
 30
0.0
 10
131.339172
 20
193.609783
 30
0.0
 10
130.995764
 20
191.580210
 30
0.0
 10
131.504538
 20
189.571041
 30
0.0
  0
LWPOLYLINE
  5
2e7
100
AcDbEntity
  8
0
 62
7
100
AcDbPolyline
 90
5
 70
0
 10
133.335674
 20
195.794239
 30
0.0
 10
133.250788
 20
195.542356
 30
0.0
 10
133.206690
 20
195.447529
 30
0.0
 10
133.043529
 20
195.257904
 30
0.0
 10
132.473023
 20
194.837901
 30
0.0
  0
SPLINE
  5
2e8
100
AcDbEntity
  8
0
 62
7
100
AcDbSpline
 70
8
 71
3
 72
8
 73
4
 74
0
 40
0
 40
0
 40
0
 40
0
 40
1
 40
1
 40
1
 40
1
 10
131.891490
 20
185.887787
 30
0.0
 10
130.771073
 20
186.106171
 30
0.0
 10
129.052814
 20
185.972652
 30
0.0
 10
128.551678
 20
184.692661
 30
0.0
  0
LWPOLYLINE
  5
2e9
100
AcDbEntity
  8
0
 62
7
100
AcDbPolyline
 90
13
 70
0
 10
131.504538
 20
189.571041
 30
0.0
 10
131.979134
 20
188.780593
 30
0.0
 10
132.537516
 20
188.423949
 30
0.0
 10
132.570037
 20
188.401371
 30
0.0
 10
132.669808
 20
188.281737
 30
0.0
 10
132.858321
 20
187.827529
 30
0.0
 10
133.293231
 20
187.134109
 30
0.0
 10
134.229746
 20
186.694237
 30
0.0
 10
135.168465
 20
186.293510
 30
0.0
 10
135.203192
 20
186.252701
 30
0.0
 10
135.100114
 20
186.184911
 30
0.0
 10
134.002094
 20
185.971043
 30
0.0
 10
131.891490
 20
185.887787
 30
0.0
  0
LWPOLYLINE
  5
2ea
100
AcDbEntity
  8
0
 62
7
100
AcDbPolyline
 90
5
 70
0
 10
139.937580
 20
199.995060
 30
0.0
 10
139.245253
 20
199.892529
 30
0.0
 10
138.721598
 20
199.624107
 30
0.0
 10
138.320314
 20
199.479130
 30
0.0
 10
137.395926
 20
199.670392
 30
0.0
  0
SPLINE
  5
2eb
100
AcDbEntity
  8
0
 62
7
100
AcDbSpline
 70
8
 71
3
 72
8
 73
4
 74
0
 40
0
 40
0
 40
0
 40
0
 40
1
 40
1
 40
1
 40
1
 10
137.395926
 20
199.670392
 30
0.0
 10
136.794000
 20
199.679987
 30
0.0
 10
136.192071
 20
199.689583
 30
0.0
 10
135.590145
 20
199.699066
 30
0.0
  0
LWPOLYLINE
  5
2ec
100
AcDbEntity
  8
0
 62
7
100
AcDbPolyline
 90
7
 70
0
 10
135.590145
 20
199.699066
 30
0.0
 10
134.825057
 20
198.701918
 30
0.0
 10
134.761117
 20
197.441288
 30
0.0
 10
134.644810
 20
197.119385
 30
0.0
 10
134.133836
 20
196.608394
 30
0.0
 10
133.528599
 20
196.056085
 30
0.0
 10
133.335674
 20
195.794239
 30
0.0
  0
SPLINE
  5
2ed
100
AcDbEntity
  8
0
 62
7
100
AcDbSpline
 70
8
 71
3
 72
8
 73
4
 74
0
 40
0
 40
0
 40
0
 40
0
 40
1
 40
1
 40
1
 40
1
 10
139.937583
 20
199.995117
 30
0.0
 10
139.937583
 20
199.995089
 30
0.0
 10
139.937583
 20
199.995089
 30
0.0
 10
139.937583
 20
199.995117
 30
0.0
  0
LWPOLYLINE
  5
2ee
100
AcDbEntity
  8
0
 62
7
100
AcDbPolyline
 90
4
 70
0
 10
143.055255
 20
198.712445
 30
0.0
 10
141.206480
 20
199.619761
 30
0.0
 10
139.937583
 20
199.995117
 30
0.0
 10
139.937583
 20
199.995117
 30
0.0
  0
LWPOLYLINE
  5
2ef
100
AcDbEntity
  8
0
 62
7
100
AcDbPolyline
 90
2
 70
0
 10
147.801220
 20
195.547915
 30
0.0
 10
146.510824
 20
196.428223
 30
0.0
  0
SPLINE
  5
2f0
100
AcDbEntity
  8
0
 62
7
100
AcDbSpline
 70
8
 71
3
 72
8
 73
4
 74
0
 40
0
 40
0
 40
0
 40
0
 40
1
 40
1
 40
1
 40
1
 10
119.286850
 20
197.105585
 30
0.0
 10
119.267179
 20
197.771996
 30
0.0
 10
119.247531
 20
198.438407
 30
0.0
 10
119.227871
 20
199.104819
 30
0.0
  0
SPLINE
  5
2f1
100
AcDbEntity
  8
0
 62
7
100
AcDbSpline
 70
8
 71
3
 72
8
 73
4
 74
0
 40
0
 40
0
 40
0
 40
0
 40
1
 40
1
 40
1
 40
1
 10
118.415932
 20
195.892904
 30
0.0
 10
118.706237
 20
196.297131
 30
0.0
 10
118.996545
 20
196.701358
 30
0.0
 10
119.286850
 20
197.105585
 30
0.0
  0
SPLINE
  5
2f2
100
AcDbEntity
  8
0
 62
7
100
AcDbSpline
 70
8
 71
3
 72
8
 73
4
 74
0
 40
0
 40
0
 40
0
 40
0
 40
1
 40
1
 40
1
 40
1
 10
117.274363
 20
196.131015
 30
0.0
 10
117.654886
 20
196.051654
 30
0.0
 10
118.035409
 20
195.972265
 30
0.0
 10
118.415932
 20
195.892904
 30
0.0
  0
SPLINE
  5
2f3
100
AcDbEntity
  8
0
 62
7
100
AcDbSpline
 70
8
 71
3
 72
8
 73
4
 74
0
 40
0
 40
0
 40
0
 40
0
 40
1
 40
1
 40
1
 40
1
 10
116.878591
 20
197.710810
 30
0.0
 10
117.010516
 20
197.184212
 30
0.0
 10
117.142438
 20
196.657613
 30
0.0
 10
117.274363
 20
196.131015
 30
0.0
  0
SPLINE
  5
2f4
100
AcDbEntity
  8
0
 62
7
100
AcDbSpline
 70
8
 71
3
 72
8
 73
4
 74
0
 40
0
 40
0
 40
0
 40
0
 40
1
 40
1
 40
1
 40
1
 10
117.060492
 20
198.554175
 30
0.0
 10
117.020329
 20
198.367965
 30
0.0
 10
116.899061
 20
197.805721
 30
0.0
 10
116.878591
 20
197.710810
 30
0.0
  0
LWPOLYLINE
  5
2f5
100
AcDbEntity
  8
0
 62
7
100
AcDbPolyline
 90
4
 70
0
 10
118.505227
 20
199.416815
 30
0.0
 10
118.505227
 20
199.416815
 30
0.0
 10
118.505227
 20
199.416815
 30
0.0
 10
118.505227
 20
199.416815
 30
0.0
  0
LWPOLYLINE
  5
2f6
100
AcDbEntity
  8
0
 62
7
100
AcDbPolyline
 90
2
 70
0
 10
119.227871
 20
199.104819
 30
0.0
 10
118.505227
 20
199.416815
 30
0.0
  0
LWPOLYLINE
  5
2f7
100
AcDbEntity
  8
0
 62
7
100
AcDbPolyline
 90
2
 70
0
 10
117.504221
 20
199.121921
 30
0.0
 10
117.060492
 20
198.554175
 30
0.0
  0
SPLINE
  5
2f8
100
AcDbEntity
  8
0
 62
7
100
AcDbSpline
 70
8
 71
3
 72
8
 73
4
 74
0
 40
0
 40
0
 40
0
 40
0
 40
1
 40
1
 40
1
 40
1
 10
122.364836
 20
192.802796
 30
0.0
 10
123.821238
 20
193.245321
 30
0.0
 10
123.419833
 20
195.277377
 30
0.0
 10
123.085276
 20
196.244581
 30
0.0
  0
LWPOLYLINE
  5
2f9
100
AcDbEntity
  8
0
 62
7
100
AcDbPolyline
 90
2
 70
0
 10
118.505227
 20
199.416815
 30
0.0
 10
117.504221
 20
199.121921
 30
0.0
  0
SPLINE
  5
2fa
100
AcDbEntity
  8
0
 62
7
100
AcDbSpline
 70
8
 71
3
 72
8
 73
4
 74
0
 40
0
 40
0
 40
0
 40
0
 40
1
 40
1
 40
1
 40
1
 10
123.085276
 20
196.244581
 30
0.0
 10
122.975946
 20
196.685666
 30
0.0
 10
122.536441
 20
198.423816
 30
0.0
 10
122.426022
 20
198.851835
 30
0.0
  0
LWPOLYLINE
  5
2fb
100
AcDbEntity
  8
0
 62
7
100
AcDbPolyline
 90
4
 70
0
 10
121.911737
 20
199.322017
 30
0.0
 10
121.911737
 20
199.322017
 30
0.0
 10
121.911737
 20
199.322017
 30
0.0
 10
121.911737
 20
199.322017
 30
0.0
  0
SPLINE
  5
2fc
100
AcDbEntity
  8
0
 62
7
100
AcDbSpline
 70
8
 71
3
 72
8
 73
4
 74
0
 40
0
 40
0
 40
0
 40
0
 40
1
 40
1
 40
1
 40
1
 10
119.624746
 20
192.297336
 30
0.0
 10
120.033748
 20
192.153290
 30
0.0
 10
120.442750
 20
192.009216
 30
0.0
 10
120.851752
 20
191.865169
 30
0.0
  0
SPLINE
  5
2fd
100
AcDbEntity
  8
0
 62
7
100
AcDbSpline
 70
8
 71
3
 72
8
 73
4
 74
0
 40
0
 40
0
 40
0
 40
0
 40
1
 40
1
 40
1
 40
1
 10
118.744455
 20
193.718353
 30
0.0
 10
119.037885
 20
193.244672
 30
0.0
 10
119.331317
 20
192.771018
 30
0.0
 10
119.624746
 20
192.297336
 30
0.0
  0
SPLINE
  5
2fe
100
AcDbEntity
  8
0
 62
7
100
AcDbSpline
 70
8
 71
3
 72
8
 73
4
 74
0
 40
0
 40
0
 40
0
 40
0
 40
1
 40
1
 40
1
 40
1
 10
119.150150
 20
195.624454
 30
0.0
 10
119.014917
 20
194.989087
 30
0.0
 10
118.879688
 20
194.353720
 30
0.0
 10
118.744455
 20
193.718353
 30
0.0
  0
SPLINE
  5
2ff
100
AcDbEntity
  8
0
 62
7
100
AcDbSpline
 70
8
 71
3
 72
8
 73
4
 74
0
 40
0
 40
0
 40
0
 40
0
 40
1
 40
1
 40
1
 40
1
 10
120.339121
 20
198.448878
 30
0.0
 10
120.143024
 20
197.985412
 30
0.0
 10
119.350375
 20
196.102482
 30
0.0
 10
119.150150
 20
195.624454
 30
0.0
  0
SPLINE
  5
300
100
AcDbEntity
  8
0
 62
7
100
AcDbSpline
 70
8
 71
3
 72
8
 73
4
 74
0
 40
0
 40
0
 40
0
 40
0
 40
1
 40
1
 40
1
 40
1
 10
121.230988
 20
199.287840
 30
0.0
 10
120.933698
 20
199.008186
 30
0.0
 10
120.636411
 20
198.728532
 30
0.0
 10
120.339121
 20
198.448878
 30
0.0
  0
LWPOLYLINE
  5
301
100
AcDbEntity
  8
0
 62
7
100
AcDbPolyline
 90
2
 70
0
 10
122.426022
 20
198.851835
 30
0.0
 10
121.911737
 20
199.322017
 30
0.0
  0
LWPOLYLINE
  5
302
100
AcDbEntity
  8
0
 62
7
100
AcDbPolyline
 90
2
 70
0
 10
120.851752
 20
191.865169
 30
0.0
 10
122.364836
 20
192.802796
 30
0.0
  0
LWPOLYLINE
  5
303
100
AcDbEntity
  8
0
 62
7
100
AcDbPolyline
 90
2
 70
0
 10
121.911737
 20
199.322017
 30
0.0
 10
121.230988
 20
199.287840
 30
0.0
  0
SPLINE
  5
304
100
AcDbEntity
  8
0
 62
7
100
AcDbSpline
 70
8
 71
3
 72
8
 73
4
 74
0
 40
0
 40
0
 40
0
 40
0
 40
1
 40
1
 40
1
 40
1
 10
93.317997
 20
190.399477
 30
0.0
 10
93.273914
 20
190.584812
 30
0.0
 10
93.144196
 20
191.130150
 30
0.0
 10
93.123419
 20
191.217498
 30
0.0
  0
SPLINE
  5
305
100
AcDbEntity
  8
0
 62
7
100
AcDbSpline
 70
8
 71
3
 72
8
 73
4
 74
0
 40
0
 40
0
 40
0
 40
0
 40
1
 40
1
 40
1
 40
1
 10
92.664808
 20
189.328471
 30
0.0
 10
92.882537
 20
189.685483
 30
0.0
 10
93.100268
 20
190.042465
 30
0.0
 10
93.317997
 20
190.399477
 30
0.0
  0
SPLINE
  5
306
100
AcDbEntity
  8
0
 62
7
100
AcDbSpline
 70
8
 71
3
 72
8
 73
4
 74
0
 40
0
 40
0
 40
0
 40
0
 40
1
 40
1
 40
1
 40
1
 10
91.399766
 20
189.858739
 30
0.0
 10
91.821446
 20
189.681983
 30
0.0
 10
92.243128
 20
189.505227
 30
0.0
 10
92.664808
 20
189.328471
 30
0.0
  0
LWPOLYLINE
  5
307
100
AcDbEntity
  8
0
 62
7
100
AcDbPolyline
 90
4
 70
0
 10
92.271791
 20
191.474913
 30
0.0
 10
92.271791
 20
191.474913
 30
0.0
 10
92.271791
 20
191.474913
 30
0.0
 10
92.271791
 20
191.474913
 30
0.0
  0
LWPOLYLINE
  5
308
100
AcDbEntity
  8
0
 62
7
100
AcDbPolyline
 90
2
 70
0
 10
93.123419
 20
191.217498
 30
0.0
 10
92.271791
 20
191.474913
 30
0.0
  0
SPLINE
  5
309
100
AcDbEntity
  8
0
 62
7
100
AcDbSpline
 70
8
 71
3
 72
8
 73
4
 74
0
 40
0
 40
0
 40
0
 40
0
 40
1
 40
1
 40
1
 40
1
 10
92.271791
 20
191.474913
 30
0.0
 10
91.865363
 20
191.336934
 30
0.0
 10
91.458931
 20
191.198927
 30
0.0
 10
91.052503
 20
191.060949
 30
0.0
  0
LWPOLYLINE
  5
30a
100
AcDbEntity
  8
0
 62
7
100
AcDbPolyline
 90
2
 70
0
 10
91.013365
 20
190.491001
 30
0.0
 10
91.399766
 20
189.858739
 30
0.0
  0
LWPOLYLINE
  5
30b
100
AcDbEntity
  8
0
 62
7
100
AcDbPolyline
 90
2
 70
0
 10
91.052503
 20
191.060949
 30
0.0
 10
91.013365
 20
190.491001
 30
0.0
  0
SPLINE
  5
30c
100
AcDbEntity
  8
0
 62
7
100
AcDbSpline
 70
8
 71
3
 72
8
 73
4
 74
0
 40
0
 40
0
 40
0
 40
0
 40
1
 40
1
 40
1
 40
1
 10
114.871054
 20
187.609230
 30
0.0
 10
114.505966
 20
187.866645
 30
0.0
 10
114.140877
 20
188.124060
 30
0.0
 10
113.775789
 20
188.381475
 30
0.0
  0
SPLINE
  5
30d
100
AcDbEntity
  8
0
 62
7
100
AcDbSpline
 70
8
 71
3
 72
8
 73
4
 74
0
 40
0
 40
0
 40
0
 40
0
 40
1
 40
1
 40
1
 40
1
 10
115.296592
 20
185.376824
 30
0.0
 10
115.154747
 20
186.120959
 30
0.0
 10
115.012899
 20
186.865095
 30
0.0
 10
114.871054
 20
187.609230
 30
0.0
  0
LWPOLYLINE
  5
30e
100
AcDbEntity
  8
0
 62
7
100
AcDbPolyline
 90
4
 70
0
 10
113.224575
 20
188.382604
 30
0.0
 10
113.224575
 20
188.382604
 30
0.0
 10
113.224575
 20
188.382604
 30
0.0
 10
113.224575
 20
188.382604
 30
0.0
  0
SPLINE
  5
30f
100
AcDbEntity
  8
0
 62
7
100
AcDbSpline
 70
8
 71
3
 72
8
 73
4
 74
0
 40
0
 40
0
 40
0
 40
0
 40
1
 40
1
 40
1
 40
1
 10
113.736653
 20
185.203173
 30
0.0
 10
113.911826
 20
185.128327
 30
0.0
 10
114.533598
 20
184.862643
 30
0.0
 10
114.669310
 20
184.804647
 30
0.0
  0
LWPOLYLINE
  5
310
100
AcDbEntity
  8
0
 62
7
100
AcDbPolyline
 90
2
 70
0
 10
113.775789
 20
188.381475
 30
0.0
 10
113.224575
 20
188.381475
 30
0.0
  0
LWPOLYLINE
  5
311
100
AcDbEntity
  8
0
 62
7
100
AcDbPolyline
 90
2
 70
0
 10
114.669310
 20
184.804647
 30
0.0
 10
115.296592
 20
185.376824
 30
0.0
  0
LWPOLYLINE
  5
312
100
AcDbEntity
  8
0
 62
7
100
AcDbPolyline
 90
2
 70
0
 10
112.955030
 20
186.666664
 30
0.0
 10
113.736653
 20
185.203173
 30
0.0
  0
LWPOLYLINE
  5
313
100
AcDbEntity
  8
0
 62
7
100
AcDbPolyline
 90
2
 70
0
 10
112.754387
 20
187.471421
 30
0.0
 10
112.955030
 20
186.666664
 30
0.0
  0
SPLINE
  5
314
100
AcDbEntity
  8
0
 62
7
100
AcDbSpline
 70
8
 71
3
 72
8
 73
4
 74
0
 40
0
 40
0
 40
0
 40
0
 40
1
 40
1
 40
1
 40
1
 10
109.655477
 20
177.968491
 30
0.0
 10
109.655469
 20
177.968491
 30
0.0
 10
109.655469
 20
177.968491
 30
0.0
 10
109.655477
 20
177.968491
 30
0.0
  0
LWPOLYLINE
  5
315
100
AcDbEntity
  8
0
 62
7
100
AcDbPolyline
 90
2
 70
0
 10
112.809508
 20
188.069506
 30
0.0
 10
112.754387
 20
187.471421
 30
0.0
  0
SPLINE
  5
316
100
AcDbEntity
  8
0
 62
7
100
AcDbSpline
 70
8
 71
3
 72
8
 73
4
 74
0
 40
0
 40
0
 40
0
 40
0
 40
1
 40
1
 40
1
 40
1
 10
110.856025
 20
177.576004
 30
0.0
 10
110.455843
 20
177.706843
 30
0.0
 10
110.055660
 20
177.837653
 30
0.0
 10
109.655477
 20
177.968491
 30
0.0
  0
LWPOLYLINE
  5
317
100
AcDbEntity
  8
0
 62
7
100
AcDbPolyline
 90
2
 70
0
 10
113.224575
 20
188.382604
 30
0.0
 10
112.809508
 20
188.069506
 30
0.0
  0
SPLINE
  5
318
100
AcDbEntity
  8
0
 62
7
100
AcDbSpline
 70
8
 71
3
 72
8
 73
4
 74
0
 40
0
 40
0
 40
0
 40
0
 40
1
 40
1
 40
1
 40
1
 10
111.385742
 20
175.688107
 30
0.0
 10
111.353820
 20
175.875898
 30
0.0
 10
111.231085
 20
176.597991
 30
0.0
 10
111.201637
 20
176.771248
 30
0.0
  0
SPLINE
  5
319
100
AcDbEntity
  8
0
 62
7
100
AcDbSpline
 70
8
 71
3
 72
8
 73
4
 74
0
 40
0
 40
0
 40
0
 40
0
 40
1
 40
1
 40
1
 40
1
 10
108.175992
 20
176.848972
 30
0.0
 10
108.221097
 20
176.663890
 30
0.0
 10
108.373966
 20
176.036595
 30
0.0
 10
108.405298
 20
175.908043
 30
0.0
  0
LWPOLYLINE
  5
31a
100
AcDbEntity
  8
0
 62
7
100
AcDbPolyline
 90
4
 70
1
 10
109.655477
 20
177.968491
 30
0.0
 10
109.655477
 20
177.968491
 30
0.0
 10
109.655477
 20
177.968491
 30
0.0
 10
109.655477
 20
177.968491
 30
0.0
  0
SPLINE
  5
31b
100
AcDbEntity
  8
0
 62
7
100
AcDbSpline
 70
8
 71
3
 72
8
 73
4
 74
0
 40
0
 40
0
 40
0
 40
0
 40
1
 40
1
 40
1
 40
1
 10
109.655455
 20
177.968491
 30
0.0
 10
109.248290
 20
177.808640
 30
0.0
 10
108.841128
 20
177.648789
 30
0.0
 10
108.433963
 20
177.488939
 30
0.0
  0
LWPOLYLINE
  5
31c
100
AcDbEntity
  8
0
 62
7
100
AcDbPolyline
 90
4
 70
1
 10
111.201637
 20
176.771248
 30
0.0
 10
110.856025
 20
177.576004
 30
0.0
 10
111.201637
 20
176.771248
 30
0.0
 10
111.201637
 20
176.771248
 30
0.0
  0
LWPOLYLINE
  5
31d
100
AcDbEntity
  8
0
 62
7
100
AcDbPolyline
 90
4
 70
1
 10
108.433963
 20
177.488939
 30
0.0
 10
108.175992
 20
176.848972
 30
0.0
 10
108.433963
 20
177.488939
 30
0.0
 10
108.433963
 20
177.488939
 30
0.0
  0
LWPOLYLINE
  5
31e
100
AcDbEntity
  8
0
 62
7
100
AcDbPolyline
 90
4
 70
1
 10
111.392346
 20
174.668353
 30
0.0
 10
111.385742
 20
175.688107
 30
0.0
 10
111.392346
 20
174.668353
 30
0.0
 10
111.392346
 20
174.668353
 30
0.0
  0
LWPOLYLINE
  5
31f
100
AcDbEntity
  8
0
 62
7
100
AcDbPolyline
 90
4
 70
1
 10
111.312418
 20
174.284164
 30
0.0
 10
111.392346
 20
174.668353
 30
0.0
 10
111.312418
 20
174.284164
 30
0.0
 10
111.312418
 20
174.284164
 30
0.0
  0
LWPOLYLINE
  5
320
100
AcDbEntity
  8
0
 62
7
100
AcDbPolyline
 90
4
 70
1
 10
111.126659
 20
174.017380
 30
0.0
 10
111.312418
 20
174.284164
 30
0.0
 10
111.126659
 20
174.017380
 30
0.0
 10
111.126659
 20
174.017380
 30
0.0
  0
LWPOLYLINE
  5
321
100
AcDbEntity
  8
0
 62
7
100
AcDbPolyline
 90
4
 70
1
 10
110.135024
 20
173.782006
 30
0.0
 10
111.126659
 20
174.017380
 30
0.0
 10
110.135024
 20
173.782006
 30
0.0
 10
110.135024
 20
173.782006
 30
0.0
  0
SPLINE
  5
322
100
AcDbEntity
  8
0
 62
7
100
AcDbSpline
 70
8
 71
3
 72
8
 73
4
 74
0
 40
0
 40
0
 40
0
 40
0
 40
1
 40
1
 40
1
 40
1
 10
108.405298
 20
175.908043
 30
0.0
 10
108.645077
 20
175.459902
 30
0.0
 10
108.884855
 20
175.011761
 30
0.0
 10
109.124634
 20
174.563621
 30
0.0
  0
SPLINE
  5
323
100
AcDbEntity
  8
0
 62
7
100
AcDbSpline
 70
8
 71
3
 72
8
 73
4
 74
0
 40
0
 40
0
 40
0
 40
0
 40
1
 40
1
 40
1
 40
1
 10
109.124634
 20
174.563621
 30
0.0
 10
109.147523
 20
174.498823
 30
0.0
 10
109.147523
 20
174.498823
 30
0.0
 10
109.124634
 20
174.563621
 30
0.0
  0
LWPOLYLINE
  5
324
100
AcDbEntity
  8
0
 62
7
100
AcDbPolyline
 90
4
 70
1
 10
109.249221
 20
174.331013
 30
0.0
 10
110.135024
 20
173.782006
 30
0.0
 10
109.249221
 20
174.331013
 30
0.0
 10
109.249221
 20
174.331013
 30
0.0
  0
LWPOLYLINE
  5
325
100
AcDbEntity
  8
0
 62
7
100
AcDbPolyline
 90
4
 70
1
 10
109.248657
 20
174.331013
 30
0.0
 10
109.249221
 20
174.331013
 30
0.0
 10
109.248657
 20
174.331013
 30
0.0
 10
109.248657
 20
174.331013
 30
0.0
  0
SPLINE
  5
326
100
AcDbEntity
  8
0
 62
7
100
AcDbSpline
 70
8
 71
3
 72
8
 73
4
 74
0
 40
0
 40
0
 40
0
 40
0
 40
1
 40
1
 40
1
 40
1
 10
108.963691
 20
173.288117
 30
0.0
 10
108.616609
 20
173.612588
 30
0.0
 10
108.269529
 20
173.937087
 30
0.0
 10
107.922447
 20
174.261558
 30
0.0
  0
SPLINE
  5
327
100
AcDbEntity
  8
0
 62
7
100
AcDbSpline
 70
8
 71
3
 72
8
 73
4
 74
0
 40
0
 40
0
 40
0
 40
0
 40
1
 40
1
 40
1
 40
1
 10
108.265852
 20
171.678576
 30
0.0
 10
108.498465
 20
172.215080
 30
0.0
 10
108.731078
 20
172.751613
 30
0.0
 10
108.963691
 20
173.288117
 30
0.0
  0
SPLINE
  5
328
100
AcDbEntity
  8
0
 62
7
100
AcDbSpline
 70
8
 71
3
 72
8
 73
4
 74
0
 40
0
 40
0
 40
0
 40
0
 40
1
 40
1
 40
1
 40
1
 10
107.299571
 20
170.972456
 30
0.0
 10
107.621665
 20
171.207829
 30
0.0
 10
107.943757
 20
171.443203
 30
0.0
 10
108.265852
 20
171.678576
 30
0.0
  0
LWPOLYLINE
  5
329
100
AcDbEntity
  8
0
 62
7
100
AcDbPolyline
 90
4
 70
1
 10
109.124634
 20
174.563621
 30
0.0
 10
109.124634
 20
174.563621
 30
0.0
 10
109.124634
 20
174.563621
 30
0.0
 10
109.124634
 20
174.563621
 30
0.0
  0
LWPOLYLINE
  5
32a
100
AcDbEntity
  8
0
 62
7
100
AcDbPolyline
 90
4
 70
0
 10
107.922447
 20
174.261558
 30
0.0
 10
107.922447
 20
174.261558
 30
0.0
 10
107.922447
 20
174.261558
 30
0.0
 10
107.922447
 20
174.261558
 30
0.0
  0
LWPOLYLINE
  5
32b
100
AcDbEntity
  8
0
 62
7
100
AcDbPolyline
 90
2
 70
0
 10
106.854190
 20
171.032541
 30
0.0
 10
107.299571
 20
170.972456
 30
0.0
  0
LWPOLYLINE
  5
32c
100
AcDbEntity
  8
0
 62
7
100
AcDbPolyline
 90
2
 70
0
 10
106.379044
 20
171.326899
 30
0.0
 10
106.854190
 20
171.032541
 30
0.0
  0
LWPOLYLINE
  5
32d
100
AcDbEntity
  8
0
 62
7
100
AcDbPolyline
 90
2
 70
0
 10
105.964530
 20
171.886376
 30
0.0
 10
106.379044
 20
171.326899
 30
0.0
  0
LWPOLYLINE
  5
32e
100
AcDbEntity
  8
0
 62
7
100
AcDbPolyline
 90
2
 70
0
 10
106.006420
 20
172.721472
 30
0.0
 10
105.964530
 20
171.886376
 30
0.0
  0
LWPOLYLINE
  5
32f
100
AcDbEntity
  8
0
 62
7
100
AcDbPolyline
 90
2
 70
0
 10
106.655201
 20
173.979336
 30
0.0
 10
106.006420
 20
172.721472
 30
0.0
  0
LWPOLYLINE
  5
330
100
AcDbEntity
  8
0
 62
7
100
AcDbPolyline
 90
2
 70
0
 10
107.922447
 20
174.261558
 30
0.0
 10
106.655201
 20
173.979336
 30
0.0
  0
ENDSEC
  0
SECTION
  2
OBJECTS
  0
DICTIONARY
  5
C
330
0
100
AcDbDictionary
  3
ACAD_GROUP
350
D
  3
ACAD_MLINESTYLE
350
17
  0
DICTIONARY
  5
D
330
C
100
AcDbDictionary
  0
DICTIONARY
  5
1A
330
C
100
AcDbDictionary
  0
DICTIONARY
  5
17
330
C
100
AcDbDictionary
  3
STANDARD
350
18
  0
DICTIONARY
  5
19
330
C
100
AcDbDictionary
  0
ENDSEC
  0
EOF
