  0
SECTION
  2
ENTITIES
  0
ARC
  8
APS_GEOMETRY
 10
273.383908
 20
832.802772
 40
136.641677
 50
108.02797
 51
121.767753
  0
ARC
  8
APS_GEOMETRY
 10
249.925474
 20
870.42132
 40
92.308566
 50
121.681605
 51
139.975353
  0
ARC
  8
APS_GEOMETRY
 10
246.047889
 20
873.711746
 40
87.223111
 50
139.992407
 51
159.09205
  0
ARC
  8
APS_GEOMETRY
 10
282.469205
 20
860.036814
 40
126.126602
 50
159.193391
 51
173.600277
  0
ARC
  8
APS_GEOMETRY
 10
270.084316
 20
861.497249
 40
113.656125
 50
173.636
 51
182.820937
  0
ARC
  8
APS_GEOMETRY
 10
189.539605
 20
857.586682
 40
33.01661
 50
182.921866
 51
206.024082
  0
ARC
  8
APS_GEOMETRY
 10
176.185593
 20
851.21147
 40
18.219914
 50
206.433616
 51
239.309527
  0
ARC
  8
APS_GEOMETRY
 10
177.128763
 20
852.66927
 40
19.955037
 50
239.117138
 51
270.218961
  0
ARC
  8
APS_GEOMETRY
 10
177.254954
 20
861.649064
 40
28.934727
 50
269.901127
 51
293.495566
  0
ARC
  8
APS_GEOMETRY
 10
183.302865
 20
848.124181
 40
14.120855
 50
292.869031
 51
332.727152
  0
ARC
  8
APS_GEOMETRY
 10
180.568212
 20
849.34003
 40
17.109513
 50
333.304513
 51
8.953411
  0
ARC
  8
APS_GEOMETRY
 10
149.525858
 20
844.315679
 40
48.555749
 50
9.109135
 51
25.483282
  0
ARC
  8
APS_GEOMETRY
 10
205.681699
 20
871.074478
 40
13.649653
 50
191.956169
 51
205.460349
  0
ARC
  8
APS_GEOMETRY
 10
194.268256
 20
868.656501
 40
1.982892
 50
163.936787
 51
191.925089
  0
ARC
  8
APS_GEOMETRY
 10
194.422885
 20
868.603895
 40
2.146054
 50
137.190586
 51
163.729445
  0
ARC
  8
APS_GEOMETRY
 10
195.253871
 20
867.795808
 40
3.304945
 50
97.096237
 51
136.703066
  0
ARC
  8
APS_GEOMETRY
 10
198.987951
 20
840.400831
 40
30.953039
 50
89.996418
 51
97.690812
  0
ARC
  8
APS_GEOMETRY
 10
199.049942
 20
853.737675
 40
17.616298
 50
60.311771
 51
90.195328
  0
ARC
  8
APS_GEOMETRY
 10
186.111711
 20
831.351672
 40
43.472081
 50
44.996928
 51
60.11074
  0
ARC
  8
APS_GEOMETRY
 10
178.640021
 20
823.917113
 40
54.012398
 50
31.135496
 51
44.969676
  0
ARC
  8
APS_GEOMETRY
 10
171.4447
 20
819.615184
 40
62.395594
 50
18.755793
 51
31.100403
  0
ARC
  8
APS_GEOMETRY
 10
150.096621
 20
812.437644
 40
84.917899
 50
12.896521
 51
18.710071
  0
ARC
  8
APS_GEOMETRY
 10
214.52422
 20
827.181337
 40
18.824845
 50
355.15262
 51
12.920493
  0
ARC
  8
APS_GEOMETRY
 10
215.149204
 20
827.151268
 40
18.19957
 50
336.924201
 51
355.08068
  0
ARC
  8
APS_GEOMETRY
 10
162.737537
 20
849.382924
 40
75.131349
 50
330.645267
 51
336.992714
  0
ARC
  8
APS_GEOMETRY
 10
176.201999
 20
842.02829
 40
59.790653
 50
310.537154
 51
330.463026
  0
ARC
  8
APS_GEOMETRY
 10
187.552807
 20
828.913804
 40
42.446614
 50
284.363647
 51
310.398393
  0
ARC
  8
APS_GEOMETRY
 10
185.760664
 20
835.168258
 40
48.950493
 50
260.826904
 51
284.579657
  0
ARC
  8
APS_GEOMETRY
 10
191.539159
 20
871.586954
 40
85.824692
 50
245.322113
 51
260.894456
  0
LINE
  8
APS_GEOMETRY
 10
155.705942
 11
140.0
 20
793.600684
 21
800.846386
  0
LINE
  8
APS_GEOMETRY
 10
140.0
 11
140.0
 20
800.846386
 21
140.0
  0
LINE
  8
APS_GEOMETRY
 10
140.0
 11
329.930752
 20
140.0
 21
140.0
  0
ARC
  8
APS_GEOMETRY
 10
30.321548
 20
-13.356515
 40
336.576731
 50
27.105871
 51
27.905569
  0
ARC
  8
APS_GEOMETRY
 10
144.69479
 20
47.212351
 40
207.155613
 50
27.906273
 51
29.44782
  0
ARC
  8
APS_GEOMETRY
 10
22.539728
 20
-21.748731
 40
347.43209
 50
29.447225
 51
30.494335
  0
ARC
  8
APS_GEOMETRY
 10
365.179534
 20
180.119548
 40
50.252301
 50
195.637176
 51
210.576504
  0
ARC
  8
APS_GEOMETRY
 10
342.409118
 20
173.740106
 40
26.605123
 50
171.657686
 51
195.624943
  0
ARC
  8
APS_GEOMETRY
 10
341.010847
 20
173.866447
 40
25.203436
 50
146.812155
 51
171.480669
  0
ARC
  8
APS_GEOMETRY
 10
354.231962
 20
165.271024
 40
40.972964
 50
129.589521
 51
146.873274
  0
ARC
  8
APS_GEOMETRY
 10
353.227163
 20
166.555861
 40
39.342515
 50
116.611223
 51
129.654295
  0
ARC
  8
APS_GEOMETRY
 10
339.47316
 20
193.912413
 40
8.723155
 50
76.31517
 51
116.328404
  0
ARC
  8
APS_GEOMETRY
 10
340.720042
 20
198.960664
 40
3.523268
 50
52.332887
 51
76.594319
  0
ARC
  8
APS_GEOMETRY
 10
341.031056
 20
199.356753
 40
3.019685
 50
25.498979
 51
52.411667
  0
ARC
  8
APS_GEOMETRY
 10
341.336804
 20
199.511039
 40
2.677311
 50
356.152721
 51
25.335594
  0
ARC
  8
APS_GEOMETRY
 10
330.94309
 20
200.271583
 40
13.098776
 50
328.603762
 51
355.883971
  0
ARC
  8
APS_GEOMETRY
 10
354.147682
 20
186.06542
 40
14.109117
 50
148.450861
 51
187.462436
  0
ARC
  8
APS_GEOMETRY
 10
349.840069
 20
185.56255
 40
9.772867
 50
187.819159
 51
213.495002
  0
ARC
  8
APS_GEOMETRY
 10
350.972742
 20
186.326351
 40
11.138963
 50
213.556099
 51
237.072023
  0
ARC
  8
APS_GEOMETRY
 10
353.311144
 20
190.048555
 40
15.534448
 50
237.295473
 51
275.116019
  0
ARC
  8
APS_GEOMETRY
 10
352.704376
 20
199.057047
 40
24.561965
 50
274.651896
 51
301.50774
  0
ARC
  8
APS_GEOMETRY
 10
353.290837
 20
198.455279
 40
23.743148
 50
301.060079
 51
339.558271
  0
ARC
  8
APS_GEOMETRY
 10
314.809477
 20
212.02092
 40
64.543227
 50
340.204901
 51
358.295726
  0
ARC
  8
APS_GEOMETRY
 10
310.247993
 20
212.071583
 40
69.104254
 50
358.366219
 51
15.964924
  0
ARC
  8
APS_GEOMETRY
 10
342.855294
 20
221.206431
 40
35.242569
 50
16.267447
 51
45.589387
  0
ARC
  8
APS_GEOMETRY
 10
377.838098
 20
256.799293
 40
14.663989
 50
213.422925
 51
225.269021
  0
ARC
  8
APS_GEOMETRY
 10
373.561436
 20
253.983725
 40
9.543714
 50
197.210704
 51
213.457128
  0
ARC
  8
APS_GEOMETRY
 10
370.208251
 20
252.941841
 40
6.032396
 50
176.409507
 51
197.181552
  0
ARC
  8
APS_GEOMETRY
 10
366.526713
 20
253.148968
 40
2.345235
 50
133.561103
 51
175.827185
  0
ARC
  8
APS_GEOMETRY
 10
359.267959
 20
260.640387
 40
8.086142
 50
314.251531
 51
323.408253
  0
ARC
  8
APS_GEOMETRY
 10
365.578773
 20
255.956335
 40
0.226965
 50
323.132191
 51
352.389124
  0
ARC
  8
APS_GEOMETRY
 10
365.587526
 20
255.953983
 40
0.21798
 50
352.697346
 51
22.761092
  0
ARC
  8
APS_GEOMETRY
 10
365.563726
 20
255.943066
 40
0.244152
 50
22.962514
 51
50.816339
  0
ARC
  8
APS_GEOMETRY
 10
365.536728
 20
255.910517
 40
0.286439
 50
50.743929
 51
75.759732
  0
ARC
  8
APS_GEOMETRY
 10
365.301308
 20
255.004171
 40
1.222858
 50
75.514424
 51
112.946591
  0
ARC
  8
APS_GEOMETRY
 10
376.398279
 20
229.121556
 40
29.384034
 50
113.196028
 51
116.930205
  0
ARC
  8
APS_GEOMETRY
 10
357.385379
 20
266.679594
 40
12.712339
 50
266.817802
 51
296.663857
  0
ARC
  8
APS_GEOMETRY
 10
357.284759
 20
266.416944
 40
12.444805
 50
236.935347
 51
267.213221
  0
ARC
  8
APS_GEOMETRY
 10
415.276487
 20
354.365291
 40
117.791433
 50
225.022643
 51
236.635235
  0
ARC
  8
APS_GEOMETRY
 10
453.222642
 20
392.260995
 40
171.419717
 50
214.742621
 51
225.003636
  0
ARC
  8
APS_GEOMETRY
 10
517.357409
 20
436.598294
 40
249.388012
 50
207.00074
 51
214.71575
  0
ARC
  8
APS_GEOMETRY
 10
492.995566
 20
424.37967
 40
222.134382
 50
192.374504
 51
207.045497
  0
ARC
  8
APS_GEOMETRY
 10
554.231932
 20
437.599635
 40
284.781214
 50
180.188858
 51
192.332221
  0
ARC
  8
APS_GEOMETRY
 10
548.576149
 20
437.471877
 40
279.125062
 50
167.909427
 51
180.16646
  0
ARC
  8
APS_GEOMETRY
 10
470.794665
 20
453.94416
 40
199.618788
 50
152.050809
 51
167.856315
  0
ARC
  8
APS_GEOMETRY
 10
-74.401987
 20
742.541482
 40
417.250704
 50
332.131962
 51
334.489739
  0
ARC
  8
APS_GEOMETRY
 10
283.043164
 20
572.017458
 40
21.21353
 50
334.374793
 51
354.943977
  0
ARC
  8
APS_GEOMETRY
 10
302.765162
 20
570.267832
 40
1.414084
 50
355.135348
 51
26.056711
  0
ARC
  8
APS_GEOMETRY
 10
302.592454
 20
570.177566
 40
1.608897
 50
26.24285
 51
54.589015
  0
ARC
  8
APS_GEOMETRY
 10
302.428664
 20
569.953421
 40
1.886488
 50
54.479267
 51
79.945667
  0
ARC
  8
APS_GEOMETRY
 10
302.400864
 20
569.840637
 40
2.002409
 50
79.725846
 51
104.190992
  0
ARC
  8
APS_GEOMETRY
 10
305.82102
 20
556.166217
 40
16.098049
 50
104.060846
 51
126.068934
  0
ARC
  8
APS_GEOMETRY
 10
283.847135
 20
586.456979
 40
21.323681
 50
274.683214
 51
305.874829
  0
ARC
  8
APS_GEOMETRY
 10
271.618208
 20
725.465168
 40
160.868405
 50
267.922539
 51
274.981883
  0
ARC
  8
APS_GEOMETRY
 10
271.838112
 20
732.012874
 40
167.41978
 50
260.555569
 51
267.928562
  0
ARC
  8
APS_GEOMETRY
 10
258.655481
 20
653.059698
 40
87.37366
 50
248.617195
 51
260.587334
  0
ARC
  8
APS_GEOMETRY
 10
254.036121
 20
641.776605
 40
75.183264
 50
228.578393
 51
248.760164
  0
ARC
  8
APS_GEOMETRY
 10
281.116197
 20
672.149792
 40
115.875179
 50
214.00126
 51
228.473779
  0
ARC
  8
APS_GEOMETRY
 10
279.192812
 20
670.810884
 40
113.531917
 50
199.133804
 51
213.983895
  0
ARC
  8
APS_GEOMETRY
 10
248.278602
 20
660.065344
 40
80.80342
 50
180.042826
 51
199.120335
  0
ARC
  8
APS_GEOMETRY
 10
256.4679
 20
659.957327
 40
88.992708
 50
162.906697
 51
179.969342
  0
ARC
  8
APS_GEOMETRY
 10
251.980082
 20
661.235247
 40
84.327569
 50
144.992065
 51
162.840365
  0
ARC
  8
APS_GEOMETRY
 10
236.297998
 20
672.102581
 40
65.248394
 50
124.853228
 51
144.908188
  0
ARC
  8
APS_GEOMETRY
 10
213.892341
 20
703.970118
 40
26.293581
 50
84.597945
 51
124.471971
  0
ARC
  8
APS_GEOMETRY
 10
214.085851
 20
703.752221
 40
26.49315
 50
60.893416
 51
85.058952
  0
ARC
  8
APS_GEOMETRY
 10
211.483663
 20
699.077309
 40
31.843494
 50
40.036432
 51
60.894263
  0
ARC
  8
APS_GEOMETRY
 10
206.334785
 20
694.816146
 40
38.526788
 50
20.972418
 51
39.962603
  0
ARC
  8
APS_GEOMETRY
 10
186.362061
 20
687.277034
 40
59.874863
 50
7.294301
 51
20.868171
  0
ARC
  8
APS_GEOMETRY
 10
194.766341
 20
688.380243
 40
51.398536
 50
355.261249
 51
7.263954
  0
ARC
  8
APS_GEOMETRY
 10
201.718941
 20
687.825822
 40
44.423904
 50
341.828528
 51
355.233072
  0
ARC
  8
APS_GEOMETRY
 10
214.125672
 20
683.781457
 40
31.374656
 50
326.44647
 51
341.780089
  0
ARC
  8
APS_GEOMETRY
 10
236.063072
 20
669.272028
 40
5.073209
 50
296.472338
 51
326.068934
  0
ARC
  8
APS_GEOMETRY
 10
235.688646
 20
669.975888
 40
5.870215
 50
269.85672
 51
296.681323
  0
ARC
  8
APS_GEOMETRY
 10
235.670561
 20
666.085622
 40
1.979933
 50
246.532521
 51
270.098535
  0
ARC
  8
APS_GEOMETRY
 10
235.577856
 20
665.884269
 40
1.758324
 50
221.167115
 51
246.690635
  0
ARC
  8
APS_GEOMETRY
 10
257.821274
 20
685.093952
 40
31.148453
 50
214.554568
 51
220.834201
  0
ARC
  8
APS_GEOMETRY
 10
262.153506
 20
688.078112
 40
36.409009
 50
207.830218
 51
214.555374
  0
ARC
  8
APS_GEOMETRY
 10
281.535851
 20
698.297467
 40
58.320431
 50
203.104802
 51
207.819042
  0
ARC
  8
APS_GEOMETRY
 10
95.435195
 20
618.91439
 40
144.003881
 50
23.099673
 51
26.068581
  0
ARC
  8
APS_GEOMETRY
 10
221.000649
 20
680.281108
 40
4.245329
 50
26.817882
 51
64.731038
  0
ARC
  8
APS_GEOMETRY
 10
221.790778
 20
682.000068
 40
2.353647
 50
64.262541
 51
93.591487
  0
ARC
  8
APS_GEOMETRY
 10
221.772221
 20
682.054611
 40
2.298099
 50
93.214923
 51
123.020575
  0
ARC
  8
APS_GEOMETRY
 10
239.912672
 20
654.511433
 40
35.278396
 50
123.346908
 51
131.476418
  0
ARC
  8
APS_GEOMETRY
 10
224.076024
 20
672.365506
 40
11.412891
 50
131.274079
 51
153.104412
  0
ARC
  8
APS_GEOMETRY
 10
261.138015
 20
653.787388
 40
52.87045
 50
153.317922
 51
160.283567
  0
ARC
  8
APS_GEOMETRY
 10
269.444224
 20
650.815413
 40
61.69234
 50
160.287735
 51
167.109119
  0
ARC
  8
APS_GEOMETRY
 10
270.975032
 20
650.469564
 40
63.261723
 50
167.113089
 51
173.797813
  0
ARC
  8
APS_GEOMETRY
 10
336.812019
 20
643.32531
 40
129.485203
 50
173.802421
 51
178.674744
  0
ARC
  8
APS_GEOMETRY
 10
222.091324
 20
645.998648
 40
14.733378
 50
178.750031
 51
202.887635
  0
ARC
  8
APS_GEOMETRY
 10
223.163675
 20
646.485057
 40
15.910509
 50
202.999451
 51
225.935063
  0
ARC
  8
APS_GEOMETRY
 10
315.576285
 20
741.064843
 40
148.14282
 50
225.693119
 51
230.157258
  0
ARC
  8
APS_GEOMETRY
 10
273.556132
 20
690.938699
 40
82.734227
 50
230.260005
 51
244.995942
  0
ARC
  8
APS_GEOMETRY
 10
273.560054
 20
690.866848
 40
82.670775
 50
244.972431
 51
259.80837
  0
ARC
  8
APS_GEOMETRY
 10
273.500603
 20
690.167473
 40
81.971941
 50
259.762772
 51
274.597187
  0
ARC
  8
APS_GEOMETRY
 10
274.05708
 20
684.176924
 40
75.9561
 50
274.540956
 51
290.224657
  0
ARC
  8
APS_GEOMETRY
 10
279.225484
 20
670.15784
 40
61.014644
 50
290.221542
 51
303.222593
  0
ARC
  8
APS_GEOMETRY
 10
125.604118
 20
903.908644
 40
340.726867
 50
303.29679
 51
306.926856
  0
ARC
  8
APS_GEOMETRY
 10
-0.05259
 20
1071.037105
 40
549.823806
 50
306.931069
 51
309.187662
  0
ARC
  8
APS_GEOMETRY
 10
342.692068
 20
650.667025
 40
7.435758
 50
308.889675
 51
333.35353
  0
ARC
  8
APS_GEOMETRY
 10
343.404732
 20
650.294604
 40
6.631774
 50
333.467985
 51
359.886763
  0
ARC
  8
APS_GEOMETRY
 10
349.129817
 20
650.2792
 40
0.906679
 50
0.145171
 51
28.864342
  0
ARC
  8
APS_GEOMETRY
 10
349.02005
 20
650.216092
 40
1.033276
 50
28.990736
 51
55.292394
  0
ARC
  8
APS_GEOMETRY
 10
348.924259
 20
650.081285
 40
1.198641
 50
55.197324
 51
79.000919
  0
ARC
  8
APS_GEOMETRY
 10
344.5321
 20
627.909772
 40
23.801001
 50
78.805203
 51
87.006882
  0
ARC
  8
APS_GEOMETRY
 10
343.773849
 20
613.51336
 40
38.217367
 50
86.998645
 51
94.025074
  0
ARC
  8
APS_GEOMETRY
 10
346.517114
 20
574.516864
 40
77.310234
 50
94.024493
 51
98.171184
  0
ARC
  8
APS_GEOMETRY
 10
316.117509
 20
786.210001
 40
136.55449
 50
275.324032
 51
278.172358
  0
ARC
  8
APS_GEOMETRY
 10
327.430263
 20
664.810274
 40
14.628808
 50
260.617458
 51
275.326049
  0
ARC
  8
APS_GEOMETRY
 10
325.357158
 20
652.311949
 40
1.959734
 50
234.393556
 51
260.8463
  0
ARC
  8
APS_GEOMETRY
 10
325.180729
 20
652.071641
 40
1.661639
 50
204.952795
 51
234.515334
  0
ARC
  8
APS_GEOMETRY
 10
325.129362
 20
652.040326
 40
1.60187
 50
174.593633
 51
204.712396
  0
ARC
  8
APS_GEOMETRY
 10
325.177668
 20
652.026545
 40
1.651286
 50
144.766857
 51
174.27551
  0
ARC
  8
APS_GEOMETRY
 10
317.555743
 20
657.371848
 40
7.658183
 50
324.998957
 51
338.310339
  0
ARC
  8
APS_GEOMETRY
 10
323.961868
 20
654.825306
 40
0.764469
 50
338.210983
 51
14.176237
  0
ARC
  8
APS_GEOMETRY
 10
323.895784
 20
654.801817
 40
0.834319
 50
14.628759
 51
48.528872
  0
ARC
  8
APS_GEOMETRY
 10
323.647705
 20
654.526626
 40
1.204811
 50
48.355759
 51
74.790566
  0
ARC
  8
APS_GEOMETRY
 10
323.613505
 20
654.420135
 40
1.316554
 50
74.570173
 51
99.473456
  0
ARC
  8
APS_GEOMETRY
 10
325.533187
 20
642.887591
 40
13.00778
 50
99.452983
 51
108.733616
  0
ARC
  8
APS_GEOMETRY
 10
319.299941
 20
661.297006
 40
6.428272
 50
265.292439
 51
288.648886
  0
ARC
  8
APS_GEOMETRY
 10
320.388019
 20
674.778492
 40
19.95359
 50
255.309029
 51
265.355663
  0
ARC
  8
APS_GEOMETRY
 10
321.362089
 20
678.507222
 40
23.807449
 50
245.88489
 51
255.317215
  0
ARC
  8
APS_GEOMETRY
 10
321.036861
 20
677.789314
 40
23.019317
 50
236.258987
 51
245.89367
  0
ARC
  8
APS_GEOMETRY
 10
402.002042
 20
798.769934
 40
168.592902
 50
234.36711
 51
236.214912
  0
ARC
  8
APS_GEOMETRY
 10
304.952326
 20
663.430218
 40
2.053399
 50
192.184202
 51
235.238835
  0
ARC
  8
APS_GEOMETRY
 10
303.519336
 20
663.112945
 40
0.585776
 50
165.181723
 51
191.432421
  0
ARC
  8
APS_GEOMETRY
 10
303.559579
 20
663.100283
 40
0.627923
 50
139.950323
 51
165.003901
  0
ARC
  8
APS_GEOMETRY
 10
303.631772
 20
663.039349
 40
0.722393
 50
117.131711
 51
139.93515
  0
ARC
  8
APS_GEOMETRY
 10
303.674177
 20
662.959688
 40
0.812628
 50
96.15958
 51
117.231163
  0
ARC
  8
APS_GEOMETRY
 10
307.809886
 20
625.389186
 40
38.610069
 50
90.9473
 51
96.279177
  0
ARC
  8
APS_GEOMETRY
 10
307.031048
 20
676.607633
 40
12.614438
 50
270.638206
 51
305.070902
  0
ARC
  8
APS_GEOMETRY
 10
233.324352
 20
779.615776
 40
139.27634
 50
305.538736
 51
311.441099
  0
ARC
  8
APS_GEOMETRY
 10
236.205606
 20
776.354217
 40
134.924399
 50
311.440576
 51
317.453501
  0
ARC
  8
APS_GEOMETRY
 10
328.876933
 20
691.443483
 40
9.235736
 50
316.789151
 51
359.289573
  0
ARC
  8
APS_GEOMETRY
 10
335.455449
 20
691.323502
 40
2.656515
 50
0.117919
 51
39.229064
  0
ARC
  8
APS_GEOMETRY
 10
333.006563
 20
689.359925
 40
5.795357
 50
38.955246
 51
61.027511
  0
ARC
  8
APS_GEOMETRY
 10
331.271977
 20
686.271606
 40
9.33742
 50
60.895228
 51
77.64576
  0
ARC
  8
APS_GEOMETRY
 10
330.266215
 20
681.762958
 40
13.956863
 50
77.572592
 51
90.014997
  0
ARC
  8
APS_GEOMETRY
 10
330.160863
 20
714.726323
 40
19.006775
 50
235.266734
 51
270.30657
  0
ARC
  8
APS_GEOMETRY
 10
405.049861
 20
820.637005
 40
148.718956
 50
227.135494
 51
234.803855
  0
ARC
  8
APS_GEOMETRY
 10
397.816039
 20
812.864622
 40
138.101147
 50
218.640654
 51
227.141651
  0
ARC
  8
APS_GEOMETRY
 10
320.907705
 20
751.520633
 40
39.724651
 50
197.419664
 51
218.798962
  0
ARC
  8
APS_GEOMETRY
 10
371.695262
 20
767.190541
 40
92.874387
 50
187.716294
 51
197.263624
  0
ARC
  8
APS_GEOMETRY
 10
371.347751
 20
767.126206
 40
92.521387
 50
178.142448
 51
187.705709
  0
ARC
  8
APS_GEOMETRY
 10
360.013898
 20
767.476464
 40
81.182138
 50
168.002508
 51
178.130231
  0
ARC
  8
APS_GEOMETRY
 10
323.062245
 20
775.281147
 40
43.415306
 50
151.714048
 51
167.94062
  0
ARC
  8
APS_GEOMETRY
 10
314.986191
 20
779.566534
 40
34.272899
 50
132.544967
 51
151.624887
  0
ARC
  8
APS_GEOMETRY
 10
316.207194
 20
778.236302
 40
36.078549
 50
114.012574
 51
132.545139
  0
ARC
  8
APS_GEOMETRY
 10
314.178887
 20
782.839859
 40
31.048014
 50
94.182865
 51
114.050568
  0
ARC
  8
APS_GEOMETRY
 10
313.236309
 20
796.679821
 40
17.176306
 50
63.489441
 51
94.414429
  0
ARC
  8
APS_GEOMETRY
 10
176.634269
 20
526.33547
 40
320.072416
 50
60.772761
 51
63.208936
  0
ARC
  8
APS_GEOMETRY
 10
329.594866
 20
799.539911
 40
6.963407
 50
23.344043
 51
61.500168
  0
ARC
  8
APS_GEOMETRY
 10
332.350379
 20
800.772339
 40
3.945302
 50
353.934814
 51
22.767954
  0
ARC
  8
APS_GEOMETRY
 10
332.222637
 20
800.805754
 40
4.075908
 50
325.449386
 51
353.657452
  0
ARC
  8
APS_GEOMETRY
 10
253.952953
 20
854.147272
 40
98.79366
 50
320.111816
 51
325.713827
  0
ARC
  8
APS_GEOMETRY
 10
360.412396
 20
764.911055
 40
40.11931
 50
139.82734
 51
166.580926
  0
ARC
  8
APS_GEOMETRY
 10
355.586396
 20
766.205379
 40
35.124966
 50
166.807678
 51
196.219114
  0
ARC
  8
APS_GEOMETRY
 10
348.512425
 20
764.353775
 40
27.816064
 50
196.626816
 51
230.13557
  0
ARC
  8
APS_GEOMETRY
 10
344.904649
 20
760.142855
 40
22.271539
 50
230.315932
 51
270.44687
  0
ARC
  8
APS_GEOMETRY
 10
345.221343
 20
776.845001
 40
38.97327
 50
269.789782
 51
300.452779
  0
ARC
  8
APS_GEOMETRY
 10
334.551849
 20
794.80326
 40
59.861813
 50
300.544527
 51
322.562184
  0
ARC
  8
APS_GEOMETRY
 10
324.43318
 20
802.404157
 40
72.516851
 50
322.653776
 51
342.765243
  0
ARC
  8
APS_GEOMETRY
 10
308.257514
 20
807.255269
 40
89.403676
 50
342.867369
 51
359.969103
  0
ARC
  8
APS_GEOMETRY
 10
231.055858
 20
807.197876
 40
166.605319
 50
0.003158
 51
7.987248
  0
ARC
  8
APS_GEOMETRY
 10
106.069117
 20
789.664577
 40
292.815866
 50
7.986458
 51
13.224233
  0
ARC
  8
APS_GEOMETRY
 10
112.374214
 20
791.137575
 40
286.340999
 50
13.22592
 51
18.458755
  0
ARC
  8
APS_GEOMETRY
 10
267.125984
 20
842.733613
 40
123.214501
 50
18.484928
 51
28.333543
  0
ARC
  8
APS_GEOMETRY
 10
289.369548
 20
854.670359
 40
97.970515
 50
28.362876
 51
40.21674
  0
ARC
  8
APS_GEOMETRY
 10
202.339106
 20
781.291142
 40
211.80722
 50
40.173195
 51
46.861247
  0
ARC
  8
APS_GEOMETRY
 10
200.419178
 20
779.245592
 40
214.612642
 50
46.860635
 51
53.380202
  0
ARC
  8
APS_GEOMETRY
 10
280.506083
 20
886.837276
 40
80.486372
 50
53.451378
 51
67.067813
  0
ARC
  8
APS_GEOMETRY
 10
277.180559
 20
879.106719
 40
88.901733
 50
67.035233
 51
79.349033
  0
ARC
  8
APS_GEOMETRY
 10
270.01864
 20
841.408754
 40
127.273938
 50
79.31708
 51
88.751001
  0
ARC
  8
APS_GEOMETRY
 10
269.835885
 20
834.394496
 40
134.290517
 50
88.738279
 51
97.927094
  0
ARC
  8
APS_GEOMETRY
 10
267.433357
 20
851.406293
 40
117.109944
 50
97.910741
 51
108.07642
  0
LINE
  8
APS_GEOMETRY
 10
467.475459
 11
382.525097
 20
140.0
 21
140.0
  0
ARC
  8
APS_GEOMETRY
 10
383.246786
 20
140.071604
 40
0.725232
 50
160.151553
 51
185.666197
  0
ARC
  8
APS_GEOMETRY
 10
383.308703
 20
140.047194
 40
0.791762
 50
135.95704
 51
160.011394
  0
ARC
  8
APS_GEOMETRY
 10
383.39394
 20
139.964979
 40
0.910187
 50
114.060926
 51
135.967033
  0
ARC
  8
APS_GEOMETRY
 10
411.294854
 20
78.153215
 40
68.727251
 50
110.515626
 51
114.290628
  0
ARC
  8
APS_GEOMETRY
 10
380.707943
 20
160.461374
 40
19.081261
 50
289.918183
 51
325.214286
  0
ARC
  8
APS_GEOMETRY
 10
314.501695
 20
205.126017
 40
98.943449
 50
325.844656
 51
336.195824
  0
ARC
  8
APS_GEOMETRY
 10
305.578228
 20
209.041267
 40
108.688042
 50
336.20607
 51
346.688847
  0
ARC
  8
APS_GEOMETRY
 10
334.155816
 20
202.270816
 40
79.319395
 50
346.695259
 51
359.940281
  0
ARC
  8
APS_GEOMETRY
 10
250.448007
 20
202.312206
 40
163.027208
 50
359.956398
 51
6.449852
  0
ARC
  8
APS_GEOMETRY
 10
333.78114
 20
211.706849
 40
79.166198
 50
6.468617
 51
17.628083
  0
ARC
  8
APS_GEOMETRY
 10
334.378498
 20
211.874253
 40
78.546197
 50
17.643663
 51
28.823313
  0
ARC
  8
APS_GEOMETRY
 10
270.023919
 20
176.536376
 40
151.964691
 50
28.798387
 51
35.643683
  0
LINE
  8
APS_GEOMETRY
 10
393.519044
 11
381.340301
 20
265.092693
 21
282.089874
  0
LINE
  8
APS_GEOMETRY
 10
381.340301
 11
389.588742
 20
282.089874
 21
288.891433
  0
ARC
  8
APS_GEOMETRY
 10
372.959513
 20
309.137525
 40
26.199914
 50
309.398142
 51
323.964098
  0
ARC
  8
APS_GEOMETRY
 10
388.678051
 20
297.758201
 40
6.794926
 50
323.582817
 51
3.033272
  0
ARC
  8
APS_GEOMETRY
 10
392.013928
 20
297.904123
 40
3.456138
 50
3.543932
 51
33.900905
  0
ARC
  8
APS_GEOMETRY
 10
391.54701
 20
297.582196
 40
4.023245
 50
33.997366
 51
61.401494
  0
ARC
  8
APS_GEOMETRY
 10
388.839638
 20
292.649658
 40
9.649939
 50
61.306451
 51
90.176995
  0
ARC
  8
APS_GEOMETRY
 10
388.774328
 20
312.442236
 40
10.142747
 50
240.040918
 51
270.20054
  0
ARC
  8
APS_GEOMETRY
 10
409.045543
 20
347.112281
 40
50.303944
 50
230.594612
 51
239.757256
  0
ARC
  8
APS_GEOMETRY
 10
407.345717
 20
345.046113
 40
47.628415
 50
221.215015
 51
230.596778
  0
ARC
  8
APS_GEOMETRY
 10
375.940163
 20
317.624515
 40
5.936462
 50
178.568025
 51
221.842521
  0
ARC
  8
APS_GEOMETRY
 10
372.808331
 20
317.648956
 40
2.805514
 50
130.982501
 51
177.46857
  0
ARC
  8
APS_GEOMETRY
 10
413.84707
 20
271.924663
 40
64.245289
 50
127.066781
 51
131.868351
  0
ARC
  8
APS_GEOMETRY
 10
420.12213
 20
263.613482
 40
74.659323
 50
121.88554
 51
127.064904
  0
ARC
  8
APS_GEOMETRY
 10
443.0804
 20
226.736093
 40
118.09921
 50
118.211174
 51
121.892555
  0
ARC
  8
APS_GEOMETRY
 10
352.25222
 20
396.37455
 40
74.324804
 50
298.093136
 51
313.809487
  0
ARC
  8
APS_GEOMETRY
 10
367.813354
 20
380.245898
 40
51.913281
 50
313.738453
 51
334.123566
  0
ARC
  8
APS_GEOMETRY
 10
361.265518
 20
383.316808
 40
59.144932
 50
334.215277
 51
353.236953
  0
ARC
  8
APS_GEOMETRY
 10
294.57515
 20
391.057324
 40
126.282908
 50
353.31274
 51
4.074888
  0
ARC
  8
APS_GEOMETRY
 10
190.2434
 20
383.614133
 40
230.879824
 50
4.077502
 51
9.208624
  0
ARC
  8
APS_GEOMETRY
 10
362.106242
 20
411.429099
 40
56.780715
 50
9.255727
 51
23.832356
  0
ARC
  8
APS_GEOMETRY
 10
385.639302
 20
421.744835
 40
31.086169
 50
23.966323
 51
44.656258
  0
ARC
  8
APS_GEOMETRY
 10
388.91428
 20
424.921518
 40
26.523855
 50
44.747273
 51
68.302268
  0
ARC
  8
APS_GEOMETRY
 10
383.680309
 20
412.225512
 40
40.255721
 50
68.061319
 51
76.260401
  0
ARC
  8
APS_GEOMETRY
 10
389.90786
 20
437.669427
 40
14.060777
 50
76.285574
 51
94.289726
  0
ARC
  8
APS_GEOMETRY
 10
389.897241
 20
437.522383
 40
14.206631
 50
94.202661
 51
112.103638
  0
ARC
  8
APS_GEOMETRY
 10
400.514965
 20
411.516513
 40
42.296494
 50
112.17381
 51
120.081814
  0
ARC
  8
APS_GEOMETRY
 10
396.12734
 20
418.998509
 40
33.62304
 50
120.002726
 51
134.535608
  0
ARC
  8
APS_GEOMETRY
 10
377.80125
 20
437.501762
 40
7.581088
 50
133.887091
 51
177.413264
  0
ARC
  8
APS_GEOMETRY
 10
374.503749
 20
437.704132
 40
4.278146
 50
178.127676
 51
209.627159
  0
ARC
  8
APS_GEOMETRY
 10
375.072053
 20
438.04292
 40
4.939651
 50
209.784342
 51
238.374632
  0
ARC
  8
APS_GEOMETRY
 10
380.623541
 20
446.97341
 40
15.454975
 50
238.210604
 51
262.961974
  0
ARC
  8
APS_GEOMETRY
 10
376.912459
 20
416.400364
 40
15.342545
 50
48.686575
 51
83.197009
  0
ARC
  8
APS_GEOMETRY
 10
376.741117
 20
416.226701
 40
15.586107
 50
15.012217
 51
48.634931
  0
ARC
  8
APS_GEOMETRY
 10
368.804351
 20
414.274338
 40
23.758316
 50
348.257534
 51
14.602022
  0
ARC
  8
APS_GEOMETRY
 10
343.790236
 20
419.512338
 40
49.314957
 50
332.925979
 51
348.213754
  0
ARC
  8
APS_GEOMETRY
 10
321.442143
 20
430.893111
 40
74.393999
 50
322.692264
 51
332.955152
  0
ARC
  8
APS_GEOMETRY
 10
353.526408
 20
406.545714
 40
34.117682
 50
304.053393
 51
322.557207
  0
ARC
  8
APS_GEOMETRY
 10
355.576512
 20
403.513025
 40
30.457063
 50
284.421188
 51
304.052745
  0
ARC
  8
APS_GEOMETRY
 10
351.692048
 20
418.261555
 40
45.708389
 50
269.976129
 51
284.532721
  0
ARC
  8
APS_GEOMETRY
 10
351.498482
 20
408.309066
 40
35.756321
 50
236.364943
 51
270.279655
  0
ARC
  8
APS_GEOMETRY
 10
357.788263
 20
417.658447
 40
47.024406
 50
208.99747
 51
236.294116
  0
ARC
  8
APS_GEOMETRY
 10
380.352709
 20
429.818578
 40
72.655707
 50
187.315209
 51
208.758653
  0
ARC
  8
APS_GEOMETRY
 10
459.880168
 20
439.741456
 40
152.79959
 50
174.945169
 51
187.208734
  0
ARC
  8
APS_GEOMETRY
 10
484.331092
 20
437.533586
 40
177.349959
 50
164.607941
 51
174.930652
  0
ARC
  8
APS_GEOMETRY
 10
508.559645
 20
430.839825
 40
202.486164
 50
155.233774
 51
164.601471
  0
ARC
  8
APS_GEOMETRY
 10
558.162812
 20
407.960187
 40
257.111725
 50
147.045487
 51
155.234739
  0
ARC
  8
APS_GEOMETRY
 10
731.973046
 20
295.431106
 40
464.169164
 50
141.783565
 51
147.060871
  0
LINE
  8
APS_GEOMETRY
 10
367.28486
 11
387.442349
 20
582.581832
 21
608.194742
  0
LINE
  8
APS_GEOMETRY
 10
387.442349
 11
391.784569
 20
608.194742
 21
589.607194
  0
ARC
  8
APS_GEOMETRY
 10
507.322598
 20
616.6325
 40
118.656662
 50
193.165261
 51
201.121922
  0
ARC
  8
APS_GEOMETRY
 10
516.864398
 20
620.324465
 40
128.887817
 50
201.124367
 51
208.621079
  0
ARC
  8
APS_GEOMETRY
 10
504.994392
 20
613.859249
 40
115.37131
 50
208.626392
 51
216.361457
  0
ARC
  8
APS_GEOMETRY
 10
450.626544
 20
573.926537
 40
47.914135
 50
216.452264
 51
231.442081
  0
ARC
  8
APS_GEOMETRY
 10
448.522056
 20
571.184187
 40
44.457983
 50
231.360041
 51
239.526066
  0
ARC
  8
APS_GEOMETRY
 10
427.761998
 20
535.931693
 40
3.546911
 50
239.753684
 51
265.753895
  0
ARC
  8
APS_GEOMETRY
 10
427.785217
 20
536.027509
 40
3.644219
 50
265.501382
 51
291.032266
  0
ARC
  8
APS_GEOMETRY
 10
426.454471
 20
539.590048
 40
7.447101
 50
290.751575
 51
320.701075
  0
ARC
  8
APS_GEOMETRY
 10
200.258298
 20
721.473245
 40
297.698798
 50
321.184999
 51
323.281543
  0
ARC
  8
APS_GEOMETRY
 10
347.866879
 20
611.439405
 40
113.590862
 50
323.255589
 51
331.029516
  0
ARC
  8
APS_GEOMETRY
 10
312.49103
 20
630.986775
 40
154.008056
 50
331.041873
 51
337.211572
  0
ARC
  8
APS_GEOMETRY
 10
328.067219
 20
624.438913
 40
137.111543
 50
337.213089
 51
343.615737
  0
ARC
  8
APS_GEOMETRY
 10
419.067322
 20
597.705008
 40
42.265779
 50
343.587483
 51
358.946924
  0
ARC
  8
APS_GEOMETRY
 10
501.429543
 20
596.206855
 40
40.110068
 50
171.267132
 51
178.969498
  0
ARC
  8
APS_GEOMETRY
 10
462.709771
 20
602.150628
 40
0.936754
 50
142.860971
 51
171.030248
  0
ARC
  8
APS_GEOMETRY
 10
462.82997
 20
602.058433
 40
1.088237
 50
117.344576
 51
142.812245
  0
ARC
  8
APS_GEOMETRY
 10
462.902174
 20
601.925103
 40
1.239838
 50
94.1479
 51
117.47824
  0
ARC
  8
APS_GEOMETRY
 10
462.908425
 20
601.895631
 40
1.269692
 50
71.372678
 51
94.333052
  0
ARC
  8
APS_GEOMETRY
 10
460.970421
 20
596.071316
 40
7.407965
 50
46.207625
 51
71.557277
  0
ARC
  8
APS_GEOMETRY
 10
-192.039441
 20
-77.034089
 40
945.220593
 50
45.06501
 51
45.870837
  0
ARC
  8
APS_GEOMETRY
 10
347.842447
 20
463.939493
 40
180.940002
 50
37.420774
 51
45.095168
  0
ARC
  8
APS_GEOMETRY
 10
236.535123
 20
378.904764
 40
321.012196
 50
32.421456
 51
37.40233
  0
ARC
  8
APS_GEOMETRY
 10
226.068672
 20
372.264479
 40
333.407354
 50
27.476632
 51
32.420378
  0
ARC
  8
APS_GEOMETRY
 10
293.969579
 20
407.560454
 40
256.880634
 50
21.481554
 51
27.479761
  0
ARC
  8
APS_GEOMETRY
 10
374.989114
 20
439.412467
 40
169.824823
 50
12.458521
 51
21.491696
  0
ARC
  8
APS_GEOMETRY
 10
382.266139
 20
441.043202
 40
162.367352
 50
3.124903
 51
12.450602
  0
ARC
  8
APS_GEOMETRY
 10
395.035756
 20
441.766989
 40
149.57727
 50
353.398094
 51
3.114712
  0
ARC
  8
APS_GEOMETRY
 10
430.759469
 20
437.674792
 40
113.61997
 50
341.420208
 51
353.376863
  0
ARC
  8
APS_GEOMETRY
 10
482.348578
 20
420.502545
 40
59.248351
 50
319.684595
 51
341.265154
  0
ARC
  8
APS_GEOMETRY
 10
499.013572
 20
406.622087
 40
37.561326
 50
288.664321
 51
319.381967
  0
ARC
  8
APS_GEOMETRY
 10
499.863757
 20
403.550701
 40
34.379844
 50
256.774441
 51
288.960035
  0
ARC
  8
APS_GEOMETRY
 10
502.054982
 20
413.737652
 40
44.798361
 50
230.755166
 51
257.02706
  0
ARC
  8
APS_GEOMETRY
 10
513.579687
 20
427.404591
 40
62.674277
 50
217.832321
 51
230.500004
  0
ARC
  8
APS_GEOMETRY
 10
486.279142
 20
406.285594
 40
28.158738
 50
195.090749
 51
217.964347
  0
ARC
  8
APS_GEOMETRY
 10
481.883126
 20
405.04353
 40
23.591014
 50
169.411251
 51
194.957816
  0
ARC
  8
APS_GEOMETRY
 10
496.49481
 20
402.26018
 40
38.46538
 50
151.581298
 51
169.335381
  0
ARC
  8
APS_GEOMETRY
 10
528.123788
 20
385.278458
 40
74.364739
 50
146.102115
 51
151.671658
  0
ARC
  8
APS_GEOMETRY
 10
475.786738
 20
420.384305
 40
11.34434
 50
123.414332
 51
145.848963
  0
ARC
  8
APS_GEOMETRY
 10
473.173587
 20
424.315755
 40
6.623703
 50
91.614106
 51
123.274068
  0
ARC
  8
APS_GEOMETRY
 10
473.47497
 20
416.2782
 40
14.666749
 50
74.366487
 51
91.90656
  0
ARC
  8
APS_GEOMETRY
 10
507.087679
 20
536.002321
 40
109.6863
 50
254.311337
 51
257.109801
  0
ARC
  8
APS_GEOMETRY
 10
482.821608
 20
429.970852
 40
0.913534
 50
257.153302
 51
277.964777
  0
ARC
  8
APS_GEOMETRY
 10
482.828676
 20
429.935576
 40
0.877622
 50
277.826924
 51
299.205986
  0
ARC
  8
APS_GEOMETRY
 10
482.879818
 20
429.846739
 40
0.775125
 50
299.11045
 51
322.347902
  0
ARC
  8
APS_GEOMETRY
 10
482.958954
 20
429.785197
 40
0.674877
 50
322.380472
 51
347.882976
  0
ARC
  8
APS_GEOMETRY
 10
481.750329
 20
430.029637
 40
1.907941
 50
348.324634
 51
36.029323
  0
ARC
  8
APS_GEOMETRY
 10
161.123158
 20
202.017397
 40
395.34317
 50
35.421273
 51
36.512836
  0
ARC
  8
APS_GEOMETRY
 10
455.905772
 20
420.141024
 40
28.635377
 50
36.683698
 51
54.621971
  0
ARC
  8
APS_GEOMETRY
 10
452.974042
 20
416.05493
 40
33.664362
 50
54.579991
 51
70.602635
  0
ARC
  8
APS_GEOMETRY
 10
453.408687
 20
417.359976
 40
32.289049
 50
70.561014
 51
86.770874
  0
ARC
  8
APS_GEOMETRY
 10
453.979102
 20
428.129437
 40
21.504588
 50
86.671963
 51
108.656561
  0
ARC
  8
APS_GEOMETRY
 10
453.591486
 20
429.06238
 40
20.496787
 50
108.464227
 51
133.902109
  0
ARC
  8
APS_GEOMETRY
 10
451.457741
 20
431.265116
 40
17.430063
 50
133.869308
 51
162.23817
  0
ARC
  8
APS_GEOMETRY
 10
538.204266
 20
404.066152
 40
108.340418
 50
162.534596
 51
177.190748
  0
ARC
  8
APS_GEOMETRY
 10
555.04133
 20
403.322103
 40
125.193741
 50
177.228298
 51
191.377858
  0
ARC
  8
APS_GEOMETRY
 10
499.95771
 20
392.400918
 40
69.038324
 50
191.510858
 51
213.692346
  0
ARC
  8
APS_GEOMETRY
 10
518.669996
 20
404.600841
 40
91.375466
 50
213.548348
 51
222.405767
  0
ARC
  8
APS_GEOMETRY
 10
500.454031
 20
388.009888
 40
66.736483
 50
222.434847
 51
233.702381
  0
ARC
  8
APS_GEOMETRY
 10
489.816431
 20
373.54951
 40
48.784857
 50
233.71783
 51
246.473376
  0
ARC
  8
APS_GEOMETRY
 10
475.181927
 20
340.033169
 40
12.212906
 50
246.656882
 51
282.474063
  0
ARC
  8
APS_GEOMETRY
 10
486.276321
 20
289.795
 40
39.235704
 50
99.685073
 51
102.446569
  0
ARC
  8
APS_GEOMETRY
 10
480.384578
 20
324.309955
 40
4.221495
 50
85.44559
 51
99.668372
  0
ARC
  8
APS_GEOMETRY
 10
480.704747
 20
328.324787
 40
0.193917
 50
64.955745
 51
85.551096
  0
ARC
  8
APS_GEOMETRY
 10
480.713515
 20
328.342832
 40
0.173858
 50
42.8955
 51
65.056215
  0
ARC
  8
APS_GEOMETRY
 10
480.73015
 20
328.358276
 40
0.151159
 50
18.556242
 51
42.898843
  0
ARC
  8
APS_GEOMETRY
 10
480.741427
 20
328.362449
 40
0.13914
 50
352.669721
 51
18.405182
  0
ARC
  8
APS_GEOMETRY
 10
480.73655
 20
328.36357
 40
0.144122
 50
327.34027
 51
352.474825
  0
ARC
  8
APS_GEOMETRY
 10
479.919209
 20
328.893392
 40
1.118162
 50
297.383762
 51
327.085394
  0
ARC
  8
APS_GEOMETRY
 10
481.215876
 20
326.35738
 40
1.730144
 50
116.884905
 51
160.624988
  0
ARC
  8
APS_GEOMETRY
 10
487.184115
 20
324.390847
 40
8.013755
 50
161.517292
 51
175.433082
  0
ARC
  8
APS_GEOMETRY
 10
490.701763
 20
324.116081
 40
11.542115
 50
175.463828
 51
187.452945
  0
ARC
  8
APS_GEOMETRY
 10
496.01747
 20
324.813668
 40
16.903399
 50
187.460344
 51
196.477195
  0
ARC
  8
APS_GEOMETRY
 10
472.562623
 20
317.875833
 40
7.556025
 50
334.33384
 51
16.479708
  0
ARC
  8
APS_GEOMETRY
 10
452.108638
 20
327.605151
 40
30.206039
 50
319.393742
 51
334.504203
  0
ARC
  8
APS_GEOMETRY
 10
445.022786
 20
333.668204
 40
39.531801
 50
306.152973
 51
319.406506
  0
ARC
  8
APS_GEOMETRY
 10
449.324734
 20
327.806748
 40
32.261098
 50
290.579384
 51
306.12516
  0
ARC
  8
APS_GEOMETRY
 10
462.730299
 20
292.056162
 40
5.920246
 50
110.420668
 51
134.284723
  0
ARC
  8
APS_GEOMETRY
 10
459.607417
 20
295.251006
 40
1.45266
 50
134.091969
 51
167.515736
  0
ARC
  8
APS_GEOMETRY
 10
459.508585
 20
295.283623
 40
1.349155
 50
167.960833
 51
203.097001
  0
ARC
  8
APS_GEOMETRY
 10
462.84594
 20
296.72765
 40
4.985506
 50
203.31616
 51
232.657892
  0
ARC
  8
APS_GEOMETRY
 10
498.830014
 20
343.127589
 40
63.7034
 50
232.241099
 51
236.805934
  0
LINE
  8
APS_GEOMETRY
 10
463.953896
 11
472.700118
 20
289.819244
 21
284.094814
  0
LINE
  8
APS_GEOMETRY
 10
472.700118
 11
459.047303
 20
284.094814
 21
266.527798
  0
ARC
  8
APS_GEOMETRY
 10
564.49713
 20
184.474248
 40
133.613064
 50
142.112486
 51
150.573664
  0
ARC
  8
APS_GEOMETRY
 10
517.451539
 20
210.973216
 40
79.61787
 50
150.549621
 51
162.968315
  0
ARC
  8
APS_GEOMETRY
 10
510.565023
 20
213.107004
 40
72.408392
 50
162.986627
 51
176.144872
  0
ARC
  8
APS_GEOMETRY
 10
535.673763
 20
211.457919
 40
97.571201
 50
176.170008
 51
186.681846
  0
ARC
  8
APS_GEOMETRY
 10
546.093257
 20
212.69384
 40
108.06373
 50
186.689882
 51
195.602427
  0
ARC
  8
APS_GEOMETRY
 10
569.568437
 20
219.252629
 40
132.437933
 50
195.603814
 51
203.270726
  0
ARC
  8
APS_GEOMETRY
 10
557.913353
 20
214.250057
 40
119.754613
 50
203.275052
 51
210.927348
  0
ARC
  8
APS_GEOMETRY
 10
478.92162
 20
167.06139
 40
27.74155
 50
211.17208
 51
233.967646
  0
ARC
  8
APS_GEOMETRY
 10
445.908426
 20
121.881282
 40
28.214928
 50
47.172243
 51
53.723077
  0
ARC
  8
APS_GEOMETRY
 10
449.317339
 20
125.554838
 40
23.203372
 50
39.621863
 51
47.179228
  0
ARC
  8
APS_GEOMETRY
 10
453.305978
 20
128.81015
 40
18.055109
 50
38.298676
 51
39.736604
  0
ARC
  8
APS_GEOMETRY
 10
576.616648
 20
832.802772
 40
136.641677
 50
58.232247
 51
71.97203
  0
ARC
  8
APS_GEOMETRY
 10
600.075082
 20
870.42132
 40
92.308566
 50
40.024647
 51
58.318395
  0
ARC
  8
APS_GEOMETRY
 10
603.952667
 20
873.711746
 40
87.223111
 50
20.90795
 51
40.007593
  0
ARC
  8
APS_GEOMETRY
 10
567.531351
 20
860.036814
 40
126.126602
 50
6.399723
 51
20.806609
  0
ARC
  8
APS_GEOMETRY
 10
579.91624
 20
861.497249
 40
113.656125
 50
357.179063
 51
6.364
  0
ARC
  8
APS_GEOMETRY
 10
660.460951
 20
857.586682
 40
33.01661
 50
333.975918
 51
357.078134
  0
ARC
  8
APS_GEOMETRY
 10
673.814963
 20
851.21147
 40
18.219914
 50
300.690473
 51
333.566384
  0
ARC
  8
APS_GEOMETRY
 10
672.871793
 20
852.66927
 40
19.955037
 50
269.781039
 51
300.882862
  0
ARC
  8
APS_GEOMETRY
 10
672.745602
 20
861.649064
 40
28.934727
 50
246.504434
 51
270.098873
  0
ARC
  8
APS_GEOMETRY
 10
666.697691
 20
848.124181
 40
14.120855
 50
207.272848
 51
247.130969
  0
ARC
  8
APS_GEOMETRY
 10
669.432344
 20
849.34003
 40
17.109513
 50
171.046589
 51
206.695487
  0
ARC
  8
APS_GEOMETRY
 10
700.474698
 20
844.315679
 40
48.555749
 50
154.516718
 51
170.890865
  0
ARC
  8
APS_GEOMETRY
 10
644.318857
 20
871.074478
 40
13.649653
 50
334.539651
 51
348.043831
  0
ARC
  8
APS_GEOMETRY
 10
655.7323
 20
868.656501
 40
1.982892
 50
348.074911
 51
16.063213
  0
ARC
  8
APS_GEOMETRY
 10
655.577671
 20
868.603895
 40
2.146054
 50
16.270555
 51
42.809414
  0
ARC
  8
APS_GEOMETRY
 10
654.746685
 20
867.795808
 40
3.304945
 50
43.296934
 51
82.903763
  0
ARC
  8
APS_GEOMETRY
 10
651.012605
 20
840.400831
 40
30.953039
 50
82.309188
 51
90.003582
  0
ARC
  8
APS_GEOMETRY
 10
650.950614
 20
853.737675
 40
17.616298
 50
89.804672
 51
119.688229
  0
ARC
  8
APS_GEOMETRY
 10
663.888845
 20
831.351672
 40
43.472081
 50
119.88926
 51
135.003072
  0
ARC
  8
APS_GEOMETRY
 10
671.360535
 20
823.917113
 40
54.012398
 50
135.030324
 51
148.864504
  0
ARC
  8
APS_GEOMETRY
 10
678.555856
 20
819.615184
 40
62.395594
 50
148.899597
 51
161.244207
  0
ARC
  8
APS_GEOMETRY
 10
699.903935
 20
812.437644
 40
84.917899
 50
161.289929
 51
167.103479
  0
ARC
  8
APS_GEOMETRY
 10
635.476336
 20
827.181337
 40
18.824845
 50
167.079507
 51
184.84738
  0
ARC
  8
APS_GEOMETRY
 10
634.851352
 20
827.151268
 40
18.19957
 50
184.91932
 51
203.075799
  0
ARC
  8
APS_GEOMETRY
 10
687.263019
 20
849.382924
 40
75.131349
 50
203.007286
 51
209.354733
  0
ARC
  8
APS_GEOMETRY
 10
673.798557
 20
842.02829
 40
59.790653
 50
209.536974
 51
229.462846
  0
ARC
  8
APS_GEOMETRY
 10
662.447749
 20
828.913804
 40
42.446614
 50
229.601607
 51
255.636353
  0
ARC
  8
APS_GEOMETRY
 10
664.239892
 20
835.168258
 40
48.950493
 50
255.420343
 51
279.173096
  0
ARC
  8
APS_GEOMETRY
 10
658.461397
 20
871.586954
 40
85.824692
 50
279.105544
 51
294.677887
  0
LINE
  8
APS_GEOMETRY
 10
694.294614
 11
710.000556
 20
793.600684
 21
800.846386
  0
LINE
  8
APS_GEOMETRY
 10
710.000556
 11
710.000556
 20
800.846386
 21
140.0
  0
LINE
  8
APS_GEOMETRY
 10
710.000556
 11
520.069804
 20
140.0
 21
140.0
  0
ARC
  8
APS_GEOMETRY
 10
819.679008
 20
-13.356515
 40
336.576731
 50
152.094431
 51
152.894129
  0
ARC
  8
APS_GEOMETRY
 10
705.305766
 20
47.212351
 40
207.155613
 50
150.55218
 51
152.093727
  0
ARC
  8
APS_GEOMETRY
 10
827.460828
 20
-21.748731
 40
347.43209
 50
149.505665
 51
150.552775
  0
ARC
  8
APS_GEOMETRY
 10
484.821022
 20
180.119548
 40
50.252301
 50
329.423496
 51
344.362824
  0
ARC
  8
APS_GEOMETRY
 10
507.591438
 20
173.740106
 40
26.605123
 50
344.375057
 51
8.342314
  0
ARC
  8
APS_GEOMETRY
 10
508.989709
 20
173.866447
 40
25.203436
 50
8.519331
 51
33.187845
  0
ARC
  8
APS_GEOMETRY
 10
495.768594
 20
165.271024
 40
40.972964
 50
33.126726
 51
50.410479
  0
ARC
  8
APS_GEOMETRY
 10
496.773393
 20
166.555861
 40
39.342515
 50
50.345705
 51
63.388777
  0
ARC
  8
APS_GEOMETRY
 10
510.527396
 20
193.912413
 40
8.723155
 50
63.671596
 51
103.68483
  0
ARC
  8
APS_GEOMETRY
 10
509.280514
 20
198.960664
 40
3.523268
 50
103.405681
 51
127.667113
  0
ARC
  8
APS_GEOMETRY
 10
508.9695
 20
199.356753
 40
3.019685
 50
127.588333
 51
154.501021
  0
ARC
  8
APS_GEOMETRY
 10
508.663752
 20
199.511039
 40
2.677311
 50
154.664406
 51
183.847279
  0
ARC
  8
APS_GEOMETRY
 10
519.057466
 20
200.271583
 40
13.098776
 50
184.116029
 51
211.396238
  0
ARC
  8
APS_GEOMETRY
 10
495.852874
 20
186.06542
 40
14.109117
 50
352.537564
 51
31.549139
  0
ARC
  8
APS_GEOMETRY
 10
500.160487
 20
185.56255
 40
9.772867
 50
326.504998
 51
352.180841
  0
ARC
  8
APS_GEOMETRY
 10
499.027814
 20
186.326351
 40
11.138963
 50
302.927977
 51
326.443901
  0
ARC
  8
APS_GEOMETRY
 10
496.689412
 20
190.048555
 40
15.534448
 50
264.883981
 51
302.704527
  0
ARC
  8
APS_GEOMETRY
 10
497.29618
 20
199.057047
 40
24.561965
 50
238.49226
 51
265.348104
  0
ARC
  8
APS_GEOMETRY
 10
496.709719
 20
198.455279
 40
23.743148
 50
200.441729
 51
238.939921
  0
ARC
  8
APS_GEOMETRY
 10
535.191079
 20
212.02092
 40
64.543227
 50
181.704274
 51
199.795099
  0
ARC
  8
APS_GEOMETRY
 10
539.752563
 20
212.071583
 40
69.104254
 50
164.035076
 51
181.633781
  0
ARC
  8
APS_GEOMETRY
 10
507.145262
 20
221.206431
 40
35.242569
 50
134.410613
 51
163.732553
  0
ARC
  8
APS_GEOMETRY
 10
472.162458
 20
256.799293
 40
14.663989
 50
314.730979
 51
326.577075
  0
ARC
  8
APS_GEOMETRY
 10
476.43912
 20
253.983725
 40
9.543714
 50
326.542872
 51
342.789296
  0
ARC
  8
APS_GEOMETRY
 10
479.792305
 20
252.941841
 40
6.032396
 50
342.818448
 51
3.590493
  0
ARC
  8
APS_GEOMETRY
 10
483.473843
 20
253.148968
 40
2.345235
 50
4.172815
 51
46.438897
  0
ARC
  8
APS_GEOMETRY
 10
490.732597
 20
260.640387
 40
8.086142
 50
216.591747
 51
225.748469
  0
ARC
  8
APS_GEOMETRY
 10
484.421783
 20
255.956335
 40
0.226965
 50
187.610876
 51
216.867809
  0
ARC
  8
APS_GEOMETRY
 10
484.41303
 20
255.953983
 40
0.21798
 50
157.238908
 51
187.302654
  0
ARC
  8
APS_GEOMETRY
 10
484.43683
 20
255.943066
 40
0.244152
 50
129.183661
 51
157.037486
  0
ARC
  8
APS_GEOMETRY
 10
484.463828
 20
255.910517
 40
0.286439
 50
104.240268
 51
129.256071
  0
ARC
  8
APS_GEOMETRY
 10
484.699248
 20
255.004171
 40
1.222858
 50
67.053409
 51
104.485576
  0
ARC
  8
APS_GEOMETRY
 10
473.602277
 20
229.121556
 40
29.384034
 50
63.069795
 51
66.803972
  0
ARC
  8
APS_GEOMETRY
 10
492.615177
 20
266.679594
 40
12.712339
 50
243.336143
 51
273.182198
  0
ARC
  8
APS_GEOMETRY
 10
492.715797
 20
266.416944
 40
12.444805
 50
272.786779
 51
303.064653
  0
ARC
  8
APS_GEOMETRY
 10
434.724069
 20
354.365291
 40
117.791433
 50
303.364765
 51
314.977357
  0
ARC
  8
APS_GEOMETRY
 10
396.777914
 20
392.260995
 40
171.419717
 50
314.996364
 51
325.257379
  0
ARC
  8
APS_GEOMETRY
 10
332.643147
 20
436.598294
 40
249.388012
 50
325.28425
 51
332.99926
  0
ARC
  8
APS_GEOMETRY
 10
357.00499
 20
424.37967
 40
222.134382
 50
332.954503
 51
347.625496
  0
ARC
  8
APS_GEOMETRY
 10
295.768624
 20
437.599635
 40
284.781214
 50
347.667779
 51
359.811142
  0
ARC
  8
APS_GEOMETRY
 10
301.424407
 20
437.471877
 40
279.125062
 50
359.83354
 51
12.090573
  0
ARC
  8
APS_GEOMETRY
 10
379.205891
 20
453.94416
 40
199.618788
 50
12.143685
 51
27.949191
  0
ARC
  8
APS_GEOMETRY
 10
924.402543
 20
742.541482
 40
417.250704
 50
205.510261
 51
207.868038
  0
ARC
  8
APS_GEOMETRY
 10
566.957392
 20
572.017458
 40
21.21353
 50
185.056023
 51
205.625207
  0
ARC
  8
APS_GEOMETRY
 10
547.235394
 20
570.267832
 40
1.414084
 50
153.943289
 51
184.864652
  0
ARC
  8
APS_GEOMETRY
 10
547.408102
 20
570.177566
 40
1.608897
 50
125.410985
 51
153.75715
  0
ARC
  8
APS_GEOMETRY
 10
547.571892
 20
569.953421
 40
1.886488
 50
100.054333
 51
125.520733
  0
ARC
  8
APS_GEOMETRY
 10
547.599692
 20
569.840637
 40
2.002409
 50
75.809008
 51
100.274154
  0
ARC
  8
APS_GEOMETRY
 10
544.179536
 20
556.166217
 40
16.098049
 50
53.931066
 51
75.939154
  0
ARC
  8
APS_GEOMETRY
 10
566.153421
 20
586.456979
 40
21.323681
 50
234.125171
 51
265.316786
  0
ARC
  8
APS_GEOMETRY
 10
578.382348
 20
725.465168
 40
160.868405
 50
265.018117
 51
272.077461
  0
ARC
  8
APS_GEOMETRY
 10
578.162444
 20
732.012874
 40
167.41978
 50
272.071438
 51
279.444431
  0
ARC
  8
APS_GEOMETRY
 10
591.345075
 20
653.059698
 40
87.37366
 50
279.412666
 51
291.382805
  0
ARC
  8
APS_GEOMETRY
 10
595.964435
 20
641.776605
 40
75.183264
 50
291.239836
 51
311.421607
  0
ARC
  8
APS_GEOMETRY
 10
568.884359
 20
672.149792
 40
115.875179
 50
311.526221
 51
325.99874
  0
ARC
  8
APS_GEOMETRY
 10
570.807744
 20
670.810884
 40
113.531917
 50
326.016105
 51
340.866196
  0
ARC
  8
APS_GEOMETRY
 10
601.721954
 20
660.065344
 40
80.80342
 50
340.879665
 51
359.957174
  0
ARC
  8
APS_GEOMETRY
 10
593.532656
 20
659.957327
 40
88.992708
 50
0.030658
 51
17.093303
  0
ARC
  8
APS_GEOMETRY
 10
598.020474
 20
661.235247
 40
84.327569
 50
17.159635
 51
35.007935
  0
ARC
  8
APS_GEOMETRY
 10
613.702558
 20
672.102581
 40
65.248394
 50
35.091812
 51
55.146772
  0
ARC
  8
APS_GEOMETRY
 10
636.108215
 20
703.970118
 40
26.293581
 50
55.528029
 51
95.402055
  0
ARC
  8
APS_GEOMETRY
 10
635.914705
 20
703.752221
 40
26.49315
 50
94.941048
 51
119.106584
  0
ARC
  8
APS_GEOMETRY
 10
638.516893
 20
699.077309
 40
31.843494
 50
119.105737
 51
139.963568
  0
ARC
  8
APS_GEOMETRY
 10
643.665771
 20
694.816146
 40
38.526788
 50
140.037397
 51
159.027582
  0
ARC
  8
APS_GEOMETRY
 10
663.638495
 20
687.277034
 40
59.874863
 50
159.131829
 51
172.705699
  0
ARC
  8
APS_GEOMETRY
 10
655.234215
 20
688.380243
 40
51.398536
 50
172.736046
 51
184.738751
  0
ARC
  8
APS_GEOMETRY
 10
648.281615
 20
687.825822
 40
44.423904
 50
184.766928
 51
198.171472
  0
ARC
  8
APS_GEOMETRY
 10
635.874884
 20
683.781457
 40
31.374656
 50
198.219911
 51
213.55353
  0
ARC
  8
APS_GEOMETRY
 10
613.937484
 20
669.272028
 40
5.073209
 50
213.931066
 51
243.527662
  0
ARC
  8
APS_GEOMETRY
 10
614.31191
 20
669.975888
 40
5.870215
 50
243.318677
 51
270.14328
  0
ARC
  8
APS_GEOMETRY
 10
614.329995
 20
666.085622
 40
1.979933
 50
269.901465
 51
293.467479
  0
ARC
  8
APS_GEOMETRY
 10
614.4227
 20
665.884269
 40
1.758324
 50
293.309365
 51
318.832885
  0
ARC
  8
APS_GEOMETRY
 10
592.179282
 20
685.093952
 40
31.148453
 50
319.165799
 51
325.445432
  0
ARC
  8
APS_GEOMETRY
 10
587.84705
 20
688.078112
 40
36.409009
 50
325.444626
 51
332.169782
  0
ARC
  8
APS_GEOMETRY
 10
568.464705
 20
698.297467
 40
58.320431
 50
332.180958
 51
336.895198
  0
ARC
  8
APS_GEOMETRY
 10
754.565361
 20
618.91439
 40
144.003881
 50
153.931419
 51
156.900327
  0
ARC
  8
APS_GEOMETRY
 10
628.999907
 20
680.281108
 40
4.245329
 50
115.268962
 51
153.182118
  0
ARC
  8
APS_GEOMETRY
 10
628.209778
 20
682.000068
 40
2.353647
 50
86.408513
 51
115.737459
  0
ARC
  8
APS_GEOMETRY
 10
628.228335
 20
682.054611
 40
2.298099
 50
56.979425
 51
86.785077
  0
ARC
  8
APS_GEOMETRY
 10
610.087884
 20
654.511433
 40
35.278396
 50
48.523582
 51
56.653092
  0
ARC
  8
APS_GEOMETRY
 10
625.924532
 20
672.365506
 40
11.412891
 50
26.895588
 51
48.725921
  0
ARC
  8
APS_GEOMETRY
 10
588.862541
 20
653.787388
 40
52.87045
 50
19.716433
 51
26.682078
  0
ARC
  8
APS_GEOMETRY
 10
580.556332
 20
650.815413
 40
61.69234
 50
12.890881
 51
19.712265
  0
ARC
  8
APS_GEOMETRY
 10
579.025524
 20
650.469564
 40
63.261723
 50
6.202187
 51
12.886911
  0
ARC
  8
APS_GEOMETRY
 10
513.188537
 20
643.32531
 40
129.485203
 50
1.325256
 51
6.197579
  0
ARC
  8
APS_GEOMETRY
 10
627.909232
 20
645.998648
 40
14.733378
 50
337.112365
 51
1.249969
  0
ARC
  8
APS_GEOMETRY
 10
626.836881
 20
646.485057
 40
15.910509
 50
314.064937
 51
337.000549
  0
ARC
  8
APS_GEOMETRY
 10
534.424271
 20
741.064843
 40
148.14282
 50
309.842742
 51
314.306881
  0
ARC
  8
APS_GEOMETRY
 10
576.444424
 20
690.938699
 40
82.734227
 50
295.004058
 51
309.739995
  0
ARC
  8
APS_GEOMETRY
 10
576.440502
 20
690.866848
 40
82.670775
 50
280.19163
 51
295.027569
  0
ARC
  8
APS_GEOMETRY
 10
576.499953
 20
690.167473
 40
81.971941
 50
265.402813
 51
280.237228
  0
ARC
  8
APS_GEOMETRY
 10
575.943476
 20
684.176924
 40
75.9561
 50
249.775343
 51
265.459044
  0
ARC
  8
APS_GEOMETRY
 10
570.775072
 20
670.15784
 40
61.014644
 50
236.777407
 51
249.778458
  0
ARC
  8
APS_GEOMETRY
 10
724.396438
 20
903.908644
 40
340.726867
 50
233.073144
 51
236.70321
  0
ARC
  8
APS_GEOMETRY
 10
850.053146
 20
1071.037105
 40
549.823806
 50
230.812338
 51
233.068931
  0
ARC
  8
APS_GEOMETRY
 10
507.308488
 20
650.667025
 40
7.435758
 50
206.64647
 51
231.110325
  0
ARC
  8
APS_GEOMETRY
 10
506.595824
 20
650.294604
 40
6.631774
 50
180.113237
 51
206.532015
  0
ARC
  8
APS_GEOMETRY
 10
500.870739
 20
650.2792
 40
0.906679
 50
151.135658
 51
179.854829
  0
ARC
  8
APS_GEOMETRY
 10
500.980506
 20
650.216092
 40
1.033276
 50
124.707606
 51
151.009264
  0
ARC
  8
APS_GEOMETRY
 10
501.076297
 20
650.081285
 40
1.198641
 50
100.999081
 51
124.802676
  0
ARC
  8
APS_GEOMETRY
 10
505.468456
 20
627.909772
 40
23.801001
 50
92.993118
 51
101.194797
  0
ARC
  8
APS_GEOMETRY
 10
506.226707
 20
613.51336
 40
38.217367
 50
85.974926
 51
93.001355
  0
ARC
  8
APS_GEOMETRY
 10
503.483442
 20
574.516864
 40
77.310234
 50
81.828816
 51
85.975507
  0
ARC
  8
APS_GEOMETRY
 10
533.883047
 20
786.210001
 40
136.55449
 50
261.827642
 51
264.675968
  0
ARC
  8
APS_GEOMETRY
 10
522.570293
 20
664.810274
 40
14.628808
 50
264.673951
 51
279.382542
  0
ARC
  8
APS_GEOMETRY
 10
524.643398
 20
652.311949
 40
1.959734
 50
279.1537
 51
305.606444
  0
ARC
  8
APS_GEOMETRY
 10
524.819827
 20
652.071641
 40
1.661639
 50
305.484666
 51
335.047205
  0
ARC
  8
APS_GEOMETRY
 10
524.871194
 20
652.040326
 40
1.60187
 50
335.287604
 51
5.406367
  0
ARC
  8
APS_GEOMETRY
 10
524.822888
 20
652.026545
 40
1.651286
 50
5.72449
 51
35.233143
  0
ARC
  8
APS_GEOMETRY
 10
532.444813
 20
657.371848
 40
7.658183
 50
201.689661
 51
215.001043
  0
ARC
  8
APS_GEOMETRY
 10
526.038688
 20
654.825306
 40
0.764469
 50
165.823763
 51
201.789017
  0
ARC
  8
APS_GEOMETRY
 10
526.104772
 20
654.801817
 40
0.834319
 50
131.471128
 51
165.371241
  0
ARC
  8
APS_GEOMETRY
 10
526.352851
 20
654.526626
 40
1.204811
 50
105.209434
 51
131.644241
  0
ARC
  8
APS_GEOMETRY
 10
526.387051
 20
654.420135
 40
1.316554
 50
80.526544
 51
105.429827
  0
ARC
  8
APS_GEOMETRY
 10
524.467369
 20
642.887591
 40
13.00778
 50
71.266384
 51
80.547017
  0
ARC
  8
APS_GEOMETRY
 10
530.700615
 20
661.297006
 40
6.428272
 50
251.351114
 51
274.707561
  0
ARC
  8
APS_GEOMETRY
 10
529.612537
 20
674.778492
 40
19.95359
 50
274.644337
 51
284.690971
  0
ARC
  8
APS_GEOMETRY
 10
528.638467
 20
678.507222
 40
23.807449
 50
284.682785
 51
294.11511
  0
ARC
  8
APS_GEOMETRY
 10
528.963695
 20
677.789314
 40
23.019317
 50
294.10633
 51
303.741013
  0
ARC
  8
APS_GEOMETRY
 10
447.998514
 20
798.769934
 40
168.592902
 50
303.785088
 51
305.63289
  0
ARC
  8
APS_GEOMETRY
 10
545.04823
 20
663.430218
 40
2.053399
 50
304.761165
 51
347.815798
  0
ARC
  8
APS_GEOMETRY
 10
546.48122
 20
663.112945
 40
0.585776
 50
348.567579
 51
14.818277
  0
ARC
  8
APS_GEOMETRY
 10
546.440977
 20
663.100283
 40
0.627923
 50
14.996099
 51
40.049677
  0
ARC
  8
APS_GEOMETRY
 10
546.368784
 20
663.039349
 40
0.722393
 50
40.06485
 51
62.868289
  0
ARC
  8
APS_GEOMETRY
 10
546.326379
 20
662.959688
 40
0.812628
 50
62.768837
 51
83.84042
  0
ARC
  8
APS_GEOMETRY
 10
542.19067
 20
625.389186
 40
38.610069
 50
83.720823
 51
89.0527
  0
ARC
  8
APS_GEOMETRY
 10
542.969508
 20
676.607633
 40
12.614438
 50
234.929098
 51
269.361794
  0
ARC
  8
APS_GEOMETRY
 10
616.676204
 20
779.615776
 40
139.27634
 50
228.558901
 51
234.461264
  0
ARC
  8
APS_GEOMETRY
 10
613.79495
 20
776.354217
 40
134.924399
 50
222.546499
 51
228.559424
  0
ARC
  8
APS_GEOMETRY
 10
521.123623
 20
691.443483
 40
9.235736
 50
180.710427
 51
223.210849
  0
ARC
  8
APS_GEOMETRY
 10
514.545107
 20
691.323502
 40
2.656515
 50
140.770936
 51
179.882081
  0
ARC
  8
APS_GEOMETRY
 10
516.993993
 20
689.359925
 40
5.795357
 50
118.972489
 51
141.044754
  0
ARC
  8
APS_GEOMETRY
 10
518.728579
 20
686.271606
 40
9.33742
 50
102.35424
 51
119.104772
  0
ARC
  8
APS_GEOMETRY
 10
519.734341
 20
681.762958
 40
13.956863
 50
89.985003
 51
102.427408
  0
ARC
  8
APS_GEOMETRY
 10
519.839693
 20
714.726323
 40
19.006775
 50
269.69343
 51
304.733266
  0
ARC
  8
APS_GEOMETRY
 10
444.950695
 20
820.637005
 40
148.718956
 50
305.196145
 51
312.864506
  0
ARC
  8
APS_GEOMETRY
 10
452.184517
 20
812.864622
 40
138.101147
 50
312.858349
 51
321.359346
  0
ARC
  8
APS_GEOMETRY
 10
529.092851
 20
751.520633
 40
39.724651
 50
321.201038
 51
342.580336
  0
ARC
  8
APS_GEOMETRY
 10
478.305294
 20
767.190541
 40
92.874387
 50
342.736376
 51
352.283706
  0
ARC
  8
APS_GEOMETRY
 10
478.652805
 20
767.126206
 40
92.521387
 50
352.294291
 51
1.857552
  0
ARC
  8
APS_GEOMETRY
 10
489.986658
 20
767.476464
 40
81.182138
 50
1.869769
 51
11.997492
  0
ARC
  8
APS_GEOMETRY
 10
526.938311
 20
775.281147
 40
43.415306
 50
12.05938
 51
28.285952
  0
ARC
  8
APS_GEOMETRY
 10
535.014365
 20
779.566534
 40
34.272899
 50
28.375113
 51
47.455033
  0
ARC
  8
APS_GEOMETRY
 10
533.793362
 20
778.236302
 40
36.078549
 50
47.454861
 51
65.987426
  0
ARC
  8
APS_GEOMETRY
 10
535.821669
 20
782.839859
 40
31.048014
 50
65.949432
 51
85.817135
  0
ARC
  8
APS_GEOMETRY
 10
536.764247
 20
796.679821
 40
17.176306
 50
85.585571
 51
116.510559
  0
ARC
  8
APS_GEOMETRY
 10
673.366287
 20
526.33547
 40
320.072416
 50
116.791064
 51
119.227239
  0
ARC
  8
APS_GEOMETRY
 10
520.40569
 20
799.539911
 40
6.963407
 50
118.499832
 51
156.655957
  0
ARC
  8
APS_GEOMETRY
 10
517.650177
 20
800.772339
 40
3.945302
 50
157.232046
 51
186.065186
  0
ARC
  8
APS_GEOMETRY
 10
517.777919
 20
800.805754
 40
4.075908
 50
186.342548
 51
214.550614
  0
ARC
  8
APS_GEOMETRY
 10
596.047603
 20
854.147272
 40
98.79366
 50
214.286173
 51
219.888184
  0
ARC
  8
APS_GEOMETRY
 10
489.58816
 20
764.911055
 40
40.11931
 50
13.419074
 51
40.17266
  0
ARC
  8
APS_GEOMETRY
 10
494.41416
 20
766.205379
 40
35.124966
 50
343.780886
 51
13.192322
  0
ARC
  8
APS_GEOMETRY
 10
501.488131
 20
764.353775
 40
27.816064
 50
309.86443
 51
343.373184
  0
ARC
  8
APS_GEOMETRY
 10
505.095907
 20
760.142855
 40
22.271539
 50
269.55313
 51
309.684068
  0
ARC
  8
APS_GEOMETRY
 10
504.779213
 20
776.845001
 40
38.97327
 50
239.547221
 51
270.210218
  0
ARC
  8
APS_GEOMETRY
 10
515.448707
 20
794.80326
 40
59.861813
 50
217.437816
 51
239.455473
  0
ARC
  8
APS_GEOMETRY
 10
525.567376
 20
802.404157
 40
72.516851
 50
197.234757
 51
217.346224
  0
ARC
  8
APS_GEOMETRY
 10
541.743042
 20
807.255269
 40
89.403676
 50
180.030897
 51
197.132631
  0
ARC
  8
APS_GEOMETRY
 10
618.944698
 20
807.197876
 40
166.605319
 50
172.012752
 51
179.996842
  0
ARC
  8
APS_GEOMETRY
 10
743.931439
 20
789.664577
 40
292.815866
 50
166.775767
 51
172.013542
  0
ARC
  8
APS_GEOMETRY
 10
737.626342
 20
791.137575
 40
286.340999
 50
161.541245
 51
166.77408
  0
ARC
  8
APS_GEOMETRY
 10
582.874572
 20
842.733613
 40
123.214501
 50
151.666457
 51
161.515072
  0
ARC
  8
APS_GEOMETRY
 10
560.631008
 20
854.670359
 40
97.970515
 50
139.78326
 51
151.637124
  0
ARC
  8
APS_GEOMETRY
 10
647.66145
 20
781.291142
 40
211.80722
 50
133.138753
 51
139.826805
  0
ARC
  8
APS_GEOMETRY
 10
649.581378
 20
779.245592
 40
214.612642
 50
126.619798
 51
133.139365
  0
ARC
  8
APS_GEOMETRY
 10
569.494473
 20
886.837276
 40
80.486372
 50
112.932187
 51
126.548622
  0
ARC
  8
APS_GEOMETRY
 10
572.819997
 20
879.106719
 40
88.901733
 50
100.650967
 51
112.964767
  0
ARC
  8
APS_GEOMETRY
 10
579.981916
 20
841.408754
 40
127.273938
 50
91.248999
 51
100.68292
  0
ARC
  8
APS_GEOMETRY
 10
580.164671
 20
834.394496
 40
134.290517
 50
82.072906
 51
91.261721
  0
ARC
  8
APS_GEOMETRY
 10
582.567199
 20
851.406293
 40
117.109944
 50
71.92358
 51
82.089259
  0
ARC
  8
APS_GEOMETRY
 10
273.383908
 20
1137.196752
 40
136.641677
 50
238.232247
 51
251.97203
  0
ARC
  8
APS_GEOMETRY
 10
249.925474
 20
1099.578204
 40
92.308566
 50
220.024647
 51
238.318395
  0
ARC
  8
APS_GEOMETRY
 10
246.047889
 20
1096.287778
 40
87.223111
 50
200.90795
 51
220.007593
  0
ARC
  8
APS_GEOMETRY
 10
282.469205
 20
1109.962709
 40
126.126602
 50
186.399723
 51
200.806609
  0
ARC
  8
APS_GEOMETRY
 10
270.084316
 20
1108.502275
 40
113.656125
 50
177.179063
 51
186.364
  0
ARC
  8
APS_GEOMETRY
 10
189.539605
 20
1112.412841
 40
33.01661
 50
153.975918
 51
177.078134
  0
ARC
  8
APS_GEOMETRY
 10
176.185593
 20
1118.788054
 40
18.219914
 50
120.690473
 51
153.566384
  0
ARC
  8
APS_GEOMETRY
 10
177.128763
 20
1117.330253
 40
19.955037
 50
89.781039
 51
120.882862
  0
ARC
  8
APS_GEOMETRY
 10
177.254954
 20
1108.35046
 40
28.934727
 50
66.504434
 51
90.098873
  0
ARC
  8
APS_GEOMETRY
 10
183.302865
 20
1121.875342
 40
14.120855
 50
27.272848
 51
67.130969
  0
ARC
  8
APS_GEOMETRY
 10
180.568212
 20
1120.659494
 40
17.109513
 50
351.046589
 51
26.695487
  0
ARC
  8
APS_GEOMETRY
 10
149.525858
 20
1125.683845
 40
48.555749
 50
334.516718
 51
350.890865
  0
ARC
  8
APS_GEOMETRY
 10
205.681699
 20
1098.925045
 40
13.649653
 50
154.539651
 51
168.043831
  0
ARC
  8
APS_GEOMETRY
 10
194.268256
 20
1101.343023
 40
1.982892
 50
168.074911
 51
196.063213
  0
ARC
  8
APS_GEOMETRY
 10
194.422885
 20
1101.395628
 40
2.146054
 50
196.270555
 51
222.809414
  0
ARC
  8
APS_GEOMETRY
 10
195.253871
 20
1102.203715
 40
3.304945
 50
223.296934
 51
262.903763
  0
ARC
  8
APS_GEOMETRY
 10
198.987951
 20
1129.598692
 40
30.953039
 50
262.309188
 51
270.003582
  0
ARC
  8
APS_GEOMETRY
 10
199.049942
 20
1116.261849
 40
17.616298
 50
269.804672
 51
299.688229
  0
ARC
  8
APS_GEOMETRY
 10
186.111711
 20
1138.647852
 40
43.472081
 50
299.88926
 51
315.003072
  0
ARC
  8
APS_GEOMETRY
 10
178.640021
 20
1146.08241
 40
54.012398
 50
315.030324
 51
328.864504
  0
ARC
  8
APS_GEOMETRY
 10
171.4447
 20
1150.38434
 40
62.395594
 50
328.899597
 51
341.244207
  0
ARC
  8
APS_GEOMETRY
 10
150.096621
 20
1157.561879
 40
84.917899
 50
341.289929
 51
347.103479
  0
ARC
  8
APS_GEOMETRY
 10
214.52422
 20
1142.818187
 40
18.824845
 50
347.079507
 51
4.84738
  0
ARC
  8
APS_GEOMETRY
 10
215.149204
 20
1142.848255
 40
18.19957
 50
4.91932
 51
23.075799
  0
ARC
  8
APS_GEOMETRY
 10
162.737537
 20
1120.6166
 40
75.131349
 50
23.007286
 51
29.354733
  0
ARC
  8
APS_GEOMETRY
 10
176.201999
 20
1127.971234
 40
59.790653
 50
29.536974
 51
49.462846
  0
ARC
  8
APS_GEOMETRY
 10
187.552807
 20
1141.08572
 40
42.446614
 50
49.601607
 51
75.636353
  0
ARC
  8
APS_GEOMETRY
 10
185.760664
 20
1134.831265
 40
48.950493
 50
75.420343
 51
99.173096
  0
ARC
  8
APS_GEOMETRY
 10
191.539159
 20
1098.412569
 40
85.824692
 50
99.105544
 51
114.677887
  0
LINE
  8
APS_GEOMETRY
 10
155.705942
 11
140.0
 20
1176.39884
 21
1169.153138
  0
LINE
  8
APS_GEOMETRY
 10
140.0
 11
140.0
 20
1169.153138
 21
1829.999524
  0
LINE
  8
APS_GEOMETRY
 10
140.0
 11
329.930752
 20
1829.999524
 21
1829.999524
  0
ARC
  8
APS_GEOMETRY
 10
30.321548
 20
1983.356038
 40
336.576731
 50
332.094431
 51
332.894129
  0
ARC
  8
APS_GEOMETRY
 10
144.69479
 20
1922.787172
 40
207.155613
 50
330.55218
 51
332.093727
  0
ARC
  8
APS_GEOMETRY
 10
22.539728
 20
1991.748254
 40
347.43209
 50
329.505665
 51
330.552775
  0
ARC
  8
APS_GEOMETRY
 10
365.179534
 20
1789.879975
 40
50.252301
 50
149.423496
 51
164.362824
  0
ARC
  8
APS_GEOMETRY
 10
342.409118
 20
1796.259417
 40
26.605123
 50
164.375057
 51
188.342314
  0
ARC
  8
APS_GEOMETRY
 10
341.010847
 20
1796.133076
 40
25.203436
 50
188.519331
 51
213.187845
  0
ARC
  8
APS_GEOMETRY
 10
354.231962
 20
1804.7285
 40
40.972964
 50
213.126726
 51
230.410479
  0
ARC
  8
APS_GEOMETRY
 10
353.227163
 20
1803.443663
 40
39.342515
 50
230.345705
 51
243.388777
  0
ARC
  8
APS_GEOMETRY
 10
339.47316
 20
1776.087111
 40
8.723155
 50
243.671596
 51
283.68483
  0
ARC
  8
APS_GEOMETRY
 10
340.720042
 20
1771.038859
 40
3.523268
 50
283.405681
 51
307.667113
  0
ARC
  8
APS_GEOMETRY
 10
341.031056
 20
1770.642771
 40
3.019685
 50
307.588333
 51
334.501021
  0
ARC
  8
APS_GEOMETRY
 10
341.336804
 20
1770.488485
 40
2.677311
 50
334.664406
 51
3.847279
  0
ARC
  8
APS_GEOMETRY
 10
330.94309
 20
1769.727941
 40
13.098776
 50
4.116029
 51
31.396238
  0
ARC
  8
APS_GEOMETRY
 10
354.147682
 20
1783.934104
 40
14.109117
 50
172.537564
 51
211.549139
  0
ARC
  8
APS_GEOMETRY
 10
349.840069
 20
1784.436973
 40
9.772867
 50
146.504998
 51
172.180841
  0
ARC
  8
APS_GEOMETRY
 10
350.972742
 20
1783.673172
 40
11.138963
 50
122.927977
 51
146.443901
  0
ARC
  8
APS_GEOMETRY
 10
353.311144
 20
1779.950969
 40
15.534448
 50
84.883981
 51
122.704527
  0
ARC
  8
APS_GEOMETRY
 10
352.704376
 20
1770.942477
 40
24.561965
 50
58.49226
 51
85.348104
  0
ARC
  8
APS_GEOMETRY
 10
353.290837
 20
1771.544244
 40
23.743148
 50
20.441729
 51
58.939921
  0
ARC
  8
APS_GEOMETRY
 10
314.809477
 20
1757.978604
 40
64.543227
 50
1.704274
 51
19.795099
  0
ARC
  8
APS_GEOMETRY
 10
310.247993
 20
1757.927941
 40
69.104254
 50
344.035076
 51
1.633781
  0
ARC
  8
APS_GEOMETRY
 10
342.855294
 20
1748.793093
 40
35.242569
 50
314.410613
 51
343.732553
  0
ARC
  8
APS_GEOMETRY
 10
377.838098
 20
1713.20023
 40
14.663989
 50
134.730979
 51
146.577075
  0
ARC
  8
APS_GEOMETRY
 10
373.561436
 20
1716.015799
 40
9.543714
 50
146.542872
 51
162.789296
  0
ARC
  8
APS_GEOMETRY
 10
370.208251
 20
1717.057683
 40
6.032396
 50
162.818448
 51
183.590493
  0
ARC
  8
APS_GEOMETRY
 10
366.526713
 20
1716.850556
 40
2.345235
 50
184.172815
 51
226.438897
  0
ARC
  8
APS_GEOMETRY
 10
359.267959
 20
1709.359136
 40
8.086142
 50
36.591747
 51
45.748469
  0
ARC
  8
APS_GEOMETRY
 10
365.578773
 20
1714.043188
 40
0.226965
 50
7.610876
 51
36.867809
  0
ARC
  8
APS_GEOMETRY
 10
365.587526
 20
1714.045541
 40
0.21798
 50
337.238908
 51
7.302654
  0
ARC
  8
APS_GEOMETRY
 10
365.563726
 20
1714.056457
 40
0.244152
 50
309.183661
 51
337.037486
  0
ARC
  8
APS_GEOMETRY
 10
365.536728
 20
1714.089006
 40
0.286439
 50
284.240268
 51
309.256071
  0
ARC
  8
APS_GEOMETRY
 10
365.301308
 20
1714.995352
 40
1.222858
 50
247.053409
 51
284.485576
  0
ARC
  8
APS_GEOMETRY
 10
376.398279
 20
1740.877968
 40
29.384034
 50
243.069795
 51
246.803972
  0
ARC
  8
APS_GEOMETRY
 10
357.385379
 20
1703.31993
 40
12.712339
 50
63.336143
 51
93.182198
  0
ARC
  8
APS_GEOMETRY
 10
357.284759
 20
1703.58258
 40
12.444805
 50
92.786779
 51
123.064653
  0
ARC
  8
APS_GEOMETRY
 10
415.276487
 20
1615.634233
 40
117.791433
 50
123.364765
 51
134.977357
  0
ARC
  8
APS_GEOMETRY
 10
453.222642
 20
1577.738528
 40
171.419717
 50
134.996364
 51
145.257379
  0
ARC
  8
APS_GEOMETRY
 10
517.357409
 20
1533.401229
 40
249.388012
 50
145.28425
 51
152.99926
  0
ARC
  8
APS_GEOMETRY
 10
492.995566
 20
1545.619853
 40
222.134382
 50
152.954503
 51
167.625496
  0
ARC
  8
APS_GEOMETRY
 10
554.231932
 20
1532.399889
 40
284.781214
 50
167.667779
 51
179.811142
  0
ARC
  8
APS_GEOMETRY
 10
548.576149
 20
1532.527647
 40
279.125062
 50
179.83354
 51
192.090573
  0
ARC
  8
APS_GEOMETRY
 10
470.794665
 20
1516.055364
 40
199.618788
 50
192.143685
 51
207.949191
  0
ARC
  8
APS_GEOMETRY
 10
-74.401987
 20
1227.458042
 40
417.250704
 50
25.510261
 51
27.868038
  0
ARC
  8
APS_GEOMETRY
 10
283.043164
 20
1397.982066
 40
21.21353
 50
5.056023
 51
25.625207
  0
ARC
  8
APS_GEOMETRY
 10
302.765162
 20
1399.731692
 40
1.414084
 50
333.943289
 51
4.864652
  0
ARC
  8
APS_GEOMETRY
 10
302.592454
 20
1399.821957
 40
1.608897
 50
305.410985
 51
333.75715
  0
ARC
  8
APS_GEOMETRY
 10
302.428664
 20
1400.046102
 40
1.886488
 50
280.054333
 51
305.520733
  0
ARC
  8
APS_GEOMETRY
 10
302.400864
 20
1400.158887
 40
2.002409
 50
255.809008
 51
280.274154
  0
ARC
  8
APS_GEOMETRY
 10
305.82102
 20
1413.833307
 40
16.098049
 50
233.931066
 51
255.939154
  0
ARC
  8
APS_GEOMETRY
 10
283.847135
 20
1383.542545
 40
21.323681
 50
54.125171
 51
85.316786
  0
ARC
  8
APS_GEOMETRY
 10
271.618208
 20
1244.534356
 40
160.868405
 50
85.018117
 51
92.077461
  0
ARC
  8
APS_GEOMETRY
 10
271.838112
 20
1237.98665
 40
167.41978
 50
92.071438
 51
99.444431
  0
ARC
  8
APS_GEOMETRY
 10
258.655481
 20
1316.939826
 40
87.37366
 50
99.412666
 51
111.382805
  0
ARC
  8
APS_GEOMETRY
 10
254.036121
 20
1328.222918
 40
75.183264
 50
111.239836
 51
131.421607
  0
ARC
  8
APS_GEOMETRY
 10
281.116197
 20
1297.849731
 40
115.875179
 50
131.526221
 51
145.99874
  0
ARC
  8
APS_GEOMETRY
 10
279.192812
 20
1299.188639
 40
113.531917
 50
146.016105
 51
160.866196
  0
ARC
  8
APS_GEOMETRY
 10
248.278602
 20
1309.93418
 40
80.80342
 50
160.879665
 51
179.957174
  0
ARC
  8
APS_GEOMETRY
 10
256.4679
 20
1310.042196
 40
88.992708
 50
180.030658
 51
197.093303
  0
ARC
  8
APS_GEOMETRY
 10
251.980082
 20
1308.764276
 40
84.327569
 50
197.159635
 51
215.007935
  0
ARC
  8
APS_GEOMETRY
 10
236.297998
 20
1297.896943
 40
65.248394
 50
215.091812
 51
235.146772
  0
ARC
  8
APS_GEOMETRY
 10
213.892341
 20
1266.029406
 40
26.293581
 50
235.528029
 51
275.402055
  0
ARC
  8
APS_GEOMETRY
 10
214.085851
 20
1266.247302
 40
26.49315
 50
274.941048
 51
299.106584
  0
ARC
  8
APS_GEOMETRY
 10
211.483663
 20
1270.922214
 40
31.843494
 50
299.105737
 51
319.963568
  0
ARC
  8
APS_GEOMETRY
 10
206.334785
 20
1275.183377
 40
38.526788
 50
320.037397
 51
339.027582
  0
ARC
  8
APS_GEOMETRY
 10
186.362061
 20
1282.72249
 40
59.874863
 50
339.131829
 51
352.705699
  0
ARC
  8
APS_GEOMETRY
 10
194.766341
 20
1281.619281
 40
51.398536
 50
352.736046
 51
4.738751
  0
ARC
  8
APS_GEOMETRY
 10
201.718941
 20
1282.173701
 40
44.423904
 50
4.766928
 51
18.171472
  0
ARC
  8
APS_GEOMETRY
 10
214.125672
 20
1286.218066
 40
31.374656
 50
18.219911
 51
33.55353
  0
ARC
  8
APS_GEOMETRY
 10
236.063072
 20
1300.727495
 40
5.073209
 50
33.931066
 51
63.527662
  0
ARC
  8
APS_GEOMETRY
 10
235.688646
 20
1300.023635
 40
5.870215
 50
63.318677
 51
90.14328
  0
ARC
  8
APS_GEOMETRY
 10
235.670561
 20
1303.913902
 40
1.979933
 50
89.901465
 51
113.467479
  0
ARC
  8
APS_GEOMETRY
 10
235.577856
 20
1304.115254
 40
1.758324
 50
113.309365
 51
138.832885
  0
ARC
  8
APS_GEOMETRY
 10
257.821274
 20
1284.905572
 40
31.148453
 50
139.165799
 51
145.445432
  0
ARC
  8
APS_GEOMETRY
 10
262.153506
 20
1281.921411
 40
36.409009
 50
145.444626
 51
152.169782
  0
ARC
  8
APS_GEOMETRY
 10
281.535851
 20
1271.702056
 40
58.320431
 50
152.180958
 51
156.895198
  0
ARC
  8
APS_GEOMETRY
 10
95.435195
 20
1351.085133
 40
144.003881
 50
333.931419
 51
336.900327
  0
ARC
  8
APS_GEOMETRY
 10
221.000649
 20
1289.718416
 40
4.245329
 50
295.268962
 51
333.182118
  0
ARC
  8
APS_GEOMETRY
 10
221.790778
 20
1287.999455
 40
2.353647
 50
266.408513
 51
295.737459
  0
ARC
  8
APS_GEOMETRY
 10
221.772221
 20
1287.944913
 40
2.298099
 50
236.979425
 51
266.785077
  0
ARC
  8
APS_GEOMETRY
 10
239.912672
 20
1315.488091
 40
35.278396
 50
228.523582
 51
236.653092
  0
ARC
  8
APS_GEOMETRY
 10
224.076024
 20
1297.634018
 40
11.412891
 50
206.895588
 51
228.725921
  0
ARC
  8
APS_GEOMETRY
 10
261.138015
 20
1316.212136
 40
52.87045
 50
199.716433
 51
206.682078
  0
ARC
  8
APS_GEOMETRY
 10
269.444224
 20
1319.18411
 40
61.69234
 50
192.890881
 51
199.712265
  0
ARC
  8
APS_GEOMETRY
 10
270.975032
 20
1319.52996
 40
63.261723
 50
186.202187
 51
192.886911
  0
ARC
  8
APS_GEOMETRY
 10
336.812019
 20
1326.674213
 40
129.485203
 50
181.325256
 51
186.197579
  0
ARC
  8
APS_GEOMETRY
 10
222.091324
 20
1324.000876
 40
14.733378
 50
157.112365
 51
181.249969
  0
ARC
  8
APS_GEOMETRY
 10
223.163675
 20
1323.514466
 40
15.910509
 50
134.064937
 51
157.000549
  0
ARC
  8
APS_GEOMETRY
 10
315.576285
 20
1228.934681
 40
148.14282
 50
129.842742
 51
134.306881
  0
ARC
  8
APS_GEOMETRY
 10
273.556132
 20
1279.060824
 40
82.734227
 50
115.004058
 51
129.739995
  0
ARC
  8
APS_GEOMETRY
 10
273.560054
 20
1279.132676
 40
82.670775
 50
100.19163
 51
115.027569
  0
ARC
  8
APS_GEOMETRY
 10
273.500603
 20
1279.832051
 40
81.971941
 50
85.402813
 51
100.237228
  0
ARC
  8
APS_GEOMETRY
 10
274.05708
 20
1285.8226
 40
75.9561
 50
69.775343
 51
85.459044
  0
ARC
  8
APS_GEOMETRY
 10
279.225484
 20
1299.841683
 40
61.014644
 50
56.777407
 51
69.778458
  0
ARC
  8
APS_GEOMETRY
 10
125.604118
 20
1066.090879
 40
340.726867
 50
53.073144
 51
56.70321
  0
ARC
  8
APS_GEOMETRY
 10
-0.05259
 20
898.962419
 40
549.823806
 50
50.812338
 51
53.068931
  0
ARC
  8
APS_GEOMETRY
 10
342.692068
 20
1319.332499
 40
7.435758
 50
26.64647
 51
51.110325
  0
ARC
  8
APS_GEOMETRY
 10
343.404732
 20
1319.704919
 40
6.631774
 50
0.113237
 51
26.532015
  0
ARC
  8
APS_GEOMETRY
 10
349.129817
 20
1319.720323
 40
0.906679
 50
331.135658
 51
359.854829
  0
ARC
  8
APS_GEOMETRY
 10
349.02005
 20
1319.783431
 40
1.033276
 50
304.707606
 51
331.009264
  0
ARC
  8
APS_GEOMETRY
 10
348.924259
 20
1319.918239
 40
1.198641
 50
280.999081
 51
304.802676
  0
ARC
  8
APS_GEOMETRY
 10
344.5321
 20
1342.089751
 40
23.801001
 50
272.993118
 51
281.194797
  0
ARC
  8
APS_GEOMETRY
 10
343.773849
 20
1356.486164
 40
38.217367
 50
265.974926
 51
273.001355
  0
ARC
  8
APS_GEOMETRY
 10
346.517114
 20
1395.48266
 40
77.310234
 50
261.828816
 51
265.975507
  0
ARC
  8
APS_GEOMETRY
 10
316.117509
 20
1183.789523
 40
136.55449
 50
81.827642
 51
84.675968
  0
ARC
  8
APS_GEOMETRY
 10
327.430263
 20
1305.189249
 40
14.628808
 50
84.673951
 51
99.382542
  0
ARC
  8
APS_GEOMETRY
 10
325.357158
 20
1317.687574
 40
1.959734
 50
99.1537
 51
125.606444
  0
ARC
  8
APS_GEOMETRY
 10
325.180729
 20
1317.927883
 40
1.661639
 50
125.484666
 51
155.047205
  0
ARC
  8
APS_GEOMETRY
 10
325.129362
 20
1317.959197
 40
1.60187
 50
155.287604
 51
185.406367
  0
ARC
  8
APS_GEOMETRY
 10
325.177668
 20
1317.972978
 40
1.651286
 50
185.72449
 51
215.233143
  0
ARC
  8
APS_GEOMETRY
 10
317.555743
 20
1312.627676
 40
7.658183
 50
21.689661
 51
35.001043
  0
ARC
  8
APS_GEOMETRY
 10
323.961868
 20
1315.174217
 40
0.764469
 50
345.823763
 51
21.789017
  0
ARC
  8
APS_GEOMETRY
 10
323.895784
 20
1315.197706
 40
0.834319
 50
311.471128
 51
345.371241
  0
ARC
  8
APS_GEOMETRY
 10
323.647705
 20
1315.472897
 40
1.204811
 50
285.209434
 51
311.644241
  0
ARC
  8
APS_GEOMETRY
 10
323.613505
 20
1315.579388
 40
1.316554
 50
260.526544
 51
285.429827
  0
ARC
  8
APS_GEOMETRY
 10
325.533187
 20
1327.111933
 40
13.00778
 50
251.266384
 51
260.547017
  0
ARC
  8
APS_GEOMETRY
 10
319.299941
 20
1308.702518
 40
6.428272
 50
71.351114
 51
94.707561
  0
ARC
  8
APS_GEOMETRY
 10
320.388019
 20
1295.221032
 40
19.95359
 50
94.644337
 51
104.690971
  0
ARC
  8
APS_GEOMETRY
 10
321.362089
 20
1291.492301
 40
23.807449
 50
104.682785
 51
114.11511
  0
ARC
  8
APS_GEOMETRY
 10
321.036861
 20
1292.21021
 40
23.019317
 50
114.10633
 51
123.741013
  0
ARC
  8
APS_GEOMETRY
 10
402.002042
 20
1171.22959
 40
168.592902
 50
123.785088
 51
125.63289
  0
ARC
  8
APS_GEOMETRY
 10
304.952326
 20
1306.569306
 40
2.053399
 50
124.761165
 51
167.815798
  0
ARC
  8
APS_GEOMETRY
 10
303.519336
 20
1306.886579
 40
0.585776
 50
168.567579
 51
194.818277
  0
ARC
  8
APS_GEOMETRY
 10
303.559579
 20
1306.899241
 40
0.627923
 50
194.996099
 51
220.049677
  0
ARC
  8
APS_GEOMETRY
 10
303.631772
 20
1306.960174
 40
0.722393
 50
220.06485
 51
242.868289
  0
ARC
  8
APS_GEOMETRY
 10
303.674177
 20
1307.039836
 40
0.812628
 50
242.768837
 51
263.84042
  0
ARC
  8
APS_GEOMETRY
 10
307.809886
 20
1344.610337
 40
38.610069
 50
263.720823
 51
269.0527
  0
ARC
  8
APS_GEOMETRY
 10
307.031048
 20
1293.39189
 40
12.614438
 50
54.929098
 51
89.361794
  0
ARC
  8
APS_GEOMETRY
 10
233.324352
 20
1190.383747
 40
139.27634
 50
48.558901
 51
54.461264
  0
ARC
  8
APS_GEOMETRY
 10
236.205606
 20
1193.645306
 40
134.924399
 50
42.546499
 51
48.559424
  0
ARC
  8
APS_GEOMETRY
 10
328.876933
 20
1278.55604
 40
9.235736
 50
0.710427
 51
43.210849
  0
ARC
  8
APS_GEOMETRY
 10
335.455449
 20
1278.676021
 40
2.656515
 50
320.770936
 51
359.882081
  0
ARC
  8
APS_GEOMETRY
 10
333.006563
 20
1280.639599
 40
5.795357
 50
298.972489
 51
321.044754
  0
ARC
  8
APS_GEOMETRY
 10
331.271977
 20
1283.727917
 40
9.33742
 50
282.35424
 51
299.104772
  0
ARC
  8
APS_GEOMETRY
 10
330.266215
 20
1288.236565
 40
13.956863
 50
269.985003
 51
282.427408
  0
ARC
  8
APS_GEOMETRY
 10
330.160863
 20
1255.2732
 40
19.006775
 50
89.69343
 51
124.733266
  0
ARC
  8
APS_GEOMETRY
 10
405.049861
 20
1149.362519
 40
148.718956
 50
125.196145
 51
132.864506
  0
ARC
  8
APS_GEOMETRY
 10
397.816039
 20
1157.134901
 40
138.101147
 50
132.858349
 51
141.359346
  0
ARC
  8
APS_GEOMETRY
 10
320.907705
 20
1218.478891
 40
39.724651
 50
141.201038
 51
162.580336
  0
ARC
  8
APS_GEOMETRY
 10
371.695262
 20
1202.808983
 40
92.874387
 50
162.736376
 51
172.283706
  0
ARC
  8
APS_GEOMETRY
 10
371.347751
 20
1202.873317
 40
92.521387
 50
172.294291
 51
181.857552
  0
ARC
  8
APS_GEOMETRY
 10
360.013898
 20
1202.52306
 40
81.182138
 50
181.869769
 51
191.997492
  0
ARC
  8
APS_GEOMETRY
 10
323.062245
 20
1194.718377
 40
43.415306
 50
192.05938
 51
208.285952
  0
ARC
  8
APS_GEOMETRY
 10
314.986191
 20
1190.432989
 40
34.272899
 50
208.375113
 51
227.455033
  0
ARC
  8
APS_GEOMETRY
 10
316.207194
 20
1191.763222
 40
36.078549
 50
227.454861
 51
245.987426
  0
ARC
  8
APS_GEOMETRY
 10
314.178887
 20
1187.159665
 40
31.048014
 50
245.949432
 51
265.817135
  0
ARC
  8
APS_GEOMETRY
 10
313.236309
 20
1173.319702
 40
17.176306
 50
265.585571
 51
296.510559
  0
ARC
  8
APS_GEOMETRY
 10
176.634269
 20
1443.664054
 40
320.072416
 50
296.791064
 51
299.227239
  0
ARC
  8
APS_GEOMETRY
 10
329.594866
 20
1170.459613
 40
6.963407
 50
298.499832
 51
336.655957
  0
ARC
  8
APS_GEOMETRY
 10
332.350379
 20
1169.227185
 40
3.945302
 50
337.232046
 51
6.065186
  0
ARC
  8
APS_GEOMETRY
 10
332.222637
 20
1169.193769
 40
4.075908
 50
6.342548
 51
34.550614
  0
ARC
  8
APS_GEOMETRY
 10
253.952953
 20
1115.852252
 40
98.79366
 50
34.286173
 51
39.888184
  0
ARC
  8
APS_GEOMETRY
 10
360.412396
 20
1205.088468
 40
40.11931
 50
193.419074
 51
220.17266
  0
ARC
  8
APS_GEOMETRY
 10
355.586396
 20
1203.794145
 40
35.124966
 50
163.780886
 51
193.192322
  0
ARC
  8
APS_GEOMETRY
 10
348.512425
 20
1205.645748
 40
27.816064
 50
129.86443
 51
163.373184
  0
ARC
  8
APS_GEOMETRY
 10
344.904649
 20
1209.856669
 40
22.271539
 50
89.55313
 51
129.684068
  0
ARC
  8
APS_GEOMETRY
 10
345.221343
 20
1193.154523
 40
38.97327
 50
59.547221
 51
90.210218
  0
ARC
  8
APS_GEOMETRY
 10
334.551849
 20
1175.196263
 40
59.861813
 50
37.437816
 51
59.455473
  0
ARC
  8
APS_GEOMETRY
 10
324.43318
 20
1167.595366
 40
72.516851
 50
17.234757
 51
37.346224
  0
ARC
  8
APS_GEOMETRY
 10
308.257514
 20
1162.744255
 40
89.403676
 50
0.030897
 51
17.132631
  0
ARC
  8
APS_GEOMETRY
 10
231.055858
 20
1162.801648
 40
166.605319
 50
352.012752
 51
359.996842
  0
ARC
  8
APS_GEOMETRY
 10
106.069117
 20
1180.334946
 40
292.815866
 50
346.775767
 51
352.013542
  0
ARC
  8
APS_GEOMETRY
 10
112.374214
 20
1178.861948
 40
286.340999
 50
341.541245
 51
346.77408
  0
ARC
  8
APS_GEOMETRY
 10
267.125984
 20
1127.26591
 40
123.214501
 50
331.666457
 51
341.515072
  0
ARC
  8
APS_GEOMETRY
 10
289.369548
 20
1115.329165
 40
97.970515
 50
319.78326
 51
331.637124
  0
ARC
  8
APS_GEOMETRY
 10
202.339106
 20
1188.708382
 40
211.80722
 50
313.138753
 51
319.826805
  0
ARC
  8
APS_GEOMETRY
 10
200.419178
 20
1190.753932
 40
214.612642
 50
306.619798
 51
313.139365
  0
ARC
  8
APS_GEOMETRY
 10
280.506083
 20
1083.162247
 40
80.486372
 50
292.932187
 51
306.548622
  0
ARC
  8
APS_GEOMETRY
 10
277.180559
 20
1090.892805
 40
88.901733
 50
280.650967
 51
292.964767
  0
ARC
  8
APS_GEOMETRY
 10
270.01864
 20
1128.590769
 40
127.273938
 50
271.248999
 51
280.68292
  0
ARC
  8
APS_GEOMETRY
 10
269.835885
 20
1135.605028
 40
134.290517
 50
262.072906
 51
271.261721
  0
ARC
  8
APS_GEOMETRY
 10
267.433357
 20
1118.593231
 40
117.109944
 50
251.92358
 51
262.089259
  0
LINE
  8
APS_GEOMETRY
 10
467.475459
 11
382.525097
 20
1829.999524
 21
1829.999524
  0
ARC
  8
APS_GEOMETRY
 10
383.246786
 20
1829.927919
 40
0.725232
 50
174.333803
 51
199.848447
  0
ARC
  8
APS_GEOMETRY
 10
383.308703
 20
1829.952329
 40
0.791762
 50
199.988606
 51
224.04296
  0
ARC
  8
APS_GEOMETRY
 10
383.39394
 20
1830.034544
 40
0.910187
 50
224.032967
 51
245.939074
  0
ARC
  8
APS_GEOMETRY
 10
411.294854
 20
1891.846308
 40
68.727251
 50
245.709372
 51
249.484374
  0
ARC
  8
APS_GEOMETRY
 10
380.707943
 20
1809.538149
 40
19.081261
 50
34.785714
 51
70.081817
  0
ARC
  8
APS_GEOMETRY
 10
314.501695
 20
1764.873507
 40
98.943449
 50
23.804176
 51
34.155344
  0
ARC
  8
APS_GEOMETRY
 10
305.578228
 20
1760.958256
 40
108.688042
 50
13.311153
 51
23.79393
  0
ARC
  8
APS_GEOMETRY
 10
334.155816
 20
1767.728707
 40
79.319395
 50
0.059719
 51
13.304741
  0
ARC
  8
APS_GEOMETRY
 10
250.448007
 20
1767.687317
 40
163.027208
 50
353.550148
 51
0.043602
  0
ARC
  8
APS_GEOMETRY
 10
333.78114
 20
1758.292675
 40
79.166198
 50
342.371917
 51
353.531383
  0
ARC
  8
APS_GEOMETRY
 10
334.378498
 20
1758.125271
 40
78.546197
 50
331.176687
 51
342.356337
  0
ARC
  8
APS_GEOMETRY
 10
270.023919
 20
1793.463148
 40
151.964691
 50
324.356317
 51
331.201613
  0
LINE
  8
APS_GEOMETRY
 10
393.519044
 11
381.340301
 20
1704.906831
 21
1687.909649
  0
LINE
  8
APS_GEOMETRY
 10
381.340301
 11
389.588742
 20
1687.909649
 21
1681.108091
  0
ARC
  8
APS_GEOMETRY
 10
372.959513
 20
1660.861998
 40
26.199914
 50
36.035902
 51
50.601858
  0
ARC
  8
APS_GEOMETRY
 10
388.678051
 20
1672.241323
 40
6.794926
 50
356.966728
 51
36.417183
  0
ARC
  8
APS_GEOMETRY
 10
392.013928
 20
1672.095401
 40
3.456138
 50
326.099095
 51
356.456068
  0
ARC
  8
APS_GEOMETRY
 10
391.54701
 20
1672.417328
 40
4.023245
 50
298.598506
 51
326.002634
  0
ARC
  8
APS_GEOMETRY
 10
388.839638
 20
1677.349866
 40
9.649939
 50
269.823005
 51
298.693549
  0
ARC
  8
APS_GEOMETRY
 10
388.774328
 20
1657.557288
 40
10.142747
 50
89.79946
 51
119.959082
  0
ARC
  8
APS_GEOMETRY
 10
409.045543
 20
1622.887242
 40
50.303944
 50
120.242744
 51
129.405388
  0
ARC
  8
APS_GEOMETRY
 10
407.345717
 20
1624.953411
 40
47.628415
 50
129.403222
 51
138.784985
  0
ARC
  8
APS_GEOMETRY
 10
375.940163
 20
1652.375008
 40
5.936462
 50
138.157479
 51
181.431975
  0
ARC
  8
APS_GEOMETRY
 10
372.808331
 20
1652.350568
 40
2.805514
 50
182.53143
 51
229.017499
  0
ARC
  8
APS_GEOMETRY
 10
413.84707
 20
1698.07486
 40
64.245289
 50
228.131649
 51
232.933219
  0
ARC
  8
APS_GEOMETRY
 10
420.12213
 20
1706.386042
 40
74.659323
 50
232.935096
 51
238.11446
  0
ARC
  8
APS_GEOMETRY
 10
443.0804
 20
1743.26343
 40
118.09921
 50
238.107445
 51
241.788826
  0
ARC
  8
APS_GEOMETRY
 10
352.25222
 20
1573.624974
 40
74.324804
 50
46.190513
 51
61.906864
  0
ARC
  8
APS_GEOMETRY
 10
367.813354
 20
1589.753625
 40
51.913281
 50
25.876434
 51
46.261547
  0
ARC
  8
APS_GEOMETRY
 10
361.265518
 20
1586.682715
 40
59.144932
 50
6.763047
 51
25.784723
  0
ARC
  8
APS_GEOMETRY
 10
294.57515
 20
1578.942199
 40
126.282908
 50
355.925112
 51
6.68726
  0
ARC
  8
APS_GEOMETRY
 10
190.2434
 20
1586.38539
 40
230.879824
 50
350.791376
 51
355.922498
  0
ARC
  8
APS_GEOMETRY
 10
362.106242
 20
1558.570424
 40
56.780715
 50
336.167644
 51
350.744273
  0
ARC
  8
APS_GEOMETRY
 10
385.639302
 20
1548.254689
 40
31.086169
 50
315.343742
 51
336.033677
  0
ARC
  8
APS_GEOMETRY
 10
388.91428
 20
1545.078005
 40
26.523855
 50
291.697732
 51
315.252727
  0
ARC
  8
APS_GEOMETRY
 10
383.680309
 20
1557.774012
 40
40.255721
 50
283.739599
 51
291.938681
  0
ARC
  8
APS_GEOMETRY
 10
389.90786
 20
1532.330097
 40
14.060777
 50
265.710274
 51
283.714426
  0
ARC
  8
APS_GEOMETRY
 10
389.897241
 20
1532.477141
 40
14.206631
 50
247.896362
 51
265.797339
  0
ARC
  8
APS_GEOMETRY
 10
400.514965
 20
1558.48301
 40
42.296494
 50
239.918186
 51
247.82619
  0
ARC
  8
APS_GEOMETRY
 10
396.12734
 20
1551.001014
 40
33.62304
 50
225.464392
 51
239.997274
  0
ARC
  8
APS_GEOMETRY
 10
377.80125
 20
1532.497762
 40
7.581088
 50
182.586736
 51
226.112909
  0
ARC
  8
APS_GEOMETRY
 10
374.503749
 20
1532.295392
 40
4.278146
 50
150.372841
 51
181.872324
  0
ARC
  8
APS_GEOMETRY
 10
375.072053
 20
1531.956604
 40
4.939651
 50
121.625368
 51
150.215658
  0
ARC
  8
APS_GEOMETRY
 10
380.623541
 20
1523.026114
 40
15.454975
 50
97.038026
 51
121.789396
  0
ARC
  8
APS_GEOMETRY
 10
376.912459
 20
1553.59916
 40
15.342545
 50
276.802991
 51
311.313425
  0
ARC
  8
APS_GEOMETRY
 10
376.741117
 20
1553.772822
 40
15.586107
 50
311.365069
 51
344.987783
  0
ARC
  8
APS_GEOMETRY
 10
368.804351
 20
1555.725186
 40
23.758316
 50
345.397978
 51
11.742466
  0
ARC
  8
APS_GEOMETRY
 10
343.790236
 20
1550.487186
 40
49.314957
 50
11.786246
 51
27.074021
  0
ARC
  8
APS_GEOMETRY
 10
321.442143
 20
1539.106413
 40
74.393999
 50
27.044848
 51
37.307736
  0
ARC
  8
APS_GEOMETRY
 10
353.526408
 20
1563.45381
 40
34.117682
 50
37.442793
 51
55.946607
  0
ARC
  8
APS_GEOMETRY
 10
355.576512
 20
1566.486498
 40
30.457063
 50
55.947255
 51
75.578812
  0
ARC
  8
APS_GEOMETRY
 10
351.692048
 20
1551.737968
 40
45.708389
 50
75.467279
 51
90.023871
  0
ARC
  8
APS_GEOMETRY
 10
351.498482
 20
1561.690458
 40
35.756321
 50
89.720345
 51
123.635057
  0
ARC
  8
APS_GEOMETRY
 10
357.788263
 20
1552.341076
 40
47.024406
 50
123.705884
 51
151.00253
  0
ARC
  8
APS_GEOMETRY
 10
380.352709
 20
1540.180945
 40
72.655707
 50
151.241347
 51
172.684791
  0
ARC
  8
APS_GEOMETRY
 10
459.880168
 20
1530.258068
 40
152.79959
 50
172.791266
 51
185.054831
  0
ARC
  8
APS_GEOMETRY
 10
484.331092
 20
1532.465937
 40
177.349959
 50
185.069348
 51
195.392059
  0
ARC
  8
APS_GEOMETRY
 10
508.559645
 20
1539.159699
 40
202.486164
 50
195.398529
 51
204.766226
  0
ARC
  8
APS_GEOMETRY
 10
558.162812
 20
1562.039337
 40
257.111725
 50
204.765261
 51
212.954513
  0
ARC
  8
APS_GEOMETRY
 10
731.973046
 20
1674.568417
 40
464.169164
 50
212.939129
 51
218.216435
  0
LINE
  8
APS_GEOMETRY
 10
367.28486
 11
387.442349
 20
1387.417691
 21
1361.804781
  0
LINE
  8
APS_GEOMETRY
 10
387.442349
 11
391.784569
 20
1361.804781
 21
1380.392329
  0
ARC
  8
APS_GEOMETRY
 10
507.322598
 20
1353.367024
 40
118.656662
 50
158.878078
 51
166.834739
  0
ARC
  8
APS_GEOMETRY
 10
516.864398
 20
1349.675059
 40
128.887817
 50
151.378921
 51
158.875633
  0
ARC
  8
APS_GEOMETRY
 10
504.994392
 20
1356.140274
 40
115.37131
 50
143.638543
 51
151.373608
  0
ARC
  8
APS_GEOMETRY
 10
450.626544
 20
1396.072987
 40
47.914135
 50
128.557919
 51
143.547736
  0
ARC
  8
APS_GEOMETRY
 10
448.522056
 20
1398.815337
 40
44.457983
 50
120.473934
 51
128.639959
  0
ARC
  8
APS_GEOMETRY
 10
427.761998
 20
1434.06783
 40
3.546911
 50
94.246105
 51
120.246316
  0
ARC
  8
APS_GEOMETRY
 10
427.785217
 20
1433.972014
 40
3.644219
 50
68.967734
 51
94.498618
  0
ARC
  8
APS_GEOMETRY
 10
426.454471
 20
1430.409475
 40
7.447101
 50
39.298925
 51
69.248425
  0
ARC
  8
APS_GEOMETRY
 10
200.258298
 20
1248.526278
 40
297.698798
 50
36.718457
 51
38.815001
  0
ARC
  8
APS_GEOMETRY
 10
347.866879
 20
1358.560118
 40
113.590862
 50
28.970484
 51
36.744411
  0
ARC
  8
APS_GEOMETRY
 10
312.49103
 20
1339.012748
 40
154.008056
 50
22.788428
 51
28.958127
  0
ARC
  8
APS_GEOMETRY
 10
328.067219
 20
1345.56061
 40
137.111543
 50
16.384263
 51
22.786911
  0
ARC
  8
APS_GEOMETRY
 10
419.067322
 20
1372.294516
 40
42.265779
 50
1.053076
 51
16.412517
  0
ARC
  8
APS_GEOMETRY
 10
501.429543
 20
1373.792669
 40
40.110068
 50
181.030502
 51
188.732868
  0
ARC
  8
APS_GEOMETRY
 10
462.709771
 20
1367.848895
 40
0.936754
 50
188.969752
 51
217.139029
  0
ARC
  8
APS_GEOMETRY
 10
462.82997
 20
1367.941091
 40
1.088237
 50
217.187755
 51
242.655424
  0
ARC
  8
APS_GEOMETRY
 10
462.902174
 20
1368.07442
 40
1.239838
 50
242.52176
 51
265.8521
  0
ARC
  8
APS_GEOMETRY
 10
462.908425
 20
1368.103892
 40
1.269692
 50
265.666948
 51
288.627322
  0
ARC
  8
APS_GEOMETRY
 10
460.970421
 20
1373.928207
 40
7.407965
 50
288.442723
 51
313.792375
  0
ARC
  8
APS_GEOMETRY
 10
-192.039441
 20
2047.033613
 40
945.220593
 50
314.129163
 51
314.93499
  0
ARC
  8
APS_GEOMETRY
 10
347.842447
 20
1506.060031
 40
180.940002
 50
314.904832
 51
322.579226
  0
ARC
  8
APS_GEOMETRY
 10
236.535123
 20
1591.094759
 40
321.012196
 50
322.59767
 51
327.578544
  0
ARC
  8
APS_GEOMETRY
 10
226.068672
 20
1597.735044
 40
333.407354
 50
327.579622
 51
332.523368
  0
ARC
  8
APS_GEOMETRY
 10
293.969579
 20
1562.439069
 40
256.880634
 50
332.520239
 51
338.518446
  0
ARC
  8
APS_GEOMETRY
 10
374.989114
 20
1530.587056
 40
169.824823
 50
338.508304
 51
347.541479
  0
ARC
  8
APS_GEOMETRY
 10
382.266139
 20
1528.956322
 40
162.367352
 50
347.549398
 51
356.875097
  0
ARC
  8
APS_GEOMETRY
 10
395.035756
 20
1528.232535
 40
149.57727
 50
356.885288
 51
6.601906
  0
ARC
  8
APS_GEOMETRY
 10
430.759469
 20
1532.324732
 40
113.61997
 50
6.623137
 51
18.579792
  0
ARC
  8
APS_GEOMETRY
 10
482.348578
 20
1549.496978
 40
59.248351
 50
18.734846
 51
40.315405
  0
ARC
  8
APS_GEOMETRY
 10
499.013572
 20
1563.377436
 40
37.561326
 50
40.618033
 51
71.335679
  0
ARC
  8
APS_GEOMETRY
 10
499.863757
 20
1566.448822
 40
34.379844
 50
71.039965
 51
103.225559
  0
ARC
  8
APS_GEOMETRY
 10
502.054982
 20
1556.261871
 40
44.798361
 50
102.97294
 51
129.244834
  0
ARC
  8
APS_GEOMETRY
 10
513.579687
 20
1542.594932
 40
62.674277
 50
129.499996
 51
142.167679
  0
ARC
  8
APS_GEOMETRY
 10
486.279142
 20
1563.71393
 40
28.158738
 50
142.035653
 51
164.909251
  0
ARC
  8
APS_GEOMETRY
 10
481.883126
 20
1564.955993
 40
23.591014
 50
165.042184
 51
190.588749
  0
ARC
  8
APS_GEOMETRY
 10
496.49481
 20
1567.739344
 40
38.46538
 50
190.664619
 51
208.418702
  0
ARC
  8
APS_GEOMETRY
 10
528.123788
 20
1584.721065
 40
74.364739
 50
208.328342
 51
213.897885
  0
ARC
  8
APS_GEOMETRY
 10
475.786738
 20
1549.615219
 40
11.34434
 50
214.151037
 51
236.585668
  0
ARC
  8
APS_GEOMETRY
 10
473.173587
 20
1545.683769
 40
6.623703
 50
236.725932
 51
268.385894
  0
ARC
  8
APS_GEOMETRY
 10
473.47497
 20
1553.721323
 40
14.666749
 50
268.09344
 51
285.633513
  0
ARC
  8
APS_GEOMETRY
 10
507.087679
 20
1433.997203
 40
109.6863
 50
102.890199
 51
105.688663
  0
ARC
  8
APS_GEOMETRY
 10
482.821608
 20
1540.028672
 40
0.913534
 50
82.035223
 51
102.846698
  0
ARC
  8
APS_GEOMETRY
 10
482.828676
 20
1540.063948
 40
0.877622
 50
60.794014
 51
82.173076
  0
ARC
  8
APS_GEOMETRY
 10
482.879818
 20
1540.152784
 40
0.775125
 50
37.652098
 51
60.88955
  0
ARC
  8
APS_GEOMETRY
 10
482.958954
 20
1540.214326
 40
0.674877
 50
12.117024
 51
37.619528
  0
ARC
  8
APS_GEOMETRY
 10
481.750329
 20
1539.969886
 40
1.907941
 50
323.970677
 51
11.675366
  0
ARC
  8
APS_GEOMETRY
 10
161.123158
 20
1767.982127
 40
395.34317
 50
323.487164
 51
324.578727
  0
ARC
  8
APS_GEOMETRY
 10
455.905772
 20
1549.8585
 40
28.635377
 50
305.378029
 51
323.316302
  0
ARC
  8
APS_GEOMETRY
 10
452.974042
 20
1553.944594
 40
33.664362
 50
289.397365
 51
305.420009
  0
ARC
  8
APS_GEOMETRY
 10
453.408687
 20
1552.639548
 40
32.289049
 50
273.229126
 51
289.438986
  0
ARC
  8
APS_GEOMETRY
 10
453.979102
 20
1541.870087
 40
21.504588
 50
251.343439
 51
273.328037
  0
ARC
  8
APS_GEOMETRY
 10
453.591486
 20
1540.937143
 40
20.496787
 50
226.097891
 51
251.535773
  0
ARC
  8
APS_GEOMETRY
 10
451.457741
 20
1538.734408
 40
17.430063
 50
197.76183
 51
226.130692
  0
ARC
  8
APS_GEOMETRY
 10
538.204266
 20
1565.933372
 40
108.340418
 50
182.809252
 51
197.465404
  0
ARC
  8
APS_GEOMETRY
 10
555.04133
 20
1566.677421
 40
125.193741
 50
168.622142
 51
182.771702
  0
ARC
  8
APS_GEOMETRY
 10
499.95771
 20
1577.598605
 40
69.038324
 50
146.307654
 51
168.489142
  0
ARC
  8
APS_GEOMETRY
 10
518.669996
 20
1565.398683
 40
91.375466
 50
137.594233
 51
146.451652
  0
ARC
  8
APS_GEOMETRY
 10
500.454031
 20
1581.989635
 40
66.736483
 50
126.297619
 51
137.565153
  0
ARC
  8
APS_GEOMETRY
 10
489.816431
 20
1596.450014
 40
48.784857
 50
113.526624
 51
126.28217
  0
ARC
  8
APS_GEOMETRY
 10
475.181927
 20
1629.966354
 40
12.212906
 50
77.525937
 51
113.343118
  0
ARC
  8
APS_GEOMETRY
 10
486.276321
 20
1680.204524
 40
39.235704
 50
257.553431
 51
260.314927
  0
ARC
  8
APS_GEOMETRY
 10
480.384578
 20
1645.689568
 40
4.221495
 50
260.331628
 51
274.55441
  0
ARC
  8
APS_GEOMETRY
 10
480.704747
 20
1641.674736
 40
0.193917
 50
274.448904
 51
295.044255
  0
ARC
  8
APS_GEOMETRY
 10
480.713515
 20
1641.656691
 40
0.173858
 50
294.943785
 51
317.1045
  0
ARC
  8
APS_GEOMETRY
 10
480.73015
 20
1641.641248
 40
0.151159
 50
317.101157
 51
341.443758
  0
ARC
  8
APS_GEOMETRY
 10
480.741427
 20
1641.637075
 40
0.13914
 50
341.594818
 51
7.330279
  0
ARC
  8
APS_GEOMETRY
 10
480.73655
 20
1641.635953
 40
0.144122
 50
7.525175
 51
32.65973
  0
ARC
  8
APS_GEOMETRY
 10
479.919209
 20
1641.106132
 40
1.118162
 50
32.914606
 51
62.616238
  0
ARC
  8
APS_GEOMETRY
 10
481.215876
 20
1643.642144
 40
1.730144
 50
199.375012
 51
243.115095
  0
ARC
  8
APS_GEOMETRY
 10
487.184115
 20
1645.608677
 40
8.013755
 50
184.566918
 51
198.482708
  0
ARC
  8
APS_GEOMETRY
 10
490.701763
 20
1645.883443
 40
11.542115
 50
172.547055
 51
184.536172
  0
ARC
  8
APS_GEOMETRY
 10
496.01747
 20
1645.185856
 40
16.903399
 50
163.522805
 51
172.539656
  0
ARC
  8
APS_GEOMETRY
 10
472.562623
 20
1652.12369
 40
7.556025
 50
343.520292
 51
25.66616
  0
ARC
  8
APS_GEOMETRY
 10
452.108638
 20
1642.394372
 40
30.206039
 50
25.495797
 51
40.606258
  0
ARC
  8
APS_GEOMETRY
 10
445.022786
 20
1636.33132
 40
39.531801
 50
40.593494
 51
53.847027
  0
ARC
  8
APS_GEOMETRY
 10
449.324734
 20
1642.192776
 40
32.261098
 50
53.87484
 51
69.420616
  0
ARC
  8
APS_GEOMETRY
 10
462.730299
 20
1677.943361
 40
5.920246
 50
225.715277
 51
249.579332
  0
ARC
  8
APS_GEOMETRY
 10
459.607417
 20
1674.748517
 40
1.45266
 50
192.484264
 51
225.908031
  0
ARC
  8
APS_GEOMETRY
 10
459.508585
 20
1674.715901
 40
1.349155
 50
156.902999
 51
192.039167
  0
ARC
  8
APS_GEOMETRY
 10
462.84594
 20
1673.271873
 40
4.985506
 50
127.342108
 51
156.68384
  0
ARC
  8
APS_GEOMETRY
 10
498.830014
 20
1626.871935
 40
63.7034
 50
123.194066
 51
127.758901
  0
LINE
  8
APS_GEOMETRY
 10
463.953896
 11
472.700118
 20
1680.180279
 21
1685.904709
  0
LINE
  8
APS_GEOMETRY
 10
472.700118
 11
459.047303
 20
1685.904709
 21
1703.471725
  0
ARC
  8
APS_GEOMETRY
 10
564.49713
 20
1785.525275
 40
133.613064
 50
209.426336
 51
217.887514
  0
ARC
  8
APS_GEOMETRY
 10
517.451539
 20
1759.026308
 40
79.61787
 50
197.031685
 51
209.450379
  0
ARC
  8
APS_GEOMETRY
 10
510.565023
 20
1756.892519
 40
72.408392
 50
183.855128
 51
197.013373
  0
ARC
  8
APS_GEOMETRY
 10
535.673763
 20
1758.541605
 40
97.571201
 50
173.318154
 51
183.829992
  0
ARC
  8
APS_GEOMETRY
 10
546.093257
 20
1757.305684
 40
108.06373
 50
164.397573
 51
173.310118
  0
ARC
  8
APS_GEOMETRY
 10
569.568437
 20
1750.746894
 40
132.437933
 50
156.729274
 51
164.396186
  0
ARC
  8
APS_GEOMETRY
 10
557.913353
 20
1755.749466
 40
119.754613
 50
149.072652
 51
156.724948
  0
ARC
  8
APS_GEOMETRY
 10
478.92162
 20
1802.938133
 40
27.74155
 50
126.032354
 51
148.82792
  0
ARC
  8
APS_GEOMETRY
 10
445.908426
 20
1848.118241
 40
28.214928
 50
306.276923
 51
312.827757
  0
ARC
  8
APS_GEOMETRY
 10
449.317339
 20
1844.444686
 40
23.203372
 50
312.820772
 51
320.378137
  0
ARC
  8
APS_GEOMETRY
 10
453.305978
 20
1841.189374
 40
18.055109
 50
320.263396
 51
321.701324
  0
ARC
  8
APS_GEOMETRY
 10
576.616648
 20
1137.196752
 40
136.641677
 50
288.02797
 51
301.767753
  0
ARC
  8
APS_GEOMETRY
 10
600.075082
 20
1099.578204
 40
92.308566
 50
301.681605
 51
319.975353
  0
ARC
  8
APS_GEOMETRY
 10
603.952667
 20
1096.287778
 40
87.223111
 50
319.992407
 51
339.09205
  0
ARC
  8
APS_GEOMETRY
 10
567.531351
 20
1109.962709
 40
126.126602
 50
339.193391
 51
353.600277
  0
ARC
  8
APS_GEOMETRY
 10
579.91624
 20
1108.502275
 40
113.656125
 50
353.636
 51
2.820937
  0
ARC
  8
APS_GEOMETRY
 10
660.460951
 20
1112.412841
 40
33.01661
 50
2.921866
 51
26.024082
  0
ARC
  8
APS_GEOMETRY
 10
673.814963
 20
1118.788054
 40
18.219914
 50
26.433616
 51
59.309527
  0
ARC
  8
APS_GEOMETRY
 10
672.871793
 20
1117.330253
 40
19.955037
 50
59.117138
 51
90.218961
  0
ARC
  8
APS_GEOMETRY
 10
672.745602
 20
1108.35046
 40
28.934727
 50
89.901127
 51
113.495566
  0
ARC
  8
APS_GEOMETRY
 10
666.697691
 20
1121.875342
 40
14.120855
 50
112.869031
 51
152.727152
  0
ARC
  8
APS_GEOMETRY
 10
669.432344
 20
1120.659494
 40
17.109513
 50
153.304513
 51
188.953411
  0
ARC
  8
APS_GEOMETRY
 10
700.474698
 20
1125.683845
 40
48.555749
 50
189.109135
 51
205.483282
  0
ARC
  8
APS_GEOMETRY
 10
644.318857
 20
1098.925045
 40
13.649653
 50
11.956169
 51
25.460349
  0
ARC
  8
APS_GEOMETRY
 10
655.7323
 20
1101.343023
 40
1.982892
 50
343.936787
 51
11.925089
  0
ARC
  8
APS_GEOMETRY
 10
655.577671
 20
1101.395628
 40
2.146054
 50
317.190586
 51
343.729445
  0
ARC
  8
APS_GEOMETRY
 10
654.746685
 20
1102.203715
 40
3.304945
 50
277.096237
 51
316.703066
  0
ARC
  8
APS_GEOMETRY
 10
651.012605
 20
1129.598692
 40
30.953039
 50
269.996418
 51
277.690812
  0
ARC
  8
APS_GEOMETRY
 10
650.950614
 20
1116.261849
 40
17.616298
 50
240.311771
 51
270.195328
  0
ARC
  8
APS_GEOMETRY
 10
663.888845
 20
1138.647852
 40
43.472081
 50
224.996928
 51
240.11074
  0
ARC
  8
APS_GEOMETRY
 10
671.360535
 20
1146.08241
 40
54.012398
 50
211.135496
 51
224.969676
  0
ARC
  8
APS_GEOMETRY
 10
678.555856
 20
1150.38434
 40
62.395594
 50
198.755793
 51
211.100403
  0
ARC
  8
APS_GEOMETRY
 10
699.903935
 20
1157.561879
 40
84.917899
 50
192.896521
 51
198.710071
  0
ARC
  8
APS_GEOMETRY
 10
635.476336
 20
1142.818187
 40
18.824845
 50
175.15262
 51
192.920493
  0
ARC
  8
APS_GEOMETRY
 10
634.851352
 20
1142.848255
 40
18.19957
 50
156.924201
 51
175.08068
  0
ARC
  8
APS_GEOMETRY
 10
687.263019
 20
1120.6166
 40
75.131349
 50
150.645267
 51
156.992714
  0
ARC
  8
APS_GEOMETRY
 10
673.798557
 20
1127.971234
 40
59.790653
 50
130.537154
 51
150.463026
  0
ARC
  8
APS_GEOMETRY
 10
662.447749
 20
1141.08572
 40
42.446614
 50
104.363647
 51
130.398393
  0
ARC
  8
APS_GEOMETRY
 10
664.239892
 20
1134.831265
 40
48.950493
 50
80.826904
 51
104.579657
  0
ARC
  8
APS_GEOMETRY
 10
658.461397
 20
1098.412569
 40
85.824692
 50
65.322113
 51
80.894456
  0
LINE
  8
APS_GEOMETRY
 10
694.294614
 11
710.000556
 20
1176.39884
 21
1169.153138
  0
LINE
  8
APS_GEOMETRY
 10
710.000556
 11
710.000556
 20
1169.153138
 21
1829.999524
  0
LINE
  8
APS_GEOMETRY
 10
710.000556
 11
520.069804
 20
1829.999524
 21
1829.999524
  0
ARC
  8
APS_GEOMETRY
 10
819.679008
 20
1983.356038
 40
336.576731
 50
207.105871
 51
207.905569
  0
ARC
  8
APS_GEOMETRY
 10
705.305766
 20
1922.787172
 40
207.155613
 50
207.906273
 51
209.44782
  0
ARC
  8
APS_GEOMETRY
 10
827.460828
 20
1991.748254
 40
347.43209
 50
209.447225
 51
210.494335
  0
ARC
  8
APS_GEOMETRY
 10
484.821022
 20
1789.879975
 40
50.252301
 50
15.637176
 51
30.576504
  0
ARC
  8
APS_GEOMETRY
 10
507.591438
 20
1796.259417
 40
26.605123
 50
351.657686
 51
15.624943
  0
ARC
  8
APS_GEOMETRY
 10
508.989709
 20
1796.133076
 40
25.203436
 50
326.812155
 51
351.480669
  0
ARC
  8
APS_GEOMETRY
 10
495.768594
 20
1804.7285
 40
40.972964
 50
309.589521
 51
326.873274
  0
ARC
  8
APS_GEOMETRY
 10
496.773393
 20
1803.443663
 40
39.342515
 50
296.611223
 51
309.654295
  0
ARC
  8
APS_GEOMETRY
 10
510.527396
 20
1776.087111
 40
8.723155
 50
256.31517
 51
296.328404
  0
ARC
  8
APS_GEOMETRY
 10
509.280514
 20
1771.038859
 40
3.523268
 50
232.332887
 51
256.594319
  0
ARC
  8
APS_GEOMETRY
 10
508.9695
 20
1770.642771
 40
3.019685
 50
205.498979
 51
232.411667
  0
ARC
  8
APS_GEOMETRY
 10
508.663752
 20
1770.488485
 40
2.677311
 50
176.152721
 51
205.335594
  0
ARC
  8
APS_GEOMETRY
 10
519.057466
 20
1769.727941
 40
13.098776
 50
148.603762
 51
175.883971
  0
ARC
  8
APS_GEOMETRY
 10
495.852874
 20
1783.934104
 40
14.109117
 50
328.450861
 51
7.462436
  0
ARC
  8
APS_GEOMETRY
 10
500.160487
 20
1784.436973
 40
9.772867
 50
7.819159
 51
33.495002
  0
ARC
  8
APS_GEOMETRY
 10
499.027814
 20
1783.673172
 40
11.138963
 50
33.556099
 51
57.072023
  0
ARC
  8
APS_GEOMETRY
 10
496.689412
 20
1779.950969
 40
15.534448
 50
57.295473
 51
95.116019
  0
ARC
  8
APS_GEOMETRY
 10
497.29618
 20
1770.942477
 40
24.561965
 50
94.651896
 51
121.50774
  0
ARC
  8
APS_GEOMETRY
 10
496.709719
 20
1771.544244
 40
23.743148
 50
121.060079
 51
159.558271
  0
ARC
  8
APS_GEOMETRY
 10
535.191079
 20
1757.978604
 40
64.543227
 50
160.204901
 51
178.295726
  0
ARC
  8
APS_GEOMETRY
 10
539.752563
 20
1757.927941
 40
69.104254
 50
178.366219
 51
195.964924
  0
ARC
  8
APS_GEOMETRY
 10
507.145262
 20
1748.793093
 40
35.242569
 50
196.267447
 51
225.589387
  0
ARC
  8
APS_GEOMETRY
 10
472.162458
 20
1713.20023
 40
14.663989
 50
33.422925
 51
45.269021
  0
ARC
  8
APS_GEOMETRY
 10
476.43912
 20
1716.015799
 40
9.543714
 50
17.210704
 51
33.457128
  0
ARC
  8
APS_GEOMETRY
 10
479.792305
 20
1717.057683
 40
6.032396
 50
356.409507
 51
17.181552
  0
ARC
  8
APS_GEOMETRY
 10
483.473843
 20
1716.850556
 40
2.345235
 50
313.561103
 51
355.827185
  0
ARC
  8
APS_GEOMETRY
 10
490.732597
 20
1709.359136
 40
8.086142
 50
134.251531
 51
143.408253
  0
ARC
  8
APS_GEOMETRY
 10
484.421783
 20
1714.043188
 40
0.226965
 50
143.132191
 51
172.389124
  0
ARC
  8
APS_GEOMETRY
 10
484.41303
 20
1714.045541
 40
0.21798
 50
172.697346
 51
202.761092
  0
ARC
  8
APS_GEOMETRY
 10
484.43683
 20
1714.056457
 40
0.244152
 50
202.962514
 51
230.816339
  0
ARC
  8
APS_GEOMETRY
 10
484.463828
 20
1714.089006
 40
0.286439
 50
230.743929
 51
255.759732
  0
ARC
  8
APS_GEOMETRY
 10
484.699248
 20
1714.995352
 40
1.222858
 50
255.514424
 51
292.946591
  0
ARC
  8
APS_GEOMETRY
 10
473.602277
 20
1740.877968
 40
29.384034
 50
293.196028
 51
296.930205
  0
ARC
  8
APS_GEOMETRY
 10
492.615177
 20
1703.31993
 40
12.712339
 50
86.817802
 51
116.663857
  0
ARC
  8
APS_GEOMETRY
 10
492.715797
 20
1703.58258
 40
12.444805
 50
56.935347
 51
87.213221
  0
ARC
  8
APS_GEOMETRY
 10
434.724069
 20
1615.634233
 40
117.791433
 50
45.022643
 51
56.635235
  0
ARC
  8
APS_GEOMETRY
 10
396.777914
 20
1577.738528
 40
171.419717
 50
34.742621
 51
45.003636
  0
ARC
  8
APS_GEOMETRY
 10
332.643147
 20
1533.401229
 40
249.388012
 50
27.00074
 51
34.71575
  0
ARC
  8
APS_GEOMETRY
 10
357.00499
 20
1545.619853
 40
222.134382
 50
12.374504
 51
27.045497
  0
ARC
  8
APS_GEOMETRY
 10
295.768624
 20
1532.399889
 40
284.781214
 50
0.188858
 51
12.332221
  0
ARC
  8
APS_GEOMETRY
 10
301.424407
 20
1532.527647
 40
279.125062
 50
347.909427
 51
0.16646
  0
ARC
  8
APS_GEOMETRY
 10
379.205891
 20
1516.055364
 40
199.618788
 50
332.050809
 51
347.856315
  0
ARC
  8
APS_GEOMETRY
 10
924.402543
 20
1227.458042
 40
417.250704
 50
152.131962
 51
154.489739
  0
ARC
  8
APS_GEOMETRY
 10
566.957392
 20
1397.982066
 40
21.21353
 50
154.374793
 51
174.943977
  0
ARC
  8
APS_GEOMETRY
 10
547.235394
 20
1399.731692
 40
1.414084
 50
175.135348
 51
206.056711
  0
ARC
  8
APS_GEOMETRY
 10
547.408102
 20
1399.821957
 40
1.608897
 50
206.24285
 51
234.589015
  0
ARC
  8
APS_GEOMETRY
 10
547.571892
 20
1400.046102
 40
1.886488
 50
234.479267
 51
259.945667
  0
ARC
  8
APS_GEOMETRY
 10
547.599692
 20
1400.158887
 40
2.002409
 50
259.725846
 51
284.190992
  0
ARC
  8
APS_GEOMETRY
 10
544.179536
 20
1413.833307
 40
16.098049
 50
284.060846
 51
306.068934
  0
ARC
  8
APS_GEOMETRY
 10
566.153421
 20
1383.542545
 40
21.323681
 50
94.683214
 51
125.874829
  0
ARC
  8
APS_GEOMETRY
 10
578.382348
 20
1244.534356
 40
160.868405
 50
87.922539
 51
94.981883
  0
ARC
  8
APS_GEOMETRY
 10
578.162444
 20
1237.98665
 40
167.41978
 50
80.555569
 51
87.928562
  0
ARC
  8
APS_GEOMETRY
 10
591.345075
 20
1316.939826
 40
87.37366
 50
68.617195
 51
80.587334
  0
ARC
  8
APS_GEOMETRY
 10
595.964435
 20
1328.222918
 40
75.183264
 50
48.578393
 51
68.760164
  0
ARC
  8
APS_GEOMETRY
 10
568.884359
 20
1297.849731
 40
115.875179
 50
34.00126
 51
48.473779
  0
ARC
  8
APS_GEOMETRY
 10
570.807744
 20
1299.188639
 40
113.531917
 50
19.133804
 51
33.983895
  0
ARC
  8
APS_GEOMETRY
 10
601.721954
 20
1309.93418
 40
80.80342
 50
0.042826
 51
19.120335
  0
ARC
  8
APS_GEOMETRY
 10
593.532656
 20
1310.042196
 40
88.992708
 50
342.906697
 51
359.969342
  0
ARC
  8
APS_GEOMETRY
 10
598.020474
 20
1308.764276
 40
84.327569
 50
324.992065
 51
342.840365
  0
ARC
  8
APS_GEOMETRY
 10
613.702558
 20
1297.896943
 40
65.248394
 50
304.853228
 51
324.908188
  0
ARC
  8
APS_GEOMETRY
 10
636.108215
 20
1266.029406
 40
26.293581
 50
264.597945
 51
304.471971
  0
ARC
  8
APS_GEOMETRY
 10
635.914705
 20
1266.247302
 40
26.49315
 50
240.893416
 51
265.058952
  0
ARC
  8
APS_GEOMETRY
 10
638.516893
 20
1270.922214
 40
31.843494
 50
220.036432
 51
240.894263
  0
ARC
  8
APS_GEOMETRY
 10
643.665771
 20
1275.183377
 40
38.526788
 50
200.972418
 51
219.962603
  0
ARC
  8
APS_GEOMETRY
 10
663.638495
 20
1282.72249
 40
59.874863
 50
187.294301
 51
200.868171
  0
ARC
  8
APS_GEOMETRY
 10
655.234215
 20
1281.619281
 40
51.398536
 50
175.261249
 51
187.263954
  0
ARC
  8
APS_GEOMETRY
 10
648.281615
 20
1282.173701
 40
44.423904
 50
161.828528
 51
175.233072
  0
ARC
  8
APS_GEOMETRY
 10
635.874884
 20
1286.218066
 40
31.374656
 50
146.44647
 51
161.780089
  0
ARC
  8
APS_GEOMETRY
 10
613.937484
 20
1300.727495
 40
5.073209
 50
116.472338
 51
146.068934
  0
ARC
  8
APS_GEOMETRY
 10
614.31191
 20
1300.023635
 40
5.870215
 50
89.85672
 51
116.681323
  0
ARC
  8
APS_GEOMETRY
 10
614.329995
 20
1303.913902
 40
1.979933
 50
66.532521
 51
90.098535
  0
ARC
  8
APS_GEOMETRY
 10
614.4227
 20
1304.115254
 40
1.758324
 50
41.167115
 51
66.690635
  0
ARC
  8
APS_GEOMETRY
 10
592.179282
 20
1284.905572
 40
31.148453
 50
34.554568
 51
40.834201
  0
ARC
  8
APS_GEOMETRY
 10
587.84705
 20
1281.921411
 40
36.409009
 50
27.830218
 51
34.555374
  0
ARC
  8
APS_GEOMETRY
 10
568.464705
 20
1271.702056
 40
58.320431
 50
23.104802
 51
27.819042
  0
ARC
  8
APS_GEOMETRY
 10
754.565361
 20
1351.085133
 40
144.003881
 50
203.099673
 51
206.068581
  0
ARC
  8
APS_GEOMETRY
 10
628.999907
 20
1289.718416
 40
4.245329
 50
206.817882
 51
244.731038
  0
ARC
  8
APS_GEOMETRY
 10
628.209778
 20
1287.999455
 40
2.353647
 50
244.262541
 51
273.591487
  0
ARC
  8
APS_GEOMETRY
 10
628.228335
 20
1287.944913
 40
2.298099
 50
273.214923
 51
303.020575
  0
ARC
  8
APS_GEOMETRY
 10
610.087884
 20
1315.488091
 40
35.278396
 50
303.346908
 51
311.476418
  0
ARC
  8
APS_GEOMETRY
 10
625.924532
 20
1297.634018
 40
11.412891
 50
311.274079
 51
333.104412
  0
ARC
  8
APS_GEOMETRY
 10
588.862541
 20
1316.212136
 40
52.87045
 50
333.317922
 51
340.283567
  0
ARC
  8
APS_GEOMETRY
 10
580.556332
 20
1319.18411
 40
61.69234
 50
340.287735
 51
347.109119
  0
ARC
  8
APS_GEOMETRY
 10
579.025524
 20
1319.52996
 40
63.261723
 50
347.113089
 51
353.797813
  0
ARC
  8
APS_GEOMETRY
 10
513.188537
 20
1326.674213
 40
129.485203
 50
353.802421
 51
358.674744
  0
ARC
  8
APS_GEOMETRY
 10
627.909232
 20
1324.000876
 40
14.733378
 50
358.750031
 51
22.887635
  0
ARC
  8
APS_GEOMETRY
 10
626.836881
 20
1323.514466
 40
15.910509
 50
22.999451
 51
45.935063
  0
ARC
  8
APS_GEOMETRY
 10
534.424271
 20
1228.934681
 40
148.14282
 50
45.693119
 51
50.157258
  0
ARC
  8
APS_GEOMETRY
 10
576.444424
 20
1279.060824
 40
82.734227
 50
50.260005
 51
64.995942
  0
ARC
  8
APS_GEOMETRY
 10
576.440502
 20
1279.132676
 40
82.670775
 50
64.972431
 51
79.80837
  0
ARC
  8
APS_GEOMETRY
 10
576.499953
 20
1279.832051
 40
81.971941
 50
79.762772
 51
94.597187
  0
ARC
  8
APS_GEOMETRY
 10
575.943476
 20
1285.8226
 40
75.9561
 50
94.540956
 51
110.224657
  0
ARC
  8
APS_GEOMETRY
 10
570.775072
 20
1299.841683
 40
61.014644
 50
110.221542
 51
123.222593
  0
ARC
  8
APS_GEOMETRY
 10
724.396438
 20
1066.090879
 40
340.726867
 50
123.29679
 51
126.926856
  0
ARC
  8
APS_GEOMETRY
 10
850.053146
 20
898.962419
 40
549.823806
 50
126.931069
 51
129.187662
  0
ARC
  8
APS_GEOMETRY
 10
507.308488
 20
1319.332499
 40
7.435758
 50
128.889675
 51
153.35353
  0
ARC
  8
APS_GEOMETRY
 10
506.595824
 20
1319.704919
 40
6.631774
 50
153.467985
 51
179.886763
  0
ARC
  8
APS_GEOMETRY
 10
500.870739
 20
1319.720323
 40
0.906679
 50
180.145171
 51
208.864342
  0
ARC
  8
APS_GEOMETRY
 10
500.980506
 20
1319.783431
 40
1.033276
 50
208.990736
 51
235.292394
  0
ARC
  8
APS_GEOMETRY
 10
501.076297
 20
1319.918239
 40
1.198641
 50
235.197324
 51
259.000919
  0
ARC
  8
APS_GEOMETRY
 10
505.468456
 20
1342.089751
 40
23.801001
 50
258.805203
 51
267.006882
  0
ARC
  8
APS_GEOMETRY
 10
506.226707
 20
1356.486164
 40
38.217367
 50
266.998645
 51
274.025074
  0
ARC
  8
APS_GEOMETRY
 10
503.483442
 20
1395.48266
 40
77.310234
 50
274.024493
 51
278.171184
  0
ARC
  8
APS_GEOMETRY
 10
533.883047
 20
1183.789523
 40
136.55449
 50
95.324032
 51
98.172358
  0
ARC
  8
APS_GEOMETRY
 10
522.570293
 20
1305.189249
 40
14.628808
 50
80.617458
 51
95.326049
  0
ARC
  8
APS_GEOMETRY
 10
524.643398
 20
1317.687574
 40
1.959734
 50
54.393556
 51
80.8463
  0
ARC
  8
APS_GEOMETRY
 10
524.819827
 20
1317.927883
 40
1.661639
 50
24.952795
 51
54.515334
  0
ARC
  8
APS_GEOMETRY
 10
524.871194
 20
1317.959197
 40
1.60187
 50
354.593633
 51
24.712396
  0
ARC
  8
APS_GEOMETRY
 10
524.822888
 20
1317.972978
 40
1.651286
 50
324.766857
 51
354.27551
  0
ARC
  8
APS_GEOMETRY
 10
532.444813
 20
1312.627676
 40
7.658183
 50
144.998957
 51
158.310339
  0
ARC
  8
APS_GEOMETRY
 10
526.038688
 20
1315.174217
 40
0.764469
 50
158.210983
 51
194.176237
  0
ARC
  8
APS_GEOMETRY
 10
526.104772
 20
1315.197706
 40
0.834319
 50
194.628759
 51
228.528872
  0
ARC
  8
APS_GEOMETRY
 10
526.352851
 20
1315.472897
 40
1.204811
 50
228.355759
 51
254.790566
  0
ARC
  8
APS_GEOMETRY
 10
526.387051
 20
1315.579388
 40
1.316554
 50
254.570173
 51
279.473456
  0
ARC
  8
APS_GEOMETRY
 10
524.467369
 20
1327.111933
 40
13.00778
 50
279.452983
 51
288.733616
  0
ARC
  8
APS_GEOMETRY
 10
530.700615
 20
1308.702518
 40
6.428272
 50
85.292439
 51
108.648886
  0
ARC
  8
APS_GEOMETRY
 10
529.612537
 20
1295.221032
 40
19.95359
 50
75.309029
 51
85.355663
  0
ARC
  8
APS_GEOMETRY
 10
528.638467
 20
1291.492301
 40
23.807449
 50
65.88489
 51
75.317215
  0
ARC
  8
APS_GEOMETRY
 10
528.963695
 20
1292.21021
 40
23.019317
 50
56.258987
 51
65.89367
  0
ARC
  8
APS_GEOMETRY
 10
447.998514
 20
1171.22959
 40
168.592902
 50
54.36711
 51
56.214912
  0
ARC
  8
APS_GEOMETRY
 10
545.04823
 20
1306.569306
 40
2.053399
 50
12.184202
 51
55.238835
  0
ARC
  8
APS_GEOMETRY
 10
546.48122
 20
1306.886579
 40
0.585776
 50
345.181723
 51
11.432421
  0
ARC
  8
APS_GEOMETRY
 10
546.440977
 20
1306.899241
 40
0.627923
 50
319.950323
 51
345.003901
  0
ARC
  8
APS_GEOMETRY
 10
546.368784
 20
1306.960174
 40
0.722393
 50
297.131711
 51
319.93515
  0
ARC
  8
APS_GEOMETRY
 10
546.326379
 20
1307.039836
 40
0.812628
 50
276.15958
 51
297.231163
  0
ARC
  8
APS_GEOMETRY
 10
542.19067
 20
1344.610337
 40
38.610069
 50
270.9473
 51
276.279177
  0
ARC
  8
APS_GEOMETRY
 10
542.969508
 20
1293.39189
 40
12.614438
 50
90.638206
 51
125.070902
  0
ARC
  8
APS_GEOMETRY
 10
616.676204
 20
1190.383747
 40
139.27634
 50
125.538736
 51
131.441099
  0
ARC
  8
APS_GEOMETRY
 10
613.79495
 20
1193.645306
 40
134.924399
 50
131.440576
 51
137.453501
  0
ARC
  8
APS_GEOMETRY
 10
521.123623
 20
1278.55604
 40
9.235736
 50
136.789151
 51
179.289573
  0
ARC
  8
APS_GEOMETRY
 10
514.545107
 20
1278.676021
 40
2.656515
 50
180.117919
 51
219.229064
  0
ARC
  8
APS_GEOMETRY
 10
516.993993
 20
1280.639599
 40
5.795357
 50
218.955246
 51
241.027511
  0
ARC
  8
APS_GEOMETRY
 10
518.728579
 20
1283.727917
 40
9.33742
 50
240.895228
 51
257.64576
  0
ARC
  8
APS_GEOMETRY
 10
519.734341
 20
1288.236565
 40
13.956863
 50
257.572592
 51
270.014997
  0
ARC
  8
APS_GEOMETRY
 10
519.839693
 20
1255.2732
 40
19.006775
 50
55.266734
 51
90.30657
  0
ARC
  8
APS_GEOMETRY
 10
444.950695
 20
1149.362519
 40
148.718956
 50
47.135494
 51
54.803855
  0
ARC
  8
APS_GEOMETRY
 10
452.184517
 20
1157.134901
 40
138.101147
 50
38.640654
 51
47.141651
  0
ARC
  8
APS_GEOMETRY
 10
529.092851
 20
1218.478891
 40
39.724651
 50
17.419664
 51
38.798962
  0
ARC
  8
APS_GEOMETRY
 10
478.305294
 20
1202.808983
 40
92.874387
 50
7.716294
 51
17.263624
  0
ARC
  8
APS_GEOMETRY
 10
478.652805
 20
1202.873317
 40
92.521387
 50
358.142448
 51
7.705709
  0
ARC
  8
APS_GEOMETRY
 10
489.986658
 20
1202.52306
 40
81.182138
 50
348.002508
 51
358.130231
  0
ARC
  8
APS_GEOMETRY
 10
526.938311
 20
1194.718377
 40
43.415306
 50
331.714048
 51
347.94062
  0
ARC
  8
APS_GEOMETRY
 10
535.014365
 20
1190.432989
 40
34.272899
 50
312.544967
 51
331.624887
  0
ARC
  8
APS_GEOMETRY
 10
533.793362
 20
1191.763222
 40
36.078549
 50
294.012574
 51
312.545139
  0
ARC
  8
APS_GEOMETRY
 10
535.821669
 20
1187.159665
 40
31.048014
 50
274.182865
 51
294.050568
  0
ARC
  8
APS_GEOMETRY
 10
536.764247
 20
1173.319702
 40
17.176306
 50
243.489441
 51
274.414429
  0
ARC
  8
APS_GEOMETRY
 10
673.366287
 20
1443.664054
 40
320.072416
 50
240.772761
 51
243.208936
  0
ARC
  8
APS_GEOMETRY
 10
520.40569
 20
1170.459613
 40
6.963407
 50
203.344043
 51
241.500168
  0
ARC
  8
APS_GEOMETRY
 10
517.650177
 20
1169.227185
 40
3.945302
 50
173.934814
 51
202.767954
  0
ARC
  8
APS_GEOMETRY
 10
517.777919
 20
1169.193769
 40
4.075908
 50
145.449386
 51
173.657452
  0
ARC
  8
APS_GEOMETRY
 10
596.047603
 20
1115.852252
 40
98.79366
 50
140.111816
 51
145.713827
  0
ARC
  8
APS_GEOMETRY
 10
489.58816
 20
1205.088468
 40
40.11931
 50
319.82734
 51
346.580926
  0
ARC
  8
APS_GEOMETRY
 10
494.41416
 20
1203.794145
 40
35.124966
 50
346.807678
 51
16.219114
  0
ARC
  8
APS_GEOMETRY
 10
501.488131
 20
1205.645748
 40
27.816064
 50
16.626816
 51
50.13557
  0
ARC
  8
APS_GEOMETRY
 10
505.095907
 20
1209.856669
 40
22.271539
 50
50.315932
 51
90.44687
  0
ARC
  8
APS_GEOMETRY
 10
504.779213
 20
1193.154523
 40
38.97327
 50
89.789782
 51
120.452779
  0
ARC
  8
APS_GEOMETRY
 10
515.448707
 20
1175.196263
 40
59.861813
 50
120.544527
 51
142.562184
  0
ARC
  8
APS_GEOMETRY
 10
525.567376
 20
1167.595366
 40
72.516851
 50
142.653776
 51
162.765243
  0
ARC
  8
APS_GEOMETRY
 10
541.743042
 20
1162.744255
 40
89.403676
 50
162.867369
 51
179.969103
  0
ARC
  8
APS_GEOMETRY
 10
618.944698
 20
1162.801648
 40
166.605319
 50
180.003158
 51
187.987248
  0
ARC
  8
APS_GEOMETRY
 10
743.931439
 20
1180.334946
 40
292.815866
 50
187.986458
 51
193.224233
  0
ARC
  8
APS_GEOMETRY
 10
737.626342
 20
1178.861948
 40
286.340999
 50
193.22592
 51
198.458755
  0
ARC
  8
APS_GEOMETRY
 10
582.874572
 20
1127.26591
 40
123.214501
 50
198.484928
 51
208.333543
  0
ARC
  8
APS_GEOMETRY
 10
560.631008
 20
1115.329165
 40
97.970515
 50
208.362876
 51
220.21674
  0
ARC
  8
APS_GEOMETRY
 10
647.66145
 20
1188.708382
 40
211.80722
 50
220.173195
 51
226.861247
  0
ARC
  8
APS_GEOMETRY
 10
649.581378
 20
1190.753932
 40
214.612642
 50
226.860635
 51
233.380202
  0
ARC
  8
APS_GEOMETRY
 10
569.494473
 20
1083.162247
 40
80.486372
 50
233.451378
 51
247.067813
  0
ARC
  8
APS_GEOMETRY
 10
572.819997
 20
1090.892805
 40
88.901733
 50
247.035233
 51
259.349033
  0
ARC
  8
APS_GEOMETRY
 10
579.981916
 20
1128.590769
 40
127.273938
 50
259.31708
 51
268.751001
  0
ARC
  8
APS_GEOMETRY
 10
580.164671
 20
1135.605028
 40
134.290517
 50
268.738279
 51
277.927094
  0
ARC
  8
APS_GEOMETRY
 10
582.567199
 20
1118.593231
 40
117.109944
 50
277.910741
 51
288.07642
  0
LINE
  8
APS_GEOMETRY
 10
0.0
 11
850.0
 20
0.0
 21
0.0
  0
LINE
  8
APS_GEOMETRY
 10
850.0
 11
850.0
 20
0.0
 21
1970.0
  0
LINE
  8
APS_GEOMETRY
 10
850.0
 11
0.0
 20
1970.0
 21
1970.0
  0
LINE
  8
APS_GEOMETRY
 10
0.0
 11
0.0
 20
1970.0
 21
0.0
  0
ENDSEC
  0
EOF
