  0
SECTION
  2
HEADER
  9
$ACADVER
  1
AC1009
  9
$LIMMIN
 10
-63.75055
 20
.815768
  9
$LIMMAX
 10
319.6726
 20
288.3831
  0
ENDSEC
  0
SECTION
  2
TABLES
  0
TABLE
  2
LTYPE
 70
     4
  0
LTYPE
  2
CONTINUOUS
 70
     0
  3
Solid line
 72
    65
 73
     0
 40
0.000000
  0
LTYPE
  2
HIDDEN
 70
     0
  3
 _ _ _ _ _ _ _ _ _ _ _
 72
    65
 73
     2
 40
0.375000
 49
0.250000
 49
-0.125000
  0
LTYPE
  2
DASHED
 70
     0
  3
 ___ ___ ___ ___ ___ ___ ___ 
 72
    65
 73
     2
 40
0.750000
 49
0.500000
 49
-0.250000
  0
LTYPE
  2
CENTER
 70
     0
  3
___ _ ___ _ ___ _ ___
 72
    65
 73
     4
 40
2.000000
 49
1.250000
 49
-0.250000
 49
0.250000
 49
-0.250000
  0
LTYPE
  2
BORDER
 70
     0
  3
___ ___ . ___ ___ . ___ ___
 72
    65
 73
     6
 40
1.750000
 49
0.500000
 49
-0.250000
 49
0.500000
 49
-0.250000
 49
0.000000
 49
-0.250000
  0
LTYPE
  2
DOT
 70
     0
  3
.................
 72
    65
 73
     2
 40
0.250000
 49
0.000000
 49
-0.250000
  0
LTYPE
  2
DASHDOT
 70
     0
  3
__ . __ . __ . __
 72
    65
 73
     4
 40
1.000000
 49
0.500000
 49
-0.250000
 49
0.000000
 49
-0.250000
  0
LTYPE
  2
DIVIDE
 70
     0
  3
___ .. ___ .. ___ .. ___
 72
    65
 73
     6
 40
1.250000
 49
0.500000
 49
-0.250000
 49
0.000000
 49
-0.250000
 49
0.000000
 49
-0.250000
  0
ENDTAB
  0
TABLE
  2
LAYER
 70
     8
  0
LAYER
  2
BLACK
 70
     0
 62
     0
  6
CONTINUOUS
  0
LAYER
  2
WHITE
 70
     0
 62
     7
  6
CONTINUOUS
  0
LAYER
  2
RED
 70
     0
 62
     1
  6
CONTINUOUS
  0
LAYER
  2
YELLOW
 70
     0
 62
     2
  6
CONTINUOUS
  0
LAYER
  2
GREEN
 70
     0
 62
     3
  6
CONTINUOUS
  0
LAYER
  2
CYAN
 70
     0
 62
     4
  6
CONTINUOUS
  0
LAYER
  2
BLUE
 70
     0
 62
     5
  6
CONTINUOUS
  0
LAYER
  2
MAGENTA
 70
     0
 62
     6
  6
CONTINUOUS
  0
ENDTAB
  0
ENDSEC
  0
SECTION
  2
BLOCKS
  0
ENDSEC
  0
SECTION
  2
ENTITIES
 0
LINE
 8
WHITE
 10
20.98
 20
147.65
 30
0.0000
 11
35.34
 21
147.65
 31
0.0000
 6
CONTINUOUS
 0
LINE
 8
WHITE
 10
20.98
 20
109.65
 30
0.0000
 11
35.21
 21
109.65
 31
0.0000
 6
CONTINUOUS
 0
LINE
 8
WHITE
 10
94.35
 20
109.65
 30
0.0000
 11
108.73
 21
109.65
 31
0.0000
 6
CONTINUOUS
 0
LINE
 8
WHITE
 10
94.35
 20
147.65
 30
0.0000
 11
108.73
 21
147.65
 31
0.0000
 6
CONTINUOUS
 0
LINE
 8
WHITE
 10
127.75
 20
147.65
 30
0.0000
 11
136.82
 21
147.65
 31
0.0000
 6
CONTINUOUS
 0
LINE
 8
WHITE
 10
127.75
 20
109.65
 30
0.0000
 11
136.82
 21
109.65
 31
0.0000
 6
CONTINUOUS
 0
LINE
 8
WHITE
 10
180.87
 20
109.65
 30
0.0000
 11
189.84
 21
109.65
 31
0.0000
 6
CONTINUOUS
 0
LINE
 8
WHITE
 10
180.57
 20
147.65
 30
0.0000
 11
189.84
 21
147.65
 31
0.0000
 6
CONTINUOUS
 0
LINE
 8
WHITE
 10
243.32
 20
109.65
 30
0.0000
 11
249.87
 21
109.65
 31
0.0000
 6
CONTINUOUS
 0
LINE
 8
WHITE
 10
243.32
 20
147.65
 30
0.0000
 11
249.87
 21
147.65
 31
0.0000
 6
CONTINUOUS
 0
LINE
 8
WHITE
 10
235.94
 20
215.92
 30
0.0000
 11
235.94
 21
213.82
 31
0.0000
 6
CONTINUOUS
 0
LINE
 8
WHITE
 10
235.94
 20
213.82
 30
0.0000
 11
232.61
 21
213.82
 31
0.0000
 6
CONTINUOUS
 0
ARC
 8
WHITE
 10
232.606
 20
214.61
 30
 0
 40
.79001
 50
132.7419
 51
270.2901
 6
CONTINUOUS
 0
LINE
 8
WHITE
 10
232.07
 20
215.19
 30
0.0000
 11
234.87
 21
217.76
 31
0.0000
 6
CONTINUOUS
 0
ARC
 8
WHITE
 10
235.94
 20
216.59
 30
 0
 40
1.585496
 50
47.55632
 51
132.4438
 6
CONTINUOUS
 0
LINE
 8
WHITE
 10
237.01
 20
217.76
 30
0.0000
 11
239.81
 21
215.19
 31
0.0000
 6
CONTINUOUS
 0
ARC
 8
WHITE
 10
239.285
 20
214.606
 30
 0
 40
.78529
 50
269.6352
 51
48.04533
 6
CONTINUOUS
 0
LINE
 8
WHITE
 10
239.28
 20
213.82
 30
0.0000
 11
235.94
 21
213.82
 31
0.0000
 6
CONTINUOUS
 0
LINE
 8
WHITE
 10
215.43
 20
158.92
 30
0.0000
 11
215.43
 21
147.65
 31
0.0000
 6
CONTINUOUS
 0
LINE
 8
WHITE
 10
215.43
 20
147.65
 30
0.0000
 11
191.87
 21
147.65
 31
0.0000
 6
CONTINUOUS
 0
ARC
 8
WHITE
 10
-983.423
 20
-692.739
 30
 0
 40
1444.842
 50
35.56652
 51
35.70266
 6
CONTINUOUS
 0
ARC
 8
WHITE
 10
192.73
 20
152.93
 30
 0
 40
3.792057
 50
100.3318
 51
221.0438
 6
CONTINUOUS
 0
ARC
 8
WHITE
 10
177.884
 20
195.722
 30
 0
 40
41.55136
 50
289.9334
 51
307.0514
 6
CONTINUOUS
 0
ARC
 8
WHITE
 10
496.191
 20
-141.296
 30
 0
 40
422.2989
 50
131.6283
 51
133.9845
 6
CONTINUOUS
 0
ARC
 8
WHITE
 10
221.68
 20
170.8
 30
 0
 40
6.993854
 50
93.52529
 51
149.4015
 6
CONTINUOUS
 0
ARC
 8
WHITE
 10
176.373
 20
95.913
 30
 0
 40
93.36032
 50
53.80924
 51
61.26979
 6
CONTINUOUS
 0
ARC
 8
WHITE
 10
230.67
 20
160.49
 30
 0
 40
10.80194
 50
4.40693
 51
85.59316
 6
CONTINUOUS
 0
ARC
 8
WHITE
 10
326.089
 20
154.007
 30
 0
 40
84.96431
 50
175.0624
 51
183.5744
 6
CONTINUOUS
 0
ARC
 8
WHITE
 10
240.29
 20
148.652
 30
 0
 40
1.00168
 50
270
 51
3.319436
 6
CONTINUOUS
 0
LINE
 8
WHITE
 10
240.29
 20
147.65
 30
0.0000
 11
215.43
 21
147.65
 31
0.0000
 6
CONTINUOUS
 0
LINE
 8
WHITE
 10
184.31
 20
171.77
 30
0.0000
 11
184.31
 21
161.27
 31
0.0000
 6
CONTINUOUS
 0
ARC
 8
WHITE
 10
184.315
 20
165.8
 30
 0
 40
4.530003
 50
269.9368
 51
324.6607
 6
CONTINUOUS
 0
ARC
 8
WHITE
 10
171.108
 20
191.089
 30
 0
 40
32.62806
 50
301.1996
 51
332.7313
 6
CONTINUOUS
 0
ARC
 8
WHITE
 10
197.303
 20
177.596
 30
 0
 40
3.162148
 50
332.5841
 51
96.04585
 6
CONTINUOUS
 0
ARC
 8
WHITE
 10
189.601
 20
251.304
 30
 0
 40
70.94773
 50
265.4478
 51
275.9618
 6
CONTINUOUS
 0
ARC
 8
WHITE
 10
177.77
 20
173.37
 30
 0
 40
9.509159
 50
49.30721
 51
117.2926
 6
CONTINUOUS
 0
ARC
 8
WHITE
 10
178.984
 20
176.553
 30
 0
 40
7.668817
 50
136.6221
 51
201.5198
 6
CONTINUOUS
 0
ARC
 8
WHITE
 10
165.307
 20
159.707
 30
 0
 40
15.48341
 50
15.32782
 51
65.00233
 6
CONTINUOUS
 0
ARC
 8
WHITE
 10
184.308
 20
165.805
 30
 0
 40
4.535267
 50
206.2374
 51
270.0253
 6
CONTINUOUS
 0
LINE
 8
WHITE
 10
158.1
 20
155.55
 30
0.0000
 11
158.1
 21
147.65
 31
0.0000
 6
CONTINUOUS
 0
LINE
 8
WHITE
 10
158.1
 20
147.65
 30
0.0000
 11
139.24
 21
147.65
 31
0.0000
 6
CONTINUOUS
 0
ARC
 8
WHITE
 10
139.242
 20
148.15
 30
 0
 40
.500003
 50
218.3374
 51
269.7708
 6
CONTINUOUS
 0
ARC
 8
WHITE
 10
140.832
 20
149.408
 30
 0
 40
2.527241
 50
139.1723
 51
218.3482
 6
CONTINUOUS
 0
ARC
 8
WHITE
 10
39.656
 20
211.737
 30
 0
 40
116.3402
 50
328.5638
 51
340.2899
 6
CONTINUOUS
 0
ARC
 8
WHITE
 10
172.398
 20
147.647
 30
 0
 40
34.01099
 50
122.5677
 51
133.052
 6
CONTINUOUS
 0
ARC
 8
WHITE
 10
153.255
 20
177.65
 30
 0
 40
1.578868
 50
301.9284
 51
332.8671
 6
CONTINUOUS
 0
ARC
 8
WHITE
 10
-259.842
 20
385.638
 30
 0
 40
464.0807
 50
333.274
 51
333.7334
 6
CONTINUOUS
 0
ARC
 8
WHITE
 10
158.076
 20
179.766
 30
 0
 40
1.824163
 50
335.8529
 51
164.2876
 6
CONTINUOUS
 0
ARC
 8
WHITE
 10
226.591
 20
150.403
 30
 0
 40
72.71856
 50
156.8256
 51
158.6561
 6
CONTINUOUS
 0
ARC
 8
WHITE
 10
160.327
 20
176.293
 30
 0
 40
1.576393
 50
158.5293
 51
224.3833
 6
CONTINUOUS
 0
ARC
 8
WHITE
 10
-105.539
 20
-81.38101
 30
 0
 40
368.6671
 50
40.9781
 51
44.10235
 6
CONTINUOUS
 0
ARC
 8
WHITE
 10
131.463
 20
131.316
 30
 0
 40
50.52363
 50
21.47204
 51
35.11753
 6
CONTINUOUS
 0
ARC
 8
WHITE
 10
177.01
 20
149.23
 30
 0
 40
1.580284
 50
269.6376
 51
21.5321
 6
CONTINUOUS
 0
LINE
 8
WHITE
 10
177
 20
147.65
 30
0.0000
 11
158.1
 21
147.65
 31
0.0000
 6
CONTINUOUS
 0
LINE
 8
WHITE
 10
121.05
 20
153.13
 30
0.0000
 11
121.05
 21
147.65
 31
0.0000
 6
CONTINUOUS
 0
LINE
 8
WHITE
 10
121.05
 20
147.65
 30
0.0000
 11
111.71
 21
147.65
 31
0.0000
 6
CONTINUOUS
 0
ARC
 8
WHITE
 10
111.718
 20
148.6
 30
 0
 40
.950033
 50
112.1374
 51
269.5175
 6
CONTINUOUS
 0
ARC
 8
WHITE
 10
101.534
 20
174.692
 30
 0
 40
27.05911
 50
291.2926
 51
14.59395
 6
CONTINUOUS
 0
ARC
 8
WHITE
 10
77.157
 20
230.378
 30
 0
 40
70.31855
 50
315.9766
 51
326.0822
 6
CONTINUOUS
 0
ARC
 8
WHITE
 10
138.662
 20
191.931
 30
 0
 40
3.249736
 50
340.1992
 51
194.0876
 6
CONTINUOUS
 0
ARC
 8
WHITE
 10
130.79
 20
187.65
 30
 0
 40
11.3832
 50
325.4862
 51
16.22195
 6
CONTINUOUS
 0
ARC
 8
WHITE
 10
146.56
 20
176.23
 30
 0
 40
8.095245
 50
142.125
 51
204.6021
 6
CONTINUOUS
 0
ARC
 8
WHITE
 10
137.762
 20
172.196
 30
 0
 40
1.5839
 50
332.7234
 51
24.78525
 6
CONTINUOUS
 0
ARC
 8
WHITE
 10
180.972
 20
149.814
 30
 0
 40
47.07854
 50
152.6131
 51
168.1893
 6
CONTINUOUS
 0
ARC
 8
WHITE
 10
127.501
 20
159.978
 30
 0
 40
7.40784
 50
276.6588
 51
355.9127
 6
CONTINUOUS
 0
ARC
 8
WHITE
 10
119.317
 20
154.426
 30
 0
 40
9.221577
 50
313.9763
 51
348.7059
 6
CONTINUOUS
 0
ARC
 8
WHITE
 10
125.372
 20
148.152
 30
 0
 40
.502143
 50
269.7719
 51
313.8704
 6
CONTINUOUS
 0
LINE
 8
WHITE
 10
125.37
 20
147.65
 30
0.0000
 11
121.05
 21
147.65
 31
0.0000
 6
CONTINUOUS
 0
LINE
 8
WHITE
 10
82.85
 20
169.64
 30
0.0000
 11
82.85
 21
172.8
 31
0.0000
 6
CONTINUOUS
 0
LINE
 8
WHITE
 10
82.85
 20
172.8
 30
0.0000
 11
93.73
 21
172.8
 31
0.0000
 6
CONTINUOUS
 0
ARC
 8
WHITE
 10
93.734
 20
172.01
 30
 0
 40
.79001
 50
19.21432
 51
90.2901
 6
CONTINUOUS
 0
ARC
 8
WHITE
 10
101.561
 20
174.639
 30
 0
 40
7.466774
 50
198.498
 51
202.8459
 6
CONTINUOUS
 0
ARC
 8
WHITE
 10
93.95
 20
171.431
 30
 0
 40
.792704
 50
314.9489
 51
22.94234
 6
CONTINUOUS
 0
LINE
 8
WHITE
 10
94.51
 20
170.87
 30
0.0000
 11
86.8
 21
163.15
 31
0.0000
 6
CONTINUOUS
 0
ARC
 8
WHITE
 10
84.56001
 20
165.39
 30
 0
 40
3.167838
 50
208.6682
 51
315
 6
CONTINUOUS
 0
ARC
 8
WHITE
 10
101.535
 20
174.699
 30
 0
 40
22.52837
 50
195.1534
 51
208.73
 6
CONTINUOUS
 0
ARC
 8
WHITE
 10
82.853
 20
169.629
 30
 0
 40
3.170603
 50
90.05431
 51
194.9698
 6
CONTINUOUS
 0
LINE
 8
WHITE
 10
94.35
 20
160.23
 30
0.0000
 11
94.35
 21
164.97
 31
0.0000
 6
CONTINUOUS
 0
LINE
 8
WHITE
 10
94.35
 20
164.97
 30
0.0000
 11
97.26
 21
167.88
 31
0.0000
 6
CONTINUOUS
 0
ARC
 8
WHITE
 10
97.82
 20
167.32
 30
 0
 40
.791959
 50
63.75848
 51
135
 6
CONTINUOUS
 0
ARC
 8
WHITE
 10
101.477
 20
174.717
 30
 0
 40
7.460041
 50
243.6857
 51
249.0529
 6
CONTINUOUS
 0
ARC
 8
WHITE
 10
98.515
 20
167.012
 30
 0
 40
.794776
 50
359.8559
 51
68.21198
 6
CONTINUOUS
 0
LINE
 8
WHITE
 10
99.31
 20
167.01
 30
0.0000
 11
99.31
 21
156.1
 31
0.0000
 6
CONTINUOUS
 0
ARC
 8
WHITE
 10
96.14
 20
156.105
 30
 0
 40
3.170004
 50
253.8809
 51
359.9096
 6
CONTINUOUS
 0
ARC
 8
WHITE
 10
101.53
 20
174.7
 30
 0
 40
22.53004
 50
239.8387
 51
253.8415
 6
CONTINUOUS
 0
ARC
 8
WHITE
 10
91.813
 20
157.953
 30
 0
 40
3.168421
 50
135.0767
 51
239.6069
 6
CONTINUOUS
 0
LINE
 8
WHITE
 10
89.57
 20
160.19
 30
0.0000
 11
94.35
 21
164.97
 31
0.0000
 6
CONTINUOUS
 0
LINE
 8
WHITE
 10
108.73
 20
160.23
 30
0.0000
 11
108.73
 21
164.56
 31
0.0000
 6
CONTINUOUS
 0
LINE
 8
WHITE
 10
108.73
 20
164.56
 30
0.0000
 11
105.55
 21
167.75
 31
0.0000
 6
CONTINUOUS
 0
ARC
 8
WHITE
 10
104.99
 20
167.19
 30
 0
 40
.791959
 50
45
 51
114.6236
 6
CONTINUOUS
 0
ARC
 8
WHITE
 10
101.54
 20
174.69
 30
 0
 40
7.46343
 50
288.4349
 51
294.7108
 6
CONTINUOUS
 0
ARC
 8
WHITE
 10
104.15
 20
166.86
 30
 0
 40
.790569
 50
108.435
 51
180
 6
CONTINUOUS
 0
LINE
 8
WHITE
 10
103.36
 20
166.86
 30
0.0000
 11
103.36
 21
155.98
 31
0.0000
 6
CONTINUOUS
 0
ARC
 8
WHITE
 10
106.53
 20
155.995
 30
 0
 40
3.170035
 50
180.2711
 51
284.8033
 6
CONTINUOUS
 0
ARC
 8
WHITE
 10
101.538
 20
174.702
 30
 0
 40
22.53183
 50
284.9219
 51
299.2863
 6
CONTINUOUS
 0
ARC
 8
WHITE
 10
111.012
 20
157.811
 30
 0
 40
3.165347
 50
299.2779
 51
45.01279
 6
CONTINUOUS
 0
LINE
 8
WHITE
 10
113.25
 20
160.05
 30
0.0000
 11
108.73
 21
164.56
 31
0.0000
 6
CONTINUOUS
 0
LINE
 8
WHITE
 10
116.04
 20
168.81
 30
0.0000
 11
116.04
 21
172.8
 31
0.0000
 6
CONTINUOUS
 0
LINE
 8
WHITE
 10
116.04
 20
172.8
 30
0.0000
 11
120.23
 21
172.8
 31
0.0000
 6
CONTINUOUS
 0
ARC
 8
WHITE
 10
120.218
 20
169.63
 30
 0
 40
3.170022
 50
345.0079
 51
89.78311
 6
CONTINUOUS
 0
ARC
 8
WHITE
 10
101.526
 20
174.675
 30
 0
 40
22.53075
 50
330.4699
 51
344.9115
 6
CONTINUOUS
 0
ARC
 8
WHITE
 10
118.377
 20
165.124
 30
 0
 40
3.161317
 50
224.9617
 51
330.5564
 6
CONTINUOUS
 0
LINE
 8
WHITE
 10
116.14
 20
162.89
 30
0.0000
 11
108.44
 21
170.59
 31
0.0000
 6
CONTINUOUS
 0
ARC
 8
WHITE
 10
108.997
 20
171.153
 30
 0
 40
.79197
 50
154.8255
 51
225.3069
 6
CONTINUOUS
 0
ARC
 8
WHITE
 10
101.548
 20
174.707
 30
 0
 40
7.46116
 50
334.4584
 51
340.9361
 6
CONTINUOUS
 0
ARC
 8
WHITE
 10
109.349
 20
172.006
 30
 0
 40
.794164
 50
90.6496
 51
160.584
 6
CONTINUOUS
 0
LINE
 8
WHITE
 10
109.34
 20
172.8
 30
0.0000
 11
116.04
 21
172.8
 31
0.0000
 6
CONTINUOUS
 0
LINE
 8
WHITE
 10
116.04
 20
181.97
 30
0.0000
 11
116.04
 21
186.66
 31
0.0000
 6
CONTINUOUS
 0
ARC
 8
WHITE
 10
118.277
 20
184.417
 30
 0
 40
3.167841
 50
30.39305
 51
134.9233
 6
CONTINUOUS
 0
ARC
 8
WHITE
 10
101.551
 20
174.681
 30
 0
 40
22.52167
 50
16.00306
 51
30.22988
 6
CONTINUOUS
 0
ARC
 8
WHITE
 10
120.162
 20
180.012
 30
 0
 40
3.162329
 50
269.7827
 51
16.11961
 6
CONTINUOUS
 0
LINE
 8
WHITE
 10
120.15
 20
176.85
 30
0.0000
 11
109.25
 21
176.85
 31
0.0000
 6
CONTINUOUS
 0
ARC
 8
WHITE
 10
109.249
 20
177.64
 30
 0
 40
.79
 50
200.7512
 51
270.0725
 6
CONTINUOUS
 0
ARC
 8
WHITE
 10
101.54
 20
174.69
 30
 0
 40
7.463899
 50
20.96035
 51
26.83966
 6
CONTINUOUS
 0
ARC
 8
WHITE
 10
108.915
 20
178.409
 30
 0
 40
.795629
 50
135.203
 51
206.0175
 6
CONTINUOUS
 0
LINE
 8
WHITE
 10
108.35
 20
178.97
 30
0.0000
 11
116.04
 21
186.66
 31
0.0000
 6
CONTINUOUS
 0
LINE
 8
WHITE
 10
108.73
 20
192.84
 30
0.0000
 11
108.73
 21
196.04
 31
0.0000
 6
CONTINUOUS
 0
ARC
 8
WHITE
 10
101.53
 20
174.69
 30
 0
 40
22.53137
 50
71.36401
 51
80.6255
 6
CONTINUOUS
 0
ARC
 8
WHITE
 10
104.942
 20
195.36
 30
 0
 40
1.58119
 50
80.60916
 51
180
 6
CONTINUOUS
 0
LINE
 8
WHITE
 10
103.36
 20
195.36
 30
0.0000
 11
103.36
 21
193.24
 31
0.0000
 6
CONTINUOUS
 0
ARC
 8
WHITE
 10
104.94
 20
193.232
 30
 0
 40
1.58002
 50
179.7099
 51
239.5714
 6
CONTINUOUS
 0
ARC
 8
WHITE
 10
98.195
 20
181.707
 30
 0
 40
11.77411
 50
29.92052
 51
59.67386
 6
CONTINUOUS
 0
ARC
 8
WHITE
 10
109.771
 20
188.368
 30
 0
 40
1.581323
 50
209.8887
 51
315.0256
 6
CONTINUOUS
 0
LINE
 8
WHITE
 10
110.89
 20
187.25
 30
0.0000
 11
114.49
 21
190.85
 31
0.0000
 6
CONTINUOUS
 0
ARC
 8
WHITE
 10
113.374
 20
191.974
 30
 0
 40
1.583929
 50
314.7954
 51
55.54748
 6
CONTINUOUS
 0
ARC
 8
WHITE
 10
101.552
 20
174.692
 30
 0
 40
22.52246
 50
55.61987
 51
71.41539
 6
CONTINUOUS
 0
LINE
 8
WHITE
 10
94.35
 20
194.29
 30
0.0000
 11
94.35
 21
196.04
 31
0.0000
 6
CONTINUOUS
 0
ARC
 8
WHITE
 10
101.527
 20
174.686
 30
 0
 40
22.52782
 50
100.4525
 51
108.5773
 6
CONTINUOUS
 0
ARC
 8
WHITE
 10
97.723
 20
195.279
 30
 0
 40
1.586445
 50
.397186
 51
100.2758
 6
CONTINUOUS
 0
LINE
 8
WHITE
 10
99.31
 20
195.29
 30
0.0000
 11
99.31
 21
193.88
 31
0.0000
 6
CONTINUOUS
 0
ARC
 8
WHITE
 10
97.73
 20
193.87
 30
 0
 40
1.580031
 50
270.0003
 51
.362626
 6
CONTINUOUS
 0
LINE
 8
WHITE
 10
97.73
 20
192.29
 30
0.0000
 11
93.13
 21
192.29
 31
0.0000
 6
CONTINUOUS
 0
ARC
 8
WHITE
 10
93.103
 20
193.87
 30
 0
 40
1.58023
 50
112.4411
 51
270.979
 6
CONTINUOUS
 0
ARC
 8
WHITE
 10
101.487
 20
174.677
 30
 0
 40
22.5236
 50
108.4736
 51
113.5159
 6
CONTINUOUS
 0
LINE
 8
WHITE
 10
121.05
 20
204.32
 30
0.0000
 11
121.05
 21
209.47
 31
0.0000
 6
CONTINUOUS
 0
LINE
 8
WHITE
 10
121.05
 20
209.47
 30
0.0000
 11
129
 21
209.47
 31
0.0000
 6
CONTINUOUS
 0
ARC
 8
WHITE
 10
129.01
 20
207.1
 30
 0
 40
2.37002
 50
359.758
 51
90.24175
 6
CONTINUOUS
 0
LINE
 8
WHITE
 10
131.38
 20
207.09
 30
0.0000
 11
131.38
 21
206.43
 31
0.0000
 6
CONTINUOUS
 0
ARC
 8
WHITE
 10
128.21
 20
206.432
 30
 0
 40
3.17
 50
321.7636
 51
359.9638
 6
CONTINUOUS
 0
ARC
 8
WHITE
 10
104.564
 20
225.002
 30
 0
 40
33.23633
 50
299.936
 51
321.8474
 6
CONTINUOUS
 0
ARC
 8
WHITE
 10
119.575
 20
198.943
 30
 0
 40
3.163016
 50
233.1987
 51
299.864
 6
CONTINUOUS
 0
ARC
 8
WHITE
 10
101.545
 20
174.686
 30
 0
 40
27.0605
 50
53.39774
 51
70.47294
 6
CONTINUOUS
 0
ARC
 8
WHITE
 10
111.643
 20
203.173
 30
 0
 40
3.163399
 50
179.8734
 51
250.5569
 6
CONTINUOUS
 0
LINE
 8
WHITE
 10
108.48
 20
203.18
 30
0.0000
 11
108.48
 21
206.3
 31
0.0000
 6
CONTINUOUS
 0
ARC
 8
WHITE
 10
111.65
 20
206.3
 30
 0
 40
3.17
 50
90
 51
180
 6
CONTINUOUS
 0
LINE
 8
WHITE
 10
111.65
 20
209.47
 30
0.0000
 11
121.05
 21
209.47
 31
0.0000
 6
CONTINUOUS
 0
LINE
 8
WHITE
 10
92.32
 20
205.49
 30
0.0000
 11
92.32
 21
209.47
 31
0.0000
 6
CONTINUOUS
 0
LINE
 8
WHITE
 10
92.32
 20
209.47
 30
0.0000
 11
98.17
 21
209.47
 31
0.0000
 6
CONTINUOUS
 0
ARC
 8
WHITE
 10
98.17
 20
206.3
 30
 0
 40
3.17
 50
0
 51
90
 6
CONTINUOUS
 0
LINE
 8
WHITE
 10
101.34
 20
206.3
 30
0.0000
 11
101.34
 21
204.73
 31
0.0000
 6
CONTINUOUS
 0
ARC
 8
WHITE
 10
98.17
 20
204.73
 30
 0
 40
3.17
 50
276.3402
 51
0
 6
CONTINUOUS
 0
ARC
 8
WHITE
 10
101.539
 20
174.691
 30
 0
 40
27.05795
 50
96.40614
 51
137.876
 6
CONTINUOUS
 0
ARC
 8
WHITE
 10
80.886
 20
193.377
 30
 0
 40
.793363
 50
232.22
 51
317.4008
 6
CONTINUOUS
 0
LINE
 8
WHITE
 10
80.4
 20
192.75
 30
0.0000
 11
79.53
 21
193.43
 31
0.0000
 6
CONTINUOUS
 0
ARC
 8
WHITE
 10
80.012
 20
194.057
 30
 0
 40
.790855
 50
188.5085
 51
232.4491
 6
CONTINUOUS
 0
ARC
 8
WHITE
 10
-707.181
 20
79.119
 30
 0
 40
794.7491
 50
8.306851
 51
9.070432
 6
CONTINUOUS
 0
ARC
 8
WHITE
 10
76.07
 20
204.16
 30
 0
 40
1.579905
 50
9.104601
 51
90
 6
CONTINUOUS
 0
LINE
 8
WHITE
 10
76.07
 20
205.74
 30
0.0000
 11
76.01
 21
205.74
 31
0.0000
 6
CONTINUOUS
 0
ARC
 8
WHITE
 10
76.01
 20
206.53
 30
 0
 40
.79
 50
180
 51
270
 6
CONTINUOUS
 0
LINE
 8
WHITE
 10
75.22
 20
206.53
 30
0.0000
 11
75.22
 21
207.88
 31
0.0000
 6
CONTINUOUS
 0
ARC
 8
WHITE
 10
76.8
 20
207.89
 30
 0
 40
1.580031
 50
90
 51
180.3626
 6
CONTINUOUS
 0
LINE
 8
WHITE
 10
76.8
 20
209.47
 30
0.0000
 11
92.32
 21
209.47
 31
0.0000
 6
CONTINUOUS
 0
LINE
 8
WHITE
 10
92.32
 20
240.56
 30
0.0000
 11
92.32
 21
246.07
 31
0.0000
 6
CONTINUOUS
 0
LINE
 8
WHITE
 10
92.32
 20
246.07
 30
0.0000
 11
72.65
 21
246.07
 31
0.0000
 6
CONTINUOUS
 0
ARC
 8
WHITE
 10
72.741
 20
245.245
 30
 0
 40
.830003
 50
96.29445
 51
263.7054
 6
CONTINUOUS
 0
LINE
 8
WHITE
 10
72.65
 20
244.42
 30
0.0000
 11
72.83
 21
244.42
 31
0.0000
 6
CONTINUOUS
 0
ARC
 8
WHITE
 10
72.82401
 20
242.84
 30
 0
 40
1.580011
 50
52.30327
 51
89.78242
 6
CONTINUOUS
 0
ARC
 8
WHITE
 10
70.905
 20
239.926
 30
 0
 40
5.065779
 50
31.59422
 51
55.2841
 6
CONTINUOUS
 0
ARC
 8
WHITE
 10
85.956
 20
251.773
 30
 0
 40
14.1341
 50
220.5727
 51
236.6225
 6
CONTINUOUS
 0
ARC
 8
WHITE
 10
77.31
 20
238.65
 30
 0
 40
1.580917
 50
0
 51
56.61149
 6
CONTINUOUS
 0
LINE
 8
WHITE
 10
78.89
 20
238.65
 30
0.0000
 11
78.89
 21
237.89
 31
0.0000
 6
CONTINUOUS
 0
ARC
 8
WHITE
 10
77.31
 20
237.883
 30
 0
 40
1.580015
 50
285.4176
 51
.25384
 6
CONTINUOUS
 0
ARC
 8
WHITE
 10
79.125
 20
231.359
 30
 0
 40
5.191919
 50
105.5861
 51
127.2825
 6
CONTINUOUS
 0
ARC
 8
WHITE
 10
84.648
 20
231.515
 30
 0
 40
9.535976
 50
155.3646
 51
186.8358
 6
CONTINUOUS
 0
ARC
 8
WHITE
 10
73.61
 20
230.19
 30
 0
 40
1.581455
 50
337.3244
 51
6.900327
 6
CONTINUOUS
 0
ARC
 8
WHITE
 10
84.729
 20
225.537
 30
 0
 40
10.47101
 50
157.2871
 51
190.9945
 6
CONTINUOUS
 0
ARC
 8
WHITE
 10
72.89999
 20
223.238
 30
 0
 40
1.579146
 50
323.5515
 51
11.0253
 6
CONTINUOUS
 0
ARC
 8
WHITE
 10
78.46799
 20
219.117
 30
 0
 40
5.348298
 50
143.4772
 51
262.0685
 6
CONTINUOUS
 0
LINE
 8
WHITE
 10
77.73
 20
213.82
 30
0.0000
 11
98.17
 21
213.82
 31
0.0000
 6
CONTINUOUS
 0
ARC
 8
WHITE
 10
98.17
 20
216.99
 30
 0
 40
3.17
 50
270
 51
359.8191
 6
CONTINUOUS
 0
LINE
 8
WHITE
 10
101.34
 20
216.98
 30
0.0000
 11
101.34
 21
242.91
 31
0.0000
 6
CONTINUOUS
 0
ARC
 8
WHITE
 10
98.17
 20
242.9
 30
 0
 40
3.170015
 50
.180743
 51
90
 6
CONTINUOUS
 0
LINE
 8
WHITE
 10
98.17
 20
246.07
 30
0.0000
 11
92.32
 21
246.07
 31
0.0000
 6
CONTINUOUS
 0
LINE
 8
WHITE
 10
71.54
 20
155.25
 30
0.0000
 11
71.54
 21
147.65
 31
0.0000
 6
CONTINUOUS
 0
LINE
 8
WHITE
 10
71.54
 20
147.65
 30
0.0000
 11
38.36
 21
147.65
 31
0.0000
 6
CONTINUOUS
 0
ARC
 8
WHITE
 10
38.368
 20
148.6
 30
 0
 40
.950033
 50
112.1374
 51
269.5175
 6
CONTINUOUS
 0
ARC
 8
WHITE
 10
28.184
 20
174.831
 30
 0
 40
27.18866
 50
291.1862
 51
6.65087
 6
CONTINUOUS
 0
ARC
 8
WHITE
 10
58.33
 20
178.348
 30
 0
 40
3.16149
 50
89.99993
 51
186.6844
 6
CONTINUOUS
 0
LINE
 8
WHITE
 10
58.33
 20
181.51
 30
0.0000
 11
71.53
 21
181.51
 31
0.0000
 6
CONTINUOUS
 0
ARC
 8
WHITE
 10
71.533
 20
178.34
 30
 0
 40
3.170001
 50
353.1151
 51
90.05422
 6
CONTINUOUS
 0
ARC
 8
WHITE
 10
101.54
 20
174.69
 30
 0
 40
27.05832
 50
173.0588
 51
248.698
 6
CONTINUOUS
 0
ARC
 8
WHITE
 10
91.388
 20
148.593
 30
 0
 40
.943638
 50
268.9066
 51
70.04802
 6
CONTINUOUS
 0
LINE
 8
WHITE
 10
91.37
 20
147.65
 30
0.0000
 11
71.54
 21
147.65
 31
0.0000
 6
CONTINUOUS
 0
LINE
 8
WHITE
 10
42.26
 20
179.11
 30
0.0000
 11
42.26
 21
181.51
 31
0.0000
 6
CONTINUOUS
 0
LINE
 8
WHITE
 10
42.26
 20
181.51
 30
0.0000
 11
37.43
 21
181.51
 31
0.0000
 6
CONTINUOUS
 0
ARC
 8
WHITE
 10
37.43
 20
179.93
 30
 0
 40
1.58
 50
90
 51
138.8479
 6
CONTINUOUS
 0
LINE
 8
WHITE
 10
36.24
 20
180.97
 30
0.0000
 11
35.17
 21
179.74
 31
0.0000
 6
CONTINUOUS
 0
ARC
 8
WHITE
 10
36.358
 20
178.698
 30
 0
 40
1.580224
 50
138.7458
 51
205.3977
 6
CONTINUOUS
 0
ARC
 8
WHITE
 10
28.18
 20
174.83
 30
 0
 40
7.465828
 50
23.44044
 51
25.29507
 6
CONTINUOUS
 0
ARC
 8
WHITE
 10
36.48
 20
178.43
 30
 0
 40
1.580949
 50
203.4841
 51
270
 6
CONTINUOUS
 0
LINE
 8
WHITE
 10
36.48
 20
176.85
 30
0.0000
 11
48.82
 21
176.85
 31
0.0000
 6
CONTINUOUS
 0
ARC
 8
WHITE
 10
48.825
 20
178.43
 30
 0
 40
1.580007
 50
269.8187
 51
10.2075
 6
CONTINUOUS
 0
ARC
 8
WHITE
 10
28.19
 20
174.83
 30
 0
 40
22.52666
 50
9.918103
 51
14.07941
 6
CONTINUOUS
 0
ARC
 8
WHITE
 10
48.5
 20
179.921
 30
 0
 40
1.58837
 50
14.17622
 51
90
 6
CONTINUOUS
 0
LINE
 8
WHITE
 10
48.5
 20
181.51
 30
0.0000
 11
42.26
 21
181.51
 31
0.0000
 6
CONTINUOUS
 0
LINE
 8
WHITE
 10
46.84
 20
169.64
 30
0.0000
 11
46.84
 21
172.8
 31
0.0000
 6
CONTINUOUS
 0
ARC
 8
WHITE
 10
46.833
 20
169.63
 30
 0
 40
3.170007
 50
344.6353
 51
89.87348
 6
CONTINUOUS
 0
ARC
 8
WHITE
 10
28.193
 20
174.841
 30
 0
 40
22.52497
 50
331.0853
 51
344.4169
 6
CONTINUOUS
 0
ARC
 8
WHITE
 10
45.135
 20
165.47
 30
 0
 40
3.16402
 50
225.5761
 51
331.2884
 6
CONTINUOUS
 0
LINE
 8
WHITE
 10
42.92
 20
163.21
 30
0.0000
 11
35.22
 21
170.76
 31
0.0000
 6
CONTINUOUS
 0
ARC
 8
WHITE
 10
35.886
 20
171.434
 30
 0
 40
.947539
 50
155.9753
 51
225.3421
 6
CONTINUOUS
 0
ARC
 8
WHITE
 10
28.19
 20
174.82
 30
 0
 40
7.459818
 50
336.287
 51
339.354
 6
CONTINUOUS
 0
ARC
 8
WHITE
 10
36.059
 20
171.847
 30
 0
 40
.952874
 50
90.54101
 51
158.9021
 6
CONTINUOUS
 0
LINE
 8
WHITE
 10
36.05
 20
172.8
 30
0.0000
 11
46.84
 21
172.8
 31
0.0000
 6
CONTINUOUS
 0
LINE
 8
WHITE
 10
35.34
 20
159.45
 30
0.0000
 11
35.34
 21
164.98
 31
0.0000
 6
CONTINUOUS
 0
LINE
 8
WHITE
 10
35.34
 20
164.98
 30
0.0000
 11
32.39
 21
167.87
 31
0.0000
 6
CONTINUOUS
 0
ARC
 8
WHITE
 10
31.726
 20
167.194
 30
 0
 40
.947561
 50
45.51308
 51
115.3749
 6
CONTINUOUS
 0
ARC
 8
WHITE
 10
28.3
 20
174.874
 30
 0
 40
7.462397
 50
289.7365
 51
293.8721
 6
CONTINUOUS
 0
ARC
 8
WHITE
 10
31.163
 20
166.961
 30
 0
 40
.952874
 50
111.0979
 51
180.0596
 6
CONTINUOUS
 0
LINE
 8
WHITE
 10
30.21
 20
166.96
 30
0.0000
 11
30.21
 21
156.17
 31
0.0000
 6
CONTINUOUS
 0
ARC
 8
WHITE
 10
33.38
 20
156.174
 30
 0
 40
3.170002
 50
180.0723
 51
285.5532
 6
CONTINUOUS
 0
ARC
 8
WHITE
 10
28.161
 20
174.812
 30
 0
 40
22.525
 50
285.6306
 51
300.0778
 6
CONTINUOUS
 0
ARC
 8
WHITE
 10
37.875
 20
158.063
 30
 0
 40
3.163016
 50
299.864
 51
45.53814
 6
CONTINUOUS
 0
LINE
 8
WHITE
 10
40.09
 20
160.32
 30
0.0000
 11
35.34
 21
164.98
 31
0.0000
 6
CONTINUOUS
 0
LINE
 8
WHITE
 10
20.98
 20
159.17
 30
0.0000
 11
20.98
 21
163.51
 31
0.0000
 6
CONTINUOUS
 0
LINE
 8
WHITE
 10
20.98
 20
163.51
 30
0.0000
 11
24.6
 21
167.65
 31
0.0000
 6
CONTINUOUS
 0
ARC
 8
WHITE
 10
25.2
 20
167.13
 30
 0
 40
.793977
 50
68.6004
 51
139.0856
 6
CONTINUOUS
 0
ARC
 8
WHITE
 10
28.337
 20
174.771
 30
 0
 40
7.465199
 50
247.5815
 51
248.8214
 6
CONTINUOUS
 0
ARC
 8
WHITE
 10
25.372
 20
167.069
 30
 0
 40
.787975
 50
.073225
 51
70.11629
 6
CONTINUOUS
 0
LINE
 8
WHITE
 10
26.16
 20
167.07
 30
0.0000
 11
26.16
 21
156.17
 31
0.0000
 6
CONTINUOUS
 0
ARC
 8
WHITE
 10
22.99
 20
156.174
 30
 0
 40
3.170002
 50
254.4469
 51
359.9277
 6
CONTINUOUS
 0
ARC
 8
WHITE
 10
28.205
 20
174.813
 30
 0
 40
22.52489
 50
244.3371
 51
254.3799
 6
CONTINUOUS
 0
ARC
 8
WHITE
 10
19.808
 20
157.366
 30
 0
 40
3.16242
 50
138.7698
 51
244.5694
 6
CONTINUOUS
 0
LINE
 8
WHITE
 10
17.43
 20
159.45
 30
0.0000
 11
20.98
 21
163.51
 31
0.0000
 6
CONTINUOUS
 0
LINE
 8
WHITE
 10
13.45
 20
168.69
 30
0.0000
 11
13.45
 21
172.8
 31
0.0000
 6
CONTINUOUS
 0
LINE
 8
WHITE
 10
13.45
 20
172.8
 30
0.0000
 11
20.31
 21
172.8
 31
0.0000
 6
CONTINUOUS
 0
ARC
 8
WHITE
 10
20.313
 20
171.85
 30
 0
 40
.950004
 50
20.97233
 51
90.18093
 6
CONTINUOUS
 0
ARC
 8
WHITE
 10
28.18
 20
174.83
 30
 0
 40
7.462573
 50
200.7178
 51
208.1448
 6
CONTINUOUS
 0
ARC
 8
WHITE
 10
20.759
 20
170.863
 30
 0
 40
.952412
 50
319.171
 51
27.99109
 6
CONTINUOUS
 0
LINE
 8
WHITE
 10
21.48
 20
170.24
 30
0.0000
 11
14.38
 21
162.12
 31
0.0000
 6
CONTINUOUS
 0
ARC
 8
WHITE
 10
11.994
 20
164.193
 30
 0
 40
3.160747
 50
213.2425
 51
319.0153
 6
CONTINUOUS
 0
ARC
 8
WHITE
 10
28.189
 20
174.817
 30
 0
 40
22.53005
 50
195.5161
 51
213.2619
 6
CONTINUOUS
 0
ARC
 8
WHITE
 10
9.531999
 20
169.634
 30
 0
 40
3.16655
 50
90.03619
 51
195.4583
 6
CONTINUOUS
 0
LINE
 8
WHITE
 10
9.529999
 20
172.8
 30
0.0000
 11
13.45
 21
172.8
 31
0.0000
 6
CONTINUOUS
 0
LINE
 8
WHITE
 10
13.45
 20
181.97
 30
0.0000
 11
13.45
 21
186.44
 31
0.0000
 6
CONTINUOUS
 0
ARC
 8
WHITE
 10
11.233
 20
184.177
 30
 0
 40
3.168005
 50
45.58828
 51
151.0647
 6
CONTINUOUS
 0
ARC
 8
WHITE
 10
28.183
 20
174.817
 30
 0
 40
22.53118
 50
151.0882
 51
164.4162
 6
CONTINUOUS
 0
ARC
 8
WHITE
 10
9.529
 20
180.016
 30
 0
 40
3.166341
 50
164.3529
 51
270.0181
 6
CONTINUOUS
 0
LINE
 8
WHITE
 10
9.529999
 20
176.85
 30
0.0000
 11
20.31
 21
176.85
 31
0.0000
 6
CONTINUOUS
 0
ARC
 8
WHITE
 10
20.31
 20
177.8
 30
 0
 40
.949999
 50
270
 51
339.6558
 6
CONTINUOUS
 0
ARC
 8
WHITE
 10
28.161
 20
174.781
 30
 0
 40
7.462321
 50
155.884
 51
158.8787
 6
CONTINUOUS
 0
ARC
 8
WHITE
 10
20.482
 20
178.215
 30
 0
 40
.949551
 50
336.0804
 51
45.2988
 6
CONTINUOUS
 0
LINE
 8
WHITE
 10
21.15
 20
178.89
 30
0.0000
 11
13.45
 21
186.44
 31
0.0000
 6
CONTINUOUS
 0
LINE
 8
WHITE
 10
13.45
 20
76.27
 30
0.0000
 11
13.45
 21
80.44
 31
0.0000
 6
CONTINUOUS
 0
LINE
 8
WHITE
 10
13.45
 20
80.44
 30
0.0000
 11
20.31
 21
80.44
 31
0.0000
 6
CONTINUOUS
 0
ARC
 8
WHITE
 10
20.313
 20
79.49001
 30
 0
 40
.950004
 50
20.97233
 51
90.18093
 6
CONTINUOUS
 0
ARC
 8
WHITE
 10
28.161
 20
82.519
 30
 0
 40
7.462321
 50
201.1213
 51
204.1161
 6
CONTINUOUS
 0
ARC
 8
WHITE
 10
20.482
 20
79.085
 30
 0
 40
.949551
 50
314.7015
 51
23.9196
 6
CONTINUOUS
 0
LINE
 8
WHITE
 10
21.15
 20
78.41
 30
0.0000
 11
13.45
 21
70.86
 31
0.0000
 6
CONTINUOUS
 0
ARC
 8
WHITE
 10
11.233
 20
73.123
 30
 0
 40
3.168005
 50
208.9353
 51
314.4117
 6
CONTINUOUS
 0
ARC
 8
WHITE
 10
28.183
 20
82.48299
 30
 0
 40
22.53118
 50
195.5838
 51
208.9118
 6
CONTINUOUS
 0
ARC
 8
WHITE
 10
9.531999
 20
77.274
 30
 0
 40
3.16655
 50
90.03619
 51
195.4583
 6
CONTINUOUS
 0
LINE
 8
WHITE
 10
9.529999
 20
80.44
 30
0.0000
 11
13.45
 21
80.44
 31
0.0000
 6
CONTINUOUS
 0
LINE
 8
WHITE
 10
15.94
 20
88.86
 30
0.0000
 11
15.94
 21
93.4
 31
0.0000
 6
CONTINUOUS
 0
LINE
 8
WHITE
 10
15.94
 20
93.4
 30
0.0000
 11
14.38
 21
95.18
 31
0.0000
 6
CONTINUOUS
 0
ARC
 8
WHITE
 10
11.994
 20
93.107
 30
 0
 40
3.160747
 50
40.9847
 51
146.7574
 6
CONTINUOUS
 0
ARC
 8
WHITE
 10
28.189
 20
82.48299
 30
 0
 40
22.53005
 50
146.7381
 51
164.4839
 6
CONTINUOUS
 0
ARC
 8
WHITE
 10
9.531999
 20
87.666
 30
 0
 40
3.16655
 50
164.5417
 51
269.9638
 6
CONTINUOUS
 0
LINE
 8
WHITE
 10
9.529999
 20
84.5
 30
0.0000
 11
20.31
 21
84.5
 31
0.0000
 6
CONTINUOUS
 0
ARC
 8
WHITE
 10
20.313
 20
85.45
 30
 0
 40
.950004
 50
269.8191
 51
339.0277
 6
CONTINUOUS
 0
ARC
 8
WHITE
 10
28.18
 20
82.47
 30
 0
 40
7.462573
 50
151.8553
 51
159.2822
 6
CONTINUOUS
 0
ARC
 8
WHITE
 10
20.759
 20
86.437
 30
 0
 40
.952412
 50
332.0089
 51
40.82966
 6
CONTINUOUS
 0
LINE
 8
WHITE
 10
21.48
 20
87.06
 30
0.0000
 11
15.94
 21
93.4
 31
0.0000
 6
CONTINUOUS
 0
LINE
 8
WHITE
 10
20.98
 20
99.13
 30
0.0000
 11
20.98
 21
103.81
 31
0.0000
 6
CONTINUOUS
 0
ARC
 8
WHITE
 10
28.236
 20
82.479
 30
 0
 40
22.53134
 50
105.6974
 51
108.7864
 6
CONTINUOUS
 0
ARC
 8
WHITE
 10
22.994
 20
101.121
 30
 0
 40
3.166341
 50
359.9821
 51
105.6471
 6
CONTINUOUS
 0
LINE
 8
WHITE
 10
26.16
 20
101.12
 30
0.0000
 11
26.16
 21
90.23
 31
0.0000
 6
CONTINUOUS
 0
ARC
 8
WHITE
 10
25.37
 20
90.232
 30
 0
 40
.790002
 50
289.9954
 51
359.8549
 6
CONTINUOUS
 0
ARC
 8
WHITE
 10
28.339
 20
82.526
 30
 0
 40
7.468728
 50
111.1846
 51
112.4239
 6
CONTINUOUS
 0
ARC
 8
WHITE
 10
25.2
 20
90.17
 30
 0
 40
.794795
 50
220.9143
 51
291.3998
 6
CONTINUOUS
 0
LINE
 8
WHITE
 10
24.6
 20
89.65
 30
0.0000
 11
17.43
 21
97.85
 31
0.0000
 6
CONTINUOUS
 0
ARC
 8
WHITE
 10
19.806
 20
99.935
 30
 0
 40
3.161107
 50
115.4056
 51
221.2678
 6
CONTINUOUS
 0
ARC
 8
WHITE
 10
28.124
 20
82.443
 30
 0
 40
22.52968
 50
108.4872
 51
115.4288
 6
CONTINUOUS
 0
LINE
 8
WHITE
 10
36.34
 20
98.57
 30
0.0000
 11
36.34
 21
103.47
 31
0.0000
 6
CONTINUOUS
 0
ARC
 8
WHITE
 10
28.201
 20
82.466
 30
 0
 40
22.52579
 50
68.81877
 51
74.47562
 6
CONTINUOUS
 0
ARC
 8
WHITE
 10
33.376
 20
101.121
 30
 0
 40
3.166341
 50
74.35287
 51
180.0179
 6
CONTINUOUS
 0
LINE
 8
WHITE
 10
30.21
 20
101.12
 30
0.0000
 11
30.21
 21
90.34
 31
0.0000
 6
CONTINUOUS
 0
ARC
 8
WHITE
 10
31.16
 20
90.337
 30
 0
 40
.950004
 50
179.8191
 51
249.0275
 6
CONTINUOUS
 0
ARC
 8
WHITE
 10
28.18
 20
82.46999
 30
 0
 40
7.462573
 50
65.11763
 51
69.2822
 6
CONTINUOUS
 0
ARC
 8
WHITE
 10
31.72
 20
90.1
 30
 0
 40
.948472
 50
245.0561
 51
315.0001
 6
CONTINUOUS
 0
LINE
 8
WHITE
 10
32.39
 20
89.43
 30
0.0000
 11
40.09
 21
96.98
 31
0.0000
 6
CONTINUOUS
 0
ARC
 8
WHITE
 10
37.866
 20
99.236
 30
 0
 40
3.167919
 50
314.5908
 51
60.00394
 6
CONTINUOUS
 0
ARC
 8
WHITE
 10
28.189
 20
82.465
 30
 0
 40
22.53098
 50
60.0132
 51
68.79124
 6
CONTINUOUS
 0
LINE
 8
WHITE
 10
40.8
 20
88.22
 30
0.0000
 11
40.8
 21
92.01
 31
0.0000
 6
CONTINUOUS
 0
LINE
 8
WHITE
 10
40.8
 20
92.01
 30
0.0000
 11
42.92
 21
94.08
 31
0.0000
 6
CONTINUOUS
 0
ARC
 8
WHITE
 10
45.137
 20
91.817
 30
 0
 40
3.168005
 50
28.9351
 51
134.4117
 6
CONTINUOUS
 0
ARC
 8
WHITE
 10
28.187
 20
82.457
 30
 0
 40
22.53118
 50
15.58387
 51
28.91184
 6
CONTINUOUS
 0
ARC
 8
WHITE
 10
46.838
 20
87.666
 30
 0
 40
3.16655
 50
270.0363
 51
15.45825
 6
CONTINUOUS
 0
LINE
 8
WHITE
 10
46.84
 20
84.5
 30
0.0000
 11
36.05
 21
84.5
 31
0.0000
 6
CONTINUOUS
 0
ARC
 8
WHITE
 10
36.057
 20
85.45
 30
 0
 40
.950025
 50
200.9723
 51
269.5778
 6
CONTINUOUS
 0
ARC
 8
WHITE
 10
28.209
 20
82.421
 30
 0
 40
7.462321
 50
21.1213
 51
24.11609
 6
CONTINUOUS
 0
ARC
 8
WHITE
 10
35.888
 20
85.855
 30
 0
 40
.949551
 50
134.7015
 51
203.9196
 6
CONTINUOUS
 0
LINE
 8
WHITE
 10
35.22
 20
86.53
 30
0.0000
 11
40.8
 21
92.01
 31
0.0000
 6
CONTINUOUS
 0
LINE
 8
WHITE
 10
42.26
 20
78.11
 30
0.0000
 11
42.26
 21
80.44
 31
0.0000
 6
CONTINUOUS
 0
LINE
 8
WHITE
 10
42.26
 20
80.44
 30
0.0000
 11
48.82
 21
80.44
 31
0.0000
 6
CONTINUOUS
 0
ARC
 8
WHITE
 10
48.823
 20
78.86
 30
 0
 40
1.580002
 50
350.162
 51
90.10879
 6
CONTINUOUS
 0
ARC
 8
WHITE
 10
28.19
 20
82.46999
 30
 0
 40
22.52666
 50
345.9206
 51
350.0819
 6
CONTINUOUS
 0
ARC
 8
WHITE
 10
48.5
 20
77.379
 30
 0
 40
1.58837
 50
270
 51
345.8238
 6
CONTINUOUS
 0
LINE
 8
WHITE
 10
48.5
 20
75.79
 30
0.0000
 11
37.43
 21
75.79
 31
0.0000
 6
CONTINUOUS
 0
ARC
 8
WHITE
 10
37.43
 20
77.37
 30
 0
 40
1.58
 50
221.1519
 51
270
 6
CONTINUOUS
 0
LINE
 8
WHITE
 10
36.24
 20
76.33
 30
0.0000
 11
35.17
 21
77.56
 31
0.0000
 6
CONTINUOUS
 0
ARC
 8
WHITE
 10
36.358
 20
78.602
 30
 0
 40
1.580224
 50
154.602
 51
221.2542
 6
CONTINUOUS
 0
ARC
 8
WHITE
 10
28.24
 20
82.594
 30
 0
 40
7.465835
 50
333.6477
 51
335.4328
 6
CONTINUOUS
 0
ARC
 8
WHITE
 10
36.48
 20
78.86
 30
 0
 40
1.580949
 50
90
 51
156.5159
 6
CONTINUOUS
 0
LINE
 8
WHITE
 10
36.48
 20
80.44
 30
0.0000
 11
42.26
 21
80.44
 31
0.0000
 6
CONTINUOUS
 0
LINE
 8
WHITE
 10
71.54
 20
104.09
 30
0.0000
 11
71.54
 21
109.65
 31
0.0000
 6
CONTINUOUS
 0
LINE
 8
WHITE
 10
71.54
 20
109.65
 30
0.0000
 11
91.37
 21
109.65
 31
0.0000
 6
CONTINUOUS
 0
ARC
 8
WHITE
 10
91.35201
 20
108.7
 30
 0
 40
.95017
 50
292.1369
 51
88.91453
 6
CONTINUOUS
 0
ARC
 8
WHITE
 10
101.54
 20
82.61
 30
 0
 40
27.05869
 50
111.302
 51
186.9412
 6
CONTINUOUS
 0
ARC
 8
WHITE
 10
71.541
 20
78.953
 30
 0
 40
3.162766
 50
269.8007
 51
7.028396
 6
CONTINUOUS
 0
LINE
 8
WHITE
 10
71.53
 20
75.79
 30
0.0000
 11
58.33
 21
75.79
 31
0.0000
 6
CONTINUOUS
 0
ARC
 8
WHITE
 10
58.339
 20
78.96
 30
 0
 40
3.170012
 50
173.4781
 51
269.8373
 6
CONTINUOUS
 0
ARC
 8
WHITE
 10
28.189
 20
82.463
 30
 0
 40
27.18331
 50
353.3605
 51
68.82054
 6
CONTINUOUS
 0
ARC
 8
WHITE
 10
38.357
 20
108.697
 30
 0
 40
.952458
 50
89.8195
 51
248.6342
 6
CONTINUOUS
 0
LINE
 8
WHITE
 10
38.36
 20
109.65
 30
0.0000
 11
71.54
 21
109.65
 31
0.0000
 6
CONTINUOUS
 0
LINE
 8
WHITE
 10
87.63
 20
89.2
 30
0.0000
 11
87.63
 21
84.5
 31
0.0000
 6
CONTINUOUS
 0
LINE
 8
WHITE
 10
87.63
 20
84.5
 30
0.0000
 11
82.85
 21
84.5
 31
0.0000
 6
CONTINUOUS
 0
ARC
 8
WHITE
 10
82.852
 20
87.67
 30
 0
 40
3.17
 50
165.008
 51
269.9639
 6
CONTINUOUS
 0
ARC
 8
WHITE
 10
101.537
 20
82.6
 30
 0
 40
22.53052
 50
151.2702
 51
164.8455
 6
CONTINUOUS
 0
ARC
 8
WHITE
 10
84.556
 20
91.903
 30
 0
 40
3.168265
 50
44.91045
 51
151.186
 6
CONTINUOUS
 0
LINE
 8
WHITE
 10
86.8
 20
94.14
 30
0.0000
 11
94.51
 21
86.43
 31
0.0000
 6
CONTINUOUS
 0
ARC
 8
WHITE
 10
93.954
 20
85.866
 30
 0
 40
.791979
 50
336.4787
 51
45.40925
 6
CONTINUOUS
 0
ARC
 8
WHITE
 10
101.54
 20
82.60001
 30
 0
 40
7.467402
 50
156.7309
 51
161.007
 6
CONTINUOUS
 0
ARC
 8
WHITE
 10
93.731
 20
85.294
 30
 0
 40
.794164
 50
269.9279
 51
340.584
 6
CONTINUOUS
 0
LINE
 8
WHITE
 10
93.73
 20
84.5
 30
0.0000
 11
87.63
 21
84.5
 31
0.0000
 6
CONTINUOUS
 0
LINE
 8
WHITE
 10
93.25
 20
99.93
 30
0.0000
 11
93.25
 21
103.55
 31
0.0000
 6
CONTINUOUS
 0
ARC
 8
WHITE
 10
101.561
 20
82.612
 30
 0
 40
22.52715
 50
106.2427
 51
111.6498
 6
CONTINUOUS
 0
ARC
 8
WHITE
 10
96.145
 20
101.202
 30
 0
 40
3.16428
 50
359.9638
 51
106.2414
 6
CONTINUOUS
 0
LINE
 8
WHITE
 10
99.31
 20
101.2
 30
0.0000
 11
99.31
 21
90.29
 31
0.0000
 6
CONTINUOUS
 0
ARC
 8
WHITE
 10
98.52
 20
90.285
 30
 0
 40
.790015
 50
291.5321
 51
.362626
 6
CONTINUOUS
 0
ARC
 8
WHITE
 10
101.48
 20
82.577
 30
 0
 40
7.466701
 50
110.9521
 51
116.3145
 6
CONTINUOUS
 0
ARC
 8
WHITE
 10
97.814
 20
89.98199
 30
 0
 40
.79604
 50
225.9157
 51
296.5651
 6
CONTINUOUS
 0
LINE
 8
WHITE
 10
97.26
 20
89.41
 30
0.0000
 11
89.57
 21
97.1
 31
0.0000
 6
CONTINUOUS
 0
ARC
 8
WHITE
 10
91.806
 20
99.344
 30
 0
 40
3.167843
 50
120.2564
 51
225.1023
 6
CONTINUOUS
 0
ARC
 8
WHITE
 10
101.507
 20
82.596
 30
 0
 40
22.52218
 50
111.5071
 51
120.1055
 6
CONTINUOUS
 0
LINE
 8
WHITE
 10
108.73
 20
98.77
 30
0.0000
 11
108.73
 21
103.95
 31
0.0000
 6
CONTINUOUS
 0
ARC
 8
WHITE
 10
101.53
 20
82.6
 30
 0
 40
22.53137
 50
71.36401
 51
75.05714
 6
CONTINUOUS
 0
ARC
 8
WHITE
 10
106.528
 20
101.308
 30
 0
 40
3.167836
 50
75.14781
 51
179.964
 6
CONTINUOUS
 0
LINE
 8
WHITE
 10
103.36
 20
101.31
 30
0.0000
 11
103.36
 21
90.43
 31
0.0000
 6
CONTINUOUS
 0
ARC
 8
WHITE
 10
104.15
 20
90.43
 30
 0
 40
.79
 50
180
 51
251.565
 6
CONTINUOUS
 0
ARC
 8
WHITE
 10
101.622
 20
82.57
 30
 0
 40
7.466015
 50
65.98919
 51
72.23486
 6
CONTINUOUS
 0
ARC
 8
WHITE
 10
104.997
 20
90.107
 30
 0
 40
.792248
 50
244.8258
 51
314.2838
 6
CONTINUOUS
 0
LINE
 8
WHITE
 10
105.55
 20
89.54
 30
0.0000
 11
113.25
 21
97.25
 31
0.0000
 6
CONTINUOUS
 0
ARC
 8
WHITE
 10
111.008
 20
99.488
 30
 0
 40
3.167839
 50
315.0511
 51
60.66796
 6
CONTINUOUS
 0
ARC
 8
WHITE
 10
101.546
 20
82.601
 30
 0
 40
22.52535
 50
60.72774
 51
71.40175
 6
CONTINUOUS
 0
LINE
 8
WHITE
 10
116.04
 20
89.7
 30
0.0000
 11
116.04
 21
84.5
 31
0.0000
 6
CONTINUOUS
 0
LINE
 8
WHITE
 10
116.04
 20
84.5
 30
0.0000
 11
109.34
 21
84.5
 31
0.0000
 6
CONTINUOUS
 0
ARC
 8
WHITE
 10
109.346
 20
85.29
 30
 0
 40
.790022
 50
199.215
 51
269.5648
 6
CONTINUOUS
 0
ARC
 8
WHITE
 10
101.556
 20
82.554
 30
 0
 40
7.466492
 50
19.36682
 51
25.76887
 6
CONTINUOUS
 0
ARC
 8
WHITE
 10
108.991
 20
86.138
 30
 0
 40
.787251
 50
134.4337
 51
205.4258
 6
CONTINUOUS
 0
LINE
 8
WHITE
 10
108.44
 20
86.7
 30
0.0000
 11
116.14
 21
94.4
 31
0.0000
 6
CONTINUOUS
 0
ARC
 8
WHITE
 10
118.379
 20
92.159
 30
 0
 40
3.167838
 50
29.72917
 51
134.9744
 6
CONTINUOUS
 0
ARC
 8
WHITE
 10
101.53
 20
82.62701
 30
 0
 40
22.52635
 50
15.08623
 51
29.53067
 6
CONTINUOUS
 0
ARC
 8
WHITE
 10
120.217
 20
87.671
 30
 0
 40
3.170603
 50
270.235
 51
14.96983
 6
CONTINUOUS
 0
LINE
 8
WHITE
 10
120.23
 20
84.5
 30
0.0000
 11
116.04
 21
84.5
 31
0.0000
 6
CONTINUOUS
 0
LINE
 8
WHITE
 10
116.04
 20
75.98
 30
0.0000
 11
116.04
 21
80.44
 31
0.0000
 6
CONTINUOUS
 0
LINE
 8
WHITE
 10
116.04
 20
80.44
 30
0.0000
 11
109.25
 21
80.44
 31
0.0000
 6
CONTINUOUS
 0
ARC
 8
WHITE
 10
109.249
 20
79.65
 30
 0
 40
.79
 50
89.92747
 51
159.2488
 6
CONTINUOUS
 0
ARC
 8
WHITE
 10
101.555
 20
82.64
 30
 0
 40
7.464323
 50
332.9028
 51
338.7117
 6
CONTINUOUS
 0
ARC
 8
WHITE
 10
108.912
 20
78.884
 30
 0
 40
.79604
 50
153.435
 51
225.1017
 6
CONTINUOUS
 0
LINE
 8
WHITE
 10
108.35
 20
78.32
 30
0.0000
 11
116.04
 21
70.63
 31
0.0000
 6
CONTINUOUS
 0
ARC
 8
WHITE
 10
118.274
 20
72.876
 30
 0
 40
3.167849
 50
225.1535
 51
329.7436
 6
CONTINUOUS
 0
ARC
 8
WHITE
 10
101.551
 20
82.619
 30
 0
 40
22.52167
 50
329.7701
 51
343.9969
 6
CONTINUOUS
 0
ARC
 8
WHITE
 10
120.159
 20
77.278
 30
 0
 40
3.162452
 50
344.0695
 51
90.16299
 6
CONTINUOUS
 0
LINE
 8
WHITE
 10
120.15
 20
80.44
 30
0.0000
 11
116.04
 21
80.44
 31
0.0000
 6
CONTINUOUS
 0
LINE
 8
WHITE
 10
109.77
 20
66.41
 30
0.0000
 11
109.77
 21
70.51
 31
0.0000
 6
CONTINUOUS
 0
ARC
 8
WHITE
 10
109.768
 20
68.93
 30
 0
 40
1.580001
 50
89.92747
 51
149.9941
 6
CONTINUOUS
 0
ARC
 8
WHITE
 10
98.188
 20
75.577
 30
 0
 40
11.7724
 50
300.3703
 51
330.164
 6
CONTINUOUS
 0
ARC
 8
WHITE
 10
104.946
 20
64.054
 30
 0
 40
1.586061
 50
120.5425
 51
179.7834
 6
CONTINUOUS
 0
LINE
 8
WHITE
 10
103.36
 20
64.06
 30
0.0000
 11
103.36
 21
61.94
 31
0.0000
 6
CONTINUOUS
 0
ARC
 8
WHITE
 10
104.94
 20
61.938
 30
 0
 40
1.580001
 50
179.9275
 51
279.4741
 6
CONTINUOUS
 0
ARC
 8
WHITE
 10
101.543
 20
82.612
 30
 0
 40
22.53077
 50
279.3411
 51
304.3932
 6
CONTINUOUS
 0
ARC
 8
WHITE
 10
113.374
 20
65.326
 30
 0
 40
1.583809
 50
304.4526
 51
45.20451
 6
CONTINUOUS
 0
LINE
 8
WHITE
 10
114.49
 20
66.45
 30
0.0000
 11
110.89
 21
70.05
 31
0.0000
 6
CONTINUOUS
 0
ARC
 8
WHITE
 10
109.774
 20
68.926
 30
 0
 40
1.583929
 50
45.20462
 51
90.14488
 6
CONTINUOUS
 0
LINE
 8
WHITE
 10
95.45
 20
63.34
 30
0.0000
 11
95.45
 21
65
 31
0.0000
 6
CONTINUOUS
 0
LINE
 8
WHITE
 10
95.45
 20
65
 30
0.0000
 11
97.73
 21
65
 31
0.0000
 6
CONTINUOUS
 0
ARC
 8
WHITE
 10
97.73
 20
63.42
 30
 0
 40
1.58
 50
0
 51
90
 6
CONTINUOUS
 0
LINE
 8
WHITE
 10
99.31
 20
63.42
 30
0.0000
 11
99.31
 21
62.01
 31
0.0000
 6
CONTINUOUS
 0
ARC
 8
WHITE
 10
97.73
 20
62.003
 30
 0
 40
1.580015
 50
259.4229
 51
.25384
 6
CONTINUOUS
 0
ARC
 8
WHITE
 10
101.551
 20
82.598
 30
 0
 40
22.5263
 50
246.3094
 51
259.4847
 6
CONTINUOUS
 0
ARC
 8
WHITE
 10
93.151
 20
63.415
 30
 0
 40
1.584874
 50
90.75922
 51
245.7475
 6
CONTINUOUS
 0
LINE
 8
WHITE
 10
93.13
 20
65
 30
0.0000
 11
95.45
 21
65
 31
0.0000
 6
CONTINUOUS
 0
LINE
 8
WHITE
 10
91.3
 20
50.89
 30
0.0000
 11
91.3
 21
47.83
 31
0.0000
 6
CONTINUOUS
 0
LINE
 8
WHITE
 10
91.3
 20
47.83
 30
0.0000
 11
76.8
 21
47.83
 31
0.0000
 6
CONTINUOUS
 0
ARC
 8
WHITE
 10
76.8
 20
49.41
 30
 0
 40
1.58
 50
180.0001
 51
270
 6
CONTINUOUS
 0
LINE
 8
WHITE
 10
75.22
 20
49.41
 30
0.0000
 11
75.22
 21
50.77
 31
0.0000
 6
CONTINUOUS
 0
ARC
 8
WHITE
 10
76.01
 20
50.77
 30
 0
 40
.79
 50
91.45052
 51
180
 6
CONTINUOUS
 0
ARC
 8
WHITE
 10
75.962
 20
53.27
 30
 0
 40
1.710229
 50
270.9381
 51
347.166
 6
CONTINUOUS
 0
ARC
 8
WHITE
 10
-707.175
 20
178.18
 30
 0
 40
794.743
 50
350.9296
 51
351.6931
 6
CONTINUOUS
 0
ARC
 8
WHITE
 10
80.009
 20
63.245
 30
 0
 40
.787442
 50
127.4668
 51
171.6024
 6
CONTINUOUS
 0
LINE
 8
WHITE
 10
79.53
 20
63.87
 30
0.0000
 11
80.4
 21
64.55
 31
0.0000
 6
CONTINUOUS
 0
ARC
 8
WHITE
 10
80.881
 20
63.923
 30
 0
 40
.790246
 50
41.81993
 51
127.4934
 6
CONTINUOUS
 0
ARC
 8
WHITE
 10
101.54
 20
82.6
 30
 0
 40
27.0597
 50
222.1241
 51
263.592
 6
CONTINUOUS
 0
ARC
 8
WHITE
 10
98.17
 20
52.56
 30
 0
 40
3.169384
 50
.180781
 51
83.65981
 6
CONTINUOUS
 0
LINE
 8
WHITE
 10
101.34
 20
52.57
 30
0.0000
 11
101.34
 21
51
 31
0.0000
 6
CONTINUOUS
 0
ARC
 8
WHITE
 10
98.17
 20
51
 30
 0
 40
3.17
 50
270
 51
0
 6
CONTINUOUS
 0
LINE
 8
WHITE
 10
98.17
 20
47.83
 30
0.0000
 11
91.3
 21
47.83
 31
0.0000
 6
CONTINUOUS
 0
LINE
 8
WHITE
 10
92.32
 20
24.46
 30
0.0000
 11
92.32
 21
11.22
 31
0.0000
 6
CONTINUOUS
 0
LINE
 8
WHITE
 10
92.32
 20
11.22
 30
0.0000
 11
72.65
 21
11.22
 31
0.0000
 6
CONTINUOUS
 0
ARC
 8
WHITE
 10
72.65
 20
12.05
 30
 0
 40
.829999
 50
90
 51
270
 6
CONTINUOUS
 0
LINE
 8
WHITE
 10
72.65
 20
12.88
 30
0.0000
 11
72.83
 21
12.88
 31
0.0000
 6
CONTINUOUS
 0
ARC
 8
WHITE
 10
72.82401
 20
14.46
 30
 0
 40
1.580011
 50
270.2176
 51
307.6967
 6
CONTINUOUS
 0
ARC
 8
WHITE
 10
70.905
 20
17.374
 30
 0
 40
5.065779
 50
304.7159
 51
328.4059
 6
CONTINUOUS
 0
ARC
 8
WHITE
 10
85.937
 20
5.504
 30
 0
 40
14.13466
 50
123.2842
 51
139.3064
 6
CONTINUOUS
 0
ARC
 8
WHITE
 10
77.31
 20
18.64
 30
 0
 40
1.580917
 50
303.3885
 51
0
 6
CONTINUOUS
 0
LINE
 8
WHITE
 10
78.89
 20
18.64
 30
0.0000
 11
78.89
 21
19.41
 31
0.0000
 6
CONTINUOUS
 0
ARC
 8
WHITE
 10
77.31
 20
19.407
 30
 0
 40
1.580002
 50
.108789
 51
74.58246
 6
CONTINUOUS
 0
ARC
 8
WHITE
 10
79.125
 20
25.931
 30
 0
 40
5.191919
 50
232.7174
 51
254.4139
 6
CONTINUOUS
 0
ARC
 8
WHITE
 10
84.648
 20
25.775
 30
 0
 40
9.535976
 50
173.1642
 51
204.6354
 6
CONTINUOUS
 0
ARC
 8
WHITE
 10
73.61
 20
27.1
 30
 0
 40
1.581455
 50
353.0997
 51
22.67554
 6
CONTINUOUS
 0
ARC
 8
WHITE
 10
84.727
 20
31.756
 30
 0
 40
10.47033
 50
168.9659
 51
202.7323
 6
CONTINUOUS
 0
ARC
 8
WHITE
 10
72.89999
 20
34.062
 30
 0
 40
1.579146
 50
348.9747
 51
36.44894
 6
CONTINUOUS
 0
ARC
 8
WHITE
 10
78.46799
 20
38.183
 30
 0
 40
5.348298
 50
97.93153
 51
216.5228
 6
CONTINUOUS
 0
LINE
 8
WHITE
 10
77.73
 20
43.48
 30
0.0000
 11
98.17
 21
43.48
 31
0.0000
 6
CONTINUOUS
 0
ARC
 8
WHITE
 10
98.17
 20
40.31
 30
 0
 40
3.17
 50
.180781
 51
90
 6
CONTINUOUS
 0
LINE
 8
WHITE
 10
101.34
 20
40.32
 30
0.0000
 11
101.34
 21
14.39
 31
0.0000
 6
CONTINUOUS
 0
ARC
 8
WHITE
 10
98.17
 20
14.39
 30
 0
 40
3.17
 50
270
 51
0
 6
CONTINUOUS
 0
LINE
 8
WHITE
 10
98.17
 20
11.22
 30
0.0000
 11
92.32
 21
11.22
 31
0.0000
 6
CONTINUOUS
 0
LINE
 8
WHITE
 10
120.23
 20
54.62
 30
0.0000
 11
120.23
 21
47.83
 31
0.0000
 6
CONTINUOUS
 0
LINE
 8
WHITE
 10
120.23
 20
47.83
 30
0.0000
 11
111.65
 21
47.83
 31
0.0000
 6
CONTINUOUS
 0
ARC
 8
WHITE
 10
111.65
 20
51
 30
 0
 40
3.17
 50
180
 51
270
 6
CONTINUOUS
 0
LINE
 8
WHITE
 10
108.48
 20
51
 30
0.0000
 11
108.48
 21
54.12
 31
0.0000
 6
CONTINUOUS
 0
ARC
 8
WHITE
 10
111.65
 20
54.112
 30
 0
 40
3.17001
 50
109.5324
 51
179.8554
 6
CONTINUOUS
 0
ARC
 8
WHITE
 10
101.521
 20
82.593
 30
 0
 40
27.05808
 50
289.5828
 51
306.6696
 6
CONTINUOUS
 0
ARC
 8
WHITE
 10
119.567
 20
58.348
 30
 0
 40
3.165838
 50
60.00148
 51
126.5876
 6
CONTINUOUS
 0
ARC
 8
WHITE
 10
104.567
 20
32.292
 30
 0
 40
33.23132
 50
38.15036
 51
60.06501
 6
CONTINUOUS
 0
ARC
 8
WHITE
 10
128.211
 20
50.859
 30
 0
 40
3.168697
 50
.198839
 51
38.23339
 6
CONTINUOUS
 0
LINE
 8
WHITE
 10
131.38
 20
50.87
 30
0.0000
 11
131.38
 21
50.2
 31
0.0000
 6
CONTINUOUS
 0
ARC
 8
WHITE
 10
129.01
 20
50.2
 30
 0
 40
2.369999
 50
269.758
 51
0
 6
CONTINUOUS
 0
LINE
 8
WHITE
 10
129
 20
47.83
 30
0.0000
 11
120.23
 21
47.83
 31
0.0000
 6
CONTINUOUS
 0
LINE
 8
WHITE
 10
121.05
 20
105.8
 30
0.0000
 11
121.05
 21
109.65
 31
0.0000
 6
CONTINUOUS
 0
LINE
 8
WHITE
 10
121.05
 20
109.65
 30
0.0000
 11
111.71
 21
109.65
 31
0.0000
 6
CONTINUOUS
 0
ARC
 8
WHITE
 10
111.718
 20
108.7
 30
 0
 40
.950033
 50
90.48248
 51
247.8626
 6
CONTINUOUS
 0
ARC
 8
WHITE
 10
101.534
 20
82.608
 30
 0
 40
27.05911
 50
345.406
 51
68.7074
 6
CONTINUOUS
 0
ARC
 8
WHITE
 10
77.157
 20
26.922
 30
 0
 40
70.31855
 50
33.91787
 51
44.02337
 6
CONTINUOUS
 0
ARC
 8
WHITE
 10
138.662
 20
65.369
 30
 0
 40
3.249736
 50
165.9124
 51
19.80075
 6
CONTINUOUS
 0
ARC
 8
WHITE
 10
130.79
 20
69.65
 30
 0
 40
11.3832
 50
343.778
 51
34.51373
 6
CONTINUOUS
 0
ARC
 8
WHITE
 10
146.56
 20
81.07
 30
 0
 40
8.095245
 50
155.3979
 51
217.875
 6
CONTINUOUS
 0
ARC
 8
WHITE
 10
137.762
 20
85.104
 30
 0
 40
1.5839
 50
335.2148
 51
27.27662
 6
CONTINUOUS
 0
ARC
 8
WHITE
 10
180.972
 20
107.486
 30
 0
 40
47.07854
 50
191.8107
 51
207.3869
 6
CONTINUOUS
 0
ARC
 8
WHITE
 10
127.501
 20
97.319
 30
 0
 40
7.408055
 50
4.110413
 51
80.68645
 6
CONTINUOUS
 0
ARC
 8
WHITE
 10
128.774
 20
105.121
 30
 0
 40
.496545
 50
192.9157
 51
261.4293
 6
CONTINUOUS
 0
ARC
 8
WHITE
 10
119.318
 20
102.87
 30
 0
 40
9.223686
 50
13.41552
 51
46.04542
 6
CONTINUOUS
 0
ARC
 8
WHITE
 10
125.372
 20
109.148
 30
 0
 40
.502143
 50
46.12963
 51
90.22814
 6
CONTINUOUS
 0
LINE
 8
WHITE
 10
125.37
 20
109.65
 30
0.0000
 11
121.05
 21
109.65
 31
0.0000
 6
CONTINUOUS
 0
LINE
 8
WHITE
 10
158.1
 20
105.7
 30
0.0000
 11
158.1
 21
109.65
 31
0.0000
 6
CONTINUOUS
 0
LINE
 8
WHITE
 10
158.1
 20
109.65
 30
0.0000
 11
139.24
 21
109.65
 31
0.0000
 6
CONTINUOUS
 0
ARC
 8
WHITE
 10
139.242
 20
109.15
 30
 0
 40
.500003
 50
90.22918
 51
141.6626
 6
CONTINUOUS
 0
ARC
 8
WHITE
 10
140.828
 20
107.887
 30
 0
 40
2.527214
 50
141.5066
 51
220.9725
 6
CONTINUOUS
 0
ARC
 8
WHITE
 10
39.665
 20
45.539
 30
 0
 40
116.3398
 50
19.7227
 51
31.44435
 6
CONTINUOUS
 0
ARC
 8
WHITE
 10
172.398
 20
109.653
 30
 0
 40
34.01099
 50
226.948
 51
237.4323
 6
CONTINUOUS
 0
ARC
 8
WHITE
 10
153.255
 20
79.65
 30
 0
 40
1.578868
 50
27.13293
 51
58.07155
 6
CONTINUOUS
 0
ARC
 8
WHITE
 10
-260.09
 20
-127.846
 30
 0
 40
464.0813
 50
26.19744
 51
26.65792
 6
CONTINUOUS
 0
ARC
 8
WHITE
 10
158.076
 20
77.524
 30
 0
 40
1.824163
 50
195.7124
 51
24.14734
 6
CONTINUOUS
 0
ARC
 8
WHITE
 10
226.636
 20
106.783
 30
 0
 40
72.71909
 50
201.2473
 51
203.0851
 6
CONTINUOUS
 0
ARC
 8
WHITE
 10
160.33
 20
81
 30
 0
 40
1.576642
 50
135.7709
 51
201.1941
 6
CONTINUOUS
 0
ARC
 8
WHITE
 10
-105.539
 20
338.671
 30
 0
 40
368.6671
 50
315.8976
 51
319.0219
 6
CONTINUOUS
 0
ARC
 8
WHITE
 10
131.454
 20
125.961
 30
 0
 40
50.52351
 50
324.9004
 51
338.5559
 6
CONTINUOUS
 0
ARC
 8
WHITE
 10
177.01
 20
108.07
 30
 0
 40
1.580284
 50
338.4679
 51
90.36243
 6
CONTINUOUS
 0
LINE
 8
WHITE
 10
177
 20
109.65
 30
0.0000
 11
158.1
 21
109.65
 31
0.0000
 6
CONTINUOUS
 0
LINE
 8
WHITE
 10
184.31
 20
90.23
 30
0.0000
 11
184.31
 21
96.03
 31
0.0000
 6
CONTINUOUS
 0
ARC
 8
WHITE
 10
184.305
 20
91.5
 30
 0
 40
4.530003
 50
89.93676
 51
153.8025
 6
CONTINUOUS
 0
ARC
 8
WHITE
 10
165.31
 20
97.59
 30
 0
 40
15.48008
 50
294.9923
 51
344.68
 6
CONTINUOUS
 0
ARC
 8
WHITE
 10
178.983
 20
80.74599
 30
 0
 40
7.668004
 50
158.4706
 51
223.3776
 6
CONTINUOUS
 0
ARC
 8
WHITE
 10
177.77
 20
83.93
 30
 0
 40
9.508527
 50
242.7073
 51
310.6928
 6
CONTINUOUS
 0
ARC
 8
WHITE
 10
189.546
 20
5.999
 30
 0
 40
70.94048
 50
83.99294
 51
94.50816
 6
CONTINUOUS
 0
ARC
 8
WHITE
 10
197.294
 20
79.701
 30
 0
 40
3.167613
 50
264.1292
 51
27.22853
 6
CONTINUOUS
 0
ARC
 8
WHITE
 10
171.105
 20
66.22
 30
 0
 40
32.622
 50
27.23664
 51
58.78775
 6
CONTINUOUS
 0
ARC
 8
WHITE
 10
184.313
 20
91.496
 30
 0
 40
4.533562
 50
35.36579
 51
90.0378
 6
CONTINUOUS
 0
LINE
 8
WHITE
 10
215.43
 20
102.94
 30
0.0000
 11
215.43
 21
109.65
 31
0.0000
 6
CONTINUOUS
 0
LINE
 8
WHITE
 10
215.43
 20
109.65
 30
0.0000
 11
240.29
 21
109.65
 31
0.0000
 6
CONTINUOUS
 0
ARC
 8
WHITE
 10
240.292
 20
108.65
 30
 0
 40
1.000002
 50
356.5592
 51
90.11459
 6
CONTINUOUS
 0
ARC
 8
WHITE
 10
326.091
 20
103.293
 30
 0
 40
84.96628
 50
176.4257
 51
184.9375
 6
CONTINUOUS
 0
ARC
 8
WHITE
 10
230.67
 20
96.81001
 30
 0
 40
10.80194
 50
274.4069
 51
355.5932
 6
CONTINUOUS
 0
ARC
 8
WHITE
 10
176.376
 20
161.382
 30
 0
 40
93.35455
 50
298.7301
 51
306.1911
 6
CONTINUOUS
 0
ARC
 8
WHITE
 10
221.673
 20
86.5
 30
 0
 40
6.992805
 50
210.6982
 51
266.532
 6
CONTINUOUS
 0
ARC
 8
WHITE
 10
496.318
 20
398.465
 30
 0
 40
422.2928
 50
225.9908
 51
228.348
 6
CONTINUOUS
 0
ARC
 8
WHITE
 10
177.884
 20
61.577
 30
 0
 40
41.5522
 50
52.94947
 51
70.06708
 6
CONTINUOUS
 0
ARC
 8
WHITE
 10
192.74
 20
104.37
 30
 0
 40
3.793283
 50
139.1695
 51
259.5195
 6
CONTINUOUS
 0
ARC
 8
WHITE
 10
-984.849
 20
948.048
 30
 0
 40
1444.846
 50
324.3941
 51
324.5306
 6
CONTINUOUS
 0
LINE
 8
WHITE
 10
191.87
 20
109.65
 30
0.0000
 11
215.43
 21
109.65
 31
0.0000
 6
CONTINUOUS
 0
LINE
 8
WHITE
 10
235.94
 20
41.34
 30
0.0000
 11
235.94
 21
43.48
 31
0.0000
 6
CONTINUOUS
 0
LINE
 8
WHITE
 10
235.94
 20
43.48
 30
0.0000
 11
239.28
 21
43.48
 31
0.0000
 6
CONTINUOUS
 0
ARC
 8
WHITE
 10
239.274
 20
42.69
 30
 0
 40
.790022
 50
312.7421
 51
89.56485
 6
CONTINUOUS
 0
LINE
 8
WHITE
 10
239.81
 20
42.11
 30
0.0000
 11
237.01
 21
39.54
 31
0.0000
 6
CONTINUOUS
 0
ARC
 8
WHITE
 10
235.94
 20
40.71
 30
 0
 40
1.585496
 50
227.5563
 51
312.4438
 6
CONTINUOUS
 0
LINE
 8
WHITE
 10
234.87
 20
39.54
 30
0.0000
 11
232.07
 21
42.11
 31
0.0000
 6
CONTINUOUS
 0
ARC
 8
WHITE
 10
232.595
 20
42.694
 30
 0
 40
.78529
 50
88.90674
 51
228.0453
 6
CONTINUOUS
 0
LINE
 8
WHITE
 10
232.61
 20
43.48
 30
0.0000
 11
235.94
 21
43.48
 31
0.0000
 6
CONTINUOUS
 0
LINE
 8
WHITE
 10
71.54
 20
259
 30
0.0000
 11
71.54
 21
252.65
 31
0.0000
 6
CONTINUOUS
 0
LINE
 8
WHITE
 10
71.54
 20
252.65
 30
0.0000
 11
102.15
 21
252.65
 31
0.0000
 6
CONTINUOUS
 0
ARC
 8
WHITE
 10
102.15
 20
246.32
 30
 0
 40
6.329999
 50
.000138
 51
90
 6
CONTINUOUS
 0
LINE
 8
WHITE
 10
108.48
 20
246.32
 30
0.0000
 11
108.48
 21
216.98
 31
0.0000
 6
CONTINUOUS
 0
ARC
 8
WHITE
 10
111.65
 20
216.99
 30
 0
 40
3.170015
 50
180.1807
 51
270
 6
CONTINUOUS
 0
LINE
 8
WHITE
 10
111.65
 20
213.82
 30
0.0000
 11
120.28
 21
213.82
 31
0.0000
 6
CONTINUOUS
 0
ARC
 8
WHITE
 10
124.185
 20
525.23
 30
 0
 40
311.4345
 50
269.2816
 51
273.6866
 6
CONTINUOUS
 0
ARC
 8
WHITE
 10
165.58
 20
168.44
 30
 0
 40
50.72156
 50
87.4236
 51
114.9179
 6
CONTINUOUS
 0
ARC
 8
WHITE
 10
167.786
 20
217.53
 30
 0
 40
1.581732
 50
68.33315
 51
87.31849
 6
CONTINUOUS
 0
ARC
 8
WHITE
 10
183.392
 20
257.373
 30
 0
 40
41.20859
 50
248.621
 51
285.3782
 6
CONTINUOUS
 0
ARC
 8
WHITE
 10
189.435
 20
234.144
 30
 0
 40
17.21178
 50
286.4882
 51
300.3431
 6
CONTINUOUS
 0
ARC
 8
WHITE
 10
193.673
 20
227.931
 30
 0
 40
9.722743
 50
297.2845
 51
336.2164
 6
CONTINUOUS
 0
LINE
 8
WHITE
 10
202.57
 20
224.01
 30
0.0000
 11
202.63
 21
224.29
 31
0.0000
 6
CONTINUOUS
 0
ARC
 8
WHITE
 10
203.873
 20
225.656
 30
 0
 40
1.84689
 50
115.7603
 51
227.6992
 6
CONTINUOUS
 0
ARC
 8
WHITE
 10
202.713
 20
228.066
 30
 0
 40
.827021
 50
295.5735
 51
23.80714
 6
CONTINUOUS
 0
ARC
 8
WHITE
 10
205.169
 20
229.131
 30
 0
 40
1.849584
 50
102.136
 51
203.2799
 6
CONTINUOUS
 0
ARC
 8
WHITE
 10
204.434
 20
231.708
 30
 0
 40
.842341
 50
294.2526
 51
21.01723
 6
CONTINUOUS
 0
ARC
 8
WHITE
 10
207.049
 20
232.326
 30
 0
 40
1.856097
 50
96.46629
 51
189.8023
 6
CONTINUOUS
 0
ARC
 8
WHITE
 10
206.77
 20
234.99
 30
 0
 40
.822982
 50
274.8793
 51
4.87868
 6
CONTINUOUS
 0
ARC
 8
WHITE
 10
209.44
 20
235.15
 30
 0
 40
1.852187
 50
81.30094
 51
182.7852
 6
CONTINUOUS
 0
ARC
 8
WHITE
 10
209.615
 20
237.809
 30
 0
 40
.835623
 50
277.2186
 51
357.3268
 6
CONTINUOUS
 0
ARC
 8
WHITE
 10
212.29
 20
237.512
 30
 0
 40
1.858
 50
76.62154
 51
172.0182
 6
CONTINUOUS
 0
ARC
 8
WHITE
 10
212.956
 20
240.121
 30
 0
 40
.835043
 50
253.5834
 51
298.9283
 6
CONTINUOUS
 0
ARC
 8
WHITE
 10
212.958
 20
240.114
 30
 0
 40
.828118
 50
299.0412
 51
348.5814
 6
CONTINUOUS
 0
ARC
 8
WHITE
 10
215.518
 20
239.345
 30
 0
 40
1.849737
 50
66.35842
 51
160.9088
 6
CONTINUOUS
 0
ARC
 8
WHITE
 10
216.611
 20
241.789
 30
 0
 40
.827165
 50
244.8911
 51
289.7057
 6
CONTINUOUS
 0
ARC
 8
WHITE
 10
216.609
 20
241.789
 30
 0
 40
.828131
 50
289.8353
 51
335.0753
 6
CONTINUOUS
 0
ARC
 8
WHITE
 10
219.01
 20
240.59
 30
 0
 40
1.856071
 50
41.94133
 51
152.7447
 6
CONTINUOUS
 0
ARC
 8
WHITE
 10
224.38
 20
220.03
 30
 0
 40
22.16213
 50
99.63659
 51
100.3719
 6
CONTINUOUS
 0
ARC
 8
WHITE
 10
225.264
 20
193.234
 30
 0
 40
48.86244
 50
88.51532
 51
95.39486
 6
CONTINUOUS
 0
ARC
 8
WHITE
 10
219.87
 20
251.97
 30
 0
 40
11.92341
 50
303.9566
 51
330.6187
 6
CONTINUOUS
 0
ARC
 8
WHITE
 10
233.105
 20
244.327
 30
 0
 40
3.362866
 50
85.65086
 51
147.7797
 6
CONTINUOUS
 0
ARC
 8
WHITE
 10
231.694
 20
240.609
 30
 0
 40
7.264612
 50
8.956735
 51
76.74232
 6
CONTINUOUS
 0
ARC
 8
WHITE
 10
241.999
 20
242.234
 30
 0
 40
3.167755
 50
188.9717
 51
231.3433
 6
CONTINUOUS
 0
ARC
 8
WHITE
 10
230.748
 20
228.171
 30
 0
 40
14.84166
 50
6.962256
 51
51.33778
 6
CONTINUOUS
 0
LINE
 8
WHITE
 10
245.48
 20
229.97
 30
0.0000
 11
252.11
 21
222.45
 31
0.0000
 6
CONTINUOUS
 0
ARC
 8
WHITE
 10
245.332
 20
215.678
 30
 0
 40
9.581297
 50
351.1866
 51
44.97463
 6
CONTINUOUS
 0
ARC
 8
WHITE
 10
250.05
 20
214.22
 30
 0
 40
4.75001
 50
270
 51
359.8794
 6
CONTINUOUS
 0
LINE
 8
WHITE
 10
250.05
 20
209.47
 30
0.0000
 11
228.08
 21
209.47
 31
0.0000
 6
CONTINUOUS
 0
ARC
 8
WHITE
 10
227.99
 20
207.46
 30
 0
 40
2.012013
 50
87.43623
 51
152.1622
 6
CONTINUOUS
 0
ARC
 8
WHITE
 10
229.439
 20
206.949
 30
 0
 40
3.540034
 50
155.8025
 51
221.5646
 6
CONTINUOUS
 0
ARC
 8
WHITE
 10
153.62
 20
188.805
 30
 0
 40
74.8554
 50
2.737412
 51
12.18136
 6
CONTINUOUS
 0
ARC
 8
WHITE
 10
231.81
 20
190.61
 30
 0
 40
3.850883
 50
152.6365
 51
216.1259
 6
CONTINUOUS
 0
ARC
 8
WHITE
 10
210.4
 20
160.37
 30
 0
 40
33.42471
 50
35.20688
 51
56.80438
 6
CONTINUOUS
 0
ARC
 8
WHITE
 10
254.95
 20
192.53
 30
 0
 40
21.52602
 50
216.7847
 51
233.2153
 6
CONTINUOUS
 0
ARC
 8
WHITE
 10
234.995
 20
164.003
 30
 0
 40
13.3158
 50
4.466697
 51
57.95585
 6
CONTINUOUS
 0
ARC
 8
WHITE
 10
299.372
 20
161.338
 30
 0
 40
51.23592
 50
175.8565
 51
193.3473
 6
CONTINUOUS
 0
ARC
 8
WHITE
 10
247.567
 20
144.501
 30
 0
 40
5.37627
 50
37.71606
 51
68.69928
 6
CONTINUOUS
 0
ARC
 8
WHITE
 10
251.424
 20
147.475
 30
 0
 40
.506004
 50
.566719
 51
38.50065
 6
CONTINUOUS
 0
LINE
 8
WHITE
 10
251.93
 20
147.48
 30
0.0000
 11
251.93
 21
109.82
 31
0.0000
 6
CONTINUOUS
 0
ARC
 8
WHITE
 10
251.43
 20
109.823
 30
 0
 40
.500009
 50
321.2521
 51
359.6562
 6
CONTINUOUS
 0
ARC
 8
WHITE
 10
247.572
 20
112.793
 30
 0
 40
5.368761
 50
291.2743
 51
322.3019
 6
CONTINUOUS
 0
ARC
 8
WHITE
 10
299.373
 20
95.96
 30
 0
 40
51.23739
 50
166.6508
 51
184.1523
 6
CONTINUOUS
 0
ARC
 8
WHITE
 10
235
 20
93.283
 30
 0
 40
13.31015
 50
302.035
 51
355.5488
 6
CONTINUOUS
 0
ARC
 8
WHITE
 10
254.95
 20
64.76
 30
 0
 40
21.52602
 50
126.7847
 51
143.2153
 6
CONTINUOUS
 0
ARC
 8
WHITE
 10
210.4
 20
96.92
 30
 0
 40
33.42408
 50
303.1956
 51
324.7931
 6
CONTINUOUS
 0
ARC
 8
WHITE
 10
231.813
 20
66.684
 30
 0
 40
3.850392
 50
143.9486
 51
207.2637
 6
CONTINUOUS
 0
ARC
 8
WHITE
 10
153.618
 20
68.483
 30
 0
 40
74.85685
 50
347.8205
 51
357.2718
 6
CONTINUOUS
 0
ARC
 8
WHITE
 10
229.445
 20
50.344
 30
 0
 40
3.542984
 50
138.5357
 51
204.0545
 6
CONTINUOUS
 0
ARC
 8
WHITE
 10
227.99
 20
49.84
 30
 0
 40
2.012958
 50
207.8381
 51
272.5637
 6
CONTINUOUS
 0
LINE
 8
WHITE
 10
228.08
 20
47.83
 30
0.0000
 11
250.05
 21
47.83
 31
0.0000
 6
CONTINUOUS
 0
ARC
 8
WHITE
 10
250.05
 20
43.08
 30
 0
 40
4.75
 50
0
 51
90
 6
CONTINUOUS
 0
ARC
 8
WHITE
 10
245.339
 20
41.618
 30
 0
 40
9.573294
 50
315.0127
 51
8.784384
 6
CONTINUOUS
 0
LINE
 8
WHITE
 10
252.11
 20
34.85
 30
0.0000
 11
245.48
 21
27.33
 31
0.0000
 6
CONTINUOUS
 0
ARC
 8
WHITE
 10
230.75
 20
29.128
 30
 0
 40
14.83933
 50
308.6586
 51
353.0407
 6
CONTINUOUS
 0
ARC
 8
WHITE
 10
241.997
 20
15.068
 30
 0
 40
3.165329
 50
128.6513
 51
171.0585
 6
CONTINUOUS
 0
ARC
 8
WHITE
 10
231.691
 20
16.694
 30
 0
 40
7.268011
 50
283.2753
 51
351.0237
 6
CONTINUOUS
 0
ARC
 8
WHITE
 10
233.098
 20
12.971
 30
 0
 40
3.361226
 50
212.3992
 51
274.4706
 6
CONTINUOUS
 0
ARC
 8
WHITE
 10
219.87
 20
5.32
 30
 0
 40
11.9237
 50
29.38131
 51
56.04337
 6
CONTINUOUS
 0
ARC
 8
WHITE
 10
225.347
 20
64.06
 30
 0
 40
48.86432
 50
264.5076
 51
271.3873
 6
CONTINUOUS
 0
ARC
 8
WHITE
 10
224.38
 20
37.27
 30
 0
 40
22.16273
 50
259.6281
 51
260.3634
 6
CONTINUOUS
 0
ARC
 8
WHITE
 10
219.01
 20
16.71
 30
 0
 40
1.855262
 50
207.2554
 51
318.0587
 6
CONTINUOUS
 0
ARC
 8
WHITE
 10
216.615
 20
15.499
 30
 0
 40
.827856
 50
25.85315
 51
70.60262
 6
CONTINUOUS
 0
ARC
 8
WHITE
 10
216.611
 20
15.499
 30
 0
 40
.829338
 50
70.34153
 51
115.0502
 6
CONTINUOUS
 0
ARC
 8
WHITE
 10
215.524
 20
17.952
 30
 0
 40
1.854319
 50
198.943
 51
293.3852
 6
CONTINUOUS
 0
ARC
 8
WHITE
 10
212.961
 20
17.187
 30
 0
 40
.825257
 50
11.39163
 51
61.10699
 6
CONTINUOUS
 0
ARC
 8
WHITE
 10
212.957
 20
17.186
 30
 0
 40
.828604
 50
60.89838
 51
106.6198
 6
CONTINUOUS
 0
ARC
 8
WHITE
 10
212.29
 20
19.788
 30
 0
 40
1.85843
 50
187.9818
 51
283.3782
 6
CONTINUOUS
 0
ARC
 8
WHITE
 10
209.62
 20
19.485
 30
 0
 40
.831218
 50
3.103359
 51
83.08835
 6
CONTINUOUS
 0
ARC
 8
WHITE
 10
209.439
 20
22.14
 30
 0
 40
1.851448
 50
176.9043
 51
278.7297
 6
CONTINUOUS
 0
ARC
 8
WHITE
 10
206.77
 20
22.31
 30
 0
 40
.822982
 50
355.1207
 51
85.12022
 6
CONTINUOUS
 0
ARC
 8
WHITE
 10
207.045
 20
24.969
 30
 0
 40
1.85039
 50
170.329
 51
263.6393
 6
CONTINUOUS
 0
ARC
 8
WHITE
 10
204.438
 20
25.584
 30
 0
 40
.839011
 50
338.7566
 51
65.94069
 6
CONTINUOUS
 0
ARC
 8
WHITE
 10
205.171
 20
28.16
 30
 0
 40
1.85175
 50
156.773
 51
257.8102
 6
CONTINUOUS
 0
ARC
 8
WHITE
 10
202.718
 20
29.226
 30
 0
 40
.82365
 50
335.9245
 51
64.67999
 6
CONTINUOUS
 0
ARC
 8
WHITE
 10
203.873
 20
31.634
 30
 0
 40
1.847621
 50
132.3007
 51
244.2393
 6
CONTINUOUS
 0
LINE
 8
WHITE
 10
202.63
 20
33
 30
0.0000
 11
202.57
 21
33.28
 31
0.0000
 6
CONTINUOUS
 0
ARC
 8
WHITE
 10
193.671
 20
29.357
 30
 0
 40
9.725334
 50
23.78962
 51
62.7104
 6
CONTINUOUS
 0
ARC
 8
WHITE
 10
189.402
 20
23.17
 30
 0
 40
17.20776
 50
59.52162
 51
73.39325
 6
CONTINUOUS
 0
ARC
 8
WHITE
 10
183.392
 20
-.077999
 30
 0
 40
41.21322
 50
74.62368
 51
111.3765
 6
CONTINUOUS
 0
ARC
 8
WHITE
 10
167.786
 20
39.769
 30
 0
 40
1.580827
 50
272.6834
 51
291.6803
 6
CONTINUOUS
 0
ARC
 8
WHITE
 10
165.58
 20
88.86
 30
 0
 40
50.72127
 50
245.082
 51
272.5764
 6
CONTINUOUS
 0
ARC
 8
WHITE
 10
124.185
 20
-267.931
 30
 0
 40
311.4355
 50
86.31339
 51
90.71844
 6
CONTINUOUS
 0
LINE
 8
WHITE
 10
120.28
 20
43.48
 30
0.0000
 11
111.65
 21
43.48
 31
0.0000
 6
CONTINUOUS
 0
ARC
 8
WHITE
 10
111.65
 20
40.31
 30
 0
 40
3.17
 50
90
 51
179.8192
 6
CONTINUOUS
 0
LINE
 8
WHITE
 10
108.48
 20
40.32
 30
0.0000
 11
108.48
 21
10.98
 31
0.0000
 6
CONTINUOUS
 0
ARC
 8
WHITE
 10
102.15
 20
10.98
 30
 0
 40
6.329999
 50
270
 51
0
 6
CONTINUOUS
 0
LINE
 8
WHITE
 10
102.15
 20
4.65
 30
0.0000
 11
23.17
 21
4.65
 31
0.0000
 6
CONTINUOUS
 0
ARC
 8
WHITE
 10
23.17
 20
10.98
 30
 0
 40
6.329999
 50
180
 51
270
 6
CONTINUOUS
 0
LINE
 8
WHITE
 10
16.84
 20
10.98
 30
0.0000
 11
16.84
 21
57.77
 31
0.0000
 6
CONTINUOUS
 0
ARC
 8
WHITE
 10
28.194
 20
82.468
 30
 0
 40
27.1828
 50
111.2088
 51
245.3111
 6
CONTINUOUS
 0
ARC
 8
WHITE
 10
18.011
 20
108.697
 30
 0
 40
.953189
 50
291.4777
 51
9.847888
 6
CONTINUOUS
 0
LINE
 8
WHITE
 10
18.95
 20
108.86
 30
0.0000
 11
18.95
 21
148.43
 31
0.0000
 6
CONTINUOUS
 0
ARC
 8
WHITE
 10
18.01
 20
148.593
 30
 0
 40
.954027
 50
350.1625
 51
68.46655
 6
CONTINUOUS
 0
ARC
 8
WHITE
 10
28.198
 20
174.827
 30
 0
 40
27.18928
 50
114.6921
 51
248.7871
 6
CONTINUOUS
 0
LINE
 8
WHITE
 10
16.84
 20
199.53
 30
0.0000
 11
16.84
 21
246.32
 31
0.0000
 6
CONTINUOUS
 0
ARC
 8
WHITE
 10
23.17
 20
246.32
 30
 0
 40
6.329999
 50
90
 51
180
 6
CONTINUOUS
 0
LINE
 8
WHITE
 10
23.17
 20
252.65
 30
0.0000
 11
71.54
 21
252.65
 31
0.0000
 6
CONTINUOUS
 0
ENDSEC
 0
EOF
