  0
SECTION
  2
ENTITIES
  0
CIRCLE
  8
APS_GEOMETR�
 10
5022.493394
 20
686.234854
 40
360.0
  0
ARC
  8
APS_GEOMETR�
 10
3947.861577
 20
1044.802438
 40
330.0
 50
0.0
 51
180.0
  0
LINE
  8
APS_GEOMETR�
 10
3617.861577
 11
3617.861577
 20
1044.802438
 21
154.802438
  0
LINE
  8
APS_GEOMETR�
 10
3617.861577
 11
4277.861577
 20
154.802438
 21
154.802438
  0
LINE
  8
APS_GEOMETR�
 10
4277.861577
 11
4277.861577
 20
154.802438
 21
1044.802438
  0
ARC
  8
APS_GEOMETR�
 10
4095.530499
 20
980.409863
 40
87.616526
 50
22.035496
 51
61.156537
  0
ARC
  8
APS_GEOMETR�
 10
4145.034587
 20
1070.295883
 40
15.0
 50
179.954877
 51
241.156535
  0
ARC
  8
APS_GEOMETR�
 10
4024.14713
 20
1070.391088
 40
105.887495
 50
359.954877
 51
77.865517
  0
ARC
  8
APS_GEOMETR�
 10
4049.558526
 20
1188.577582
 40
15.0
 50
200.690901
 51
257.865516
  0
ARC
  8
APS_GEOMETR�
 10
3952.442173
 20
1151.897992
 40
88.812226
 50
20.690902
 51
51.398052
  0
ARC
  8
APS_GEOMETR�
 10
4017.211264
 20
1233.027168
 40
15.0
 50
214.838403
 51
231.398038
  0
ARC
  8
APS_GEOMETR�
 10
3934.50368
 20
1175.461617
 40
85.768731
 50
34.838419
 51
68.495071
  0
ARC
  8
APS_GEOMETR�
 10
4007.357875
 20
1314.702085
 40
72.446109
 50
226.468511
 51
235.135438
  0
ARC
  8
APS_GEOMETR�
 10
3947.129094
 20
1251.304009
 40
15.0
 50
46.468513
 51
133.615716
  0
ARC
  8
APS_GEOMETR�
 10
3886.80718
 20
1314.613477
 40
72.446109
 50
304.948788
 51
313.615716
  0
ARC
  8
APS_GEOMETR�
 10
3959.865992
 20
1175.480261
 40
85.768731
 50
111.589163
 51
145.245813
  0
ARC
  8
APS_GEOMETR�
 10
3877.073871
 20
1232.924163
 40
15.0
 50
308.686172
 51
325.245809
  0
ARC
  8
APS_GEOMETR�
 10
3941.96216
 20
1151.890291
 40
88.812226
 50
128.686182
 51
159.393331
  0
ARC
  8
APS_GEOMETR�
 10
3844.791988
 20
1188.427068
 40
15.0
 50
282.218713
 51
339.393325
  0
ARC
  8
APS_GEOMETR�
 10
3870.377103
 20
1070.278059
 40
105.887495
 50
102.218713
 51
180.129354
  0
ARC
  8
APS_GEOMETR�
 10
3749.489916
 20
1070.005137
 40
15.0
 50
298.927697
 51
0.129359
  0
ARC
  8
APS_GEOMETR�
 10
3799.126093
 20
980.19199
 40
87.616526
 50
118.927694
 51
158.048735
  0
ARC
  8
APS_GEOMETR�
 10
3799.126093
 20
980.19199
 40
87.616526
 50
130.066556
 51
158.048735
  0
LINE
  8
APS_GEOMETR�
 10
3742.729348
 11
3748.516765
 20
1047.244676
 21
1053.161827
  0
LINE
  8
APS_GEOMETR�
 10
3748.516765
 11
3730.988053
 20
1053.161827
 21
1071.083469
  0
LINE
  8
APS_GEOMETR�
 10
3730.988053
 11
3724.5721
 20
1071.083469
 21
1095.564886
  0
LINE
  8
APS_GEOMETR�
 10
3724.5721
 11
3700.627434
 20
1095.564886
 21
1089.00511
  0
LINE
  8
APS_GEOMETR�
 10
3700.627434
 11
3676.682768
 20
1089.00511
 21
1095.564886
  0
LINE
  8
APS_GEOMETR�
 10
3676.682768
 11
3670.266814
 20
1095.564886
 21
1071.083469
  0
LINE
  8
APS_GEOMETR�
 10
3670.266814
 11
3652.738102
 20
1071.083469
 21
1053.161827
  0
LINE
  8
APS_GEOMETR�
 10
3652.738102
 11
3670.266814
 20
1053.161827
 21
1035.240186
  0
LINE
  8
APS_GEOMETR�
 10
3670.266814
 11
3676.682768
 20
1035.240186
 21
1010.758768
  0
LINE
  8
APS_GEOMETR�
 10
3676.682768
 11
3700.627434
 20
1010.758768
 21
1017.318544
  0
LINE
  8
APS_GEOMETR�
 10
3700.627434
 11
3717.861577
 20
1017.318544
 21
1012.597154
  0
LINE
  8
APS_GEOMETR�
 10
3717.861577
 11
3717.861577
 20
1012.597154
 21
1012.944609
  0
LINE
  8
APS_GEOMETR�
 10
3717.861577
 11
3717.861577
 20
1012.944609
 21
254.802438
  0
LINE
  8
APS_GEOMETR�
 10
3717.861577
 11
4177.861577
 20
254.802438
 21
254.802438
  0
LINE
  8
APS_GEOMETR�
 10
4177.861577
 11
4177.861577
 20
254.802438
 21
1012.909794
  0
ARC
  8
APS_GEOMETR�
 10
4017.211264
 20
1233.027168
 40
15.0
 50
214.838403
 51
231.398038
  0
ARC
  8
APS_GEOMETR�
 10
3934.503679
 20
1175.461619
 40
85.768731
 50
34.838418
 51
57.801922
  0
ARC
  8
APS_GEOMETR�
 10
3934.503679
 20
1175.461619
 40
85.768731
 50
34.838418
 51
57.801922
  0
ARC
  8
APS_GEOMETR�
 10
4017.211264
 20
1233.027168
 40
15.0
 50
214.838403
 51
231.398038
  0
ARC
  8
APS_GEOMETR�
 10
3952.442191
 20
1151.897978
 40
88.812226
 50
49.314187
 51
51.398066
  0
LINE
  8
APS_GEOMETR�
 10
4010.339827
 11
4019.222682
 20
1219.243915
 21
1228.32589
  0
LINE
  8
APS_GEOMETR�
 10
4019.222682
 11
4043.167348
 20
1228.32589
 21
1234.885666
  0
LINE
  8
APS_GEOMETR�
 10
4043.167348
 11
4037.354739
 20
1234.885666
 21
1257.064895
  0
LINE
  8
APS_GEOMETR�
 10
4037.354739
 11
4021.474396
 20
1257.064895
 21
1273.301217
  0
LINE
  8
APS_GEOMETR�
 10
4021.474396
 11
4003.945684
 20
1273.301217
 21
1255.379576
  0
LINE
  8
APS_GEOMETR�
 10
4003.945684
 11
3980.001018
 20
1255.379576
 21
1248.8198
  0
LINE
  8
APS_GEOMETR�
 10
3980.001018
 11
3980.205366
 20
1248.8198
 21
1248.040065
  0
ARC
  8
APS_GEOMETR�
 10
3877.073871
 20
1232.924163
 40
15.0
 50
308.686172
 51
325.245809
  0
ARC
  8
APS_GEOMETR�
 10
3941.962158
 20
1151.89029
 40
88.812226
 50
128.68618
 51
130.265674
  0
ARC
  8
APS_GEOMETR�
 10
3941.962158
 20
1151.89029
 40
88.812226
 50
128.68618
 51
130.265674
  0
ARC
  8
APS_GEOMETR�
 10
3877.073871
 20
1232.924163
 40
15.0
 50
308.686172
 51
325.245809
  0
ARC
  8
APS_GEOMETR�
 10
3959.865993
 20
1175.480261
 40
85.768731
 50
121.315722
 51
145.245813
  0
LINE
  8
APS_GEOMETR�
 10
3915.28739
 11
3915.304667
 20
1248.753881
 21
1248.8198
  0
LINE
  8
APS_GEOMETR�
 10
3915.304667
 11
3891.360001
 20
1248.8198
 21
1255.379576
  0
LINE
  8
APS_GEOMETR�
 10
3891.360001
 11
3873.831289
 20
1255.379576
 21
1273.301217
  0
LINE
  8
APS_GEOMETR�
 10
3873.831289
 11
3857.950946
 20
1273.301217
 21
1257.064895
  0
LINE
  8
APS_GEOMETR�
 10
3857.950946
 11
3852.138337
 20
1257.064895
 21
1234.885666
  0
LINE
  8
APS_GEOMETR�
 10
3852.138337
 11
3876.083003
 20
1234.885666
 21
1228.32589
  0
LINE
  8
APS_GEOMETR�
 10
3876.083003
 11
3884.559908
 20
1228.32589
 21
1219.658964
  0
ARC
  8
APS_GEOMETR�
 10
3952.442173
 20
1151.897994
 40
88.812226
 50
21.750264
 51
43.636743
  0
ARC
  8
APS_GEOMETR�
 10
3952.442173
 20
1151.897994
 40
88.812226
 50
21.750264
 51
43.636743
  0
LINE
  8
APS_GEOMETR�
 10
4034.931665
 11
4045.419061
 20
1184.808405
 21
1181.935323
  0
LINE
  8
APS_GEOMETR�
 10
4045.419061
 11
4051.23167
 20
1181.935323
 21
1204.114552
  0
LINE
  8
APS_GEOMETR�
 10
4051.23167
 11
4045.419061
 20
1204.114552
 21
1226.293781
  0
LINE
  8
APS_GEOMETR�
 10
4045.419061
 11
4023.726109
 20
1226.293781
 21
1220.350874
  0
LINE
  8
APS_GEOMETR�
 10
4023.726109
 11
4016.718198
 20
1220.350874
 21
1213.185872
  0
ARC
  8
APS_GEOMETR�
 10
3941.962158
 20
1151.89029
 40
88.812226
 50
135.943867
 51
158.436061
  0
ARC
  8
APS_GEOMETR�
 10
3941.962158
 20
1151.89029
 40
88.812226
 50
135.943867
 51
158.436061
  0
LINE
  8
APS_GEOMETR�
 10
3878.136462
 11
3871.579575
 20
1213.647006
 21
1220.350874
  0
LINE
  8
APS_GEOMETR�
 10
3871.579575
 11
3849.886623
 20
1220.350874
 21
1226.293781
  0
LINE
  8
APS_GEOMETR�
 10
3849.886623
 11
3844.074014
 20
1226.293781
 21
1204.114552
  0
LINE
  8
APS_GEOMETR�
 10
3844.074014
 11
3849.886623
 20
1204.114552
 21
1181.935323
  0
LINE
  8
APS_GEOMETR�
 10
3849.886623
 11
3859.366079
 20
1181.935323
 21
1184.532273
  0
ARC
  8
APS_GEOMETR�
 10
4024.14713
 20
1070.391088
 40
105.887495
 50
359.954877
 51
27.585709
  0
ARC
  8
APS_GEOMETR�
 10
4024.14713
 20
1070.391088
 40
105.887495
 50
359.954877
 51
27.585709
  0
ARC
  8
APS_GEOMETR�
 10
4145.034587
 20
1070.295403
 40
15.0
 50
179.953043
 51
180.014035
  0
LINE
  8
APS_GEOMETR�
 10
4130.034587
 11
4140.637123
 20
1070.291729
 21
1059.451524
  0
LINE
  8
APS_GEOMETR�
 10
4140.637123
 11
4156.517466
 20
1059.451524
 21
1075.687846
  0
LINE
  8
APS_GEOMETR�
 10
4156.517466
 11
4162.330075
 20
1075.687846
 21
1097.867075
  0
LINE
  8
APS_GEOMETR�
 10
4162.330075
 11
4138.385409
 20
1097.867075
 21
1104.426851
  0
LINE
  8
APS_GEOMETR�
 10
4138.385409
 11
4120.856698
 20
1104.426851
 21
1122.348493
  0
LINE
  8
APS_GEOMETR�
 10
4120.856698
 11
4117.99724
 20
1122.348493
 21
1119.424937
  0
LINE
  8
APS_GEOMETR�
 10
4106.132405
 11
4114.704901
 20
1137.40285
 21
1128.63819
  0
LINE
  8
APS_GEOMETR�
 10
4114.704901
 11
4113.423744
 20
1128.63819
 21
1127.328313
  0
ARC
  8
APS_GEOMETR�
 10
4024.14713
 20
1070.391087
 40
105.887495
 50
32.528181
 51
39.261307
  0
LINE
  8
APS_GEOMETR�
 10
4106.132405
 11
4097.176189
 20
1137.40285
 21
1146.559831
  0
LINE
  8
APS_GEOMETR�
 10
4097.176189
 11
4096.999826
 20
1146.559831
 21
1147.232784
  0
ARC
  8
APS_GEOMETR�
 10
4024.14713
 20
1070.391088
 40
105.887495
 50
46.526435
 51
64.805986
  0
ARC
  8
APS_GEOMETR�
 10
4024.14713
 20
1070.391088
 40
105.887495
 50
46.526435
 51
64.805986
  0
LINE
  8
APS_GEOMETR�
 10
4096.999826
 11
4090.760236
 20
1147.232784
 21
1171.041249
  0
LINE
  8
APS_GEOMETR�
 10
4090.760236
 11
4071.165547
 20
1171.041249
 21
1165.673173
  0
LINE
  8
APS_GEOMETR�
 10
4071.165547
 11
4069.221823
 20
1165.673173
 21
1166.205667
  0
LINE
  8
APS_GEOMETR�
 10
4164.53888
 11
4164.317631
 20
1034.395963
 21
1035.240186
  0
LINE
  8
APS_GEOMETR�
 10
4164.317631
 11
4161.046851
 20
1035.240186
 21
1038.584285
  0
ARC
  8
APS_GEOMETR�
 10
4095.530499
 20
980.409864
 40
87.616526
 50
41.603072
 51
47.126854
  0
ARC
  8
APS_GEOMETR�
 10
4095.530499
 20
980.409864
 40
87.616526
 50
41.603072
 51
47.126854
  0
LINE
  8
APS_GEOMETR�
 10
4161.046851
 11
4146.788919
 20
1038.584285
 21
1053.161827
  0
LINE
  8
APS_GEOMETR�
 10
4146.788919
 11
4164.317631
 20
1053.161827
 21
1071.083469
  0
LINE
  8
APS_GEOMETR�
 10
4164.317631
 11
4170.733585
 20
1071.083469
 21
1095.564886
  0
LINE
  8
APS_GEOMETR�
 10
4170.733585
 11
4194.678251
 20
1095.564886
 21
1089.00511
  0
LINE
  8
APS_GEOMETR�
 10
4194.678251
 11
4218.622917
 20
1089.00511
 21
1095.564886
  0
LINE
  8
APS_GEOMETR�
 10
4218.622917
 11
4225.03887
 20
1095.564886
 21
1071.083469
  0
LINE
  8
APS_GEOMETR�
 10
4225.03887
 11
4242.567582
 20
1071.083469
 21
1053.161827
  0
LINE
  8
APS_GEOMETR�
 10
4242.567582
 11
4225.03887
 20
1053.161827
 21
1035.240186
  0
LINE
  8
APS_GEOMETR�
 10
4225.03887
 11
4218.622917
 20
1035.240186
 21
1010.758768
  0
LINE
  8
APS_GEOMETR�
 10
4218.622917
 11
4194.678251
 20
1010.758768
 21
1017.318544
  0
LINE
  8
APS_GEOMETR�
 10
4194.678251
 11
4177.861577
 20
1017.318544
 21
1012.711522
  0
ARC
  8
APS_GEOMETR�
 10
3959.865992
 20
1175.480261
 40
85.768731
 50
111.589162
 51
112.402872
  0
ARC
  8
APS_GEOMETR�
 10
3959.865992
 20
1175.480261
 40
85.768731
 50
111.589162
 51
112.402872
  0
ARC
  8
APS_GEOMETR�
 10
3886.80718
 20
1314.613477
 40
72.446109
 50
304.948788
 51
313.615716
  0
ARC
  8
APS_GEOMETR�
 10
3947.129094
 20
1251.304009
 40
15.0
 50
46.468513
 51
133.615716
  0
ARC
  8
APS_GEOMETR�
 10
4007.357875
 20
1314.702085
 40
72.446109
 50
226.468511
 51
235.135438
  0
ARC
  8
APS_GEOMETR�
 10
3934.503719
 20
1175.461602
 40
85.768731
 50
67.34747
 51
68.495099
  0
ARC
  8
APS_GEOMETR�
 10
3934.503679
 20
1175.461619
 40
85.768731
 50
67.347441
 51
68.495069
  0
ARC
  8
APS_GEOMETR�
 10
4007.357869
 20
1314.70209
 40
72.446109
 50
226.468517
 51
235.135444
  0
ARC
  8
APS_GEOMETR�
 10
3947.129094
 20
1251.30401
 40
15.0
 50
46.468511
 51
133.61572
  0
ARC
  8
APS_GEOMETR�
 10
3886.807178
 20
1314.613475
 40
72.446109
 50
304.94879
 51
313.615718
  0
ARC
  8
APS_GEOMETR�
 10
7019.334636
 20
1264.60816
 40
954.512475
 50
228.939255
 51
231.145389
  0
ARC
  8
APS_GEOMETR�
 10
6451.975665
 20
527.845145
 40
32.126651
 50
158.309794
 51
191.771959
  0
ARC
  8
APS_GEOMETR�
 10
6448.827564
 20
529.140519
 40
28.722723
 50
138.595822
 51
158.389898
  0
LINE
  8
APS_GEOMETR�
 10
6427.283717
 11
6419.279717
 20
548.136768
 21
548.645768
  0
ARC
  8
APS_GEOMETR�
 10
6402.615064
 20
545.184113
 40
17.020391
 50
11.734848
 51
44.071636
  0
ARC
  8
APS_GEOMETR�
 10
6404.995291
 20
547.602043
 40
13.628703
 50
43.728465
 51
70.59777
  0
ARC
  8
APS_GEOMETR�
 10
6405.52335
 20
549.069801
 40
12.068884
 50
70.647544
 51
99.070396
  0
ARC
  8
APS_GEOMETR�
 10
6405.671842
 20
548.382248
 40
12.771306
 50
99.241969
 51
126.955984
  0
LINE
  8
APS_GEOMETR�
 10
6397.993716
 11
6392.203717
 20
558.587768
 21
554.232768
  0
ARC
  8
APS_GEOMETR�
 10
6421.089763
 20
560.404211
 40
29.537948
 50
155.941828
 51
192.059813
  0
ARC
  8
APS_GEOMETR�
 10
6418.331751
 20
561.724817
 40
26.481281
 50
133.263402
 51
156.118262
  0
ARC
  8
APS_GEOMETR�
 10
6416.034085
 20
564.273986
 40
23.050354
 50
107.841731
 51
133.447086
  0
ARC
  8
APS_GEOMETR�
 10
6415.560469
 20
565.697737
 40
21.549971
 50
86.644752
 51
107.802868
  0
ARC
  8
APS_GEOMETR�
 10
6445.217957
 20
597.447549
 40
30.185065
 50
182.460344
 51
199.82412
  0
ARC
  8
APS_GEOMETR�
 10
6445.605743
 20
597.536968
 40
30.576419
 50
162.399191
 51
182.596555
  0
ARC
  8
APS_GEOMETR�
 10
6443.300736
 20
598.346791
 40
28.13454
 50
116.13523
 51
162.551757
  0
LINE
  8
APS_GEOMETR�
 10
6430.907717
 11
6428.455717
 20
623.604768
 21
612.670768
  0
ARC
  8
APS_GEOMETR�
 10
6447.410749
 20
608.421657
 40
19.425452
 50
167.364999
 51
188.480984
  0
ARC
  8
APS_GEOMETR�
 10
6446.27261
 20
608.179073
 40
18.264125
 50
188.254873
 51
210.145879
  0
ARC
  8
APS_GEOMETR�
 10
6443.602762
 20
606.535606
 40
15.130234
 50
209.841491
 51
234.13695
  0
ARC
  8
APS_GEOMETR�
 10
6442.020869
 20
604.265121
 40
12.36353
 50
233.913734
 51
260.854188
  0
ARC
  8
APS_GEOMETR�
 10
6441.883625
 20
603.611676
 40
11.696621
 50
261.009158
 51
288.59662
  0
ARC
  8
APS_GEOMETR�
 10
6441.416408
 20
604.963587
 40
13.126947
 50
288.647655
 51
312.262882
  0
ARC
  8
APS_GEOMETR�
 10
6416.367998
 20
612.690856
 40
38.103261
 50
332.757444
 51
358.261326
  0
ARC
  8
APS_GEOMETR�
 10
6415.752868
 20
612.962987
 40
38.727193
 50
357.88651
 51
24.08426
  0
ARC
  8
APS_GEOMETR�
 10
6421.432941
 20
615.793485
 40
32.387616
 50
23.613383
 51
53.456231
  0
ARC
  8
APS_GEOMETR�
 10
6411.699707
 20
614.532109
 40
39.828806
 50
43.233488
 51
69.500509
  0
ARC
  8
APS_GEOMETR�
 10
6413.108676
 20
618.275011
 40
35.829504
 50
69.514879
 51
96.929827
  0
ARC
  8
APS_GEOMETR�
 10
6413.356926
 20
617.00622
 40
37.119095
 50
97.073923
 51
123.982267
  0
ARC
  8
APS_GEOMETR�
 10
6416.955344
 20
611.430381
 40
43.754128
 50
123.808506
 51
148.320263
  0
ARC
  8
APS_GEOMETR�
 10
6431.382283
 20
597.459023
 40
63.515361
 50
144.426629
 51
167.008428
  0
ARC
  8
APS_GEOMETR�
 10
6436.704661
 20
595.965537
 40
69.037735
 50
166.793688
 51
188.088487
  0
ARC
  8
APS_GEOMETR�
 10
6433.274124
 20
595.248499
 40
65.54083
 50
187.889851
 51
209.913545
  0
ARC
  8
APS_GEOMETR�
 10
6424.884581
 20
590.123807
 40
55.713903
 50
209.648043
 51
234.276558
  0
ARC
  8
APS_GEOMETR�
 10
6452.838783
 20
825.413945
 40
32.137399
 50
167.863114
 51
201.344452
  0
ARC
  8
APS_GEOMETR�
 10
6449.732016
 20
824.156927
 40
28.786234
 50
201.264805
 51
221.015007
  0
LINE
  8
APS_GEOMETR�
 10
6428.011716
 11
6420.010717
 20
805.265768
 21
804.818768
  0
ARC
  8
APS_GEOMETR�
 10
6403.418005
 20
808.357304
 40
16.965828
 50
315.537725
 51
347.961527
  0
ARC
  8
APS_GEOMETR�
 10
6405.775441
 20
805.933228
 40
13.585608
 50
288.960907
 51
315.870272
  0
ARC
  8
APS_GEOMETR�
 10
6406.279993
 20
804.496709
 40
12.063098
 50
260.479336
 51
288.911427
  0
ARC
  8
APS_GEOMETR�
 10
6406.437876
 20
805.218699
 40
12.801309
 50
232.639692
 51
260.316918
  0
LINE
  8
APS_GEOMETR�
 10
6398.669717
 11
6392.901717
 20
795.043768
 21
799.447768
  0
ARC
  8
APS_GEOMETR�
 10
6421.782716
 20
793.097776
 40
29.570839
 50
167.599825
 51
203.704392
  0
ARC
  8
APS_GEOMETR�
 10
6419.042935
 20
791.805455
 40
26.542798
 50
203.527711
 51
226.340994
  0
ARC
  8
APS_GEOMETR�
 10
6416.716479
 20
789.259911
 40
23.095212
 50
226.156781
 51
251.72341
  0
ARC
  8
APS_GEOMETR�
 10
6416.221257
 20
787.800964
 40
21.554563
 50
251.757188
 51
272.939794
  0
ARC
  8
APS_GEOMETR�
 10
6445.626664
 20
755.867506
 40
30.152911
 50
159.809081
 51
177.201334
  0
ARC
  8
APS_GEOMETR�
 10
6446.065748
 20
755.77452
 40
30.596095
 50
177.067557
 51
197.255367
  0
ARC
  8
APS_GEOMETR�
 10
6443.791857
 20
754.989603
 40
28.191816
 50
197.102772
 51
243.463629
  0
LINE
  8
APS_GEOMETR�
 10
6431.196717
 11
6428.806717
 20
729.767768
 21
740.731768
  0
ARC
  8
APS_GEOMETR�
 10
6447.790731
 20
744.86929
 40
19.429665
 50
171.182052
 51
192.295211
  0
ARC
  8
APS_GEOMETR�
 10
6446.609169
 20
745.124227
 40
18.223126
 50
149.486845
 51
171.404644
  0
ARC
  8
APS_GEOMETR�
 10
6443.938867
 20
746.790932
 40
15.076593
 50
125.449264
 51
149.791166
  0
ARC
  8
APS_GEOMETR�
 10
6442.388791
 20
749.052798
 40
12.335092
 50
98.705913
 51
125.677349
  0
ARC
  8
APS_GEOMETR�
 10
6442.260215
 20
749.673814
 40
11.701816
 50
70.964972
 51
98.543866
  0
ARC
  8
APS_GEOMETR�
 10
6441.772121
 20
748.290526
 40
13.168659
 50
47.334671
 51
70.920375
  0
ARC
  8
APS_GEOMETR�
 10
6416.65796
 20
740.714804
 40
38.164235
 50
1.405298
 51
26.886768
  0
ARC
  8
APS_GEOMETR�
 10
6416.148516
 20
740.44777
 40
38.680911
 50
335.564624
 51
1.782218
  0
ARC
  8
APS_GEOMETR�
 10
6421.862827
 20
737.559904
 40
32.284917
 50
306.132369
 51
336.035589
  0
ARC
  8
APS_GEOMETR�
 10
6412.147397
 20
738.886868
 40
39.718648
 50
290.064092
 51
316.377398
  0
ARC
  8
APS_GEOMETR�
 10
6413.500799
 20
735.221776
 40
35.811682
 50
262.61985
 51
290.041891
  0
ARC
  8
APS_GEOMETR�
 10
6413.765382
 20
736.572896
 40
37.185701
 50
235.601921
 51
262.48297
  0
ARC
  8
APS_GEOMETR�
 10
6417.443072
 20
742.180395
 40
43.890504
 50
211.313248
 51
235.775955
  0
ARC
  8
APS_GEOMETR�
 10
6431.964387
 20
756.065257
 40
63.659257
 50
192.651332
 51
215.20026
  0
ARC
  8
APS_GEOMETR�
 10
6437.172672
 20
757.497924
 40
69.055348
 50
171.573975
 51
192.864714
  0
ARC
  8
APS_GEOMETR�
 10
6433.608404
 20
758.259737
 40
65.418332
 50
149.725686
 51
171.776564
  0
ARC
  8
APS_GEOMETR�
 10
6425.208161
 20
763.456158
 40
55.544549
 50
125.30961
 51
149.986497
  0
ARC
  8
APS_GEOMETR�
 10
7013.348377
 20
86.683836
 40
951.90877
 50
128.450143
 51
130.660829
  0
ARC
  8
APS_GEOMETR�
 10
6228.381392
 20
1014.940713
 40
23.34942
 50
255.463379
 51
275.155912
  0
ARC
  8
APS_GEOMETR�
 10
6228.669076
 20
1013.560573
 40
21.949613
 50
274.731748
 51
299.191954
  0
ARC
  8
APS_GEOMETR�
 10
6227.049499
 20
1017.214358
 40
25.931875
 50
298.378376
 51
315.655612
  0
LINE
  8
APS_GEOMETR�
 10
6245.594717
 11
6246.002717
 20
999.088767
 21
991.188768
  0
ARC
  8
APS_GEOMETR�
 10
6241.728335
 20
977.455034
 40
14.383525
 50
37.603498
 51
72.71217
  0
ARC
  8
APS_GEOMETR�
 10
6239.043637
 20
975.24993
 40
17.856355
 50
14.735317
 51
37.95265
  0
ARC
  8
APS_GEOMETR�
 10
6237.06969
 20
974.636141
 40
19.921711
 50
353.18678
 51
14.998535
  0
ARC
  8
APS_GEOMETR�
 10
6238.040757
 20
974.438845
 40
18.934267
 50
311.035944
 51
353.430988
  0
ARC
  8
APS_GEOMETR�
 10
6256.672616
 20
981.259755
 40
21.995163
 50
253.625108
 51
301.123933
  0
ARC
  8
APS_GEOMETR�
 10
6255.328821
 20
983.566866
 40
24.6648
 50
301.025978
 51
325.246488
  0
ARC
  8
APS_GEOMETR�
 10
6252.447822
 20
985.684002
 40
28.238898
 50
325.049356
 51
346.756531
  0
ARC
  8
APS_GEOMETR�
 10
6250.5715
 20
986.208294
 40
30.185537
 50
346.603725
 51
3.37391
  0
ARC
  8
APS_GEOMETR�
 10
6289.177586
 20
1008.611798
 40
22.299414
 50
247.668841
 51
266.817802
  0
ARC
  8
APS_GEOMETR�
 10
6289.123996
 20
1008.362641
 40
22.047702
 50
266.92091
 51
293.166661
  0
ARC
  8
APS_GEOMETR�
 10
6288.347114
 20
1010.197214
 40
24.039975
 50
293.148795
 51
343.488258
  0
LINE
  8
APS_GEOMETR�
 10
6311.395716
 11
6302.005717
 20
1003.364768
 21
1000.530768
  0
ARC
  8
APS_GEOMETR�
 10
6298.632551
 20
1011.712864
 40
11.679791
 50
259.178724
 51
286.786342
  0
ARC
  8
APS_GEOMETR�
 10
6298.813312
 20
1012.49995
 40
12.486854
 50
232.227203
 51
259.042107
  0
ARC
  8
APS_GEOMETR�
 10
6300.515506
 20
1014.807015
 40
15.353261
 50
208.373974
 51
232.479694
  0
ARC
  8
APS_GEOMETR�
 10
6303.169913
 20
1016.347155
 40
18.42093
 50
186.882315
 51
208.665338
  0
ARC
  8
APS_GEOMETR�
 10
6304.131767
 20
1016.539591
 40
19.399061
 50
165.953974
 51
187.106165
  0
ARC
  8
APS_GEOMETR�
 10
6302.351974
 20
1017.060345
 40
17.546247
 50
145.823808
 51
166.193085
  0
ARC
  8
APS_GEOMETR�
 10
6302.685446
 20
1005.600675
 40
25.97865
 50
92.998039
 51
124.862768
  0
ARC
  8
APS_GEOMETR�
 10
6302.146103
 20
1002.038727
 40
29.516417
 50
76.132107
 51
91.590756
  0
ARC
  8
APS_GEOMETR�
 10
6304.316823
 20
1010.112146
 40
21.158746
 50
57.598491
 51
76.598888
  0
ARC
  8
APS_GEOMETR�
 10
6299.961809
 20
1001.456635
 40
30.815333
 50
28.547248
 51
59.385684
  0
ARC
  8
APS_GEOMETR�
 10
6287.891409
 20
985.150372
 40
49.948924
 50
15.653768
 51
38.409856
  0
ARC
  8
APS_GEOMETR�
 10
6282.959685
 20
983.556105
 40
55.128279
 50
354.830348
 51
15.866246
  0
ARC
  8
APS_GEOMETR�
 10
6284.737349
 20
983.214462
 40
53.327366
 50
333.535843
 51
355.023826
  0
ARC
  8
APS_GEOMETR�
 10
6291.303674
 20
979.728988
 40
45.896255
 50
309.981258
 51
333.778078
  0
ARC
  8
APS_GEOMETR�
 10
6286.540894
 20
979.788874
 40
49.135275
 50
287.5814
 51
314.195808
  0
ARC
  8
APS_GEOMETR�
 10
6287.855428
 20
975.78875
 40
44.924955
 50
259.671442
 51
287.524199
  0
ARC
  8
APS_GEOMETR�
 10
6288.388562
 20
978.140837
 40
47.334627
 50
232.478103
 51
259.547029
  0
ARC
  8
APS_GEOMETR�
 10
6293.683613
 20
985.380889
 40
56.302282
 50
208.224753
 51
232.691855
  0
ARC
  8
APS_GEOMETR�
 10
7146.568527
 20
1561.687156
 40
1085.367193
 50
211.639134
 51
213.745917
  0
ARC
  8
APS_GEOMETR�
 10
5038.249893
 20
1553.804919
 40
1089.09006
 50
326.780225
 51
328.881453
  0
ARC
  8
APS_GEOMETR�
 10
5964.545972
 20
1013.397696
 40
23.253179
 50
265.450981
 51
285.141305
  0
ARC
  8
APS_GEOMETR�
 10
5964.282759
 20
1012.184048
 40
22.023105
 50
241.483643
 51
265.883183
  0
ARC
  8
APS_GEOMETR�
 10
5965.813507
 20
1015.700445
 40
25.845844
 50
224.883824
 51
242.22347
  0
LINE
  8
APS_GEOMETR�
 10
5947.500716
 11
5947.159717
 20
997.461768
 21
989.547768
  0
ARC
  8
APS_GEOMETR�
 10
5951.616021
 20
975.795985
 40
14.455801
 50
107.955063
 51
142.930165
  0
ARC
  8
APS_GEOMETR�
 10
5954.319447
 20
973.617211
 40
17.926538
 50
142.582251
 51
165.747095
  0
ARC
  8
APS_GEOMETR�
 10
5956.243736
 20
973.035067
 40
19.935124
 50
165.487103
 51
187.289137
  0
ARC
  8
APS_GEOMETR�
 10
5955.206018
 20
972.820207
 40
18.878708
 50
187.041905
 51
229.485783
  0
ARC
  8
APS_GEOMETR�
 10
5936.522183
 20
979.468832
 40
21.960307
 50
239.476476
 51
286.997165
  0
ARC
  8
APS_GEOMETR�
 10
5937.819777
 20
981.747712
 40
24.582452
 50
215.282258
 51
239.568893
  0
ARC
  8
APS_GEOMETR�
 10
5940.688224
 20
983.89566
 40
28.164843
 50
193.725928
 51
215.478723
  0
ARC
  8
APS_GEOMETR�
 10
5942.618763
 20
984.453289
 40
30.172678
 50
177.138113
 51
193.884737
  0
ARC
  8
APS_GEOMETR�
 10
5903.788076
 20
1006.528854
 40
22.331624
 50
273.817066
 51
292.916352
  0
ARC
  8
APS_GEOMETR�
 10
5903.847921
 20
1006.230734
 40
22.030218
 50
247.450433
 51
273.713384
  0
ARC
  8
APS_GEOMETR�
 10
5904.586413
 20
1008.020101
 40
23.965984
 50
197.033397
 51
247.460374
  0
LINE
  8
APS_GEOMETR�
 10
5881.671717
 11
5891.069717
 20
1000.999768
 21
998.274768
  0
ARC
  8
APS_GEOMETR�
 10
5894.319675
 20
1009.48981
 40
11.676447
 50
253.839169
 51
281.450591
  0
ARC
  8
APS_GEOMETR�
 10
5894.121983
 20
1010.322357
 40
12.531702
 50
281.580796
 51
308.351565
  0
ARC
  8
APS_GEOMETR�
 10
5892.376264
 20
1012.638227
 40
15.431191
 50
308.099313
 51
332.138879
  0
ARC
  8
APS_GEOMETR�
 10
5889.730266
 20
1014.142318
 40
18.473615
 50
331.849858
 51
353.599015
  0
ARC
  8
APS_GEOMETR�
 10
5888.831742
 20
1014.319401
 40
19.386428
 50
353.374972
 51
14.534781
  0
ARC
  8
APS_GEOMETR�
 10
5890.659784
 20
1014.86962
 40
17.47896
 50
14.292765
 51
34.862569
  0
ARC
  8
APS_GEOMETR�
 10
5892.851805
 20
1007.93774
 40
20.832888
 50
54.323493
 51
71.759251
  0
ARC
  8
APS_GEOMETR�
 10
5889.399849
 20
998.210544
 40
31.152665
 50
71.32928
 51
86.201365
  0
ARC
  8
APS_GEOMETR�
 10
5891.037611
 20
999.564755
 40
29.733066
 50
89.178864
 51
104.476773
  0
ARC
  8
APS_GEOMETR�
 10
5888.708624
 20
1007.888857
 40
21.091763
 50
104.003775
 51
123.04053
  0
ARC
  8
APS_GEOMETR�
 10
5893.252152
 20
999.093285
 40
30.957971
 50
121.213784
 51
151.965207
  0
ARC
  8
APS_GEOMETR�
 10
5905.494256
 20
982.870845
 40
50.125472
 50
142.126667
 51
164.828939
  0
ARC
  8
APS_GEOMETR�
 10
5910.311711
 20
981.356704
 40
55.171651
 50
164.620579
 51
185.646046
  0
ARC
  8
APS_GEOMETR�
 10
5908.371298
 20
980.982767
 40
53.204172
 50
185.45089
 51
206.970768
  0
ARC
  8
APS_GEOMETR�
 10
5901.770594
 20
977.407171
 40
45.70012
 50
206.728732
 51
230.590887
  0
ARC
  8
APS_GEOMETR�
 10
5906.542226
 20
977.532471
 40
48.959281
 50
226.365679
 51
253.038909
  0
ARC
  8
APS_GEOMETR�
 10
5905.311721
 20
973.674715
 40
44.91039
 50
253.104725
 51
280.961908
  0
ARC
  8
APS_GEOMETR�
 10
5904.725528
 20
976.172223
 40
47.473903
 50
281.083298
 51
308.104736
  0
ARC
  8
APS_GEOMETR�
 10
5899.299736
 20
983.442792
 40
56.543675
 50
307.88464
 51
332.283801
  0
ARC
  8
APS_GEOMETR�
 10
5166.816492
 20
88.469886
 40
956.813826
 50
48.640151
 51
50.842113
  0
ARC
  8
APS_GEOMETR�
 10
5739.532705
 20
823.987673
 40
32.117947
 50
338.051342
 51
11.501475
  0
ARC
  8
APS_GEOMETR�
 10
5742.713062
 20
822.666326
 40
28.674241
 50
318.301116
 51
338.124945
  0
LINE
  8
APS_GEOMETR�
 10
5764.122717
 11
5772.127717
 20
803.591767
 21
803.035768
  0
ARC
  8
APS_GEOMETR�
 10
5788.84656
 20
806.438068
 40
17.061517
 50
191.502675
 51
223.778073
  0
ARC
  8
APS_GEOMETR�
 10
5786.446878
 20
804.028315
 40
13.661891
 50
223.444068
 51
250.278602
  0
ARC
  8
APS_GEOMETR�
 10
5785.902404
 20
802.535798
 40
12.07319
 50
250.320806
 51
278.738947
  0
ARC
  8
APS_GEOMETR�
 10
5785.764513
 20
803.197522
 40
12.748232
 50
278.899635
 51
306.635787
  0
LINE
  8
APS_GEOMETR�
 10
5793.371717
 11
5799.178717
 20
792.967768
 21
797.286768
  0
ARC
  8
APS_GEOMETR�
 10
5770.289662
 20
791.250265
 40
29.512995
 50
335.675551
 51
11.802403
  0
ARC
  8
APS_GEOMETR�
 10
5773.059284
 20
789.907164
 40
26.436141
 50
312.967491
 51
335.855556
  0
ARC
  8
APS_GEOMETR�
 10
5775.337221
 20
787.356064
 40
23.016906
 50
287.510907
 51
313.146544
  0
ARC
  8
APS_GEOMETR�
 10
5775.790997
 20
785.956439
 40
21.545608
 50
266.340259
 51
287.480011
  0
ARC
  8
APS_GEOMETR�
 10
5745.949237
 20
754.343063
 40
30.209056
 50
2.215272
 51
19.555774
  0
ARC
  8
APS_GEOMETR�
 10
5745.599648
 20
754.259269
 40
30.561703
 50
342.141054
 51
2.346915
  0
ARC
  8
APS_GEOMETR�
 10
5747.927774
 20
753.430834
 40
28.091798
 50
295.835161
 51
342.293083
  0
LINE
  8
APS_GEOMETR�
 10
5760.169717
 11
5762.667717
 20
728.146769
 21
739.058768
  0
ARC
  8
APS_GEOMETR�
 10
5743.735643
 20
743.389953
 40
19.421189
 50
347.113914
 51
8.232166
  0
ARC
  8
APS_GEOMETR�
 10
5744.841488
 20
743.625434
 40
18.293174
 50
7.998152
 51
29.868974
  0
ARC
  8
APS_GEOMETR�
 10
5747.510159
 20
745.247272
 40
15.171484
 50
29.576834
 51
53.836531
  0
ARC
  8
APS_GEOMETR�
 10
5749.111866
 20
747.527704
 40
12.385366
 50
53.593445
 51
80.51559
  0
ARC
  8
APS_GEOMETR�
 10
5749.257068
 20
748.205717
 40
11.692737
 50
80.669917
 51
108.258304
  0
ARC
  8
APS_GEOMETR�
 10
5749.711808
 20
746.877402
 40
13.096657
 50
108.326913
 51
131.963024
  0
ARC
  8
APS_GEOMETR�
 10
5774.709338
 20
739.037329
 40
38.057535
 50
152.490791
 51
178.011674
  0
ARC
  8
APS_GEOMETR�
 10
5775.403542
 20
738.759689
 40
38.761782
 50
177.637128
 51
203.820659
  0
ARC
  8
APS_GEOMETR�
 10
5769.749591
 20
735.972927
 40
32.465053
 50
203.351419
 51
233.148097
  0
ARC
  8
APS_GEOMETR�
 10
5779.497626
 20
737.183156
 40
39.911816
 50
222.938386
 51
249.170905
  0
ARC
  8
APS_GEOMETR�
 10
5778.040749
 20
733.385889
 40
35.844681
 50
249.189166
 51
276.600132
  0
ARC
  8
APS_GEOMETR�
 10
5777.809503
 20
734.592321
 40
37.069809
 50
276.740856
 51
303.668864
  0
ARC
  8
APS_GEOMETR�
 10
5774.267911
 20
740.141968
 40
43.652155
 50
303.499318
 51
328.046293
  0
ARC
  8
APS_GEOMETR�
 10
5759.916707
 20
754.180936
 40
63.405809
 50
324.142653
 51
346.750435
  0
ARC
  8
APS_GEOMETR�
 10
5754.506706
 20
755.714545
 40
69.023757
 50
346.540545
 51
7.837389
  0
ARC
  8
APS_GEOMETR�
 10
5757.835835
 20
756.405417
 40
65.631921
 50
7.636208
 51
29.640166
  0
ARC
  8
APS_GEOMETR�
 10
5766.218344
 20
761.470187
 40
55.842077
 50
29.377034
 51
53.969268
  0
ARC
  8
APS_GEOMETR�
 10
5739.369599
 20
527.002046
 40
30.000398
 50
5.621486
 51
40.459883
  0
LINE
  8
APS_GEOMETR�
 10
5762.195717
 11
5770.204717
 20
546.469768
 21
546.869768
  0
ARC
  8
APS_GEOMETR�
 10
5786.743942
 20
543.275183
 40
16.925336
 50
135.250477
 51
167.738198
  0
ARC
  8
APS_GEOMETR�
 10
5784.402906
 20
545.704259
 40
13.55288
 50
108.632885
 51
135.575998
  0
ARC
  8
APS_GEOMETR�
 10
5783.91626
 20
547.114886
 40
12.060711
 50
80.148849
 51
108.583295
  0
ARC
  8
APS_GEOMETR�
 10
5783.747965
 20
546.369543
 40
12.823915
 50
52.319304
 51
79.977759
  0
LINE
  8
APS_GEOMETR�
 10
5791.586716
 11
5797.336717
 20
556.518767
 21
552.079768
  0
ARC
  8
APS_GEOMETR�
 10
5768.460717
 20
558.56376
 40
29.595025
 50
347.344373
 51
23.438833
  0
ARC
  8
APS_GEOMETR�
 10
5771.187541
 20
559.834022
 40
26.588056
 50
23.264717
 51
46.046236
  0
ARC
  8
APS_GEOMETR�
 10
5773.533707
 20
562.375774
 40
23.129949
 50
45.860037
 51
71.393473
  0
ARC
  8
APS_GEOMETR�
 10
5774.044532
 20
563.860934
 40
21.55943
 50
71.420738
 51
92.623452
  0
ARC
  8
APS_GEOMETR�
 10
5744.831009
 20
595.932174
 40
30.128404
 50
339.534071
 51
356.94933
  0
ARC
  8
APS_GEOMETR�
 10
5744.354869
 20
596.027516
 40
30.609023
 50
356.818549
 51
16.99812
  0
ARC
  8
APS_GEOMETR�
 10
5746.602249
 20
596.794326
 40
28.235755
 50
16.843269
 51
63.162255
  0
LINE
  8
APS_GEOMETR�
 10
5759.349717
 11
5761.692717
 20
621.988768
 21
611.001768
  0
ARC
  8
APS_GEOMETR�
 10
5742.687741
 20
606.946846
 40
19.432743
 50
350.933941
 51
12.044093
  0
ARC
  8
APS_GEOMETR�
 10
5743.900817
 20
606.682046
 40
18.193232
 50
329.216263
 51
351.155475
  0
ARC
  8
APS_GEOMETR�
 10
5746.572977
 20
604.99805
 40
15.035906
 50
305.141995
 51
329.517762
  0
ARC
  8
APS_GEOMETR�
 10
5748.100356
 20
602.744623
 40
12.314143
 50
278.374007
 51
305.36581
  0
ARC
  8
APS_GEOMETR�
 10
5748.220926
 20
602.147845
 40
11.706213
 50
250.637043
 51
278.215557
  0
ARC
  8
APS_GEOMETR�
 10
5748.725599
 20
603.55384
 40
13.200009
 50
227.026713
 51
250.593777
  0
ARC
  8
APS_GEOMETR�
 10
5773.886876
 20
611.015123
 40
38.208906
 50
181.153758
 51
206.618399
  0
ARC
  8
APS_GEOMETR�
 10
5774.315819
 20
611.279267
 40
38.643925
 50
155.299222
 51
181.53251
  0
ARC
  8
APS_GEOMETR�
 10
5768.578882
 20
614.210971
 40
32.207904
 50
125.823921
 51
155.772624
  0
ARC
  8
APS_GEOMETR�
 10
5778.282305
 20
612.834501
 40
39.637536
 50
109.739866
 51
136.086905
  0
ARC
  8
APS_GEOMETR�
 10
5776.967749
 20
616.440667
 40
35.799298
 50
82.283275
 51
109.70894
  0
ARC
  8
APS_GEOMETR�
 10
5776.688649
 20
615.028405
 40
37.236348
 50
55.288438
 51
82.149498
  0
ARC
  8
APS_GEOMETR�
 10
5772.955775
 20
609.395643
 40
43.99253
 50
31.043004
 51
55.469497
  0
ARC
  8
APS_GEOMETR�
 10
5758.363163
 20
595.579031
 40
63.766169
 50
12.396217
 51
34.921022
  0
ARC
  8
APS_GEOMETR�
 10
5753.241744
 20
594.189977
 40
69.066858
 50
351.320895
 51
12.609624
  0
ARC
  8
APS_GEOMETR�
 10
5756.907353
 20
593.399563
 40
65.324349
 50
329.449922
 51
351.521069
  0
ARC
  8
APS_GEOMETR�
 10
5765.308045
 20
588.142037
 40
55.418042
 50
305.002763
 51
329.71636
  0
ARC
  8
APS_GEOMETR�
 10
5181.370615
 20
1267.255595
 40
950.80504
 50
308.240214
 51
310.35969
  0
ARC
  8
APS_GEOMETR�
 10
5738.115795
 20
523.031643
 40
31.867903
 50
355.3926
 51
12.521452
  0
ARC
  8
APS_GEOMETR�
 10
5962.846095
 20
341.280802
 40
23.582586
 50
76.901003
 51
96.814941
  0
ARC
  8
APS_GEOMETR�
 10
5962.532308
 20
342.933639
 40
21.904496
 50
96.512983
 51
118.362189
  0
ARC
  8
APS_GEOMETR�
 10
5964.104475
 20
339.329325
 40
25.825097
 50
117.632784
 51
134.986376
  0
LINE
  8
APS_GEOMETR�
 10
5945.847717
 11
5945.521717
 20
357.594768
 21
365.511768
  0
ARC
  8
APS_GEOMETR�
 10
5950.021006
 20
379.267561
 40
14.472921
 50
216.949315
 51
251.887948
  0
ARC
  8
APS_GEOMETR�
 10
5952.729486
 20
381.439248
 40
17.943191
 50
194.13704
 51
217.292431
  0
ARC
  8
APS_GEOMETR�
 10
5954.641652
 20
382.016826
 40
19.938732
 50
172.606024
 51
194.404443
  0
ARC
  8
APS_GEOMETR�
 10
5953.587635
 20
382.232617
 40
18.865872
 50
130.390313
 51
172.843985
  0
ARC
  8
APS_GEOMETR�
 10
5934.892018
 20
375.623687
 40
21.953356
 50
72.857596
 51
120.379308
  0
ARC
  8
APS_GEOMETR�
 10
5936.179732
 20
373.353782
 40
24.562849
 50
120.292919
 51
144.596593
  0
ARC
  8
APS_GEOMETR�
 10
5939.044175
 20
371.19559
 40
28.148118
 50
144.393711
 51
166.156167
  0
ARC
  8
APS_GEOMETR�
 10
5940.98787
 20
370.634321
 40
30.169756
 50
166.004457
 51
182.744418
  0
ARC
  8
APS_GEOMETR�
 10
5902.106279
 20
348.633393
 40
22.339757
 50
66.950955
 51
86.03832
  0
ARC
  8
APS_GEOMETR�
 10
5902.165475
 20
348.943729
 40
22.026105
 50
86.136162
 51
112.400738
  0
ARC
  8
APS_GEOMETR�
 10
5902.895947
 20
347.165021
 40
23.948964
 50
112.394799
 51
162.842955
  0
LINE
  8
APS_GEOMETR�
 10
5880.012717
 11
5889.412717
 20
354.229768
 21
356.927768
  0
ARC
  8
APS_GEOMETR�
 10
5892.63419
 20
345.705748
 40
11.675257
 50
78.40556
 51
106.017032
  0
ARC
  8
APS_GEOMETR�
 10
5892.430636
 20
344.861337
 40
12.543383
 50
51.513769
 51
78.26995
  0
ARC
  8
APS_GEOMETR�
 10
5890.677193
 20
342.544194
 40
15.448515
 50
27.7438
 51
51.771527
  0
ARC
  8
APS_GEOMETR�
 10
5888.033264
 20
341.049232
 40
18.484656
 50
6.287945
 51
28.029896
  0
ARC
  8
APS_GEOMETR�
 10
5887.148586
 20
340.872934
 40
19.383479
 50
345.359724
 51
6.519523
  0
ARC
  8
APS_GEOMETR�
 10
5888.98912
 20
340.319644
 40
17.463001
 50
325.009973
 51
345.589823
  0
ARC
  8
APS_GEOMETR�
 10
5891.186748
 20
347.263279
 40
20.837089
 50
288.095303
 51
305.529758
  0
ARC
  8
APS_GEOMETR�
 10
5887.775443
 20
356.951302
 40
31.106377
 50
273.642613
 51
288.5254
  0
ARC
  8
APS_GEOMETR�
 10
5889.405898
 20
355.688868
 40
29.783108
 50
255.382559
 51
270.66529
  0
ARC
  8
APS_GEOMETR�
 10
5887.042524
 20
347.308291
 40
21.078061
 50
236.805729
 51
255.849895
  0
ARC
  8
APS_GEOMETR�
 10
5891.62573
 20
356.136754
 40
30.991175
 50
207.919438
 51
238.651292
  0
ARC
  8
APS_GEOMETR�
 10
5903.910012
 20
372.335172
 40
50.166136
 50
195.054933
 51
217.745419
  0
ARC
  8
APS_GEOMETR�
 10
5908.698672
 20
373.834306
 40
55.180205
 50
174.243671
 51
195.266598
  0
ARC
  8
APS_GEOMETR�
 10
5906.721018
 20
374.212798
 40
53.17486
 50
152.907948
 51
174.435712
  0
ARC
  8
APS_GEOMETR�
 10
5900.11389
 20
377.812739
 40
45.653623
 50
129.277367
 51
153.153822
  0
ARC
  8
APS_GEOMETR�
 10
5904.886681
 20
377.669747
 40
48.91879
 50
106.815757
 51
133.502408
  0
ARC
  8
APS_GEOMETR�
 10
5903.674725
 20
381.494769
 40
44.906745
 50
78.889004
 51
106.747404
  0
ARC
  8
APS_GEOMETR�
 10
5903.079115
 20
378.962124
 40
47.506795
 50
51.763158
 51
78.772766
  0
ARC
  8
APS_GEOMETR�
 10
5897.619546
 20
371.686972
 40
56.600537
 50
27.596564
 51
51.980214
  0
ARC
  8
APS_GEOMETR�
 10
5034.639199
 20
-197.326972
 40
1090.014054
 50
31.005704
 51
33.098427
  0
ARC
  8
APS_GEOMETR�
 10
5965.783563
 20
340.876648
 40
23.496747
 50
82.35927
 51
84.119945
  0
ARC
  8
APS_GEOMETR�
 10
6026.547375
 20
395.755057
 40
38.008007
 50
184.654579
 51
192.334607
  0
ARC
  8
APS_GEOMETR�
 10
6024.288333
 20
395.159676
 40
35.674063
 50
192.175508
 51
213.681377
  0
ARC
  8
APS_GEOMETR�
 10
6020.53784
 20
392.526736
 40
31.093187
 50
213.476772
 51
241.341075
  0
ARC
  8
APS_GEOMETR�
 10
5995.352404
 20
393.097254
 40
29.688606
 50
290.245021
 51
320.251421
  0
ARC
  8
APS_GEOMETR�
 10
5991.72506
 20
396.291558
 40
34.520289
 50
320.024746
 51
343.015559
  0
ARC
  8
APS_GEOMETR�
 10
5988.675879
 20
397.361633
 40
37.749292
 50
342.814148
 51
350.293056
  0
ARC
  8
APS_GEOMETR�
 10
6034.225931
 20
405.979692
 40
17.14829
 50
240.894668
 51
260.022239
  0
ARC
  8
APS_GEOMETR�
 10
6034.103747
 20
405.41877
 40
16.574698
 50
260.102253
 51
286.707417
  0
ARC
  8
APS_GEOMETR�
 10
6033.804782
 20
406.367805
 40
17.569623
 50
286.751479
 51
312.081506
  0
ARC
  8
APS_GEOMETR�
 10
6032.247768
 20
408.175837
 40
19.9551
 50
311.920384
 51
334.585297
  0
ARC
  8
APS_GEOMETR�
 10
6030.254183
 20
409.195481
 40
22.19345
 50
334.416491
 51
355.136233
  0
ARC
  8
APS_GEOMETR�
 10
6029.724718
 20
409.291764
 40
22.729229
 50
355.007558
 51
40.664464
  0
LINE
  8
APS_GEOMETR�
 10
6046.965716
 11
6044.006717
 20
424.102768
 21
415.554768
  0
ARC
  8
APS_GEOMETR�
 10
6035.820133
 20
418.386748
 40
8.662579
 50
319.464449
 51
340.91799
  0
ARC
  8
APS_GEOMETR�
 10
6037.21789
 20
417.142902
 40
6.791979
 50
295.835098
 51
319.775701
  0
ARC
  8
APS_GEOMETR�
 10
6037.721213
 20
416.087115
 40
5.622381
 50
270.198762
 51
295.907223
  0
ARC
  8
APS_GEOMETR�
 10
6037.740543
 20
416.082808
 40
5.61804
 50
244.294193
 51
270.001772
  0
ARC
  8
APS_GEOMETR�
 10
6038.235033
 20
417.131524
 40
6.77746
 50
220.41276
 51
244.373061
  0
ARC
  8
APS_GEOMETR�
 10
6039.629012
 20
418.379255
 40
8.647842
 50
199.210525
 51
220.719603
  0
ARC
  8
APS_GEOMETR�
 10
6040.911634
 20
418.874259
 40
10.022021
 50
179.739828
 51
199.470116
  0
ARC
  8
APS_GEOMETR�
 10
6044.034139
 20
418.445709
 40
13.152969
 50
157.473424
 51
177.934499
  0
ARC
  8
APS_GEOMETR�
 10
6042.267696
 20
419.230227
 40
11.220846
 50
135.25072
 51
157.718092
  0
ARC
  8
APS_GEOMETR�
 10
6040.65971
 20
420.894414
 40
8.907406
 50
110.462605
 51
135.57147
  0
ARC
  8
APS_GEOMETR�
 10
6040.254196
 20
421.971828
 40
7.756211
 50
83.875374
 51
110.438467
  0
ARC
  8
APS_GEOMETR�
 10
6040.191722
 20
421.647143
 40
8.085755
 50
54.989655
 51
83.680679
  0
ARC
  8
APS_GEOMETR�
 10
6031.100374
 20
391.935312
 40
38.84218
 50
41.318758
 51
69.29904
  0
ARC
  8
APS_GEOMETR�
 10
6024.907001
 20
386.136265
 40
47.323256
 50
17.460808
 51
41.641061
  0
ARC
  8
APS_GEOMETR�
 10
6019.404761
 20
384.147379
 40
53.169309
 50
355.279459
 51
17.7262
  0
ARC
  8
APS_GEOMETR�
 10
6021.073972
 20
383.799656
 40
51.477569
 50
332.511052
 51
355.512275
  0
ARC
  8
APS_GEOMETR�
 10
6028.560919
 20
377.689426
 40
42.061459
 50
312.940337
 51
335.188158
  0
ARC
  8
APS_GEOMETR�
 10
6033.089796
 20
372.620218
 40
35.265511
 50
288.498303
 51
313.164388
  0
ARC
  8
APS_GEOMETR�
 10
6034.102534
 20
369.663751
 40
32.140485
 50
262.479066
 51
288.45838
  0
ARC
  8
APS_GEOMETR�
 10
6034.336164
 20
370.869604
 40
33.366625
 50
237.470324
 51
262.35236
  0
ARC
  8
APS_GEOMETR�
 10
6142.22951
 20
477.106352
 40
184.091182
 50
207.710286
 51
226.878207
  0
ARC
  8
APS_GEOMETR�
 10
5981.917088
 20
409.25873
 40
17.953909
 50
261.462519
 51
266.802694
  0
ARC
  8
APS_GEOMETR�
 10
5981.848687
 20
409.037591
 40
17.729387
 50
266.983542
 51
292.609484
  0
ARC
  8
APS_GEOMETR�
 10
5795.650937
 20
469.510022
 40
26.75216
 50
97.606646
 51
105.93835
  0
ARC
  8
APS_GEOMETR�
 10
5796.150282
 20
467.859079
 40
28.476771
 50
105.992263
 51
131.646002
  0
ARC
  8
APS_GEOMETR�
 10
5798.949742
 20
464.552409
 40
32.808213
 50
131.461877
 51
157.219577
  0
ARC
  8
APS_GEOMETR�
 10
5801.651489
 20
486.504185
 40
34.224065
 50
195.678037
 51
221.506408
  0
ARC
  8
APS_GEOMETR�
 10
5798.13008
 20
483.231506
 40
29.418363
 50
221.278149
 51
247.35142
  0
ARC
  8
APS_GEOMETR�
 10
5797.139027
 20
480.84304
 40
26.832454
 50
247.340491
 51
257.697415
  0
ARC
  8
APS_GEOMETR�
 10
5811.037115
 20
444.748058
 40
21.962531
 50
153.269254
 51
172.415727
  0
ARC
  8
APS_GEOMETR�
 10
5811.846707
 20
444.584979
 40
22.786631
 50
172.277938
 51
192.552241
  0
ARC
  8
APS_GEOMETR�
 10
5810.590953
 20
444.251211
 40
21.488419
 50
192.411251
 51
213.695878
  0
ARC
  8
APS_GEOMETR�
 10
5808.537583
 20
442.8119
 40
18.981609
 50
213.519838
 51
237.187885
  0
ARC
  8
APS_GEOMETR�
 10
5807.486323
 20
441.12391
 40
16.9933
 50
237.082809
 51
263.154048
  0
ARC
  8
APS_GEOMETR�
 10
5807.414325
 20
440.741995
 40
16.605546
 50
263.243623
 51
317.599681
  0
LINE
  8
APS_GEOMETR�
 10
5819.676717
 11
5813.388717
 20
429.544767
 21
432.501768
  0
ARC
  8
APS_GEOMETR�
 10
5816.260164
 20
438.606428
 40
6.746265
 50
220.805743
 51
244.809129
  0
ARC
  8
APS_GEOMETR�
 10
5817.64164
 20
439.864899
 40
8.614495
 50
199.588596
 51
221.136858
  0
ARC
  8
APS_GEOMETR�
 10
5818.939593
 20
440.373483
 40
10.007934
 50
179.803714
 51
199.840457
  0
ARC
  8
APS_GEOMETR�
 10
5818.931335
 20
440.406607
 40
9.999618
 50
159.95066
 51
179.993343
  0
ARC
  8
APS_GEOMETR�
 10
5817.626697
 20
440.925428
 40
8.59627
 50
138.648632
 51
160.218011
  0
ARC
  8
APS_GEOMETR�
 10
5816.24917
 20
442.185357
 40
6.72989
 50
114.918104
 51
138.952532
  0
ARC
  8
APS_GEOMETR�
 10
5815.779656
 20
443.209534
 40
5.603239
 50
89.927805
 51
114.976408
  0
ARC
  8
APS_GEOMETR�
 10
5815.30806
 20
440.865667
 40
7.961503
 50
60.745895
 51
86.553222
  0
ARC
  8
APS_GEOMETR�
 10
5814.514781
 20
439.404588
 40
9.623925
 50
36.653084
 51
60.876276
  0
ARC
  8
APS_GEOMETR�
 10
5812.64882
 20
437.931517
 40
12.000488
 50
15.268548
 51
36.977144
  0
ARC
  8
APS_GEOMETR�
 10
5811.262602
 20
437.500014
 40
13.451507
 50
355.039036
 51
15.486718
  0
ARC
  8
APS_GEOMETR�
 10
5811.749143
 20
437.40927
 40
12.959031
 50
333.058411
 51
355.252716
  0
ARC
  8
APS_GEOMETR�
 10
5777.344047
 20
444.574512
 40
47.770954
 50
319.728335
 51
344.16303
  0
ARC
  8
APS_GEOMETR�
 10
5783.707453
 20
438.892574
 40
39.243502
 50
292.861455
 51
320.052261
  0
ARC
  8
APS_GEOMETR�
 10
5785.47659
 20
434.68175
 40
34.676134
 50
263.688842
 51
292.870968
  0
ARC
  8
APS_GEOMETR�
 10
5785.704988
 20
435.848283
 40
35.860841
 50
234.700371
 51
263.531021
  0
ARC
  8
APS_GEOMETR�
 10
5785.566261
 20
439.436205
 40
38.770633
 50
214.500911
 51
237.933341
  0
ARC
  8
APS_GEOMETR�
 10
5791.301494
 20
443.598262
 40
45.854966
 50
193.75568
 51
214.727666
  0
ARC
  8
APS_GEOMETR�
 10
5795.141722
 20
444.696698
 40
49.846476
 50
174.039647
 51
193.932457
  0
ARC
  8
APS_GEOMETR�
 10
5793.374583
 20
445.017297
 40
48.05579
 50
154.209141
 51
174.201041
  0
ARC
  8
APS_GEOMETR�
 10
5888.729531
 20
368.760591
 40
169.285656
 50
125.671522
 51
144.972348
  0
ARC
  8
APS_GEOMETR�
 10
5814.206545
 20
505.890741
 40
24.197021
 50
179.069319
 51
200.907544
  0
ARC
  8
APS_GEOMETR�
 10
5811.938573
 20
504.925848
 40
21.734239
 50
200.664982
 51
204.170276
  0
ARC
  8
APS_GEOMETR�
 10
5894.228154
 20
979.783312
 40
170.249428
 50
214.085807
 51
233.49908
  0
ARC
  8
APS_GEOMETR�
 10
5817.141645
 20
843.644306
 40
24.194511
 50
160.615099
 51
181.694738
  0
ARC
  8
APS_GEOMETR�
 10
5814.919426
 20
844.515984
 40
21.809113
 50
155.936087
 51
160.837567
  0
ARC
  8
APS_GEOMETR�
 10
5798.812061
 20
879.901138
 40
26.764415
 50
252.959283
 51
261.823869
  0
ARC
  8
APS_GEOMETR�
 10
5799.378418
 20
881.664365
 40
28.616213
 50
227.35354
 51
252.909675
  0
ARC
  8
APS_GEOMETR�
 10
5802.272692
 20
884.966803
 40
33.006284
 50
201.911403
 51
227.541771
  0
ARC
  8
APS_GEOMETR�
 10
5804.280058
 20
862.967372
 40
34.03561
 50
137.529056
 51
163.472329
  0
ARC
  8
APS_GEOMETR�
 10
5800.829333
 20
866.281503
 40
29.252756
 50
111.564104
 51
137.753483
  0
ARC
  8
APS_GEOMETR�
 10
5799.925511
 20
868.560413
 40
26.801161
 50
101.24814
 51
111.557765
  0
ARC
  8
APS_GEOMETR�
 10
5814.535304
 20
904.444182
 40
22.037246
 50
186.747941
 51
205.817674
  0
ARC
  8
APS_GEOMETR�
 10
5815.260607
 20
904.580851
 40
22.77364
 50
166.591792
 51
186.874988
  0
ARC
  8
APS_GEOMETR�
 10
5813.933789
 20
904.952931
 40
21.396775
 50
145.374581
 51
166.737103
  0
ARC
  8
APS_GEOMETR�
 10
5811.892879
 20
906.433922
 40
18.875922
 50
121.769239
 51
145.553735
  0
ARC
  8
APS_GEOMETR�
 10
5810.900244
 20
908.090948
 40
16.944562
 50
95.732613
 51
121.865638
  0
ARC
  8
APS_GEOMETR�
 10
5810.840579
 20
908.409821
 40
16.621346
 50
41.335939
 51
95.637765
  0
LINE
  8
APS_GEOMETR�
 10
5823.320717
 11
5816.978717
 20
919.387768
 21
916.548768
  0
ARC
  8
APS_GEOMETR�
 10
5819.706449
 20
910.456572
 40
6.674981
 50
114.120072
 51
138.221824
  0
ARC
  8
APS_GEOMETR�
 10
5821.061545
 20
909.181486
 40
8.535176
 50
137.899338
 51
159.541557
  0
ARC
  8
APS_GEOMETR�
 10
5822.392669
 20
908.637512
 40
9.972573
 50
159.286475
 51
179.360785
  0
ARC
  8
APS_GEOMETR�
 10
5822.452464
 20
908.603331
 40
10.032802
 50
179.169405
 51
199.182522
  0
ARC
  8
APS_GEOMETR�
 10
5821.182139
 20
908.120028
 40
8.674294
 50
198.924471
 51
220.39373
  0
ARC
  8
APS_GEOMETR�
 10
5819.780295
 20
906.877317
 40
6.801421
 50
220.073493
 51
244.009071
  0
ARC
  8
APS_GEOMETR�
 10
5819.273295
 20
905.816628
 40
5.625832
 50
243.916384
 51
268.934869
  0
ARC
  8
APS_GEOMETR�
 10
5818.844238
 20
908.112364
 40
7.92724
 50
272.345895
 51
298.195534
  0
ARC
  8
APS_GEOMETR�
 10
5818.10597
 20
909.534982
 40
9.529893
 50
298.066293
 51
322.403066
  0
ARC
  8
APS_GEOMETR�
 10
5816.261263
 20
911.037839
 40
11.908572
 50
322.088954
 51
343.881722
  0
ARC
  8
APS_GEOMETR�
 10
5814.817788
 20
911.513436
 40
13.427458
 50
343.642074
 51
4.109852
  0
ARC
  8
APS_GEOMETR�
 10
5815.222231
 20
911.586847
 40
13.018869
 50
3.915168
 51
26.048113
  0
ARC
  8
APS_GEOMETR�
 10
5780.474333
 20
904.871516
 40
48.079534
 50
14.985631
 51
39.317858
  0
ARC
  8
APS_GEOMETR�
 10
5786.94424
 20
910.459366
 40
39.534184
 50
38.993908
 51
66.061102
  0
ARC
  8
APS_GEOMETR�
 10
5788.876911
 20
914.853901
 40
34.733472
 50
66.033528
 51
95.193724
  0
ARC
  8
APS_GEOMETR�
 10
5789.063068
 20
913.892535
 40
35.707878
 50
95.351558
 51
124.251518
  0
ARC
  8
APS_GEOMETR�
 10
5788.793342
 20
910.441347
 40
38.469724
 50
121.024768
 51
144.571429
  0
ARC
  8
APS_GEOMETR�
 10
5794.485184
 20
906.167766
 40
45.585367
 50
144.341682
 51
165.390482
  0
ARC
  8
APS_GEOMETR�
 10
5798.512833
 20
904.959141
 40
49.787879
 50
165.213659
 51
185.121392
  0
ARC
  8
APS_GEOMETR�
 10
5796.991287
 20
904.682627
 40
48.247926
 50
184.955627
 51
204.898368
  0
ARC
  8
APS_GEOMETR�
 10
6142.832462
 20
878.158437
 40
183.071586
 50
132.959028
 51
151.761032
  0
ARC
  8
APS_GEOMETR�
 10
5982.46186
 20
947.034546
 40
17.767649
 50
65.224228
 51
92.942707
  0
ARC
  8
APS_GEOMETR�
 10
5981.579385
 20
945.215537
 40
19.789083
 50
63.808597
 51
65.111431
  0
ARC
  8
APS_GEOMETR�
 10
6028.123465
 20
959.115203
 40
38.006024
 50
167.553181
 51
174.174517
  0
ARC
  8
APS_GEOMETR�
 10
6025.846976
 20
959.720378
 40
35.652746
 50
146.198213
 51
167.714355
  0
ARC
  8
APS_GEOMETR�
 10
6022.097114
 20
962.361217
 40
31.067767
 50
118.512886
 51
146.397983
  0
ARC
  8
APS_GEOMETR�
 10
5996.91241
 20
961.811696
 40
29.711655
 50
39.617897
 51
69.604827
  0
ARC
  8
APS_GEOMETR�
 10
5993.278823
 20
958.621571
 40
34.545174
 50
16.873721
 51
39.850742
  0
ARC
  8
APS_GEOMETR�
 10
5990.244834
 20
957.566051
 40
37.75514
 50
9.586671
 51
17.070125
  0
ARC
  8
APS_GEOMETR�
 10
6035.774432
 20
948.857667
 40
17.140639
 50
99.82787
 51
118.968547
  0
ARC
  8
APS_GEOMETR�
 10
6035.654883
 20
949.409758
 40
16.576262
 50
73.143066
 51
99.746439
  0
ARC
  8
APS_GEOMETR�
 10
6035.35438
 20
948.452825
 40
17.579221
 50
47.791147
 51
73.110155
  0
ARC
  8
APS_GEOMETR�
 10
6033.787175
 20
946.646842
 40
19.969886
 50
25.292506
 51
47.941756
  0
ARC
  8
APS_GEOMETR�
 10
6031.797469
 20
945.634687
 40
22.201384
 50
4.746436
 51
25.460373
  0
ARC
  8
APS_GEOMETR�
 10
6031.280208
 20
945.537198
 40
22.725003
 50
319.218501
 51
4.883477
  0
LINE
  8
APS_GEOMETR�
 10
6048.487717
 11
6045.545717
 20
930.693768
 21
939.247768
  0
ARC
  8
APS_GEOMETR�
 10
6037.343276
 20
936.42854
 40
8.673412
 50
18.968149
 51
40.407085
  0
ARC
  8
APS_GEOMETR�
 10
6038.744742
 20
937.670748
 40
6.801141
 50
40.091674
 51
64.022952
  0
ARC
  8
APS_GEOMETR�
 10
6039.251817
 20
938.730744
 40
5.626139
 50
63.936957
 51
89.634398
  0
ARC
  8
APS_GEOMETR�
 10
6039.273361
 20
938.741914
 40
5.614873
 50
89.853512
 51
115.572149
  0
ARC
  8
APS_GEOMETR�
 10
6039.763042
 20
937.698017
 40
6.767887
 50
115.496955
 51
139.473728
  0
ARC
  8
APS_GEOMETR�
 10
6041.151754
 20
936.445833
 40
8.637265
 50
139.145926
 51
160.663481
  0
ARC
  8
APS_GEOMETR�
 10
6042.439822
 20
935.949382
 40
10.017143
 50
160.423559
 51
180.157948
  0
ARC
  8
APS_GEOMETR�
 10
6045.574083
 20
936.37007
 40
13.159005
 50
181.952335
 51
202.408453
  0
ARC
  8
APS_GEOMETR�
 10
6043.812958
 20
935.59192
 40
11.234329
 50
202.16345
 51
224.621017
  0
ARC
  8
APS_GEOMETR�
 10
6042.19972
 20
933.928459
 40
8.917784
 50
224.294385
 51
249.383829
  0
ARC
  8
APS_GEOMETR�
 10
6041.787212
 20
932.844833
 40
7.758308
 50
249.41736
 51
275.981733
  0
ARC
  8
APS_GEOMETR�
 10
6041.728832
 20
933.162185
 40
8.080055
 50
276.158941
 51
304.856039
  0
ARC
  8
APS_GEOMETR�
 10
6032.720793
 20
962.865821
 40
38.805015
 50
290.556949
 51
318.555036
  0
ARC
  8
APS_GEOMETR�
 10
6026.544885
 20
968.676064
 40
47.280984
 50
318.230903
 51
342.424217
  0
ARC
  8
APS_GEOMETR�
 10
6021.01762
 20
970.683934
 40
53.157103
 50
342.160047
 51
4.61048
  0
ARC
  8
APS_GEOMETR�
 10
6022.647305
 20
971.028215
 40
51.505454
 50
4.374456
 51
27.368373
  0
ARC
  8
APS_GEOMETR�
 10
6030.133469
 20
977.118111
 40
42.1036
 50
24.690937
 51
46.924296
  0
ARC
  8
APS_GEOMETR�
 10
6034.68563
 20
982.18122
 40
35.29653
 50
46.708747
 51
71.362437
  0
ARC
  8
APS_GEOMETR�
 10
6035.710249
 20
985.161716
 40
32.144891
 50
71.395194
 51
97.373781
  0
ARC
  8
APS_GEOMETR�
 10
6035.937478
 20
983.978682
 40
33.347385
 50
97.500096
 51
122.390516
  0
ARC
  8
APS_GEOMETR�
 10
6165.307293
 20
959.956397
 40
37.993837
 50
5.396721
 51
12.923583
  0
ARC
  8
APS_GEOMETR�
 10
6167.658438
 20
960.595406
 40
35.559465
 50
12.767313
 51
34.326681
  0
ARC
  8
APS_GEOMETR�
 10
6171.398563
 20
963.278009
 40
30.95817
 50
34.129959
 51
62.096015
  0
ARC
  8
APS_GEOMETR�
 10
6196.576133
 20
962.80907
 40
29.810139
 50
111.013213
 51
140.919402
  0
ARC
  8
APS_GEOMETR�
 10
6200.244508
 20
959.650373
 40
34.649315
 50
140.688927
 51
163.613003
  0
ARC
  8
APS_GEOMETR�
 10
6203.218389
 20
958.649723
 40
37.784892
 50
163.429524
 51
170.932158
  0
ARC
  8
APS_GEOMETR�
 10
6157.770383
 20
949.554881
 40
17.107973
 50
61.606215
 51
80.799694
  0
ARC
  8
APS_GEOMETR�
 10
6157.877812
 20
950.071701
 40
16.580642
 50
80.880604
 51
107.478985
  0
ARC
  8
APS_GEOMETR�
 10
6158.204015
 20
949.080522
 40
17.624038
 50
107.522661
 51
132.78582
  0
ARC
  8
APS_GEOMETR�
 10
6159.796111
 20
947.273309
 40
20.031882
 50
132.616692
 51
155.206161
  0
ARC
  8
APS_GEOMETR�
 10
6161.772432
 20
946.289677
 40
22.238614
 50
155.040796
 51
175.72411
  0
ARC
  8
APS_GEOMETR�
 10
6162.239736
 20
946.20371
 40
22.711084
 50
175.595733
 51
221.288545
  0
LINE
  8
APS_GEOMETR�
 10
6145.174717
 11
6148.041717
 20
931.217768
 21
939.796768
  0
ARC
  8
APS_GEOMETR�
 10
6156.309393
 20
937.032189
 40
8.717647
 50
140.128716
 51
161.510892
  0
ARC
  8
APS_GEOMETR�
 10
6154.893647
 20
938.262917
 40
6.842204
 50
116.565091
 51
140.438397
  0
ARC
  8
APS_GEOMETR�
 10
6154.366757
 20
939.344025
 40
5.639613
 50
91.00625
 51
116.68926
  0
ARC
  8
APS_GEOMETR�
 10
6154.344149
 20
939.380889
 40
5.6024
 50
65.057637
 51
90.7817
  0
ARC
  8
APS_GEOMETR�
 10
6153.876137
 20
938.358203
 40
6.72707
 50
41.070114
 51
65.116503
  0
ARC
  8
APS_GEOMETR�
 10
6152.501406
 20
937.096293
 40
8.592676
 50
19.827006
 51
41.391435
  0
ARC
  8
APS_GEOMETR�
 10
6151.194066
 20
936.57683
 40
9.998813
 50
0.326271
 51
20.086267
  0
ARC
  8
APS_GEOMETR�
 10
6148.009969
 20
936.976984
 40
13.187215
 50
338.078713
 51
358.508629
  0
ARC
  8
APS_GEOMETR�
 10
6149.750504
 20
936.221987
 40
11.290773
 50
315.936551
 51
338.335537
  0
ARC
  8
APS_GEOMETR�
 10
6151.387365
 20
934.568533
 40
8.96481
 50
291.223695
 51
316.254585
  0
ARC
  8
APS_GEOMETR�
 10
6151.821424
 20
933.452588
 40
7.767421
 50
264.668693
 51
291.219011
  0
ARC
  8
APS_GEOMETR�
 10
6151.876163
 20
933.736606
 40
8.055346
 50
235.716794
 51
264.468727
  0
ARC
  8
APS_GEOMETR�
 10
6160.518089
 20
963.413518
 40
38.64925
 50
221.994721
 51
250.062224
  0
ARC
  8
APS_GEOMETR�
 10
6166.621097
 20
969.263832
 40
47.100013
 50
198.064426
 51
222.316722
  0
ARC
  8
APS_GEOMETR�
 10
6172.249739
 20
971.358593
 40
53.101337
 50
175.86369
 51
198.330012
  0
ARC
  8
APS_GEOMETR�
 10
6170.789682
 20
971.676641
 40
51.622577
 50
153.13947
 51
176.098886
  0
ARC
  8
APS_GEOMETR�
 10
6163.304964
 20
977.676118
 40
42.280648
 50
133.634977
 51
155.810639
  0
ARC
  8
APS_GEOMETR�
 10
6158.67558
 20
982.72807
 40
35.429994
 50
109.256725
 51
133.854325
  0
ARC
  8
APS_GEOMETR�
 10
6157.586177
 20
985.803928
 40
32.166946
 50
83.263056
 51
109.231736
  0
ARC
  8
APS_GEOMETR�
 10
6157.380681
 20
984.723131
 40
33.264477
 50
58.207849
 51
83.129933
  0
ARC
  8
APS_GEOMETR�
 10
6051.419956
 20
877.870181
 40
183.051707
 50
28.387107
 51
47.577295
  0
ARC
  8
APS_GEOMETR�
 10
6210.24662
 20
947.194573
 40
17.841115
 50
82.871169
 51
89.418407
  0
ARC
  8
APS_GEOMETR�
 10
6210.298224
 20
947.229873
 40
17.805366
 50
89.583303
 51
113.730508
  0
ARC
  8
APS_GEOMETR�
 10
6394.193519
 20
882.032939
 40
26.755179
 50
277.744028
 51
286.266333
  0
ARC
  8
APS_GEOMETR�
 10
6393.674344
 20
883.718118
 40
28.518335
 50
286.31931
 51
311.945634
  0
ARC
  8
APS_GEOMETR�
 10
6390.844513
 20
887.022481
 40
32.867747
 50
311.764427
 51
337.483449
  0
ARC
  8
APS_GEOMETR�
 10
6388.352907
 20
865.054608
 40
34.166928
 50
15.936297
 51
41.799534
  0
ARC
  8
APS_GEOMETR�
 10
6391.849835
 20
868.343104
 40
29.368412
 50
41.564021
 51
67.672888
  0
ARC
  8
APS_GEOMETR�
 10
6392.818093
 20
870.697343
 40
26.822835
 50
67.675679
 51
78.017814
  0
ARC
  8
APS_GEOMETR�
 10
6378.703693
 20
906.731691
 40
21.985939
 50
333.541211
 51
352.665087
  0
ARC
  8
APS_GEOMETR�
 10
6377.920751
 20
906.885043
 40
22.782112
 50
352.533957
 51
12.811303
  0
ARC
  8
APS_GEOMETR�
 10
6379.1964
 20
907.231503
 40
21.461466
 50
12.664545
 51
33.971557
  0
ARC
  8
APS_GEOMETR�
 10
6381.247884
 20
908.682605
 40
18.949377
 50
33.798939
 51
57.502367
  0
ARC
  8
APS_GEOMETR�
 10
6382.282118
 20
910.36127
 40
16.977936
 50
57.402473
 51
83.491028
  0
ARC
  8
APS_GEOMETR�
 10
6382.348817
 20
910.723427
 40
16.610571
 50
83.578006
 51
137.917798
  0
LINE
  8
APS_GEOMETR�
 10
6370.020716
 11
6376.325717
 20
921.855767
 21
918.933768
  0
ARC
  8
APS_GEOMETR�
 10
6373.497228
 20
912.832134
 40
6.725346
 50
41.106302
 51
65.129331
  0
ARC
  8
APS_GEOMETR�
 10
6372.123052
 20
911.569202
 40
8.591236
 50
19.852379
 51
41.427386
  0
ARC
  8
APS_GEOMETR�
 10
6370.814906
 20
911.050704
 40
9.997815
 50
0.051944
 51
20.101329
  0
ARC
  8
APS_GEOMETR�
 10
6370.803028
 20
911.016579
 40
10.009782
 50
340.211449
 51
0.247212
  0
ARC
  8
APS_GEOMETR�
 10
6372.098362
 20
910.509161
 40
8.619241
 50
318.932477
 51
340.470163
  0
ARC
  8
APS_GEOMETR�
 10
6373.483111
 20
909.254068
 40
6.750797
 50
295.239923
 51
319.242697
  0
ARC
  8
APS_GEOMETR�
 10
6373.962195
 20
908.21865
 40
5.60995
 50
270.281082
 51
295.32333
  0
ARC
  8
APS_GEOMETR�
 10
6374.422918
 20
910.547422
 40
7.950466
 50
241.059809
 51
266.876543
  0
ARC
  8
APS_GEOMETR�
 10
6375.198361
 20
911.999076
 40
9.596109
 50
216.941905
 51
241.202152
  0
ARC
  8
APS_GEOMETR�
 10
6377.059101
 20
913.477993
 40
11.972302
 50
195.508772
 51
217.246772
  0
ARC
  8
APS_GEOMETR�
 10
6378.462559
 20
913.927395
 40
13.444947
 50
175.305497
 51
195.754976
  0
ARC
  8
APS_GEOMETR�
 10
6377.999392
 20
914.010605
 40
12.976602
 50
153.327039
 51
175.504296
  0
ARC
  8
APS_GEOMETR�
 10
6412.508306
 20
906.976988
 40
47.864197
 50
140.012082
 51
164.415972
  0
ARC
  8
APS_GEOMETR�
 10
6406.115024
 20
912.634744
 40
39.330622
 50
113.189424
 51
140.341853
  0
ARC
  8
APS_GEOMETR�
 10
6404.292881
 20
916.900642
 40
34.691866
 50
84.020678
 51
113.197458
  0
ARC
  8
APS_GEOMETR�
 10
6404.081179
 20
915.794595
 40
35.814075
 50
55.01674
 51
83.868161
  0
ARC
  8
APS_GEOMETR�
 10
6404.258012
 20
912.247487
 40
38.680305
 50
34.778187
 51
58.24549
  0
ARC
  8
APS_GEOMETR�
 10
6398.535321
 20
908.051637
 40
45.774411
 50
14.011996
 51
35.006125
  0
ARC
  8
APS_GEOMETR�
 10
6394.637734
 20
906.920539
 40
49.83013
 50
354.291154
 51
14.188768
  0
ARC
  8
APS_GEOMETR�
 10
6396.330748
 20
906.61388
 40
48.115202
 50
334.477591
 51
354.45397
  0
ARC
  8
APS_GEOMETR�
 10
6300.421284
 20
982.518327
 40
169.561558
 50
305.908853
 51
325.255749
  0
ARC
  8
APS_GEOMETR�
 10
6375.677687
 20
845.714948
 40
24.196905
 50
358.737386
 51
20.320329
  0
ARC
  8
APS_GEOMETR�
 10
6377.929619
 20
846.637545
 40
21.76489
 50
20.101422
 51
24.091221
  0
ARC
  8
APS_GEOMETR�
 10
6297.353419
 20
370.665082
 40
171.161025
 50
34.423678
 51
52.743457
  0
ARC
  8
APS_GEOMETR�
 10
6376.134742
 20
510.119951
 40
25.045114
 50
351.240197
 51
352.608114
  0
ARC
  8
APS_GEOMETR�
 10
6377.205183
 20
509.884243
 40
23.951365
 50
330.033713
 51
351.407502
  0
ARC
  8
APS_GEOMETR�
 10
6392.963517
 20
471.630061
 40
26.760294
 50
73.285811
 51
79.250521
  0
ARC
  8
APS_GEOMETR�
 10
6392.420451
 20
469.898919
 40
28.574491
 50
47.653148
 51
73.241197
  0
ARC
  8
APS_GEOMETR�
 10
6389.553586
 20
466.595955
 40
32.946987
 50
22.170134
 51
47.837639
  0
ARC
  8
APS_GEOMETR�
 10
6387.338146
 20
488.583535
 40
34.092844
 50
317.8161
 51
343.72444
  0
ARC
  8
APS_GEOMETR�
 10
6390.809074
 20
485.278319
 40
29.301655
 50
291.892589
 51
318.047563
  0
ARC
  8
APS_GEOMETR�
 10
6391.741853
 20
482.96841
 40
26.810523
 50
281.560428
 51
291.883571
  0
ARC
  8
APS_GEOMETR�
 10
6377.342448
 20
447.020674
 40
22.015136
 50
6.995081
 51
26.087751
  0
ARC
  8
APS_GEOMETR�
 10
6376.592689
 20
446.874245
 40
22.777211
 50
346.850943
 51
7.130993
  0
ARC
  8
APS_GEOMETR�
 10
6377.897825
 20
446.513734
 40
21.424351
 50
325.658598
 51
346.995784
  0
ARC
  8
APS_GEOMETR�
 10
6379.943961
 20
445.047969
 40
18.908086
 50
302.078632
 51
325.828282
  0
ARC
  8
APS_GEOMETR�
 10
6380.952475
 20
443.379338
 40
16.958647
 50
276.06992
 51
302.185554
  0
ARC
  8
APS_GEOMETR�
 10
6381.016593
 20
443.041816
 40
16.616261
 50
221.65571
 51
275.973135
  0
LINE
  8
APS_GEOMETR�
 10
6368.601717
 11
6374.926717
 20
431.997768
 21
434.872768
  0
ARC
  8
APS_GEOMETR�
 10
6372.157326
 20
440.969218
 40
6.695986
 50
294.430535
 51
318.505084
  0
ARC
  8
APS_GEOMETR�
 10
6370.792579
 20
442.238539
 40
8.559321
 50
318.193662
 51
339.805324
  0
ARC
  8
APS_GEOMETR�
 10
6369.471932
 20
442.771938
 40
9.983017
 50
339.548743
 51
359.608749
  0
ARC
  8
APS_GEOMETR�
 10
6369.432447
 20
442.808389
 40
10.022815
 50
359.40192
 51
19.425395
  0
ARC
  8
APS_GEOMETR�
 10
6370.71408
 20
443.298138
 40
8.651332
 50
19.189453
 51
40.692232
  0
ARC
  8
APS_GEOMETR�
 10
6372.107457
 20
444.547968
 40
6.780071
 50
40.361184
 51
64.327942
  0
ARC
  8
APS_GEOMETR�
 10
6372.604762
 20
445.597522
 40
5.618682
 50
64.261948
 51
89.286626
  0
ARC
  8
APS_GEOMETR�
 10
6373.04343
 20
443.287409
 40
7.936928
 50
92.662655
 51
118.496212
  0
ARC
  8
APS_GEOMETR�
 10
6373.802152
 20
441.853996
 40
9.558684
 50
118.393832
 51
142.697586
  0
ARC
  8
APS_GEOMETR�
 10
6375.650446
 20
440.358246
 40
11.935566
 50
142.363069
 51
164.131625
  0
ARC
  8
APS_GEOMETR�
 10
6377.078836
 20
439.898928
 40
13.435211
 50
163.913055
 51
184.371876
  0
ARC
  8
APS_GEOMETR�
 10
6376.649077
 20
439.814443
 40
13.000365
 50
184.144996
 51
206.302892
  0
ARC
  8
APS_GEOMETR�
 10
6411.293868
 20
446.670478
 40
47.987422
 50
195.243218
 51
219.605231
  0
ARC
  8
APS_GEOMETR�
 10
6404.855783
 20
441.051718
 40
39.44588
 50
219.278762
 51
246.382647
  0
ARC
  8
APS_GEOMETR�
 10
6402.97189
 20
436.7129
 40
34.71574
 50
246.362602
 51
275.530625
  0
ARC
  8
APS_GEOMETR�
 10
6402.776008
 20
437.735241
 40
35.752331
 50
275.685177
 51
304.564907
  0
ARC
  8
APS_GEOMETR�
 10
6403.005197
 20
441.228282
 40
38.559901
 50
301.338116
 51
324.850278
  0
ARC
  8
APS_GEOMETR�
 10
6397.29955
 20
445.468408
 40
45.666593
 50
324.621788
 51
345.646861
  0
ARC
  8
APS_GEOMETR�
 10
6393.327821
 20
446.646069
 40
49.806534
 50
345.467036
 51
5.370524
  0
ARC
  8
APS_GEOMETR�
 10
6394.922916
 20
446.931034
 40
48.191957
 50
5.210712
 51
25.165313
  0
ARC
  8
APS_GEOMETR�
 10
6050.495647
 20
476.468679
 40
182.443978
 50
312.274949
 51
331.29283
  0
ARC
  8
APS_GEOMETR�
 10
6209.181481
 20
406.460488
 40
17.676072
 50
247.64579
 51
274.325701
  0
ARC
  8
APS_GEOMETR�
 10
6209.943254
 20
408.182203
 40
19.55819
 50
244.462605
 51
247.500182
  0
ARC
  8
APS_GEOMETR�
 10
6163.730839
 20
394.522498
 40
37.990745
 50
346.958714
 51
353.974802
  0
ARC
  8
APS_GEOMETR�
 10
6166.098959
 20
393.873321
 40
35.537351
 50
325.546985
 51
347.116812
  0
ARC
  8
APS_GEOMETR�
 10
6169.833033
 20
391.177157
 40
30.933166
 50
297.766227
 51
325.752126
  0
ARC
  8
APS_GEOMETR�
 10
6195.011349
 20
391.628037
 40
29.833212
 50
218.954592
 51
248.842821
  0
ARC
  8
APS_GEOMETR�
 10
6198.688638
 20
394.778016
 40
34.673514
 50
196.269954
 51
219.182029
  0
ARC
  8
APS_GEOMETR�
 10
6201.647045
 20
395.77031
 40
37.791651
 50
188.951843
 51
196.457522
  0
ARC
  8
APS_GEOMETR�
 10
6156.2224
 20
404.953674
 40
17.100381
 50
279.041481
 51
298.247602
  0
ARC
  8
APS_GEOMETR�
 10
6156.325287
 20
404.4448
 40
16.581676
 50
252.37183
 51
278.966711
  0
ARC
  8
APS_GEOMETR�
 10
6156.653756
 20
405.445329
 40
17.634698
 50
227.092314
 51
252.33919
  0
ARC
  8
APS_GEOMETR�
 10
6158.253892
 20
407.249524
 40
20.045666
 50
204.67588
 51
227.253256
  0
ARC
  8
APS_GEOMETR�
 10
6160.226571
 20
408.22733
 40
22.246521
 50
184.161954
 51
204.843169
  0
ARC
  8
APS_GEOMETR�
 10
6160.682644
 20
408.311552
 40
22.707561
 50
138.59517
 51
184.290384
  0
LINE
  8
APS_GEOMETR�
 10
6143.650717
 11
6146.501717
 20
423.329767
 21
414.746768
  0
ARC
  8
APS_GEOMETR�
 10
6154.784967
 20
417.496317
 40
8.727672
 50
198.363117
 51
219.739208
  0
ARC
  8
APS_GEOMETR�
 10
6153.367193
 20
416.268387
 40
6.852553
 50
219.422675
 51
243.276653
  0
ARC
  8
APS_GEOMETR�
 10
6152.832009
 20
415.183695
 40
5.643064
 50
243.177674
 51
268.849624
  0
ARC
  8
APS_GEOMETR�
 10
6152.809249
 20
415.140669
 40
5.599633
 50
269.073626
 51
294.807783
  0
ARC
  8
APS_GEOMETR�
 10
6152.349407
 20
416.15903
 40
6.716966
 50
294.723584
 51
318.778826
  0
ARC
  8
APS_GEOMETR�
 10
6150.974952
 20
417.421482
 40
8.582818
 50
318.486034
 51
340.069477
  0
ARC
  8
APS_GEOMETR�
 10
6149.663865
 20
417.945581
 40
9.99414
 50
339.806995
 51
359.565364
  0
ARC
  8
APS_GEOMETR�
 10
6146.467805
 20
417.552338
 40
13.193731
 50
1.378619
 51
21.803283
  0
ARC
  8
APS_GEOMETR�
 10
6148.203338
 20
418.303358
 40
11.303529
 50
21.536248
 51
43.924788
  0
ARC
  8
APS_GEOMETR�
 10
6149.84693
 20
419.953296
 40
8.975275
 50
43.617173
 51
68.634847
  0
ARC
  8
APS_GEOMETR�
 10
6150.286563
 20
421.076932
 40
7.768695
 50
68.635347
 51
95.190738
  0
ARC
  8
APS_GEOMETR�
 10
6150.340056
 20
420.799249
 40
8.050128
 50
95.391104
 51
124.144056
  0
ARC
  8
APS_GEOMETR�
 10
6158.895878
 20
391.129206
 40
38.613324
 50
109.791112
 51
137.875675
  0
ARC
  8
APS_GEOMETR�
 10
6164.981704
 20
385.270745
 40
47.057376
 50
137.555267
 51
161.822606
  0
ARC
  8
APS_GEOMETR�
 10
6170.633869
 20
383.154972
 40
53.088082
 50
161.556096
 51
184.024847
  0
ARC
  8
APS_GEOMETR�
 10
6169.21326
 20
382.841779
 40
51.649432
 50
183.788884
 51
206.74091
  0
ARC
  8
APS_GEOMETR�
 10
6161.729157
 20
376.865563
 40
42.322565
 50
204.073608
 51
226.235316
  0
ARC
  8
APS_GEOMETR�
 10
6157.082528
 20
371.816502
 40
35.462399
 50
226.014464
 51
250.599006
  0
ARC
  8
APS_GEOMETR�
 10
6155.977255
 20
368.717708
 40
32.17242
 50
250.622447
 51
276.588625
  0
ARC
  8
APS_GEOMETR�
 10
6155.779384
 20
369.775001
 40
33.245519
 50
276.718313
 51
301.648876
  0
ARC
  8
APS_GEOMETR�
 10
7142.898409
 20
-208.809957
 40
1084.417449
 50
146.13041
 51
148.231721
  0
ARC
  8
APS_GEOMETR�
 10
6224.079073
 20
337.797086
 40
24.523929
 50
95.628736
 51
97.34531
  0
ARC
  8
APS_GEOMETR�
 10
6226.672349
 20
339.018754
 40
23.716763
 50
82.283791
 51
102.16711
  0
ARC
  8
APS_GEOMETR�
 10
6227.039643
 20
340.881124
 40
21.822238
 50
60.673943
 51
82.582883
  0
ARC
  8
APS_GEOMETR�
 10
6225.337795
 20
337.102951
 40
25.952346
 50
44.217701
 51
61.483588
  0
LINE
  8
APS_GEOMETR�
 10
6243.937717
 11
6244.360717
 20
355.201768
 21
363.098768
  0
ARC
  8
APS_GEOMETR�
 10
6240.128447
 20
376.828581
 40
14.36732
 50
287.132123
 51
322.270715
  0
ARC
  8
APS_GEOMETR�
 10
6237.448992
 20
379.03932
 40
17.839683
 50
321.921105
 51
345.14857
  0
ARC
  8
APS_GEOMETR�
 10
6235.462705
 20
379.660605
 40
19.919069
 50
344.88561
 51
6.700551
  0
ARC
  8
APS_GEOMETR�
 10
6236.419603
 20
379.853986
 40
18.946314
 50
6.457386
 51
48.842682
  0
ARC
  8
APS_GEOMETR�
 10
6255.038814
 20
372.992623
 40
22.003129
 50
58.737
 51
106.230969
  0
ARC
  8
APS_GEOMETR�
 10
6253.68448
 20
370.67905
 40
24.68365
 50
34.631764
 51
58.836792
  0
ARC
  8
APS_GEOMETR�
 10
6250.799298
 20
368.570708
 40
28.25597
 50
13.128747
 51
34.824684
  0
ARC
  8
APS_GEOMETR�
 10
6248.936695
 20
368.051029
 40
30.188043
 50
356.508889
 51
13.286324
  0
ARC
  8
APS_GEOMETR�
 10
6287.490974
 20
345.573826
 40
22.291262
 50
93.037637
 51
112.199192
  0
ARC
  8
APS_GEOMETR�
 10
6287.436493
 20
345.809987
 40
22.052585
 50
66.684658
 51
92.928802
  0
ARC
  8
APS_GEOMETR�
 10
6286.650723
 20
343.965761
 40
24.057215
 50
16.386739
 51
66.704484
  0
LINE
  8
APS_GEOMETR�
 10
6309.730717
 11
6300.343717
 20
350.752768
 21
353.612768
  0
ARC
  8
APS_GEOMETR�
 10
6296.940056
 20
342.438749
 40
11.680907
 50
73.059009
 51
100.667979
  0
ARC
  8
APS_GEOMETR�
 10
6297.117486
 20
341.662664
 40
12.476462
 50
100.808946
 51
127.63662
  0
ARC
  8
APS_GEOMETR�
 10
6298.811084
 20
339.358198
 40
15.335708
 50
127.389791
 51
151.508492
  0
ARC
  8
APS_GEOMETR�
 10
6301.465555
 20
337.809266
 40
18.40782
 50
151.212546
 51
173.005789
  0
ARC
  8
APS_GEOMETR�
 10
6302.44176
 20
337.61303
 40
19.400805
 50
172.781625
 51
193.932387
  0
ARC
  8
APS_GEOMETR�
 10
6300.674547
 20
337.100151
 40
17.562242
 50
193.696555
 51
214.057875
  0
ARC
  8
APS_GEOMETR�
 10
6301.035873
 20
348.555714
 40
25.99321
 50
234.994446
 51
266.850385
  0
ARC
  8
APS_GEOMETR�
 10
6300.507159
 20
352.053709
 40
29.465673
 50
268.250768
 51
283.727946
  0
ARC
  8
APS_GEOMETR�
 10
6302.644238
 20
344.040567
 40
21.175002
 50
283.256003
 51
302.24741
  0
ARC
  8
APS_GEOMETR�
 10
6298.330041
 20
352.660103
 40
30.781621
 50
300.478015
 51
331.337601
  0
ARC
  8
APS_GEOMETR�
 10
6286.300921
 20
368.989166
 40
49.908186
 50
321.463578
 51
344.230559
  0
ARC
  8
APS_GEOMETR�
 10
6281.343827
 20
370.601917
 40
55.117384
 50
344.017584
 51
5.056408
  0
ARC
  8
APS_GEOMETR�
 10
6283.083792
 20
370.933497
 40
53.355259
 50
4.866405
 51
26.346837
  0
ARC
  8
APS_GEOMETR�
 10
6289.639569
 20
374.398676
 40
45.943027
 50
26.102714
 51
49.885068
  0
ARC
  8
APS_GEOMETR�
 10
6284.879446
 20
374.35393
 40
49.177094
 50
45.673562
 51
72.272104
  0
ARC
  8
APS_GEOMETR�
 10
6286.214075
 20
378.38681
 40
44.929353
 50
72.327261
 51
100.180637
  0
ARC
  8
APS_GEOMETR�
 10
6286.735363
 20
376.069054
 40
47.302869
 50
100.305896
 51
127.384795
  0
ARC
  8
APS_GEOMETR�
 10
6292.000338
 20
368.838492
 40
56.245186
 50
127.174211
 51
151.657077
  0
ARC
  8
APS_GEOMETR�
 10
6406.197571
 20
441.111055
 40
70.594794
 50
228.055984
 51
232.212523
  0
ARC
  8
APS_GEOMETR�
 10
6400.499718
 20
433.312768
 40
60.941246
 50
231.953664
 51
259.604836
  0
ARC
  8
APS_GEOMETR�
 10
6399.902177
 20
430.681731
 40
58.245685
 50
259.715993
 51
288.19625
  0
ARC
  8
APS_GEOMETR�
 10
6398.312655
 20
435.353348
 40
63.180071
 50
288.242695
 51
315.186272
  0
ARC
  8
APS_GEOMETR�
 10
6390.680915
 20
444.053059
 40
74.729839
 50
314.578486
 51
336.788258
  0
ARC
  8
APS_GEOMETR�
 10
6382.370455
 20
447.904649
 40
83.886051
 50
336.607655
 51
357.054971
  0
ARC
  8
APS_GEOMETR�
 10
6380.957608
 20
448.20065
 40
85.312531
 50
356.90519
 51
17.106881
  0
ARC
  8
APS_GEOMETR�
 10
6387.864354
 20
450.562426
 40
78.016953
 50
16.941177
 51
33.924572
  0
ARC
  8
APS_GEOMETR�
 10
6449.941696
 20
520.736083
 40
26.764727
 50
275.701623
 51
282.39055
  0
ARC
  8
APS_GEOMETR�
 10
6449.447711
 20
522.378233
 40
28.474921
 50
282.652362
 51
313.428373
  0
ARC
  8
APS_GEOMETR�
 10
6445.993852
 20
526.123064
 40
33.568957
 50
313.315617
 51
357.740801
  0
LINE
  8
APS_GEOMETR�
 10
6479.536716
 11
6471.625717
 20
524.799768
 21
519.519768
  0
ARC
  8
APS_GEOMETR�
 10
6464.84896
 20
529.674497
 40
12.208315
 50
275.710517
 51
303.717158
  0
ARC
  8
APS_GEOMETR�
 10
6464.965161
 20
529.207699
 40
11.732475
 50
246.839679
 51
275.372688
  0
ARC
  8
APS_GEOMETR�
 10
6465.767105
 20
530.98748
 40
13.68428
 50
220.21693
 51
246.683436
  0
ARC
  8
APS_GEOMETR�
 10
6468.243509
 20
533.149314
 40
16.971214
 50
196.765885
 51
220.391863
  0
ARC
  8
APS_GEOMETR�
 10
6470.503653
 20
533.948645
 40
19.366191
 50
171.213861
 51
197.10135
  0
ARC
  8
APS_GEOMETR�
 10
6369.119881
 20
614.693107
 40
113.203037
 50
316.595858
 51
351.772226
  0
ARC
  8
APS_GEOMETR�
 10
6403.243766
 20
610.560694
 40
78.842999
 50
351.19554
 51
11.537311
  0
ARC
  8
APS_GEOMETR�
 10
6407.902937
 20
611.727222
 40
74.044956
 50
11.373965
 51
32.668259
  0
ARC
  8
APS_GEOMETR�
 10
6416.137207
 20
617.286317
 40
64.113042
 50
32.458196
 51
56.104549
  0
ARC
  8
APS_GEOMETR�
 10
6420.583403
 20
624.140417
 40
55.944355
 50
55.969571
 51
69.850378
  0
ARC
  8
APS_GEOMETR�
 10
6420.972626
 20
729.232723
 40
55.860037
 50
289.756594
 51
303.613077
  0
ARC
  8
APS_GEOMETR�
 10
6416.622472
 20
736.045519
 40
63.942038
 50
303.479876
 51
327.171399
  0
ARC
  8
APS_GEOMETR�
 10
6408.396838
 20
741.672062
 40
73.904799
 50
326.963149
 51
348.287063
  0
ARC
  8
APS_GEOMETR�
 10
6403.617728
 20
742.89214
 40
78.832399
 50
348.123915
 51
8.468003
  0
ARC
  8
APS_GEOMETR�
 10
6369.205414
 20
738.910403
 40
113.461516
 50
7.897807
 51
43.016433
  0
ARC
  8
APS_GEOMETR�
 10
6471.312808
 20
819.161929
 40
19.359597
 50
162.564237
 51
188.457004
  0
ARC
  8
APS_GEOMETR�
 10
6469.036444
 20
819.973271
 40
16.944966
 50
139.581674
 51
162.875258
  0
ARC
  8
APS_GEOMETR�
 10
6466.595723
 20
822.106773
 40
13.703549
 50
113.708658
 51
139.756557
  0
ARC
  8
APS_GEOMETR�
 10
6465.781792
 20
823.886781
 40
11.746537
 50
85.47895
 51
113.564663
  0
ARC
  8
APS_GEOMETR�
 10
6465.680985
 20
823.497016
 40
12.143236
 50
57.493424
 51
85.149753
  0
LINE
  8
APS_GEOMETR�
 10
6472.206716
 11
6480.040717
 20
833.737768
 21
828.745768
  0
ARC
  8
APS_GEOMETR�
 10
6446.713984
 20
827.207184
 40
33.362229
 50
2.643278
 51
46.626085
  0
ARC
  8
APS_GEOMETR�
 10
6450.133729
 20
830.905762
 40
28.325299
 50
46.516343
 51
77.105476
  0
ARC
  8
APS_GEOMETR�
 10
6450.626598
 20
832.562793
 40
26.600297
 50
77.343838
 51
83.628152
  0
ARC
  8
APS_GEOMETR�
 10
6389.344144
 20
902.968651
 40
77.842346
 50
325.607559
 51
342.714242
  0
ARC
  8
APS_GEOMETR�
 10
6382.340685
 20
905.408522
 40
85.254832
 50
342.547114
 51
2.758665
  0
ARC
  8
APS_GEOMETR�
 10
6383.598127
 20
905.684966
 40
83.985819
 50
2.611578
 51
23.041456
  0
ARC
  8
APS_GEOMETR�
 10
6391.849475
 20
909.454126
 40
74.91789
 50
22.858741
 51
45.027797
  0
ARC
  8
APS_GEOMETR�
 10
6399.570765
 20
918.133738
 40
63.32394
 50
44.419748
 51
71.319606
  0
ARC
  8
APS_GEOMETR�
 10
6401.232631
 20
922.916775
 40
58.260612
 50
71.36127
 51
99.837331
  0
ARC
  8
APS_GEOMETR�
 10
6401.790817
 20
920.401812
 40
60.834082
 50
99.950628
 51
127.63743
  0
ARC
  8
APS_GEOMETR�
 10
6407.723129
 20
912.275325
 40
70.892509
 50
127.423418
 51
131.699527
  0
ARC
  8
APS_GEOMETR�
 10
6267.037702
 20
984.972981
 40
95.591938
 50
348.066458
 51
9.747165
  0
ARC
  8
APS_GEOMETR�
 10
6285.638069
 20
993.04795
 40
76.045211
 50
6.121174
 51
26.913793
  0
ARC
  8
APS_GEOMETR�
 10
6293.724418
 20
997.408148
 40
66.861453
 50
26.718705
 51
49.651675
  0
ARC
  8
APS_GEOMETR�
 10
6299.612119
 20
1004.628082
 40
57.547392
 50
49.465221
 51
75.043045
  0
ARC
  8
APS_GEOMETR�
 10
6300.581148
 20
1008.00473
 40
54.035084
 50
75.111657
 51
101.805925
  0
ARC
  8
APS_GEOMETR�
 10
6308.62672
 20
971.38177
 40
91.530231
 50
102.045312
 51
143.001779
  0
ARC
  8
APS_GEOMETR�
 10
6233.532469
 20
1038.17681
 40
11.88143
 50
266.642952
 51
279.657698
  0
ARC
  8
APS_GEOMETR�
 10
6233.306489
 20
1036.958046
 40
10.652641
 50
247.061609
 51
267.472486
  0
ARC
  8
APS_GEOMETR�
 10
6234.101368
 20
1039.527322
 40
13.331268
 50
222.950954
 51
248.219222
  0
ARC
  8
APS_GEOMETR�
 10
6236.30845
 20
1041.637197
 40
16.384374
 50
200.55041
 51
223.092413
  0
ARC
  8
APS_GEOMETR�
 10
6238.503714
 20
1042.527237
 40
18.752476
 50
160.039641
 51
200.742271
  0
ARC
  8
APS_GEOMETR�
 10
6227.017669
 20
1023.382734
 40
26.273539
 50
103.514614
 51
147.209231
  0
ARC
  8
APS_GEOMETR�
 10
6230.361787
 20
1021.121945
 40
30.309299
 50
147.040123
 51
169.358866
  0
ARC
  8
APS_GEOMETR�
 10
6156.778086
 20
978.889534
 40
64.851313
 50
47.520706
 51
67.939098
  0
ARC
  8
APS_GEOMETR�
 10
6158.944386
 20
984.252977
 40
59.06691
 50
67.93253
 51
94.206532
  0
ARC
  8
APS_GEOMETR�
 10
6159.144837
 20
983.219117
 40
60.112816
 50
94.324793
 51
120.302809
  0
ARC
  8
APS_GEOMETR�
 10
6163.063053
 20
976.281169
 40
68.079954
 50
120.203663
 51
143.970652
  0
ARC
  8
APS_GEOMETR�
 10
6171.054803
 20
969.631934
 40
78.457003
 50
143.476539
 51
161.704672
  0
ARC
  8
APS_GEOMETR�
 10
6022.509909
 20
969.064291
 40
78.222943
 50
18.790642
 51
37.055723
  0
ARC
  8
APS_GEOMETR�
 10
6030.456982
 20
975.798533
 40
67.825313
 50
36.561178
 51
60.392253
  0
ARC
  8
APS_GEOMETR�
 10
6034.236439
 20
982.641852
 40
60.008338
 50
60.301509
 51
86.309758
  0
ARC
  8
APS_GEOMETR�
 10
6034.413875
 20
983.521795
 40
59.118922
 50
86.426477
 51
112.686143
  0
ARC
  8
APS_GEOMETR�
 10
6036.696303
 20
978.020193
 40
65.075168
 50
112.672026
 51
133.585994
  0
ARC
  8
APS_GEOMETR�
 10
5964.032547
 20
1018.582147
 40
28.565082
 50
13.30666
 51
35.143035
  0
ARC
  8
APS_GEOMETR�
 10
5967.136651
 20
1020.847144
 40
24.723111
 50
34.991599
 51
77.516604
  0
ARC
  8
APS_GEOMETR�
 10
5955.040845
 20
1040.841475
 40
17.925521
 50
326.119888
 51
13.367444
  0
ARC
  8
APS_GEOMETR�
 10
5958.346427
 20
1038.494356
 40
13.873193
 50
292.635282
 51
326.557139
  0
ARC
  8
APS_GEOMETR�
 10
5959.460681
 20
1035.34676
 40
10.540798
 50
273.138116
 51
293.629882
  0
ARC
  8
APS_GEOMETR�
 10
5959.206285
 20
1036.809865
 40
12.016894
 50
261.474165
 51
273.967383
  0
ARC
  8
APS_GEOMETR�
 10
5898.890892
 20
983.573604
 40
71.667357
 50
35.239911
 51
58.739043
  0
ARC
  8
APS_GEOMETR�
 10
5874.856594
 20
945.894242
 40
116.352658
 50
58.250733
 51
75.933067
  0
ARC
  8
APS_GEOMETR�
 10
5892.571865
 20
1005.756774
 40
54.0437
 50
78.726814
 51
105.520463
  0
ARC
  8
APS_GEOMETR�
 10
5893.613189
 20
1002.237023
 40
57.713776
 50
105.581545
 51
131.106409
  0
ARC
  8
APS_GEOMETR�
 10
5899.622146
 20
995.011027
 40
67.109507
 50
130.915923
 51
153.786201
  0
ARC
  8
APS_GEOMETR�
 10
5907.665541
 20
990.763156
 40
76.20247
 50
153.592182
 51
174.35425
  0
ARC
  8
APS_GEOMETR�
 10
5926.140733
 20
982.866089
 40
95.556095
 50
170.729498
 51
191.913024
  0
ARC
  8
APS_GEOMETR�
 10
5785.319453
 20
910.132501
 40
71.058903
 50
48.243037
 51
51.87195
  0
ARC
  8
APS_GEOMETR�
 10
5791.325495
 20
918.178326
 40
61.02202
 50
51.643683
 51
79.271839
  0
ARC
  8
APS_GEOMETR�
 10
5791.954282
 20
920.895804
 40
58.235099
 50
79.381972
 51
107.865493
  0
ARC
  8
APS_GEOMETR�
 10
5793.490612
 20
916.307704
 40
63.073302
 50
107.915177
 51
134.891336
  0
ARC
  8
APS_GEOMETR�
 10
5801.05594
 20
907.596541
 40
74.588202
 50
134.285707
 51
156.525754
  0
ARC
  8
APS_GEOMETR�
 10
5809.40619
 20
903.674562
 40
83.810086
 50
156.340364
 51
176.800821
  0
ARC
  8
APS_GEOMETR�
 10
5810.934495
 20
903.371638
 40
85.353191
 50
176.655045
 51
196.84985
  0
ARC
  8
APS_GEOMETR�
 10
5804.104526
 20
901.064155
 40
78.147925
 50
196.68221
 51
215.897831
  0
ARC
  8
APS_GEOMETR�
 10
5746.334483
 20
832.069168
 40
23.825394
 50
103.432833
 51
131.701259
  0
ARC
  8
APS_GEOMETR�
 10
5748.826697
 20
829.215732
 40
27.613799
 50
131.623465
 51
171.257703
  0
ARC
  8
APS_GEOMETR�
 10
5726.460809
 20
822.508731
 40
11.965545
 50
61.807715
 51
114.316285
  0
ARC
  8
APS_GEOMETR�
 10
5725.42851
 20
820.616943
 40
14.120605
 50
37.914125
 51
61.742416
  0
ARC
  8
APS_GEOMETR�
 10
5723.062568
 20
818.717056
 40
17.154675
 50
16.571499
 51
38.064621
  0
ARC
  8
APS_GEOMETR�
 10
5720.9647
 20
817.999013
 40
19.37041
 50
350.963925
 51
16.837362
  0
ARC
  8
APS_GEOMETR�
 10
5821.804222
 20
736.889801
 40
113.008383
 50
136.305987
 51
171.525495
  0
ARC
  8
APS_GEOMETR�
 10
5787.896725
 20
741.128328
 40
78.850581
 50
170.940778
 51
191.281544
  0
ARC
  8
APS_GEOMETR�
 10
5783.326912
 20
740.00228
 40
74.149076
 50
191.119045
 51
212.391261
  0
ARC
  8
APS_GEOMETR�
 10
5775.084865
 20
734.498614
 40
64.241529
 50
212.184255
 51
235.796708
  0
ARC
  8
APS_GEOMETR�
 10
5770.570801
 20
727.612724
 40
56.009239
 50
235.656128
 51
249.501926
  0
ARC
  8
APS_GEOMETR�
 10
5769.498031
 20
622.522429
 40
55.797671
 50
109.407073
 51
123.29769
  0
ARC
  8
APS_GEOMETR�
 10
5773.778957
 20
615.743009
 40
63.814454
 50
123.168666
 51
146.896183
  0
ARC
  8
APS_GEOMETR�
 10
5781.994352
 20
610.062895
 40
73.799082
 50
146.685607
 51
168.03081
  0
ARC
  8
APS_GEOMETR�
 10
5786.861724
 20
608.803982
 40
78.822027
 50
167.869351
 51
188.216093
  0
ARC
  8
APS_GEOMETR�
 10
5821.490432
 20
612.673374
 40
113.653782
 50
187.651964
 51
222.727578
  0
ARC
  8
APS_GEOMETR�
 10
5718.845764
 20
532.795332
 40
19.35411
 50
342.271176
 51
8.205924
  0
ARC
  8
APS_GEOMETR�
 10
5721.697618
 20
531.678617
 40
16.298811
 50
310.967946
 51
342.957581
  0
ARC
  8
APS_GEOMETR�
 10
5724.231517
 20
528.708916
 40
12.395188
 50
249.79131
 51
311.123987
  0
ARC
  8
APS_GEOMETR�
 10
5747.738559
 20
521.671177
 40
28.166085
 50
189.387952
 51
226.383257
  0
ARC
  8
APS_GEOMETR�
 10
5745.191587
 20
518.951844
 40
24.440409
 50
226.308359
 51
252.87693
  0
ARC
  8
APS_GEOMETR�
 10
5744.629794
 20
517.335532
 40
22.730416
 50
253.030712
 51
253.817078
  0
ARC
  8
APS_GEOMETR�
 10
5800.309788
 20
448.675906
 40
77.710392
 50
142.942204
 51
162.456783
  0
ARC
  8
APS_GEOMETR�
 10
5807.384978
 20
446.177722
 40
85.209894
 50
162.289115
 51
182.508178
  0
ARC
  8
APS_GEOMETR�
 10
5806.244665
 20
445.908999
 40
84.059198
 50
182.359203
 51
202.775589
  0
ARC
  8
APS_GEOMETR�
 10
5798.037734
 20
442.206241
 40
75.059128
 50
202.594709
 51
224.733602
  0
ARC
  8
APS_GEOMETR�
 10
5790.250053
 20
433.54319
 40
63.433279
 50
224.125654
 51
250.991898
  0
ARC
  8
APS_GEOMETR�
 10
5788.534373
 20
428.67663
 40
58.273292
 50
251.028356
 51
279.501471
  0
ARC
  8
APS_GEOMETR�
 10
5788.00197
 20
431.10401
 40
60.755384
 50
279.618791
 51
307.328088
  0
ARC
  8
APS_GEOMETR�
 10
5782.745941
 20
438.57712
 40
69.885853
 50
307.03945
 51
312.688854
  0
ARC
  8
APS_GEOMETR�
 10
5924.506716
 20
372.301162
 40
95.546978
 50
171.024427
 51
189.158226
  0
ARC
  8
APS_GEOMETR�
 10
5906.060685
 20
364.445878
 40
76.238301
 50
185.533971
 51
206.289199
  0
ARC
  8
APS_GEOMETR�
 10
5898.028266
 20
360.224355
 40
67.167338
 50
206.095292
 51
228.951594
  0
ARC
  8
APS_GEOMETR�
 10
5891.991617
 20
352.998822
 40
57.754241
 50
228.760709
 51
254.272611
  0
ARC
  8
APS_GEOMETR�
 10
5890.931307
 20
349.445784
 40
54.046843
 50
254.333594
 51
281.12615
  0
ARC
  8
APS_GEOMETR�
 10
5873.393636
 20
409.264314
 40
116.263398
 50
283.918964
 51
301.611399
  0
ARC
  8
APS_GEOMETR�
 10
5897.332983
 20
371.540943
 40
71.59202
 50
301.119695
 51
324.636058
  0
ARC
  8
APS_GEOMETR�
 10
5957.472092
 20
318.185782
 40
12.04869
 50
85.908707
 51
98.382056
  0
ARC
  8
APS_GEOMETR�
 10
5957.731717
 20
319.705526
 40
10.515373
 50
66.160866
 51
86.728967
  0
ARC
  8
APS_GEOMETR�
 10
5956.863275
 20
316.970766
 40
13.371428
 50
43.080373
 51
67.493426
  0
ARC
  8
APS_GEOMETR�
 10
5954.728315
 20
314.925403
 40
16.327865
 50
21.368743
 51
43.205639
  0
ARC
  8
APS_GEOMETR�
 10
5952.554748
 20
314.011858
 40
18.68497
 50
342.386111
 51
21.548936
  0
ARC
  8
APS_GEOMETR�
 10
5964.443762
 20
333.525799
 40
25.854896
 50
283.236346
 51
326.183822
  0
ARC
  8
APS_GEOMETR�
 10
5961.193205
 20
335.804916
 40
29.824065
 50
326.02145
 51
347.918723
  0
ARC
  8
APS_GEOMETR�
 10
6035.131182
 20
376.857422
 40
65.127084
 50
226.567954
 51
247.185011
  0
ARC
  8
APS_GEOMETR�
 10
6032.823435
 20
371.324474
 40
59.132182
 50
247.167333
 51
273.422682
  0
ARC
  8
APS_GEOMETR�
 10
6032.647014
 20
372.167559
 40
59.984428
 50
273.542818
 51
299.558135
  0
ARC
  8
APS_GEOMETR�
 10
6028.901568
 20
378.989637
 40
67.766388
 50
299.467348
 51
323.313738
  0
ARC
  8
APS_GEOMETR�
 10
6020.966697
 20
385.743731
 40
78.16755
 50
322.818465
 51
341.0906
  0
ARC
  8
APS_GEOMETR�
 10
6169.507801
 20
384.906543
 40
78.510974
 50
198.179302
 51
216.399891
  0
ARC
  8
APS_GEOMETR�
 10
6161.507976
 20
378.276532
 40
68.14014
 50
215.904432
 51
239.656481
  0
ARC
  8
APS_GEOMETR�
 10
6157.555713
 20
371.317455
 40
60.137846
 50
239.556673
 51
265.527108
  0
ARC
  8
APS_GEOMETR�
 10
6157.35001
 20
370.246504
 40
59.05424
 50
265.645044
 51
291.923213
  0
ARC
  8
APS_GEOMETR�
 10
6155.209789
 20
375.578166
 40
64.799424
 50
291.918617
 51
314.038688
  0
ARC
  8
APS_GEOMETR�
 10
6228.043441
 20
335.332432
 40
28.502045
 50
192.845521
 51
212.130186
  0
ARC
  8
APS_GEOMETR�
 10
6224.877123
 20
333.250465
 40
24.713517
 50
211.946784
 51
254.456676
  0
ARC
  8
APS_GEOMETR�
 10
6235.575851
 20
312.129309
 40
17.528546
 50
143.377587
 51
188.822895
  0
ARC
  8
APS_GEOMETR�
 10
6232.52615
 20
314.496104
 40
13.669255
 50
111.82308
 51
143.71412
  0
ARC
  8
APS_GEOMETR�
 10
6231.573249
 20
317.336664
 40
10.679402
 50
92.391008
 51
112.742384
  0
ARC
  8
APS_GEOMETR�
 10
6231.791711
 20
316.175768
 40
11.849618
 50
80.179943
 51
93.212257
  0
ARC
  8
APS_GEOMETR�
 10
6307.092598
 20
382.811845
 40
91.599951
 50
216.86998
 51
257.805414
  0
ARC
  8
APS_GEOMETR�
 10
6298.935077
 20
346.140801
 40
54.033703
 50
258.046479
 51
284.741835
  0
ARC
  8
APS_GEOMETR�
 10
6297.98408
 20
349.483435
 40
57.508341
 50
284.810691
 51
310.401749
  0
ARC
  8
APS_GEOMETR�
 10
6292.124219
 20
356.702138
 40
66.803896
 50
310.216182
 51
333.162525
  0
ARC
  8
APS_GEOMETR�
 10
6284.029962
 20
361.091589
 40
76.008447
 50
332.964708
 51
353.764394
  0
ARC
  8
APS_GEOMETR�
 10
6265.400722
 20
369.204465
 40
95.599752
 50
350.141175
 51
11.707276
  0
ARC
  8
APS_GEOMETR�
 10
6014.595912
 20
387.713613
 40
80.81138
 50
4.784371
 51
7.435754
  0
ARC
  8
APS_GEOMETR�
 10
6018.125175
 20
388.419398
 40
77.22084
 50
7.255371
 51
29.725317
  0
ARC
  8
APS_GEOMETR�
 10
6027.615734
 20
394.189749
 40
66.118639
 50
29.460822
 51
54.460933
  0
ARC
  8
APS_GEOMETR�
 10
6047.273251
 20
405.942439
 40
46.050261
 50
65.939874
 51
83.578349
  0
ARC
  8
APS_GEOMETR�
 10
6046.081658
 20
398.555787
 40
53.525037
 50
83.195168
 51
99.136346
  0
ARC
  8
APS_GEOMETR�
 10
6046.593005
 20
398.876425
 40
53.292559
 50
99.733878
 51
131.628705
  0
ARC
  8
APS_GEOMETR�
 10
6053.956285
 20
390.001587
 40
64.81881
 50
131.282407
 51
159.175819
  0
ARC
  8
APS_GEOMETR�
 10
5985.158076
 20
423.009461
 40
12.91352
 50
281.776781
 51
309.497888
  0
ARC
  8
APS_GEOMETR�
 10
5985.317883
 20
422.443936
 40
12.327351
 50
267.251292
 51
281.586125
  0
ARC
  8
APS_GEOMETR�
 10
5985.230438
 20
421.810991
 40
11.69108
 50
252.684152
 51
267.530596
  0
ARC
  8
APS_GEOMETR�
 10
5985.642903
 20
423.322657
 40
13.25712
 50
225.680603
 51
252.926865
  0
ARC
  8
APS_GEOMETR�
 10
5987.373476
 20
425.199126
 40
15.808897
 50
201.786114
 51
225.944668
  0
ARC
  8
APS_GEOMETR�
 10
5989.326863
 20
426.062013
 40
17.943181
 50
179.885827
 51
202.029659
  0
ARC
  8
APS_GEOMETR�
 10
5984.624547
 20
413.677463
 40
18.154436
 50
136.831429
 51
164.854255
  0
ARC
  8
APS_GEOMETR�
 10
5986.565658
 20
413.033377
 40
20.19673
 50
164.529292
 51
190.586704
  0
ARC
  8
APS_GEOMETR�
 10
6158.08787
 20
484.720665
 40
205.692227
 50
201.416629
 51
201.503426
  0
ARC
  8
APS_GEOMETR�
 10
5894.092142
 20
374.771225
 40
80.443374
 50
25.665654
 51
50.496034
  0
ARC
  8
APS_GEOMETR�
 10
5901.914173
 20
384.698548
 40
67.808381
 50
50.259649
 51
78.145615
  0
ARC
  8
APS_GEOMETR�
 10
5902.749322
 20
387.708877
 40
64.690999
 50
78.321814
 51
92.742775
  0
ARC
  8
APS_GEOMETR�
 10
5902.307993
 20
391.05764
 40
61.325595
 50
92.480633
 51
107.428809
  0
ARC
  8
APS_GEOMETR�
 10
5904.983691
 20
385.438751
 40
67.493553
 50
108.16728
 51
138.665911
  0
ARC
  8
APS_GEOMETR�
 10
5913.329425
 20
376.932803
 40
79.382688
 50
138.034392
 51
153.18375
  0
ARC
  8
APS_GEOMETR�
 10
5769.325694
 20
431.030388
 40
75.408622
 50
345.966621
 51
7.169501
  0
ARC
  8
APS_GEOMETR�
 10
5773.292878
 20
431.897325
 40
71.365192
 50
6.876431
 51
32.967625
  0
ARC
  8
APS_GEOMETR�
 10
5783.397594
 20
438.965881
 40
59.042673
 50
32.548664
 51
62.308103
  0
ARC
  8
APS_GEOMETR�
 10
5825.608856
 20
500.207383
 40
17.278778
 50
188.518941
 51
211.241648
  0
ARC
  8
APS_GEOMETR�
 10
5826.554722
 20
500.416928
 40
18.245373
 50
166.837115
 51
188.729707
  0
ARC
  8
APS_GEOMETR�
 10
5825.192044
 20
500.802486
 40
16.830824
 50
143.918445
 51
167.058794
  0
ARC
  8
APS_GEOMETR�
 10
5823.087721
 20
502.420771
 40
14.177252
 50
118.161181
 51
144.195491
  0
ARC
  8
APS_GEOMETR�
 10
5822.266076
 20
503.996858
 40
12.399974
 50
89.816835
 51
118.251094
  0
ARC
  8
APS_GEOMETR�
 10
5808.317797
 20
507.686686
 40
16.478089
 50
31.909947
 51
57.387592
  0
ARC
  8
APS_GEOMETR�
 10
5809.565385
 20
509.629545
 40
14.169159
 50
57.402867
 51
85.590723
  0
ARC
  8
APS_GEOMETR�
 10
5765.787547
 20
586.973587
 40
77.520508
 50
305.364644
 51
328.343434
  0
ARC
  8
APS_GEOMETR�
 10
5754.969303
 20
594.005346
 40
90.420074
 50
328.148394
 51
351.059172
  0
ARC
  8
APS_GEOMETR�
 10
5749.749784
 20
595.184676
 40
95.760111
 50
350.847477
 51
12.873998
  0
ARC
  8
APS_GEOMETR�
 10
5761.931991
 20
597.324224
 40
83.409796
 50
13.305748
 51
39.654527
  0
ARC
  8
APS_GEOMETR�
 10
5773.162303
 20
607.247347
 40
68.432634
 50
39.258356
 51
69.472466
  0
ARC
  8
APS_GEOMETR�
 10
5776.510652
 20
617.657784
 40
57.511401
 50
68.959634
 51
83.883299
  0
ARC
  8
APS_GEOMETR�
 10
5777.505626
 20
732.76219
 40
58.147432
 50
275.064502
 51
289.835979
  0
ARC
  8
APS_GEOMETR�
 10
5774.610662
 20
742.180731
 40
67.991139
 50
289.437565
 51
319.783934
  0
ARC
  8
APS_GEOMETR�
 10
5763.579454
 20
752.25526
 40
82.921538
 50
319.389721
 51
345.846162
  0
ARC
  8
APS_GEOMETR�
 10
5751.010775
 20
754.685999
 40
95.705727
 50
346.275064
 51
8.309713
  0
ARC
  8
APS_GEOMETR�
 10
5755.779523
 20
755.722313
 40
90.837894
 50
8.097632
 51
30.936356
  0
ARC
  8
APS_GEOMETR�
 10
5766.730659
 20
762.620831
 40
77.89878
 50
30.725038
 51
54.223966
  0
ARC
  8
APS_GEOMETR�
 10
5812.494847
 20
839.7308
 40
13.911822
 50
269.081001
 51
298.559633
  0
ARC
  8
APS_GEOMETR�
 10
5811.462259
 20
841.588258
 40
16.036928
 50
298.627308
 51
325.443306
  0
ARC
  8
APS_GEOMETR�
 10
5824.873528
 20
844.922279
 40
12.432181
 50
240.669767
 51
269.060662
  0
ARC
  8
APS_GEOMETR�
 10
5825.752203
 20
846.545233
 40
14.277532
 50
214.873747
 51
240.785956
  0
ARC
  8
APS_GEOMETR�
 10
5827.873795
 20
848.12359
 40
16.92077
 50
192.096239
 51
215.150881
  0
ARC
  8
APS_GEOMETR�
 10
5829.162709
 20
848.47107
 40
18.254016
 50
170.430245
 51
192.314913
  0
ARC
  8
APS_GEOMETR�
 10
5828.131789
 20
848.707958
 40
17.198172
 50
147.838135
 51
170.637474
  0
ARC
  8
APS_GEOMETR�
 10
5787.300748
 20
910.272682
 40
58.626065
 50
296.623628
 51
326.52927
  0
ARC
  8
APS_GEOMETR�
 10
5777.243782
 20
917.543942
 40
71.027335
 50
326.110666
 51
352.288202
  0
ARC
  8
APS_GEOMETR�
 10
5773.12682
 20
918.525465
 40
75.239946
 50
351.968223
 51
17.089424
  0
ARC
  8
APS_GEOMETR�
 10
5914.689588
 20
978.030951
 40
79.049401
 50
208.233172
 51
221.861468
  0
ARC
  8
APS_GEOMETR�
 10
5906.637778
 20
969.778727
 40
67.550179
 50
221.206052
 51
251.686763
  0
ARC
  8
APS_GEOMETR�
 10
5903.916338
 20
964.028836
 40
61.241322
 50
252.413653
 51
267.375152
  0
ARC
  8
APS_GEOMETR�
 10
5904.37436
 20
967.56059
 40
64.791022
 50
267.11357
 51
281.519949
  0
ARC
  8
APS_GEOMETR�
 10
5903.563959
 20
970.428885
 40
67.763741
 50
281.707022
 51
309.604964
  0
ARC
  8
APS_GEOMETR�
 10
5896.149574
 20
980.001593
 40
79.866665
 50
309.325151
 51
332.330429
  0
ARC
  8
APS_GEOMETR�
 10
5986.852672
 20
942.933985
 40
19.969966
 50
180.058003
 51
203.069617
  0
ARC
  8
APS_GEOMETR�
 10
5984.623102
 20
941.914225
 40
17.519223
 50
202.858497
 51
228.005555
  0
ARC
  8
APS_GEOMETR�
 10
5990.838443
 20
928.893375
 40
17.936727
 50
157.84772
 51
179.998742
  0
ARC
  8
APS_GEOMETR�
 10
5988.880064
 20
929.7638
 40
15.79484
 50
133.921033
 51
158.09341
  0
ARC
  8
APS_GEOMETR�
 10
5987.156859
 20
931.641852
 40
13.246899
 50
106.928207
 51
134.187133
  0
ARC
  8
APS_GEOMETR�
 10
5986.755752
 20
933.128774
 40
11.707717
 50
92.335182
 51
107.169106
  0
ARC
  8
APS_GEOMETR�
 10
5986.8373
 20
932.530641
 40
12.308808
 50
78.255568
 51
92.601019
  0
ARC
  8
APS_GEOMETR�
 10
5986.673607
 20
931.937821
 40
12.922598
 50
50.371593
 51
78.079994
  0
ARC
  8
APS_GEOMETR�
 10
6055.600628
 20
964.832897
 40
64.876804
 50
200.709262
 51
228.58574
  0
ARC
  8
APS_GEOMETR�
 10
6048.203239
 20
955.955515
 40
53.32687
 50
228.23684
 51
260.118451
  0
ARC
  8
APS_GEOMETR�
 10
6047.683969
 20
956.150762
 40
53.432888
 50
260.702941
 51
276.662962
  0
ARC
  8
APS_GEOMETR�
 10
6048.843641
 20
948.912747
 40
46.11026
 50
276.275246
 51
293.898494
  0
ARC
  8
APS_GEOMETR�
 10
6029.256223
 20
960.598221
 40
66.056119
 50
305.402584
 51
330.41938
  0
ARC
  8
APS_GEOMETR�
 10
6019.761369
 20
966.395735
 40
77.176177
 50
330.156002
 51
352.634425
  0
ARC
  8
APS_GEOMETR�
 10
6016.207509
 20
967.130865
 40
80.795418
 50
352.440501
 51
355.092313
  0
ARC
  8
APS_GEOMETR�
 10
6177.076348
 20
967.798904
 40
80.726303
 50
185.387966
 51
188.046021
  0
ARC
  8
APS_GEOMETR�
 10
6173.409041
 20
967.003832
 40
76.9843
 50
187.842141
 51
210.359806
  0
ARC
  8
APS_GEOMETR�
 10
6163.902445
 20
961.084063
 40
65.790036
 50
210.095858
 51
235.181477
  0
ARC
  8
APS_GEOMETR�
 10
6144.621618
 20
949.692051
 40
46.375687
 50
246.780407
 51
264.336155
  0
ARC
  8
APS_GEOMETR�
 10
6145.638024
 20
956.287779
 40
53.040751
 50
263.946732
 51
279.987126
  0
ARC
  8
APS_GEOMETR�
 10
6145.080173
 20
956.629995
 40
53.476773
 50
280.512178
 51
312.334784
  0
ARC
  8
APS_GEOMETR�
 10
6137.532427
 20
965.512341
 40
65.127161
 50
311.980721
 51
339.781925
  0
ARC
  8
APS_GEOMETR�
 10
6207.013557
 20
933.107185
 40
12.960177
 50
102.54866
 51
130.209235
  0
ARC
  8
APS_GEOMETR�
 10
6206.828452
 20
933.815561
 40
12.228535
 50
88.016433
 51
102.423205
  0
ARC
  8
APS_GEOMETR�
 10
6206.90028
 20
934.264518
 40
11.777495
 50
73.512951
 51
88.29006
  0
ARC
  8
APS_GEOMETR�
 10
6206.536447
 20
932.885924
 40
13.20273
 50
46.37357
 51
73.696823
  0
ARC
  8
APS_GEOMETR�
 10
6204.841292
 20
931.004386
 40
15.734427
 50
22.397864
 51
46.632582
  0
ARC
  8
APS_GEOMETR�
 10
6202.86075
 20
930.104607
 40
17.908572
 50
0.470824
 51
22.64499
  0
ARC
  8
APS_GEOMETR�
 10
6207.534892
 20
942.641078
 40
18.128131
 50
316.887733
 51
344.195475
  0
ARC
  8
APS_GEOMETR�
 10
6205.579726
 20
943.302925
 40
20.189913
 50
343.899414
 51
9.274337
  0
ARC
  8
APS_GEOMETR�
 10
6297.118394
 20
982.220168
 40
80.001586
 50
206.473489
 51
231.207003
  0
ARC
  8
APS_GEOMETR�
 10
6289.547394
 20
972.360919
 40
67.574411
 50
230.97302
 51
258.921497
  0
ARC
  8
APS_GEOMETR�
 10
6288.828527
 20
970.100716
 40
65.218758
 50
259.159721
 51
273.502358
  0
ARC
  8
APS_GEOMETR�
 10
6289.370681
 20
965.794761
 40
60.888361
 50
273.240673
 51
288.260904
  0
ARC
  8
APS_GEOMETR�
 10
6286.452367
 20
972.096531
 40
67.79189
 50
288.934286
 51
319.34148
  0
ARC
  8
APS_GEOMETR�
 10
6278.278183
 20
980.313446
 40
79.351792
 50
318.686194
 51
332.27665
  0
ARC
  8
APS_GEOMETR�
 10
6420.142521
 20
920.555587
 40
75.176418
 50
162.310349
 51
187.444137
  0
ARC
  8
APS_GEOMETR�
 10
6416.313693
 20
919.656829
 40
71.264514
 50
187.126463
 51
213.243474
  0
ARC
  8
APS_GEOMETR�
 10
6406.222139
 20
912.526384
 40
58.91714
 50
212.823972
 51
242.627636
  0
ARC
  8
APS_GEOMETR�
 10
6364.425017
 20
851.184949
 40
17.254594
 50
8.773488
 51
31.520715
  0
ARC
  8
APS_GEOMETR�
 10
6363.452694
 20
850.967098
 40
18.248892
 50
347.095932
 51
8.983832
  0
ARC
  8
APS_GEOMETR�
 10
6364.794356
 20
850.594968
 40
16.858127
 50
324.196188
 51
347.310436
  0
ARC
  8
APS_GEOMETR�
 10
6366.90435
 20
848.988327
 40
14.207132
 50
298.473886
 51
324.473067
  0
ARC
  8
APS_GEOMETR�
 10
6367.743215
 20
847.397896
 40
12.40917
 50
270.150066
 51
298.570201
  0
ARC
  8
APS_GEOMETR�
 10
6381.496009
 20
843.832457
 40
16.323519
 50
212.804612
 51
238.733217
  0
ARC
  8
APS_GEOMETR�
 10
6380.322207
 20
841.911619
 40
14.072434
 50
238.759104
 51
267.391345
  0
ARC
  8
APS_GEOMETR�
 10
6424.71387
 20
764.624859
 40
77.625961
 50
125.458785
 51
148.623315
  0
ARC
  8
APS_GEOMETR�
 10
6435.580771
 20
757.628915
 40
90.546788
 50
148.424059
 51
171.313013
  0
ARC
  8
APS_GEOMETR�
 10
6440.665643
 20
756.492745
 40
95.745589
 50
171.100493
 51
193.128949
  0
ARC
  8
APS_GEOMETR�
 10
6428.365188
 20
754.266834
 40
83.263405
 50
193.559885
 51
219.941081
  0
ARC
  8
APS_GEOMETR�
 10
6417.194595
 20
744.296853
 40
68.299767
 50
219.544687
 51
249.798129
  0
ARC
  8
APS_GEOMETR�
 10
6413.984338
 20
734.178857
 40
57.697625
 50
249.320207
 51
264.218053
  0
ARC
  8
APS_GEOMETR�
 10
6413.624103
 20
619.077174
 40
57.954645
 50
95.398383
 51
110.195525
  0
ARC
  8
APS_GEOMETR�
 10
6416.654604
 20
609.359387
 40
68.123101
 50
109.766043
 51
140.072759
  0
ARC
  8
APS_GEOMETR�
 10
6427.744771
 20
599.326874
 40
83.068713
 50
139.675669
 51
166.099673
  0
ARC
  8
APS_GEOMETR�
 10
6440.200643
 20
596.986047
 40
95.724869
 50
166.530656
 51
188.562487
  0
ARC
  8
APS_GEOMETR�
 10
6435.294082
 20
595.909532
 40
90.713331
 50
188.351534
 51
211.211674
  0
ARC
  8
APS_GEOMETR�
 10
6424.969194
 20
589.445361
 40
78.533341
 50
211.081687
 51
231.750036
  0
ARC
  8
APS_GEOMETR�
 10
6382.056159
 20
512.215041
 40
16.570312
 50
110.143802
 51
133.182373
  0
ARC
  8
APS_GEOMETR�
 10
6382.179263
 20
512.077536
 40
16.754821
 50
133.167557
 51
156.035811
  0
ARC
  8
APS_GEOMETR�
 10
6366.738857
 20
506.460731
 40
12.422716
 50
60.998906
 51
89.401054
  0
ARC
  8
APS_GEOMETR�
 10
6365.875466
 20
504.852993
 40
14.247476
 50
35.151143
 51
61.096801
  0
ARC
  8
APS_GEOMETR�
 10
6363.760087
 20
503.260934
 40
16.893899
 50
12.355266
 51
35.435441
  0
ARC
  8
APS_GEOMETR�
 10
6362.448669
 20
502.905446
 40
18.25113
 50
350.677012
 51
12.564491
  0
ARC
  8
APS_GEOMETR�
 10
6363.452984
 20
502.67381
 40
17.222682
 50
328.119919
 51
350.896172
  0
ARC
  8
APS_GEOMETR�
 10
6404.699714
 20
441.205766
 40
58.749956
 50
116.945369
 51
146.807358
  0
ARC
  8
APS_GEOMETR�
 10
6414.772228
 20
433.992462
 40
71.129865
 50
146.386809
 51
172.538189
  0
ARC
  8
APS_GEOMETR�
 10
6418.765656
 20
433.047487
 40
75.213359
 50
172.219486
 51
197.345609
  0
ARC
  8
APS_GEOMETR�
 10
6276.589449
 20
373.82616
 40
79.42209
 50
27.601358
 51
41.184771
  0
ARC
  8
APS_GEOMETR�
 10
6284.793559
 20
382.031512
 40
67.849024
 50
40.532035
 51
70.921676
  0
ARC
  8
APS_GEOMETR�
 10
6287.757588
 20
388.461178
 40
60.807724
 50
71.580904
 51
86.614306
  0
ARC
  8
APS_GEOMETR�
 10
6287.192383
 20
383.974686
 40
65.32045
 50
86.35181
 51
100.679326
  0
ARC
  8
APS_GEOMETR�
 10
6287.894275
 20
381.858027
 40
67.531172
 50
100.93173
 51
128.891799
  0
ARC
  8
APS_GEOMETR�
 10
6295.221603
 20
372.203843
 40
79.646623
 50
128.634051
 51
152.35619
  0
ARC
  8
APS_GEOMETR�
 10
6204.61404
 20
410.566435
 40
20.102094
 50
355.981669
 51
19.799975
  0
ARC
  8
APS_GEOMETR�
 10
6206.735733
 20
411.413314
 40
17.819135
 50
19.548802
 51
45.403506
  0
ARC
  8
APS_GEOMETR�
 10
6201.345445
 20
424.282454
 40
17.902183
 50
337.240574
 51
359.421704
  0
ARC
  8
APS_GEOMETR�
 10
6203.331318
 20
423.377638
 40
15.721035
 50
313.228052
 51
337.481494
  0
ARC
  8
APS_GEOMETR�
 10
6205.019596
 20
421.494272
 40
13.192579
 50
286.15708
 51
313.487721
  0
ARC
  8
APS_GEOMETR�
 10
6205.372434
 20
420.139566
 40
11.793257
 50
271.575678
 51
286.342061
  0
ARC
  8
APS_GEOMETR�
 10
6205.304863
 20
420.554943
 40
12.210464
 50
257.416753
 51
271.839032
  0
ARC
  8
APS_GEOMETR�
 10
6205.494777
 20
421.288738
 40
12.968033
 50
229.656719
 51
257.304134
  0
ARC
  8
APS_GEOMETR�
 10
6135.885712
 20
388.999775
 40
65.185413
 50
20.103177
 51
47.88819
  0
ARC
  8
APS_GEOMETR�
 10
6143.466316
 20
397.883968
 40
53.512429
 50
47.530594
 51
79.339302
  0
ARC
  8
APS_GEOMETR�
 10
6144.035888
 20
398.351762
 40
52.949457
 50
79.851354
 51
95.910186
  0
ARC
  8
APS_GEOMETR�
 10
6143.052631
 20
404.796001
 40
46.439292
 50
95.522195
 51
113.062524
  0
ARC
  8
APS_GEOMETR�
 10
6162.262055
 20
393.475134
 40
65.727581
 50
124.683007
 51
149.785526
  0
ARC
  8
APS_GEOMETR�
 10
6171.769305
 20
387.523587
 40
76.939131
 50
149.518477
 51
172.044122
  0
ARC
  8
APS_GEOMETR�
 10
6175.464331
 20
386.726905
 40
80.709339
 50
171.847064
 51
174.506264
  0
ARC
  8
APS_GEOMETR�
 10
5998.040047
 20
937.586332
 40
31.609505
 50
128.97627
 51
170.297113
  0
ARC
  8
APS_GEOMETR�
 10
6197.522348
 20
939.936361
 40
28.755847
 50
13.310508
 51
50.439548
  0
ARC
  8
APS_GEOMETR�
 10
6370.341658
 20
860.563739
 40
34.017333
 50
285.936251
 51
305.935846
  0
ARC
  8
APS_GEOMETR�
 10
6375.657118
 20
853.382324
 40
25.08335
 50
305.732159
 51
330.274244
  0
ARC
  8
APS_GEOMETR�
 10
6367.326256
 20
492.359176
 40
36.958152
 50
30.900101
 51
53.810054
  0
ARC
  8
APS_GEOMETR�
 10
6370.302078
 20
496.454483
 40
31.895866
 50
53.780499
 51
79.070225
  0
ARC
  8
APS_GEOMETR�
 10
6199.60765
 20
411.756775
 40
24.845771
 50
305.186347
 51
329.11699
  0
ARC
  8
APS_GEOMETR�
 10
6196.268809
 20
413.842019
 40
28.78165
 50
328.966076
 51
350.633373
  0
ARC
  8
APS_GEOMETR�
 10
5988.961641
 20
412.527976
 40
22.478612
 50
188.197702
 51
211.898942
  0
ARC
  8
APS_GEOMETR�
 10
5986.130787
 20
410.690699
 40
19.104518
 50
211.70722
 51
238.172352
  0
ARC
  8
APS_GEOMETR�
 10
5824.056941
 20
486.106931
 40
39.964107
 50
109.59422
 51
142.29691
  0
ARC
  8
APS_GEOMETR�
 10
5819.809979
 20
852.02646
 40
27.592866
 50
208.832531
 51
231.919855
  0
ARC
  8
APS_GEOMETR�
 10
5817.408143
 20
848.93504
 40
23.6781
 50
231.880966
 51
257.471377
  0
ARC
  8
APS_GEOMETR�
 10
5947.788733
 20
1028.050795
 40
43.400238
 50
307.054684
 51
350.966938
  0
ARC
  8
APS_GEOMETR�
 10
6245.84243
 20
1030.491236
 40
44.539637
 50
189.784855
 51
233.316515
  0
ARC
  8
APS_GEOMETR�
 10
6460.689909
 20
817.718928
 40
40.645344
 50
105.035616
 51
154.34752
  0
ARC
  8
APS_GEOMETR�
 10
6464.550886
 20
540.246479
 40
47.319072
 50
208.072366
 51
250.817302
  0
ARC
  8
APS_GEOMETR�
 10
6236.838126
 20
328.781409
 40
35.985005
 50
121.54538
 51
173.412269
  0
ARC
  8
APS_GEOMETR�
 10
5946.28469
 20
326.732812
 40
43.478208
 50
8.803209
 51
53.625804
  0
ARC
  8
APS_GEOMETR�
 10
5730.937117
 20
537.691299
 40
42.432914
 50
285.271581
 51
330.750143
  0
ARC
  8
APS_GEOMETR�
 10
5739.147883
 20
822.466632
 40
31.624521
 50
20.823353
 51
80.372708
  0
ARC
  8
APS_GEOMETR�
 10
5025.274901
 20
1157.591064
 40
32.137399
 50
257.863114
 51
291.344452
  0
ARC
  8
APS_GEOMETR�
 10
5026.533558
 20
1154.485288
 40
28.786563
 50
291.261049
 51
311.012752
  0
LINE
  8
APS_GEOMETR�
 10
5045.424077
 11
5045.870077
 20
1132.763997
 21
1124.762997
  0
ARC
  8
APS_GEOMETR�
 10
5042.33154
 20
1108.170285
 40
16.965828
 50
45.537725
 51
77.961527
  0
ARC
  8
APS_GEOMETR�
 10
5044.756706
 20
1110.526006
 40
13.586081
 50
18.967872
 51
45.878605
  0
ARC
  8
APS_GEOMETR�
 10
5046.193136
 20
1111.032273
 40
12.063098
 50
350.479338
 51
18.911431
  0
ARC
  8
APS_GEOMETR�
 10
5045.471302
 20
1111.190515
 40
12.801215
 50
322.631714
 51
350.315213
  0
LINE
  8
APS_GEOMETR�
 10
5055.645077
 11
5051.241077
 20
1103.420997
 21
1097.653997
  0
ARC
  8
APS_GEOMETR�
 10
5057.591714
 20
1126.53506
 40
29.57104
 50
257.598632
 51
293.704971
  0
ARC
  8
APS_GEOMETR�
 10
5058.882892
 20
1123.794169
 40
26.542437
 50
293.531574
 51
316.343369
  0
ARC
  8
APS_GEOMETR�
 10
5061.429298
 20
1121.469363
 40
23.095368
 50
316.155076
 51
341.719351
  0
ARC
  8
APS_GEOMETR�
 10
5062.888243
 20
1120.975232
 40
21.555062
 50
341.750088
 51
2.932556
  0
ARC
  8
APS_GEOMETR�
 10
5094.8191
 20
1150.378603
 40
30.152412
 50
249.815287
 51
267.207447
  0
ARC
  8
APS_GEOMETR�
 10
5094.917191
 20
1150.818263
 40
30.596425
 50
267.06409
 51
287.249558
  0
ARC
  8
APS_GEOMETR�
 10
5095.699675
 20
1148.543504
 40
28.19204
 50
287.101713
 51
333.465294
  0
LINE
  8
APS_GEOMETR�
 10
5120.922077
 11
5109.958077
 20
1135.948997
 21
1133.558997
  0
ARC
  8
APS_GEOMETR�
 10
5105.820557
 20
1152.543011
 40
19.429665
 50
261.182044
 51
282.295203
  0
ARC
  8
APS_GEOMETR�
 10
5105.562222
 20
1151.362656
 40
18.223811
 50
239.496851
 51
261.415764
  0
ARC
  8
APS_GEOMETR�
 10
5103.898929
 20
1148.68922
 40
15.076303
 50
215.44106
 51
239.786054
  0
ARC
  8
APS_GEOMETR�
 10
5101.635925
 20
1147.141369
 40
12.335167
 50
188.711952
 51
215.678802
  0
ARC
  8
APS_GEOMETR�
 10
5101.015094
 20
1147.012178
 40
11.701979
 50
160.963607
 51
188.547121
  0
ARC
  8
APS_GEOMETR�
 10
5102.397396
 20
1146.522858
 40
13.168291
 50
137.324062
 51
160.912714
  0
ARC
  8
APS_GEOMETR�
 10
5109.9751
 20
1121.410255
 40
38.164248
 50
91.40689
 51
116.886858
  0
ARC
  8
APS_GEOMETR�
 10
5110.239102
 20
1120.901192
 40
38.680456
 50
65.561109
 51
91.779317
  0
ARC
  8
APS_GEOMETR�
 10
5113.128941
 20
1126.614107
 40
32.284917
 50
36.132369
 51
66.03559
  0
ARC
  8
APS_GEOMETR�
 10
5111.803519
 20
1116.896321
 40
39.719289
 50
20.068909
 51
46.381353
  0
ARC
  8
APS_GEOMETR�
 10
5115.468068
 20
1118.253078
 40
35.811682
 50
352.619853
 51
20.041893
  0
ARC
  8
APS_GEOMETR�
 10
5114.117582
 20
1118.519319
 40
37.185289
 50
325.598394
 51
352.480313
  0
ARC
  8
APS_GEOMETR�
 10
5108.508451
 20
1122.195353
 40
43.890504
 50
301.313248
 51
325.775954
  0
ARC
  8
APS_GEOMETR�
 10
5094.620792
 20
1136.715427
 40
63.659855
 50
282.654711
 51
305.20296
  0
ARC
  8
APS_GEOMETR�
 10
5093.194204
 20
1141.92404
 40
69.054926
 50
261.571169
 51
282.862851
  0
ARC
  8
APS_GEOMETR�
 10
5092.430349
 20
1138.360252
 40
65.41808
 50
239.725311
 51
261.775434
  0
ARC
  8
APS_GEOMETR�
 10
5087.232277
 20
1129.961727
 40
55.544957
 50
215.310937
 51
239.988419
  0
ARC
  8
APS_GEOMETR�
 10
5764.005024
 20
1718.10064
 40
951.90877
 50
218.450141
 51
220.660827
  0
ARC
  8
APS_GEOMETR�
 10
4968.655906
 20
1098.9458
 40
26.755179
 50
7.744028
 51
16.266333
  0
ARC
  8
APS_GEOMETR�
 10
4966.97146
 20
1098.425309
 40
28.518001
 50
16.322263
 51
41.947091
  0
ARC
  8
APS_GEOMETR�
 10
4963.665663
 20
1095.596292
 40
32.867938
 50
41.762965
 51
67.480377
  0
ARC
  8
APS_GEOMETR�
 10
4985.632473
 20
1093.102664
 40
34.167634
 50
105.93114
 51
131.794511
  0
ARC
  8
APS_GEOMETR�
 10
4982.346927
 20
1096.603786
 40
29.367949
 50
131.567917
 51
157.67604
  0
ARC
  8
APS_GEOMETR�
 10
4979.9925
 20
1097.570368
 40
26.822835
 50
157.675667
 51
168.017802
  0
ARC
  8
APS_GEOMETR�
 10
4943.958157
 20
1083.455973
 40
21.985939
 50
63.541219
 51
82.665094
  0
ARC
  8
APS_GEOMETR�
 10
4943.804802
 20
1082.673031
 40
22.782112
 50
82.533957
 51
102.811303
  0
ARC
  8
APS_GEOMETR�
 10
4943.458339
 20
1083.948679
 40
21.461466
 50
102.664539
 51
123.97155
  0
ARC
  8
APS_GEOMETR�
 10
4942.00724
 20
1086.000165
 40
18.949377
 50
123.798939
 51
147.502367
  0
ARC
  8
APS_GEOMETR�
 10
4940.327923
 20
1087.032563
 40
16.978376
 50
147.396068
 51
173.488357
  0
ARC
  8
APS_GEOMETR�
 10
4939.96513
 20
1087.100858
 40
16.6102
 50
173.580498
 51
227.917977
  0
LINE
  8
APS_GEOMETR�
 10
4928.833077
 11
4931.755077
 20
1074.772997
 21
1081.076997
  0
ARC
  8
APS_GEOMETR�
 10
4937.856849
 20
1078.248693
 40
6.725394
 50
131.0962
 51
155.131253
  0
ARC
  8
APS_GEOMETR�
 10
4939.119261
 20
1076.874514
 40
8.590935
 50
109.850399
 51
131.416864
  0
ARC
  8
APS_GEOMETR�
 10
4939.638141
 20
1075.566186
 40
9.997815
 50
90.051945
 51
110.101331
  0
ARC
  8
APS_GEOMETR�
 10
4939.674932
 20
1075.55385
 40
10.010252
 50
70.228634
 51
90.262463
  0
ARC
  8
APS_GEOMETR�
 10
4940.177941
 20
1076.85166
 40
8.618864
 50
48.91493
 51
70.45698
  0
ARC
  8
APS_GEOMETR�
 10
4941.436095
 20
1078.232658
 40
6.751249
 50
25.254386
 51
49.260779
  0
ARC
  8
APS_GEOMETR�
 10
4942.470686
 20
1078.715718
 40
5.609452
 50
0.268425
 51
25.300405
  0
ARC
  8
APS_GEOMETR�
 10
4940.140581
 20
1079.172271
 40
7.951146
 50
331.078387
 51
356.897945
  0
ARC
  8
APS_GEOMETR�
 10
4938.691708
 20
1079.950725
 40
9.595808
 50
306.928765
 51
331.193784
  0
ARC
  8
APS_GEOMETR�
 10
4937.210217
 20
1081.810067
 40
11.972435
 50
285.516713
 51
307.250101
  0
ARC
  8
APS_GEOMETR�
 10
4936.76524
 20
1083.21411
 40
13.444449
 50
265.29339
 51
285.74322
  0
ARC
  8
APS_GEOMETR�
 10
4936.678114
 20
1082.751987
 40
12.976827
 50
243.328154
 51
265.509355
  0
ARC
  8
APS_GEOMETR�
 10
4943.710254
 20
1117.26143
 40
47.86458
 50
230.014971
 51
254.418091
  0
ARC
  8
APS_GEOMETR�
 10
4938.055775
 20
1110.864063
 40
39.329965
 50
203.184697
 51
230.337893
  0
ARC
  8
APS_GEOMETR�
 10
4933.788908
 20
1109.047114
 40
34.692363
 50
174.024005
 51
203.200613
  0
ARC
  8
APS_GEOMETR�
 10
4934.893674
 20
1108.831922
 40
35.813666
 50
145.013279
 51
173.865617
  0
ARC
  8
APS_GEOMETR�
 10
4938.441931
 20
1109.009844
 40
38.680179
 50
124.779348
 51
148.244591
  0
ARC
  8
APS_GEOMETR�
 10
4942.637209
 20
1103.286601
 40
45.774411
 50
104.011997
 51
125.006124
  0
ARC
  8
APS_GEOMETR�
 10
4943.768593
 20
1099.389036
 40
49.830179
 50
84.290336
 51
104.189095
  0
ARC
  8
APS_GEOMETR�
 10
4944.077275
 20
1101.081664
 40
48.115438
 50
64.480774
 51
84.455566
  0
ARC
  8
APS_GEOMETR�
 10
4868.17052
 20
1005.173563
 40
169.561558
 50
35.908854
 51
55.25575
  0
ARC
  8
APS_GEOMETR�
 10
5004.974812
 20
1080.430121
 40
24.196732
 50
88.739541
 51
110.320264
  0
ARC
  8
APS_GEOMETR�
 10
5004.04687
 20
1082.679697
 40
21.765094
 50
110.086005
 51
114.078208
  0
ARC
  8
APS_GEOMETR�
 10
5022.493394
 20
686.234854
 40
375.0
 50
125.637588
 51
139.56947
  0
ARC
  8
APS_GEOMETR�
 10
4672.94155
 20
960.563956
 40
71.26424
 50
334.096732
 51
343.240509
  0
ARC
  8
APS_GEOMETR�
 10
4684.890175
 20
957.416477
 40
58.91714
 50
342.820725
 51
12.624389
  0
ARC
  8
APS_GEOMETR�
 10
4758.747532
 20
964.823356
 40
17.254594
 50
138.77025
 51
161.517476
  0
ARC
  8
APS_GEOMETR�
 10
4759.537821
 20
964.21728
 40
18.248517
 50
117.082832
 51
138.974493
  0
ARC
  8
APS_GEOMETR�
 10
4758.962113
 20
965.484985
 40
16.857834
 50
94.190826
 51
117.302316
  0
ARC
  8
APS_GEOMETR�
 10
4758.840369
 20
968.133376
 40
14.20781
 50
68.484112
 51
94.481672
  0
ARC
  8
APS_GEOMETR�
 10
4759.51673
 20
969.800113
 40
12.409169
 50
40.142188
 51
68.566937
  0
ARC
  8
APS_GEOMETR�
 10
4753.409262
 20
982.626764
 40
16.323519
 50
342.801363
 51
8.729969
  0
ARC
  8
APS_GEOMETR�
 10
4755.63527
 20
982.962058
 40
14.072411
 50
8.756227
 51
37.392536
  0
ARC
  8
APS_GEOMETR�
 10
4786.310013
 20
1066.646131
 40
77.625961
 50
255.455539
 51
278.620069
  0
ARC
  8
APS_GEOMETR�
 10
4784.685184
 20
1079.467786
 40
90.546863
 50
278.420583
 51
282.314818
  0
ARC
  8
APS_GEOMETR�
 10
5022.493395
 20
686.234855
 40
375.0
 50
125.637588
 51
139.56947
  0
ARC
  8
APS_GEOMETR�
 10
5022.493394
 20
686.234854
 40
375.0
 50
165.634343
 51
179.566226
  0
ARC
  8
APS_GEOMETR�
 10
4578.384976
 20
671.720688
 40
71.26424
 50
14.093488
 51
23.237266
  0
ARC
  8
APS_GEOMETR�
 10
4589.561612
 20
676.989376
 40
58.91714
 50
22.817481
 51
52.621146
  0
ARC
  8
APS_GEOMETR�
 10
4641.38159
 20
730.135032
 40
17.254594
 50
178.767
 51
201.514223
  0
ARC
  8
APS_GEOMETR�
 10
4642.376566
 20
730.178685
 40
18.248517
 50
157.079591
 51
178.971252
  0
ARC
  8
APS_GEOMETR�
 10
4641.120719
 20
730.779818
 40
16.857834
 50
134.187587
 51
157.299078
  0
ARC
  8
APS_GEOMETR�
 10
4639.325214
 20
732.730449
 40
14.20781
 50
108.480873
 51
134.478432
  0
ARC
  8
APS_GEOMETR�
 10
4638.772075
 20
734.442032
 40
12.409169
 50
80.138945
 51
108.563699
  0
ARC
  8
APS_GEOMETR�
 10
4625.849005
 20
740.342742
 40
16.323519
 50
22.798121
 51
48.726723
  0
ARC
  8
APS_GEOMETR�
 10
4627.338801
 20
742.030357
 40
14.072411
 50
48.752992
 51
77.389304
  0
ARC
  8
APS_GEOMETR�
 10
4597.050676
 20
825.855136
 40
77.625961
 50
295.452295
 51
318.616825
  0
ARC
  8
APS_GEOMETR�
 10
4587.564881
 20
834.633211
 40
90.546863
 50
318.417338
 51
322.311574
  0
ARC
  8
APS_GEOMETR�
 10
5022.493394
 20
686.234854
 40
375.0
 50
165.634344
 51
179.566226
  0
ARC
  8
APS_GEOMETR�
 10
5022.493394
 20
686.234854
 40
375.0
 50
205.631099
 51
219.562982
  0
ARC
  8
APS_GEOMETR�
 10
4691.59934
 20
389.667705
 40
71.26424
 50
54.090242
 51
63.234021
  0
ARC
  8
APS_GEOMETR�
 10
4696.775131
 20
400.887663
 40
58.91714
 50
62.814239
 51
92.617903
  0
ARC
  8
APS_GEOMETR�
 10
4702.314357
 20
474.908524
 40
17.254594
 50
218.763753
 51
241.51098
  0
ARC
  8
APS_GEOMETR�
 10
4703.048531
 20
475.581483
 40
18.248517
 50
197.076351
 51
218.968012
  0
ARC
  8
APS_GEOMETR�
 10
4701.700077
 20
475.234807
 40
16.857834
 50
174.184336
 51
197.295828
  0
ARC
  8
APS_GEOMETR�
 10
4699.070818
 20
475.575099
 40
14.20781
 50
148.47763
 51
174.475187
  0
ARC
  8
APS_GEOMETR�
 10
4697.546959
 20
476.530783
 40
12.409169
 50
120.135699
 51
148.560453
  0
ARC
  8
APS_GEOMETR�
 10
4683.854194
 20
472.744976
 40
16.323519
 50
62.794875
 51
88.723478
  0
ARC
  8
APS_GEOMETR�
 10
4683.910794
 20
474.995383
 40
14.072411
 50
88.749746
 51
117.386056
  0
ARC
  8
APS_GEOMETR�
 10
4606.829749
 20
519.744422
 40
77.625961
 50
335.449052
 51
358.613582
  0
ARC
  8
APS_GEOMETR�
 10
4593.920806
 20
520.372202
 40
90.546863
 50
358.414091
 51
2.308327
  0
ARC
  8
APS_GEOMETR�
 10
5022.493393
 20
686.234855
 40
375.0
 50
205.631099
 51
219.562982
  0
ARC
  8
APS_GEOMETR�
 10
5022.493394
 20
686.234854
 40
375.0
 50
245.627855
 51
259.559738
  0
ARC
  8
APS_GEOMETR�
 10
4959.618626
 20
246.360199
 40
71.26424
 50
94.086998
 51
103.230778
  0
ARC
  8
APS_GEOMETR�
 10
4956.372134
 20
258.282302
 40
58.91714
 50
102.810993
 51
132.614657
  0
ARC
  8
APS_GEOMETR�
 10
4913.039149
 20
318.548572
 40
17.254594
 50
258.760512
 51
281.507735
  0
ARC
  8
APS_GEOMETR�
 10
4913.169046
 20
319.535999
 40
18.248517
 50
237.073104
 51
258.964769
  0
ARC
  8
APS_GEOMETR�
 10
4912.358845
 20
318.403706
 40
16.857834
 50
214.18109
 51
237.292579
  0
ARC
  8
APS_GEOMETR�
 10
4910.125899
 20
316.974458
 40
14.20781
 50
188.474389
 51
214.471947
  0
ARC
  8
APS_GEOMETR�
 10
4908.344239
 20
316.727137
 40
12.409169
 50
160.132459
 51
188.557211
  0
ARC
  8
APS_GEOMETR�
 10
4900.287782
 20
305.025957
 40
16.323519
 50
102.791638
 51
128.720238
  0
ARC
  8
APS_GEOMETR�
 10
4898.884703
 20
306.786328
 40
14.072411
 50
128.746495
 51
157.382806
  0
ARC
  8
APS_GEOMETR�
 10
4811.072205
 20
291.524313
 40
77.625961
 50
15.445807
 51
38.610337
  0
ARC
  8
APS_GEOMETR�
 10
4800.779413
 20
283.70809
 40
90.546863
 50
38.410851
 51
42.305086
  0
ARC
  8
APS_GEOMETR�
 10
5022.49339
 20
686.234854
 40
375.0
 50
245.627856
 51
259.559739
  0
ARC
  8
APS_GEOMETR�
 10
5022.493394
 20
686.234854
 40
375.0
 50
285.624611
 51
299.556494
  0
ARC
  8
APS_GEOMETR�
 10
5257.053137
 20
308.842915
 40
71.26424
 50
134.083752
 51
143.227533
  0
ARC
  8
APS_GEOMETR�
 10
5246.9032
 20
315.889547
 40
58.91714
 50
142.80775
 51
172.611414
  0
ARC
  8
APS_GEOMETR�
 10
5174.970832
 20
334.206354
 40
17.254594
 50
298.75727
 51
321.504496
  0
ARC
  8
APS_GEOMETR�
 10
5174.435683
 20
335.046295
 40
18.248517
 50
277.069851
 51
298.961515
  0
ARC
  8
APS_GEOMETR�
 10
5174.542775
 20
333.658114
 40
16.857834
 50
254.177849
 51
277.289338
  0
ARC
  8
APS_GEOMETR�
 10
5173.750801
 20
331.127981
 40
14.20781
 50
228.471141
 51
254.468697
  0
ARC
  8
APS_GEOMETR�
 10
5172.544868
 20
329.793363
 40
12.409169
 50
200.129222
 51
228.553973
  0
ARC
  8
APS_GEOMETR�
 10
5173.893837
 20
315.65107
 40
16.323519
 50
142.788393
 51
168.716992
  0
ARC
  8
APS_GEOMETR�
 10
5171.687497
 20
316.097835
 40
14.072411
 50
168.743246
 51
197.379559
  0
ARC
  8
APS_GEOMETR�
 10
5114.225596
 20
247.964923
 40
77.625961
 50
55.442562
 51
78.607092
  0
ARC
  8
APS_GEOMETR�
 10
5111.364317
 20
235.361431
 40
90.546863
 50
78.407606
 51
82.301841
  0
ARC
  8
APS_GEOMETR�
 10
5022.493391
 20
686.234852
 40
375.0
 50
285.624611
 51
299.556494
  0
ARC
  8
APS_GEOMETR�
 10
5022.493394
 20
686.234854
 40
375.0
 50
325.621367
 51
339.55325
  0
ARC
  8
APS_GEOMETR�
 10
5444.751611
 20
547.884039
 40
71.26424
 50
174.080503
 51
183.224284
  0
ARC
  8
APS_GEOMETR�
 10
5432.446756
 20
546.758521
 40
58.91714
 50
182.804506
 51
212.60817
  0
ARC
  8
APS_GEOMETR�
 10
5365.567725
 20
514.556561
 40
17.254594
 50
338.754025
 51
1.501249
  0
ARC
  8
APS_GEOMETR�
 10
5364.61789
 20
514.856057
 40
18.248517
 50
317.066615
 51
338.958278
  0
ARC
  8
APS_GEOMETR�
 10
5365.592179
 20
513.861434
 40
16.857834
 50
294.174599
 51
317.286091
  0
ARC
  8
APS_GEOMETR�
 10
5366.61169
 20
511.41411
 40
14.20781
 50
268.467896
 51
294.465451
  0
ARC
  8
APS_GEOMETR�
 10
5366.545667
 20
509.616578
 40
12.409169
 50
240.125971
 51
268.550724
  0
ARC
  8
APS_GEOMETR�
 10
5376.668962
 20
499.64948
 40
16.323519
 50
182.785145
 51
208.713749
  0
ARC
  8
APS_GEOMETR�
 10
5374.691571
 20
498.573627
 40
14.072411
 50
208.740008
 51
237.376318
  0
ARC
  8
APS_GEOMETR�
 10
5374.463147
 20
409.445003
 40
77.625961
 50
95.439318
 51
118.603848
  0
ARC
  8
APS_GEOMETR�
 10
5380.372004
 20
397.950643
 40
90.546863
 50
118.404367
 51
122.298602
  0
ARC
  8
APS_GEOMETR�
 10
5022.493393
 20
686.234852
 40
375.0
 50
325.621367
 51
339.55325
  0
ARC
  8
APS_GEOMETR�
 10
5022.493394
 20
686.234854
 40
375.0
 50
5.618123
 51
19.550006
  0
ARC
  8
APS_GEOMETR�
 10
5434.901514
 20
851.650977
 40
71.26424
 50
214.077255
 51
223.221036
  0
ARC
  8
APS_GEOMETR�
 10
5426.198416
 20
842.879868
 40
58.91714
 50
222.801262
 51
252.604925
  0
ARC
  8
APS_GEOMETR�
 10
5395.661298
 20
775.224451
 40
17.254594
 50
18.750786
 51
41.498012
  0
ARC
  8
APS_GEOMETR�
 10
5394.741147
 20
774.843392
 40
18.248517
 50
357.063365
 51
18.955027
  0
ARC
  8
APS_GEOMETR�
 10
5396.126819
 20
774.707646
 40
16.857834
 50
334.171359
 51
357.282849
  0
ARC
  8
APS_GEOMETR�
 10
5398.48085
 20
773.488082
 40
14.20781
 50
308.464655
 51
334.462211
  0
ARC
  8
APS_GEOMETR�
 10
5399.585625
 20
772.068593
 40
12.409169
 50
280.122726
 51
308.547479
  0
ARC
  8
APS_GEOMETR�
 10
5413.747181
 20
770.93968
 40
16.323519
 50
222.781903
 51
248.710507
  0
ARC
  8
APS_GEOMETR�
 10
5412.923839
 20
768.844533
 40
14.072411
 50
248.736765
 51
277.373074
  0
ARC
  8
APS_GEOMETR�
 10
5470.035759
 20
700.417985
 40
77.625961
 50
135.436076
 51
158.600606
  0
ARC
  8
APS_GEOMETR�
 10
5481.950349
 20
695.410247
 40
90.546863
 50
158.401115
 51
162.295349
  0
ARC
  8
APS_GEOMETR�
 10
5022.493394
 20
686.234852
 40
375.0
 50
5.618123
 51
19.550006
  0
ARC
  8
APS_GEOMETR�
 10
5022.493394
 20
686.234854
 40
375.0
 50
45.614879
 51
59.546761
  0
ARC
  8
APS_GEOMETR�
 10
5232.111083
 20
1078.029918
 40
71.26424
 50
254.074022
 51
263.217799
  0
ARC
  8
APS_GEOMETR�
 10
5231.081394
 20
1065.716673
 40
58.91714
 50
262.798019
 51
292.601682
  0
ARC
  8
APS_GEOMETR�
 10
5251.172622
 20
994.259598
 40
17.254594
 50
58.747537
 51
81.494762
  0
ARC
  8
APS_GEOMETR�
 10
5250.712637
 20
993.376253
 40
18.248517
 50
37.060121
 51
58.951785
  0
ARC
  8
APS_GEOMETR�
 10
5251.861423
 20
994.162894
 40
16.857834
 50
14.168113
 51
37.279603
  0
ARC
  8
APS_GEOMETR�
 10
5254.448669
 20
994.741649
 40
14.20781
 50
348.461417
 51
14.458973
  0
ARC
  8
APS_GEOMETR�
 10
5256.207385
 20
994.364294
 40
12.409169
 50
320.119482
 51
348.544233
  0
ARC
  8
APS_GEOMETR�
 10
5267.781883
 20
1002.601715
 40
16.323519
 50
262.778663
 51
288.707263
  0
ARC
  8
APS_GEOMETR�
 10
5268.497782
 20
1000.467464
 40
14.072411
 50
288.733512
 51
317.369822
  0
ARC
  8
APS_GEOMETR�
 10
5356.230897
 20
984.755553
 40
77.625961
 50
175.432831
 51
198.597361
  0
ARC
  8
APS_GEOMETR�
 10
5368.577134
 20
988.577248
 40
90.546863
 50
198.397866
 51
202.2921
  0
ARC
  8
APS_GEOMETR�
 10
5022.493392
 20
686.234854
 40
375.0
 50
45.614879
 51
59.546761
  0
ARC
  8
APS_GEOMETR�
 10
4931.031877
 20
1121.065556
 40
71.26424
 50
294.099971
 51
303.243751
  0
ARC
  8
APS_GEOMETR�
 10
4938.162461
 20
1110.97442
 40
58.91714
 50
302.823971
 51
332.627635
  0
ARC
  8
APS_GEOMETR�
 10
4999.503895
 20
1069.177297
 40
17.254594
 50
98.773488
 51
121.520715
  0
ARC
  8
APS_GEOMETR�
 10
4999.719771
 20
1068.205041
 40
18.248517
 50
77.086078
 51
98.97774
  0
ARC
  8
APS_GEOMETR�
 10
5000.093542
 20
1069.546238
 40
16.857834
 50
54.194073
 51
77.305561
  0
ARC
  8
APS_GEOMETR�
 10
5001.702515
 20
1071.65337
 40
14.20781
 50
28.487363
 51
54.484922
  0
ARC
  8
APS_GEOMETR�
 10
5003.291948
 20
1072.495499
 40
12.409169
 50
0.145432
 51
28.570184
  0
ARC
  8
APS_GEOMETR�
 10
5006.85739
 20
1086.247291
 40
16.323519
 50
302.804606
 51
328.733209
  0
ARC
  8
APS_GEOMETR�
 10
5008.778199
 20
1085.073397
 40
14.072411
 50
328.75948
 51
357.395791
  0
ARC
  8
APS_GEOMETR�
 10
5086.064986
 20
1129.46615
 40
77.625961
 50
215.458784
 51
238.623314
  0
ARC
  8
APS_GEOMETR�
 10
5093.061289
 20
1140.332918
 40
90.546863
 50
238.423821
 51
242.318056
  0
ARC
  8
APS_GEOMETR�
 10
5022.493395
 20
686.234853
 40
375.0
 50
85.640832
 51
99.572715
  0
ARC
  8
APS_GEOMETR�
 10
4990.126106
 20
1075.093938
 40
34.017333
 50
15.936251
 51
35.935846
  0
ARC
  8
APS_GEOMETR�
 10
4997.309908
 20
1080.40725
 40
25.082667
 50
35.739327
 51
60.282263
  0
ARC
  8
APS_GEOMETR�
 10
5032.970276
 20
1165.441757
 40
40.645578
 50
195.034896
 51
244.348682
  0
ARC
  8
APS_GEOMETR�
 10
4721.662766
 20
1049.119611
 40
32.137399
 50
297.85987
 51
331.341208
  0
ARC
  8
APS_GEOMETR�
 10
4724.623218
 20
1047.549329
 40
28.786563
 50
331.257808
 51
351.00951
  0
LINE
  8
APS_GEOMETR�
 10
4753.056117
 11
4758.540386
 20
1043.050837
 21
1037.208089
  0
ARC
  8
APS_GEOMETR�
 10
4766.494451
 20
1022.222357
 40
16.965828
 50
85.534481
 51
117.958286
  0
ARC
  8
APS_GEOMETR�
 10
4766.838198
 20
1025.585791
 40
13.586081
 50
58.964626
 51
85.87536
  0
ARC
  8
APS_GEOMETR�
 10
4767.613219
 20
1026.896889
 40
12.063098
 50
30.476096
 51
58.908186
  0
ARC
  8
APS_GEOMETR�
 10
4766.958527
 20
1026.554162
 40
12.801215
 50
2.628466
 51
30.311965
  0
LINE
  8
APS_GEOMETR�
 10
4779.746274
 11
4780.07916
 20
1027.141217
 21
1019.892583
  0
ARC
  8
APS_GEOMETR�
 10
4766.381124
 20
1046.099647
 40
29.57104
 50
297.595387
 51
333.701728
  0
ARC
  8
APS_GEOMETR�
 10
4769.131963
 20
1044.8298
 40
26.542437
 50
333.528333
 51
356.340127
  0
ARC
  8
APS_GEOMETR�
 10
4772.576971
 20
1044.6855
 40
23.095368
 50
356.15183
 51
21.716102
  0
ARC
  8
APS_GEOMETR�
 10
4774.012242
 20
1045.244682
 40
21.555062
 50
21.746844
 51
42.929312
  0
ARC
  8
APS_GEOMETR�
 10
4779.575012
 20
1088.293416
 40
30.152412
 50
289.812044
 51
307.204206
  0
ARC
  8
APS_GEOMETR�
 10
4779.367568
 20
1088.693279
 40
30.596425
 50
307.060848
 51
327.246314
  0
ARC
  8
APS_GEOMETR�
 10
4781.429103
 20
1087.453567
 40
28.19204
 50
327.098469
 51
13.46205
  0
LINE
  8
APS_GEOMETR�
 10
4808.846548
 11
4801.983397
 20
1094.016709
 21
1085.138729
  0
ARC
  8
APS_GEOMETR�
 10
4786.611856
 20
1097.022652
 40
19.429665
 50
301.178802
 51
322.291959
  0
ARC
  8
APS_GEOMETR�
 10
4787.172617
 20
1095.95236
 40
18.223811
 50
279.493612
 51
301.412524
  0
ARC
  8
APS_GEOMETR�
 10
4787.616735
 20
1092.83522
 40
15.076303
 50
255.437817
 51
279.782815
  0
ARC
  8
APS_GEOMETR�
 10
4786.877963
 20
1090.194908
 40
12.335167
 50
228.708716
 51
255.675565
  0
ARC
  8
APS_GEOMETR�
 10
4786.485394
 20
1089.696901
 40
11.701979
 50
200.960359
 51
228.543877
  0
ARC
  8
APS_GEOMETR�
 10
4787.858857
 20
1090.210508
 40
13.168291
 50
177.320812
 51
200.909466
  0
ARC
  8
APS_GEOMETR�
 10
4809.804971
 20
1075.84275
 40
38.164248
 50
131.403643
 51
156.88361
  0
ARC
  8
APS_GEOMETR�
 10
4810.334419
 20
1075.622456
 40
38.680456
 50
105.557871
 51
131.776078
  0
ARC
  8
APS_GEOMETR�
 10
4808.876321
 20
1081.856436
 40
32.284917
 50
76.129123
 51
106.032343
  0
ARC
  8
APS_GEOMETR�
 10
4814.106994
 20
1073.559919
 40
39.719289
 50
60.065665
 51
86.37811
  0
ARC
  8
APS_GEOMETR�
 10
4816.042286
 20
1076.954673
 40
35.811682
 50
32.616608
 51
60.038649
  0
ARC
  8
APS_GEOMETR�
 10
4814.836581
 20
1076.290617
 40
37.185289
 50
5.59515
 51
32.477069
  0
ARC
  8
APS_GEOMETR�
 10
4808.176783
 20
1075.50152
 40
43.890504
 50
341.310002
 51
5.77271
  0
ARC
  8
APS_GEOMETR�
 10
4788.20502
 20
1077.698861
 40
63.659855
 50
322.651465
 51
345.199713
  0
ARC
  8
APS_GEOMETR�
 10
4783.764329
 20
1080.772143
 40
69.054926
 50
301.567928
 51
322.859609
  0
ARC
  8
APS_GEOMETR�
 10
4785.469762
 20
1077.551031
 40
65.41808
 50
279.722067
 51
301.77219
  0
ARC
  8
APS_GEOMETR�
 10
4786.885722
 20
1067.776051
 40
55.544957
 50
255.307692
 51
279.985174
  0
ARC
  8
APS_GEOMETR�
 10
4927.325449
 20
1953.329786
 40
951.90877
 50
258.446898
 51
260.657584
  0
ARC
  8
APS_GEOMETR�
 10
4715.981945
 20
967.801066
 40
26.755179
 50
47.740784
 51
56.263089
  0
ARC
  8
APS_GEOMETR�
 10
4715.026067
 20
966.319659
 40
28.518001
 50
56.319022
 51
81.943851
  0
ARC
  8
APS_GEOMETR�
 10
4714.311891
 20
962.027621
 40
32.867938
 50
81.75972
 51
107.477131
  0
ARC
  8
APS_GEOMETR�
 10
4732.743008
 20
974.236342
 40
34.167634
 50
145.927894
 51
171.791265
  0
ARC
  8
APS_GEOMETR�
 10
4727.975688
 20
974.806717
 40
29.367949
 50
171.564669
 51
197.672794
  0
ARC
  8
APS_GEOMETR�
 10
4725.55074
 20
974.03391
 40
26.822835
 50
197.672436
 51
208.014571
  0
ARC
  8
APS_GEOMETR�
 10
4707.017469
 20
940.06027
 40
21.985939
 50
103.537974
 51
122.661851
  0
ARC
  8
APS_GEOMETR�
 10
4707.403217
 20
939.361904
 40
22.782112
 50
122.53071
 51
142.808053
  0
ARC
  8
APS_GEOMETR�
 10
4706.317886
 20
940.116471
 40
21.461466
 50
142.661301
 51
163.968314
  0
ARC
  8
APS_GEOMETR�
 10
4703.887645
 20
940.755385
 40
18.949377
 50
163.79569
 51
187.499118
  0
ARC
  8
APS_GEOMETR�
 10
4701.937584
 20
940.466915
 40
16.978376
 50
187.392823
 51
213.485113
  0
ARC
  8
APS_GEOMETR�
 10
4701.615758
 20
940.286052
 40
16.6102
 50
213.577256
 51
267.914734
  0
LINE
  8
APS_GEOMETR�
 10
4701.011368
 11
4699.197996
 20
923.686851
 21
930.394323
  0
ARC
  8
APS_GEOMETR�
 10
4705.690322
 20
932.149492
 40
6.725394
 50
171.09295
 51
195.128006
  0
ARC
  8
APS_GEOMETR�
 10
4707.540678
 20
931.908167
 40
8.590935
 50
149.847141
 51
171.413612
  0
ARC
  8
APS_GEOMETR�
 10
4708.779103
 20
931.239391
 40
9.997815
 50
130.048704
 51
150.098089
  0
ARC
  8
APS_GEOMETR�
 10
4708.815217
 20
931.253588
 40
10.010252
 50
110.22539
 51
130.259219
  0
ARC
  8
APS_GEOMETR�
 10
4708.366402
 20
932.571122
 40
8.618864
 50
88.911681
 51
110.453731
  0
ARC
  8
APS_GEOMETR�
 10
4708.442621
 20
934.437749
 40
6.751249
 50
65.251135
 51
89.257527
  0
ARC
  8
APS_GEOMETR�
 10
4708.924717
 20
935.472789
 40
5.609452
 50
40.265167
 51
65.297152
  0
ARC
  8
APS_GEOMETR�
 10
4706.846221
 20
934.324884
 40
7.951146
 50
11.07514
 51
36.894689
  0
ARC
  8
APS_GEOMETR�
 10
4705.235922
 20
933.989984
 40
9.595808
 50
346.925535
 51
11.190562
  0
ARC
  8
APS_GEOMETR�
 10
4702.905899
 20
934.462175
 40
11.972435
 50
325.513465
 51
347.24685
  0
ARC
  8
APS_GEOMETR�
 10
4701.662571
 20
935.251779
 40
13.444449
 50
305.290141
 51
325.739969
  0
ARC
  8
APS_GEOMETR�
 10
4701.892851
 20
934.841755
 40
12.976827
 50
283.324909
 51
305.506112
  0
ARC
  8
APS_GEOMETR�
 10
4685.099292
 20
965.798646
 40
47.86458
 50
270.011727
 51
294.414847
  0
ARC
  8
APS_GEOMETR�
 10
4684.879374
 20
957.263361
 40
39.329965
 50
243.181453
 51
270.33465
  0
ARC
  8
APS_GEOMETR�
 10
4682.778444
 20
953.128926
 40
34.692363
 50
214.02076
 51
243.197368
  0
ARC
  8
APS_GEOMETR�
 10
4683.763098
 20
953.674153
 40
35.813666
 50
185.010033
 51
213.862371
  0
ARC
  8
APS_GEOMETR�
 10
4686.366991
 20
956.091079
 40
38.680179
 50
164.776106
 51
188.241348
  0
ARC
  8
APS_GEOMETR�
 10
4693.259494
 20
954.403104
 40
45.774411
 50
144.008754
 51
165.002882
  0
ARC
  8
APS_GEOMETR�
 10
4696.631362
 20
952.144442
 40
49.830179
 50
124.287091
 51
144.185848
  0
ARC
  8
APS_GEOMETR�
 10
4695.779913
 20
953.639538
 40
48.115438
 50
104.477532
 51
124.452324
  0
ARC
  8
APS_GEOMETR�
 10
4699.273579
 20
831.37755
 40
169.561558
 50
75.90561
 51
95.252506
  0
ARC
  8
APS_GEOMETR�
 10
4755.706009
 20
976.960328
 40
24.196732
 50
128.736303
 51
150.317026
  0
ARC
  8
APS_GEOMETR�
 10
4753.549225
 20
978.087248
 40
21.765094
 50
150.082746
 51
154.074946
  0
ARC
  8
APS_GEOMETR�
 10
4747.7605
 20
963.328459
 40
34.017333
 50
55.933007
 51
75.932602
  0
ARC
  8
APS_GEOMETR�
 10
4749.848773
 20
972.016232
 40
25.082667
 50
75.736084
 51
100.279021
  0
ARC
  8
APS_GEOMETR�
 10
4722.512058
 20
1060.080035
 40
40.645578
 50
235.031652
 51
284.345438
  0
ARC
  8
APS_GEOMETR�
 10
4558.790729
 20
770.87676
 40
32.137399
 50
337.856626
 51
11.337964
  0
ARC
  8
APS_GEOMETR�
 10
4562.067964
 20
771.57661
 40
28.786563
 50
11.254564
 51
31.006267
  0
LINE
  8
APS_GEOMETR�
 10
4586.741243
 11
4594.698029
 20
786.405485
 21
785.45445
  0
ARC
  8
APS_GEOMETR�
 10
4610.423478
 20
779.086596
 40
16.965828
 50
125.531237
 51
157.955038
  0
ARC
  8
APS_GEOMETR�
 10
4608.524988
 20
781.8842
 40
13.586081
 50
98.961378
 51
125.872114
  0
ARC
  8
APS_GEOMETR�
 10
4608.276019
 20
783.386748
 40
12.063098
 50
70.472862
 51
98.904949
  0
ARC
  8
APS_GEOMETR�
 10
4607.994756
 20
782.703392
 40
12.801215
 50
42.625222
 51
70.308724
  0
LINE
  8
APS_GEOMETR�
 10
4617.413877
 11
4622.327913
 20
791.372374
 21
786.033295
  0
ARC
  8
APS_GEOMETR�
 10
4594.989671
 20
797.305691
 40
29.57104
 50
337.592143
 51
13.698484
  0
ARC
  8
APS_GEOMETR�
 10
4597.913222
 20
798.100971
 40
26.542437
 50
13.525091
 51
36.336882
  0
ARC
  8
APS_GEOMETR�
 10
4600.645126
 20
800.204683
 40
23.095368
 50
36.148588
 51
61.712863
  0
ARC
  8
APS_GEOMETR�
 10
4601.385246
 20
801.555575
 40
21.555062
 50
61.743598
 51
82.926066
  0
ARC
  8
APS_GEOMETR�
 10
4577.977453
 20
838.109822
 40
30.152412
 50
329.808802
 51
347.200963
  0
ARC
  8
APS_GEOMETR�
 10
4577.561525
 20
838.28282
 40
30.596425
 50
347.057599
 51
7.243067
  0
ARC
  8
APS_GEOMETR�
 10
4579.937646
 20
838.658137
 40
28.19204
 50
7.095226
 51
53.458808
  0
LINE
  8
APS_GEOMETR�
 10
4596.723202
 11
4597.171745
 20
861.30844
 21
850.095939
  0
ARC
  8
APS_GEOMETR�
 10
4577.757579
 20
849.320014
 40
19.429665
 50
341.175559
 51
2.288718
  0
ARC
  8
APS_GEOMETR�
 10
4578.875091
 20
848.860512
 40
18.223811
 50
319.490363
 51
341.409274
  0
ARC
  8
APS_GEOMETR�
 10
4581.218846
 20
846.757985
 40
15.076303
 50
295.434571
 51
319.779568
  0
ARC
  8
APS_GEOMETR�
 10
4582.34993
 20
844.260451
 40
12.335167
 50
268.705475
 51
295.672323
  0
ARC
  8
APS_GEOMETR�
 10
4582.369282
 20
843.626615
 40
11.701979
 50
240.957114
 51
268.540635
  0
ARC
  8
APS_GEOMETR�
 10
4583.091348
 20
844.902865
 40
13.168291
 50
217.317566
 51
240.906219
  0
ARC
  8
APS_GEOMETR�
 10
4609.138639
 20
848.00174
 40
38.164248
 50
171.400401
 51
196.880368
  0
ARC
  8
APS_GEOMETR�
 10
4609.685831
 20
848.173274
 40
38.680456
 50
145.554624
 51
171.772831
  0
ARC
  8
APS_GEOMETR�
 10
4604.561958
 20
852.011826
 40
32.284917
 50
116.125882
 51
146.029104
  0
ARC
  8
APS_GEOMETR�
 10
4613.901612
 20
849.018007
 40
39.719289
 50
100.06242
 51
126.374865
  0
ARC
  8
APS_GEOMETR�
 10
4613.202244
 20
852.86256
 40
35.811682
 50
72.613362
 51
100.035402
  0
ARC
  8
APS_GEOMETR�
 10
4612.705396
 20
851.578879
 40
37.185289
 50
45.591907
 51
72.473827
  0
ARC
  8
APS_GEOMETR�
 10
4608.11064
 20
846.693821
 40
43.890504
 50
21.306759
 51
45.769465
  0
ARC
  8
APS_GEOMETR�
 10
4591.398328
 20
835.540425
 40
63.659855
 50
2.648221
 51
25.196471
  0
ARC
  8
APS_GEOMETR�
 10
4586.021064
 20
835.040586
 40
69.054926
 50
341.564679
 51
2.85636
  0
ARC
  8
APS_GEOMETR�
 10
4589.397913
 20
833.669106
 40
65.41808
 50
319.718824
 51
341.768946
  0
ARC
  8
APS_GEOMETR�
 10
4596.765464
 20
827.090779
 40
55.544957
 50
295.304451
 51
319.981934
  0
ARC
  8
APS_GEOMETR�
 10
4135.169098
 20
1595.763354
 40
951.90877
 50
298.443653
 51
300.654339
  0
ARC
  8
APS_GEOMETR�
 10
4606.705787
 20
704.928866
 40
26.755179
 50
87.73754
 51
96.259845
  0
ARC
  8
APS_GEOMETR�
 10
4606.92567
 20
703.179603
 40
28.518001
 50
96.315772
 51
121.940602
  0
ARC
  8
APS_GEOMETR�
 10
4609.13724
 20
699.432525
 40
32.867938
 50
121.75648
 51
147.473893
  0
ARC
  8
APS_GEOMETR�
 10
4615.409879
 20
720.631886
 40
34.167634
 50
185.924652
 51
211.788022
  0
ARC
  8
APS_GEOMETR�
 10
4611.391121
 20
718.004672
 40
29.367949
 50
211.561426
 51
237.669551
  0
ARC
  8
APS_GEOMETR�
 10
4610.030137
 20
715.854014
 40
26.822835
 50
237.669179
 51
248.011315
  0
ARC
  8
APS_GEOMETR�
 10
4617.668509
 20
677.915308
 40
21.985939
 50
143.534728
 51
162.658602
  0
ARC
  8
APS_GEOMETR�
 10
4618.412895
 20
677.628244
 40
22.782112
 50
162.527471
 51
182.804815
  0
ARC
  8
APS_GEOMETR�
 10
4617.09645
 20
677.508709
 40
21.461466
 50
182.658053
 51
203.965064
  0
ARC
  8
APS_GEOMETR�
 10
4614.824031
 20
676.436145
 40
18.949377
 50
203.792441
 51
227.495871
  0
ARC
  8
APS_GEOMETR�
 10
4613.515538
 20
674.961765
 40
16.978376
 50
227.389581
 51
253.481871
  0
ARC
  8
APS_GEOMETR�
 10
4613.385244
 20
674.616358
 40
16.6102
 50
253.57401
 51
307.91149
  0
LINE
  8
APS_GEOMETR�
 10
4623.591272
 11
4617.890893
 20
661.51156
 21
665.484492
  0
ARC
  8
APS_GEOMETR�
 10
4621.736415
 20
671.001999
 40
6.725394
 50
211.089725
 51
235.124766
  0
ARC
  8
APS_GEOMETR�
 10
4623.309047
 20
672.00643
 40
8.590935
 50
189.843907
 51
211.410378
  0
ARC
  8
APS_GEOMETR�
 10
4624.687633
 20
672.290083
 40
9.997815
 50
170.045461
 51
190.094847
  0
ARC
  8
APS_GEOMETR�
 10
4624.706174
 20
672.324168
 40
10.010252
 50
150.222133
 51
170.255963
  0
ARC
  8
APS_GEOMETR�
 10
4623.515509
 20
673.045035
 40
8.618864
 50
128.908444
 51
150.450497
  0
ARC
  8
APS_GEOMETR�
 10
4622.374134
 20
674.524011
 40
6.751249
 50
105.247885
 51
129.254274
  0
ARC
  8
APS_GEOMETR�
 10
4622.078196
 20
675.6268
 40
5.609452
 50
80.261955
 51
105.293941
  0
ARC
  8
APS_GEOMETR�
 10
4621.223707
 20
673.411472
 40
7.951146
 50
51.071892
 51
76.891445
  0
ARC
  8
APS_GEOMETR�
 10
4620.20534
 20
672.119903
 40
9.595808
 50
26.922274
 51
51.187297
  0
ARC
  8
APS_GEOMETR�
 10
4618.116859
 20
670.984026
 40
11.972435
 50
5.510232
 51
27.243617
  0
ARC
  8
APS_GEOMETR�
 10
4616.656855
 20
670.789788
 40
13.444449
 50
345.28689
 51
5.73672
  0
ARC
  8
APS_GEOMETR�
 10
4617.096808
 20
670.623685
 40
12.976827
 50
323.321671
 51
345.502872
  0
ARC
  8
APS_GEOMETR�
 10
4584.334222
 20
683.545203
 40
47.86458
 50
310.008483
 51
334.411605
  0
ARC
  8
APS_GEOMETR�
 10
4589.651754
 20
676.865135
 40
39.329965
 50
283.178208
 51
310.331403
  0
ARC
  8
APS_GEOMETR�
 10
4590.699654
 20
672.347463
 40
34.692363
 50
254.017517
 51
283.194123
  0
ARC
  8
APS_GEOMETR�
 10
4591.103536
 20
673.398031
 40
35.813666
 50
225.006789
 51
253.859128
  0
ARC
  8
APS_GEOMETR�
 10
4591.544864
 20
676.923229
 40
38.680179
 50
204.772862
 51
228.238104
  0
ARC
  8
APS_GEOMETR�
 10
4597.910016
 20
680.060219
 40
45.774411
 50
184.005509
 51
204.999636
  0
ARC
  8
APS_GEOMETR�
 10
4601.944881
 20
680.497151
 40
49.830179
 50
164.283846
 51
184.182604
  0
ARC
  8
APS_GEOMETR�
 10
4600.331638
 20
681.095251
 40
48.115438
 50
144.474287
 51
164.449079
  0
ARC
  8
APS_GEOMETR�
 10
4681.591258
 20
589.67822
 40
169.561558
 50
115.902365
 51
135.249262
  0
ARC
  8
APS_GEOMETR�
 10
4631.250569
 20
737.478009
 40
24.196732
 50
168.733041
 51
190.313766
  0
ARC
  8
APS_GEOMETR�
 10
4628.873975
 20
736.95507
 40
21.765094
 50
190.079512
 51
194.071714
  0
ARC
  8
APS_GEOMETR�
 10
4633.925471
 20
721.927971
 40
34.017333
 50
95.929763
 51
115.929358
  0
ARC
  8
APS_GEOMETR�
 10
4629.941241
 20
729.925733
 40
25.082667
 50
115.732842
 51
140.275778
  0
ARC
  8
APS_GEOMETR�
 10
4552.396606
 20
779.819209
 40
40.645578
 50
275.028408
 51
324.342194
  0
ARC
  8
APS_GEOMETR�
 10
4612.856571
 20
453.035182
 40
32.137399
 50
17.853382
 51
51.33472
  0
ARC
  8
APS_GEOMETR�
 10
4614.917374
 20
455.677747
 40
28.786563
 50
51.251322
 51
71.003024
  0
LINE
  8
APS_GEOMETR�
 10
4624.287925
 11
4630.994739
 20
482.896472
 21
487.28208
  0
ARC
  8
APS_GEOMETR�
 10
4647.134605
 20
492.511231
 40
16.965828
 50
165.52799
 51
197.951793
  0
ARC
  8
APS_GEOMETR�
 10
4643.882065
 20
493.434178
 40
13.586081
 50
138.958132
 51
165.868867
  0
ARC
  8
APS_GEOMETR�
 10
4642.725581
 20
494.425228
 40
12.063098
 50
110.469615
 51
138.901705
  0
ARC
  8
APS_GEOMETR�
 10
4642.949333
 20
493.720942
 40
12.801215
 50
82.621978
 51
110.305479
  0
LINE
  8
APS_GEOMETR�
 10
4644.593204
 11
4651.789414
 20
506.416169
 21
505.484471
  0
ARC
  8
APS_GEOMETR�
 10
4623.600842
 20
496.548541
 40
29.57104
 50
17.588897
 51
53.695237
  0
ARC
  8
APS_GEOMETR�
 10
4625.32936
 20
499.036884
 40
26.542437
 50
53.521849
 51
76.333642
  0
ARC
  8
APS_GEOMETR�
 10
4626.070067
 20
502.404414
 40
23.095368
 50
76.145342
 51
101.709615
  0
ARC
  8
APS_GEOMETR�
 10
4625.768783
 20
503.915014
 40
21.555062
 50
101.740355
 51
122.922823
  0
ARC
  8
APS_GEOMETR�
 10
4584.341488
 20
516.8733
 40
30.152412
 50
9.805554
 51
27.197717
  0
ARC
  8
APS_GEOMETR�
 10
4583.911664
 20
516.73849
 40
30.596425
 50
27.054363
 51
47.239829
  0
ARC
  8
APS_GEOMETR�
 10
4585.490728
 20
518.553255
 40
28.19204
 50
47.091979
 51
93.455562
  0
LINE
  8
APS_GEOMETR�
 10
4583.79147
 11
4591.341861
 20
546.694037
 21
538.392653
  0
ARC
  8
APS_GEOMETR�
 10
4576.967761
 20
525.319889
 40
19.429665
 50
21.172314
 51
42.285472
  0
ARC
  8
APS_GEOMETR�
 10
4578.119209
 20
525.686146
 40
18.223811
 50
359.487122
 51
21.406036
  0
ARC
  8
APS_GEOMETR�
 10
4581.266102
 20
525.581875
 40
15.076303
 50
335.431329
 51
359.776326
  0
ARC
  8
APS_GEOMETR�
 10
4583.737881
 20
524.395563
 40
12.335167
 50
308.702218
 51
335.669067
  0
ARC
  8
APS_GEOMETR�
 10
4584.160098
 20
523.922431
 40
11.701979
 50
280.953874
 51
308.537392
  0
ARC
  8
APS_GEOMETR�
 10
4583.892956
 20
525.364245
 40
13.168291
 50
257.314327
 51
280.902978
  0
ARC
  8
APS_GEOMETR�
 10
4601.855504
 20
544.47998
 40
38.164248
 50
211.397156
 51
236.877124
  0
ARC
  8
APS_GEOMETR�
 10
4602.164444
 20
544.963094
 40
38.680456
 50
185.551379
 51
211.769588
  0
ARC
  8
APS_GEOMETR�
 10
4595.771936
 20
544.610392
 40
32.284917
 50
156.122635
 51
186.025854
  0
ARC
  8
APS_GEOMETR�
 10
4604.851127
 20
548.319898
 40
39.719289
 50
140.059179
 51
166.371625
  0
ARC
  8
APS_GEOMETR�
 10
4601.844289
 20
550.81562
 40
35.811682
 50
112.610118
 51
140.032158
  0
ARC
  8
APS_GEOMETR�
 10
4602.28874
 20
549.51287
 40
37.185289
 50
85.588659
 51
112.470579
  0
ARC
  8
APS_GEOMETR�
 10
4601.908631
 20
542.817267
 40
43.890504
 50
61.303516
 51
85.766222
  0
ARC
  8
APS_GEOMETR�
 10
4596.274428
 20
523.531122
 40
63.659855
 50
42.644976
 51
65.193226
  0
ARC
  8
APS_GEOMETR�
 10
4592.476281
 20
519.691997
 40
69.054926
 50
21.561437
 51
42.853119
  0
ARC
  8
APS_GEOMETR�
 10
4595.94473
 20
520.811787
 40
65.41808
 50
359.715579
 51
21.7657
  0
ARC
  8
APS_GEOMETR�
 10
4605.817051
 20
520.507707
 40
55.544957
 50
335.301205
 51
359.978689
  0
ARC
  8
APS_GEOMETR�
 10
3758.137052
 20
812.684627
 40
951.90877
 50
338.440409
 51
340.651096
  0
ARC
  8
APS_GEOMETR�
 10
4691.951007
 20
433.310891
 40
26.755179
 50
127.734296
 51
136.256601
  0
ARC
  8
APS_GEOMETR�
 10
4693.243785
 20
432.112145
 40
28.518001
 50
136.312533
 51
161.937362
  0
ARC
  8
APS_GEOMETR�
 10
4697.346438
 20
430.66305
 40
32.867938
 50
161.753232
 51
187.470644
  0
ARC
  8
APS_GEOMETR�
 10
4688.526021
 20
450.935178
 40
34.167634
 50
225.921406
 51
251.784778
  0
ARC
  8
APS_GEOMETR�
 10
4687.135953
 20
446.339487
 40
29.367949
 50
251.558183
 51
277.666306
  0
ARC
  8
APS_GEOMETR�
 10
4687.475648
 20
443.817144
 40
26.822835
 50
277.665944
 51
288.008081
  0
ARC
  8
APS_GEOMETR�
 10
4717.712148
 20
419.662547
 40
21.985939
 50
183.531479
 51
202.655354
  0
ARC
  8
APS_GEOMETR�
 10
4718.466915
 20
419.921083
 40
22.782112
 50
202.524225
 51
222.801571
  0
ARC
  8
APS_GEOMETR�
 10
4717.535243
 20
418.983373
 40
21.461466
 50
222.65481
 51
243.961822
  0
ARC
  8
APS_GEOMETR�
 10
4716.483769
 20
416.701119
 40
18.949377
 50
243.789203
 51
267.49263
  0
ARC
  8
APS_GEOMETR�
 10
4716.429009
 20
414.730598
 40
16.978376
 50
267.386336
 51
293.478625
  0
ARC
  8
APS_GEOMETR�
 10
4716.551201
 20
414.382242
 40
16.6102
 50
293.570765
 51
347.908246
  0
LINE
  8
APS_GEOMETR�
 10
4732.792877
 11
4725.872347
 20
410.902773
 21
410.282474
  0
ARC
  8
APS_GEOMETR�
 10
4725.271982
 20
416.981017
 40
6.725394
 50
251.086469
 51
275.121518
  0
ARC
  8
APS_GEOMETR�
 10
4725.831155
 20
418.761292
 40
8.590935
 50
229.840649
 51
251.407116
  0
ARC
  8
APS_GEOMETR�
 10
4726.704943
 20
419.864675
 40
9.997815
 50
210.042231
 51
230.091617
  0
ARC
  8
APS_GEOMETR�
 10
4726.697239
 20
419.902704
 40
10.010252
 50
190.2189
 51
210.252732
  0
ARC
  8
APS_GEOMETR�
 10
4725.321761
 20
419.689651
 40
8.618864
 50
168.905197
 51
190.447249
  0
ARC
  8
APS_GEOMETR�
 10
4723.496772
 20
420.089052
 40
6.751249
 50
145.244621
 51
169.251017
  0
ARC
  8
APS_GEOMETR�
 10
4722.561249
 20
420.743667
 40
5.609452
 50
120.258705
 51
145.290687
  0
ARC
  8
APS_GEOMETR�
 10
4723.330531
 20
418.497329
 40
7.951146
 50
91.068647
 51
116.888203
  0
ARC
  8
APS_GEOMETR�
 10
4723.380527
 20
416.853333
 40
9.595808
 50
66.919027
 51
91.184046
  0
ARC
  8
APS_GEOMETR�
 10
4722.510661
 20
414.6408
 40
11.972435
 50
45.506987
 51
67.240373
  0
ARC
  8
APS_GEOMETR�
 10
4721.517026
 20
413.553588
 40
13.444449
 50
25.283652
 51
45.733482
  0
ARC
  8
APS_GEOMETR�
 10
4721.960827
 20
413.709119
 40
12.976827
 50
3.318424
 51
25.499626
  0
ARC
  8
APS_GEOMETR�
 10
4688.556806
 20
402.550083
 40
47.86458
 50
350.005239
 51
14.408359
  0
ARC
  8
APS_GEOMETR�
 10
4696.92404
 20
400.850423
 40
39.329965
 50
323.174965
 51
350.32816
  0
ARC
  8
APS_GEOMETR�
 10
4700.630524
 20
398.063052
 40
34.692363
 50
294.014275
 51
323.190881
  0
ARC
  8
APS_GEOMETR�
 10
4700.264684
 20
399.127466
 40
35.813666
 50
265.003545
 51
293.855886
  0
ARC
  8
APS_GEOMETR�
 10
4698.336977
 20
402.111713
 40
38.680179
 50
244.769617
 51
268.234858
  0
ARC
  8
APS_GEOMETR�
 10
4701.196914
 20
408.606067
 40
45.774411
 50
224.002265
 51
244.996393
  0
ARC
  8
APS_GEOMETR�
 10
4704.007112
 20
411.534177
 40
49.830179
 50
204.280601
 51
224.17936
  0
ARC
  8
APS_GEOMETR�
 10
4702.386812
 20
410.955468
 40
48.115438
 50
184.471043
 51
204.445836
  0
ARC
  8
APS_GEOMETR�
 10
4823.396019
 20
393.151783
 40
169.561558
 50
155.899121
 51
175.246017
  0
ARC
  8
APS_GEOMETR�
 10
4689.833521
 20
474.022182
 40
24.196732
 50
208.729796
 51
230.310521
  0
ARC
  8
APS_GEOMETR�
 10
4688.34897
 20
472.094029
 40
21.765094
 50
230.076274
 51
234.068477
  0
ARC
  8
APS_GEOMETR�
 10
4701.877409
 20
463.828874
 40
34.017333
 50
135.926518
 51
155.926114
  0
ARC
  8
APS_GEOMETR�
 10
4693.684651
 20
467.394965
 40
25.082667
 50
155.729597
 51
180.272532
  0
ARC
  8
APS_GEOMETR�
 10
4602.210448
 20
455.776034
 40
40.645578
 50
315.025164
 51
4.33895
  0
ARC
  8
APS_GEOMETR�
 10
4858.566218
 20
244.293347
 40
32.137399
 50
57.850138
 51
91.331476
  0
ARC
  8
APS_GEOMETR�
 10
4858.446462
 20
247.642335
 40
28.786563
 50
91.248071
 51
110.999773
  0
LINE
  8
APS_GEOMETR�
 10
4848.130387
 11
4850.449525
 20
274.516947
 21
282.187443
  0
ARC
  8
APS_GEOMETR�
 10
4859.45296
 20
296.567202
 40
16.965828
 50
205.524747
 51
237.948549
  0
ARC
  8
APS_GEOMETR�
 10
4856.368033
 20
295.183702
 40
13.586081
 50
178.95489
 51
205.865625
  0
ARC
  8
APS_GEOMETR�
 10
4854.845081
 20
295.199601
 40
12.063098
 50
150.466364
 51
178.898455
  0
ARC
  8
APS_GEOMETR�
 10
4855.469169
 20
294.803877
 40
12.801215
 50
122.618732
 51
150.302231
  0
LINE
  8
APS_GEOMETR�
 10
4848.568723
 11
4854.680445
 20
305.586036
 21
309.497603
  0
ARC
  8
APS_GEOMETR�
 10
4838.829239
 20
284.533916
 40
29.57104
 50
57.585655
 51
93.691995
  0
ARC
  8
APS_GEOMETR�
 10
4838.554049
 20
287.551182
 40
26.542437
 50
93.518595
 51
116.330388
  0
ARC
  8
APS_GEOMETR�
 10
4836.957036
 20
290.60707
 40
23.095368
 50
116.142101
 51
141.706375
  0
ARC
  8
APS_GEOMETR�
 10
4835.755297
 20
291.570662
 40
21.555062
 50
141.737112
 51
162.919579
  0
ARC
  8
APS_GEOMETR�
 10
4795.689778
 20
274.870602
 40
30.152412
 50
49.802312
 51
67.194475
  0
ARC
  8
APS_GEOMETR�
 10
4795.447145
 20
274.49106
 40
30.596425
 50
67.051118
 51
87.236583
  0
ARC
  8
APS_GEOMETR�
 10
4795.490407
 20
276.89625
 40
28.19204
 50
87.088736
 51
133.452319
  0
LINE
  8
APS_GEOMETR�
 10
4776.101312
 11
4787.221189
 20
297.362176
 21
295.855614
  0
ARC
  8
APS_GEOMETR�
 10
4784.611913
 20
276.60195
 40
19.429665
 50
61.169079
 51
82.282237
  0
ARC
  8
APS_GEOMETR�
 10
4785.258601
 20
277.622621
 40
18.223811
 50
39.483876
 51
61.402788
  0
ARC
  8
APS_GEOMETR�
 10
4787.736396
 20
279.565387
 40
15.076303
 50
15.428083
 51
39.773083
  0
ARC
  8
APS_GEOMETR�
 10
4790.392474
 20
280.245297
 40
12.335167
 50
348.69898
 51
15.665827
  0
ARC
  8
APS_GEOMETR�
 10
4791.02003
 20
280.154218
 40
11.701979
 50
320.95063
 51
348.534149
  0
ARC
  8
APS_GEOMETR�
 10
4789.888661
 20
281.087061
 40
13.168291
 50
297.311075
 51
320.899728
  0
ARC
  8
APS_GEOMETR�
 10
4791.362895
 20
307.276582
 40
38.164248
 50
251.393911
 51
276.873879
  0
ARC
  8
APS_GEOMETR�
 10
4791.289049
 20
307.845257
 40
38.680456
 50
225.548137
 51
251.766343
  0
ARC
  8
APS_GEOMETR�
 10
4786.618567
 20
303.466311
 40
32.284917
 50
196.119392
 51
226.022613
  0
ARC
  8
APS_GEOMETR�
 10
4791.1897
 20
312.143689
 40
39.719289
 50
180.055934
 51
206.368379
  0
ARC
  8
APS_GEOMETR�
 10
4787.282107
 20
312.122988
 40
35.811682
 50
152.606876
 51
180.028917
  0
ARC
  8
APS_GEOMETR�
 10
4788.459927
 20
311.410643
 40
37.185289
 50
125.585414
 51
152.467335
  0
ARC
  8
APS_GEOMETR�
 10
4792.472293
 20
306.036956
 40
43.890504
 50
101.30027
 51
125.762975
  0
ARC
  8
APS_GEOMETR�
 10
4800.5521
 20
287.64086
 40
63.659855
 50
82.641735
 51
105.189984
  0
ARC
  8
APS_GEOMETR�
 10
4800.109982
 20
282.258544
 40
69.054926
 50
61.558191
 51
82.849872
  0
ARC
  8
APS_GEOMETR�
 10
4802.04736
 20
285.345716
 40
65.41808
 50
39.712337
 51
61.762458
  0
ARC
  8
APS_GEOMETR�
 10
4809.8058
 20
291.458145
 40
55.544957
 50
15.297961
 51
39.975445
  0
ARC
  8
APS_GEOMETR�
 10
3972.61936
 20
-29.55213
 40
951.90877
 50
18.437164
 51
20.64785
  0
ARC
  8
APS_GEOMETR�
 10
4931.836624
 20
280.020439
 40
26.755179
 50
167.731052
 51
176.253357
  0
ARC
  8
APS_GEOMETR�
 10
4933.597484
 20
279.93303
 40
28.518001
 50
176.309291
 51
201.934119
  0
ARC
  8
APS_GEOMETR�
 10
4937.671845
 20
281.459862
 40
32.867938
 50
201.749989
 51
227.467402
  0
ARC
  8
APS_GEOMETR�
 10
4917.884898
 20
291.320678
 40
34.167634
 50
265.918164
 51
291.781533
  0
ARC
  8
APS_GEOMETR�
 10
4919.773849
 20
286.906549
 40
29.367949
 50
291.554935
 51
317.66306
  0
ARC
  8
APS_GEOMETR�
 10
4921.655307
 20
285.192571
 40
26.822835
 50
317.662689
 51
328.004826
  0
ARC
  8
APS_GEOMETR�
 10
4960.344133
 20
286.12253
 40
21.985939
 50
223.528241
 51
242.652115
  0
ARC
  8
APS_GEOMETR�
 10
4960.756177
 20
286.805711
 40
22.782112
 50
242.520977
 51
262.798321
  0
ARC
  8
APS_GEOMETR�
 10
4960.645146
 20
285.488522
 40
21.461466
 50
262.651565
 51
283.958577
  0
ARC
  8
APS_GEOMETR�
 10
4961.306538
 20
283.064302
 40
18.949377
 50
283.78596
 51
307.489388
  0
ARC
  8
APS_GEOMETR�
 10
4962.531129
 20
281.519527
 40
16.978376
 50
307.383088
 51
333.475377
  0
ARC
  8
APS_GEOMETR�
 10
4962.848642
 20
281.331196
 40
16.6102
 50
333.567521
 51
27.905
  0
LINE
  8
APS_GEOMETR�
 10
4977.527487
 11
4972.624495
 20
289.104885
 21
284.181556
  0
ARC
  8
APS_GEOMETR�
 10
4967.859116
 20
288.9273
 40
6.725394
 50
291.083237
 51
315.118285
  0
ARC
  8
APS_GEOMETR�
 10
4967.143227
 20
290.65054
 40
8.590935
 50
269.837404
 51
291.40387
  0
ARC
  8
APS_GEOMETR�
 10
4967.103428
 20
292.057442
 40
9.997815
 50
250.038979
 51
270.088368
  0
ARC
  8
APS_GEOMETR�
 10
4967.073081
 20
292.081624
 40
10.010252
 50
230.215664
 51
250.249492
  0
ARC
  8
APS_GEOMETR�
 10
4966.156295
 20
291.034326
 40
8.618864
 50
208.901939
 51
230.44399
  0
ARC
  8
APS_GEOMETR�
 10
4964.501491
 20
290.167302
 40
6.751249
 50
185.2414
 51
209.247791
  0
ARC
  8
APS_GEOMETR�
 10
4963.364054
 20
290.067486
 40
5.609452
 50
160.255469
 51
185.287452
  0
ARC
  8
APS_GEOMETR�
 10
4965.397208
 20
288.84106
 40
7.951146
 50
131.065403
 51
156.884958
  0
ARC
  8
APS_GEOMETR�
 10
4966.49218
 20
287.613764
 40
9.595808
 50
106.915795
 51
131.18082
  0
ARC
  8
APS_GEOMETR�
 10
4967.247882
 20
285.359682
 40
11.972435
 50
85.503738
 51
107.237123
  0
ARC
  8
APS_GEOMETR�
 10
4967.185477
 20
283.888136
 40
13.444449
 50
65.280404
 51
85.730236
  0
ARC
  8
APS_GEOMETR�
 10
4967.425497
 20
284.292536
 40
12.976827
 50
43.315176
 51
65.496376
  0
ARC
  8
APS_GEOMETR�
 10
4949.007724
 20
254.27357
 40
47.86458
 50
30.001994
 51
54.405115
  0
ARC
  8
APS_GEOMETR�
 10
4956.510149
 20
258.349483
 40
39.329965
 50
3.171723
 51
30.324918
  0
ARC
  8
APS_GEOMETR�
 10
4961.141181
 20
258.596457
 40
34.692363
 50
334.011027
 51
3.187634
  0
ARC
  8
APS_GEOMETR�
 10
4960.176771
 20
259.17674
 40
35.813666
 50
305.000302
 51
333.852642
  0
ARC
  8
APS_GEOMETR�
 10
4956.781885
 20
260.223893
 40
38.680179
 50
284.766373
 51
308.231614
  0
ARC
  8
APS_GEOMETR�
 10
4954.798619
 20
267.0373
 40
45.774411
 50
263.999024
 51
284.993151
  0
ARC
  8
APS_GEOMETR�
 10
4955.069434
 20
271.086708
 40
49.830179
 50
244.277356
 51
264.176115
  0
ARC
  8
APS_GEOMETR�
 10
4954.200112
 20
269.601933
 40
48.115438
 50
224.467801
 51
244.442593
  0
ARC
  8
APS_GEOMETR�
 10
5058.346164
 20
333.740838
 40
169.561558
 50
195.895876
 51
215.242773
  0
ARC
  8
APS_GEOMETR�
 10
4904.04751
 20
309.847578
 40
24.196732
 50
248.726554
 51
270.30728
  0
ARC
  8
APS_GEOMETR�
 10
4904.149545
 20
307.41627
 40
21.765094
 50
270.073006
 51
274.065205
  0
ARC
  8
APS_GEOMETR�
 10
4919.825793
 20
309.779819
 40
34.017333
 50
175.923274
 51
195.92287
  0
ARC
  8
APS_GEOMETR�
 10
4911.257393
 20
307.245885
 40
25.082667
 50
195.726352
 51
220.269288
  0
ARC
  8
APS_GEOMETR�
 10
4848.648761
 20
239.550328
 40
40.645578
 50
355.02192
 51
44.335705
  0
ARC
  8
APS_GEOMETR�
 10
5180.967281
 20
242.308688
 40
32.137399
 50
97.846894
 51
131.328232
  0
ARC
  8
APS_GEOMETR�
 10
5178.722998
 20
244.797313
 40
28.786563
 50
131.244834
 51
150.996535
  0
LINE
  8
APS_GEOMETR�
 10
5153.546547
 11
5150.393026
 20
258.754838
 21
266.121671
  0
ARC
  8
APS_GEOMETR�
 10
5148.047877
 20
282.924635
 40
16.965828
 50
245.521505
 51
277.945309
  0
ARC
  8
APS_GEOMETR�
 10
5146.57381
 20
279.881943
 40
13.586081
 50
218.951648
 51
245.862382
  0
ARC
  8
APS_GEOMETR�
 10
5145.396888
 20
278.915252
 40
12.063098
 50
190.463115
 51
218.895203
  0
ARC
  8
APS_GEOMETR�
 10
5146.129339
 20
279.013227
 40
12.801215
 50
162.615492
 51
190.298991
  0
LINE
  8
APS_GEOMETR�
 10
5133.912869
 11
5136.080806
 20
282.838009
 21
289.762861
  0
ARC
  8
APS_GEOMETR�
 10
5139.982767
 20
260.450387
 40
29.57104
 50
97.582413
 51
133.688754
  0
ARC
  8
APS_GEOMETR�
 10
5137.832618
 20
262.58498
 40
26.542437
 50
133.515351
 51
156.327145
  0
ARC
  8
APS_GEOMETR�
 10
5134.645022
 20
263.899564
 40
23.095368
 50
156.138855
 51
181.703127
  0
ARC
  8
APS_GEOMETR�
 10
5133.105049
 20
263.865345
 40
21.555062
 50
181.733869
 51
202.916337
  0
ARC
  8
APS_GEOMETR�
 10
5113.145491
 20
225.319867
 40
30.152412
 50
89.799068
 51
107.191229
  0
ARC
  8
APS_GEOMETR�
 10
5113.203563
 20
224.873156
 40
30.596425
 50
107.047872
 51
127.233339
  0
ARC
  8
APS_GEOMETR�
 10
5111.690783
 20
226.743532
 40
28.19204
 50
127.085491
 51
173.449073
  0
LINE
  8
APS_GEOMETR�
 10
5083.682813
 11
5093.169872
 20
229.959858
 21
235.952946
  0
ARC
  8
APS_GEOMETR�
 10
5103.546134
 20
219.525984
 40
19.429665
 50
101.165827
 51
122.278984
  0
ARC
  8
APS_GEOMETR�
 10
5103.385525
 20
220.723557
 40
18.223811
 50
79.480638
 51
101.399551
  0
ARC
  8
APS_GEOMETR�
 10
5104.03501
 20
223.804462
 40
15.076303
 50
55.424836
 51
79.769834
  0
ARC
  8
APS_GEOMETR�
 10
5105.632773
 20
226.032507
 40
12.335167
 50
28.69573
 51
55.662577
  0
ARC
  8
APS_GEOMETR�
 10
5106.172073
 20
226.366089
 40
11.701979
 50
0.947391
 51
28.53091
  0
ARC
  8
APS_GEOMETR�
 10
5104.705773
 20
226.353542
 40
13.168291
 50
337.307835
 51
0.896486
  0
ARC
  8
APS_GEOMETR�
 10
5089.001991
 20
247.364388
 40
38.164248
 50
291.390668
 51
316.870637
  0
ARC
  8
APS_GEOMETR�
 10
5088.579909
 20
247.752575
 40
38.680456
 50
265.544891
 51
291.763097
  0
ARC
  8
APS_GEOMETR�
 10
5087.816482
 20
241.396024
 40
32.284917
 50
236.116148
 51
266.019371
  0
ARC
  8
APS_GEOMETR�
 10
5085.741006
 20
250.981665
 40
39.719289
 50
220.052689
 51
246.365133
  0
ARC
  8
APS_GEOMETR�
 10
5082.76078
 20
248.454223
 40
35.811682
 50
192.603631
 51
220.02567
  0
ARC
  8
APS_GEOMETR�
 10
5084.12094
 20
248.665549
 40
37.185289
 50
165.582173
 51
192.464094
  0
ARC
  8
APS_GEOMETR�
 10
5090.648642
 20
247.127794
 40
43.890504
 50
141.297026
 51
165.759732
  0
ARC
  8
APS_GEOMETR�
 10
5108.662412
 20
238.228147
 40
63.659855
 50
122.638491
 51
145.186739
  0
ARC
  8
APS_GEOMETR�
 10
5111.783169
 20
233.820689
 40
69.054926
 50
101.554947
 51
122.846629
  0
ARC
  8
APS_GEOMETR�
 10
5111.283092
 20
237.430951
 40
65.41808
 50
79.709091
 51
101.759212
  0
ARC
  8
APS_GEOMETR�
 10
5113.297957
 20
247.100258
 40
55.544957
 50
55.294717
 51
79.9722
  0
ARC
  8
APS_GEOMETR�
 10
4678.272987
 20
-536.916329
 40
951.90877
 50
58.433921
 51
60.644607
  0
ARC
  8
APS_GEOMETR�
 10
5214.134953
 20
316.772659
 40
26.755179
 50
207.727807
 51
216.250113
  0
ARC
  8
APS_GEOMETR�
 10
5215.540096
 20
317.837479
 40
28.518001
 50
216.306047
 51
241.930875
  0
ARC
  8
APS_GEOMETR�
 10
5217.680022
 20
321.625928
 40
32.867938
 50
241.746746
 51
267.464157
  0
ARC
  8
APS_GEOMETR�
 10
5196.18364
 20
316.462165
 40
34.167634
 50
305.914919
 51
331.778287
  0
ARC
  8
APS_GEOMETR�
 10
5200.467885
 20
314.294697
 40
29.367949
 50
331.551691
 51
357.659816
  0
ARC
  8
APS_GEOMETR�
 10
5203.010883
 20
314.190943
 40
26.822835
 50
357.659455
 51
8.001591
  0
ARC
  8
APS_GEOMETR�
 10
5232.051927
 20
339.770391
 40
21.985939
 50
263.524991
 51
282.648867
  0
ARC
  8
APS_GEOMETR�
 10
5231.928472
 20
340.5586
 40
22.782112
 50
282.517739
 51
302.795084
  0
ARC
  8
APS_GEOMETR�
 10
5232.69003
 20
339.478164
 40
21.461466
 50
302.648324
 51
323.955336
  0
ARC
  8
APS_GEOMETR�
 10
5234.754864
 20
338.046122
 40
18.949377
 50
323.782715
 51
347.486143
  0
ARC
  8
APS_GEOMETR�
 10
5236.685894
 20
337.649799
 40
16.978376
 50
347.379843
 51
13.472132
  0
ARC
  8
APS_GEOMETR�
 10
5237.050184
 20
337.709601
 40
16.6102
 50
13.564277
 51
67.901757
  0
LINE
  8
APS_GEOMETR�
 10
5243.298872
 11
5242.707225
 20
353.099618
 21
346.17658
  0
ARC
  8
APS_GEOMETR�
 10
5236.00626
 20
346.749283
 40
6.725394
 50
331.079995
 51
355.115039
  0
ARC
  8
APS_GEOMETR�
 10
5234.350227
 20
347.609289
 40
8.590935
 50
309.834171
 51
331.400644
  0
ARC
  8
APS_GEOMETR�
 10
5233.415463
 20
348.661513
 40
9.997815
 50
290.035721
 51
310.085104
  0
ARC
  8
APS_GEOMETR�
 10
5233.376669
 20
348.660532
 40
10.010252
 50
270.212424
 51
290.246254
  0
ARC
  8
APS_GEOMETR�
 10
5233.34748
 20
347.268958
 40
8.618864
 50
248.898702
 51
270.440757
  0
ARC
  8
APS_GEOMETR�
 10
5232.637044
 20
345.541131
 40
6.751249
 50
225.238146
 51
249.244534
  0
ARC
  8
APS_GEOMETR�
 10
5231.829832
 20
344.733583
 40
5.609452
 50
200.252209
 51
225.284197
  0
ARC
  8
APS_GEOMETR�
 10
5234.175669
 20
345.100841
 40
7.951146
 50
171.062164
 51
196.881715
  0
ARC
  8
APS_GEOMETR�
 10
5235.803344
 20
344.864418
 40
9.595808
 50
146.912549
 51
171.177574
  0
ARC
  8
APS_GEOMETR�
 10
5237.831071
 20
343.623332
 40
11.972435
 50
125.500494
 51
147.233877
  0
ARC
  8
APS_GEOMETR�
 10
5238.729092
 20
342.455899
 40
13.444449
 50
105.277163
 51
125.726994
  0
ARC
  8
APS_GEOMETR�
 10
5238.653043
 20
342.919975
 40
12.976827
 50
83.31194
 51
105.493143
  0
ARC
  8
APS_GEOMETR�
 10
5243.838054
 20
308.085102
 40
47.86458
 50
69.99875
 51
94.401869
  0
ARC
  8
APS_GEOMETR�
 10
5246.965748
 20
316.029722
 40
39.329965
 50
43.168477
 51
70.321672
  0
ARC
  8
APS_GEOMETR�
 10
5250.354754
 20
319.195491
 40
34.692363
 50
14.007784
 51
43.184391
  0
ARC
  8
APS_GEOMETR�
 10
5249.242964
 20
319.020166
 40
35.813666
 50
344.997059
 51
13.849398
  0
ARC
  8
APS_GEOMETR�
 10
5245.969155
 20
317.640326
 40
38.680179
 50
324.76313
 51
348.228372
  0
ARC
  8
APS_GEOMETR�
 10
5240.070537
 20
321.585217
 40
45.774411
 50
303.995776
 51
324.989903
  0
ARC
  8
APS_GEOMETR�
 10
5237.675266
 20
324.861453
 40
49.830179
 50
284.274114
 51
304.172873
  0
ARC
  8
APS_GEOMETR�
 10
5237.963628
 20
323.165244
 40
48.115438
 50
264.464556
 51
284.439349
  0
ARC
  8
APS_GEOMETR�
 10
5276.523011
 20
439.240105
 40
169.561558
 50
235.892632
 51
255.239529
  0
ARC
  8
APS_GEOMETR�
 10
5173.675024
 20
321.761365
 40
24.196732
 50
288.723312
 51
310.304036
  0
ARC
  8
APS_GEOMETR�
 10
5175.315892
 20
319.964363
 40
21.765094
 50
310.069788
 51
314.061988
  0
ARC
  8
APS_GEOMETR�
 10
5185.806015
 20
331.850857
 40
34.017333
 50
215.92003
 51
235.919626
  0
ARC
  8
APS_GEOMETR�
 10
5180.870599
 20
324.402369
 40
25.082667
 50
235.72311
 51
260.266047
  0
ARC
  8
APS_GEOMETR�
 10
5176.418255
 20
232.300763
 40
40.645578
 50
35.018676
 51
84.332461
  0
ARC
  8
APS_GEOMETR�
 10
5429.228186
 20
448.009703
 40
32.137399
 50
137.84365
 51
171.324988
  0
ARC
  8
APS_GEOMETR�
 10
5425.909334
 20
448.47369
 40
28.786563
 50
171.241586
 51
190.99329
  0
LINE
  8
APS_GEOMETR�
 10
5397.651018
 11
5390.500178
 20
442.984264
 21
446.600947
  0
ARC
  8
APS_GEOMETR�
 10
5377.903595
 20
457.966044
 40
16.965828
 50
285.518264
 51
317.942069
  0
ARC
  8
APS_GEOMETR�
 10
5378.730014
 20
454.687648
 40
13.586081
 50
258.948402
 51
285.859138
  0
ARC
  8
APS_GEOMETR�
 10
5378.449731
 20
453.190625
 40
12.063098
 50
230.459869
 51
258.891961
  0
ARC
  8
APS_GEOMETR�
 10
5378.947875
 20
453.73646
 40
12.801215
 50
202.612243
 51
230.295743
  0
LINE
  8
APS_GEOMETR�
 10
5367.130714
 11
5364.340621
 20
448.814488
 21
455.512912
  0
ARC
  8
APS_GEOMETR�
 10
5386.170262
 20
435.56515
 40
29.57104
 50
137.579168
 51
173.685508
  0
ARC
  8
APS_GEOMETR�
 10
5383.151077
 20
435.818426
 40
26.542437
 50
173.512108
 51
196.323902
  0
ARC
  8
APS_GEOMETR�
 10
5379.864178
 20
434.776695
 40
23.095368
 50
196.135612
 51
221.699884
  0
ARC
  8
APS_GEOMETR�
 10
5378.70643
 20
433.760671
 40
21.555062
 50
221.730621
 51
242.913091
  0
ARC
  8
APS_GEOMETR�
 10
5388.190678
 20
391.402827
 40
30.152412
 50
129.795822
 51
147.187984
  0
ARC
  8
APS_GEOMETR�
 10
5388.522286
 20
391.097935
 40
30.596425
 50
147.044627
 51
167.230092
  0
ARC
  8
APS_GEOMETR�
 10
5386.161202
 20
391.558466
 40
28.19204
 50
167.082249
 51
213.445832
  0
LINE
  8
APS_GEOMETR�
 10
5362.637559
 11
5366.053389
 20
376.020469
 21
386.709412
  0
ARC
  8
APS_GEOMETR�
 10
5384.56078
 20
380.794316
 40
19.429665
 50
141.162586
 51
162.275744
  0
ARC
  8
APS_GEOMETR�
 10
5383.668005
 20
381.608521
 40
18.223811
 50
119.477391
 51
141.396305
  0
ARC
  8
APS_GEOMETR�
 10
5382.185331
 20
384.386197
 40
15.076303
 50
95.421593
 51
119.766591
  0
ARC
  8
APS_GEOMETR�
 10
5381.977283
 20
387.120012
 40
12.335167
 50
68.692486
 51
95.659334
  0
ARC
  8
APS_GEOMETR�
 10
5382.176021
 20
387.722195
 40
11.701979
 50
40.94414
 51
68.527657
  0
ARC
  8
APS_GEOMETR�
 10
5381.060784
 20
386.770125
 40
13.168291
 50
17.304597
 51
40.893253
  0
ARC
  8
APS_GEOMETR�
 10
5355.525818
 20
392.77262
 40
38.164248
 50
331.38742
 51
356.867389
  0
ARC
  8
APS_GEOMETR�
 10
5354.952962
 20
392.798708
 40
38.680456
 50
305.541648
 51
331.759855
  0
ARC
  8
APS_GEOMETR�
 10
5358.453754
 20
387.43839
 40
32.284917
 50
276.112902
 51
306.016122
  0
ARC
  8
APS_GEOMETR�
 10
5350.702654
 20
393.447765
 40
39.719289
 50
260.049445
 51
286.361891
  0
ARC
  8
APS_GEOMETR�
 10
5350.044058
 20
389.596017
 40
35.811682
 50
232.600389
 51
260.022428
  0
ARC
  8
APS_GEOMETR�
 10
5350.950224
 20
390.632144
 40
37.185289
 50
205.578927
 51
232.460848
  0
ARC
  8
APS_GEOMETR�
 10
5356.939355
 20
393.649742
 40
43.890504
 50
181.29378
 51
205.756486
  0
ARC
  8
APS_GEOMETR�
 10
5376.459556
 20
398.410139
 40
63.659855
 50
162.635245
 51
185.183494
  0
ARC
  8
APS_GEOMETR�
 10
5381.683177
 20
397.039523
 40
69.054926
 50
141.551706
 51
162.843388
  0
ARC
  8
APS_GEOMETR�
 10
5378.979601
 20
399.483852
 40
65.41808
 50
119.705848
 51
141.755969
  0
ARC
  8
APS_GEOMETR�
 10
5374.308258
 20
408.186365
 40
55.544957
 50
95.291472
 51
119.968956
  0
ARC
  8
APS_GEOMETR�
 10
5544.966106
 20
-472.04351
 40
951.90877
 50
98.430677
 51
100.641363
  0
ARC
  8
APS_GEOMETR�
 10
5406.776015
 20
526.373454
 40
26.755179
 50
247.724563
 51
256.246869
  0
ARC
  8
APS_GEOMETR�
 10
5407.168063
 20
528.092339
 40
28.518001
 50
256.302799
 51
281.927628
  0
ARC
  8
APS_GEOMETR�
 10
5406.372414
 20
532.370022
 40
32.867938
 50
281.743503
 51
307.460914
  0
ARC
  8
APS_GEOMETR�
 10
5393.223427
 20
514.597486
 40
34.167634
 50
345.911675
 51
11.775046
  0
ARC
  8
APS_GEOMETR�
 10
5397.898632
 20
515.690704
 40
29.367949
 50
11.548451
 51
37.656575
  0
ARC
  8
APS_GEOMETR�
 10
5399.91346
 20
517.245719
 40
26.822835
 50
37.656209
 51
47.998345
  0
ARC
  8
APS_GEOMETR�
 10
5405.720205
 20
555.507607
 40
21.985939
 50
303.521749
 51
322.645625
  0
ARC
  8
APS_GEOMETR�
 10
5405.119012
 20
556.032091
 40
22.782112
 50
322.514491
 51
342.791836
  0
ARC
  8
APS_GEOMETR�
 10
5406.396872
 20
555.693876
 40
21.461466
 50
342.645077
 51
3.952091
  0
ARC
  8
APS_GEOMETR�
 10
5408.899138
 20
555.923975
 40
18.949377
 50
3.77947
 51
27.482898
  0
ARC
  8
APS_GEOMETR�
 10
5410.633199
 20
556.861518
 40
16.978376
 50
27.376601
 51
53.468891
  0
ARC
  8
APS_GEOMETR�
 10
5410.873836
 20
557.141476
 40
16.6102
 50
53.561036
 51
107.898515
  0
LINE
  8
APS_GEOMETR�
 10
5405.768991
 11
5409.765485
 20
572.947782
 21
567.263898
  0
ARC
  8
APS_GEOMETR�
 10
5404.263902
 20
563.395628
 40
6.725394
 50
11.076741
 51
35.111793
  0
ARC
  8
APS_GEOMETR�
 10
5402.442483
 20
562.990058
 40
8.590935
 50
349.830918
 51
11.397388
  0
ARC
  8
APS_GEOMETR�
 10
5401.050067
 20
563.195328
 40
9.997815
 50
330.03249
 51
350.081874
  0
ARC
  8
APS_GEOMETR�
 10
5401.020981
 20
563.169646
 40
10.010252
 50
310.209163
 51
330.242992
  0
ARC
  8
APS_GEOMETR�
 10
5401.893043
 20
562.084824
 40
8.618864
 50
288.89547
 51
310.437524
  0
ARC
  8
APS_GEOMETR�
 10
5402.459343
 20
560.304541
 40
6.751249
 50
265.234908
 51
289.241297
  0
ARC
  8
APS_GEOMETR�
 10
5402.360001
 20
559.167063
 40
5.609452
 50
240.248963
 51
265.280947
  0
ARC
  8
APS_GEOMETR�
 10
5403.921049
 20
560.956185
 40
7.951146
 50
211.058921
 51
236.878472
  0
ARC
  8
APS_GEOMETR�
 10
5405.319939
 20
561.821246
 40
9.595808
 50
186.909302
 51
211.174329
  0
ARC
  8
APS_GEOMETR�
 10
5407.671042
 20
562.173785
 40
11.972435
 50
165.497258
 51
187.230643
  0
ARC
  8
APS_GEOMETR�
 10
5409.109359
 20
561.856633
 40
13.444449
 50
145.273917
 51
165.723748
  0
ARC
  8
APS_GEOMETR�
 10
5408.752816
 20
562.16327
 40
12.976827
 50
123.308686
 51
145.489886
  0
ARC
  8
APS_GEOMETR�
 10
5435.114871
 20
538.809581
 40
47.86458
 50
109.995508
 51
134.398629
  0
ARC
  8
APS_GEOMETR�
 10
5432.404575
 20
546.906108
 40
39.329965
 50
83.165231
 51
110.318426
  0
ARC
  8
APS_GEOMETR�
 10
5432.966051
 20
551.509607
 40
34.692363
 50
54.004542
 51
83.18115
  0
ARC
  8
APS_GEOMETR�
 10
5432.227016
 20
550.6607
 40
35.813666
 50
24.99381
 51
53.846149
  0
ARC
  8
APS_GEOMETR�
 10
5430.6059
 20
547.499405
 40
38.680179
 50
4.759888
 51
28.22513
  0
ARC
  8
APS_GEOMETR�
 10
5423.551525
 20
546.73021
 40
45.774411
 50
343.992531
 51
4.986658
  0
ARC
  8
APS_GEOMETR�
 10
5419.610772
 20
547.700524
 40
49.830179
 50
324.270869
 51
344.169629
  0
ARC
  8
APS_GEOMETR�
 10
5420.92191
 20
546.586435
 40
48.115438
 50
304.461311
 51
324.436102
  0
ARC
  8
APS_GEOMETR�
 10
5375.855064
 20
660.292982
 40
169.561558
 50
275.889389
 51
295.236285
  0
ARC
  8
APS_GEOMETR�
 10
5372.573976
 20
504.18982
 40
24.196732
 50
328.720068
 51
350.300791
  0
ARC
  8
APS_GEOMETR�
 10
5374.986026
 20
503.867826
 40
21.765094
 50
350.066552
 51
354.058754
  0
ARC
  8
APS_GEOMETR�
 10
5375.382334
 20
519.716311
 40
34.017333
 50
255.916786
 51
275.916381
  0
ARC
  8
APS_GEOMETR�
 10
5376.388879
 20
510.837957
 40
25.082667
 50
275.719863
 51
300.262801
  0
ARC
  8
APS_GEOMETR�
 10
5432.1758
 20
437.418963
 40
40.645578
 50
75.015432
 51
124.329217
  0
ARC
  8
APS_GEOMETR�
 10
5487.202966
 20
765.161574
 40
32.137399
 50
177.840406
 51
211.321744
  0
ARC
  8
APS_GEOMETR�
 10
5484.362232
 20
763.383853
 40
28.786563
 50
211.238344
 51
230.990046
  0
LINE
  8
APS_GEOMETR�
 10
5466.242374
 11
5458.439651
 20
741.015639
 21
739.190148
  0
ARC
  8
APS_GEOMETR�
 10
5441.4848
 20
739.800352
 40
16.965828
 50
325.515018
 51
357.938818
  0
ARC
  8
APS_GEOMETR�
 10
5444.225073
 20
737.820011
 40
13.586081
 50
298.945157
 51
325.855894
  0
ARC
  8
APS_GEOMETR�
 10
5444.972554
 20
736.493019
 40
12.063098
 50
270.456638
 51
298.888728
  0
ARC
  8
APS_GEOMETR�
 10
5445.003343
 20
737.231352
 40
12.801215
 50
242.608996
 51
270.292499
  0
LINE
  8
APS_GEOMETR�
 10
5439.114011
 11
5432.671202
 20
725.865312
 21
729.20353
  0
ARC
  8
APS_GEOMETR�
 10
5462.21578
 20
727.952807
 40
29.57104
 50
177.575923
 51
213.682263
  0
ARC
  8
APS_GEOMETR�
 10
5459.740048
 20
726.206274
 40
26.542437
 50
213.508865
 51
236.320657
  0
ARC
  8
APS_GEOMETR�
 10
5457.891585
 20
723.295589
 40
23.095368
 50
236.132366
 51
261.696639
  0
ARC
  8
APS_GEOMETR�
 10
5457.6577
 20
721.773096
 40
21.555062
 50
261.727376
 51
282.909845
  0
ARC
  8
APS_GEOMETR�
 10
5492.148661
 20
695.419512
 40
30.152412
 50
169.792583
 51
187.184743
  0
ARC
  8
APS_GEOMETR�
 10
5492.598667
 20
695.399076
 40
30.596425
 50
187.04138
 51
207.226845
  0
ARC
  8
APS_GEOMETR�
 10
5490.493881
 20
694.234307
 40
28.19204
 50
207.079003
 51
253.442587
  0
LINE
  8
APS_GEOMETR�
 10
5482.459827
 11
5478.206373
 20
667.21126
 21
677.595359
  0
ARC
  8
APS_GEOMETR�
 10
5496.186425
 20
684.959434
 40
19.429665
 50
181.159338
 51
202.272496
  0
ARC
  8
APS_GEOMETR�
 10
5494.979162
 20
685.009356
 40
18.223811
 50
159.474143
 51
181.393058
  0
ARC
  8
APS_GEOMETR�
 10
5492.057979
 20
686.184302
 40
15.076303
 50
135.418352
 51
159.763349
  0
ARC
  8
APS_GEOMETR�
 10
5490.141453
 20
688.144903
 40
12.335167
 50
108.689246
 51
135.656091
  0
ARC
  8
APS_GEOMETR�
 10
5489.906654
 20
688.733963
 40
11.701979
 50
80.940904
 51
108.524424
  0
ARC
  8
APS_GEOMETR�
 10
5489.664225
 20
687.287788
 40
13.168291
 50
57.301337
 51
80.889994
  0
ARC
  8
APS_GEOMETR�
 10
5466.244311
 20
675.473729
 40
38.164248
 50
11.384179
 51
36.864147
  0
ARC
  8
APS_GEOMETR�
 10
5465.788689
 20
675.125517
 40
38.680456
 50
345.538403
 51
11.75661
  0
ARC
  8
APS_GEOMETR�
 10
5471.915892
 20
673.269193
 40
32.284917
 50
316.10966
 51
346.01288
  0
ARC
  8
APS_GEOMETR�
 10
5462.115433
 20
672.890887
 40
39.719289
 50
300.046199
 51
326.358645
  0
ARC
  8
APS_GEOMETR�
 10
5464.086583
 20
669.516828
 40
35.811682
 50
272.597143
 51
300.019182
  0
ARC
  8
APS_GEOMETR�
 10
5464.114814
 20
670.893017
 40
37.185289
 50
245.575683
 51
272.457604
  0
ARC
  8
APS_GEOMETR�
 10
5466.763427
 20
677.054221
 40
43.890504
 50
221.290538
 51
245.753245
  0
ARC
  8
APS_GEOMETR�
 10
5478.657762
 20
693.247566
 40
63.659855
 50
202.632002
 51
225.18025
  0
ARC
  8
APS_GEOMETR�
 10
5483.540435
 20
695.555013
 40
69.054926
 50
181.548461
 51
202.840143
  0
ARC
  8
APS_GEOMETR�
 10
5479.898199
 20
695.68986
 40
65.41808
 50
159.702603
 51
181.752724
  0
ARC
  8
APS_GEOMETR�
 10
5470.726083
 20
699.354211
 40
55.544957
 50
135.28823
 51
159.965713
  0
ARC
  8
APS_GEOMETR�
 10
6167.226467
 20
134.71632
 40
951.90877
 50
138.427433
 51
140.638119
  0
ARC
  8
APS_GEOMETR�
 10
5419.634939
 20
810.763539
 40
26.755179
 50
287.721319
 51
296.243625
  0
ARC
  8
APS_GEOMETR�
 10
5418.830476
 20
812.332331
 40
28.518001
 50
296.299553
 51
321.924382
  0
ARC
  8
APS_GEOMETR�
 10
5415.471487
 20
815.097981
 40
32.867938
 50
321.740261
 51
347.457673
  0
ARC
  8
APS_GEOMETR�
 10
5416.821495
 20
793.031348
 40
34.167634
 50
25.908431
 51
51.7718
  0
ARC
  8
APS_GEOMETR�
 10
5419.700421
 20
796.873802
 40
29.367949
 50
51.545206
 51
77.653332
  0
ARC
  8
APS_GEOMETR�
 10
5420.244466
 20
799.360089
 40
26.822835
 50
77.652967
 51
87.995102
  0
ARC
  8
APS_GEOMETR�
 10
5400.100294
 20
832.40404
 40
21.985939
 50
343.518502
 51
2.642379
  0
ARC
  8
APS_GEOMETR�
 10
5399.302623
 20
832.419421
 40
22.782112
 50
2.511254
 51
22.788598
  0
ARC
  8
APS_GEOMETR�
 10
5400.498951
 20
832.981661
 40
21.461466
 50
22.641829
 51
43.948842
  0
ARC
  8
APS_GEOMETR�
 10
5402.267995
 20
834.766252
 40
18.949377
 50
43.776226
 51
67.479653
  0
ARC
  8
APS_GEOMETR�
 10
5402.993827
 20
836.599042
 40
16.978376
 50
67.373362
 51
93.465653
  0
ARC
  8
APS_GEOMETR�
 10
5402.998232
 20
836.968181
 40
16.6102
 50
93.557791
 51
147.895269
  0
LINE
  8
APS_GEOMETR�
 10
5388.928096
 11
5395.643017
 20
845.795979
 21
844.010388
  0
ARC
  8
APS_GEOMETR�
 10
5393.914668
 20
837.51087
 40
6.725394
 50
51.073503
 51
75.108554
  0
ARC
  8
APS_GEOMETR�
 10
5392.779992
 20
836.029464
 40
8.590935
 50
29.827682
 51
51.394151
  0
ARC
  8
APS_GEOMETR�
 10
5391.581352
 20
835.291751
 40
9.997815
 50
10.029241
 51
30.07863
  0
ARC
  8
APS_GEOMETR�
 10
5391.575577
 20
835.253379
 40
10.010252
 50
350.205927
 51
10.239756
  0
ARC
  8
APS_GEOMETR�
 10
5392.940911
 20
834.982835
 40
8.618864
 50
328.892208
 51
350.43426
  0
ARC
  8
APS_GEOMETR�
 10
5394.519008
 20
833.982977
 40
6.751249
 50
305.231661
 51
329.238055
  0
ARC
  8
APS_GEOMETR�
 10
5395.174011
 20
833.047726
 40
5.609452
 50
280.245731
 51
305.277708
  0
ARC
  8
APS_GEOMETR�
 10
5395.219953
 20
835.421693
 40
7.951146
 50
251.055669
 51
276.875224
  0
ARC
  8
APS_GEOMETR�
 10
5395.735601
 20
836.983528
 40
9.595808
 50
226.906071
 51
251.171093
  0
ARC
  8
APS_GEOMETR�
 10
5397.310145
 20
838.764759
 40
11.972435
 50
205.494011
 51
227.227398
  0
ARC
  8
APS_GEOMETR�
 10
5398.61586
 20
839.446264
 40
13.444449
 50
185.27067
 51
205.7205
  0
ARC
  8
APS_GEOMETR�
 10
5398.14563
 20
839.452009
 40
12.976827
 50
163.305443
 51
185.486649
  0
ARC
  8
APS_GEOMETR�
 10
5433.351543
 20
838.505251
 40
47.86458
 50
149.992262
 51
174.395381
  0
ARC
  8
APS_GEOMETR�
 10
5426.071244
 20
842.965822
 40
39.329965
 50
123.161988
 51
150.315185
  0
ARC
  8
APS_GEOMETR�
 10
5423.542505
 20
846.853358
 40
34.692363
 50
94.001296
 51
123.177903
  0
ARC
  8
APS_GEOMETR�
 10
5423.521974
 20
845.728016
 40
35.813666
 50
64.990566
 51
93.842904
  0
ARC
  8
APS_GEOMETR�
 10
5424.311973
 20
842.264245
 40
38.680179
 50
44.756645
 51
68.221887
  0
ARC
  8
APS_GEOMETR�
 10
5419.402149
 20
837.140819
 40
45.774411
 50
23.989289
 51
44.983417
  0
ARC
  8
APS_GEOMETR�
 10
5415.759549
 20
835.351265
 40
49.830179
 50
4.267624
 51
24.166383
  0
ARC
  8
APS_GEOMETR�
 10
5417.480061
 20
835.340508
 40
48.115438
 50
344.458067
 51
4.432858
  0
ARC
  8
APS_GEOMETR�
 10
5309.870986
 20
893.482459
 40
169.561558
 50
315.886145
 51
335.233041
  0
ARC
  8
APS_GEOMETR�
 10
5407.691816
 20
771.785917
 40
24.196732
 50
8.716828
 51
30.297551
  0
ARC
  8
APS_GEOMETR�
 10
5409.746597
 20
773.089581
 40
21.765094
 50
30.063293
 51
34.055496
  0
ARC
  8
APS_GEOMETR�
 10
5399.863681
 20
785.485521
 40
34.017333
 50
295.913542
 51
315.913137
  0
ARC
  8
APS_GEOMETR�
 10
5406.341287
 20
779.330936
 40
25.082667
 50
315.716618
 51
340.259557
  0
ARC
  8
APS_GEOMETR�
 10
5496.268214
 20
758.942773
 40
40.645578
 50
115.012188
 51
164.325973
  0
ARC
  8
APS_GEOMETR�
 10
5327.768797
 20
1045.3885
 40
32.137399
 50
217.837161
 51
251.318499
  0
ARC
  8
APS_GEOMETR�
 10
5326.735186
 20
1042.200756
 40
28.786563
 50
251.235095
 51
270.986799
  0
LINE
  8
APS_GEOMETR�
 10
5327.23095
 11
5322.426757
 20
1013.418462
 21
1007.004834
  0
ARC
  8
APS_GEOMETR�
 10
5309.045765
 20
996.574667
 40
16.965828
 50
5.511768
 51
37.93557
  0
ARC
  8
APS_GEOMETR�
 10
5312.417888
 20
996.818859
 40
13.586081
 50
338.94192
 51
5.852653
  0
ARC
  8
APS_GEOMETR�
 10
5313.843437
 20
996.282717
 40
12.063098
 50
310.453387
 51
338.88548
  0
ARC
  8
APS_GEOMETR�
 10
5313.392462
 20
996.868128
 40
12.801215
 50
282.605762
 51
310.289261
  0
LINE
  8
APS_GEOMETR�
 10
5316.186217
 11
5309.104883
 20
984.375488
 21
982.791754
  0
ARC
  8
APS_GEOMETR�
 10
5332.542312
 20
1000.823208
 40
29.57104
 50
217.572681
 51
253.67902
  0
ARC
  8
APS_GEOMETR�
 10
5331.768276
 20
997.89396
 40
26.542437
 50
253.50562
 51
276.317414
  0
ARC
  8
APS_GEOMETR�
 10
5332.22303
 20
994.47605
 40
23.095368
 50
276.129124
 51
301.693397
  0
ARC
  8
APS_GEOMETR�
 10
5333.022428
 20
993.15937
 40
21.555062
 50
301.724134
 51
322.9066
  0
ARC
  8
APS_GEOMETR�
 10
5376.383906
 20
995.13926
 40
30.152412
 50
209.789339
 51
227.1815
  0
ARC
  8
APS_GEOMETR�
 10
5376.741782
 20
995.412844
 40
30.596425
 50
227.038138
 51
247.223604
  0
ARC
  8
APS_GEOMETR�
 10
5375.877996
 20
993.167697
 40
28.19204
 50
247.075758
 51
293.439343
  0
LINE
  8
APS_GEOMETR�
 10
5387.092169
 11
5377.15936
 20
967.302016
 21
972.523193
  0
ARC
  8
APS_GEOMETR�
 10
5386.200313
 20
989.721246
 40
19.429665
 50
221.156099
 51
242.269259
  0
ARC
  8
APS_GEOMETR�
 10
5385.243368
 20
988.983526
 40
18.223811
 50
199.470896
 51
221.389809
  0
ARC
  8
APS_GEOMETR�
 10
5382.250316
 20
988.006057
 40
15.076303
 50
175.415108
 51
199.760104
  0
ARC
  8
APS_GEOMETR�
 10
5379.521937
 20
988.2762
 40
12.335167
 50
148.686002
 51
175.652848
  0
ARC
  8
APS_GEOMETR�
 10
5378.963447
 20
988.576551
 40
11.701979
 50
120.937654
 51
148.521174
  0
ARC
  8
APS_GEOMETR�
 10
5379.707249
 20
987.312846
 40
13.168291
 50
97.298107
 51
120.886758
  0
ARC
  8
APS_GEOMETR�
 10
5369.359118
 20
963.209306
 40
38.164248
 50
51.380935
 51
76.860903
  0
ARC
  8
APS_GEOMETR�
 10
5369.233884
 20
962.6497
 40
38.680456
 50
25.535157
 51
51.753364
  0
ARC
  8
APS_GEOMETR�
 10
5375.12096
 20
965.165829
 40
32.284917
 50
356.106417
 51
26.009636
  0
ARC
  8
APS_GEOMETR�
 10
5367.85617
 20
958.576826
 40
39.719289
 50
340.042957
 51
6.355403
  0
ARC
  8
APS_GEOMETR�
 10
5371.534888
 20
957.258971
 40
35.811682
 50
312.5939
 51
340.015939
  0
ARC
  8
APS_GEOMETR�
 10
5370.671978
 20
958.331389
 40
37.185289
 50
285.57244
 51
312.45436
  0
ARC
  8
APS_GEOMETR�
 10
5368.74095
 20
964.75375
 40
43.890504
 50
261.287296
 51
285.750002
  0
ARC
  8
APS_GEOMETR�
 10
5367.444794
 20
984.804176
 40
63.659855
 50
242.628758
 51
265.177006
  0
ARC
  8
APS_GEOMETR�
 10
5369.702219
 20
989.710176
 40
69.054926
 50
221.545215
 51
242.836897
  0
ARC
  8
APS_GEOMETR�
 10
5366.825298
 20
987.472456
 40
65.41808
 50
199.69936
 51
221.749482
  0
ARC
  8
APS_GEOMETR�
 10
5357.443476
 20
984.384318
 40
55.544957
 50
175.284985
 51
199.962468
  0
ARC
  8
APS_GEOMETR�
 10
6253.936822
 20
999.497668
 40
951.90877
 50
178.424189
 51
180.634876
  0
ARC
  8
APS_GEOMETR�
 10
5246.695827
 20
1036.894331
 40
26.755179
 50
327.718075
 51
336.24038
  0
ARC
  8
APS_GEOMETR�
 10
5245.071211
 20
1037.579087
 40
28.518001
 50
336.296312
 51
1.921142
  0
ARC
  8
APS_GEOMETR�
 10
5240.720347
 20
1037.538831
 40
32.867938
 50
1.737015
 51
27.454428
  0
ARC
  8
APS_GEOMETR�
 10
5255.937766
 20
1021.501715
 40
34.167634
 50
65.90519
 51
91.76856
  0
ARC
  8
APS_GEOMETR�
 10
5255.673539
 20
1026.295758
 40
29.367949
 50
91.541962
 51
117.650086
  0
ARC
  8
APS_GEOMETR�
 10
5254.49227
 20
1028.550134
 40
26.822835
 50
117.649709
 51
127.991845
  0
ARC
  8
APS_GEOMETR�
 10
5217.821403
 20
1040.916922
 40
21.985939
 50
23.515268
 51
42.639141
  0
ARC
  8
APS_GEOMETR�
 10
5217.200433
 20
1040.416011
 40
22.782112
 50
42.508001
 51
62.785345
  0
ARC
  8
APS_GEOMETR�
 10
5217.755544
 20
1041.615663
 40
21.461466
 50
62.638587
 51
83.9456
  0
ARC
  8
APS_GEOMETR�
 10
5217.963738
 20
1044.119847
 40
18.949377
 50
83.772982
 51
107.47641
  0
ARC
  8
APS_GEOMETR�
 10
5217.341769
 20
1045.990437
 40
16.978376
 50
107.370118
 51
133.462409
  0
ARC
  8
APS_GEOMETR�
 10
5217.107881
 20
1046.276057
 40
16.6102
 50
133.554545
 51
187.892023
  0
LINE
  8
APS_GEOMETR�
 10
5200.655003
 11
5206.946854
 20
1043.995367
 21
1046.943436
  0
ARC
  8
APS_GEOMETR�
 10
5209.800325
 20
1040.853393
 40
6.725394
 50
91.070247
 51
115.1053
  0
ARC
  8
APS_GEOMETR�
 10
5209.88324
 20
1038.98921
 40
8.590935
 50
69.824444
 51
91.390912
  0
ARC
  8
APS_GEOMETR�
 10
5209.439143
 20
1037.653644
 40
9.997815
 50
50.025992
 51
70.075378
  0
ARC
  8
APS_GEOMETR�
 10
5209.459382
 20
1037.620536
 40
10.010252
 50
30.202679
 51
50.236507
  0
ARC
  8
APS_GEOMETR�
 10
5210.67923
 20
1038.290835
 40
8.618864
 50
8.888985
 51
30.431031
  0
ARC
  8
APS_GEOMETR�
 10
5212.530832
 20
1038.539179
 40
6.751249
 50
345.228412
 51
9.234809
  0
ARC
  8
APS_GEOMETR�
 10
5213.633745
 20
1038.243698
 40
5.609452
 50
320.242493
 51
345.274477
  0
ARC
  8
APS_GEOMETR�
 10
5212.143087
 20
1040.091879
 40
7.951146
 50
291.052424
 51
316.871975
  0
ARC
  8
APS_GEOMETR�
 10
5211.534255
 20
1041.619802
 40
9.595808
 50
266.902819
 51
291.167845
  0
ARC
  8
APS_GEOMETR�
 10
5211.595608
 20
1043.996397
 40
11.972435
 50
245.490758
 51
267.224143
  0
ARC
  8
APS_GEOMETR�
 10
5212.157856
 20
1045.357727
 40
13.444449
 50
225.267428
 51
245.717259
  0
ARC
  8
APS_GEOMETR�
 10
5211.793928
 20
1045.059891
 40
12.976827
 50
203.302208
 51
225.48341
  0
ARC
  8
APS_GEOMETR�
 10
5239.373028
 20
1066.962995
 40
47.86458
 50
189.989019
 51
214.392138
  0
ARC
  8
APS_GEOMETR�
 10
5230.928724
 20
1065.700779
 40
39.329965
 50
163.158741
 51
190.311938
  0
ARC
  8
APS_GEOMETR�
 10
5226.492815
 20
1067.053616
 40
34.692363
 50
133.998053
 51
163.174661
  0
ARC
  8
APS_GEOMETR�
 10
5227.200395
 20
1066.178318
 40
35.813666
 50
104.987324
 51
133.839661
  0
ARC
  8
APS_GEOMETR�
 10
5230.031913
 20
1064.032556
 40
38.680179
 50
84.753398
 51
108.21864
  0
ARC
  8
APS_GEOMETR�
 10
5229.563644
 20
1056.951836
 40
45.774411
 50
63.986044
 51
84.980172
  0
ARC
  8
APS_GEOMETR�
 10
5227.923344
 20
1053.239632
 40
49.830179
 50
44.264381
 51
64.163139
  0
ARC
  8
APS_GEOMETR�
 10
5229.248311
 20
1054.337239
 40
48.115438
 50
24.454825
 51
44.429617
  0
ARC
  8
APS_GEOMETR�
 10
5109.440656
 20
1029.713565
 40
169.561558
 50
355.8829
 51
15.229796
  0
ARC
  8
APS_GEOMETR�
 10
5262.59907
 20
999.357949
 40
24.196732
 50
48.713583
 51
70.294305
  0
ARC
  8
APS_GEOMETR�
 10
5263.335285
 20
1001.677357
 40
21.765094
 50
70.060072
 51
74.052273
  0
ARC
  8
APS_GEOMETR�
 10
5247.796745
 20
1004.821465
 40
34.017333
 50
335.910298
 51
355.909893
  0
ARC
  8
APS_GEOMETR�
 10
5256.714939
 20
1004.27
 40
25.082667
 50
355.713373
 51
20.256311
  0
ARC
  8
APS_GEOMETR�
 10
5338.710608
 20
1046.451032
 40
40.645578
 50
155.008944
 51
204.322729
  0
LINE
  8
APS_GEOMETR�
 10
4148.72074
 11
4138.385409
 20
1306.633675
 21
1303.802253
  0
LINE
  8
APS_GEOMETR�
 10
4138.385409
 11
4120.856698
 20
1303.802253
 21
1285.880611
  0
LINE
  8
APS_GEOMETR�
 10
4120.856698
 11
4104.976354
 20
1285.880611
 21
1302.116933
  0
LINE
  8
APS_GEOMETR�
 10
4104.976354
 11
4099.163745
 20
1302.116933
 21
1324.296162
  0
LINE
  8
APS_GEOMETR�
 10
4099.163745
 11
4115.823464
 20
1324.296162
 21
1328.860186
  0
LINE
  8
APS_GEOMETR�
 10
4104.857644
 11
4096.912032
 20
1335.064793
 21
1332.888048
  0
LINE
  8
APS_GEOMETR�
 10
4096.912032
 11
4094.999933
 20
1332.888048
 21
1340.184062
  0
LINE
  8
APS_GEOMETR�
 10
4084.707054
 11
4088.508522
 20
1345.091158
 21
1330.585859
  0
LINE
  8
APS_GEOMETR�
 10
4088.508522
 11
4071.165547
 20
1330.585859
 21
1325.834653
  0
LINE
  8
APS_GEOMETR�
 10
4071.165547
 11
4053.822571
 20
1325.834653
 21
1330.585859
  0
LINE
  8
APS_GEOMETR�
 10
4053.822571
 11
4060.238525
 20
1330.585859
 21
1355.067277
  0
LINE
  8
APS_GEOMETR�
 10
4060.238525
 11
4060.235188
 20
1355.067277
 21
1355.080009
  0
LINE
  8
APS_GEOMETR�
 10
4118.604984
 11
4096.912032
 20
1187.87823
 21
1181.935323
  0
LINE
  8
APS_GEOMETR�
 10
4096.912032
 11
4091.099423
 20
1181.935323
 21
1204.114552
  0
LINE
  8
APS_GEOMETR�
 10
4091.099423
 11
4096.912032
 20
1204.114552
 21
1226.293781
  0
LINE
  8
APS_GEOMETR�
 10
4096.912032
 11
4118.604984
 20
1226.293781
 21
1220.350874
  0
LINE
  8
APS_GEOMETR�
 10
4118.604984
 11
4134.485327
 20
1220.350874
 21
1204.114552
  0
LINE
  8
APS_GEOMETR�
 10
4134.485327
 11
4118.604984
 20
1204.114552
 21
1187.87823
  0
LINE
  8
APS_GEOMETR�
 10
4088.508522
 11
4071.165547
 20
1179.633134
 21
1174.881929
  0
LINE
  8
APS_GEOMETR�
 10
4071.165547
 11
4053.822571
 20
1174.881929
 21
1179.633134
  0
LINE
  8
APS_GEOMETR�
 10
4053.822571
 11
4060.238525
 20
1179.633134
 21
1204.114552
  0
LINE
  8
APS_GEOMETR�
 10
4060.238525
 11
4053.822571
 20
1204.114552
 21
1228.595969
  0
LINE
  8
APS_GEOMETR�
 10
4053.822571
 11
4071.165547
 20
1228.595969
 21
1233.347175
  0
LINE
  8
APS_GEOMETR�
 10
4071.165547
 11
4088.508522
 20
1233.347175
 21
1228.595969
  0
LINE
  8
APS_GEOMETR�
 10
4088.508522
 11
4082.092568
 20
1228.595969
 21
1204.114552
  0
LINE
  8
APS_GEOMETR�
 10
4082.092568
 11
4088.508522
 20
1204.114552
 21
1179.633134
  0
LINE
  8
APS_GEOMETR�
 10
4120.856698
 11
4104.976354
 20
1134.927886
 21
1151.164209
  0
LINE
  8
APS_GEOMETR�
 10
4104.976354
 11
4099.163745
 20
1151.164209
 21
1173.343437
  0
LINE
  8
APS_GEOMETR�
 10
4099.163745
 11
4123.108411
 20
1173.343437
 21
1179.903214
  0
LINE
  8
APS_GEOMETR�
 10
4123.108411
 11
4140.637123
 20
1179.903214
 21
1197.824855
  0
LINE
  8
APS_GEOMETR�
 10
4140.637123
 11
4156.517466
 20
1197.824855
 21
1181.588533
  0
LINE
  8
APS_GEOMETR�
 10
4156.517466
 11
4162.330075
 20
1181.588533
 21
1159.409304
  0
LINE
  8
APS_GEOMETR�
 10
4162.330075
 11
4138.385409
 20
1159.409304
 21
1152.849528
  0
LINE
  8
APS_GEOMETR�
 10
4138.385409
 11
4120.856698
 20
1152.849528
 21
1134.927886
  0
LINE
  8
APS_GEOMETR�
 10
4263.962279
 11
4250.971092
 20
1139.567127
 21
1152.849528
  0
LINE
  8
APS_GEOMETR�
 10
4250.971092
 11
4227.026426
 20
1152.849528
 21
1159.409304
  0
LINE
  8
APS_GEOMETR�
 10
4227.026426
 11
4232.839035
 20
1159.409304
 21
1181.588533
  0
LINE
  8
APS_GEOMETR�
 10
4232.839035
 11
4243.149047
 20
1181.588533
 21
1192.129657
  0
LINE
  8
APS_GEOMETR�
 10
4224.223769
 11
4225.03887
 20
1225.146383
 21
1222.036193
  0
LINE
  8
APS_GEOMETR�
 10
4225.03887
 11
4242.567582
 20
1222.036193
 21
1204.114552
  0
LINE
  8
APS_GEOMETR�
 10
4242.567582
 11
4225.03887
 20
1204.114552
 21
1186.19291
  0
LINE
  8
APS_GEOMETR�
 10
4225.03887
 11
4218.622917
 20
1186.19291
 21
1161.711493
  0
LINE
  8
APS_GEOMETR�
 10
4218.622917
 11
4194.678251
 20
1161.711493
 21
1168.271269
  0
LINE
  8
APS_GEOMETR�
 10
4194.678251
 11
4170.733585
 20
1168.271269
 21
1161.711493
  0
LINE
  8
APS_GEOMETR�
 10
4170.733585
 11
4164.317631
 20
1161.711493
 21
1186.19291
  0
LINE
  8
APS_GEOMETR�
 10
4164.317631
 11
4146.788919
 20
1186.19291
 21
1204.114552
  0
LINE
  8
APS_GEOMETR�
 10
4146.788919
 11
4164.317631
 20
1204.114552
 21
1222.036193
  0
LINE
  8
APS_GEOMETR�
 10
4164.317631
 11
4170.733585
 20
1222.036193
 21
1246.517611
  0
LINE
  8
APS_GEOMETR�
 10
4170.733585
 11
4194.678251
 20
1246.517611
 21
1239.957835
  0
LINE
  8
APS_GEOMETR�
 10
4194.678251
 11
4210.696689
 20
1239.957835
 21
1244.346176
  0
LINE
  8
APS_GEOMETR�
 10
4140.637123
 11
4123.108411
 20
1210.404249
 21
1228.32589
  0
LINE
  8
APS_GEOMETR�
 10
4123.108411
 11
4099.163745
 20
1228.32589
 21
1234.885666
  0
LINE
  8
APS_GEOMETR�
 10
4099.163745
 11
4104.976354
 20
1234.885666
 21
1257.064895
  0
LINE
  8
APS_GEOMETR�
 10
4104.976354
 11
4120.856698
 20
1257.064895
 21
1273.301217
  0
LINE
  8
APS_GEOMETR�
 10
4120.856698
 11
4138.385409
 20
1273.301217
 21
1255.379576
  0
LINE
  8
APS_GEOMETR�
 10
4138.385409
 11
4162.330075
 20
1255.379576
 21
1248.8198
  0
LINE
  8
APS_GEOMETR�
 10
4162.330075
 11
4156.517466
 20
1248.8198
 21
1226.640571
  0
LINE
  8
APS_GEOMETR�
 10
4156.517466
 11
4140.637123
 20
1226.640571
 21
1210.404249
  0
LINE
  8
APS_GEOMETR�
 10
4090.760236
 11
4071.165547
 20
1237.187855
 21
1242.555931
  0
LINE
  8
APS_GEOMETR�
 10
4071.165547
 11
4051.570857
 20
1242.555931
 21
1237.187855
  0
LINE
  8
APS_GEOMETR�
 10
4051.570857
 11
4045.154904
 20
1237.187855
 21
1261.669273
  0
LINE
  8
APS_GEOMETR�
 10
4045.154904
 11
4027.626192
 20
1261.669273
 21
1279.590914
  0
LINE
  8
APS_GEOMETR�
 10
4027.626192
 11
4045.154904
 20
1279.590914
 21
1297.512556
  0
LINE
  8
APS_GEOMETR�
 10
4045.154904
 11
4051.570857
 20
1297.512556
 21
1321.993973
  0
LINE
  8
APS_GEOMETR�
 10
4051.570857
 11
4071.165547
 20
1321.993973
 21
1316.625898
  0
LINE
  8
APS_GEOMETR�
 10
4071.165547
 11
4090.760236
 20
1316.625898
 21
1321.993973
  0
LINE
  8
APS_GEOMETR�
 10
4090.760236
 11
4097.176189
 20
1321.993973
 21
1297.512556
  0
LINE
  8
APS_GEOMETR�
 10
4097.176189
 11
4114.704901
 20
1297.512556
 21
1279.590914
  0
LINE
  8
APS_GEOMETR�
 10
4114.704901
 11
4097.176189
 20
1279.590914
 21
1261.669273
  0
LINE
  8
APS_GEOMETR�
 10
4097.176189
 11
4090.760236
 20
1261.669273
 21
1237.187855
  0
LINE
  8
APS_GEOMETR�
 10
4167.343479
 11
4170.394398
 20
1291.232336
 21
1279.590914
  0
LINE
  8
APS_GEOMETR�
 10
4170.394398
 11
4164.581789
 20
1279.590914
 21
1257.411685
  0
LINE
  8
APS_GEOMETR�
 10
4164.581789
 11
4142.888837
 20
1257.411685
 21
1263.354592
  0
LINE
  8
APS_GEOMETR�
 10
4142.888837
 11
4127.008494
 20
1263.354592
 21
1279.590914
  0
LINE
  8
APS_GEOMETR�
 10
4127.008494
 11
4142.888837
 20
1279.590914
 21
1295.827237
  0
LINE
  8
APS_GEOMETR�
 10
4142.888837
 11
4157.343694
 20
1295.827237
 21
1299.787226
  0
LINE
  8
APS_GEOMETR�
 10
4204.763152
 11
4194.678251
 20
1251.929406
 21
1249.16659
  0
LINE
  8
APS_GEOMETR�
 10
4194.678251
 11
4172.985299
 20
1249.16659
 21
1255.109497
  0
LINE
  8
APS_GEOMETR�
 10
4172.985299
 11
4179.401253
 20
1255.109497
 21
1279.590914
  0
LINE
  8
APS_GEOMETR�
 10
4179.401253
 11
4179.278188
 20
1279.590914
 21
1280.060492
  0
LINE
  8
APS_GEOMETR�
 10
4164.581789
 11
4142.888837
 20
1106.458961
 21
1112.401867
  0
LINE
  8
APS_GEOMETR�
 10
4142.888837
 11
4127.008494
 20
1112.401867
 21
1128.63819
  0
LINE
  8
APS_GEOMETR�
 10
4127.008494
 11
4142.888837
 20
1128.63819
 21
1144.874512
  0
LINE
  8
APS_GEOMETR�
 10
4142.888837
 11
4164.581789
 20
1144.874512
 21
1150.817418
  0
LINE
  8
APS_GEOMETR�
 10
4164.581789
 11
4170.394398
 20
1150.817418
 21
1128.63819
  0
LINE
  8
APS_GEOMETR�
 10
4170.394398
 11
4164.581789
 20
1128.63819
 21
1106.458961
  0
LINE
  8
APS_GEOMETR�
 10
4274.6516
 11
4274.6516
 20
1090.718454
 21
1079.675354
  0
LINE
  8
APS_GEOMETR�
 10
4274.6516
 11
4266.24809
 20
1079.675354
 21
1077.373166
  0
LINE
  8
APS_GEOMETR�
 10
4266.24809
 11
4248.719378
 20
1077.373166
 21
1059.451524
  0
LINE
  8
APS_GEOMETR�
 10
4248.719378
 11
4232.839035
 20
1059.451524
 21
1075.687846
  0
LINE
  8
APS_GEOMETR�
 10
4232.839035
 11
4227.026426
 20
1075.687846
 21
1097.867075
  0
LINE
  8
APS_GEOMETR�
 10
4227.026426
 11
4250.971092
 20
1097.867075
 21
1104.426851
  0
LINE
  8
APS_GEOMETR�
 10
4250.971092
 11
4268.499804
 20
1104.426851
 21
1122.348493
  0
LINE
  8
APS_GEOMETR�
 10
4268.499804
 11
4268.660737
 20
1122.348493
 21
1122.183952
  0
LINE
  8
APS_GEOMETR�
 10
4216.371203
 11
4194.678251
 20
1104.156772
 21
1098.213866
  0
LINE
  8
APS_GEOMETR�
 10
4194.678251
 11
4172.985299
 20
1098.213866
 21
1104.156772
  0
LINE
  8
APS_GEOMETR�
 10
4172.985299
 11
4179.401253
 20
1104.156772
 21
1128.63819
  0
LINE
  8
APS_GEOMETR�
 10
4179.401253
 11
4172.985299
 20
1128.63819
 21
1153.119607
  0
LINE
  8
APS_GEOMETR�
 10
4172.985299
 11
4194.678251
 20
1153.119607
 21
1159.062514
  0
LINE
  8
APS_GEOMETR�
 10
4194.678251
 11
4216.371203
 20
1159.062514
 21
1153.119607
  0
LINE
  8
APS_GEOMETR�
 10
4216.371203
 11
4209.955249
 20
1153.119607
 21
1128.63819
  0
LINE
  8
APS_GEOMETR�
 10
4209.955249
 11
4216.371203
 20
1128.63819
 21
1104.156772
  0
LINE
  8
APS_GEOMETR�
 10
4246.467665
 11
4224.774713
 20
1112.401867
 21
1106.458961
  0
LINE
  8
APS_GEOMETR�
 10
4224.774713
 11
4218.962104
 20
1106.458961
 21
1128.63819
  0
LINE
  8
APS_GEOMETR�
 10
4218.962104
 11
4224.774713
 20
1128.63819
 21
1150.817418
  0
LINE
  8
APS_GEOMETR�
 10
4224.774713
 11
4246.467665
 20
1150.817418
 21
1144.874512
  0
LINE
  8
APS_GEOMETR�
 10
4246.467665
 11
4262.348008
 20
1144.874512
 21
1128.63819
  0
LINE
  8
APS_GEOMETR�
 10
4262.348008
 11
4246.467665
 20
1128.63819
 21
1112.401867
  0
LINE
  8
APS_GEOMETR�
 10
4268.499804
 11
4250.971092
 20
983.975162
 21
1001.896803
  0
LINE
  8
APS_GEOMETR�
 10
4250.971092
 11
4227.026426
 20
1001.896803
 21
1008.456579
  0
LINE
  8
APS_GEOMETR�
 10
4227.026426
 11
4232.839035
 20
1008.456579
 21
1030.635808
  0
LINE
  8
APS_GEOMETR�
 10
4232.839035
 11
4248.719378
 20
1030.635808
 21
1046.87213
  0
LINE
  8
APS_GEOMETR�
 10
4248.719378
 11
4266.24809
 20
1046.87213
 21
1028.950489
  0
LINE
  8
APS_GEOMETR�
 10
4266.24809
 11
4274.6516
 20
1028.950489
 21
1026.6483
  0
LINE
  8
APS_GEOMETR�
 10
4274.6516
 11
4274.6516
 20
1026.6483
 21
990.264859
  0
LINE
  8
APS_GEOMETR�
 10
4274.6516
 11
4268.499804
 20
990.264859
 21
983.975162
  0
LINE
  8
APS_GEOMETR�
 10
4274.6516
 11
4270.751518
 20
1035.857055
 21
1036.925505
  0
LINE
  8
APS_GEOMETR�
 10
4270.751518
 11
4254.871175
 20
1036.925505
 21
1053.161827
  0
LINE
  8
APS_GEOMETR�
 10
4254.871175
 11
4270.751518
 20
1053.161827
 21
1069.39815
  0
LINE
  8
APS_GEOMETR�
 10
4270.751518
 11
4274.6516
 20
1069.39815
 21
1070.466599
  0
LINE
  8
APS_GEOMETR�
 10
4274.6516
 11
4274.6516
 20
1070.466599
 21
1035.857055
  0
LINE
  8
APS_GEOMETR�
 10
4274.6516
 11
4266.24809
 20
777.809351
 21
775.507162
  0
LINE
  8
APS_GEOMETR�
 10
4266.24809
 11
4248.719378
 20
775.507162
 21
757.58552
  0
LINE
  8
APS_GEOMETR�
 10
4248.719378
 11
4232.839035
 20
757.58552
 21
773.821843
  0
LINE
  8
APS_GEOMETR�
 10
4232.839035
 11
4227.026426
 20
773.821843
 21
796.001071
  0
LINE
  8
APS_GEOMETR�
 10
4227.026426
 11
4250.971092
 20
796.001071
 21
802.560848
  0
LINE
  8
APS_GEOMETR�
 10
4250.971092
 11
4268.499804
 20
802.560848
 21
820.482489
  0
LINE
  8
APS_GEOMETR�
 10
4268.499804
 11
4274.6516
 20
820.482489
 21
814.192792
  0
LINE
  8
APS_GEOMETR�
 10
4274.6516
 11
4274.6516
 20
814.192792
 21
777.809351
  0
LINE
  8
APS_GEOMETR�
 10
4246.467665
 11
4224.774713
 20
810.535864
 21
804.592957
  0
LINE
  8
APS_GEOMETR�
 10
4224.774713
 11
4218.962104
 20
804.592957
 21
826.772186
  0
LINE
  8
APS_GEOMETR�
 10
4218.962104
 11
4224.774713
 20
826.772186
 21
848.951415
  0
LINE
  8
APS_GEOMETR�
 10
4224.774713
 11
4246.467665
 20
848.951415
 21
843.008508
  0
LINE
  8
APS_GEOMETR�
 10
4246.467665
 11
4262.348008
 20
843.008508
 21
826.772186
  0
LINE
  8
APS_GEOMETR�
 10
4262.348008
 11
4246.467665
 20
826.772186
 21
810.535864
  0
LINE
  8
APS_GEOMETR�
 10
4268.499804
 11
4250.971092
 20
682.109158
 21
700.0308
  0
LINE
  8
APS_GEOMETR�
 10
4250.971092
 11
4227.026426
 20
700.0308
 21
706.590576
  0
LINE
  8
APS_GEOMETR�
 10
4227.026426
 11
4232.839035
 20
706.590576
 21
728.769804
  0
LINE
  8
APS_GEOMETR�
 10
4232.839035
 11
4248.719378
 20
728.769804
 21
745.006127
  0
LINE
  8
APS_GEOMETR�
 10
4248.719378
 11
4266.24809
 20
745.006127
 21
727.084485
  0
LINE
  8
APS_GEOMETR�
 10
4266.24809
 11
4274.6516
 20
727.084485
 21
724.782296
  0
LINE
  8
APS_GEOMETR�
 10
4274.6516
 11
4274.6516
 20
724.782296
 21
688.398855
  0
LINE
  8
APS_GEOMETR�
 10
4274.6516
 11
4268.499804
 20
688.398855
 21
682.109158
  0
LINE
  8
APS_GEOMETR�
 10
4274.6516
 11
4270.751518
 20
733.991052
 21
735.059501
  0
LINE
  8
APS_GEOMETR�
 10
4270.751518
 11
4254.871175
 20
735.059501
 21
751.295824
  0
LINE
  8
APS_GEOMETR�
 10
4254.871175
 11
4270.751518
 20
751.295824
 21
767.532146
  0
LINE
  8
APS_GEOMETR�
 10
4270.751518
 11
4274.6516
 20
767.532146
 21
768.600595
  0
LINE
  8
APS_GEOMETR�
 10
4274.6516
 11
4274.6516
 20
768.600595
 21
733.991052
  0
LINE
  8
APS_GEOMETR�
 10
4274.6516
 11
4270.751518
 20
884.943776
 21
886.012226
  0
LINE
  8
APS_GEOMETR�
 10
4270.751518
 11
4254.871175
 20
886.012226
 21
902.248548
  0
LINE
  8
APS_GEOMETR�
 10
4254.871175
 11
4270.751518
 20
902.248548
 21
918.484871
  0
LINE
  8
APS_GEOMETR�
 10
4270.751518
 11
4274.6516
 20
918.484871
 21
919.55332
  0
LINE
  8
APS_GEOMETR�
 10
4274.6516
 11
4274.6516
 20
919.55332
 21
884.943776
  0
LINE
  8
APS_GEOMETR�
 10
4268.499804
 11
4250.971092
 20
833.061883
 21
850.983524
  0
LINE
  8
APS_GEOMETR�
 10
4250.971092
 11
4227.026426
 20
850.983524
 21
857.5433
  0
LINE
  8
APS_GEOMETR�
 10
4227.026426
 11
4232.839035
 20
857.5433
 21
879.722529
  0
LINE
  8
APS_GEOMETR�
 10
4232.839035
 11
4248.719378
 20
879.722529
 21
895.958851
  0
LINE
  8
APS_GEOMETR�
 10
4248.719378
 11
4266.24809
 20
895.958851
 21
878.03721
  0
LINE
  8
APS_GEOMETR�
 10
4266.24809
 11
4274.6516
 20
878.03721
 21
875.735021
  0
LINE
  8
APS_GEOMETR�
 10
4274.6516
 11
4274.6516
 20
875.735021
 21
839.35158
  0
LINE
  8
APS_GEOMETR�
 10
4274.6516
 11
4268.499804
 20
839.35158
 21
833.061883
  0
LINE
  8
APS_GEOMETR�
 10
4274.6516
 11
4266.24809
 20
928.762075
 21
926.459887
  0
LINE
  8
APS_GEOMETR�
 10
4266.24809
 11
4248.719378
 20
926.459887
 21
908.538245
  0
LINE
  8
APS_GEOMETR�
 10
4248.719378
 11
4232.839035
 20
908.538245
 21
924.774567
  0
LINE
  8
APS_GEOMETR�
 10
4232.839035
 11
4227.026426
 20
924.774567
 21
946.953796
  0
LINE
  8
APS_GEOMETR�
 10
4227.026426
 11
4250.971092
 20
946.953796
 21
953.513572
  0
LINE
  8
APS_GEOMETR�
 10
4250.971092
 11
4268.499804
 20
953.513572
 21
971.435214
  0
LINE
  8
APS_GEOMETR�
 10
4268.499804
 11
4274.6516
 20
971.435214
 21
965.145517
  0
LINE
  8
APS_GEOMETR�
 10
4274.6516
 11
4274.6516
 20
965.145517
 21
928.762075
  0
LINE
  8
APS_GEOMETR�
 10
4268.499804
 11
4250.971092
 20
531.156433
 21
549.078075
  0
LINE
  8
APS_GEOMETR�
 10
4250.971092
 11
4227.026426
 20
549.078075
 21
555.637851
  0
LINE
  8
APS_GEOMETR�
 10
4227.026426
 11
4232.839035
 20
555.637851
 21
577.81708
  0
LINE
  8
APS_GEOMETR�
 10
4232.839035
 11
4248.719378
 20
577.81708
 21
594.053402
  0
LINE
  8
APS_GEOMETR�
 10
4248.719378
 11
4266.24809
 20
594.053402
 21
576.131761
  0
LINE
  8
APS_GEOMETR�
 10
4266.24809
 11
4274.6516
 20
576.131761
 21
573.829572
  0
LINE
  8
APS_GEOMETR�
 10
4274.6516
 11
4274.6516
 20
573.829572
 21
537.44613
  0
LINE
  8
APS_GEOMETR�
 10
4274.6516
 11
4268.499804
 20
537.44613
 21
531.156433
  0
LINE
  8
APS_GEOMETR�
 10
4274.6516
 11
4270.751518
 20
583.038327
 21
584.106777
  0
LINE
  8
APS_GEOMETR�
 10
4270.751518
 11
4254.871175
 20
584.106777
 21
600.343099
  0
LINE
  8
APS_GEOMETR�
 10
4254.871175
 11
4270.751518
 20
600.343099
 21
616.579421
  0
LINE
  8
APS_GEOMETR�
 10
4270.751518
 11
4274.6516
 20
616.579421
 21
617.647871
  0
LINE
  8
APS_GEOMETR�
 10
4274.6516
 11
4274.6516
 20
617.647871
 21
583.038327
  0
LINE
  8
APS_GEOMETR�
 10
4248.719378
 11
4232.839035
 20
606.632796
 21
622.869118
  0
LINE
  8
APS_GEOMETR�
 10
4232.839035
 11
4227.026426
 20
622.869118
 21
645.048347
  0
LINE
  8
APS_GEOMETR�
 10
4227.026426
 11
4250.971092
 20
645.048347
 21
651.608123
  0
LINE
  8
APS_GEOMETR�
 10
4250.971092
 11
4268.499804
 20
651.608123
 21
669.529764
  0
LINE
  8
APS_GEOMETR�
 10
4268.499804
 11
4274.6516
 20
669.529764
 21
663.240068
  0
LINE
  8
APS_GEOMETR�
 10
4274.6516
 11
4274.6516
 20
663.240068
 21
626.856626
  0
LINE
  8
APS_GEOMETR�
 10
4274.6516
 11
4266.24809
 20
626.856626
 21
624.554437
  0
LINE
  8
APS_GEOMETR�
 10
4266.24809
 11
4248.719378
 20
624.554437
 21
606.632796
  0
LINE
  8
APS_GEOMETR�
 10
4246.467665
 11
4224.774713
 20
659.583139
 21
653.640233
  0
LINE
  8
APS_GEOMETR�
 10
4224.774713
 11
4218.962104
 20
653.640233
 21
675.819461
  0
LINE
  8
APS_GEOMETR�
 10
4218.962104
 11
4224.774713
 20
675.819461
 21
697.99869
  0
LINE
  8
APS_GEOMETR�
 10
4224.774713
 11
4246.467665
 20
697.99869
 21
692.055784
  0
LINE
  8
APS_GEOMETR�
 10
4246.467665
 11
4262.348008
 20
692.055784
 21
675.819461
  0
LINE
  8
APS_GEOMETR�
 10
4262.348008
 11
4246.467665
 20
675.819461
 21
659.583139
  0
LINE
  8
APS_GEOMETR�
 10
4246.467665
 11
4224.774713
 20
993.921787
 21
999.864694
  0
LINE
  8
APS_GEOMETR�
 10
4224.774713
 11
4218.962104
 20
999.864694
 21
977.685465
  0
LINE
  8
APS_GEOMETR�
 10
4218.962104
 11
4224.774713
 20
977.685465
 21
955.506236
  0
LINE
  8
APS_GEOMETR�
 10
4224.774713
 11
4246.467665
 20
955.506236
 21
961.449143
  0
LINE
  8
APS_GEOMETR�
 10
4246.467665
 11
4262.348008
 20
961.449143
 21
977.685465
  0
LINE
  8
APS_GEOMETR�
 10
4262.348008
 11
4246.467665
 20
977.685465
 21
993.921787
  0
LINE
  8
APS_GEOMETR�
 10
4248.719378
 11
4232.839035
 20
455.680071
 21
471.916393
  0
LINE
  8
APS_GEOMETR�
 10
4232.839035
 11
4227.026426
 20
471.916393
 21
494.095622
  0
LINE
  8
APS_GEOMETR�
 10
4227.026426
 11
4250.971092
 20
494.095622
 21
500.655398
  0
LINE
  8
APS_GEOMETR�
 10
4250.971092
 11
4268.499804
 20
500.655398
 21
518.57704
  0
LINE
  8
APS_GEOMETR�
 10
4268.499804
 11
4274.6516
 20
518.57704
 21
512.287343
  0
LINE
  8
APS_GEOMETR�
 10
4274.6516
 11
4274.6516
 20
512.287343
 21
475.903901
  0
LINE
  8
APS_GEOMETR�
 10
4274.6516
 11
4266.24809
 20
475.903901
 21
473.601713
  0
LINE
  8
APS_GEOMETR�
 10
4266.24809
 11
4248.719378
 20
473.601713
 21
455.680071
  0
LINE
  8
APS_GEOMETR�
 10
4246.467665
 11
4224.774713
 20
508.630414
 21
502.687508
  0
LINE
  8
APS_GEOMETR�
 10
4224.774713
 11
4218.962104
 20
502.687508
 21
524.866737
  0
LINE
  8
APS_GEOMETR�
 10
4218.962104
 11
4224.774713
 20
524.866737
 21
547.045965
  0
LINE
  8
APS_GEOMETR�
 10
4224.774713
 11
4246.467665
 20
547.045965
 21
541.103059
  0
LINE
  8
APS_GEOMETR�
 10
4246.467665
 11
4262.348008
 20
541.103059
 21
524.866737
  0
LINE
  8
APS_GEOMETR�
 10
4262.348008
 11
4246.467665
 20
524.866737
 21
508.630414
  0
LINE
  8
APS_GEOMETR�
 10
4268.499804
 11
4250.971092
 20
380.203709
 21
398.12535
  0
LINE
  8
APS_GEOMETR�
 10
4250.971092
 11
4227.026426
 20
398.12535
 21
404.685126
  0
LINE
  8
APS_GEOMETR�
 10
4227.026426
 11
4232.839035
 20
404.685126
 21
426.864355
  0
LINE
  8
APS_GEOMETR�
 10
4232.839035
 11
4248.719378
 20
426.864355
 21
443.100677
  0
LINE
  8
APS_GEOMETR�
 10
4248.719378
 11
4266.24809
 20
443.100677
 21
425.179036
  0
LINE
  8
APS_GEOMETR�
 10
4266.24809
 11
4274.6516
 20
425.179036
 21
422.876847
  0
LINE
  8
APS_GEOMETR�
 10
4274.6516
 11
4274.6516
 20
422.876847
 21
386.493406
  0
LINE
  8
APS_GEOMETR�
 10
4274.6516
 11
4268.499804
 20
386.493406
 21
380.203709
  0
LINE
  8
APS_GEOMETR�
 10
4274.6516
 11
4270.751518
 20
432.085602
 21
433.154052
  0
LINE
  8
APS_GEOMETR�
 10
4270.751518
 11
4254.871175
 20
433.154052
 21
449.390374
  0
LINE
  8
APS_GEOMETR�
 10
4254.871175
 11
4270.751518
 20
449.390374
 21
465.626697
  0
LINE
  8
APS_GEOMETR�
 10
4270.751518
 11
4274.6516
 20
465.626697
 21
466.695146
  0
LINE
  8
APS_GEOMETR�
 10
4274.6516
 11
4274.6516
 20
466.695146
 21
432.085602
  0
LINE
  8
APS_GEOMETR�
 10
4262.348008
 11
4246.467665
 20
373.914012
 21
390.150334
  0
LINE
  8
APS_GEOMETR�
 10
4246.467665
 11
4224.774713
 20
390.150334
 21
396.093241
  0
LINE
  8
APS_GEOMETR�
 10
4224.774713
 11
4218.962104
 20
396.093241
 21
373.914012
  0
LINE
  8
APS_GEOMETR�
 10
4218.962104
 11
4224.774713
 20
373.914012
 21
351.734783
  0
LINE
  8
APS_GEOMETR�
 10
4224.774713
 11
4246.467665
 20
351.734783
 21
357.67769
  0
LINE
  8
APS_GEOMETR�
 10
4246.467665
 11
4262.348008
 20
357.67769
 21
373.914012
  0
LINE
  8
APS_GEOMETR�
 10
4140.637123
 11
4123.108411
 20
153.774622
 21
171.696263
  0
LINE
  8
APS_GEOMETR�
 10
4123.108411
 11
4099.163745
 20
171.696263
 21
178.256039
  0
LINE
  8
APS_GEOMETR�
 10
4099.163745
 11
4104.976354
 20
178.256039
 21
200.435268
  0
LINE
  8
APS_GEOMETR�
 10
4104.976354
 11
4120.856698
 20
200.435268
 21
216.67159
  0
LINE
  8
APS_GEOMETR�
 10
4120.856698
 11
4138.385409
 20
216.67159
 21
198.749949
  0
LINE
  8
APS_GEOMETR�
 10
4138.385409
 11
4162.330075
 20
198.749949
 21
192.190173
  0
LINE
  8
APS_GEOMETR�
 10
4162.330075
 11
4156.517466
 20
192.190173
 21
170.010944
  0
LINE
  8
APS_GEOMETR�
 10
4156.517466
 11
4140.637123
 20
170.010944
 21
153.774622
  0
LINE
  8
APS_GEOMETR�
 10
4164.581789
 11
4142.888837
 20
200.782058
 21
206.724965
  0
LINE
  8
APS_GEOMETR�
 10
4142.888837
 11
4127.008494
 20
206.724965
 21
222.961287
  0
LINE
  8
APS_GEOMETR�
 10
4127.008494
 11
4142.888837
 20
222.961287
 21
239.19761
  0
LINE
  8
APS_GEOMETR�
 10
4142.888837
 11
4164.581789
 20
239.19761
 21
245.140516
  0
LINE
  8
APS_GEOMETR�
 10
4164.581789
 11
4170.394398
 20
245.140516
 21
222.961287
  0
LINE
  8
APS_GEOMETR�
 10
4170.394398
 11
4164.581789
 20
222.961287
 21
200.782058
  0
LINE
  8
APS_GEOMETR�
 10
4274.6516
 11
4266.24809
 20
173.998452
 21
171.696263
  0
LINE
  8
APS_GEOMETR�
 10
4266.24809
 11
4248.719378
 20
171.696263
 21
153.774622
  0
LINE
  8
APS_GEOMETR�
 10
4248.719378
 11
4232.839035
 20
153.774622
 21
170.010944
  0
LINE
  8
APS_GEOMETR�
 10
4232.839035
 11
4227.026426
 20
170.010944
 21
192.190173
  0
LINE
  8
APS_GEOMETR�
 10
4227.026426
 11
4250.971092
 20
192.190173
 21
198.749949
  0
LINE
  8
APS_GEOMETR�
 10
4250.971092
 11
4268.499804
 20
198.749949
 21
216.67159
  0
LINE
  8
APS_GEOMETR�
 10
4268.499804
 11
4274.6516
 20
216.67159
 21
210.381894
  0
LINE
  8
APS_GEOMETR�
 10
4274.6516
 11
4274.6516
 20
210.381894
 21
173.998452
  0
LINE
  8
APS_GEOMETR�
 10
4216.371203
 11
4194.678251
 20
198.47987
 21
192.536963
  0
LINE
  8
APS_GEOMETR�
 10
4194.678251
 11
4172.985299
 20
192.536963
 21
198.47987
  0
LINE
  8
APS_GEOMETR�
 10
4172.985299
 11
4179.401253
 20
198.47987
 21
222.961287
  0
LINE
  8
APS_GEOMETR�
 10
4179.401253
 11
4172.985299
 20
222.961287
 21
247.442705
  0
LINE
  8
APS_GEOMETR�
 10
4172.985299
 11
4194.678251
 20
247.442705
 21
253.385611
  0
LINE
  8
APS_GEOMETR�
 10
4194.678251
 11
4216.371203
 20
253.385611
 21
247.442705
  0
LINE
  8
APS_GEOMETR�
 10
4216.371203
 11
4209.955249
 20
247.442705
 21
222.961287
  0
LINE
  8
APS_GEOMETR�
 10
4209.955249
 11
4216.371203
 20
222.961287
 21
198.47987
  0
LINE
  8
APS_GEOMETR�
 10
4246.467665
 11
4224.774713
 20
206.724965
 21
200.782058
  0
LINE
  8
APS_GEOMETR�
 10
4224.774713
 11
4218.962104
 20
200.782058
 21
222.961287
  0
LINE
  8
APS_GEOMETR�
 10
4218.962104
 11
4224.774713
 20
222.961287
 21
245.140516
  0
LINE
  8
APS_GEOMETR�
 10
4224.774713
 11
4246.467665
 20
245.140516
 21
239.19761
  0
LINE
  8
APS_GEOMETR�
 10
4246.467665
 11
4262.348008
 20
239.19761
 21
222.961287
  0
LINE
  8
APS_GEOMETR�
 10
4262.348008
 11
4246.467665
 20
222.961287
 21
206.724965
  0
LINE
  8
APS_GEOMETR�
 10
4093.017156
 11
4096.912032
 20
154.802438
 21
169.664154
  0
LINE
  8
APS_GEOMETR�
 10
4096.912032
 11
4118.604984
 20
169.664154
 21
163.721247
  0
LINE
  8
APS_GEOMETR�
 10
4118.604984
 11
4127.32825
 20
163.721247
 21
154.802438
  0
LINE
  8
APS_GEOMETR�
 10
4058.320792
 11
4053.822571
 20
154.802438
 21
171.966342
  0
LINE
  8
APS_GEOMETR�
 10
4053.822571
 11
4071.165547
 20
171.966342
 21
176.717548
  0
LINE
  8
APS_GEOMETR�
 10
4071.165547
 11
4088.508522
 20
176.717548
 21
171.966342
  0
LINE
  8
APS_GEOMETR�
 10
4088.508522
 11
4084.010301
 20
171.966342
 21
154.802438
  0
LINE
  8
APS_GEOMETR�
 10
4262.028252
 11
4270.751518
 20
154.802438
 21
163.721247
  0
LINE
  8
APS_GEOMETR�
 10
4270.751518
 11
4274.6516
 20
163.721247
 21
164.789697
  0
LINE
  8
APS_GEOMETR�
 10
4274.6516
 11
4274.6516
 20
164.789697
 21
154.802438
  0
LINE
  8
APS_GEOMETR�
 10
4274.6516
 11
4270.751518
 20
281.132878
 21
282.201327
  0
LINE
  8
APS_GEOMETR�
 10
4270.751518
 11
4254.871175
 20
282.201327
 21
298.43765
  0
LINE
  8
APS_GEOMETR�
 10
4254.871175
 11
4270.751518
 20
298.43765
 21
314.673972
  0
LINE
  8
APS_GEOMETR�
 10
4270.751518
 11
4274.6516
 20
314.673972
 21
315.742421
  0
LINE
  8
APS_GEOMETR�
 10
4274.6516
 11
4274.6516
 20
315.742421
 21
281.132878
  0
LINE
  8
APS_GEOMETR�
 10
4268.499804
 11
4250.971092
 20
229.250984
 21
247.172626
  0
LINE
  8
APS_GEOMETR�
 10
4250.971092
 11
4227.026426
 20
247.172626
 21
253.732402
  0
LINE
  8
APS_GEOMETR�
 10
4227.026426
 11
4232.839035
 20
253.732402
 21
275.91163
  0
LINE
  8
APS_GEOMETR�
 10
4232.839035
 11
4248.719378
 20
275.91163
 21
292.147953
  0
LINE
  8
APS_GEOMETR�
 10
4248.719378
 11
4266.24809
 20
292.147953
 21
274.226311
  0
LINE
  8
APS_GEOMETR�
 10
4266.24809
 11
4274.6516
 20
274.226311
 21
271.924122
  0
LINE
  8
APS_GEOMETR�
 10
4274.6516
 11
4274.6516
 20
271.924122
 21
235.540681
  0
LINE
  8
APS_GEOMETR�
 10
4274.6516
 11
4268.499804
 20
235.540681
 21
229.250984
  0
LINE
  8
APS_GEOMETR�
 10
4274.6516
 11
4266.24809
 20
324.951177
 21
322.648988
  0
LINE
  8
APS_GEOMETR�
 10
4266.24809
 11
4248.719378
 20
322.648988
 21
304.727346
  0
LINE
  8
APS_GEOMETR�
 10
4248.719378
 11
4232.839035
 20
304.727346
 21
320.963669
  0
LINE
  8
APS_GEOMETR�
 10
4232.839035
 11
4227.026426
 20
320.963669
 21
343.142897
  0
LINE
  8
APS_GEOMETR�
 10
4227.026426
 11
4250.971092
 20
343.142897
 21
349.702674
  0
LINE
  8
APS_GEOMETR�
 10
4250.971092
 11
4268.499804
 20
349.702674
 21
367.624315
  0
LINE
  8
APS_GEOMETR�
 10
4268.499804
 11
4274.6516
 20
367.624315
 21
361.334618
  0
LINE
  8
APS_GEOMETR�
 10
4274.6516
 11
4274.6516
 20
361.334618
 21
324.951177
  0
LINE
  8
APS_GEOMETR�
 10
3873.831289
 11
3857.950946
 20
1285.880611
 21
1302.116933
  0
LINE
  8
APS_GEOMETR�
 10
3857.950946
 11
3852.138337
 20
1302.116933
 21
1324.296162
  0
LINE
  8
APS_GEOMETR�
 10
3852.138337
 11
3876.083003
 20
1324.296162
 21
1330.855938
  0
LINE
  8
APS_GEOMETR�
 10
3876.083003
 11
3893.611715
 20
1330.855938
 21
1348.77758
  0
LINE
  8
APS_GEOMETR�
 10
3893.611715
 11
3909.492058
 20
1348.77758
 21
1332.541257
  0
LINE
  8
APS_GEOMETR�
 10
3909.492058
 11
3915.304667
 20
1332.541257
 21
1310.362029
  0
LINE
  8
APS_GEOMETR�
 10
3915.304667
 11
3891.360001
 20
1310.362029
 21
1303.802253
  0
LINE
  8
APS_GEOMETR�
 10
3891.360001
 11
3873.831289
 20
1303.802253
 21
1285.880611
  0
LINE
  8
APS_GEOMETR�
 10
3875.920561
 11
3887.459918
 20
1366.865305
 21
1355.067277
  0
LINE
  8
APS_GEOMETR�
 10
3887.459918
 11
3871.579575
 20
1355.067277
 21
1338.830954
  0
LINE
  8
APS_GEOMETR�
 10
3871.579575
 11
3849.886623
 20
1338.830954
 21
1332.888048
  0
LINE
  8
APS_GEOMETR�
 10
3849.886623
 11
3844.074014
 20
1332.888048
 21
1355.067277
  0
LINE
  8
APS_GEOMETR�
 10
3844.074014
 11
3844.931547
 20
1355.067277
 21
1358.339372
  0
LINE
  8
APS_GEOMETR�
 10
3835.100656
 11
3841.483113
 20
1354.939464
 21
1330.585859
  0
LINE
  8
APS_GEOMETR�
 10
3841.483113
 11
3824.140138
 20
1330.585859
 21
1325.834653
  0
LINE
  8
APS_GEOMETR�
 10
3824.140138
 11
3806.797163
 20
1325.834653
 21
1330.585859
  0
LINE
  8
APS_GEOMETR�
 10
3806.797163
 11
3810.541875
 20
1330.585859
 21
1344.874595
  0
LINE
  8
APS_GEOMETR�
 10
4021.474396
 11
4003.945684
 20
1285.880611
 21
1303.802253
  0
LINE
  8
APS_GEOMETR�
 10
4003.945684
 11
3980.001018
 20
1303.802253
 21
1310.362029
  0
LINE
  8
APS_GEOMETR�
 10
3980.001018
 11
3985.813627
 20
1310.362029
 21
1332.541257
  0
LINE
  8
APS_GEOMETR�
 10
3985.813627
 11
4001.69397
 20
1332.541257
 21
1348.77758
  0
LINE
  8
APS_GEOMETR�
 10
4001.69397
 11
4019.222682
 20
1348.77758
 21
1330.855938
  0
LINE
  8
APS_GEOMETR�
 10
4019.222682
 11
4043.167348
 20
1330.855938
 21
1324.296162
  0
LINE
  8
APS_GEOMETR�
 10
4043.167348
 11
4037.354739
 20
1324.296162
 21
1302.116933
  0
LINE
  8
APS_GEOMETR�
 10
4037.354739
 11
4021.474396
 20
1302.116933
 21
1285.880611
  0
LINE
  8
APS_GEOMETR�
 10
4050.334945
 11
4051.23167
 20
1358.488919
 21
1355.067277
  0
LINE
  8
APS_GEOMETR�
 10
4051.23167
 11
4045.419061
 20
1355.067277
 21
1332.888048
  0
LINE
  8
APS_GEOMETR�
 10
4045.419061
 11
4023.726109
 20
1332.888048
 21
1338.830954
  0
LINE
  8
APS_GEOMETR�
 10
4023.726109
 11
4007.845766
 20
1338.830954
 21
1355.067277
  0
LINE
  8
APS_GEOMETR�
 10
4007.845766
 11
4019.459824
 20
1355.067277
 21
1366.941679
  0
LINE
  8
APS_GEOMETR�
 10
3977.897152
 11
3978.013462
 20
1373.432723
 21
1372.988918
  0
LINE
  8
APS_GEOMETR�
 10
3978.013462
 11
3995.542174
 20
1372.988918
 21
1355.067277
  0
LINE
  8
APS_GEOMETR�
 10
3995.542174
 11
3978.013462
 20
1355.067277
 21
1337.145635
  0
LINE
  8
APS_GEOMETR�
 10
3978.013462
 11
3971.597508
 20
1337.145635
 21
1312.664217
  0
LINE
  8
APS_GEOMETR�
 10
3971.597508
 11
3947.652842
 20
1312.664217
 21
1319.223994
  0
LINE
  8
APS_GEOMETR�
 10
3947.652842
 11
3923.708177
 20
1319.223994
 21
1312.664217
  0
LINE
  8
APS_GEOMETR�
 10
3923.708177
 11
3917.292223
 20
1312.664217
 21
1337.145635
  0
LINE
  8
APS_GEOMETR�
 10
3917.292223
 11
3899.763511
 20
1337.145635
 21
1355.067277
  0
LINE
  8
APS_GEOMETR�
 10
3899.763511
 11
3917.292223
 20
1355.067277
 21
1372.988918
  0
LINE
  8
APS_GEOMETR�
 10
3917.292223
 11
3917.398212
 20
1372.988918
 21
1373.393344
  0
LINE
  8
APS_GEOMETR�
 10
3841.483113
 11
3824.140138
 20
1179.633134
 21
1174.881929
  0
LINE
  8
APS_GEOMETR�
 10
3824.140138
 11
3806.797163
 20
1174.881929
 21
1179.633134
  0
LINE
  8
APS_GEOMETR�
 10
3806.797163
 11
3813.213117
 20
1179.633134
 21
1204.114552
  0
LINE
  8
APS_GEOMETR�
 10
3813.213117
 11
3806.797163
 20
1204.114552
 21
1228.595969
  0
LINE
  8
APS_GEOMETR�
 10
3806.797163
 11
3824.140138
 20
1228.595969
 21
1233.347175
  0
LINE
  8
APS_GEOMETR�
 10
3824.140138
 11
3841.483113
 20
1233.347175
 21
1228.595969
  0
LINE
  8
APS_GEOMETR�
 10
3841.483113
 11
3835.06716
 20
1228.595969
 21
1204.114552
  0
LINE
  8
APS_GEOMETR�
 10
3835.06716
 11
3841.483113
 20
1204.114552
 21
1179.633134
  0
LINE
  8
APS_GEOMETR�
 10
3843.734827
 11
3824.140138
 20
1237.187855
 21
1242.555931
  0
LINE
  8
APS_GEOMETR�
 10
3824.140138
 11
3804.545449
 20
1242.555931
 21
1237.187855
  0
LINE
  8
APS_GEOMETR�
 10
3804.545449
 11
3798.129495
 20
1237.187855
 21
1261.669273
  0
LINE
  8
APS_GEOMETR�
 10
3798.129495
 11
3780.600783
 20
1261.669273
 21
1279.590914
  0
LINE
  8
APS_GEOMETR�
 10
3780.600783
 11
3798.129495
 20
1279.590914
 21
1297.512556
  0
LINE
  8
APS_GEOMETR�
 10
3798.129495
 11
3804.545449
 20
1297.512556
 21
1321.993973
  0
LINE
  8
APS_GEOMETR�
 10
3804.545449
 11
3824.140138
 20
1321.993973
 21
1316.625898
  0
LINE
  8
APS_GEOMETR�
 10
3824.140138
 11
3843.734827
 20
1316.625898
 21
1321.993973
  0
LINE
  8
APS_GEOMETR�
 10
3843.734827
 11
3850.150781
 20
1321.993973
 21
1297.512556
  0
LINE
  8
APS_GEOMETR�
 10
3850.150781
 11
3867.679493
 20
1297.512556
 21
1279.590914
  0
LINE
  8
APS_GEOMETR�
 10
3867.679493
 11
3850.150781
 20
1279.590914
 21
1261.669273
  0
LINE
  8
APS_GEOMETR�
 10
3850.150781
 11
3843.734827
 20
1261.669273
 21
1237.187855
  0
LINE
  8
APS_GEOMETR�
 10
3917.55638
 11
3895.863428
 20
1257.411685
 21
1263.354592
  0
LINE
  8
APS_GEOMETR�
 10
3895.863428
 11
3879.983085
 20
1263.354592
 21
1279.590914
  0
LINE
  8
APS_GEOMETR�
 10
3879.983085
 11
3895.863428
 20
1279.590914
 21
1295.827237
  0
LINE
  8
APS_GEOMETR�
 10
3895.863428
 11
3917.55638
 20
1295.827237
 21
1301.770143
  0
LINE
  8
APS_GEOMETR�
 10
3917.55638
 11
3923.368989
 20
1301.770143
 21
1279.590914
  0
LINE
  8
APS_GEOMETR�
 10
3923.368989
 11
3917.55638
 20
1279.590914
 21
1257.411685
  0
LINE
  8
APS_GEOMETR�
 10
3999.442256
 11
3977.749304
 20
1263.354592
 21
1257.411685
  0
LINE
  8
APS_GEOMETR�
 10
3977.749304
 11
3971.936695
 20
1257.411685
 21
1279.590914
  0
LINE
  8
APS_GEOMETR�
 10
3971.936695
 11
3977.749304
 20
1279.590914
 21
1301.770143
  0
LINE
  8
APS_GEOMETR�
 10
3977.749304
 11
3999.442256
 20
1301.770143
 21
1295.827237
  0
LINE
  8
APS_GEOMETR�
 10
3999.442256
 11
4015.322599
 20
1295.827237
 21
1279.590914
  0
LINE
  8
APS_GEOMETR�
 10
4015.322599
 11
3999.442256
 20
1279.590914
 21
1263.354592
  0
LINE
  8
APS_GEOMETR�
 10
3893.611715
 11
3876.083003
 20
153.774622
 21
171.696263
  0
LINE
  8
APS_GEOMETR�
 10
3876.083003
 11
3852.138337
 20
171.696263
 21
178.256039
  0
LINE
  8
APS_GEOMETR�
 10
3852.138337
 11
3857.950946
 20
178.256039
 21
200.435268
  0
LINE
  8
APS_GEOMETR�
 10
3857.950946
 11
3873.831289
 20
200.435268
 21
216.67159
  0
LINE
  8
APS_GEOMETR�
 10
3873.831289
 11
3891.360001
 20
216.67159
 21
198.749949
  0
LINE
  8
APS_GEOMETR�
 10
3891.360001
 11
3915.304667
 20
198.749949
 21
192.190173
  0
LINE
  8
APS_GEOMETR�
 10
3915.304667
 11
3909.492058
 20
192.190173
 21
170.010944
  0
LINE
  8
APS_GEOMETR�
 10
3909.492058
 11
3893.611715
 20
170.010944
 21
153.774622
  0
LINE
  8
APS_GEOMETR�
 10
3917.55638
 11
3895.863428
 20
200.782058
 21
206.724965
  0
LINE
  8
APS_GEOMETR�
 10
3895.863428
 11
3879.983085
 20
206.724965
 21
222.961287
  0
LINE
  8
APS_GEOMETR�
 10
3879.983085
 11
3895.863428
 20
222.961287
 21
239.19761
  0
LINE
  8
APS_GEOMETR�
 10
3895.863428
 11
3917.55638
 20
239.19761
 21
245.140516
  0
LINE
  8
APS_GEOMETR�
 10
3917.55638
 11
3923.368989
 20
245.140516
 21
222.961287
  0
LINE
  8
APS_GEOMETR�
 10
3923.368989
 11
3917.55638
 20
222.961287
 21
200.782058
  0
LINE
  8
APS_GEOMETR�
 10
4043.167348
 11
4019.222682
 20
178.256039
 21
171.696263
  0
LINE
  8
APS_GEOMETR�
 10
4019.222682
 11
4001.69397
 20
171.696263
 21
153.774622
  0
LINE
  8
APS_GEOMETR�
 10
4001.69397
 11
3985.813627
 20
153.774622
 21
170.010944
  0
LINE
  8
APS_GEOMETR�
 10
3985.813627
 11
3980.001018
 20
170.010944
 21
192.190173
  0
LINE
  8
APS_GEOMETR�
 10
3980.001018
 11
4003.945684
 20
192.190173
 21
198.749949
  0
LINE
  8
APS_GEOMETR�
 10
4003.945684
 11
4021.474396
 20
198.749949
 21
216.67159
  0
LINE
  8
APS_GEOMETR�
 10
4021.474396
 11
4037.354739
 20
216.67159
 21
200.435268
  0
LINE
  8
APS_GEOMETR�
 10
4037.354739
 11
4043.167348
 20
200.435268
 21
178.256039
  0
LINE
  8
APS_GEOMETR�
 10
3969.345794
 11
3947.652842
 20
198.47987
 21
192.536963
  0
LINE
  8
APS_GEOMETR�
 10
3947.652842
 11
3925.95989
 20
192.536963
 21
198.47987
  0
LINE
  8
APS_GEOMETR�
 10
3925.95989
 11
3932.375844
 20
198.47987
 21
222.961287
  0
LINE
  8
APS_GEOMETR�
 10
3932.375844
 11
3925.95989
 20
222.961287
 21
247.442705
  0
LINE
  8
APS_GEOMETR�
 10
3925.95989
 11
3947.652842
 20
247.442705
 21
253.385611
  0
LINE
  8
APS_GEOMETR�
 10
3947.652842
 11
3969.345794
 20
253.385611
 21
247.442705
  0
LINE
  8
APS_GEOMETR�
 10
3969.345794
 11
3962.929841
 20
247.442705
 21
222.961287
  0
LINE
  8
APS_GEOMETR�
 10
3962.929841
 11
3969.345794
 20
222.961287
 21
198.47987
  0
LINE
  8
APS_GEOMETR�
 10
3999.442256
 11
3977.749304
 20
206.724965
 21
200.782058
  0
LINE
  8
APS_GEOMETR�
 10
3977.749304
 11
3971.936695
 20
200.782058
 21
222.961287
  0
LINE
  8
APS_GEOMETR�
 10
3971.936695
 11
3977.749304
 20
222.961287
 21
245.140516
  0
LINE
  8
APS_GEOMETR�
 10
3977.749304
 11
3999.442256
 20
245.140516
 21
239.19761
  0
LINE
  8
APS_GEOMETR�
 10
3999.442256
 11
4015.322599
 20
239.19761
 21
222.961287
  0
LINE
  8
APS_GEOMETR�
 10
4015.322599
 11
3999.442256
 20
222.961287
 21
206.724965
  0
LINE
  8
APS_GEOMETR�
 10
3845.991747
 11
3849.886623
 20
154.802438
 21
169.664154
  0
LINE
  8
APS_GEOMETR�
 10
3849.886623
 11
3871.579575
 20
169.664154
 21
163.721247
  0
LINE
  8
APS_GEOMETR�
 10
3871.579575
 11
3880.302841
 20
163.721247
 21
154.802438
  0
LINE
  8
APS_GEOMETR�
 10
3811.295383
 11
3806.797163
 20
154.802438
 21
171.966342
  0
LINE
  8
APS_GEOMETR�
 10
3806.797163
 11
3824.140138
 20
171.966342
 21
176.717548
  0
LINE
  8
APS_GEOMETR�
 10
3824.140138
 11
3841.483113
 20
176.717548
 21
171.966342
  0
LINE
  8
APS_GEOMETR�
 10
3841.483113
 11
3836.984893
 20
171.966342
 21
154.802438
  0
LINE
  8
APS_GEOMETR�
 10
4015.002844
 11
4023.726109
 20
154.802438
 21
163.721247
  0
LINE
  8
APS_GEOMETR�
 10
4023.726109
 11
4045.419061
 20
163.721247
 21
169.664154
  0
LINE
  8
APS_GEOMETR�
 10
4045.419061
 11
4049.313937
 20
169.664154
 21
154.802438
  0
LINE
  8
APS_GEOMETR�
 10
3906.920588
 11
3917.292223
 20
154.802438
 21
165.406566
  0
LINE
  8
APS_GEOMETR�
 10
3917.292223
 11
3923.708177
 20
165.406566
 21
189.887984
  0
LINE
  8
APS_GEOMETR�
 10
3923.708177
 11
3947.652842
 20
189.887984
 21
183.328208
  0
LINE
  8
APS_GEOMETR�
 10
3947.652842
 11
3971.597508
 20
183.328208
 21
189.887984
  0
LINE
  8
APS_GEOMETR�
 10
3971.597508
 11
3978.013462
 20
189.887984
 21
165.406566
  0
LINE
  8
APS_GEOMETR�
 10
3978.013462
 11
3988.385096
 20
165.406566
 21
154.802438
  0
LINE
  8
APS_GEOMETR�
 10
3779.767558
 11
3796.141939
 20
1328.782016
 21
1324.296162
  0
LINE
  8
APS_GEOMETR�
 10
3796.141939
 11
3790.32933
 20
1324.296162
 21
1302.116933
  0
LINE
  8
APS_GEOMETR�
 10
3790.32933
 11
3774.448987
 20
1302.116933
 21
1285.880611
  0
LINE
  8
APS_GEOMETR�
 10
3774.448987
 11
3756.920275
 20
1285.880611
 21
1303.802253
  0
LINE
  8
APS_GEOMETR�
 10
3756.920275
 11
3746.892594
 20
1303.802253
 21
1306.549392
  0
LINE
  8
APS_GEOMETR�
 10
3800.242923
 11
3798.393653
 20
1339.944324
 21
1332.888048
  0
LINE
  8
APS_GEOMETR�
 10
3798.393653
 11
3790.725206
 20
1332.888048
 21
1334.988862
  0
LINE
  8
APS_GEOMETR�
 10
3652.433198
 11
3662.466649
 20
1191.846897
 21
1181.588533
  0
LINE
  8
APS_GEOMETR�
 10
3662.466649
 11
3668.279258
 20
1181.588533
 21
1159.409304
  0
LINE
  8
APS_GEOMETR�
 10
3668.279258
 11
3644.334592
 20
1159.409304
 21
1152.849528
  0
LINE
  8
APS_GEOMETR�
 10
3644.334592
 11
3631.946336
 20
1152.849528
 21
1140.183572
  0
LINE
  8
APS_GEOMETR�
 10
3774.448987
 11
3756.920275
 20
1134.927886
 21
1152.849528
  0
LINE
  8
APS_GEOMETR�
 10
3756.920275
 11
3732.975609
 20
1152.849528
 21
1159.409304
  0
LINE
  8
APS_GEOMETR�
 10
3732.975609
 11
3738.788218
 20
1159.409304
 21
1181.588533
  0
LINE
  8
APS_GEOMETR�
 10
3738.788218
 11
3754.668562
 20
1181.588533
 21
1197.824855
  0
LINE
  8
APS_GEOMETR�
 10
3754.668562
 11
3772.197273
 20
1197.824855
 21
1179.903214
  0
LINE
  8
APS_GEOMETR�
 10
3772.197273
 11
3796.141939
 20
1179.903214
 21
1173.343437
  0
LINE
  8
APS_GEOMETR�
 10
3796.141939
 11
3790.32933
 20
1173.343437
 21
1151.164209
  0
LINE
  8
APS_GEOMETR�
 10
3790.32933
 11
3774.448987
 20
1151.164209
 21
1134.927886
  0
LINE
  8
APS_GEOMETR�
 10
3798.393653
 11
3776.700701
 20
1181.935323
 21
1187.87823
  0
LINE
  8
APS_GEOMETR�
 10
3776.700701
 11
3760.820358
 20
1187.87823
 21
1204.114552
  0
LINE
  8
APS_GEOMETR�
 10
3760.820358
 11
3776.700701
 20
1204.114552
 21
1220.350874
  0
LINE
  8
APS_GEOMETR�
 10
3776.700701
 11
3798.393653
 20
1220.350874
 21
1226.293781
  0
LINE
  8
APS_GEOMETR�
 10
3798.393653
 11
3804.206262
 20
1226.293781
 21
1204.114552
  0
LINE
  8
APS_GEOMETR�
 10
3804.206262
 11
3798.393653
 20
1204.114552
 21
1181.935323
  0
LINE
  8
APS_GEOMETR�
 10
3684.954608
 11
3700.627434
 20
1244.251494
 21
1239.957835
  0
LINE
  8
APS_GEOMETR�
 10
3700.627434
 11
3724.5721
 20
1239.957835
 21
1246.517611
  0
LINE
  8
APS_GEOMETR�
 10
3724.5721
 11
3730.988053
 20
1246.517611
 21
1222.036193
  0
LINE
  8
APS_GEOMETR�
 10
3730.988053
 11
3748.516765
 20
1222.036193
 21
1204.114552
  0
LINE
  8
APS_GEOMETR�
 10
3748.516765
 11
3730.988053
 20
1204.114552
 21
1186.19291
  0
LINE
  8
APS_GEOMETR�
 10
3730.988053
 11
3724.5721
 20
1186.19291
 21
1161.711493
  0
LINE
  8
APS_GEOMETR�
 10
3724.5721
 11
3700.627434
 20
1161.711493
 21
1168.271269
  0
LINE
  8
APS_GEOMETR�
 10
3700.627434
 11
3676.682768
 20
1168.271269
 21
1161.711493
  0
LINE
  8
APS_GEOMETR�
 10
3676.682768
 11
3670.266814
 20
1161.711493
 21
1186.19291
  0
LINE
  8
APS_GEOMETR�
 10
3670.266814
 11
3656.679072
 20
1186.19291
 21
1200.08524
  0
LINE
  8
APS_GEOMETR�
 10
3668.089931
 11
3670.266814
 20
1219.810512
 21
1222.036193
  0
LINE
  8
APS_GEOMETR�
 10
3670.266814
 11
3670.799732
 20
1222.036193
 21
1224.069652
  0
LINE
  8
APS_GEOMETR�
 10
3754.668562
 11
3738.788218
 20
1210.404249
 21
1226.640571
  0
LINE
  8
APS_GEOMETR�
 10
3738.788218
 11
3732.975609
 20
1226.640571
 21
1248.8198
  0
LINE
  8
APS_GEOMETR�
 10
3732.975609
 11
3756.920275
 20
1248.8198
 21
1255.379576
  0
LINE
  8
APS_GEOMETR�
 10
3756.920275
 11
3774.448987
 20
1255.379576
 21
1273.301217
  0
LINE
  8
APS_GEOMETR�
 10
3774.448987
 11
3790.32933
 20
1273.301217
 21
1257.064895
  0
LINE
  8
APS_GEOMETR�
 10
3790.32933
 11
3796.141939
 20
1257.064895
 21
1234.885666
  0
LINE
  8
APS_GEOMETR�
 10
3796.141939
 11
3772.197273
 20
1234.885666
 21
1228.32589
  0
LINE
  8
APS_GEOMETR�
 10
3772.197273
 11
3754.668562
 20
1228.32589
 21
1210.404249
  0
LINE
  8
APS_GEOMETR�
 10
3715.91762
 11
3722.320386
 20
1279.540592
 21
1255.109497
  0
LINE
  8
APS_GEOMETR�
 10
3722.320386
 11
3700.627434
 20
1255.109497
 21
1249.16659
  0
LINE
  8
APS_GEOMETR�
 10
3700.627434
 11
3690.884498
 20
1249.16659
 21
1251.835722
  0
LINE
  8
APS_GEOMETR�
 10
3738.275094
 11
3752.416848
 20
1299.70145
 21
1295.827237
  0
LINE
  8
APS_GEOMETR�
 10
3752.416848
 11
3768.297191
 20
1295.827237
 21
1279.590914
  0
LINE
  8
APS_GEOMETR�
 10
3768.297191
 11
3752.416848
 20
1279.590914
 21
1263.354592
  0
LINE
  8
APS_GEOMETR�
 10
3752.416848
 11
3730.723896
 20
1263.354592
 21
1257.411685
  0
LINE
  8
APS_GEOMETR�
 10
3730.723896
 11
3724.911287
 20
1257.411685
 21
1279.590914
  0
LINE
  8
APS_GEOMETR�
 10
3724.911287
 11
3727.834721
 20
1279.590914
 21
1290.745893
  0
LINE
  8
APS_GEOMETR�
 10
3627.043511
 11
3644.334592
 20
1122.105535
 21
1104.426851
  0
LINE
  8
APS_GEOMETR�
 10
3644.334592
 11
3668.279258
 20
1104.426851
 21
1097.867075
  0
LINE
  8
APS_GEOMETR�
 10
3668.279258
 11
3662.466649
 20
1097.867075
 21
1075.687846
  0
LINE
  8
APS_GEOMETR�
 10
3662.466649
 11
3646.586306
 20
1075.687846
 21
1059.451524
  0
LINE
  8
APS_GEOMETR�
 10
3646.586306
 11
3629.057594
 20
1059.451524
 21
1077.373166
  0
LINE
  8
APS_GEOMETR�
 10
3629.057594
 11
3620.654084
 20
1077.373166
 21
1079.675354
  0
LINE
  8
APS_GEOMETR�
 10
3620.654084
 11
3620.654084
 20
1079.675354
 21
1087.642337
  0
LINE
  8
APS_GEOMETR�
 10
3670.530972
 11
3648.83802
 20
1106.458961
 21
1112.401867
  0
LINE
  8
APS_GEOMETR�
 10
3648.83802
 11
3632.957677
 20
1112.401867
 21
1128.63819
  0
LINE
  8
APS_GEOMETR�
 10
3632.957677
 11
3648.83802
 20
1128.63819
 21
1144.874512
  0
LINE
  8
APS_GEOMETR�
 10
3648.83802
 11
3670.530972
 20
1144.874512
 21
1150.817418
  0
LINE
  8
APS_GEOMETR�
 10
3670.530972
 11
3676.343581
 20
1150.817418
 21
1128.63819
  0
LINE
  8
APS_GEOMETR�
 10
3676.343581
 11
3670.530972
 20
1128.63819
 21
1106.458961
  0
LINE
  8
APS_GEOMETR�
 10
3722.320386
 11
3700.627434
 20
1104.156772
 21
1098.213866
  0
LINE
  8
APS_GEOMETR�
 10
3700.627434
 11
3678.934482
 20
1098.213866
 21
1104.156772
  0
LINE
  8
APS_GEOMETR�
 10
3678.934482
 11
3685.350436
 20
1104.156772
 21
1128.63819
  0
LINE
  8
APS_GEOMETR�
 10
3685.350436
 11
3678.934482
 20
1128.63819
 21
1153.119607
  0
LINE
  8
APS_GEOMETR�
 10
3678.934482
 11
3700.627434
 20
1153.119607
 21
1159.062514
  0
LINE
  8
APS_GEOMETR�
 10
3700.627434
 11
3722.320386
 20
1159.062514
 21
1153.119607
  0
LINE
  8
APS_GEOMETR�
 10
3722.320386
 11
3715.904432
 20
1153.119607
 21
1128.63819
  0
LINE
  8
APS_GEOMETR�
 10
3715.904432
 11
3722.320386
 20
1128.63819
 21
1104.156772
  0
LINE
  8
APS_GEOMETR�
 10
3752.416848
 11
3730.723896
 20
1112.401867
 21
1106.458961
  0
LINE
  8
APS_GEOMETR�
 10
3730.723896
 11
3724.911287
 20
1106.458961
 21
1128.63819
  0
LINE
  8
APS_GEOMETR�
 10
3724.911287
 11
3730.723896
 20
1128.63819
 21
1150.817418
  0
LINE
  8
APS_GEOMETR�
 10
3730.723896
 11
3752.416848
 20
1150.817418
 21
1144.874512
  0
LINE
  8
APS_GEOMETR�
 10
3752.416848
 11
3768.297191
 20
1144.874512
 21
1128.63819
  0
LINE
  8
APS_GEOMETR�
 10
3768.297191
 11
3752.416848
 20
1128.63819
 21
1112.401867
  0
LINE
  8
APS_GEOMETR�
 10
3626.805881
 11
3620.654084
 20
983.975162
 21
990.264859
  0
LINE
  8
APS_GEOMETR�
 10
3620.654084
 11
3620.654084
 20
990.264859
 21
1026.6483
  0
LINE
  8
APS_GEOMETR�
 10
3620.654084
 11
3629.057594
 20
1026.6483
 21
1028.950489
  0
LINE
  8
APS_GEOMETR�
 10
3629.057594
 11
3646.586306
 20
1028.950489
 21
1046.87213
  0
LINE
  8
APS_GEOMETR�
 10
3646.586306
 11
3662.466649
 20
1046.87213
 21
1030.635808
  0
LINE
  8
APS_GEOMETR�
 10
3662.466649
 11
3668.279258
 20
1030.635808
 21
1008.456579
  0
LINE
  8
APS_GEOMETR�
 10
3668.279258
 11
3644.334592
 20
1008.456579
 21
1001.896803
  0
LINE
  8
APS_GEOMETR�
 10
3644.334592
 11
3626.805881
 20
1001.896803
 21
983.975162
  0
LINE
  8
APS_GEOMETR�
 10
3624.554167
 11
3620.654084
 20
1036.925505
 21
1035.857055
  0
LINE
  8
APS_GEOMETR�
 10
3620.654084
 11
3620.654084
 20
1035.857055
 21
1070.466599
  0
LINE
  8
APS_GEOMETR�
 10
3620.654084
 11
3624.554167
 20
1070.466599
 21
1069.39815
  0
LINE
  8
APS_GEOMETR�
 10
3624.554167
 11
3640.43451
 20
1069.39815
 21
1053.161827
  0
LINE
  8
APS_GEOMETR�
 10
3640.43451
 11
3624.554167
 20
1053.161827
 21
1036.925505
  0
LINE
  8
APS_GEOMETR�
 10
3646.586306
 11
3629.057594
 20
757.58552
 21
775.507162
  0
LINE
  8
APS_GEOMETR�
 10
3629.057594
 11
3620.654084
 20
775.507162
 21
777.809351
  0
LINE
  8
APS_GEOMETR�
 10
3620.654084
 11
3620.654084
 20
777.809351
 21
814.192792
  0
LINE
  8
APS_GEOMETR�
 10
3620.654084
 11
3626.805881
 20
814.192792
 21
820.482489
  0
LINE
  8
APS_GEOMETR�
 10
3626.805881
 11
3644.334592
 20
820.482489
 21
802.560848
  0
LINE
  8
APS_GEOMETR�
 10
3644.334592
 11
3668.279258
 20
802.560848
 21
796.001071
  0
LINE
  8
APS_GEOMETR�
 10
3668.279258
 11
3662.466649
 20
796.001071
 21
773.821843
  0
LINE
  8
APS_GEOMETR�
 10
3662.466649
 11
3646.586306
 20
773.821843
 21
757.58552
  0
LINE
  8
APS_GEOMETR�
 10
3670.530972
 11
3648.83802
 20
804.592957
 21
810.535864
  0
LINE
  8
APS_GEOMETR�
 10
3648.83802
 11
3632.957677
 20
810.535864
 21
826.772186
  0
LINE
  8
APS_GEOMETR�
 10
3632.957677
 11
3648.83802
 20
826.772186
 21
843.008508
  0
LINE
  8
APS_GEOMETR�
 10
3648.83802
 11
3670.530972
 20
843.008508
 21
848.951415
  0
LINE
  8
APS_GEOMETR�
 10
3670.530972
 11
3676.343581
 20
848.951415
 21
826.772186
  0
LINE
  8
APS_GEOMETR�
 10
3676.343581
 11
3670.530972
 20
826.772186
 21
804.592957
  0
LINE
  8
APS_GEOMETR�
 10
3626.805881
 11
3620.654084
 20
682.109158
 21
688.398855
  0
LINE
  8
APS_GEOMETR�
 10
3620.654084
 11
3620.654084
 20
688.398855
 21
724.782296
  0
LINE
  8
APS_GEOMETR�
 10
3620.654084
 11
3629.057594
 20
724.782296
 21
727.084485
  0
LINE
  8
APS_GEOMETR�
 10
3629.057594
 11
3646.586306
 20
727.084485
 21
745.006127
  0
LINE
  8
APS_GEOMETR�
 10
3646.586306
 11
3662.466649
 20
745.006127
 21
728.769804
  0
LINE
  8
APS_GEOMETR�
 10
3662.466649
 11
3668.279258
 20
728.769804
 21
706.590576
  0
LINE
  8
APS_GEOMETR�
 10
3668.279258
 11
3644.334592
 20
706.590576
 21
700.0308
  0
LINE
  8
APS_GEOMETR�
 10
3644.334592
 11
3626.805881
 20
700.0308
 21
682.109158
  0
LINE
  8
APS_GEOMETR�
 10
3624.554167
 11
3620.654084
 20
735.059501
 21
733.991052
  0
LINE
  8
APS_GEOMETR�
 10
3620.654084
 11
3620.654084
 20
733.991052
 21
768.600595
  0
LINE
  8
APS_GEOMETR�
 10
3620.654084
 11
3624.554167
 20
768.600595
 21
767.532146
  0
LINE
  8
APS_GEOMETR�
 10
3624.554167
 11
3640.43451
 20
767.532146
 21
751.295824
  0
LINE
  8
APS_GEOMETR�
 10
3640.43451
 11
3624.554167
 20
751.295824
 21
735.059501
  0
LINE
  8
APS_GEOMETR�
 10
3624.554167
 11
3620.654084
 20
886.012226
 21
884.943776
  0
LINE
  8
APS_GEOMETR�
 10
3620.654084
 11
3620.654084
 20
884.943776
 21
919.55332
  0
LINE
  8
APS_GEOMETR�
 10
3620.654084
 11
3624.554167
 20
919.55332
 21
918.484871
  0
LINE
  8
APS_GEOMETR�
 10
3624.554167
 11
3640.43451
 20
918.484871
 21
902.248548
  0
LINE
  8
APS_GEOMETR�
 10
3640.43451
 11
3624.554167
 20
902.248548
 21
886.012226
  0
LINE
  8
APS_GEOMETR�
 10
3626.805881
 11
3620.654084
 20
833.061883
 21
839.35158
  0
LINE
  8
APS_GEOMETR�
 10
3620.654084
 11
3620.654084
 20
839.35158
 21
875.735021
  0
LINE
  8
APS_GEOMETR�
 10
3620.654084
 11
3629.057594
 20
875.735021
 21
878.03721
  0
LINE
  8
APS_GEOMETR�
 10
3629.057594
 11
3646.586306
 20
878.03721
 21
895.958851
  0
LINE
  8
APS_GEOMETR�
 10
3646.586306
 11
3662.466649
 20
895.958851
 21
879.722529
  0
LINE
  8
APS_GEOMETR�
 10
3662.466649
 11
3668.279258
 20
879.722529
 21
857.5433
  0
LINE
  8
APS_GEOMETR�
 10
3668.279258
 11
3644.334592
 20
857.5433
 21
850.983524
  0
LINE
  8
APS_GEOMETR�
 10
3644.334592
 11
3626.805881
 20
850.983524
 21
833.061883
  0
LINE
  8
APS_GEOMETR�
 10
3646.586306
 11
3629.057594
 20
908.538245
 21
926.459887
  0
LINE
  8
APS_GEOMETR�
 10
3629.057594
 11
3620.654084
 20
926.459887
 21
928.762075
  0
LINE
  8
APS_GEOMETR�
 10
3620.654084
 11
3620.654084
 20
928.762075
 21
965.145517
  0
LINE
  8
APS_GEOMETR�
 10
3620.654084
 11
3626.805881
 20
965.145517
 21
971.435214
  0
LINE
  8
APS_GEOMETR�
 10
3626.805881
 11
3644.334592
 20
971.435214
 21
953.513572
  0
LINE
  8
APS_GEOMETR�
 10
3644.334592
 11
3668.279258
 20
953.513572
 21
946.953796
  0
LINE
  8
APS_GEOMETR�
 10
3668.279258
 11
3662.466649
 20
946.953796
 21
924.774567
  0
LINE
  8
APS_GEOMETR�
 10
3662.466649
 11
3646.586306
 20
924.774567
 21
908.538245
  0
LINE
  8
APS_GEOMETR�
 10
3624.554167
 11
3620.654084
 20
584.106777
 21
583.038327
  0
LINE
  8
APS_GEOMETR�
 10
3620.654084
 11
3620.654084
 20
583.038327
 21
617.647871
  0
LINE
  8
APS_GEOMETR�
 10
3620.654084
 11
3624.554167
 20
617.647871
 21
616.579421
  0
LINE
  8
APS_GEOMETR�
 10
3624.554167
 11
3640.43451
 20
616.579421
 21
600.343099
  0
LINE
  8
APS_GEOMETR�
 10
3640.43451
 11
3624.554167
 20
600.343099
 21
584.106777
  0
LINE
  8
APS_GEOMETR�
 10
3626.805881
 11
3620.654084
 20
531.156433
 21
537.44613
  0
LINE
  8
APS_GEOMETR�
 10
3620.654084
 11
3620.654084
 20
537.44613
 21
573.829572
  0
LINE
  8
APS_GEOMETR�
 10
3620.654084
 11
3629.057594
 20
573.829572
 21
576.131761
  0
LINE
  8
APS_GEOMETR�
 10
3629.057594
 11
3646.586306
 20
576.131761
 21
594.053402
  0
LINE
  8
APS_GEOMETR�
 10
3646.586306
 11
3662.466649
 20
594.053402
 21
577.81708
  0
LINE
  8
APS_GEOMETR�
 10
3662.466649
 11
3668.279258
 20
577.81708
 21
555.637851
  0
LINE
  8
APS_GEOMETR�
 10
3668.279258
 11
3644.334592
 20
555.637851
 21
549.078075
  0
LINE
  8
APS_GEOMETR�
 10
3644.334592
 11
3626.805881
 20
549.078075
 21
531.156433
  0
LINE
  8
APS_GEOMETR�
 10
3646.586306
 11
3629.057594
 20
606.632796
 21
624.554437
  0
LINE
  8
APS_GEOMETR�
 10
3629.057594
 11
3620.654084
 20
624.554437
 21
626.856626
  0
LINE
  8
APS_GEOMETR�
 10
3620.654084
 11
3620.654084
 20
626.856626
 21
663.240068
  0
LINE
  8
APS_GEOMETR�
 10
3620.654084
 11
3626.805881
 20
663.240068
 21
669.529764
  0
LINE
  8
APS_GEOMETR�
 10
3626.805881
 11
3644.334592
 20
669.529764
 21
651.608123
  0
LINE
  8
APS_GEOMETR�
 10
3644.334592
 11
3668.279258
 20
651.608123
 21
645.048347
  0
LINE
  8
APS_GEOMETR�
 10
3668.279258
 11
3662.466649
 20
645.048347
 21
622.869118
  0
LINE
  8
APS_GEOMETR�
 10
3662.466649
 11
3646.586306
 20
622.869118
 21
606.632796
  0
LINE
  8
APS_GEOMETR�
 10
3670.530972
 11
3648.83802
 20
653.640233
 21
659.583139
  0
LINE
  8
APS_GEOMETR�
 10
3648.83802
 11
3632.957677
 20
659.583139
 21
675.819461
  0
LINE
  8
APS_GEOMETR�
 10
3632.957677
 11
3648.83802
 20
675.819461
 21
692.055784
  0
LINE
  8
APS_GEOMETR�
 10
3648.83802
 11
3670.530972
 20
692.055784
 21
697.99869
  0
LINE
  8
APS_GEOMETR�
 10
3670.530972
 11
3676.343581
 20
697.99869
 21
675.819461
  0
LINE
  8
APS_GEOMETR�
 10
3676.343581
 11
3670.530972
 20
675.819461
 21
653.640233
  0
LINE
  8
APS_GEOMETR�
 10
3670.530972
 11
3648.83802
 20
999.864694
 21
993.921787
  0
LINE
  8
APS_GEOMETR�
 10
3648.83802
 11
3632.957677
 20
993.921787
 21
977.685465
  0
LINE
  8
APS_GEOMETR�
 10
3632.957677
 11
3648.83802
 20
977.685465
 21
961.449143
  0
LINE
  8
APS_GEOMETR�
 10
3648.83802
 11
3670.530972
 20
961.449143
 21
955.506236
  0
LINE
  8
APS_GEOMETR�
 10
3670.530972
 11
3676.343581
 20
955.506236
 21
977.685465
  0
LINE
  8
APS_GEOMETR�
 10
3676.343581
 11
3670.530972
 20
977.685465
 21
999.864694
  0
LINE
  8
APS_GEOMETR�
 10
3646.586306
 11
3629.057594
 20
455.680071
 21
473.601713
  0
LINE
  8
APS_GEOMETR�
 10
3629.057594
 11
3620.654084
 20
473.601713
 21
475.903901
  0
LINE
  8
APS_GEOMETR�
 10
3620.654084
 11
3620.654084
 20
475.903901
 21
512.287343
  0
LINE
  8
APS_GEOMETR�
 10
3620.654084
 11
3626.805881
 20
512.287343
 21
518.57704
  0
LINE
  8
APS_GEOMETR�
 10
3626.805881
 11
3644.334592
 20
518.57704
 21
500.655398
  0
LINE
  8
APS_GEOMETR�
 10
3644.334592
 11
3668.279258
 20
500.655398
 21
494.095622
  0
LINE
  8
APS_GEOMETR�
 10
3668.279258
 11
3662.466649
 20
494.095622
 21
471.916393
  0
LINE
  8
APS_GEOMETR�
 10
3662.466649
 11
3646.586306
 20
471.916393
 21
455.680071
  0
LINE
  8
APS_GEOMETR�
 10
3670.530972
 11
3648.83802
 20
502.687508
 21
508.630414
  0
LINE
  8
APS_GEOMETR�
 10
3648.83802
 11
3632.957677
 20
508.630414
 21
524.866737
  0
LINE
  8
APS_GEOMETR�
 10
3632.957677
 11
3648.83802
 20
524.866737
 21
541.103059
  0
LINE
  8
APS_GEOMETR�
 10
3648.83802
 11
3670.530972
 20
541.103059
 21
547.045965
  0
LINE
  8
APS_GEOMETR�
 10
3670.530972
 11
3676.343581
 20
547.045965
 21
524.866737
  0
LINE
  8
APS_GEOMETR�
 10
3676.343581
 11
3670.530972
 20
524.866737
 21
502.687508
  0
LINE
  8
APS_GEOMETR�
 10
3626.805881
 11
3620.654084
 20
380.203709
 21
386.493406
  0
LINE
  8
APS_GEOMETR�
 10
3620.654084
 11
3620.654084
 20
386.493406
 21
422.876847
  0
LINE
  8
APS_GEOMETR�
 10
3620.654084
 11
3629.057594
 20
422.876847
 21
425.179036
  0
LINE
  8
APS_GEOMETR�
 10
3629.057594
 11
3646.586306
 20
425.179036
 21
443.100677
  0
LINE
  8
APS_GEOMETR�
 10
3646.586306
 11
3662.466649
 20
443.100677
 21
426.864355
  0
LINE
  8
APS_GEOMETR�
 10
3662.466649
 11
3668.279258
 20
426.864355
 21
404.685126
  0
LINE
  8
APS_GEOMETR�
 10
3668.279258
 11
3644.334592
 20
404.685126
 21
398.12535
  0
LINE
  8
APS_GEOMETR�
 10
3644.334592
 11
3626.805881
 20
398.12535
 21
380.203709
  0
LINE
  8
APS_GEOMETR�
 10
3624.554167
 11
3620.654084
 20
433.154052
 21
432.085602
  0
LINE
  8
APS_GEOMETR�
 10
3620.654084
 11
3620.654084
 20
432.085602
 21
466.695146
  0
LINE
  8
APS_GEOMETR�
 10
3620.654084
 11
3624.554167
 20
466.695146
 21
465.626697
  0
LINE
  8
APS_GEOMETR�
 10
3624.554167
 11
3640.43451
 20
465.626697
 21
449.390374
  0
LINE
  8
APS_GEOMETR�
 10
3640.43451
 11
3624.554167
 20
449.390374
 21
433.154052
  0
LINE
  8
APS_GEOMETR�
 10
3632.957677
 11
3648.83802
 20
373.914012
 21
390.150334
  0
LINE
  8
APS_GEOMETR�
 10
3648.83802
 11
3670.530972
 20
390.150334
 21
396.093241
  0
LINE
  8
APS_GEOMETR�
 10
3670.530972
 11
3676.343581
 20
396.093241
 21
373.914012
  0
LINE
  8
APS_GEOMETR�
 10
3676.343581
 11
3670.530972
 20
373.914012
 21
351.734783
  0
LINE
  8
APS_GEOMETR�
 10
3670.530972
 11
3648.83802
 20
351.734783
 21
357.67769
  0
LINE
  8
APS_GEOMETR�
 10
3648.83802
 11
3632.957677
 20
357.67769
 21
373.914012
  0
LINE
  8
APS_GEOMETR�
 10
3646.586306
 11
3629.057594
 20
153.774622
 21
171.696263
  0
LINE
  8
APS_GEOMETR�
 10
3629.057594
 11
3620.654084
 20
171.696263
 21
173.998452
  0
LINE
  8
APS_GEOMETR�
 10
3620.654084
 11
3620.654084
 20
173.998452
 21
210.381894
  0
LINE
  8
APS_GEOMETR�
 10
3620.654084
 11
3626.805881
 20
210.381894
 21
216.67159
  0
LINE
  8
APS_GEOMETR�
 10
3626.805881
 11
3644.334592
 20
216.67159
 21
198.749949
  0
LINE
  8
APS_GEOMETR�
 10
3644.334592
 11
3668.279258
 20
198.749949
 21
192.190173
  0
LINE
  8
APS_GEOMETR�
 10
3668.279258
 11
3662.466649
 20
192.190173
 21
170.010944
  0
LINE
  8
APS_GEOMETR�
 10
3662.466649
 11
3646.586306
 20
170.010944
 21
153.774622
  0
LINE
  8
APS_GEOMETR�
 10
3670.530972
 11
3648.83802
 20
200.782058
 21
206.724965
  0
LINE
  8
APS_GEOMETR�
 10
3648.83802
 11
3632.957677
 20
206.724965
 21
222.961287
  0
LINE
  8
APS_GEOMETR�
 10
3632.957677
 11
3648.83802
 20
222.961287
 21
239.19761
  0
LINE
  8
APS_GEOMETR�
 10
3648.83802
 11
3670.530972
 20
239.19761
 21
245.140516
  0
LINE
  8
APS_GEOMETR�
 10
3670.530972
 11
3676.343581
 20
245.140516
 21
222.961287
  0
LINE
  8
APS_GEOMETR�
 10
3676.343581
 11
3670.530972
 20
222.961287
 21
200.782058
  0
LINE
  8
APS_GEOMETR�
 10
3796.141939
 11
3772.197273
 20
178.256039
 21
171.696263
  0
LINE
  8
APS_GEOMETR�
 10
3772.197273
 11
3754.668562
 20
171.696263
 21
153.774622
  0
LINE
  8
APS_GEOMETR�
 10
3754.668562
 11
3738.788218
 20
153.774622
 21
170.010944
  0
LINE
  8
APS_GEOMETR�
 10
3738.788218
 11
3732.975609
 20
170.010944
 21
192.190173
  0
LINE
  8
APS_GEOMETR�
 10
3732.975609
 11
3756.920275
 20
192.190173
 21
198.749949
  0
LINE
  8
APS_GEOMETR�
 10
3756.920275
 11
3774.448987
 20
198.749949
 21
216.67159
  0
LINE
  8
APS_GEOMETR�
 10
3774.448987
 11
3790.32933
 20
216.67159
 21
200.435268
  0
LINE
  8
APS_GEOMETR�
 10
3790.32933
 11
3796.141939
 20
200.435268
 21
178.256039
  0
LINE
  8
APS_GEOMETR�
 10
3722.320386
 11
3700.627434
 20
198.47987
 21
192.536963
  0
LINE
  8
APS_GEOMETR�
 10
3700.627434
 11
3678.934482
 20
192.536963
 21
198.47987
  0
LINE
  8
APS_GEOMETR�
 10
3678.934482
 11
3685.350436
 20
198.47987
 21
222.961287
  0
LINE
  8
APS_GEOMETR�
 10
3685.350436
 11
3678.934482
 20
222.961287
 21
247.442705
  0
LINE
  8
APS_GEOMETR�
 10
3678.934482
 11
3700.627434
 20
247.442705
 21
253.385611
  0
LINE
  8
APS_GEOMETR�
 10
3700.627434
 11
3722.320386
 20
253.385611
 21
247.442705
  0
LINE
  8
APS_GEOMETR�
 10
3722.320386
 11
3715.904432
 20
247.442705
 21
222.961287
  0
LINE
  8
APS_GEOMETR�
 10
3715.904432
 11
3722.320386
 20
222.961287
 21
198.47987
  0
LINE
  8
APS_GEOMETR�
 10
3752.416848
 11
3730.723896
 20
206.724965
 21
200.782058
  0
LINE
  8
APS_GEOMETR�
 10
3730.723896
 11
3724.911287
 20
200.782058
 21
222.961287
  0
LINE
  8
APS_GEOMETR�
 10
3724.911287
 11
3730.723896
 20
222.961287
 21
245.140516
  0
LINE
  8
APS_GEOMETR�
 10
3730.723896
 11
3752.416848
 20
245.140516
 21
239.19761
  0
LINE
  8
APS_GEOMETR�
 10
3752.416848
 11
3768.297191
 20
239.19761
 21
222.961287
  0
LINE
  8
APS_GEOMETR�
 10
3768.297191
 11
3752.416848
 20
222.961287
 21
206.724965
  0
LINE
  8
APS_GEOMETR�
 10
3620.654084
 11
3620.654084
 20
154.802438
 21
164.789697
  0
LINE
  8
APS_GEOMETR�
 10
3620.654084
 11
3624.554167
 20
164.789697
 21
163.721247
  0
LINE
  8
APS_GEOMETR�
 10
3624.554167
 11
3633.277433
 20
163.721247
 21
154.802438
  0
LINE
  8
APS_GEOMETR�
 10
3767.977435
 11
3776.700701
 20
154.802438
 21
163.721247
  0
LINE
  8
APS_GEOMETR�
 10
3776.700701
 11
3798.393653
 20
163.721247
 21
169.664154
  0
LINE
  8
APS_GEOMETR�
 10
3798.393653
 11
3802.288529
 20
169.664154
 21
154.802438
  0
LINE
  8
APS_GEOMETR�
 10
3659.89518
 11
3670.266814
 20
154.802438
 21
165.406566
  0
LINE
  8
APS_GEOMETR�
 10
3670.266814
 11
3676.682768
 20
165.406566
 21
189.887984
  0
LINE
  8
APS_GEOMETR�
 10
3676.682768
 11
3700.627434
 20
189.887984
 21
183.328208
  0
LINE
  8
APS_GEOMETR�
 10
3700.627434
 11
3724.5721
 20
183.328208
 21
189.887984
  0
LINE
  8
APS_GEOMETR�
 10
3724.5721
 11
3730.988053
 20
189.887984
 21
165.406566
  0
LINE
  8
APS_GEOMETR�
 10
3730.988053
 11
3741.359688
 20
165.406566
 21
154.802438
  0
LINE
  8
APS_GEOMETR�
 10
3624.554167
 11
3620.654084
 20
282.201327
 21
281.132878
  0
LINE
  8
APS_GEOMETR�
 10
3620.654084
 11
3620.654084
 20
281.132878
 21
315.742421
  0
LINE
  8
APS_GEOMETR�
 10
3620.654084
 11
3624.554167
 20
315.742421
 21
314.673972
  0
LINE
  8
APS_GEOMETR�
 10
3624.554167
 11
3640.43451
 20
314.673972
 21
298.43765
  0
LINE
  8
APS_GEOMETR�
 10
3640.43451
 11
3624.554167
 20
298.43765
 21
282.201327
  0
LINE
  8
APS_GEOMETR�
 10
3626.805881
 11
3620.654084
 20
229.250984
 21
235.540681
  0
LINE
  8
APS_GEOMETR�
 10
3620.654084
 11
3620.654084
 20
235.540681
 21
271.924122
  0
LINE
  8
APS_GEOMETR�
 10
3620.654084
 11
3629.057594
 20
271.924122
 21
274.226311
  0
LINE
  8
APS_GEOMETR�
 10
3629.057594
 11
3646.586306
 20
274.226311
 21
292.147953
  0
LINE
  8
APS_GEOMETR�
 10
3646.586306
 11
3662.466649
 20
292.147953
 21
275.91163
  0
LINE
  8
APS_GEOMETR�
 10
3662.466649
 11
3668.279258
 20
275.91163
 21
253.732402
  0
LINE
  8
APS_GEOMETR�
 10
3668.279258
 11
3644.334592
 20
253.732402
 21
247.172626
  0
LINE
  8
APS_GEOMETR�
 10
3644.334592
 11
3626.805881
 20
247.172626
 21
229.250984
  0
LINE
  8
APS_GEOMETR�
 10
3646.586306
 11
3629.057594
 20
304.727346
 21
322.648988
  0
LINE
  8
APS_GEOMETR�
 10
3629.057594
 11
3620.654084
 20
322.648988
 21
324.951177
  0
LINE
  8
APS_GEOMETR�
 10
3620.654084
 11
3620.654084
 20
324.951177
 21
361.334618
  0
LINE
  8
APS_GEOMETR�
 10
3620.654084
 11
3626.805881
 20
361.334618
 21
367.624315
  0
LINE
  8
APS_GEOMETR�
 10
3626.805881
 11
3644.334592
 20
367.624315
 21
349.702674
  0
LINE
  8
APS_GEOMETR�
 10
3644.334592
 11
3668.279258
 20
349.702674
 21
343.142897
  0
LINE
  8
APS_GEOMETR�
 10
3668.279258
 11
3662.466649
 20
343.142897
 21
320.963669
  0
LINE
  8
APS_GEOMETR�
 10
3662.466649
 11
3646.586306
 20
320.963669
 21
304.727346
  0
LINE
  8
APS_GEOMETR�
 10
3733.256038
 11
3792.770588
 20
254.802438
 21
254.802438
  0
LINE
  8
APS_GEOMETR�
 10
3792.770588
 11
3790.32933
 20
254.802438
 21
245.487306
  0
LINE
  8
APS_GEOMETR�
 10
3790.32933
 11
3774.448987
 20
245.487306
 21
229.250984
  0
LINE
  8
APS_GEOMETR�
 10
3774.448987
 11
3756.920275
 20
229.250984
 21
247.172626
  0
LINE
  8
APS_GEOMETR�
 10
3756.920275
 11
3732.975609
 20
247.172626
 21
253.732402
  0
LINE
  8
APS_GEOMETR�
 10
3732.975609
 11
3733.256038
 20
253.732402
 21
254.802438
  0
LINE
  8
APS_GEOMETR�
 10
3733.256038
 11
3792.770588
 20
254.802438
 21
254.802438
  0
LINE
  8
APS_GEOMETR�
 10
3717.861577
 11
3717.861577
 20
257.872976
 21
339.002323
  0
LINE
  8
APS_GEOMETR�
 10
3717.861577
 11
3717.861577
 20
339.002323
 21
257.872976
  0
LINE
  8
APS_GEOMETR�
 10
3717.861577
 11
3700.627434
 20
257.872976
 21
262.594367
  0
LINE
  8
APS_GEOMETR�
 10
3700.627434
 11
3676.682768
 20
262.594367
 21
256.03459
  0
LINE
  8
APS_GEOMETR�
 10
3676.682768
 11
3670.266814
 20
256.03459
 21
280.516008
  0
LINE
  8
APS_GEOMETR�
 10
3670.266814
 11
3652.738102
 20
280.516008
 21
298.43765
  0
LINE
  8
APS_GEOMETR�
 10
3652.738102
 11
3670.266814
 20
298.43765
 21
316.359291
  0
LINE
  8
APS_GEOMETR�
 10
3670.266814
 11
3676.682768
 20
316.359291
 21
340.840709
  0
LINE
  8
APS_GEOMETR�
 10
3676.682768
 11
3700.627434
 20
340.840709
 21
334.280933
  0
LINE
  8
APS_GEOMETR�
 10
3700.627434
 11
3717.861577
 20
334.280933
 21
339.002323
  0
LINE
  8
APS_GEOMETR�
 10
3717.861577
 11
3717.861577
 20
381.381908
 21
399.616945
  0
LINE
  8
APS_GEOMETR�
 10
3717.861577
 11
3717.861577
 20
399.616945
 21
381.381908
  0
LINE
  8
APS_GEOMETR�
 10
3717.861577
 11
3715.904432
 20
381.381908
 21
373.914012
  0
LINE
  8
APS_GEOMETR�
 10
3715.904432
 11
3717.861577
 20
373.914012
 21
366.446116
  0
LINE
  8
APS_GEOMETR�
 10
3717.861577
 11
3717.861577
 20
366.446116
 21
348.211078
  0
LINE
  8
APS_GEOMETR�
 10
3717.861577
 11
3717.861577
 20
348.211078
 21
366.446116
  0
LINE
  8
APS_GEOMETR�
 10
3717.861577
 11
3717.861577
 20
408.825701
 21
489.955048
  0
LINE
  8
APS_GEOMETR�
 10
3717.861577
 11
3717.861577
 20
489.955048
 21
408.825701
  0
LINE
  8
APS_GEOMETR�
 10
3717.861577
 11
3700.627434
 20
408.825701
 21
413.547091
  0
LINE
  8
APS_GEOMETR�
 10
3700.627434
 11
3676.682768
 20
413.547091
 21
406.987315
  0
LINE
  8
APS_GEOMETR�
 10
3676.682768
 11
3670.266814
 20
406.987315
 21
431.468733
  0
LINE
  8
APS_GEOMETR�
 10
3670.266814
 11
3652.738102
 20
431.468733
 21
449.390374
  0
LINE
  8
APS_GEOMETR�
 10
3652.738102
 11
3670.266814
 20
449.390374
 21
467.312016
  0
LINE
  8
APS_GEOMETR�
 10
3670.266814
 11
3676.682768
 20
467.312016
 21
491.793433
  0
LINE
  8
APS_GEOMETR�
 10
3676.682768
 11
3700.627434
 20
491.793433
 21
485.233657
  0
LINE
  8
APS_GEOMETR�
 10
3700.627434
 11
3717.861577
 20
485.233657
 21
489.955048
  0
LINE
  8
APS_GEOMETR�
 10
3717.861577
 11
3717.861577
 20
532.334632
 21
550.56967
  0
LINE
  8
APS_GEOMETR�
 10
3717.861577
 11
3717.861577
 20
550.56967
 21
532.334632
  0
LINE
  8
APS_GEOMETR�
 10
3717.861577
 11
3715.904432
 20
532.334632
 21
524.866737
  0
LINE
  8
APS_GEOMETR�
 10
3715.904432
 11
3717.861577
 20
524.866737
 21
517.398841
  0
LINE
  8
APS_GEOMETR�
 10
3717.861577
 11
3717.861577
 20
517.398841
 21
499.163803
  0
LINE
  8
APS_GEOMETR�
 10
3717.861577
 11
3717.861577
 20
499.163803
 21
517.398841
  0
LINE
  8
APS_GEOMETR�
 10
3717.861577
 11
3717.861577
 20
970.257015
 21
952.021977
  0
LINE
  8
APS_GEOMETR�
 10
3717.861577
 11
3717.861577
 20
952.021977
 21
970.257015
  0
LINE
  8
APS_GEOMETR�
 10
3717.861577
 11
3715.904432
 20
970.257015
 21
977.724911
  0
LINE
  8
APS_GEOMETR�
 10
3715.904432
 11
3717.861577
 20
977.724911
 21
985.192806
  0
LINE
  8
APS_GEOMETR�
 10
3717.861577
 11
3717.861577
 20
985.192806
 21
1003.427844
  0
LINE
  8
APS_GEOMETR�
 10
3717.861577
 11
3717.861577
 20
1003.427844
 21
985.192806
  0
LINE
  8
APS_GEOMETR�
 10
3717.861577
 11
3717.861577
 20
683.287357
 21
701.522395
  0
LINE
  8
APS_GEOMETR�
 10
3717.861577
 11
3717.861577
 20
701.522395
 21
683.287357
  0
LINE
  8
APS_GEOMETR�
 10
3717.861577
 11
3715.904432
 20
683.287357
 21
675.819461
  0
LINE
  8
APS_GEOMETR�
 10
3715.904432
 11
3717.861577
 20
675.819461
 21
668.351566
  0
LINE
  8
APS_GEOMETR�
 10
3717.861577
 11
3717.861577
 20
668.351566
 21
650.116528
  0
LINE
  8
APS_GEOMETR�
 10
3717.861577
 11
3717.861577
 20
650.116528
 21
668.351566
  0
LINE
  8
APS_GEOMETR�
 10
3717.861577
 11
3717.861577
 20
559.778425
 21
640.907772
  0
LINE
  8
APS_GEOMETR�
 10
3717.861577
 11
3717.861577
 20
640.907772
 21
559.778425
  0
LINE
  8
APS_GEOMETR�
 10
3717.861577
 11
3700.627434
 20
559.778425
 21
564.499816
  0
LINE
  8
APS_GEOMETR�
 10
3700.627434
 11
3676.682768
 20
564.499816
 21
557.94004
  0
LINE
  8
APS_GEOMETR�
 10
3676.682768
 11
3670.266814
 20
557.94004
 21
582.421457
  0
LINE
  8
APS_GEOMETR�
 10
3670.266814
 11
3652.738102
 20
582.421457
 21
600.343099
  0
LINE
  8
APS_GEOMETR�
 10
3652.738102
 11
3670.266814
 20
600.343099
 21
618.26474
  0
LINE
  8
APS_GEOMETR�
 10
3670.266814
 11
3676.682768
 20
618.26474
 21
642.746158
  0
LINE
  8
APS_GEOMETR�
 10
3676.682768
 11
3700.627434
 20
642.746158
 21
636.186382
  0
LINE
  8
APS_GEOMETR�
 10
3700.627434
 11
3717.861577
 20
636.186382
 21
640.907772
  0
LINE
  8
APS_GEOMETR�
 10
3717.861577
 11
3717.861577
 20
861.683875
 21
942.813222
  0
LINE
  8
APS_GEOMETR�
 10
3717.861577
 11
3717.861577
 20
942.813222
 21
861.683875
  0
LINE
  8
APS_GEOMETR�
 10
3717.861577
 11
3700.627434
 20
861.683875
 21
866.405265
  0
LINE
  8
APS_GEOMETR�
 10
3700.627434
 11
3676.682768
 20
866.405265
 21
859.845489
  0
LINE
  8
APS_GEOMETR�
 10
3676.682768
 11
3670.266814
 20
859.845489
 21
884.326907
  0
LINE
  8
APS_GEOMETR�
 10
3670.266814
 11
3652.738102
 20
884.326907
 21
902.248548
  0
LINE
  8
APS_GEOMETR�
 10
3652.738102
 11
3670.266814
 20
902.248548
 21
920.17019
  0
LINE
  8
APS_GEOMETR�
 10
3670.266814
 11
3676.682768
 20
920.17019
 21
944.651607
  0
LINE
  8
APS_GEOMETR�
 10
3676.682768
 11
3700.627434
 20
944.651607
 21
938.091831
  0
LINE
  8
APS_GEOMETR�
 10
3700.627434
 11
3717.861577
 20
938.091831
 21
942.813222
  0
LINE
  8
APS_GEOMETR�
 10
3717.861577
 11
3717.861577
 20
710.73115
 21
791.860497
  0
LINE
  8
APS_GEOMETR�
 10
3717.861577
 11
3717.861577
 20
791.860497
 21
710.73115
  0
LINE
  8
APS_GEOMETR�
 10
3717.861577
 11
3700.627434
 20
710.73115
 21
715.452541
  0
LINE
  8
APS_GEOMETR�
 10
3700.627434
 11
3676.682768
 20
715.452541
 21
708.892765
  0
LINE
  8
APS_GEOMETR�
 10
3676.682768
 11
3670.266814
 20
708.892765
 21
733.374182
  0
LINE
  8
APS_GEOMETR�
 10
3670.266814
 11
3652.738102
 20
733.374182
 21
751.295824
  0
LINE
  8
APS_GEOMETR�
 10
3652.738102
 11
3670.266814
 20
751.295824
 21
769.217465
  0
LINE
  8
APS_GEOMETR�
 10
3670.266814
 11
3676.682768
 20
769.217465
 21
793.698883
  0
LINE
  8
APS_GEOMETR�
 10
3676.682768
 11
3700.627434
 20
793.698883
 21
787.139107
  0
LINE
  8
APS_GEOMETR�
 10
3700.627434
 11
3717.861577
 20
787.139107
 21
791.860497
  0
LINE
  8
APS_GEOMETR�
 10
3717.861577
 11
3717.861577
 20
834.240082
 21
852.475119
  0
LINE
  8
APS_GEOMETR�
 10
3717.861577
 11
3717.861577
 20
852.475119
 21
834.240082
  0
LINE
  8
APS_GEOMETR�
 10
3717.861577
 11
3715.904432
 20
834.240082
 21
826.772186
  0
LINE
  8
APS_GEOMETR�
 10
3715.904432
 11
3717.861577
 20
826.772186
 21
819.30429
  0
LINE
  8
APS_GEOMETR�
 10
3717.861577
 11
3717.861577
 20
819.30429
 21
801.069252
  0
LINE
  8
APS_GEOMETR�
 10
3717.861577
 11
3717.861577
 20
801.069252
 21
819.30429
  0
LINE
  8
APS_GEOMETR�
 10
3980.281447
 11
4039.795997
 20
254.802438
 21
254.802438
  0
LINE
  8
APS_GEOMETR�
 10
4039.795997
 11
4037.354739
 20
254.802438
 21
245.487306
  0
LINE
  8
APS_GEOMETR�
 10
4037.354739
 11
4021.474396
 20
245.487306
 21
229.250984
  0
LINE
  8
APS_GEOMETR�
 10
4021.474396
 11
4003.945684
 20
229.250984
 21
247.172626
  0
LINE
  8
APS_GEOMETR�
 10
4003.945684
 11
3980.001018
 20
247.172626
 21
253.732402
  0
LINE
  8
APS_GEOMETR�
 10
3980.001018
 11
3980.281447
 20
253.732402
 21
254.802438
  0
LINE
  8
APS_GEOMETR�
 10
3980.281447
 11
4039.795997
 20
254.802438
 21
254.802438
  0
LINE
  8
APS_GEOMETR�
 10
3855.509688
 11
3915.024238
 20
254.802438
 21
254.802438
  0
LINE
  8
APS_GEOMETR�
 10
3915.024238
 11
3915.304667
 20
254.802438
 21
253.732402
  0
LINE
  8
APS_GEOMETR�
 10
3915.304667
 11
3891.360001
 20
253.732402
 21
247.172626
  0
LINE
  8
APS_GEOMETR�
 10
3891.360001
 11
3873.831289
 20
247.172626
 21
229.250984
  0
LINE
  8
APS_GEOMETR�
 10
3873.831289
 11
3857.950946
 20
229.250984
 21
245.487306
  0
LINE
  8
APS_GEOMETR�
 10
3857.950946
 11
3855.509688
 20
245.487306
 21
254.802438
  0
LINE
  8
APS_GEOMETR�
 10
3855.509688
 11
3915.024238
 20
254.802438
 21
254.802438
  0
LINE
  8
APS_GEOMETR�
 10
3801.777443
 11
3846.502833
 20
254.802438
 21
254.802438
  0
LINE
  8
APS_GEOMETR�
 10
3846.502833
 11
3850.150781
 20
254.802438
 21
240.882929
  0
LINE
  8
APS_GEOMETR�
 10
3850.150781
 11
3867.679493
 20
240.882929
 21
222.961287
  0
LINE
  8
APS_GEOMETR�
 10
3867.679493
 11
3850.150781
 20
222.961287
 21
205.039646
  0
LINE
  8
APS_GEOMETR�
 10
3850.150781
 11
3843.734827
 20
205.039646
 21
180.558228
  0
LINE
  8
APS_GEOMETR�
 10
3843.734827
 11
3824.140138
 20
180.558228
 21
185.926304
  0
LINE
  8
APS_GEOMETR�
 10
3824.140138
 11
3804.545449
 20
185.926304
 21
180.558228
  0
LINE
  8
APS_GEOMETR�
 10
3804.545449
 11
3798.129495
 20
180.558228
 21
205.039646
  0
LINE
  8
APS_GEOMETR�
 10
3798.129495
 11
3780.600783
 20
205.039646
 21
222.961287
  0
LINE
  8
APS_GEOMETR�
 10
3780.600783
 11
3798.129495
 20
222.961287
 21
240.882929
  0
LINE
  8
APS_GEOMETR�
 10
3798.129495
 11
3801.777443
 20
240.882929
 21
254.802438
  0
LINE
  8
APS_GEOMETR�
 10
3801.777443
 11
3846.502833
 20
254.802438
 21
254.802438
  0
LINE
  8
APS_GEOMETR�
 10
4177.861577
 11
4177.861577
 20
257.987344
 21
338.887955
  0
LINE
  8
APS_GEOMETR�
 10
4177.861577
 11
4194.678251
 20
338.887955
 21
334.280933
  0
LINE
  8
APS_GEOMETR�
 10
4194.678251
 11
4218.622917
 20
334.280933
 21
340.840709
  0
LINE
  8
APS_GEOMETR�
 10
4218.622917
 11
4225.03887
 20
340.840709
 21
316.359291
  0
LINE
  8
APS_GEOMETR�
 10
4225.03887
 11
4242.567582
 20
316.359291
 21
298.43765
  0
LINE
  8
APS_GEOMETR�
 10
4242.567582
 11
4225.03887
 20
298.43765
 21
280.516008
  0
LINE
  8
APS_GEOMETR�
 10
4225.03887
 11
4218.622917
 20
280.516008
 21
256.03459
  0
LINE
  8
APS_GEOMETR�
 10
4218.622917
 11
4194.678251
 20
256.03459
 21
262.594367
  0
LINE
  8
APS_GEOMETR�
 10
4194.678251
 11
4177.861577
 20
262.594367
 21
257.987344
  0
LINE
  8
APS_GEOMETR�
 10
4177.861577
 11
4177.861577
 20
257.987344
 21
338.887955
  0
LINE
  8
APS_GEOMETR�
 10
4102.535097
 11
4162.049646
 20
254.802438
 21
254.802438
  0
LINE
  8
APS_GEOMETR�
 10
4162.049646
 11
4162.330075
 20
254.802438
 21
253.732402
  0
LINE
  8
APS_GEOMETR�
 10
4162.330075
 11
4138.385409
 20
253.732402
 21
247.172626
  0
LINE
  8
APS_GEOMETR�
 10
4138.385409
 11
4120.856698
 20
247.172626
 21
229.250984
  0
LINE
  8
APS_GEOMETR�
 10
4120.856698
 11
4104.976354
 20
229.250984
 21
245.487306
  0
LINE
  8
APS_GEOMETR�
 10
4104.976354
 11
4102.535097
 20
245.487306
 21
254.802438
  0
LINE
  8
APS_GEOMETR�
 10
4102.535097
 11
4162.049646
 20
254.802438
 21
254.802438
  0
LINE
  8
APS_GEOMETR�
 10
4048.802851
 11
4093.528242
 20
254.802438
 21
254.802438
  0
LINE
  8
APS_GEOMETR�
 10
4093.528242
 11
4097.176189
 20
254.802438
 21
240.882929
  0
LINE
  8
APS_GEOMETR�
 10
4097.176189
 11
4114.704901
 20
240.882929
 21
222.961287
  0
LINE
  8
APS_GEOMETR�
 10
4114.704901
 11
4097.176189
 20
222.961287
 21
205.039646
  0
LINE
  8
APS_GEOMETR�
 10
4097.176189
 11
4090.760236
 20
205.039646
 21
180.558228
  0
LINE
  8
APS_GEOMETR�
 10
4090.760236
 11
4071.165547
 20
180.558228
 21
185.926304
  0
LINE
  8
APS_GEOMETR�
 10
4071.165547
 11
4051.570857
 20
185.926304
 21
180.558228
  0
LINE
  8
APS_GEOMETR�
 10
4051.570857
 11
4045.154904
 20
180.558228
 21
205.039646
  0
LINE
  8
APS_GEOMETR�
 10
4045.154904
 11
4027.626192
 20
205.039646
 21
222.961287
  0
LINE
  8
APS_GEOMETR�
 10
4027.626192
 11
4045.154904
 20
222.961287
 21
240.882929
  0
LINE
  8
APS_GEOMETR�
 10
4045.154904
 11
4048.802851
 20
240.882929
 21
254.802438
  0
LINE
  8
APS_GEOMETR�
 10
4048.802851
 11
4093.528242
 20
254.802438
 21
254.802438
  0
LINE
  8
APS_GEOMETR�
 10
4177.861577
 11
4177.861577
 20
399.731313
 21
379.788968
  0
LINE
  8
APS_GEOMETR�
 10
4177.861577
 11
4177.861577
 20
379.788968
 21
399.731313
  0
LINE
  8
APS_GEOMETR�
 10
4177.861577
 11
4194.678251
 20
399.731313
 21
404.338336
  0
LINE
  8
APS_GEOMETR�
 10
4194.678251
 11
4216.371203
 20
404.338336
 21
398.395429
  0
LINE
  8
APS_GEOMETR�
 10
4216.371203
 11
4209.955249
 20
398.395429
 21
373.914012
  0
LINE
  8
APS_GEOMETR�
 10
4209.955249
 11
4216.371203
 20
373.914012
 21
349.432594
  0
LINE
  8
APS_GEOMETR�
 10
4216.371203
 11
4194.678251
 20
349.432594
 21
343.489688
  0
LINE
  8
APS_GEOMETR�
 10
4194.678251
 11
4177.861577
 20
343.489688
 21
348.09671
  0
LINE
  8
APS_GEOMETR�
 10
4177.861577
 11
4177.861577
 20
348.09671
 21
368.039056
  0
LINE
  8
APS_GEOMETR�
 10
4177.861577
 11
4177.861577
 20
368.039056
 21
348.09671
  0
LINE
  8
APS_GEOMETR�
 10
4177.861577
 11
4177.861577
 20
408.940069
 21
489.84068
  0
LINE
  8
APS_GEOMETR�
 10
4177.861577
 11
4194.678251
 20
489.84068
 21
485.233657
  0
LINE
  8
APS_GEOMETR�
 10
4194.678251
 11
4218.622917
 20
485.233657
 21
491.793433
  0
LINE
  8
APS_GEOMETR�
 10
4218.622917
 11
4225.03887
 20
491.793433
 21
467.312016
  0
LINE
  8
APS_GEOMETR�
 10
4225.03887
 11
4242.567582
 20
467.312016
 21
449.390374
  0
LINE
  8
APS_GEOMETR�
 10
4242.567582
 11
4225.03887
 20
449.390374
 21
431.468733
  0
LINE
  8
APS_GEOMETR�
 10
4225.03887
 11
4218.622917
 20
431.468733
 21
406.987315
  0
LINE
  8
APS_GEOMETR�
 10
4218.622917
 11
4194.678251
 20
406.987315
 21
413.547091
  0
LINE
  8
APS_GEOMETR�
 10
4194.678251
 11
4177.861577
 20
413.547091
 21
408.940069
  0
LINE
  8
APS_GEOMETR�
 10
4177.861577
 11
4177.861577
 20
408.940069
 21
489.84068
  0
LINE
  8
APS_GEOMETR�
 10
4177.861577
 11
4177.861577
 20
518.991781
 21
499.049435
  0
LINE
  8
APS_GEOMETR�
 10
4177.861577
 11
4177.861577
 20
499.049435
 21
518.991781
  0
LINE
  8
APS_GEOMETR�
 10
4177.861577
 11
4179.401253
 20
518.991781
 21
524.866737
  0
LINE
  8
APS_GEOMETR�
 10
4179.401253
 11
4177.861577
 20
524.866737
 21
530.741693
  0
LINE
  8
APS_GEOMETR�
 10
4177.861577
 11
4177.861577
 20
530.741693
 21
550.684038
  0
LINE
  8
APS_GEOMETR�
 10
4177.861577
 11
4177.861577
 20
550.684038
 21
530.741693
  0
LINE
  8
APS_GEOMETR�
 10
4177.861577
 11
4177.861577
 20
1003.542212
 21
983.599867
  0
LINE
  8
APS_GEOMETR�
 10
4177.861577
 11
4177.861577
 20
983.599867
 21
1003.542212
  0
LINE
  8
APS_GEOMETR�
 10
4177.861577
 11
4194.678251
 20
1003.542212
 21
1008.149235
  0
LINE
  8
APS_GEOMETR�
 10
4194.678251
 11
4216.371203
 20
1008.149235
 21
1002.206328
  0
LINE
  8
APS_GEOMETR�
 10
4216.371203
 11
4209.955249
 20
1002.206328
 21
977.724911
  0
LINE
  8
APS_GEOMETR�
 10
4209.955249
 11
4216.371203
 20
977.724911
 21
953.243493
  0
LINE
  8
APS_GEOMETR�
 10
4216.371203
 11
4194.678251
 20
953.243493
 21
947.300587
  0
LINE
  8
APS_GEOMETR�
 10
4194.678251
 11
4177.861577
 20
947.300587
 21
951.907609
  0
LINE
  8
APS_GEOMETR�
 10
4177.861577
 11
4177.861577
 20
951.907609
 21
971.849955
  0
LINE
  8
APS_GEOMETR�
 10
4177.861577
 11
4177.861577
 20
971.849955
 21
951.907609
  0
LINE
  8
APS_GEOMETR�
 10
4177.861577
 11
4177.861577
 20
669.944505
 21
650.00216
  0
LINE
  8
APS_GEOMETR�
 10
4177.861577
 11
4177.861577
 20
650.00216
 21
669.944505
  0
LINE
  8
APS_GEOMETR�
 10
4177.861577
 11
4179.401253
 20
669.944505
 21
675.819461
  0
LINE
  8
APS_GEOMETR�
 10
4179.401253
 11
4177.861577
 20
675.819461
 21
681.694417
  0
LINE
  8
APS_GEOMETR�
 10
4177.861577
 11
4177.861577
 20
681.694417
 21
701.636763
  0
LINE
  8
APS_GEOMETR�
 10
4177.861577
 11
4177.861577
 20
701.636763
 21
681.694417
  0
LINE
  8
APS_GEOMETR�
 10
4177.861577
 11
4177.861577
 20
559.892793
 21
640.793405
  0
LINE
  8
APS_GEOMETR�
 10
4177.861577
 11
4194.678251
 20
640.793405
 21
636.186382
  0
LINE
  8
APS_GEOMETR�
 10
4194.678251
 11
4218.622917
 20
636.186382
 21
642.746158
  0
LINE
  8
APS_GEOMETR�
 10
4218.622917
 11
4225.03887
 20
642.746158
 21
618.26474
  0
LINE
  8
APS_GEOMETR�
 10
4225.03887
 11
4242.567582
 20
618.26474
 21
600.343099
  0
LINE
  8
APS_GEOMETR�
 10
4242.567582
 11
4225.03887
 20
600.343099
 21
582.421457
  0
LINE
  8
APS_GEOMETR�
 10
4225.03887
 11
4218.622917
 20
582.421457
 21
557.94004
  0
LINE
  8
APS_GEOMETR�
 10
4218.622917
 11
4194.678251
 20
557.94004
 21
564.499816
  0
LINE
  8
APS_GEOMETR�
 10
4194.678251
 11
4177.861577
 20
564.499816
 21
559.892793
  0
LINE
  8
APS_GEOMETR�
 10
4177.861577
 11
4177.861577
 20
559.892793
 21
640.793405
  0
LINE
  8
APS_GEOMETR�
 10
4177.861577
 11
4177.861577
 20
861.798243
 21
942.698854
  0
LINE
  8
APS_GEOMETR�
 10
4177.861577
 11
4194.678251
 20
942.698854
 21
938.091831
  0
LINE
  8
APS_GEOMETR�
 10
4194.678251
 11
4218.622917
 20
938.091831
 21
944.651607
  0
LINE
  8
APS_GEOMETR�
 10
4218.622917
 11
4225.03887
 20
944.651607
 21
920.17019
  0
LINE
  8
APS_GEOMETR�
 10
4225.03887
 11
4242.567582
 20
920.17019
 21
902.248548
  0
LINE
  8
APS_GEOMETR�
 10
4242.567582
 11
4225.03887
 20
902.248548
 21
884.326907
  0
LINE
  8
APS_GEOMETR�
 10
4225.03887
 11
4218.622917
 20
884.326907
 21
859.845489
  0
LINE
  8
APS_GEOMETR�
 10
4218.622917
 11
4194.678251
 20
859.845489
 21
866.405265
  0
LINE
  8
APS_GEOMETR�
 10
4194.678251
 11
4177.861577
 20
866.405265
 21
861.798243
  0
LINE
  8
APS_GEOMETR�
 10
4177.861577
 11
4177.861577
 20
861.798243
 21
942.698854
  0
LINE
  8
APS_GEOMETR�
 10
4177.861577
 11
4177.861577
 20
710.845518
 21
791.746129
  0
LINE
  8
APS_GEOMETR�
 10
4177.861577
 11
4194.678251
 20
791.746129
 21
787.139107
  0
LINE
  8
APS_GEOMETR�
 10
4194.678251
 11
4218.622917
 20
787.139107
 21
793.698883
  0
LINE
  8
APS_GEOMETR�
 10
4218.622917
 11
4225.03887
 20
793.698883
 21
769.217465
  0
LINE
  8
APS_GEOMETR�
 10
4225.03887
 11
4242.567582
 20
769.217465
 21
751.295824
  0
LINE
  8
APS_GEOMETR�
 10
4242.567582
 11
4225.03887
 20
751.295824
 21
733.374182
  0
LINE
  8
APS_GEOMETR�
 10
4225.03887
 11
4218.622917
 20
733.374182
 21
708.892765
  0
LINE
  8
APS_GEOMETR�
 10
4218.622917
 11
4194.678251
 20
708.892765
 21
715.452541
  0
LINE
  8
APS_GEOMETR�
 10
4194.678251
 11
4177.861577
 20
715.452541
 21
710.845518
  0
LINE
  8
APS_GEOMETR�
 10
4177.861577
 11
4177.861577
 20
710.845518
 21
791.746129
  0
LINE
  8
APS_GEOMETR�
 10
4177.861577
 11
4177.861577
 20
820.89723
 21
800.954885
  0
LINE
  8
APS_GEOMETR�
 10
4177.861577
 11
4177.861577
 20
800.954885
 21
820.89723
  0
LINE
  8
APS_GEOMETR�
 10
4177.861577
 11
4179.401253
 20
820.89723
 21
826.772186
  0
LINE
  8
APS_GEOMETR�
 10
4179.401253
 11
4177.861577
 20
826.772186
 21
832.647142
  0
LINE
  8
APS_GEOMETR�
 10
4177.861577
 11
4177.861577
 20
832.647142
 21
852.589487
  0
LINE
  8
APS_GEOMETR�
 10
4177.861577
 11
4177.861577
 20
852.589487
 21
832.647142
  0
LINE
  8
APS_GEOMETR�
 10
4153.945997
 11
4235.410505
 20
154.802438
 21
154.802438
  0
LINE
  8
APS_GEOMETR�
 10
4235.410505
 11
4153.945997
 20
154.802438
 21
154.802438
  0
LINE
  8
APS_GEOMETR�
 10
4153.945997
 11
4164.317631
 20
154.802438
 21
165.406566
  0
LINE
  8
APS_GEOMETR�
 10
4164.317631
 11
4170.733585
 20
165.406566
 21
189.887984
  0
LINE
  8
APS_GEOMETR�
 10
4170.733585
 11
4194.678251
 20
189.887984
 21
183.328208
  0
LINE
  8
APS_GEOMETR�
 10
4194.678251
 11
4218.622917
 20
183.328208
 21
189.887984
  0
LINE
  8
APS_GEOMETR�
 10
4218.622917
 11
4225.03887
 20
189.887984
 21
165.406566
  0
LINE
  8
APS_GEOMETR�
 10
4225.03887
 11
4235.410505
 20
165.406566
 21
154.802438
  0
LINE
  8
APS_GEOMETR�
 10
4177.861577
 11
4194.678251
 20
800.954885
 21
796.347862
  0
LINE
  8
APS_GEOMETR�
 10
4194.678251
 11
4216.371203
 20
796.347862
 21
802.290768
  0
LINE
  8
APS_GEOMETR�
 10
4216.371203
 11
4209.955249
 20
802.290768
 21
826.772186
  0
LINE
  8
APS_GEOMETR�
 10
4209.955249
 11
4216.371203
 20
826.772186
 21
851.253603
  0
LINE
  8
APS_GEOMETR�
 10
4216.371203
 11
4194.678251
 20
851.253603
 21
857.19651
  0
LINE
  8
APS_GEOMETR�
 10
4194.678251
 11
4177.861577
 20
857.19651
 21
852.589487
  0
LINE
  8
APS_GEOMETR�
 10
4177.861577
 11
4194.678251
 20
650.00216
 21
645.395137
  0
LINE
  8
APS_GEOMETR�
 10
4194.678251
 11
4216.371203
 20
645.395137
 21
651.338044
  0
LINE
  8
APS_GEOMETR�
 10
4216.371203
 11
4209.955249
 20
651.338044
 21
675.819461
  0
LINE
  8
APS_GEOMETR�
 10
4209.955249
 11
4216.371203
 20
675.819461
 21
700.300879
  0
LINE
  8
APS_GEOMETR�
 10
4216.371203
 11
4194.678251
 20
700.300879
 21
706.243785
  0
LINE
  8
APS_GEOMETR�
 10
4194.678251
 11
4177.861577
 20
706.243785
 21
701.636763
  0
LINE
  8
APS_GEOMETR�
 10
4177.861577
 11
4179.401253
 20
983.599867
 21
977.724911
  0
LINE
  8
APS_GEOMETR�
 10
4179.401253
 11
4177.861577
 20
977.724911
 21
971.849955
  0
LINE
  8
APS_GEOMETR�
 10
4177.861577
 11
4194.678251
 20
499.049435
 21
494.442413
  0
LINE
  8
APS_GEOMETR�
 10
4194.678251
 11
4216.371203
 20
494.442413
 21
500.385319
  0
LINE
  8
APS_GEOMETR�
 10
4216.371203
 11
4209.955249
 20
500.385319
 21
524.866737
  0
LINE
  8
APS_GEOMETR�
 10
4209.955249
 11
4216.371203
 20
524.866737
 21
549.348154
  0
LINE
  8
APS_GEOMETR�
 10
4216.371203
 11
4194.678251
 20
549.348154
 21
555.291061
  0
LINE
  8
APS_GEOMETR�
 10
4194.678251
 11
4177.861577
 20
555.291061
 21
550.684038
  0
LINE
  8
APS_GEOMETR�
 10
4177.861577
 11
4179.401253
 20
379.788968
 21
373.914012
  0
LINE
  8
APS_GEOMETR�
 10
4179.401253
 11
4177.861577
 20
373.914012
 21
368.039056
  0
LINE
  8
APS_GEOMETR�
 10
3967.536823
 11
3969.345794
 20
1254.613919
 21
1255.109497
  0
LINE
  8
APS_GEOMETR�
 10
3969.345794
 11
3962.929841
 20
1255.109497
 21
1279.590914
  0
LINE
  8
APS_GEOMETR�
 10
3962.929841
 11
3969.345794
 20
1279.590914
 21
1304.072332
  0
LINE
  8
APS_GEOMETR�
 10
3969.345794
 11
3947.652842
 20
1304.072332
 21
1310.015238
  0
LINE
  8
APS_GEOMETR�
 10
3947.652842
 11
3925.95989
 20
1310.015238
 21
1304.072332
  0
LINE
  8
APS_GEOMETR�
 10
3925.95989
 11
3932.375844
 20
1304.072332
 21
1279.590914
  0
LINE
  8
APS_GEOMETR�
 10
3932.375844
 11
3925.95989
 20
1279.590914
 21
1255.109497
  0
LINE
  8
APS_GEOMETR�
 10
3925.95989
 11
3947.652842
 20
1255.109497
 21
1249.16659
  0
LINE
  8
APS_GEOMETR�
 10
3947.652842
 11
3967.536823
 20
1249.16659
 21
1254.613919
  0
LINE
  8
APS_GEOMETR�
 10
3717.861577
 11
3717.861577
 20
1012.597154
 21
1012.944609
  0
LINE
  8
APS_GEOMETR�
 10
3717.861577
 11
3700.627434
 20
852.475119
 21
857.19651
  0
LINE
  8
APS_GEOMETR�
 10
3700.627434
 11
3678.934482
 20
857.19651
 21
851.253603
  0
LINE
  8
APS_GEOMETR�
 10
3678.934482
 11
3685.350436
 20
851.253603
 21
826.772186
  0
LINE
  8
APS_GEOMETR�
 10
3685.350436
 11
3678.934482
 20
826.772186
 21
802.290768
  0
LINE
  8
APS_GEOMETR�
 10
3678.934482
 11
3700.627434
 20
802.290768
 21
796.347862
  0
LINE
  8
APS_GEOMETR�
 10
3700.627434
 11
3717.861577
 20
796.347862
 21
801.069252
  0
LINE
  8
APS_GEOMETR�
 10
3717.861577
 11
3700.627434
 20
701.522395
 21
706.243785
  0
LINE
  8
APS_GEOMETR�
 10
3700.627434
 11
3678.934482
 20
706.243785
 21
700.300879
  0
LINE
  8
APS_GEOMETR�
 10
3678.934482
 11
3685.350436
 20
700.300879
 21
675.819461
  0
LINE
  8
APS_GEOMETR�
 10
3685.350436
 11
3678.934482
 20
675.819461
 21
651.338044
  0
LINE
  8
APS_GEOMETR�
 10
3678.934482
 11
3700.627434
 20
651.338044
 21
645.395137
  0
LINE
  8
APS_GEOMETR�
 10
3700.627434
 11
3717.861577
 20
645.395137
 21
650.116528
  0
LINE
  8
APS_GEOMETR�
 10
3717.861577
 11
3700.627434
 20
952.021977
 21
947.300587
  0
LINE
  8
APS_GEOMETR�
 10
3700.627434
 11
3678.934482
 20
947.300587
 21
953.243493
  0
LINE
  8
APS_GEOMETR�
 10
3678.934482
 11
3685.350436
 20
953.243493
 21
977.724911
  0
LINE
  8
APS_GEOMETR�
 10
3685.350436
 11
3678.934482
 20
977.724911
 21
1002.206328
  0
LINE
  8
APS_GEOMETR�
 10
3678.934482
 11
3700.627434
 20
1002.206328
 21
1008.149235
  0
LINE
  8
APS_GEOMETR�
 10
3700.627434
 11
3717.861577
 20
1008.149235
 21
1003.427844
  0
LINE
  8
APS_GEOMETR�
 10
3717.861577
 11
3700.627434
 20
550.56967
 21
555.291061
  0
LINE
  8
APS_GEOMETR�
 10
3700.627434
 11
3678.934482
 20
555.291061
 21
549.348154
  0
LINE
  8
APS_GEOMETR�
 10
3678.934482
 11
3685.350436
 20
549.348154
 21
524.866737
  0
LINE
  8
APS_GEOMETR�
 10
3685.350436
 11
3678.934482
 20
524.866737
 21
500.385319
  0
LINE
  8
APS_GEOMETR�
 10
3678.934482
 11
3700.627434
 20
500.385319
 21
494.442413
  0
LINE
  8
APS_GEOMETR�
 10
3700.627434
 11
3717.861577
 20
494.442413
 21
499.163803
  0
LINE
  8
APS_GEOMETR�
 10
3717.861577
 11
3700.627434
 20
399.616945
 21
404.338336
  0
LINE
  8
APS_GEOMETR�
 10
3700.627434
 11
3678.934482
 20
404.338336
 21
398.395429
  0
LINE
  8
APS_GEOMETR�
 10
3678.934482
 11
3685.350436
 20
398.395429
 21
373.914012
  0
LINE
  8
APS_GEOMETR�
 10
3685.350436
 11
3678.934482
 20
373.914012
 21
349.432594
  0
LINE
  8
APS_GEOMETR�
 10
3678.934482
 11
3700.627434
 20
349.432594
 21
343.489688
  0
LINE
  8
APS_GEOMETR�
 10
3700.627434
 11
3717.861577
 20
343.489688
 21
348.211078
  0
LINE
  8
APS_GEOMETR�
 10
3764.480853
 11
3754.668562
 20
1069.483771
 21
1059.451524
  0
LINE
  8
APS_GEOMETR�
 10
3754.668562
 11
3738.788218
 20
1059.451524
 21
1075.687846
  0
LINE
  8
APS_GEOMETR�
 10
3738.788218
 11
3732.975609
 20
1075.687846
 21
1097.867075
  0
LINE
  8
APS_GEOMETR�
 10
3732.975609
 11
3756.920275
 20
1097.867075
 21
1104.426851
  0
LINE
  8
APS_GEOMETR�
 10
3756.920275
 11
3774.448987
 20
1104.426851
 21
1122.348493
  0
LINE
  8
APS_GEOMETR�
 10
3774.448987
 11
3776.839135
 20
1122.348493
 21
1119.904766
  0
LINE
  8
APS_GEOMETR�
 10
3781.454008
 11
3780.600783
 20
1127.765838
 21
1128.63819
  0
LINE
  8
APS_GEOMETR�
 10
3780.600783
 11
3798.129495
 20
1128.63819
 21
1146.559831
  0
LINE
  8
APS_GEOMETR�
 10
3798.129495
 11
3804.545449
 20
1146.559831
 21
1171.041249
  0
LINE
  8
APS_GEOMETR�
 10
3804.545449
 11
3824.140138
 20
1171.041249
 21
1165.673173
  0
LINE
  8
APS_GEOMETR�
 10
3824.140138
 11
3824.796417
 20
1165.673173
 21
1165.852965
  0
LINE
  8
APS_GEOMETR�
 10
5865.492717
 11
6325.768717
 20
881.560768
 21
881.560768
  0
LINE
  8
APS_GEOMETR�
 10
6325.768717
 11
6325.768717
 20
881.560768
 21
473.390768
  0
LINE
  8
APS_GEOMETR�
 10
6325.768717
 11
5865.492717
 20
473.390768
 21
473.390768
  0
LINE
  8
APS_GEOMETR�
 10
5865.492717
 11
5865.492717
 20
473.390768
 21
881.560768
  0
ARC
  8
APS_GEOMETR�
 10
5121.457123
 20
1125.723905
 40
55.860037
 50
333.960578
 51
33.613079
  0
ARC
  8
APS_GEOMETR�
 10
5114.643809
 20
1121.374262
 40
63.942187
 50
33.479239
 51
57.172002
  0
ARC
  8
APS_GEOMETR�
 10
5109.016781
 20
1113.149118
 40
73.904799
 50
56.963149
 51
78.287062
  0
ARC
  8
APS_GEOMETR�
 10
5107.797119
 20
1108.369996
 40
78.832326
 50
78.124211
 51
98.467581
  0
ARC
  8
APS_GEOMETR�
 10
5111.780535
 20
1073.958215
 40
113.461151
 50
97.898391
 51
133.017361
  0
ARC
  8
APS_GEOMETR�
 10
5031.529371
 20
1176.063974
 40
19.35927
 50
252.556317
 51
278.452792
  0
ARC
  8
APS_GEOMETR�
 10
5030.71392
 20
1173.789632
 40
16.945347
 50
229.590112
 51
252.881506
  0
ARC
  8
APS_GEOMETR�
 10
5028.582072
 20
1171.347003
 40
13.703549
 50
203.708652
 51
229.756552
  0
ARC
  8
APS_GEOMETR�
 10
5026.802404
 20
1170.531047
 40
11.746039
 50
175.468846
 51
203.554943
  0
ARC
  8
APS_GEOMETR�
 10
5027.193394
 20
1170.433937
 40
12.143658
 50
147.504044
 51
175.157836
  0
LINE
  8
APS_GEOMETR�
 10
5016.951076
 11
5021.943077
 20
1176.957997
 21
1184.792997
  0
ARC
  8
APS_GEOMETR�
 10
5023.48166
 20
1151.466264
 40
33.362229
 50
92.643278
 51
136.626085
  0
ARC
  8
APS_GEOMETR�
 10
5019.783083
 20
1154.886009
 40
28.325299
 50
136.516343
 51
167.105476
  0
ARC
  8
APS_GEOMETR�
 10
5018.127716
 20
1155.388818
 40
26.599745
 50
167.365513
 51
173.651728
  0
ARC
  8
APS_GEOMETR�
 10
4947.722092
 20
1094.094989
 40
77.842198
 50
55.608286
 51
72.715672
  0
ARC
  8
APS_GEOMETR�
 10
4945.280322
 20
1087.091966
 40
85.254832
 50
72.547114
 51
92.758665
  0
ARC
  8
APS_GEOMETR�
 10
4945.002427
 20
1088.349077
 40
83.986083
 50
92.610578
 51
113.039562
  0
ARC
  8
APS_GEOMETR�
 10
4941.237244
 20
1096.602783
 40
74.917536
 50
112.860122
 51
135.029718
  0
ARC
  8
APS_GEOMETR�
 10
4932.55574
 20
1104.321461
 40
63.3241
 50
134.419142
 51
161.318142
  0
ARC
  8
APS_GEOMETR�
 10
4927.773044
 20
1105.984567
 40
58.260697
 50
161.36094
 51
184.617931
  0
ARC
  8
APS_GEOMETR�
 10
4815.828555
 20
1086.527361
 40
55.860037
 50
15.328318
 51
73.609834
  0
ARC
  8
APS_GEOMETR�
 10
4813.404716
 20
1078.815964
 40
63.942187
 50
73.475996
 51
97.16876
  0
ARC
  8
APS_GEOMETR�
 10
4814.380619
 20
1068.898099
 40
73.904799
 50
96.959904
 51
118.283818
  0
ARC
  8
APS_GEOMETR�
 10
4816.518014
 20
1064.452975
 40
78.832326
 50
118.120968
 51
138.464336
  0
ARC
  8
APS_GEOMETR�
 10
4841.687606
 20
1040.651087
 40
113.461151
 50
137.895145
 51
173.014116
  0
ARC
  8
APS_GEOMETR�
 10
4714.580837
 20
1067.291377
 40
19.35927
 50
292.55308
 51
318.449555
  0
ARC
  8
APS_GEOMETR�
 10
4715.41796
 20
1065.024923
 40
16.945347
 50
269.586861
 51
292.878254
  0
ARC
  8
APS_GEOMETR�
 10
4715.354777
 20
1061.783438
 40
13.703549
 50
243.705406
 51
269.753304
  0
ARC
  8
APS_GEOMETR�
 10
4714.515857
 20
1060.014479
 40
11.746039
 50
215.465609
 51
243.551704
  0
ARC
  8
APS_GEOMETR�
 10
4714.877805
 20
1060.19139
 40
12.143658
 50
187.500796
 51
215.15459
  0
LINE
  8
APS_GEOMETR�
 10
4702.838059
 11
4701.626434
 20
1058.606158
 21
1067.816981
  0
ARC
  8
APS_GEOMETR�
 10
4724.225679
 20
1043.274926
 40
33.362229
 50
132.640035
 51
176.622843
  0
ARC
  8
APS_GEOMETR�
 10
4719.194248
 20
1043.517486
 40
28.325299
 50
176.513098
 51
207.10223
  0
ARC
  8
APS_GEOMETR�
 10
4717.602927
 20
1042.838698
 40
26.599745
 50
207.362259
 51
213.648477
  0
ARC
  8
APS_GEOMETR�
 10
4703.062778
 20
950.629864
 40
77.842198
 50
95.605039
 51
112.712425
  0
ARC
  8
APS_GEOMETR�
 10
4705.693344
 20
943.69555
 40
85.254832
 50
112.543871
 51
132.755423
  0
ARC
  8
APS_GEOMETR�
 10
4704.672449
 20
944.479981
 40
83.986083
 50
132.607333
 51
153.036316
  0
ARC
  8
APS_GEOMETR�
 10
4696.482994
 20
948.382939
 40
74.917536
 50
152.856878
 51
175.026474
  0
ARC
  8
APS_GEOMETR�
 10
4684.871124
 20
948.716084
 40
63.3241
 50
174.415897
 51
201.314898
  0
ARC
  8
APS_GEOMETR�
 10
4680.138241
 20
946.916105
 40
58.260697
 50
201.357695
 51
224.614684
  0
ARC
  8
APS_GEOMETR�
 10
4606.88572
 20
860.058638
 40
55.860037
 50
55.325076
 51
113.60659
  0
ARC
  8
APS_GEOMETR�
 10
4609.985318
 20
852.593176
 40
63.942187
 50
113.472751
 51
137.165514
  0
ARC
  8
APS_GEOMETR�
 10
4617.107591
 20
845.622548
 40
73.904799
 50
136.956661
 51
158.280575
  0
ARC
  8
APS_GEOMETR�
 10
4621.602085
 20
843.591017
 40
78.832326
 50
158.117722
 51
178.46109
  0
ARC
  8
APS_GEOMETR�
 10
4656.182553
 20
841.534462
 40
113.461151
 50
177.891902
 51
213.010874
  0
ARC
  8
APS_GEOMETR�
 10
4541.685602
 20
780.245937
 40
19.35927
 50
332.549824
 51
358.4463
  0
ARC
  8
APS_GEOMETR�
 10
4543.783654
 20
779.047701
 40
16.945347
 50
309.583621
 51
332.875014
  0
ARC
  8
APS_GEOMETR�
 10
4545.818695
 20
776.523851
 40
13.703549
 50
283.702168
 51
309.750067
  0
ARC
  8
APS_GEOMETR�
 10
4546.313006
 20
774.629475
 40
11.746039
 50
255.462355
 51
283.548453
  0
ARC
  8
APS_GEOMETR�
 10
4546.476577
 20
774.997644
 40
12.143658
 50
227.49755
 51
255.151345
  0
LINE
  8
APS_GEOMETR�
 10
4538.272058
 11
4531.423652
 20
766.04475
 21
772.32222
  0
ARC
  8
APS_GEOMETR�
 10
4564.510765
 20
768.046557
 40
33.362229
 50
172.636792
 51
216.619599
  0
ARC
  8
APS_GEOMETR�
 10
4560.500378
 20
764.998455
 40
28.325299
 50
216.509854
 51
247.098987
  0
ARC
  8
APS_GEOMETR�
 10
4559.71759
 20
763.455634
 40
26.599745
 50
247.359005
 51
253.645218
  0
ARC
  8
APS_GEOMETR�
 10
4607.845353
 20
683.470621
 40
77.842198
 50
135.601799
 51
152.709184
  0
ARC
  8
APS_GEOMETR�
 10
4614.317567
 20
679.849153
 40
85.254832
 50
152.540627
 51
172.752178
  0
ARC
  8
APS_GEOMETR�
 10
4613.031291
 20
679.793919
 40
83.986083
 50
172.604091
 51
193.033073
  0
ARC
  8
APS_GEOMETR�
 10
4604.248904
 20
677.520171
 40
74.917536
 50
192.853632
 51
215.023228
  0
ARC
  8
APS_GEOMETR�
 10
4595.139145
 20
670.311926
 40
63.3241
 50
214.412651
 51
241.311654
  0
ARC
  8
APS_GEOMETR�
 10
4592.670299
 20
665.890964
 40
58.260697
 50
241.354452
 51
264.611438
  0
ARC
  8
APS_GEOMETR�
 10
4592.380084
 20
552.268488
 40
55.860037
 50
95.321835
 51
153.603346
  0
ARC
  8
APS_GEOMETR�
 10
4599.553009
 20
548.541589
 40
63.942187
 50
153.469506
 51
177.16227
  0
ARC
  8
APS_GEOMETR�
 10
4609.489577
 20
547.779323
 40
73.904799
 50
176.953416
 51
198.27733
  0
ARC
  8
APS_GEOMETR�
 10
4614.238475
 20
549.11182
 40
78.832326
 50
198.11448
 51
218.457848
  0
ARC
  8
APS_GEOMETR�
 10
4642.051752
 20
569.762725
 40
113.461151
 50
217.888658
 51
253.007628
  0
ARC
  8
APS_GEOMETR�
 10
4593.730676
 20
449.218506
 40
19.35927
 50
12.546583
 51
38.443057
  0
ARC
  8
APS_GEOMETR�
 10
4596.108113
 20
449.649071
 40
16.945347
 50
349.580379
 51
12.871773
  0
ARC
  8
APS_GEOMETR�
 10
4599.289309
 20
449.02361
 40
13.703549
 50
323.698926
 51
349.746822
  0
ARC
  8
APS_GEOMETR�
 10
4600.88559
 20
447.890079
 40
11.746039
 50
295.459119
 51
323.545217
  0
ARC
  8
APS_GEOMETR�
 10
4600.774262
 20
448.277262
 40
12.143658
 50
267.494302
 51
295.148096
  0
LINE
  8
APS_GEOMETR�
 10
4600.243357
 11
4590.962117
 20
436.145214
 21
436.55249
  0
ARC
  8
APS_GEOMETR�
 10
4619.057678
 20
454.543537
 40
33.362229
 50
212.633546
 51
256.616354
  0
ARC
  8
APS_GEOMETR�
 10
4617.944547
 20
449.630791
 40
28.325299
 50
256.506609
 51
287.095741
  0
ARC
  8
APS_GEOMETR�
 10
4618.3365
 20
447.94573
 40
26.599745
 50
287.355776
 51
293.641992
  0
ARC
  8
APS_GEOMETR�
 10
4706.616171
 20
417.604592
 40
77.842198
 50
175.598555
 51
192.705941
  0
ARC
  8
APS_GEOMETR�
 10
4713.902088
 20
418.99023
 40
85.254832
 50
192.537382
 51
212.748933
  0
ARC
  8
APS_GEOMETR�
 10
4712.952197
 20
418.121171
 40
83.986083
 50
212.600847
 51
233.029829
  0
ARC
  8
APS_GEOMETR�
 10
4707.685616
 20
410.734468
 40
74.917536
 50
232.850388
 51
255.019984
  0
ARC
  8
APS_GEOMETR�
 10
4705.339861
 20
399.357125
 40
63.3241
 50
254.40941
 51
281.308411
  0
ARC
  8
APS_GEOMETR�
 10
4706.290076
 20
394.383474
 40
58.260697
 50
281.351207
 51
304.608197
  0
ARC
  8
APS_GEOMETR�
 10
4779.097938
 20
307.152937
 40
55.860037
 50
135.318587
 51
193.600101
  0
ARC
  8
APS_GEOMETR�
 10
4786.988421
 20
308.908188
 40
63.942187
 50
193.466263
 51
217.159027
  0
ARC
  8
APS_GEOMETR�
 10
4795.090578
 20
314.710902
 40
73.904799
 50
216.950172
 51
238.274085
  0
ARC
  8
APS_GEOMETR�
 10
4797.872164
 20
318.78403
 40
78.832326
 50
238.111234
 51
258.454604
  0
ARC
  8
APS_GEOMETR�
 10
4805.906131
 20
352.481116
 40
113.461151
 50
257.885414
 51
293.004385
  0
ARC
  8
APS_GEOMETR�
 10
4846.367384
 20
229.076407
 40
19.35927
 50
52.543341
 51
78.439814
  0
ARC
  8
APS_GEOMETR�
 10
4847.911947
 20
230.93434
 40
16.945347
 50
29.577128
 51
52.868521
  0
ARC
  8
APS_GEOMETR�
 10
4850.751014
 20
232.499879
 40
13.703549
 50
3.695684
 51
29.743583
  0
ARC
  8
APS_GEOMETR�
 10
4852.702464
 20
232.657505
 40
11.746039
 50
335.455866
 51
3.541966
  0
ARC
  8
APS_GEOMETR�
 10
4852.368318
 20
232.882561
 40
12.143658
 50
307.491065
 51
335.144857
  0
LINE
  8
APS_GEOMETR�
 10
4859.759406
 11
4852.387452
 20
223.247196
 21
217.593739
  0
ARC
  8
APS_GEOMETR�
 10
4862.347281
 20
249.434595
 40
33.362229
 50
252.630302
 51
296.613109
  0
ARC
  8
APS_GEOMETR�
 10
4864.652171
 20
244.955576
 40
28.325299
 50
296.503367
 51
327.0925
  0
ARC
  8
APS_GEOMETR�
 10
4866.035504
 20
243.916613
 40
26.599745
 50
327.352525
 51
333.638738
  0
ARC
  8
APS_GEOMETR�
 10
4953.166458
 20
277.414094
 40
77.842198
 50
215.595312
 51
232.702697
  0
ARC
  8
APS_GEOMETR�
 10
4957.85745
 20
283.158585
 40
85.254832
 50
232.534137
 51
252.745688
  0
ARC
  8
APS_GEOMETR�
 10
4957.688339
 20
281.88228
 40
83.986083
 50
252.597602
 51
273.026585
  0
ARC
  8
APS_GEOMETR�
 10
4958.401473
 20
272.838403
 40
74.917536
 50
272.847144
 51
295.01674
  0
ARC
  8
APS_GEOMETR�
 10
4963.917156
 20
262.614718
 40
63.3241
 50
294.406166
 51
321.305167
  0
ARC
  8
APS_GEOMETR�
 10
4967.841883
 20
259.415245
 40
58.260697
 50
321.347963
 51
344.604954
  0
ARC
  8
APS_GEOMETR�
 10
5079.685515
 20
239.386436
 40
55.860037
 50
175.315342
 51
233.596857
  0
ARC
  8
APS_GEOMETR�
 10
5084.602087
 20
245.802663
 40
63.942187
 50
233.463018
 51
257.155782
  0
ARC
  8
APS_GEOMETR�
 10
5087.079333
 20
255.455625
 40
73.904799
 50
256.946927
 51
278.27084
  0
ARC
  8
APS_GEOMETR�
 10
5086.592271
 20
260.363818
 40
78.832326
 50
278.107991
 51
298.451361
  0
ARC
  8
APS_GEOMETR�
 10
5071.088332
 20
291.342297
 40
113.461151
 50
297.88217
 51
333.001141
  0
ARC
  8
APS_GEOMETR�
 10
5181.402589
 20
222.810551
 40
19.35927
 50
92.540094
 51
118.436571
  0
ARC
  8
APS_GEOMETR�
 10
5181.391674
 20
225.226637
 40
16.945347
 50
69.573887
 51
92.86528
  0
ARC
  8
APS_GEOMETR�
 10
5182.560385
 20
228.250761
 40
13.703549
 50
43.69243
 51
69.740332
  0
ARC
  8
APS_GEOMETR�
 10
5183.954042
 20
229.625798
 40
11.746039
 50
15.452626
 51
43.538718
  0
ARC
  8
APS_GEOMETR�
 10
5183.553406
 20
229.583437
 40
12.143658
 50
347.487822
 51
15.141617
  0
LINE
  8
APS_GEOMETR�
 10
5195.408652
 11
5193.394866
 20
226.952549
 21
217.883263
  0
ARC
  8
APS_GEOMETR�
 10
5180.559374
 20
248.677556
 40
33.362229
 50
292.627056
 51
336.609864
  0
ARC
  8
APS_GEOMETR�
 10
5185.20397
 20
246.727719
 40
28.325299
 50
336.500123
 51
7.089255
  0
ARC
  8
APS_GEOMETR�
 10
5186.931503
 20
246.820916
 40
26.599745
 50
7.349285
 51
13.635501
  0
ARC
  8
APS_GEOMETR�
 10
5232.150543
 20
328.485616
 40
77.842198
 50
255.592067
 51
272.699452
  0
ARC
  8
APS_GEOMETR�
 10
5232.051983
 20
335.901468
 40
85.254832
 50
272.530893
 51
292.742444
  0
ARC
  8
APS_GEOMETR�
 10
5232.742769
 20
334.81502
 40
83.986083
 50
292.594358
 51
313.023341
  0
ARC
  8
APS_GEOMETR�
 10
5239.101986
 20
328.345041
 40
74.917536
 50
312.843901
 51
335.013497
  0
ARC
  8
APS_GEOMETR�
 10
5249.898661
 20
324.058048
 40
63.3241
 50
334.402921
 51
1.301921
  0
ARC
  8
APS_GEOMETR�
 10
5254.961762
 20
324.129585
 40
58.260697
 50
1.34472
 51
24.601716
  0
ARC
  8
APS_GEOMETR�
 10
5353.516427
 20
380.672751
 40
55.860037
 50
215.312093
 51
273.593613
  0
ARC
  8
APS_GEOMETR�
 10
5353.158924
 20
388.748197
 40
63.942187
 50
273.459775
 51
297.152539
  0
ARC
  8
APS_GEOMETR�
 10
5348.852309
 20
397.735382
 40
73.904799
 50
296.943684
 51
318.267597
  0
ARC
  8
APS_GEOMETR�
 10
5345.324469
 20
401.1824
 40
78.832326
 50
318.104746
 51
338.448116
  0
ARC
  8
APS_GEOMETR�
 10
5313.53596
 20
414.94935
 40
113.461151
 50
337.878926
 51
12.997897
  0
ARC
  8
APS_GEOMETR�
 10
5442.093981
 20
433.352344
 40
19.35927
 50
132.536849
 51
158.433321
  0
ARC
  8
APS_GEOMETR�
 10
5440.532697
 20
435.196248
 40
16.945347
 50
109.570652
 51
132.862046
  0
ARC
  8
APS_GEOMETR�
 10
5439.484281
 20
438.264153
 40
13.703549
 50
83.689179
 51
109.73708
  0
ARC
  8
APS_GEOMETR�
 10
5439.66814
 20
440.213307
 40
11.746039
 50
55.449382
 51
83.535475
  0
ARC
  8
APS_GEOMETR�
 10
5439.388447
 20
439.923349
 40
12.143658
 50
27.484575
 51
55.13837
  0
LINE
  8
APS_GEOMETR�
 10
5450.161512
 11
5454.448022
 20
445.527766
 21
437.285611
  0
ARC
  8
APS_GEOMETR�
 10
5424.822143
 20
452.626589
 40
33.362229
 50
332.623814
 51
16.606623
  0
ARC
  8
APS_GEOMETR�
 10
5429.633524
 20
454.118145
 40
28.325299
 50
16.49688
 51
47.086012
  0
ARC
  8
APS_GEOMETR�
 10
5430.897049
 20
455.299907
 40
26.599745
 50
47.346031
 51
53.632247
  0
ARC
  8
APS_GEOMETR�
 10
5413.04898
 20
546.925944
 40
77.842198
 50
295.588821
 51
312.696206
  0
ARC
  8
APS_GEOMETR�
 10
5408.206976
 20
552.543735
 40
85.254832
 50
312.52765
 51
332.739201
  0
ARC
  8
APS_GEOMETR�
 10
5409.434483
 20
552.155427
 40
83.986083
 50
332.591114
 51
353.020097
  0
ARC
  8
APS_GEOMETR�
 10
5418.464698
 20
551.28625
 40
74.917536
 50
352.840658
 51
15.010254
  0
ARC
  8
APS_GEOMETR�
 10
5429.491264
 20
554.941569
 40
63.3241
 50
14.399676
 51
41.298676
  0
ARC
  8
APS_GEOMETR�
 10
5433.324028
 20
558.250652
 40
58.260697
 50
41.341474
 51
64.598463
  0
ARC
  8
APS_GEOMETR�
 10
5472.482075
 20
664.912728
 40
55.860037
 50
255.308857
 51
313.590369
  0
ARC
  8
APS_GEOMETR�
 10
5467.017755
 20
670.869392
 40
63.942187
 50
313.456529
 51
337.149293
  0
ARC
  8
APS_GEOMETR�
 10
5457.942076
 20
674.986245
 40
73.904799
 50
336.940443
 51
358.264355
  0
ARC
  8
APS_GEOMETR�
 10
5453.023914
 20
675.359445
 40
78.832326
 50
358.101501
 51
18.444871
  0
ARC
  8
APS_GEOMETR�
 10
5419.822719
 20
665.474159
 40
113.461151
 50
17.875682
 51
52.994653
  0
ARC
  8
APS_GEOMETR�
 10
5506.480138
 20
762.202267
 40
19.35927
 50
172.533601
 51
198.430077
  0
ARC
  8
APS_GEOMETR�
 10
5504.098909
 20
762.611341
 40
16.945347
 50
149.567407
 51
172.858797
  0
ARC
  8
APS_GEOMETR�
 10
5501.323861
 20
764.287742
 40
13.703549
 50
123.685941
 51
149.733844
  0
ARC
  8
APS_GEOMETR�
 10
5500.211903
 20
765.899125
 40
11.746039
 50
95.446139
 51
123.532232
  0
ARC
  8
APS_GEOMETR�
 10
5500.184004
 20
765.497223
 40
12.143658
 50
67.481334
 51
95.135128
  0
LINE
  8
APS_GEOMETR�
 10
5504.834836
 11
5513.416247
 20
776.714985
 21
773.155957
  0
ARC
  8
APS_GEOMETR�
 10
5480.860103
 20
765.866522
 40
33.362229
 50
12.620572
 51
56.603379
  0
ARC
  8
APS_GEOMETR�
 10
5483.587321
 20
770.101663
 40
28.325299
 50
56.493635
 51
87.082767
  0
ARC
  8
APS_GEOMETR�
 10
5483.795714
 20
771.81911
 40
26.599745
 50
87.34279
 51
93.629006
  0
ARC
  8
APS_GEOMETR�
 10
5411.230542
 20
830.540318
 40
77.842198
 50
335.585577
 51
352.692963
  0
ARC
  8
APS_GEOMETR�
 10
5403.910373
 20
831.731831
 40
85.254832
 50
352.524405
 51
12.735957
  0
ARC
  8
APS_GEOMETR�
 10
5405.100325
 20
832.223328
 40
83.986083
 50
12.58787
 51
33.016853
  0
ARC
  8
APS_GEOMETR�
 10
5412.576858
 20
837.361588
 40
74.917536
 50
32.837413
 51
55.007009
  0
ARC
  8
APS_GEOMETR�
 10
5418.674663
 20
847.249119
 40
63.3241
 50
54.396431
 51
81.295431
  0
ARC
  8
APS_GEOMETR�
 10
5419.483979
 20
852.247631
 40
58.260697
 50
81.338232
 51
104.595224
  0
ARC
  8
APS_GEOMETR�
 10
5380.925773
 20
959.128013
 40
55.860037
 50
295.305608
 51
353.587125
  0
ARC
  8
APS_GEOMETR�
 10
5372.91105
 20
960.179136
 40
63.942187
 50
353.453286
 51
17.14605
  0
ARC
  8
APS_GEOMETR�
 10
5363.312262
 20
957.499642
 40
73.904799
 50
16.937196
 51
38.26111
  0
ARC
  8
APS_GEOMETR�
 10
5359.304682
 20
954.624421
 40
78.832326
 50
38.098259
 51
58.441628
  0
ARC
  8
APS_GEOMETR�
 10
5340.223593
 20
925.711617
 40
113.461151
 50
57.872438
 51
92.991409
  0
ARC
  8
APS_GEOMETR�
 10
5344.438746
 20
1055.511723
 40
19.35927
 50
212.530359
 51
238.426832
  0
ARC
  8
APS_GEOMETR�
 10
5342.351603
 20
1054.294585
 40
16.945347
 50
189.564159
 51
212.855553
  0
ARC
  8
APS_GEOMETR�
 10
5339.148194
 20
1053.795197
 40
13.703549
 50
163.682694
 51
189.730592
  0
ARC
  8
APS_GEOMETR�
 10
5337.260638
 20
1054.314943
 40
11.746039
 50
135.442897
 51
163.528991
  0
ARC
  8
APS_GEOMETR�
 10
5337.497586
 20
1053.989122
 40
12.143658
 50
107.478088
 51
135.131885
  0
LINE
  8
APS_GEOMETR�
 10
5333.850347
 11
5342.711946
 20
1065.57213
 21
1068.361279
  0
ARC
  8
APS_GEOMETR�
 10
5322.456549
 20
1041.85171
 40
33.362229
 50
52.617326
 51
96.600135
  0
ARC
  8
APS_GEOMETR�
 10
5321.823707
 20
1046.849073
 40
28.325299
 50
96.490393
 51
127.079524
  0
ARC
  8
APS_GEOMETR�
 10
5320.879472
 20
1048.298719
 40
26.599745
 50
127.339543
 51
133.625759
  0
ARC
  8
APS_GEOMETR�
 10
5227.545967
 20
1046.643067
 40
77.842198
 50
15.582332
 51
32.689718
  0
ARC
  8
APS_GEOMETR�
 10
5221.172288
 20
1042.850865
 40
85.254832
 50
32.521161
 51
52.732713
  0
ARC
  8
APS_GEOMETR�
 10
5221.767981
 20
1043.992226
 40
83.986083
 50
52.584627
 51
73.01361
  0
ARC
  8
APS_GEOMETR�
 10
5224.193023
 20
1052.734047
 40
74.917536
 50
72.83417
 51
95.003765
  0
ARC
  8
APS_GEOMETR�
 10
5222.509283
 20
1064.228024
 40
63.3241
 50
94.393189
 51
121.292189
  0
ARC
  8
APS_GEOMETR�
 10
5219.916516
 20
1068.577469
 40
58.260697
 50
121.334985
 51
145.946008
  0
ARC
  8
APS_GEOMETR�
 10
4930.288034
 20
1106.542095
 40
60.834082
 50
203.516503
 51
217.637427
  0
ARC
  8
APS_GEOMETR�
 10
4938.408837
 20
1112.481288
 40
70.892177
 50
217.430624
 51
221.70613
  0
LINE
  8
APS_GEOMETR�
 10
4885.483076
 11
4907.290077
 20
1065.315997
 21
1053.271997
  0
ARC
  8
APS_GEOMETR�
 10
4930.131283
 20
1124.893979
 40
75.175987
 50
252.311823
 51
270.10672
  0
ARC
  8
APS_GEOMETR�
 10
5022.493392
 20
686.234853
 40
375.0
 50
104.236538
 51
116.542125
  0
ARC
  8
APS_GEOMETR�
 10
4782.288082
 20
1084.094415
 40
95.746076
 50
319.342276
 51
323.124071
  0
ARC
  8
APS_GEOMETR�
 10
4791.897445
 20
1076.097942
 40
83.263021
 50
323.557767
 51
349.939405
  0
ARC
  8
APS_GEOMETR�
 10
4806.71511
 20
1073.950824
 40
68.299767
 50
349.541443
 51
6.994947
  0
ARC
  8
APS_GEOMETR�
 10
4681.706577
 20
948.959713
 40
60.834082
 50
243.513262
 51
257.634184
  0
ARC
  8
APS_GEOMETR�
 10
4684.110382
 20
958.729215
 40
70.892177
 50
257.427384
 51
261.70289
  0
LINE
  8
APS_GEOMETR�
 10
4673.880195
 11
4698.327332
 20
888.579062
 21
893.368708
  0
ARC
  8
APS_GEOMETR�
 10
4669.790928
 20
962.91799
 40
75.175987
 50
292.308577
 51
310.103474
  0
ARC
  8
APS_GEOMETR�
 10
5022.493393
 20
686.234852
 40
375.0
 50
144.233294
 51
156.538881
  0
ARC
  8
APS_GEOMETR�
 10
4582.754768
 20
836.636856
 40
95.746076
 50
359.339034
 51
3.12083
  0
ARC
  8
APS_GEOMETR�
 10
4595.256003
 20
836.687278
 40
83.263021
 50
3.554523
 51
29.936161
  0
ARC
  8
APS_GEOMETR�
 10
4607.987579
 20
844.566383
 40
68.299767
 50
29.538197
 51
46.991698
  0
ARC
  8
APS_GEOMETR�
 10
4592.558254
 20
668.464572
 40
60.834082
 50
283.510017
 51
297.630941
  0
ARC
  8
APS_GEOMETR�
 10
4588.120482
 20
677.493838
 40
70.892177
 50
297.424131
 51
301.699637
  0
LINE
  8
APS_GEOMETR�
 10
4625.371929
 11
4641.021895
 20
617.17775
 21
636.560263
  0
ARC
  8
APS_GEOMETR�
 10
4574.458303
 20
671.499027
 40
75.175987
 50
332.305332
 51
350.10023
  0
ARC
  8
APS_GEOMETR�
 10
5022.493394
 20
686.234853
 40
375.0
 50
184.23005
 51
196.535637
  0
ARC
  8
APS_GEOMETR�
 10
4588.948031
 20
518.815489
 40
95.746076
 50
39.335782
 51
43.117578
  0
ARC
  8
APS_GEOMETR�
 10
4598.492589
 20
526.889203
 40
83.263021
 50
43.55128
 51
69.932918
  0
ARC
  8
APS_GEOMETR�
 10
4603.181756
 20
541.108381
 40
68.299767
 50
69.534955
 51
86.988458
  0
ARC
  8
APS_GEOMETR�
 10
4704.550069
 20
396.283049
 40
60.834082
 50
323.506773
 51
337.627695
  0
ARC
  8
APS_GEOMETR�
 10
4695.346863
 20
400.347833
 40
70.892177
 50
337.420896
 51
341.696403
  0
LINE
  8
APS_GEOMETR�
 10
4762.652305
 11
4762.183446
 20
378.083999
 21
402.991495
  0
ARC
  8
APS_GEOMETR�
 10
4688.733665
 20
386.974046
 40
75.175987
 50
12.30209
 51
30.096987
  0
ARC
  8
APS_GEOMETR�
 10
5022.493393
 20
686.234855
 40
375.0
 50
224.226806
 51
236.532393
  0
ARC
  8
APS_GEOMETR�
 10
4797.970434
 20
279.319303
 40
95.746076
 50
79.332539
 51
83.114336
  0
ARC
  8
APS_GEOMETR�
 10
4800.093001
 20
291.639131
 40
83.263021
 50
83.548036
 51
109.929674
  0
ARC
  8
APS_GEOMETR�
 10
4794.545986
 20
305.546106
 40
68.299767
 50
109.531709
 51
126.985212
  0
ARC
  8
APS_GEOMETR�
 10
4965.287955
 20
259.752093
 40
60.834082
 50
3.503528
 51
17.624452
  0
ARC
  8
APS_GEOMETR�
 10
4955.624936
 20
256.950751
 40
70.892177
 50
17.417642
 51
21.693149
  0
LINE
  8
APS_GEOMETR�
 10
5021.4963
 11
5005.127967
 20
283.155027
 21
301.934826
  0
ARC
  8
APS_GEOMETR�
 10
4959.15462
 20
242.454742
 40
75.175987
 50
52.298846
 51
70.093743
  0
ARC
  8
APS_GEOMETR�
 10
5022.493392
 20
686.234853
 40
375.0
 50
264.223562
 51
276.529148
  0
ARC
  8
APS_GEOMETR�
 10
5112.033311
 20
230.19383
 40
95.746076
 50
119.329319
 51
123.111113
  0
ARC
  8
APS_GEOMETR�
 10
5105.740839
 20
240.996061
 40
83.263021
 50
123.544791
 51
149.926429
  0
ARC
  8
APS_GEOMETR�
 10
5092.552751
 20
248.084618
 40
68.299767
 50
149.528467
 51
166.98197
  0
ARC
  8
APS_GEOMETR�
 10
5252.788738
 20
322.746119
 40
60.834082
 50
43.500282
 51
57.621207
  0
ARC
  8
APS_GEOMETR�
 10
5247.186632
 20
314.389213
 40
70.892177
 50
57.414399
 51
61.689905
  0
LINE
  8
APS_GEOMETR�
 10
5280.806774
 11
5256.1967
 20
376.802247
 21
380.668439
  0
ARC
  8
APS_GEOMETR�
 10
5259.20788
 20
305.552782
 40
75.175987
 50
92.295601
 51
110.090498
  0
ARC
  8
APS_GEOMETR�
 10
5022.493394
 20
686.234854
 40
375.0
 50
304.220317
 51
316.525904
  0
ARC
  8
APS_GEOMETR�
 10
5384.205942
 20
394.421815
 40
95.746076
 50
159.326065
 51
163.10786
  0
ARC
  8
APS_GEOMETR�
 10
5372.442334
 20
398.652764
 40
83.263021
 50
163.541548
 51
189.923186
  0
ARC
  8
APS_GEOMETR�
 10
5357.783063
 20
395.606602
 40
68.299767
 50
189.525222
 51
206.978726
  0
ARC
  8
APS_GEOMETR�
 10
5432.548534
 20
555.794105
 40
60.834082
 50
83.497042
 51
97.617964
  0
ARC
  8
APS_GEOMETR�
 10
5433.62822
 20
545.791318
 40
70.892177
 50
97.411155
 51
101.686662
  0
LINE
  8
APS_GEOMETR�
 10
5419.268347
 11
5397.93007
 20
615.2139
 21
602.357732
  0
ARC
  8
APS_GEOMETR�
 10
5448.517033
 20
546.748487
 40
75.175987
 50
132.292358
 51
150.087256
  0
ARC
  8
APS_GEOMETR�
 10
5022.493394
 20
686.234853
 40
375.0
 50
344.217074
 51
356.52266
  0
ARC
  8
APS_GEOMETR�
 10
5487.155594
 20
695.171132
 40
95.746076
 50
199.322821
 51
203.104616
  0
ARC
  8
APS_GEOMETR�
 10
5475.424302
 20
690.851388
 40
83.263021
 50
203.538303
 51
229.919941
  0
ARC
  8
APS_GEOMETR�
 10
5466.152016
 20
679.095622
 40
68.299767
 50
229.52198
 51
246.975481
  0
ARC
  8
APS_GEOMETR�
 10
5420.468817
 20
849.867272
 40
60.834082
 50
123.493795
 51
137.61472
  0
ARC
  8
APS_GEOMETR�
 10
5427.725177
 20
842.89829
 40
70.892177
 50
137.40791
 51
141.683416
  0
LINE
  8
APS_GEOMETR�
 10
5372.103391
 11
5364.019773
 20
886.851876
 21
863.287957
  0
ARC
  8
APS_GEOMETR�
 10
5438.515998
 20
853.201258
 40
75.175987
 50
172.289113
 51
190.08401
  0
ARC
  8
APS_GEOMETR�
 10
5022.493393
 20
686.234855
 40
375.0
 50
24.213829
 51
36.519416
  0
ARC
  8
APS_GEOMETR�
 10
5372.718473
 20
991.739708
 40
95.746076
 50
239.319567
 51
243.101361
  0
ARC
  8
APS_GEOMETR�
 10
5366.507829
 20
980.890223
 40
83.263021
 50
243.535059
 51
269.916699
  0
ARC
  8
APS_GEOMETR�
 10
5366.960465
 20
965.924647
 40
68.299767
 50
269.518733
 51
286.972235
  0
ARC
  8
APS_GEOMETR�
 10
5222.200945
 20
1067.386923
 40
60.834082
 50
162.764763
 51
177.611475
  0
ARC
  8
APS_GEOMETR�
 10
5232.239176
 20
1066.712109
 40
70.892177
 50
177.404671
 51
181.680178
  0
LINE
  8
APS_GEOMETR�
 10
5161.377478
 11
5170.330346
 20
1064.63352
 21
1041.385955
  0
ARC
  8
APS_GEOMETR�
 10
5233.883644
 20
1081.540747
 40
75.175987
 50
212.285869
 51
230.080766
  0
ARC
  8
APS_GEOMETR�
 10
5022.49339
 20
686.234855
 40
375.0
 50
64.210585
 51
76.545368
  0
ARC
  8
APS_GEOMETR�
 10
5094.198643
 20
1145.418018
 40
95.746076
 50
279.345523
 51
283.127318
  0
ARC
  8
APS_GEOMETR�
 10
5096.420509
 20
1133.115711
 40
83.263021
 50
283.561011
 51
309.942649
  0
ARC
  8
APS_GEOMETR�
 10
5106.391992
 20
1121.946878
 40
68.299767
 50
309.544686
 51
327.661336
  0
LINE
  8
APS_GEOMETR�
 10
0.0
 11
2100.0
 20
0.0
 21
0.0
  0
LINE
  8
APS_GEOMETR�
 10
2100.0
 11
2100.0
 20
0.0
 21
2800.0
  0
LINE
  8
APS_GEOMETR�
 10
2100.0
 11
0.0
 20
2800.0
 21
2800.0
  0
LINE
  8
APS_GEOMETR�
 10
0.0
 11
0.0
 20
2800.0
 21
0.0
  0
ENDSEC
  0
EOF
