  0
SECTION
  2
HEADER
  9
$ACADVER
  1
AC1015
  9
$ACADMAINTVER
 70
     6
  9
$DWGCODEPAGE
  3
ANSI_1252
  9
$INSBASE
 10
0.0
 20
0.0
 30
0.0
  9
$EXTMIN
 10
-9.66647
 20
-9.95651
 30
0.0
  9
$EXTMAX
 10
9.66642
 20
9.95658
 30
0.0
  9
$LIMMIN
 10
0.0
 20
0.0
  9
$LIMMAX
 10
12.0
 20
9.0
  9
$ORTHOMODE
 70
     0
  9
$REGENMODE
 70
     1
  9
$FILLMODE
 70
     1
  9
$QTEXTMODE
 70
     0
  9
$MIRRTEXT
 70
     1
  9
$LTSCALE
 40
1.0
  9
$ATTMODE
 70
     1
  9
$TEXTSIZE
 40
0.2
  9
$TRACEWID
 40
0.05
  9
$TEXTSTYLE
  7
Standard
  9
$CLAYER
  8
0
  9
$CELTYPE
  6
ByLayer
  9
$CECOLOR
 62
   256
  9
$CELTSCALE
 40
1.0
  9
$DISPSILH
 70
     0
  9
$DIMSCALE
 40
1.0
  9
$DIMASZ
 40
0.18
  9
$DIMEXO
 40
0.0625
  9
$DIMDLI
 40
0.38
  9
$DIMRND
 40
0.0
  9
$DIMDLE
 40
0.0
  9
$DIMEXE
 40
0.18
  9
$DIMTP
 40
0.0
  9
$DIMTM
 40
0.0
  9
$DIMTXT
 40
0.18
  9
$DIMCEN
 40
0.09
  9
$DIMTSZ
 40
0.0
  9
$DIMTOL
 70
     0
  9
$DIMLIM
 70
     0
  9
$DIMTIH
 70
     1
  9
$DIMTOH
 70
     1
  9
$DIMSE1
 70
     0
  9
$DIMSE2
 70
     0
  9
$DIMTAD
 70
     0
  9
$DIMZIN
 70
     0
  9
$DIMBLK
  1

  9
$DIMASO
 70
     1
  9
$DIMSHO
 70
     1
  9
$DIMPOST
  1

  9
$DIMAPOST
  1

  9
$DIMALT
 70
     0
  9
$DIMALTD
 70
     2
  9
$DIMALTF
 40
25.4
  9
$DIMLFAC
 40
1.0
  9
$DIMTOFL
 70
     0
  9
$DIMTVP
 40
0.0
  9
$DIMTIX
 70
     0
  9
$DIMSOXD
 70
     0
  9
$DIMSAH
 70
     0
  9
$DIMBLK1
  1

  9
$DIMBLK2
  1

  9
$DIMSTYLE
  2
Standard
  9
$DIMCLRD
 70
     0
  9
$DIMCLRE
 70
     0
  9
$DIMCLRT
 70
     0
  9
$DIMTFAC
 40
1.0
  9
$DIMGAP
 40
0.09
  9
$DIMJUST
 70
     0
  9
$DIMSD1
 70
     0
  9
$DIMSD2
 70
     0
  9
$DIMTOLJ
 70
     1
  9
$DIMTZIN
 70
     0
  9
$DIMALTZ
 70
     0
  9
$DIMALTTZ
 70
     0
  9
$DIMUPT
 70
     0
  9
$DIMDEC
 70
     4
  9
$DIMTDEC
 70
     4
  9
$DIMALTU
 70
     2
  9
$DIMALTTD
 70
     2
  9
$DIMTXSTY
  7
Standard
  9
$DIMAUNIT
 70
     0
  9
$DIMADEC
 70
     0
  9
$DIMALTRND
 40
0.0
  9
$DIMAZIN
 70
     0
  9
$DIMDSEP
 70
    46
  9
$DIMATFIT
 70
     3
  9
$DIMFRAC
 70
     0
  9
$DIMLDRBLK
  1

  9
$DIMLUNIT
 70
     2
  9
$DIMLWD
 70
    -2
  9
$DIMLWE
 70
    -2
  9
$DIMTMOVE
 70
     0
  9
$LUNITS
 70
     2
  9
$LUPREC
 70
     4
  9
$SKETCHINC
 40
0.1
  9
$FILLETRAD
 40
0.5
  9
$AUNITS
 70
     0
  9
$AUPREC
 70
     0
  9
$MENU
  1
.
  9
$ELEVATION
 40
0.0
  9
$PELEVATION
 40
0.0
  9
$THICKNESS
 40
0.0
  9
$LIMCHECK
 70
     0
  9
$CHAMFERA
 40
0.5
  9
$CHAMFERB
 40
0.5
  9
$CHAMFERC
 40
1.0
  9
$CHAMFERD
 40
0.0
  9
$SKPOLY
 70
     0
  9
$TDCREATE
 40
2457068.921859745
  9
$TDUCREATE
 40
2457068.880193079
  9
$TDUPDATE
 40
2457068.921859769
  9
$TDUUPDATE
 40
2457068.880193102
  9
$TDINDWG
 40
0.0000000116
  9
$TDUSRTIMER
 40
0.0000000116
  9
$USRTIMER
 70
     1
  9
$ANGBASE
 50
0.0
  9
$ANGDIR
 70
     0
  9
$PDMODE
 70
     0
  9
$PDSIZE
 40
0.0
  9
$PLINEWID
 40
0.0
  9
$SPLFRAME
 70
     0
  9
$SPLINETYPE
 70
     6
  9
$SPLINESEGS
 70
     8
  9
$HANDSEED
  5
79
  9
$SURFTAB1
 70
     6
  9
$SURFTAB2
 70
     6
  9
$SURFTYPE
 70
     6
  9
$SURFU
 70
     6
  9
$SURFV
 70
     6
  9
$UCSBASE
  2

  9
$UCSNAME
  2

  9
$UCSORG
 10
0.0
 20
0.0
 30
0.0
  9
$UCSXDIR
 10
1.0
 20
0.0
 30
0.0
  9
$UCSYDIR
 10
0.0
 20
1.0
 30
0.0
  9
$UCSORTHOREF
  2

  9
$UCSORTHOVIEW
 70
     0
  9
$UCSORGTOP
 10
0.0
 20
0.0
 30
0.0
  9
$UCSORGBOTTOM
 10
0.0
 20
0.0
 30
0.0
  9
$UCSORGLEFT
 10
0.0
 20
0.0
 30
0.0
  9
$UCSORGRIGHT
 10
0.0
 20
0.0
 30
0.0
  9
$UCSORGFRONT
 10
0.0
 20
0.0
 30
0.0
  9
$UCSORGBACK
 10
0.0
 20
0.0
 30
0.0
  9
$PUCSBASE
  2

  9
$PUCSNAME
  2

  9
$PUCSORG
 10
0.0
 20
0.0
 30
0.0
  9
$PUCSXDIR
 10
1.0
 20
0.0
 30
0.0
  9
$PUCSYDIR
 10
0.0
 20
1.0
 30
0.0
  9
$PUCSORTHOREF
  2

  9
$PUCSORTHOVIEW
 70
     0
  9
$PUCSORGTOP
 10
0.0
 20
0.0
 30
0.0
  9
$PUCSORGBOTTOM
 10
0.0
 20
0.0
 30
0.0
  9
$PUCSORGLEFT
 10
0.0
 20
0.0
 30
0.0
  9
$PUCSORGRIGHT
 10
0.0
 20
0.0
 30
0.0
  9
$PUCSORGFRONT
 10
0.0
 20
0.0
 30
0.0
  9
$PUCSORGBACK
 10
0.0
 20
0.0
 30
0.0
  9
$USERI1
 70
     0
  9
$USERI2
 70
     0
  9
$USERI3
 70
     0
  9
$USERI4
 70
     0
  9
$USERI5
 70
     0
  9
$USERR1
 40
0.0
  9
$USERR2
 40
0.0
  9
$USERR3
 40
0.0
  9
$USERR4
 40
0.0
  9
$USERR5
 40
0.0
  9
$WORLDVIEW
 70
     1
  9
$SHADEDGE
 70
     3
  9
$SHADEDIF
 70
    70
  9
$TILEMODE
 70
     1
  9
$MAXACTVP
 70
    64
  9
$PINSBASE
 10
0.0
 20
0.0
 30
0.0
  9
$PLIMCHECK
 70
     0
  9
$PEXTMIN
 10
1.000000000000000E 20
 20
1.000000000000000E 20
 30
1.000000000000000E 20
  9
$PEXTMAX
 10
-1.000000000000000E 20
 20
-1.000000000000000E 20
 30
-1.000000000000000E 20
  9
$PLIMMIN
 10
0.0
 20
0.0
  9
$PLIMMAX
 10
12.0
 20
9.0
  9
$UNITMODE
 70
     0
  9
$VISRETAIN
 70
     1
  9
$PLINEGEN
 70
     0
  9
$PSLTSCALE
 70
     1
  9
$TREEDEPTH
 70
  3020
  9
$CMLSTYLE
  2
Standard
  9
$CMLJUST
 70
     0
  9
$CMLSCALE
 40
1.0
  9
$PROXYGRAPHICS
 70
     1
  9
$MEASUREMENT
 70
     0
  9
$CELWEIGHT
370
    -1
  9
$ENDCAPS
280
     0
  9
$JOINSTYLE
280
     0
  9
$LWDISPLAY
290
     0
  9
$INSUNITS
 70
     5
  9
$HYPERLINKBASE
  1

  9
$STYLESHEET
  1

  9
$XEDIT
290
     1
  9
$CEPSNTYPE
380
     0
  9
$PSTYLEMODE
290
     1
  9
$FINGERPRINTGUID
  2
{776DC595-59A6-476A-B3EA-02EC8AF94F72}
  9
$VERSIONGUID
  2
{FAEB1C32-E019-11D5-929B-00C0DF256EC4}
  9
$EXTNAMES
290
     1
  9
$PSVPSCALE
 40
0.0
  9
$OLESTARTUP
290
     0
  0
ENDSEC
  0
SECTION
  2
CLASSES
  0
CLASS
  1
ACDBDICTIONARYWDFLT
  2
AcDbDictionaryWithDefault
  3
ObjectDBX Classes
 90
        0
280
     0
281
     0
  0
CLASS
  1
VISUALSTYLE
  2
AcDbVisualStyle
  3
ObjectDBX Classes
 90
     4095
280
     0
281
     0
  0
CLASS
  1
MATERIAL
  2
AcDbMaterial
  3
ObjectDBX Classes
 90
     1153
280
     0
281
     0
  0
CLASS
  1
DICTIONARYVAR
  2
AcDbDictionaryVar
  3
ObjectDBX Classes
 90
        0
280
     0
281
     0
  0
CLASS
  1
ACDBPLACEHOLDER
  2
AcDbPlaceHolder
  3
ObjectDBX Classes
 90
        0
280
     0
281
     0
  0
CLASS
  1
LAYOUT
  2
AcDbLayout
  3
ObjectDBX Classes
 90
        0
280
     0
281
     0
  0
ENDSEC
  0
SECTION
  2
TABLES
  0
TABLE
  2
VPORT
  5
8
330
0
100
AcDbSymbolTable
 70
     1
  0
VPORT
  5
29
330
8
100
AcDbSymbolTableRecord
100
AcDbViewportTableRecord
  2
*Active
 70
     0
 10
0.0
 20
0.0
 11
1.0
 21
1.0
 12
10.42990654205607
 22
4.5
 13
0.0
 23
0.0
 14
0.5
 24
0.5
 15
0.5
 25
0.5
 16
0.0
 26
0.0
 36
1.0
 17
0.0
 27
0.0
 37
0.0
 40
9.0
 41
1.972972972850329
 42
50.0
 43
0.0
 44
0.0
 50
0.0
 51
0.0
 71
     0
 72
   100
 73
     1
 74
     3
 75
     0
 76
     0
 77
     0
 78
     0
281
     0
 65
     1
110
0.0
120
0.0
130
0.0
111
1.0
121
0.0
131
0.0
112
0.0
122
1.0
132
0.0
 79
     0
146
0.0
  0
ENDTAB
  0
TABLE
  2
LTYPE
  5
5
330
0
100
AcDbSymbolTable
 70
     1
  0
LTYPE
  5
14
330
5
100
AcDbSymbolTableRecord
100
AcDbLinetypeTableRecord
  2
ByBlock
 70
     0
  3

 72
    65
 73
     0
 40
0.0
  0
LTYPE
  5
15
330
5
100
AcDbSymbolTableRecord
100
AcDbLinetypeTableRecord
  2
ByLayer
 70
     0
  3

 72
    65
 73
     0
 40
0.0
  0
LTYPE
  5
16
330
5
100
AcDbSymbolTableRecord
100
AcDbLinetypeTableRecord
  2
Continuous
 70
     0
  3
Solid line
 72
    65
 73
     0
 40
0.0
  0
ENDTAB
  0
TABLE
  2
LAYER
  5
2
330
0
100
AcDbSymbolTable
 70
     2
  0
LAYER
  5
10
330
2
100
AcDbSymbolTableRecord
100
AcDbLayerTableRecord
  2
0
 70
     0
 62
     7
  6
Continuous
370
    -3
390
F
  0
LAYER
  5
40
330
2
100
AcDbSymbolTableRecord
100
AcDbLayerTableRecord
  2
Layer 1
 70
     0
 62
     7
  6
Continuous
370
    -3
390
F
  0
ENDTAB
  0
TABLE
  2
STYLE
  5
3
330
0
100
AcDbSymbolTable
 70
     1
  0
STYLE
  5
11
330
3
100
AcDbSymbolTableRecord
100
AcDbTextStyleTableRecord
  2
Standard
 70
     0
 40
0.0
 41
1.0
 50
0.0
 71
     0
 42
0.2
  3
txt
  4

  0
ENDTAB
  0
TABLE
  2
VIEW
  5
6
330
0
100
AcDbSymbolTable
 70
     0
  0
ENDTAB
  0
TABLE
  2
UCS
  5
7
330
0
100
AcDbSymbolTable
 70
     0
  0
ENDTAB
  0
TABLE
  2
APPID
  5
9
330
0
100
AcDbSymbolTable
 70
     2
  0
APPID
  5
12
330
9
100
AcDbSymbolTableRecord
100
AcDbRegAppTableRecord
  2
ACAD
 70
     0
  0
APPID
  5
3F
330
9
100
AcDbSymbolTableRecord
100
AcDbRegAppTableRecord
  2
ODA
 70
     0
  0
ENDTAB
  0
TABLE
  2
DIMSTYLE
  5
A
330
0
100
AcDbSymbolTable
 70
     1
100
AcDbDimStyleTable
  0
DIMSTYLE
105
27
330
A
100
AcDbSymbolTableRecord
100
AcDbDimStyleTableRecord
  2
Standard
 70
     0
178
     0
340
11
  0
ENDTAB
  0
TABLE
  2
BLOCK_RECORD
  5
1
330
0
100
AcDbSymbolTable
 70
     1
  0
BLOCK_RECORD
  5
1F
330
1
100
AcDbSymbolTableRecord
100
AcDbBlockTableRecord
  2
*Model_Space
340
22
  0
BLOCK_RECORD
  5
1B
330
1
100
AcDbSymbolTableRecord
100
AcDbBlockTableRecord
  2
*Paper_Space
340
1E
  0
BLOCK_RECORD
  5
23
330
1
100
AcDbSymbolTableRecord
100
AcDbBlockTableRecord
  2
*Paper_Space0
340
26
  0
ENDTAB
  0
ENDSEC
  0
SECTION
  2
BLOCKS
  0
BLOCK
  5
20
330
1F
100
AcDbEntity
  8
0
100
AcDbBlockBegin
  2
*Model_Space
 70
     0
 10
0.0
 20
0.0
 30
0.0
  3
*Model_Space
  1

  0
ENDBLK
  5
21
330
1F
100
AcDbEntity
  8
0
100
AcDbBlockEnd
  0
BLOCK
  5
1C
330
1B
100
AcDbEntity
 67
     1
  8
0
100
AcDbBlockBegin
  2
*Paper_Space
 70
     0
 10
0.0
 20
0.0
 30
0.0
  3
*Paper_Space
  1

  0
ENDBLK
  5
1D
330
1B
100
AcDbEntity
 67
     1
  8
0
100
AcDbBlockEnd
  0
BLOCK
  5
24
330
23
100
AcDbEntity
  8
0
100
AcDbBlockBegin
  2
*Paper_Space0
 70
     0
 10
0.0
 20
0.0
 30
0.0
  3
*Paper_Space0
  1

  0
ENDBLK
  5
25
330
23
100
AcDbEntity
  8
0
100
AcDbBlockEnd
  0
ENDSEC
  0
SECTION
  2
ENTITIES
  0
SPLINE
  5
41
330
1F
100
AcDbEntity
  8
Layer 1
100
AcDbSpline
210
0.0
220
0.0
230
1.0
 70
    11
 71
     3
 72
    20
 73
    16
 74
     0
 42
0.0000000001
 43
0.0000000001
 12
1.0
 22
0.0
 32
0.0
 13
1.0
 23
0.0
 33
0.0
 40
0.0
 40
0.0
 40
0.0
 40
0.0
 40
0.2
 40
0.2
 40
0.2
 40
0.2
 40
0.4
 40
0.4
 40
0.4
 40
0.4
 40
0.6
 40
0.6
 40
0.6
 40
0.6
 40
1.0
 40
1.0
 40
1.0
 40
1.0
 10
2.19729
 20
-4.52805
 30
0.0
 10
2.34755
 20
-4.45336
 30
0.0
 10
2.16303
 20
-4.50313
 30
0.0
 10
2.16303
 20
-4.50313
 30
0.0
 10
2.16303
 20
-4.50313
 30
0.0
 10
2.0436
 20
-4.58817
 30
0.0
 10
1.91279
 20
-4.55761
 30
0.0
 10
1.84923
 20
-4.73771
 30
0.0
 10
1.84923
 20
-4.73771
 30
0.0
 10
1.84923
 20
-4.73771
 30
0.0
 10
1.87468
 20
-4.74139
 30
0.0
 10
1.87968
 20
-4.75599
 30
0.0
 10
1.87968
 20
-4.75599
 30
0.0
 10
1.89561
 20
-4.72787
 30
0.0
 10
2.13005
 20
-4.56166
 30
0.0
 10
2.19729
 20
-4.52805
 30
0.0
  0
SPLINE
  5
42
330
1F
100
AcDbEntity
  8
Layer 1
100
AcDbSpline
210
0.0
220
0.0
230
1.0
 70
    11
 71
     3
 72
    44
 73
    40
 74
     0
 42
0.0000000001
 43
0.0000000001
 12
1.0
 22
0.0
 32
0.0
 13
1.0
 23
0.0
 33
0.0
 40
0.0
 40
0.0
 40
0.0
 40
0.0
 40
0.0909090909090909
 40
0.0909090909090909
 40
0.0909090909090909
 40
0.0909090909090909
 40
0.1818181818181818
 40
0.1818181818181818
 40
0.1818181818181818
 40
0.1818181818181818
 40
0.2727272727272727
 40
0.2727272727272727
 40
0.2727272727272727
 40
0.2727272727272727
 40
0.3636363636363636
 40
0.3636363636363636
 40
0.3636363636363636
 40
0.3636363636363636
 40
0.4545454545454545
 40
0.4545454545454545
 40
0.4545454545454545
 40
0.4545454545454545
 40
0.5454545454545454
 40
0.5454545454545454
 40
0.5454545454545454
 40
0.5454545454545454
 40
0.6363636363636364
 40
0.6363636363636364
 40
0.6363636363636364
 40
0.6363636363636364
 40
0.7272727272727273
 40
0.7272727272727273
 40
0.7272727272727273
 40
0.7272727272727273
 40
0.8181818181818182
 40
0.8181818181818182
 40
0.8181818181818182
 40
0.8181818181818182
 40
1.0
 40
1.0
 40
1.0
 40
1.0
 10
3.90255
 20
-3.63183
 30
0.0
 10
3.90255
 20
-3.63183
 30
0.0
 10
3.82333
 20
-3.51912
 30
0.0
 10
3.82333
 20
-3.51912
 30
0.0
 10
3.82333
 20
-3.51912
 30
0.0
 10
3.7869
 20
-3.55267
 30
0.0
 10
3.77716
 20
-3.60638
 30
0.0
 10
3.73194
 20
-3.63183
 30
0.0
 10
3.73194
 20
-3.63183
 30
0.0
 10
3.76001
 20
-3.65712
 30
0.0
 10
3.79494
 20
-3.67139
 30
0.0
 10
3.83248
 20
-3.67448
 30
0.0
 10
3.83248
 20
-3.67448
 30
0.0
 10
3.85889
 20
-3.70848
 30
0.0
 10
3.79827
 20
-3.71054
 30
0.0
 10
3.78676
 20
-3.73237
 30
0.0
 10
3.78676
 20
-3.73237
 30
0.0
 10
3.81221
 20
-3.75782
 30
0.0
 10
3.93985
 20
-3.87173
 30
0.0
 10
3.93908
 20
-3.90297
 30
0.0
 10
3.93908
 20
-3.90297
 30
0.0
 10
3.93908
 20
-3.90297
 30
0.0
 10
3.89339
 20
-3.9243
 30
0.0
 10
3.89339
 20
-3.9243
 30
0.0
 10
3.89339
 20
-3.9243
 30
0.0
 10
3.89339
 20
-3.9243
 30
0.0
 10
3.96954
 20
-4.01264
 30
0.0
 10
3.96954
 20
-4.01264
 30
0.0
 10
3.96954
 20
-4.01264
 30
0.0
 10
3.99462
 20
-4.04042
 30
0.0
 10
3.99999
 20
-4.04833
 30
0.0
 10
4.01523
 20
-3.97912
 30
0.0
 10
4.01523
 20
-3.97912
 30
0.0
 10
4.02219
 20
-3.93446
 30
0.0
 10
4.03423
 20
-3.88712
 30
0.0
 10
4.03656
 20
-3.84204
 30
0.0
 10
4.03656
 20
-3.84204
 30
0.0
 10
4.03746
 20
-3.82503
 30
0.0
 10
3.91324
 20
-3.63627
 30
0.0
 10
3.90255
 20
-3.63183
 30
0.0
  0
SPLINE
  5
43
330
1F
100
AcDbEntity
  8
Layer 1
100
AcDbSpline
210
0.0
220
0.0
230
1.0
 70
    11
 71
     3
 72
    32
 73
    28
 74
     0
 42
0.0000000001
 43
0.0000000001
 12
1.0
 22
0.0
 32
0.0
 13
1.0
 23
0.0
 33
0.0
 40
0.0
 40
0.0
 40
0.0
 40
0.0
 40
0.125
 40
0.125
 40
0.125
 40
0.125
 40
0.25
 40
0.25
 40
0.25
 40
0.25
 40
0.375
 40
0.375
 40
0.375
 40
0.375
 40
0.5
 40
0.5
 40
0.5
 40
0.5
 40
0.625
 40
0.625
 40
0.625
 40
0.625
 40
0.75
 40
0.75
 40
0.75
 40
0.75
 40
1.0
 40
1.0
 40
1.0
 40
1.0
 10
5.04833
 20
-6.97936
 30
0.0
 10
5.01684
 20
-6.95843
 30
0.0
 10
4.68424
 20
-7.0358
 30
0.0
 10
4.6459
 20
-7.04693
 30
0.0
 10
4.6459
 20
-7.04693
 30
0.0
 10
4.62248
 20
-7.08707
 30
0.0
 10
4.57163
 20
-7.07294
 30
0.0
 10
4.53623
 20
-7.09262
 30
0.0
 10
4.53623
 20
-7.09262
 30
0.0
 10
4.44929
 20
-7.14096
 30
0.0
 10
4.52348
 20
-7.6221
 30
0.0
 10
4.57888
 20
-7.73238
 30
0.0
 10
4.57888
 20
-7.73238
 30
0.0
 10
4.6242
 20
-7.82258
 30
0.0
 10
4.69982
 20
-7.86118
 30
0.0
 10
4.71157
 20
-8.01649
 30
0.0
 10
4.71157
 20
-8.01649
 30
0.0
 10
4.88434
 20
-8.11902
 30
0.0
 10
5.1303
 20
-8.561
 30
0.0
 10
5.1303
 20
-8.561
 30
0.0
 10
5.1303
 20
-8.561
 30
0.0
 10
5.1303
 20
-8.561
 30
0.0
 10
5.85121
 20
-8.0398
 30
0.0
 10
5.98969
 20
-7.96336
 30
0.0
 10
5.98969
 20
-7.96336
 30
0.0
 10
5.70958
 20
-7.67189
 30
0.0
 10
5.2369
 20
-7.32274
 30
0.0
 10
5.04833
 20
-6.97936
 30
0.0
  0
SPLINE
  5
44
330
1F
100
AcDbEntity
  8
Layer 1
100
AcDbSpline
210
0.0
220
0.0
230
1.0
 70
    11
 71
     3
 72
   512
 73
   508
 74
     0
 42
0.0000000001
 43
0.0000000001
 12
1.0
 22
0.0
 32
0.0
 13
1.0
 23
0.0
 33
0.0
 40
0.0
 40
0.0
 40
0.0
 40
0.0
 40
0.0078125
 40
0.0078125
 40
0.0078125
 40
0.0078125
 40
0.015625
 40
0.015625
 40
0.015625
 40
0.015625
 40
0.0234375
 40
0.0234375
 40
0.0234375
 40
0.0234375
 40
0.03125
 40
0.03125
 40
0.03125
 40
0.03125
 40
0.0390625
 40
0.0390625
 40
0.0390625
 40
0.0390625
 40
0.046875
 40
0.046875
 40
0.046875
 40
0.046875
 40
0.0546875
 40
0.0546875
 40
0.0546875
 40
0.0546875
 40
0.0625
 40
0.0625
 40
0.0625
 40
0.0625
 40
0.0703125
 40
0.0703125
 40
0.0703125
 40
0.0703125
 40
0.078125
 40
0.078125
 40
0.078125
 40
0.078125
 40
0.0859375
 40
0.0859375
 40
0.0859375
 40
0.0859375
 40
0.09375
 40
0.09375
 40
0.09375
 40
0.09375
 40
0.1015625
 40
0.1015625
 40
0.1015625
 40
0.1015625
 40
0.109375
 40
0.109375
 40
0.109375
 40
0.109375
 40
0.1171875
 40
0.1171875
 40
0.1171875
 40
0.1171875
 40
0.125
 40
0.125
 40
0.125
 40
0.125
 40
0.1328125
 40
0.1328125
 40
0.1328125
 40
0.1328125
 40
0.140625
 40
0.140625
 40
0.140625
 40
0.140625
 40
0.1484375
 40
0.1484375
 40
0.1484375
 40
0.1484375
 40
0.15625
 40
0.15625
 40
0.15625
 40
0.15625
 40
0.1640625
 40
0.1640625
 40
0.1640625
 40
0.1640625
 40
0.171875
 40
0.171875
 40
0.171875
 40
0.171875
 40
0.1796875
 40
0.1796875
 40
0.1796875
 40
0.1796875
 40
0.1875
 40
0.1875
 40
0.1875
 40
0.1875
 40
0.1953125
 40
0.1953125
 40
0.1953125
 40
0.1953125
 40
0.203125
 40
0.203125
 40
0.203125
 40
0.203125
 40
0.2109375
 40
0.2109375
 40
0.2109375
 40
0.2109375
 40
0.21875
 40
0.21875
 40
0.21875
 40
0.21875
 40
0.2265625
 40
0.2265625
 40
0.2265625
 40
0.2265625
 40
0.234375
 40
0.234375
 40
0.234375
 40
0.234375
 40
0.2421875
 40
0.2421875
 40
0.2421875
 40
0.2421875
 40
0.25
 40
0.25
 40
0.25
 40
0.25
 40
0.2578125
 40
0.2578125
 40
0.2578125
 40
0.2578125
 40
0.265625
 40
0.265625
 40
0.265625
 40
0.265625
 40
0.2734375
 40
0.2734375
 40
0.2734375
 40
0.2734375
 40
0.28125
 40
0.28125
 40
0.28125
 40
0.28125
 40
0.2890625
 40
0.2890625
 40
0.2890625
 40
0.2890625
 40
0.296875
 40
0.296875
 40
0.296875
 40
0.296875
 40
0.3046875
 40
0.3046875
 40
0.3046875
 40
0.3046875
 40
0.3125
 40
0.3125
 40
0.3125
 40
0.3125
 40
0.3203125
 40
0.3203125
 40
0.3203125
 40
0.3203125
 40
0.328125
 40
0.328125
 40
0.328125
 40
0.328125
 40
0.3359375
 40
0.3359375
 40
0.3359375
 40
0.3359375
 40
0.34375
 40
0.34375
 40
0.34375
 40
0.34375
 40
0.3515625
 40
0.3515625
 40
0.3515625
 40
0.3515625
 40
0.359375
 40
0.359375
 40
0.359375
 40
0.359375
 40
0.3671875
 40
0.3671875
 40
0.3671875
 40
0.3671875
 40
0.375
 40
0.375
 40
0.375
 40
0.375
 40
0.3828125
 40
0.3828125
 40
0.3828125
 40
0.3828125
 40
0.390625
 40
0.390625
 40
0.390625
 40
0.390625
 40
0.3984375
 40
0.3984375
 40
0.3984375
 40
0.3984375
 40
0.40625
 40
0.40625
 40
0.40625
 40
0.40625
 40
0.4140625
 40
0.4140625
 40
0.4140625
 40
0.4140625
 40
0.421875
 40
0.421875
 40
0.421875
 40
0.421875
 40
0.4296875
 40
0.4296875
 40
0.4296875
 40
0.4296875
 40
0.4375
 40
0.4375
 40
0.4375
 40
0.4375
 40
0.4453125
 40
0.4453125
 40
0.4453125
 40
0.4453125
 40
0.453125
 40
0.453125
 40
0.453125
 40
0.453125
 40
0.4609375
 40
0.4609375
 40
0.4609375
 40
0.4609375
 40
0.46875
 40
0.46875
 40
0.46875
 40
0.46875
 40
0.4765625
 40
0.4765625
 40
0.4765625
 40
0.4765625
 40
0.484375
 40
0.484375
 40
0.484375
 40
0.484375
 40
0.4921875
 40
0.4921875
 40
0.4921875
 40
0.4921875
 40
0.5
 40
0.5
 40
0.5
 40
0.5
 40
0.5078125
 40
0.5078125
 40
0.5078125
 40
0.5078125
 40
0.515625
 40
0.515625
 40
0.515625
 40
0.515625
 40
0.5234375
 40
0.5234375
 40
0.5234375
 40
0.5234375
 40
0.53125
 40
0.53125
 40
0.53125
 40
0.53125
 40
0.5390625
 40
0.5390625
 40
0.5390625
 40
0.5390625
 40
0.546875
 40
0.546875
 40
0.546875
 40
0.546875
 40
0.5546875
 40
0.5546875
 40
0.5546875
 40
0.5546875
 40
0.5625
 40
0.5625
 40
0.5625
 40
0.5625
 40
0.5703125
 40
0.5703125
 40
0.5703125
 40
0.5703125
 40
0.578125
 40
0.578125
 40
0.578125
 40
0.578125
 40
0.5859375
 40
0.5859375
 40
0.5859375
 40
0.5859375
 40
0.59375
 40
0.59375
 40
0.59375
 40
0.59375
 40
0.6015625
 40
0.6015625
 40
0.6015625
 40
0.6015625
 40
0.609375
 40
0.609375
 40
0.609375
 40
0.609375
 40
0.6171875
 40
0.6171875
 40
0.6171875
 40
0.6171875
 40
0.625
 40
0.625
 40
0.625
 40
0.625
 40
0.6328125
 40
0.6328125
 40
0.6328125
 40
0.6328125
 40
0.640625
 40
0.640625
 40
0.640625
 40
0.640625
 40
0.6484375
 40
0.6484375
 40
0.6484375
 40
0.6484375
 40
0.65625
 40
0.65625
 40
0.65625
 40
0.65625
 40
0.6640625
 40
0.6640625
 40
0.6640625
 40
0.6640625
 40
0.671875
 40
0.671875
 40
0.671875
 40
0.671875
 40
0.6796875
 40
0.6796875
 40
0.6796875
 40
0.6796875
 40
0.6875
 40
0.6875
 40
0.6875
 40
0.6875
 40
0.6953125
 40
0.6953125
 40
0.6953125
 40
0.6953125
 40
0.703125
 40
0.703125
 40
0.703125
 40
0.703125
 40
0.7109375
 40
0.7109375
 40
0.7109375
 40
0.7109375
 40
0.71875
 40
0.71875
 40
0.71875
 40
0.71875
 40
0.7265625
 40
0.7265625
 40
0.7265625
 40
0.7265625
 40
0.734375
 40
0.734375
 40
0.734375
 40
0.734375
 40
0.7421875
 40
0.7421875
 40
0.7421875
 40
0.7421875
 40
0.75
 40
0.75
 40
0.75
 40
0.75
 40
0.7578125
 40
0.7578125
 40
0.7578125
 40
0.7578125
 40
0.765625
 40
0.765625
 40
0.765625
 40
0.765625
 40
0.7734375
 40
0.7734375
 40
0.7734375
 40
0.7734375
 40
0.78125
 40
0.78125
 40
0.78125
 40
0.78125
 40
0.7890625
 40
0.7890625
 40
0.7890625
 40
0.7890625
 40
0.796875
 40
0.796875
 40
0.796875
 40
0.796875
 40
0.8046875
 40
0.8046875
 40
0.8046875
 40
0.8046875
 40
0.8125
 40
0.8125
 40
0.8125
 40
0.8125
 40
0.8203125
 40
0.8203125
 40
0.8203125
 40
0.8203125
 40
0.828125
 40
0.828125
 40
0.828125
 40
0.828125
 40
0.8359375
 40
0.8359375
 40
0.8359375
 40
0.8359375
 40
0.84375
 40
0.84375
 40
0.84375
 40
0.84375
 40
0.8515625
 40
0.8515625
 40
0.8515625
 40
0.8515625
 40
0.859375
 40
0.859375
 40
0.859375
 40
0.859375
 40
0.8671875
 40
0.8671875
 40
0.8671875
 40
0.8671875
 40
0.875
 40
0.875
 40
0.875
 40
0.875
 40
0.8828125
 40
0.8828125
 40
0.8828125
 40
0.8828125
 40
0.890625
 40
0.890625
 40
0.890625
 40
0.890625
 40
0.8984375
 40
0.8984375
 40
0.8984375
 40
0.8984375
 40
0.90625
 40
0.90625
 40
0.90625
 40
0.90625
 40
0.9140625
 40
0.9140625
 40
0.9140625
 40
0.9140625
 40
0.921875
 40
0.921875
 40
0.921875
 40
0.921875
 40
0.9296875
 40
0.9296875
 40
0.9296875
 40
0.9296875
 40
0.9375
 40
0.9375
 40
0.9375
 40
0.9375
 40
0.9453125
 40
0.9453125
 40
0.9453125
 40
0.9453125
 40
0.953125
 40
0.953125
 40
0.953125
 40
0.953125
 40
0.9609375
 40
0.9609375
 40
0.9609375
 40
0.9609375
 40
0.96875
 40
0.96875
 40
0.96875
 40
0.96875
 40
0.9765625
 40
0.9765625
 40
0.9765625
 40
0.9765625
 40
0.984375
 40
0.984375
 40
0.984375
 40
0.984375
 40
1.0
 40
1.0
 40
1.0
 40
1.0
 10
4.39304
 20
-1.6364
 30
0.0
 10
4.40272
 20
-1.64561
 30
0.0
 10
4.41294
 20
-1.65585
 30
0.0
 10
4.42045
 20
-1.68209
 30
0.0
 10
4.42045
 20
-1.68209
 30
0.0
 10
4.42045
 20
-1.68209
 30
0.0
 10
4.43262
 20
-1.82528
 30
0.0
 10
4.43262
 20
-1.82528
 30
0.0
 10
4.43262
 20
-1.82528
 30
0.0
 10
4.45315
 20
-1.84007
 30
0.0
 10
4.75925
 20
-1.74252
 30
0.0
 10
4.8318
 20
-2.06766
 30
0.0
 10
4.8318
 20
-2.06766
 30
0.0
 10
4.86088
 20
-2.19794
 30
0.0
 10
4.71919
 20
-2.20368
 30
0.0
 10
4.61677
 20
-2.23824
 30
0.0
 10
4.61677
 20
-2.23824
 30
0.0
 10
4.58994
 20
-2.25017
 30
0.0
 10
4.47868
 20
-2.2524
 30
0.0
 10
4.48186
 20
-2.2761
 30
0.0
 10
4.48186
 20
-2.2761
 30
0.0
 10
4.48779
 20
-2.32087
 30
0.0
 10
4.71919
 20
-2.31939
 30
0.0
 10
4.80127
 20
-2.3432
 30
0.0
 10
4.80127
 20
-2.3432
 30
0.0
 10
5.29086
 20
-2.49108
 30
0.0
 10
5.14962
 20
-2.7746
 30
0.0
 10
5.34049
 20
-3.07435
 30
0.0
 10
5.34049
 20
-3.07435
 30
0.0
 10
5.52321
 20
-3.36132
 30
0.0
 10
5.60738
 20
-3.69681
 30
0.0
 10
5.74536
 20
-4.00775
 30
0.0
 10
5.74536
 20
-4.00775
 30
0.0
 10
5.7397
 20
-4.02267
 30
0.0
 10
5.73594
 20
-4.02111
 30
0.0
 10
5.74274
 20
-4.03601
 30
0.0
 10
5.74274
 20
-4.03601
 30
0.0
 10
5.76928
 20
-4.09414
 30
0.0
 10
5.86858
 20
-4.15311
 30
0.0
 10
5.86858
 20
-4.22
 30
0.0
 10
5.86858
 20
-4.22
 30
0.0
 10
5.86858
 20
-4.25926
 30
0.0
 10
5.84757
 20
-4.33097
 30
0.0
 10
5.83813
 20
-4.36928
 30
0.0
 10
5.83813
 20
-4.36928
 30
0.0
 10
5.82554
 20
-4.42024
 30
0.0
 10
5.77294
 20
-4.40357
 30
0.0
 10
5.78058
 20
-4.3596
 30
0.0
 10
5.78058
 20
-4.3596
 30
0.0
 10
5.76719
 20
-4.37045
 30
0.0
 10
5.77293
 20
-4.39402
 30
0.0
 10
5.74552
 20
-4.38765
 30
0.0
 10
5.74552
 20
-4.38765
 30
0.0
 10
5.7384
 20
-4.38633
 30
0.0
 10
5.69766
 20
-4.37873
 30
0.0
 10
5.7053
 20
-4.35198
 30
0.0
 10
5.7053
 20
-4.35198
 30
0.0
 10
5.68106
 20
-4.38574
 30
0.0
 10
5.68046
 20
-4.36754
 30
0.0
 10
5.6645
 20
-4.36291
 30
0.0
 10
5.6645
 20
-4.36291
 30
0.0
 10
5.61648
 20
-4.34436
 30
0.0
 10
5.64661
 20
-4.29192
 30
0.0
 10
5.62357
 20
-4.29195
 30
0.0
 10
5.62357
 20
-4.29195
 30
0.0
 10
5.52565
 20
-4.29211
 30
0.0
 10
5.50276
 20
-4.24496
 30
0.0
 10
5.4504
 20
-4.15982
 30
0.0
 10
5.4504
 20
-4.15982
 30
0.0
 10
5.34816
 20
-4.00417
 30
0.0
 10
5.29369
 20
-3.92072
 30
0.0
 10
5.23077
 20
-3.8116
 30
0.0
 10
5.23077
 20
-3.8116
 30
0.0
 10
5.23077
 20
-3.8116
 30
0.0
 10
5.22467
 20
-3.81159
 30
0.0
 10
5.22467
 20
-3.81159
 30
0.0
 10
5.22467
 20
-3.81159
 30
0.0
 10
5.21676
 20
-3.89626
 30
0.0
 10
5.28015
 20
-4.13721
 30
0.0
 10
5.27648
 20
-4.28075
 30
0.0
 10
5.27648
 20
-4.28075
 30
0.0
 10
5.27415
 20
-4.37108
 30
0.0
 10
5.45214
 20
-4.36936
 30
0.0
 10
5.4288
 20
-4.494
 30
0.0
 10
5.4288
 20
-4.494
 30
0.0
 10
5.40139
 20
-4.55504
 30
0.0
 10
5.44706
 20
-4.54581
 30
0.0
 10
5.44706
 20
-4.54581
 30
0.0
 10
5.44706
 20
-4.54581
 30
0.0
 10
5.74443
 20
-4.53113
 30
0.0
 10
5.80422
 20
-4.50186
 30
0.0
 10
5.87053
 20
-4.78648
 30
0.0
 10
5.87053
 20
-4.78648
 30
0.0
 10
5.92207
 20
-4.82625
 30
0.0
 10
6.47042
 20
-4.8617
 30
0.0
 10
6.62909
 20
-4.92967
 30
0.0
 10
6.62909
 20
-4.92967
 30
0.0
 10
6.83203
 20
-5.01661
 30
0.0
 10
7.13407
 20
-5.26207
 30
0.0
 10
7.18355
 20
-5.48717
 30
0.0
 10
7.18355
 20
-5.48717
 30
0.0
 10
7.19943
 20
-5.55937
 30
0.0
 10
7.22771
 20
-5.54125
 30
0.0
 10
7.27494
 20
-5.55112
 30
0.0
 10
7.27494
 20
-5.55112
 30
0.0
 10
8.49837
 20
-5.66582
 30
0.0
 10
8.17712
 20
-7.10174
 30
0.0
 10
9.13329
 20
-7.10176
 30
0.0
 10
9.13329
 20
-7.10176
 30
0.0
 10
9.13329
 20
-7.10176
 30
0.0
 10
9.07569
 20
-7.14558
 30
0.0
 10
9.05103
 20
-7.17489
 30
0.0
 10
9.05103
 20
-7.17489
 30
0.0
 10
9.11712
 20
-7.22852
 30
0.0
 10
9.28172
 20
-7.2966
 30
0.0
 10
9.57504
 20
-7.31501
 30
0.0
 10
9.57504
 20
-7.31501
 30
0.0
 10
9.54908
 20
-7.35263
 30
0.0
 10
9.49133
 20
-7.34139
 30
0.0
 10
9.46534
 20
-7.37899
 30
0.0
 10
9.46534
 20
-7.37899
 30
0.0
 10
9.50148
 20
-7.4281
 30
0.0
 10
9.61038
 20
-7.44768
 30
0.0
 10
9.66642
 20
-7.4704
 30
0.0
 10
9.66642
 20
-7.4704
 30
0.0
 10
9.49632
 20
-7.48291
 30
0.0
 10
9.50375
 20
-7.53591
 30
0.0
 10
9.15157
 20
-7.51001
 30
0.0
 10
9.15157
 20
-7.51001
 30
0.0
 10
9.17099
 20
-7.53438
 30
0.0
 10
9.20552
 20
-7.53493
 30
0.0
 10
9.22772
 20
-7.5557
 30
0.0
 10
9.22772
 20
-7.5557
 30
0.0
 10
9.19155
 20
-7.63378
 30
0.0
 10
8.91395
 20
-7.55874
 30
0.0
 10
8.91395
 20
-7.55874
 30
0.0
 10
8.91395
 20
-7.55874
 30
0.0
 10
8.94369
 20
-7.6328
 30
0.0
 10
9.09064
 20
-7.71715
 30
0.0
 10
9.09064
 20
-7.71715
 30
0.0
 10
9.09064
 20
-7.71715
 30
0.0
 10
8.99584
 20
-7.74242
 30
0.0
 10
8.67228
 20
-7.58152
 30
0.0
 10
8.64281
 20
-7.5892
 30
0.0
 10
8.64281
 20
-7.5892
 30
0.0
 10
8.65342
 20
-7.63209
 30
0.0
 10
8.6952
 20
-7.66053
 30
0.0
 10
8.72507
 20
-7.68974
 30
0.0
 10
8.72507
 20
-7.68974
 30
0.0
 10
8.586
 20
-7.67535
 30
0.0
 10
8.38521
 20
-7.58806
 30
0.0
 10
8.25591
 20
-7.50392
 30
0.0
 10
8.25591
 20
-7.50392
 30
0.0
 10
8.26745
 20
-7.54609
 30
0.0
 10
8.3138
 20
-7.63187
 30
0.0
 10
8.3138
 20
-7.63187
 30
0.0
 10
8.3138
 20
-7.63187
 30
0.0
 10
8.22961
 20
-7.59443
 30
0.0
 10
8.15172
 20
-7.54297
 30
0.0
 10
8.08226
 20
-7.48259
 30
0.0
 10
8.08226
 20
-7.48259
 30
0.0
 10
8.08226
 20
-7.48259
 30
0.0
 10
8.09007
 20
-7.57895
 30
0.0
 10
8.09007
 20
-7.57895
 30
0.0
 10
8.09007
 20
-7.57895
 30
0.0
 10
7.9459
 20
-7.48473
 30
0.0
 10
7.80122
 20
-7.25515
 30
0.0
 10
7.71669
 20
-7.11093
 30
0.0
 10
7.71669
 20
-7.11093
 30
0.0
 10
7.71669
 20
-7.11093
 30
0.0
 10
7.7106
 20
-7.11397
 30
0.0
 10
7.7106
 20
-7.11397
 30
0.0
 10
7.7106
 20
-7.11397
 30
0.0
 10
7.72301
 20
-7.1762
 30
0.0
 10
7.74105
 20
-7.31198
 30
0.0
 10
7.74105
 20
-7.31198
 30
0.0
 10
7.74105
 20
-7.31198
 30
0.0
 10
7.61722
 20
-7.21768
 30
0.0
 10
7.50517
 20
-7.09246
 30
0.0
 10
7.46078
 20
-6.94032
 30
0.0
 10
7.46078
 20
-6.94032
 30
0.0
 10
7.25472
 20
-6.79967
 30
0.0
 10
7.35225
 20
-6.49442
 30
0.0
 10
7.26277
 20
-6.29143
 30
0.0
 10
7.26277
 20
-6.29143
 30
0.0
 10
7.26277
 20
-6.29143
 30
0.0
 10
7.25364
 20
-6.29447
 30
0.0
 10
7.25364
 20
-6.29447
 30
0.0
 10
7.25364
 20
-6.29447
 30
0.0
 10
7.27803
 20
-6.62152
 30
0.0
 10
6.79033
 20
-7.06618
 30
0.0
 10
7.16834
 20
-7.47957
 30
0.0
 10
7.16834
 20
-7.47957
 30
0.0
 10
7.24978
 20
-7.56863
 30
0.0
 10
7.3558
 20
-7.63028
 30
0.0
 10
7.43337
 20
-7.72635
 30
0.0
 10
7.43337
 20
-7.72635
 30
0.0
 10
7.43893
 20
-7.79496
 30
0.0
 10
7.40617
 20
-7.85856
 30
0.0
 10
7.336
 20
-7.90759
 30
0.0
 10
7.336
 20
-7.90759
 30
0.0
 10
7.11751
 20
-8.06028
 30
0.0
 10
6.95661
 20
-8.27383
 30
0.0
 10
6.86673
 20
-8.49102
 30
0.0
 10
6.86673
 20
-8.49102
 30
0.0
 10
6.89983
 20
-8.5519
 30
0.0
 10
6.82649
 20
-8.61143
 30
0.0
 10
6.8911
 20
-8.66467
 30
0.0
 10
6.8911
 20
-8.66467
 30
0.0
 10
6.911
 20
-8.68107
 30
0.0
 10
6.94907
 20
-8.70653
 30
0.0
 10
6.93375
 20
-8.73777
 30
0.0
 10
6.93375
 20
-8.73777
 30
0.0
 10
7.14976
 20
-8.8027
 30
0.0
 10
7.03424
 20
-9.13615
 30
0.0
 10
6.79971
 20
-9.15208
 30
0.0
 10
6.79971
 20
-9.15208
 30
0.0
 10
6.36246
 20
-9.18179
 30
0.0
 10
6.49658
 20
-8.74637
 30
0.0
 10
6.5338
 20
-8.50454
 30
0.0
 10
6.5338
 20
-8.50454
 30
0.0
 10
6.54168
 20
-8.45332
 30
0.0
 10
6.60706
 20
-8.30684
 30
0.0
 10
6.62865
 20
-8.26276
 30
0.0
 10
6.62865
 20
-8.26276
 30
0.0
 10
6.6994
 20
-8.11832
 30
0.0
 10
6.81037
 20
-7.99961
 30
0.0
 10
6.91326
 20
-7.9056
 30
0.0
 10
6.91326
 20
-7.9056
 30
0.0
 10
6.95406
 20
-7.86385
 30
0.0
 10
6.92406
 20
-7.83318
 30
0.0
 10
6.87265
 20
-7.78344
 30
0.0
 10
6.87265
 20
-7.78344
 30
0.0
 10
6.82846
 20
-7.74068
 30
0.0
 10
6.72255
 20
-7.71975
 30
0.0
 10
6.67175
 20
-7.68671
 30
0.0
 10
6.67175
 20
-7.68671
 30
0.0
 10
6.51382
 20
-7.584
 30
0.0
 10
6.41452
 20
-7.45602
 30
0.0
 10
6.28789
 20
-7.31809
 30
0.0
 10
6.28789
 20
-7.31809
 30
0.0
 10
6.28789
 20
-7.31809
 30
0.0
 10
6.27876
 20
-7.32113
 30
0.0
 10
6.27876
 20
-7.32113
 30
0.0
 10
6.27876
 20
-7.32113
 30
0.0
 10
6.27291
 20
-7.61561
 30
0.0
 10
6.3593
 20
-7.66765
 30
0.0
 10
6.56208
 20
-7.84207
 30
0.0
 10
6.56208
 20
-7.84207
 30
0.0
 10
6.62201
 20
-7.91218
 30
0.0
 10
6.6205
 20
-8.09774
 30
0.0
 10
6.48898
 20
-8.16195
 30
0.0
 10
6.48898
 20
-8.16195
 30
0.0
 10
6.23749
 20
-8.28474
 30
0.0
 10
5.9736
 20
-8.37915
 30
0.0
 10
5.72126
 20
-8.50011
 30
0.0
 10
5.72126
 20
-8.50011
 30
0.0
 10
5.64641
 20
-8.54612
 30
0.0
 10
5.52616
 20
-8.61946
 30
0.0
 10
5.50189
 20
-8.66159
 30
0.0
 10
5.50189
 20
-8.66159
 30
0.0
 10
5.51046
 20
-8.70977
 30
0.0
 10
5.46773
 20
-8.73776
 30
0.0
 10
5.45008
 20
-8.77735
 30
0.0
 10
5.45008
 20
-8.77735
 30
0.0
 10
5.51453
 20
-8.96968
 30
0.0
 10
5.71453
 20
-9.3852
 30
0.0
 10
5.26731
 20
-9.22214
 30
0.0
 10
5.26731
 20
-9.22214
 30
0.0
 10
5.15462
 20
-9.26992
 30
0.0
 10
5.02575
 20
-9.02555
 30
0.0
 10
4.95963
 20
-8.91139
 30
0.0
 10
4.95963
 20
-8.91139
 30
0.0
 10
4.9269
 20
-8.86411
 30
0.0
 10
4.86663
 20
-8.74589
 30
0.0
 10
4.69764
 20
-8.53058
 30
0.0
 10
4.69764
 20
-8.53058
 30
0.0
 10
4.60183
 20
-8.43726
 30
0.0
 10
4.23065
 20
-8.15487
 30
0.0
 10
4.23459
 20
-7.9822
 30
0.0
 10
4.23459
 20
-7.9822
 30
0.0
 10
4.2357
 20
-7.92719
 30
0.0
 10
4.2388
 20
-7.89997
 30
0.0
 10
4.22544
 20
-7.88166
 30
0.0
 10
4.22544
 20
-7.88166
 30
0.0
 10
4.18382
 20
-7.82464
 30
0.0
 10
4.14411
 20
-7.77763
 30
0.0
 10
4.09749
 20
-7.7263
 30
0.0
 10
4.09749
 20
-7.7263
 30
0.0
 10
3.98499
 20
-7.6024
 30
0.0
 10
3.89657
 20
-7.19793
 30
0.0
 10
3.69535
 20
-7.17488
 30
0.0
 10
3.69535
 20
-7.17488
 30
0.0
 10
3.65169
 20
-7.20279
 30
0.0
 10
3.60124
 20
-7.21753
 30
0.0
 10
3.55216
 20
-7.23277
 30
0.0
 10
3.55216
 20
-7.23277
 30
0.0
 10
3.43019
 20
-7.42843
 30
0.0
 10
3.32853
 20
-7.49611
 30
0.0
 10
3.21931
 20
-7.64586
 30
0.0
 10
3.21931
 20
-7.64586
 30
0.0
 10
3.20246
 20
-7.71399
 30
0.0
 10
3.22286
 20
-7.85028
 30
0.0
 10
3.24445
 20
-7.95174
 30
0.0
 10
3.24445
 20
-7.95174
 30
0.0
 10
3.26506
 20
-8.04855
 30
0.0
 10
3.46358
 20
-8.11327
 30
0.0
 10
3.54301
 20
-8.24421
 30
0.0
 10
3.54301
 20
-8.24421
 30
0.0
 10
3.59003
 20
-8.29535
 30
0.0
 10
3.61125
 20
-8.32541
 30
0.0
 10
3.64964
 20
-8.30514
 30
0.0
 10
3.64964
 20
-8.30514
 30
0.0
 10
3.69531
 20
-8.28101
 30
0.0
 10
3.65927
 20
-8.15364
 30
0.0
 10
3.76235
 20
-8.1193
 30
0.0
 10
3.76235
 20
-8.1193
 30
0.0
 10
3.82947
 20
-8.09694
 30
0.0
 10
3.84797
 20
-8.12327
 30
0.0
 10
3.90859
 20
-8.12539
 30
0.0
 10
3.90859
 20
-8.12539
 30
0.0
 10
4.17085
 20
-8.13457
 30
0.0
 10
4.17206
 20
-8.26424
 30
0.0
 10
4.03043
 20
-8.45443
 30
0.0
 10
4.03043
 20
-8.45443
 30
0.0
 10
4.01138
 20
-8.48002
 30
0.0
 10
3.93499
 20
-8.52711
 30
0.0
 10
3.90552
 20
-8.55193
 30
0.0
 10
3.90552
 20
-8.55193
 30
0.0
 10
3.87827
 20
-8.71653
 30
0.0
 10
3.69846
 20
-8.65565
 30
0.0
 10
3.64961
 20
-8.65245
 30
0.0
 10
3.64961
 20
-8.65245
 30
0.0
 10
3.49732
 20
-8.57813
 30
0.0
 10
3.02337
 20
-8.29611
 30
0.0
 10
2.92809
 20
-8.25743
 30
0.0
 10
2.92809
 20
-8.25743
 30
0.0
 10
2.82773
 20
-8.19009
 30
0.0
 10
2.76624
 20
-8.18485
 30
0.0
 10
2.73262
 20
-8.06754
 30
0.0
 10
2.73262
 20
-8.06754
 30
0.0
 10
2.70061
 20
-7.95589
 30
0.0
 10
2.76
 20
-7.86593
 30
0.0
 10
2.75395
 20
-7.75374
 30
0.0
 10
2.75395
 20
-7.75374
 30
0.0
 10
2.74167
 20
-7.52609
 30
0.0
 10
2.77903
 20
-7.09985
 30
0.0
 10
2.72958
 20
-6.90377
 30
0.0
 10
2.72958
 20
-6.90377
 30
0.0
 10
2.65068
 20
-6.59098
 30
0.0
 10
2.3898
 20
-6.29076
 30
0.0
 10
2.4097
 20
-5.95021
 30
0.0
 10
2.4097
 20
-5.95021
 30
0.0
 10
2.42092
 20
-5.75823
 30
0.0
 10
2.46838
 20
-5.57863
 30
0.0
 10
2.49804
 20
-5.38964
 30
0.0
 10
2.49804
 20
-5.38964
 30
0.0
 10
2.50452
 20
-5.34836
 30
0.0
 10
2.40853
 20
-5.11955
 30
0.0
 10
2.38837
 20
-5.06672
 30
0.0
 10
2.38837
 20
-5.06672
 30
0.0
 10
2.33932
 20
-4.93821
 30
0.0
 10
2.33379
 20
-4.82246
 30
0.0
 10
2.31148
 20
-4.6681
 30
0.0
 10
2.31148
 20
-4.6681
 30
0.0
 10
2.31024
 20
-4.65945
 30
0.0
 10
2.30931
 20
-4.57065
 30
0.0
 10
2.3032
 20
-4.56827
 30
0.0
 10
2.3032
 20
-4.56827
 30
0.0
 10
2.29471
 20
-4.53747
 30
0.0
 10
2.18575
 20
-4.62248
 30
0.0
 10
2.17078
 20
-4.63148
 30
0.0
 10
2.17078
 20
-4.63148
 30
0.0
 10
2.04658
 20
-4.70596
 30
0.0
 10
2.0382
 20
-4.71882
 30
0.0
 10
1.88426
 20
-4.80155
 30
0.0
 10
1.88426
 20
-4.80155
 30
0.0
 10
1.88426
 20
-4.84518
 30
0.0
 10
1.83865
 20
-4.85219
 30
0.0
 10
1.80568
 20
-4.83108
 30
0.0
 10
1.80568
 20
-4.83108
 30
0.0
 10
1.79126
 20
-4.82809
 30
0.0
 10
1.78369
 20
-4.81399
 30
0.0
 10
1.76689
 20
-4.82912
 30
0.0
 10
1.76689
 20
-4.82912
 30
0.0
 10
1.71051
 20
-4.90805
 30
0.0
 10
1.65661
 20
-4.90339
 30
0.0
 10
1.57819
 20
-4.85992
 30
0.0
 10
1.57819
 20
-4.85992
 30
0.0
 10
1.53435
 20
-4.8356
 30
0.0
 10
1.45963
 20
-4.80317
 30
0.0
 10
1.42862
 20
-4.75679
 30
0.0
 10
1.42862
 20
-4.75679
 30
0.0
 10
1.38999
 20
-4.60709
 30
0.0
 10
1.35321
 20
-4.58029
 30
0.0
 10
1.38912
 20
-4.4849
 30
0.0
 10
1.38912
 20
-4.4849
 30
0.0
 10
1.42074
 20
-4.40092
 30
0.0
 10
1.42434
 20
-4.30639
 30
0.0
 10
1.46527
 20
-4.22595
 30
0.0
 10
1.46527
 20
-4.22595
 30
0.0
 10
1.52652
 20
-4.10562
 30
0.0
 10
1.70175
 20
-3.83752
 30
0.0
 10
1.65111
 20
-3.7111
 30
0.0
 10
1.65111
 20
-3.7111
 30
0.0
 10
1.61491
 20
-3.6208
 30
0.0
 10
1.9449
 20
-3.17998
 30
0.0
 10
2.0106
 20
-3.08353
 30
0.0
 10
2.0106
 20
-3.08353
 30
0.0
 10
2.01034
 20
-2.90824
 30
0.0
 10
2.04119
 20
-2.72981
 30
0.0
 10
2.18425
 20
-2.65398
 30
0.0
 10
2.18425
 20
-2.65398
 30
0.0
 10
2.17319
 20
-2.69092
 30
0.0
 10
2.13602
 20
-2.76204
 30
0.0
 10
2.15906
 20
-2.77759
 30
0.0
 10
2.15906
 20
-2.77759
 30
0.0
 10
2.22269
 20
-2.71864
 30
0.0
 10
2.3498
 20
-2.65022
 30
0.0
 10
2.41264
 20
-2.65654
 30
0.0
 10
2.41264
 20
-2.65654
 30
0.0
 10
2.26463
 20
-2.77759
 30
0.0
 10
2.43404
 20
-2.71491
 30
0.0
 10
2.43404
 20
-2.71491
 30
0.0
 10
2.43404
 20
-2.71491
 30
0.0
 10
2.4919
 20
-2.70004
 30
0.0
 10
2.72842
 20
-2.70245
 30
0.0
 10
2.7722
 20
-2.74235
 30
0.0
 10
2.7722
 20
-2.74235
 30
0.0
 10
2.61686
 20
-2.75897
 30
0.0
 10
2.63208
 20
-2.80328
 30
0.0
 10
2.63208
 20
-2.80328
 30
0.0
 10
2.63208
 20
-2.80328
 30
0.0
 10
2.71151
 20
-2.80325
 30
0.0
 10
2.7894
 20
-2.82381
 30
0.0
 10
2.85446
 20
-2.8703
 30
0.0
 10
2.85446
 20
-2.8703
 30
0.0
 10
2.76731
 20
-2.88025
 30
0.0
 10
2.82705
 20
-2.90684
 30
0.0
 10
2.82705
 20
-2.90684
 30
0.0
 10
2.82705
 20
-2.90684
 30
0.0
 10
2.94569
 20
-2.92811
 30
0.0
 10
3.07745
 20
-2.9954
 30
0.0
 10
3.13169
 20
-3.09268
 30
0.0
 10
3.13169
 20
-3.09268
 30
0.0
 10
3.10163
 20
-3.09175
 30
0.0
 10
3.0072
 20
-3.08313
 30
0.0
 10
2.9768
 20
-3.08805
 30
0.0
 10
2.9768
 20
-3.08805
 30
0.0
 10
3.12351
 20
-3.1266
 30
0.0
 10
3.21146
 20
-3.19137
 30
0.0
 10
3.24747
 20
-3.245
 30
0.0
 10
3.24747
 20
-3.245
 30
0.0
 10
3.24747
 20
-3.245
 30
0.0
 10
3.20077
 20
-3.24407
 30
0.0
 10
3.22006
 20
-3.26937
 30
0.0
 10
3.22006
 20
-3.26937
 30
0.0
 10
3.25041
 20
-3.29117
 30
0.0
 10
3.29316
 20
-3.29982
 30
0.0
 10
3.29316
 20
-3.29982
 30
0.0
 10
3.29316
 20
-3.29982
 30
0.0
 10
3.30163
 20
-3.31273
 30
0.0
 10
3.33639
 20
-3.3389
 30
0.0
 10
3.34888
 20
-3.32625
 30
0.0
 10
3.34888
 20
-3.32625
 30
0.0
 10
3.37693
 20
-3.23063
 30
0.0
 10
3.42839
 20
-3.07109
 30
0.0
 10
3.46069
 20
-2.81545
 30
0.0
 10
3.46069
 20
-2.81545
 30
0.0
 10
3.4735
 20
-2.71417
 30
0.0
 10
3.49689
 20
-2.63379
 30
0.0
 10
3.53991
 20
-2.54126
 30
0.0
 10
3.53991
 20
-2.54126
 30
0.0
 10
3.56534
 20
-2.47734
 30
0.0
 10
3.61532
 20
-2.43728
 30
0.0
 10
3.8019
 20
-2.37674
 30
0.0
 10
3.8019
 20
-2.37674
 30
0.0
 10
3.82039
 20
-2.35084
 30
0.0
 10
3.80256
 20
-2.3152
 30
0.0
 10
3.79581
 20
-2.2884
 30
0.0
 10
3.79581
 20
-2.2884
 30
0.0
 10
3.76837
 20
-2.29107
 30
0.0
 10
3.75316
 20
-2.28496
 30
0.0
 10
3.75012
 20
-2.27012
 30
0.0
 10
3.75012
 20
-2.27012
 30
0.0
 10
3.74795
 20
-2.23509
 30
0.0
 10
3.77364
 20
-2.20723
 30
0.0
 10
3.77449
 20
-2.17262
 30
0.0
 10
3.77449
 20
-2.17262
 30
0.0
 10
3.76084
 20
-2.10544
 30
0.0
 10
3.7761
 20
-2.07901
 30
0.0
 10
3.72268
 20
-2.07208
 30
0.0
 10
3.72268
 20
-2.07208
 30
0.0
 10
3.63531
 20
-2.06073
 30
0.0
 10
3.4868
 20
-2.04964
 30
0.0
 10
3.37843
 20
-2.07817
 30
0.0
 10
3.37843
 20
-2.07817
 30
0.0
 10
3.14782
 20
-2.03208
 30
0.0
 10
3.52075
 20
-1.71431
 30
0.0
 10
3.64651
 20
-1.68516
 30
0.0
 10
3.64651
 20
-1.68516
 30
0.0
 10
3.68892
 20
-1.67534
 30
0.0
 10
3.78991
 20
-1.69344
 30
0.0
 10
3.78055
 20
-1.62727
 30
0.0
 10
3.78055
 20
-1.62727
 30
0.0
 10
3.90374
 20
-1.45643
 30
0.0
 10
4.25294
 20
-1.52067
 30
0.0
 10
4.39304
 20
-1.6364
 30
0.0
  0
SPLINE
  5
45
330
1F
100
AcDbEntity
  8
Layer 1
100
AcDbSpline
210
0.0
220
0.0
230
1.0
 70
    11
 71
     3
 72
    24
 73
    20
 74
     0
 42
0.0000000001
 43
0.0000000001
 12
1.0
 22
0.0
 32
0.0
 13
1.0
 23
0.0
 33
0.0
 40
0.0
 40
0.0
 40
0.0
 40
0.0
 40
0.1666666666666667
 40
0.1666666666666667
 40
0.1666666666666667
 40
0.1666666666666667
 40
0.3333333333333333
 40
0.3333333333333333
 40
0.3333333333333333
 40
0.3333333333333333
 40
0.5
 40
0.5
 40
0.5
 40
0.5
 40
0.6666666666666666
 40
0.6666666666666666
 40
0.6666666666666666
 40
0.6666666666666666
 40
1.0
 40
1.0
 40
1.0
 40
1.0
 10
3.04578
 20
7.20116
 30
0.0
 10
2.87785
 20
7.40693
 30
0.0
 10
2.90849
 20
7.77012
 30
0.0
 10
2.78493
 20
7.85963
 30
0.0
 10
2.78493
 20
7.85963
 30
0.0
 10
2.77501
 20
7.86683
 30
0.0
 10
2.76564
 20
7.87323
 30
0.0
 10
2.75678
 20
7.87897
 30
0.0
 10
2.75678
 20
7.87897
 30
0.0
 10
2.75678
 20
7.87897
 30
0.0
 10
2.71611
 20
7.7248
 30
0.0
 10
2.71611
 20
7.7248
 30
0.0
 10
2.71611
 20
7.7248
 30
0.0
 10
2.80697
 20
7.57457
 30
0.0
 10
2.67309
 20
7.55105
 30
0.0
 10
2.67743
 20
7.46606
 30
0.0
 10
2.67743
 20
7.46606
 30
0.0
 10
2.68401
 20
7.33735
 30
0.0
 10
2.86634
 20
7.25988
 30
0.0
 10
3.04578
 20
7.20116
 30
0.0
  0
SPLINE
  5
46
330
1F
100
AcDbEntity
  8
Layer 1
100
AcDbSpline
210
0.0
220
0.0
230
1.0
 70
    11
 71
     3
 72
    24
 73
    20
 74
     0
 42
0.0000000001
 43
0.0000000001
 12
1.0
 22
0.0
 32
0.0
 13
1.0
 23
0.0
 33
0.0
 40
0.0
 40
0.0
 40
0.0
 40
0.0
 40
0.1666666666666667
 40
0.1666666666666667
 40
0.1666666666666667
 40
0.1666666666666667
 40
0.3333333333333333
 40
0.3333333333333333
 40
0.3333333333333333
 40
0.3333333333333333
 40
0.5
 40
0.5
 40
0.5
 40
0.5
 40
0.6666666666666666
 40
0.6666666666666666
 40
0.6666666666666666
 40
0.6666666666666666
 40
1.0
 40
1.0
 40
1.0
 40
1.0
 10
4.91987
 20
5.87674
 30
0.0
 10
4.91987
 20
5.87674
 30
0.0
 10
4.78729
 20
5.97419
 30
0.0
 10
4.78729
 20
5.97419
 30
0.0
 10
4.78729
 20
5.97419
 30
0.0
 10
4.77496
 20
5.91794
 30
0.0
 10
4.748
 20
5.86206
 30
0.0
 10
4.72027
 20
5.81552
 30
0.0
 10
4.72027
 20
5.81552
 30
0.0
 10
4.72027
 20
5.81552
 30
0.0
 10
4.7416
 20
5.71474
 30
0.0
 10
4.7416
 20
5.71474
 30
0.0
 10
4.7416
 20
5.71474
 30
0.0
 10
4.77131
 20
5.73485
 30
0.0
 10
4.82362
 20
5.77663
 30
0.0
 10
4.9063
 20
5.86227
 30
0.0
 10
4.9063
 20
5.86227
 30
0.0
 10
4.91098
 20
5.86706
 30
0.0
 10
4.91548
 20
5.8719
 30
0.0
 10
4.91987
 20
5.87674
 30
0.0
  0
SPLINE
  5
47
330
1F
100
AcDbEntity
  8
Layer 1
100
AcDbSpline
210
0.0
220
0.0
230
1.0
 70
    11
 71
     3
 72
   676
 73
   672
 74
     0
 42
0.0000000001
 43
0.0000000001
 12
1.0
 22
0.0
 32
0.0
 13
1.0
 23
0.0
 33
0.0
 40
0.0
 40
0.0
 40
0.0
 40
0.0
 40
0.0059171597633136
 40
0.0059171597633136
 40
0.0059171597633136
 40
0.0059171597633136
 40
0.0118343195266272
 40
0.0118343195266272
 40
0.0118343195266272
 40
0.0118343195266272
 40
0.0177514792899408
 40
0.0177514792899408
 40
0.0177514792899408
 40
0.0177514792899408
 40
0.0236686390532544
 40
0.0236686390532544
 40
0.0236686390532544
 40
0.0236686390532544
 40
0.029585798816568
 40
0.029585798816568
 40
0.029585798816568
 40
0.029585798816568
 40
0.0355029585798817
 40
0.0355029585798817
 40
0.0355029585798817
 40
0.0355029585798817
 40
0.0414201183431953
 40
0.0414201183431953
 40
0.0414201183431953
 40
0.0414201183431953
 40
0.0473372781065089
 40
0.0473372781065089
 40
0.0473372781065089
 40
0.0473372781065089
 40
0.0532544378698225
 40
0.0532544378698225
 40
0.0532544378698225
 40
0.0532544378698225
 40
0.0591715976331361
 40
0.0591715976331361
 40
0.0591715976331361
 40
0.0591715976331361
 40
0.0650887573964497
 40
0.0650887573964497
 40
0.0650887573964497
 40
0.0650887573964497
 40
0.0710059171597633
 40
0.0710059171597633
 40
0.0710059171597633
 40
0.0710059171597633
 40
0.0769230769230769
 40
0.0769230769230769
 40
0.0769230769230769
 40
0.0769230769230769
 40
0.0828402366863905
 40
0.0828402366863905
 40
0.0828402366863905
 40
0.0828402366863905
 40
0.0887573964497041
 40
0.0887573964497041
 40
0.0887573964497041
 40
0.0887573964497041
 40
0.0946745562130177
 40
0.0946745562130177
 40
0.0946745562130177
 40
0.0946745562130177
 40
0.1005917159763314
 40
0.1005917159763314
 40
0.1005917159763314
 40
0.1005917159763314
 40
0.106508875739645
 40
0.106508875739645
 40
0.106508875739645
 40
0.106508875739645
 40
0.1124260355029586
 40
0.1124260355029586
 40
0.1124260355029586
 40
0.1124260355029586
 40
0.1183431952662722
 40
0.1183431952662722
 40
0.1183431952662722
 40
0.1183431952662722
 40
0.1242603550295858
 40
0.1242603550295858
 40
0.1242603550295858
 40
0.1242603550295858
 40
0.1301775147928994
 40
0.1301775147928994
 40
0.1301775147928994
 40
0.1301775147928994
 40
0.136094674556213
 40
0.136094674556213
 40
0.136094674556213
 40
0.136094674556213
 40
0.1420118343195266
 40
0.1420118343195266
 40
0.1420118343195266
 40
0.1420118343195266
 40
0.1479289940828402
 40
0.1479289940828402
 40
0.1479289940828402
 40
0.1479289940828402
 40
0.1538461538461539
 40
0.1538461538461539
 40
0.1538461538461539
 40
0.1538461538461539
 40
0.1597633136094675
 40
0.1597633136094675
 40
0.1597633136094675
 40
0.1597633136094675
 40
0.1656804733727811
 40
0.1656804733727811
 40
0.1656804733727811
 40
0.1656804733727811
 40
0.1715976331360947
 40
0.1715976331360947
 40
0.1715976331360947
 40
0.1715976331360947
 40
0.1775147928994083
 40
0.1775147928994083
 40
0.1775147928994083
 40
0.1775147928994083
 40
0.1834319526627219
 40
0.1834319526627219
 40
0.1834319526627219
 40
0.1834319526627219
 40
0.1893491124260355
 40
0.1893491124260355
 40
0.1893491124260355
 40
0.1893491124260355
 40
0.1952662721893491
 40
0.1952662721893491
 40
0.1952662721893491
 40
0.1952662721893491
 40
0.2011834319526627
 40
0.2011834319526627
 40
0.2011834319526627
 40
0.2011834319526627
 40
0.2071005917159763
 40
0.2071005917159763
 40
0.2071005917159763
 40
0.2071005917159763
 40
0.2130177514792899
 40
0.2130177514792899
 40
0.2130177514792899
 40
0.2130177514792899
 40
0.2189349112426036
 40
0.2189349112426036
 40
0.2189349112426036
 40
0.2189349112426036
 40
0.2248520710059172
 40
0.2248520710059172
 40
0.2248520710059172
 40
0.2248520710059172
 40
0.2307692307692308
 40
0.2307692307692308
 40
0.2307692307692308
 40
0.2307692307692308
 40
0.2366863905325444
 40
0.2366863905325444
 40
0.2366863905325444
 40
0.2366863905325444
 40
0.242603550295858
 40
0.242603550295858
 40
0.242603550295858
 40
0.242603550295858
 40
0.2485207100591716
 40
0.2485207100591716
 40
0.2485207100591716
 40
0.2485207100591716
 40
0.2544378698224852
 40
0.2544378698224852
 40
0.2544378698224852
 40
0.2544378698224852
 40
0.2603550295857988
 40
0.2603550295857988
 40
0.2603550295857988
 40
0.2603550295857988
 40
0.2662721893491125
 40
0.2662721893491125
 40
0.2662721893491125
 40
0.2662721893491125
 40
0.272189349112426
 40
0.272189349112426
 40
0.272189349112426
 40
0.272189349112426
 40
0.2781065088757396
 40
0.2781065088757396
 40
0.2781065088757396
 40
0.2781065088757396
 40
0.2840236686390533
 40
0.2840236686390533
 40
0.2840236686390533
 40
0.2840236686390533
 40
0.2899408284023668
 40
0.2899408284023668
 40
0.2899408284023668
 40
0.2899408284023668
 40
0.2958579881656805
 40
0.2958579881656805
 40
0.2958579881656805
 40
0.2958579881656805
 40
0.3017751479289941
 40
0.3017751479289941
 40
0.3017751479289941
 40
0.3017751479289941
 40
0.3076923076923077
 40
0.3076923076923077
 40
0.3076923076923077
 40
0.3076923076923077
 40
0.3136094674556213
 40
0.3136094674556213
 40
0.3136094674556213
 40
0.3136094674556213
 40
0.3195266272189349
 40
0.3195266272189349
 40
0.3195266272189349
 40
0.3195266272189349
 40
0.3254437869822485
 40
0.3254437869822485
 40
0.3254437869822485
 40
0.3254437869822485
 40
0.3313609467455622
 40
0.3313609467455622
 40
0.3313609467455622
 40
0.3313609467455622
 40
0.3372781065088757
 40
0.3372781065088757
 40
0.3372781065088757
 40
0.3372781065088757
 40
0.3431952662721893
 40
0.3431952662721893
 40
0.3431952662721893
 40
0.3431952662721893
 40
0.349112426035503
 40
0.349112426035503
 40
0.349112426035503
 40
0.349112426035503
 40
0.3550295857988165
 40
0.3550295857988165
 40
0.3550295857988165
 40
0.3550295857988165
 40
0.3609467455621302
 40
0.3609467455621302
 40
0.3609467455621302
 40
0.3609467455621302
 40
0.3668639053254438
 40
0.3668639053254438
 40
0.3668639053254438
 40
0.3668639053254438
 40
0.3727810650887574
 40
0.3727810650887574
 40
0.3727810650887574
 40
0.3727810650887574
 40
0.378698224852071
 40
0.378698224852071
 40
0.378698224852071
 40
0.378698224852071
 40
0.3846153846153846
 40
0.3846153846153846
 40
0.3846153846153846
 40
0.3846153846153846
 40
0.3905325443786982
 40
0.3905325443786982
 40
0.3905325443786982
 40
0.3905325443786982
 40
0.3964497041420119
 40
0.3964497041420119
 40
0.3964497041420119
 40
0.3964497041420119
 40
0.4023668639053254
 40
0.4023668639053254
 40
0.4023668639053254
 40
0.4023668639053254
 40
0.408284023668639
 40
0.408284023668639
 40
0.408284023668639
 40
0.408284023668639
 40
0.4142011834319527
 40
0.4142011834319527
 40
0.4142011834319527
 40
0.4142011834319527
 40
0.4201183431952663
 40
0.4201183431952663
 40
0.4201183431952663
 40
0.4201183431952663
 40
0.4260355029585799
 40
0.4260355029585799
 40
0.4260355029585799
 40
0.4260355029585799
 40
0.4319526627218935
 40
0.4319526627218935
 40
0.4319526627218935
 40
0.4319526627218935
 40
0.4378698224852071
 40
0.4378698224852071
 40
0.4378698224852071
 40
0.4378698224852071
 40
0.4437869822485207
 40
0.4437869822485207
 40
0.4437869822485207
 40
0.4437869822485207
 40
0.4497041420118343
 40
0.4497041420118343
 40
0.4497041420118343
 40
0.4497041420118343
 40
0.4556213017751479
 40
0.4556213017751479
 40
0.4556213017751479
 40
0.4556213017751479
 40
0.4615384615384616
 40
0.4615384615384616
 40
0.4615384615384616
 40
0.4615384615384616
 40
0.4674556213017751
 40
0.4674556213017751
 40
0.4674556213017751
 40
0.4674556213017751
 40
0.4733727810650887
 40
0.4733727810650887
 40
0.4733727810650887
 40
0.4733727810650887
 40
0.4792899408284024
 40
0.4792899408284024
 40
0.4792899408284024
 40
0.4792899408284024
 40
0.485207100591716
 40
0.485207100591716
 40
0.485207100591716
 40
0.485207100591716
 40
0.4911242603550296
 40
0.4911242603550296
 40
0.4911242603550296
 40
0.4911242603550296
 40
0.4970414201183432
 40
0.4970414201183432
 40
0.4970414201183432
 40
0.4970414201183432
 40
0.5029585798816568
 40
0.5029585798816568
 40
0.5029585798816568
 40
0.5029585798816568
 40
0.5088757396449705
 40
0.5088757396449705
 40
0.5088757396449705
 40
0.5088757396449705
 40
0.514792899408284
 40
0.514792899408284
 40
0.514792899408284
 40
0.514792899408284
 40
0.5207100591715976
 40
0.5207100591715976
 40
0.5207100591715976
 40
0.5207100591715976
 40
0.5266272189349113
 40
0.5266272189349113
 40
0.5266272189349113
 40
0.5266272189349113
 40
0.5325443786982249
 40
0.5325443786982249
 40
0.5325443786982249
 40
0.5325443786982249
 40
0.5384615384615384
 40
0.5384615384615384
 40
0.5384615384615384
 40
0.5384615384615384
 40
0.5443786982248521
 40
0.5443786982248521
 40
0.5443786982248521
 40
0.5443786982248521
 40
0.5502958579881657
 40
0.5502958579881657
 40
0.5502958579881657
 40
0.5502958579881657
 40
0.5562130177514792
 40
0.5562130177514792
 40
0.5562130177514792
 40
0.5562130177514792
 40
0.5621301775147929
 40
0.5621301775147929
 40
0.5621301775147929
 40
0.5621301775147929
 40
0.5680473372781065
 40
0.5680473372781065
 40
0.5680473372781065
 40
0.5680473372781065
 40
0.5739644970414202
 40
0.5739644970414202
 40
0.5739644970414202
 40
0.5739644970414202
 40
0.5798816568047337
 40
0.5798816568047337
 40
0.5798816568047337
 40
0.5798816568047337
 40
0.5857988165680473
 40
0.5857988165680473
 40
0.5857988165680473
 40
0.5857988165680473
 40
0.591715976331361
 40
0.591715976331361
 40
0.591715976331361
 40
0.591715976331361
 40
0.5976331360946746
 40
0.5976331360946746
 40
0.5976331360946746
 40
0.5976331360946746
 40
0.6035502958579881
 40
0.6035502958579881
 40
0.6035502958579881
 40
0.6035502958579881
 40
0.6094674556213018
 40
0.6094674556213018
 40
0.6094674556213018
 40
0.6094674556213018
 40
0.6153846153846154
 40
0.6153846153846154
 40
0.6153846153846154
 40
0.6153846153846154
 40
0.621301775147929
 40
0.621301775147929
 40
0.621301775147929
 40
0.621301775147929
 40
0.6272189349112426
 40
0.6272189349112426
 40
0.6272189349112426
 40
0.6272189349112426
 40
0.6331360946745562
 40
0.6331360946745562
 40
0.6331360946745562
 40
0.6331360946745562
 40
0.6390532544378699
 40
0.6390532544378699
 40
0.6390532544378699
 40
0.6390532544378699
 40
0.6449704142011834
 40
0.6449704142011834
 40
0.6449704142011834
 40
0.6449704142011834
 40
0.650887573964497
 40
0.650887573964497
 40
0.650887573964497
 40
0.650887573964497
 40
0.6568047337278107
 40
0.6568047337278107
 40
0.6568047337278107
 40
0.6568047337278107
 40
0.6627218934911243
 40
0.6627218934911243
 40
0.6627218934911243
 40
0.6627218934911243
 40
0.6686390532544378
 40
0.6686390532544378
 40
0.6686390532544378
 40
0.6686390532544378
 40
0.6745562130177515
 40
0.6745562130177515
 40
0.6745562130177515
 40
0.6745562130177515
 40
0.6804733727810651
 40
0.6804733727810651
 40
0.6804733727810651
 40
0.6804733727810651
 40
0.6863905325443787
 40
0.6863905325443787
 40
0.6863905325443787
 40
0.6863905325443787
 40
0.6923076923076923
 40
0.6923076923076923
 40
0.6923076923076923
 40
0.6923076923076923
 40
0.6982248520710059
 40
0.6982248520710059
 40
0.6982248520710059
 40
0.6982248520710059
 40
0.7041420118343196
 40
0.7041420118343196
 40
0.7041420118343196
 40
0.7041420118343196
 40
0.7100591715976331
 40
0.7100591715976331
 40
0.7100591715976331
 40
0.7100591715976331
 40
0.7159763313609467
 40
0.7159763313609467
 40
0.7159763313609467
 40
0.7159763313609467
 40
0.7218934911242604
 40
0.7218934911242604
 40
0.7218934911242604
 40
0.7218934911242604
 40
0.727810650887574
 40
0.727810650887574
 40
0.727810650887574
 40
0.727810650887574
 40
0.7337278106508875
 40
0.7337278106508875
 40
0.7337278106508875
 40
0.7337278106508875
 40
0.7396449704142012
 40
0.7396449704142012
 40
0.7396449704142012
 40
0.7396449704142012
 40
0.7455621301775148
 40
0.7455621301775148
 40
0.7455621301775148
 40
0.7455621301775148
 40
0.7514792899408284
 40
0.7514792899408284
 40
0.7514792899408284
 40
0.7514792899408284
 40
0.757396449704142
 40
0.757396449704142
 40
0.757396449704142
 40
0.757396449704142
 40
0.7633136094674556
 40
0.7633136094674556
 40
0.7633136094674556
 40
0.7633136094674556
 40
0.7692307692307693
 40
0.7692307692307693
 40
0.7692307692307693
 40
0.7692307692307693
 40
0.7751479289940828
 40
0.7751479289940828
 40
0.7751479289940828
 40
0.7751479289940828
 40
0.7810650887573964
 40
0.7810650887573964
 40
0.7810650887573964
 40
0.7810650887573964
 40
0.7869822485207101
 40
0.7869822485207101
 40
0.7869822485207101
 40
0.7869822485207101
 40
0.7928994082840237
 40
0.7928994082840237
 40
0.7928994082840237
 40
0.7928994082840237
 40
0.7988165680473372
 40
0.7988165680473372
 40
0.7988165680473372
 40
0.7988165680473372
 40
0.8047337278106509
 40
0.8047337278106509
 40
0.8047337278106509
 40
0.8047337278106509
 40
0.8106508875739645
 40
0.8106508875739645
 40
0.8106508875739645
 40
0.8106508875739645
 40
0.8165680473372781
 40
0.8165680473372781
 40
0.8165680473372781
 40
0.8165680473372781
 40
0.8224852071005917
 40
0.8224852071005917
 40
0.8224852071005917
 40
0.8224852071005917
 40
0.8284023668639053
 40
0.8284023668639053
 40
0.8284023668639053
 40
0.8284023668639053
 40
0.834319526627219
 40
0.834319526627219
 40
0.834319526627219
 40
0.834319526627219
 40
0.8402366863905325
 40
0.8402366863905325
 40
0.8402366863905325
 40
0.8402366863905325
 40
0.8461538461538461
 40
0.8461538461538461
 40
0.8461538461538461
 40
0.8461538461538461
 40
0.8520710059171598
 40
0.8520710059171598
 40
0.8520710059171598
 40
0.8520710059171598
 40
0.8579881656804734
 40
0.8579881656804734
 40
0.8579881656804734
 40
0.8579881656804734
 40
0.863905325443787
 40
0.863905325443787
 40
0.863905325443787
 40
0.863905325443787
 40
0.8698224852071006
 40
0.8698224852071006
 40
0.8698224852071006
 40
0.8698224852071006
 40
0.8757396449704142
 40
0.8757396449704142
 40
0.8757396449704142
 40
0.8757396449704142
 40
0.8816568047337278
 40
0.8816568047337278
 40
0.8816568047337278
 40
0.8816568047337278
 40
0.8875739644970414
 40
0.8875739644970414
 40
0.8875739644970414
 40
0.8875739644970414
 40
0.893491124260355
 40
0.893491124260355
 40
0.893491124260355
 40
0.893491124260355
 40
0.8994082840236687
 40
0.8994082840236687
 40
0.8994082840236687
 40
0.8994082840236687
 40
0.9053254437869822
 40
0.9053254437869822
 40
0.9053254437869822
 40
0.9053254437869822
 40
0.9112426035502958
 40
0.9112426035502958
 40
0.9112426035502958
 40
0.9112426035502958
 40
0.9171597633136095
 40
0.9171597633136095
 40
0.9171597633136095
 40
0.9171597633136095
 40
0.9230769230769231
 40
0.9230769230769231
 40
0.9230769230769231
 40
0.9230769230769231
 40
0.9289940828402367
 40
0.9289940828402367
 40
0.9289940828402367
 40
0.9289940828402367
 40
0.9349112426035503
 40
0.9349112426035503
 40
0.9349112426035503
 40
0.9349112426035503
 40
0.9408284023668639
 40
0.9408284023668639
 40
0.9408284023668639
 40
0.9408284023668639
 40
0.9467455621301775
 40
0.9467455621301775
 40
0.9467455621301775
 40
0.9467455621301775
 40
0.9526627218934911
 40
0.9526627218934911
 40
0.9526627218934911
 40
0.9526627218934911
 40
0.9585798816568047
 40
0.9585798816568047
 40
0.9585798816568047
 40
0.9585798816568047
 40
0.9644970414201184
 40
0.9644970414201184
 40
0.9644970414201184
 40
0.9644970414201184
 40
0.9704142011834319
 40
0.9704142011834319
 40
0.9704142011834319
 40
0.9704142011834319
 40
0.9763313609467456
 40
0.9763313609467456
 40
0.9763313609467456
 40
0.9763313609467456
 40
0.9822485207100592
 40
0.9822485207100592
 40
0.9822485207100592
 40
0.9822485207100592
 40
0.9881656804733728
 40
0.9881656804733728
 40
0.9881656804733728
 40
0.9881656804733728
 40
1.0
 40
1.0
 40
1.0
 40
1.0
 10
4.79401
 20
6.04665
 30
0.0
 10
4.84677
 20
6.00283
 30
0.0
 10
4.90045
 20
5.96026
 30
0.0
 10
4.95612
 20
5.92073
 30
0.0
 10
4.95612
 20
5.92073
 30
0.0
 10
5.0547
 20
6.05347
 30
0.0
 10
5.06907
 20
6.19616
 30
0.0
 10
5.11857
 20
6.39002
 30
0.0
 10
5.11857
 20
6.39002
 30
0.0
 10
5.1754
 20
6.61261
 30
0.0
 10
5.30489
 20
6.79351
 30
0.0
 10
5.37728
 20
6.89712
 30
0.0
 10
5.37728
 20
6.89712
 30
0.0
 10
5.44967
 20
7.0007
 30
0.0
 10
5.48592
 20
7.11971
 30
0.0
 10
5.48592
 20
7.11971
 30
0.0
 10
5.48592
 20
7.11971
 30
0.0
 10
5.48592
 20
7.11971
 30
0.0
 10
5.41565
 20
7.218
 30
0.0
 10
5.33066
 20
7.38361
 30
0.0
 10
5.33066
 20
7.38361
 30
0.0
 10
5.22308
 20
7.59324
 30
0.0
 10
5.20649
 20
7.58549
 30
0.0
 10
5.20649
 20
7.76133
 30
0.0
 10
5.20649
 20
7.76133
 30
0.0
 10
5.20649
 20
7.93717
 30
0.0
 10
5.21686
 20
8.15447
 30
0.0
 10
5.21686
 20
8.19593
 30
0.0
 10
5.21686
 20
8.19593
 30
0.0
 10
5.16077
 20
8.20389
 30
0.0
 10
5.11783
 20
8.24366
 30
0.0
 10
5.11963
 20
8.40432
 30
0.0
 10
5.11963
 20
8.40432
 30
0.0
 10
5.12209
 20
8.62384
 30
0.0
 10
5.19109
 20
8.68229
 30
0.0
 10
5.2583
 20
8.84273
 30
0.0
 10
5.2583
 20
8.84273
 30
0.0
 10
5.3255
 20
9.00317
 30
0.0
 10
5.33188
 20
9.01638
 30
0.0
 10
5.4044
 20
9.0889
 30
0.0
 10
5.4044
 20
9.0889
 30
0.0
 10
5.47692
 20
9.16142
 30
0.0
 10
5.5233
 20
9.22058
 30
0.0
 10
5.54402
 20
9.28779
 30
0.0
 10
5.54402
 20
9.28779
 30
0.0
 10
5.56474
 20
9.35499
 30
0.0
 10
5.57609
 20
9.36349
 30
0.0
 10
5.59776
 20
9.40243
 30
0.0
 10
5.59776
 20
9.40243
 30
0.0
 10
5.6084
 20
9.42161
 30
0.0
 10
5.66279
 20
9.47215
 30
0.0
 10
5.66668
 20
9.4427
 30
0.0
 10
5.66668
 20
9.4427
 30
0.0
 10
5.68218
 20
9.47292
 30
0.0
 10
5.72126
 20
9.50313
 30
0.0
 10
5.73021
 20
9.483
 30
0.0
 10
5.73021
 20
9.483
 30
0.0
 10
5.75114
 20
9.51785
 30
0.0
 10
5.79715
 20
9.53502
 30
0.0
 10
5.79527
 20
9.51009
 30
0.0
 10
5.79527
 20
9.51009
 30
0.0
 10
5.81466
 20
9.54031
 30
0.0
 10
5.82615
 20
9.55809
 30
0.0
 10
5.84798
 20
9.56354
 30
0.0
 10
5.84798
 20
9.56354
 30
0.0
 10
5.90415
 20
9.57756
 30
0.0
 10
5.91529
 20
9.51904
 30
0.0
 10
5.88939
 20
9.40005
 30
0.0
 10
5.88939
 20
9.40005
 30
0.0
 10
5.86349
 20
9.28106
 30
0.0
 10
5.8723
 20
9.28779
 30
0.0
 10
5.81589
 20
9.19603
 30
0.0
 10
5.81589
 20
9.19603
 30
0.0
 10
5.88598
 20
9.21312
 30
0.0
 10
5.86762
 20
9.26882
 30
0.0
 10
5.94014
 20
9.28437
 30
0.0
 10
5.94014
 20
9.28437
 30
0.0
 10
6.01266
 20
9.2999
 30
0.0
 10
6.0678
 20
9.27754
 30
0.0
 10
6.01705
 20
9.24164
 30
0.0
 10
6.01705
 20
9.24164
 30
0.0
 10
5.94233
 20
9.18875
 30
0.0
 10
5.91881
 20
9.20547
 30
0.0
 10
5.88256
 20
9.10202
 30
0.0
 10
5.88256
 20
9.10202
 30
0.0
 10
5.84629
 20
8.99857
 30
0.0
 10
5.85346
 20
8.99812
 30
0.0
 10
5.77059
 20
8.94115
 30
0.0
 10
5.77059
 20
8.94115
 30
0.0
 10
5.68772
 20
8.88416
 30
0.0
 10
5.68772
 20
8.91525
 30
0.0
 10
5.70844
 20
8.77552
 30
0.0
 10
5.70844
 20
8.77552
 30
0.0
 10
5.72916
 20
8.63579
 30
0.0
 10
5.71841
 20
8.47913
 30
0.0
 10
5.73119
 20
8.42802
 30
0.0
 10
5.73119
 20
8.42802
 30
0.0
 10
5.74992
 20
8.35312
 30
0.0
 10
5.66944
 20
8.32192
 30
0.0
 10
5.66944
 20
8.32192
 30
0.0
 10
5.66944
 20
8.32192
 30
0.0
 10
5.66944
 20
8.32192
 30
0.0
 10
5.64629
 20
8.28903
 30
0.0
 10
5.68254
 20
8.07692
 30
0.0
 10
5.68254
 20
8.07692
 30
0.0
 10
5.71879
 20
7.8648
 30
0.0
 10
5.82034
 20
7.63954
 30
0.0
 10
5.8877
 20
7.51439
 30
0.0
 10
5.8877
 20
7.51439
 30
0.0
 10
5.93125
 20
7.43348
 30
0.0
 10
5.9617
 20
7.3957
 30
0.0
 10
5.98835
 20
7.37919
 30
0.0
 10
5.98835
 20
7.37919
 30
0.0
 10
5.94004
 20
7.52352
 30
0.0
 10
5.93908
 20
7.6179
 30
0.0
 10
5.96298
 20
7.79477
 30
0.0
 10
5.96298
 20
7.79477
 30
0.0
 10
5.98748
 20
7.97622
 30
0.0
 10
5.99362
 20
8.25401
 30
0.0
 10
5.99362
 20
8.25401
 30
0.0
 10
5.99362
 20
8.25401
 30
0.0
 10
5.99362
 20
8.25401
 30
0.0
 10
6.21185
 20
8.00379
 30
0.0
 10
6.29218
 20
7.93638
 30
0.0
 10
6.29218
 20
7.93638
 30
0.0
 10
6.36624
 20
7.87423
 30
0.0
 10
6.40069
 20
7.82772
 30
0.0
 10
6.5891
 20
7.7699
 30
0.0
 10
6.5891
 20
7.7699
 30
0.0
 10
6.63797
 20
7.7863
 30
0.0
 10
6.69612
 20
7.81054
 30
0.0
 10
6.74224
 20
7.84377
 30
0.0
 10
6.74224
 20
7.84377
 30
0.0
 10
6.84096
 20
7.91492
 30
0.0
 10
6.91517
 20
7.99151
 30
0.0
 10
6.97338
 20
7.96394
 30
0.0
 10
6.97338
 20
7.96394
 30
0.0
 10
7.03159
 20
7.93637
 30
0.0
 10
7.13269
 20
7.92412
 30
0.0
 10
7.17015
 20
7.8162
 30
0.0
 10
7.17015
 20
7.8162
 30
0.0
 10
7.19121
 20
7.75553
 30
0.0
 10
7.19245
 20
7.69216
 30
0.0
 10
7.18896
 20
7.6302
 30
0.0
 10
7.18896
 20
7.6302
 30
0.0
 10
7.27352
 20
7.5994
 30
0.0
 10
7.35123
 20
7.55749
 30
0.0
 10
7.41354
 20
7.49619
 30
0.0
 10
7.41354
 20
7.49619
 30
0.0
 10
7.60793
 20
7.30487
 30
0.0
 10
7.78562
 20
7.07132
 30
0.0
 10
7.71821
 20
6.83097
 30
0.0
 10
7.71821
 20
6.83097
 30
0.0
 10
7.65082
 20
6.59062
 30
0.0
 10
7.53983
 20
6.50109
 30
0.0
 10
7.28416
 20
6.51948
 30
0.0
 10
7.28416
 20
6.51948
 30
0.0
 10
7.24312
 20
6.52244
 30
0.0
 10
7.19447
 20
6.53168
 30
0.0
 10
7.14126
 20
6.54575
 30
0.0
 10
7.14126
 20
6.54575
 30
0.0
 10
7.14062
 20
6.52953
 30
0.0
 10
7.13906
 20
6.5122
 30
0.0
 10
7.1366
 20
6.4936
 30
0.0
 10
7.1366
 20
6.4936
 30
0.0
 10
7.10551
 20
6.26063
 30
0.0
 10
7.07445
 20
6.13647
 30
0.0
 10
6.84162
 20
5.91916
 30
0.0
 10
6.84162
 20
5.91916
 30
0.0
 10
6.60879
 20
5.70186
 30
0.0
 10
6.26059
 20
5.65656
 30
0.0
 10
6.18373
 20
5.65111
 30
0.0
 10
6.18373
 20
5.65111
 30
0.0
 10
6.0594
 20
5.64233
 30
0.0
 10
6.10687
 20
5.60875
 30
0.0
 10
6.11205
 20
5.43278
 30
0.0
 10
6.11205
 20
5.43278
 30
0.0
 10
6.11724
 20
5.25681
 30
0.0
 10
6.15338
 20
5.09118
 30
0.0
 10
6.06543
 20
4.88943
 30
0.0
 10
6.06543
 20
4.88943
 30
0.0
 10
5.97751
 20
4.68769
 30
0.0
 10
5.90512
 20
4.64625
 30
0.0
 10
5.86369
 20
4.49097
 30
0.0
 10
5.86369
 20
4.49097
 30
0.0
 10
5.83511
 20
4.38392
 30
0.0
 10
5.80416
 20
4.37535
 30
0.0
 10
5.77918
 20
4.34643
 30
0.0
 10
5.77918
 20
4.34643
 30
0.0
 10
5.79683
 20
4.32757
 30
0.0
 10
5.81284
 20
4.31346
 30
0.0
 10
5.82723
 20
4.30508
 30
0.0
 10
5.82723
 20
4.30508
 30
0.0
 10
5.99905
 20
4.20491
 30
0.0
 10
6.12915
 20
4.07286
 30
0.0
 10
6.22723
 20
3.92194
 30
0.0
 10
6.22723
 20
3.92194
 30
0.0
 10
6.50359
 20
3.91408
 30
0.0
 10
6.88422
 20
4.03457
 30
0.0
 10
7.09633
 20
3.83997
 30
0.0
 10
7.09633
 20
3.83997
 30
0.0
 10
7.25992
 20
3.68987
 30
0.0
 10
7.24727
 20
3.48974
 30
0.0
 10
7.31617
 20
3.29821
 30
0.0
 10
7.31617
 20
3.29821
 30
0.0
 10
7.37181
 20
3.14356
 30
0.0
 10
7.60851
 20
2.9035
 30
0.0
 10
7.73342
 20
2.78561
 30
0.0
 10
7.73342
 20
2.78561
 30
0.0
 10
7.58292
 20
2.84795
 30
0.0
 10
7.44468
 20
2.93878
 30
0.0
 10
7.32104
 20
3.04435
 30
0.0
 10
7.32104
 20
3.04435
 30
0.0
 10
7.36721
 20
2.82567
 30
0.0
 10
7.53556
 20
2.61252
 30
0.0
 10
7.68968
 20
2.45586
 30
0.0
 10
7.68968
 20
2.45586
 30
0.0
 10
7.56853
 20
2.48941
 30
0.0
 10
7.40038
 20
2.65112
 30
0.0
 10
7.33561
 20
2.75645
 30
0.0
 10
7.33561
 20
2.75645
 30
0.0
 10
7.37128
 20
2.44652
 30
0.0
 10
7.57397
 20
2.17373
 30
0.0
 10
7.79474
 20
1.96757
 30
0.0
 10
7.79474
 20
1.96757
 30
0.0
 10
7.52635
 20
2.05703
 30
0.0
 10
7.41702
 20
2.29565
 30
0.0
 10
7.31132
 20
2.53661
 30
0.0
 10
7.31132
 20
2.53661
 30
0.0
 10
7.32325
 20
2.31555
 30
0.0
 10
7.39805
 20
2.16368
 30
0.0
 10
7.53603
 20
1.99485
 30
0.0
 10
7.53603
 20
1.99485
 30
0.0
 10
7.30103
 20
2.10711
 30
0.0
 10
7.2533
 20
2.32002
 30
0.0
 10
7.21599
 20
2.55603
 30
0.0
 10
7.21599
 20
2.55603
 30
0.0
 10
7.1794
 20
2.40876
 30
0.0
 10
7.2108
 20
2.25467
 30
0.0
 10
7.24327
 20
2.1096
 30
0.0
 10
7.24327
 20
2.1096
 30
0.0
 10
7.17842
 20
2.20739
 30
0.0
 10
7.10598
 20
2.33788
 30
0.0
 10
7.09635
 20
2.45581
 30
0.0
 10
7.09635
 20
2.45581
 30
0.0
 10
7.0931
 20
2.49571
 30
0.0
 10
7.10664
 20
2.7314
 30
0.0
 10
7.08177
 20
2.74855
 30
0.0
 10
7.08177
 20
2.74855
 30
0.0
 10
7.06481
 20
2.76024
 30
0.0
 10
7.04841
 20
2.7104
 30
0.0
 10
7.04552
 20
2.70188
 30
0.0
 10
7.04552
 20
2.70188
 30
0.0
 10
7.02422
 20
2.63941
 30
0.0
 10
7.01287
 20
2.56845
 30
0.0
 10
7.01856
 20
2.50252
 30
0.0
 10
7.01856
 20
2.50252
 30
0.0
 10
7.02697
 20
2.40529
 30
0.0
 10
7.04338
 20
2.30821
 30
0.0
 10
7.05745
 20
2.21164
 30
0.0
 10
7.05745
 20
2.21164
 30
0.0
 10
6.97683
 20
2.229
 30
0.0
 10
6.92786
 20
2.30618
 30
0.0
 10
6.91836
 20
2.38288
 30
0.0
 10
6.91836
 20
2.38288
 30
0.0
 10
6.89023
 20
2.61058
 30
0.0
 10
6.96646
 20
2.68665
 30
0.0
 10
6.9558
 20
2.84217
 30
0.0
 10
6.9558
 20
2.84217
 30
0.0
 10
6.95001
 20
2.92652
 30
0.0
 10
6.8832
 20
3.12866
 30
0.0
 10
6.83761
 20
2.95377
 30
0.0
 10
6.83761
 20
2.95377
 30
0.0
 10
6.81581
 20
2.87014
 30
0.0
 10
6.80493
 20
2.78121
 30
0.0
 10
6.79874
 20
2.69506
 30
0.0
 10
6.79874
 20
2.69506
 30
0.0
 10
6.67108
 20
3.05923
 30
0.0
 10
6.96813
 20
3.0977
 30
0.0
 10
6.81816
 20
3.3127
 30
0.0
 10
6.81816
 20
3.3127
 30
0.0
 10
6.62874
 20
3.58432
 30
0.0
 10
6.60991
 20
3.64824
 30
0.0
 10
6.37633
 20
3.61885
 30
0.0
 10
6.37633
 20
3.61885
 30
0.0
 10
6.63882
 20
2.89765
 30
0.0
 10
6.43017
 20
1.9833
 30
0.0
 10
6.49489
 20
1.88279
 30
0.0
 10
6.49489
 20
1.88279
 30
0.0
 10
6.55268
 20
1.79304
 30
0.0
 10
6.59805
 20
1.84474
 30
0.0
 10
6.67629
 20
1.86718
 30
0.0
 10
6.67629
 20
1.86718
 30
0.0
 10
6.77019
 20
1.89411
 30
0.0
 10
6.74987
 20
1.72531
 30
0.0
 10
6.7536
 20
1.67089
 30
0.0
 10
6.7536
 20
1.67089
 30
0.0
 10
6.76096
 20
1.56405
 30
0.0
 10
6.76461
 20
0.97284
 30
0.0
 10
6.8225
 20
0.92717
 30
0.0
 10
6.8225
 20
0.92717
 30
0.0
 10
7.02631
 20
0.80811
 30
0.0
 10
6.92188
 20
0.66309
 30
0.0
 10
6.9142
 20
0.58916
 30
0.0
 10
6.9142
 20
0.58916
 30
0.0
 10
6.90428
 20
0.49362
 30
0.0
 10
7.40963
 20
0.06931
 30
0.0
 10
6.95063
 20
-0.01084
 30
0.0
 10
6.95063
 20
-0.01084
 30
0.0
 10
6.849
 20
-0.02857
 30
0.0
 10
6.73341
 20
-0.00655
 30
0.0
 10
6.63985
 20
0.03599
 30
0.0
 10
6.63985
 20
0.03599
 30
0.0
 10
6.62559
 20
0.12724
 30
0.0
 10
6.59402
 20
0.33735
 30
0.0
 10
6.61903
 20
0.4189
 30
0.0
 10
6.61903
 20
0.4189
 30
0.0
 10
6.63872
 20
0.48298
 30
0.0
 10
6.68298
 20
0.52222
 30
0.0
 10
6.61903
 20
0.57355
 30
0.0
 10
6.61903
 20
0.57355
 30
0.0
 10
6.41945
 20
0.73373
 30
0.0
 10
6.58117
 20
0.81803
 30
0.0
 10
6.60342
 20
0.96164
 30
0.0
 10
6.60342
 20
0.96164
 30
0.0
 10
6.61633
 20
1.0449
 30
0.0
 10
6.65427
 20
1.46617
 30
0.0
 10
6.55212
 20
1.4843
 30
0.0
 10
6.55212
 20
1.4843
 30
0.0
 10
6.46499
 20
1.49973
 30
0.0
 10
6.31609
 20
1.35563
 30
0.0
 10
6.21015
 20
1.32962
 30
0.0
 10
6.21015
 20
1.32962
 30
0.0
 10
6.03576
 20
1.28681
 30
0.0
 10
5.96364
 20
1.47183
 30
0.0
 10
5.90532
 20
1.59804
 30
0.0
 10
5.90532
 20
1.59804
 30
0.0
 10
5.80742
 20
1.80989
 30
0.0
 10
5.62304
 20
1.96811
 30
0.0
 10
5.54467
 20
2.19269
 30
0.0
 10
5.54467
 20
2.19269
 30
0.0
 10
5.50623
 20
2.19176
 30
0.0
 10
5.43183
 20
2.1911
 30
0.0
 10
5.39806
 20
2.19862
 30
0.0
 10
5.39806
 20
2.19862
 30
0.0
 10
5.35144
 20
2.20899
 30
0.0
 10
5.36181
 20
2.22958
 30
0.0
 10
5.22727
 20
2.23995
 30
0.0
 10
5.22727
 20
2.23995
 30
0.0
 10
5.12842
 20
2.24757
 30
0.0
 10
5.07423
 20
2.24963
 30
0.0
 10
5.01142
 20
2.2748
 30
0.0
 10
5.01142
 20
2.2748
 30
0.0
 10
5.00756
 20
2.11605
 30
0.0
 10
5.11455
 20
2.15307
 30
0.0
 10
5.10582
 20
1.9909
 30
0.0
 10
5.10582
 20
1.9909
 30
0.0
 10
5.09706
 20
1.82837
 30
0.0
 10
5.22025
 20
1.84842
 30
0.0
 10
4.91524
 20
1.73219
 30
0.0
 10
4.91524
 20
1.73219
 30
0.0
 10
4.61023
 20
1.61596
 30
0.0
 10
4.50273
 20
1.51719
 30
0.0
 10
4.50273
 20
1.51719
 30
0.0
 10
4.50273
 20
1.51719
 30
0.0
 10
4.50273
 20
1.51719
 30
0.0
 10
4.54644
 20
1.41588
 30
0.0
 10
4.48085
 20
1.32404
 30
0.0
 10
4.48085
 20
1.32404
 30
0.0
 10
4.41526
 20
1.2322
 30
0.0
 10
4.33837
 20
1.19905
 30
0.0
 10
4.33837
 20
1.19905
 30
0.0
 10
4.33837
 20
1.19905
 30
0.0
 10
4.33837
 20
1.19905
 30
0.0
 10
4.30083
 20
1.16225
 30
0.0
 10
4.35586
 20
1.08975
 30
0.0
 10
4.35586
 20
1.08975
 30
0.0
 10
4.41089
 20
1.01723
 30
0.0
 10
4.55337
 20
0.96733
 30
0.0
 10
4.58835
 20
0.82665
 30
0.0
 10
4.58835
 20
0.82665
 30
0.0
 10
4.62333
 20
0.68597
 30
0.0
 10
4.61896
 20
0.65975
 30
0.0
 10
4.61896
 20
0.65975
 30
0.0
 10
4.61896
 20
0.65975
 30
0.0
 10
4.61896
 20
0.65975
 30
0.0
 10
4.57522
 20
0.51288
 30
0.0
 10
4.32525
 20
0.49978
 30
0.0
 10
4.32525
 20
0.49978
 30
0.0
 10
4.07527
 20
0.48666
 30
0.0
 10
4.04905
 20
0.58543
 30
0.0
 10
4.04905
 20
0.58543
 30
0.0
 10
4.04905
 20
0.58543
 30
0.0
 10
4.04905
 20
0.58543
 30
0.0
 10
3.97909
 20
0.75852
 30
0.0
 10
4.01407
 20
0.87039
 30
0.0
 10
4.01407
 20
0.87039
 30
0.0
 10
4.04905
 20
0.98228
 30
0.0
 10
4.09278
 20
1.04348
 30
0.0
 10
4.09278
 20
1.04348
 30
0.0
 10
4.09278
 20
1.04348
 30
0.0
 10
4.09278
 20
1.04348
 30
0.0
 10
4.13649
 20
1.12473
 30
0.0
 10
4.10151
 20
1.23663
 30
0.0
 10
4.10151
 20
1.23663
 30
0.0
 10
4.06653
 20
1.3485
 30
0.0
 10
4.05084
 20
1.41848
 30
0.0
 10
4.10151
 20
1.50846
 30
0.0
 10
4.10151
 20
1.50846
 30
0.0
 10
4.15218
 20
1.59844
 30
0.0
 10
4.27023
 20
1.59847
 30
0.0
 10
4.35588
 20
1.62033
 30
0.0
 10
4.35588
 20
1.62033
 30
0.0
 10
4.4415
 20
1.64221
 30
0.0
 10
4.66346
 20
1.78466
 30
0.0
 10
4.77276
 20
1.88343
 30
0.0
 10
4.77276
 20
1.88343
 30
0.0
 10
4.88209
 20
1.98217
 30
0.0
 10
4.80774
 20
1.97344
 30
0.0
 10
4.55339
 20
2.12465
 30
0.0
 10
4.55339
 20
2.12465
 30
0.0
 10
4.37575
 20
2.23027
 30
0.0
 10
4.23986
 20
2.48131
 30
0.0
 10
4.17406
 20
2.6231
 30
0.0
 10
4.17406
 20
2.6231
 30
0.0
 10
4.08802
 20
2.64503
 30
0.0
 10
3.99999
 20
2.66911
 30
0.0
 10
3.91218
 20
2.6948
 30
0.0
 10
3.91218
 20
2.6948
 30
0.0
 10
3.91062
 20
2.66921
 30
0.0
 10
3.91197
 20
2.64207
 30
0.0
 10
3.91697
 20
2.61246
 30
0.0
 10
3.91697
 20
2.61246
 30
0.0
 10
3.94565
 20
2.44294
 30
0.0
 10
4.02598
 20
2.48311
 30
0.0
 10
3.96862
 20
2.32504
 30
0.0
 10
3.96862
 20
2.32504
 30
0.0
 10
3.91126
 20
2.16697
 30
0.0
 10
3.80484
 20
2.1211
 30
0.0
 10
3.80484
 20
2.1211
 30
0.0
 10
3.80484
 20
2.1211
 30
0.0
 10
3.80484
 20
2.1211
 30
0.0
 10
3.77616
 20
2.02876
 30
0.0
 10
3.7991
 20
1.97714
 30
0.0
 10
3.7991
 20
1.97714
 30
0.0
 10
3.82204
 20
1.92549
 30
0.0
 10
3.87683
 20
1.80188
 30
0.0
 10
3.87683
 20
1.6381
 30
0.0
 10
3.87683
 20
1.6381
 30
0.0
 10
3.87683
 20
1.47432
 30
0.0
 10
3.83352
 20
1.41379
 30
0.0
 10
3.83352
 20
1.41379
 30
0.0
 10
3.83352
 20
1.41379
 30
0.0
 10
3.83352
 20
1.41379
 30
0.0
 10
3.65826
 20
1.46856
 30
0.0
 10
3.52891
 20
1.46856
 30
0.0
 10
3.52891
 20
1.46856
 30
0.0
 10
3.39953
 20
1.46856
 30
0.0
 10
3.19244
 20
1.46282
 30
0.0
 10
3.1523
 20
1.48004
 30
0.0
 10
3.1523
 20
1.48004
 30
0.0
 10
3.11214
 20
1.49724
 30
0.0
 10
3.12047
 20
1.60939
 30
0.0
 10
3.18672
 20
1.78465
 30
0.0
 10
3.18672
 20
1.78465
 30
0.0
 10
3.25297
 20
1.95991
 30
0.0
 10
3.38495
 20
2.05746
 30
0.0
 10
3.44546
 20
2.10649
 30
0.0
 10
3.44546
 20
2.10649
 30
0.0
 10
3.50597
 20
2.15552
 30
0.0
 10
3.56336
 20
2.20142
 30
0.0
 10
3.56336
 20
2.20142
 30
0.0
 10
3.56336
 20
2.20142
 30
0.0
 10
3.56336
 20
2.20142
 30
0.0
 10
3.506
 20
2.27341
 30
0.0
 10
3.54616
 20
2.39703
 30
0.0
 10
3.54616
 20
2.39703
 30
0.0
 10
3.58632
 20
2.52064
 30
0.0
 10
3.63794
 20
2.48051
 30
0.0
 10
3.69274
 20
2.62709
 30
0.0
 10
3.69274
 20
2.62709
 30
0.0
 10
3.70483
 20
2.6594
 30
0.0
 10
3.7187
 20
2.70191
 30
0.0
 10
3.73293
 20
2.74965
 30
0.0
 10
3.73293
 20
2.74965
 30
0.0
 10
3.35479
 20
2.87049
 30
0.0
 10
3.00834
 20
3.01537
 30
0.0
 10
2.8728
 20
3.14073
 30
0.0
 10
2.8728
 20
3.14073
 30
0.0
 10
2.79372
 20
3.21389
 30
0.0
 10
2.81176
 20
3.26336
 30
0.0
 10
2.68172
 20
3.23886
 30
0.0
 10
2.68172
 20
3.23886
 30
0.0
 10
2.52712
 20
3.20973
 30
0.0
 10
2.33557
 20
3.32144
 30
0.0
 10
2.18954
 20
3.36824
 30
0.0
 10
2.18954
 20
3.36824
 30
0.0
 10
2.18954
 20
3.36824
 30
0.0
 10
1.943
 20
3.44886
 30
0.0
 10
1.943
 20
3.44886
 30
0.0
 10
1.943
 20
3.44886
 30
0.0
 10
1.943
 20
3.44886
 30
0.0
 10
1.89485
 20
3.46659
 30
0.0
 10
1.89485
 20
3.46659
 30
0.0
 10
1.89485
 20
3.46659
 30
0.0
 10
1.89136
 20
3.46802
 30
0.0
 10
1.88472
 20
3.46781
 30
0.0
 10
1.88472
 20
3.47156
 30
0.0
 10
1.88472
 20
3.47156
 30
0.0
 10
1.83969
 20
3.42946
 30
0.0
 10
1.79085
 20
3.43579
 30
0.0
 10
1.7301
 20
3.42544
 30
0.0
 10
1.7301
 20
3.42544
 30
0.0
 10
1.5959
 20
3.40261
 30
0.0
 10
1.36939
 20
2.81933
 30
0.0
 10
1.36283
 20
2.69016
 30
0.0
 10
1.36283
 20
2.69016
 30
0.0
 10
1.45805
 20
2.58247
 30
0.0
 10
1.32148
 20
2.27445
 30
0.0
 10
1.20146
 20
2.22476
 30
0.0
 10
1.20146
 20
2.22476
 30
0.0
 10
1.22535
 20
2.10811
 30
0.0
 10
1.28189
 20
2.02177
 30
0.0
 10
1.23268
 20
1.76902
 30
0.0
 10
1.23268
 20
1.76902
 30
0.0
 10
1.06565
 20
1.69949
 30
0.0
 10
0.68478
 20
1.69293
 30
0.0
 10
0.65279
 20
1.9296
 30
0.0
 10
0.65279
 20
1.9296
 30
0.0
 10
0.76127
 20
2.21868
 30
0.0
 10
0.99408
 20
2.35203
 30
0.0
 10
0.99479
 20
2.3541
 30
0.0
 10
0.99479
 20
2.3541
 30
0.0
 10
1.02104
 20
2.4316
 30
0.0
 10
0.94769
 20
2.531
 30
0.0
 10
0.99902
 20
2.64699
 30
0.0
 10
0.99902
 20
2.64699
 30
0.0
 10
1.03125
 20
2.71983
 30
0.0
 10
1.09117
 20
2.7533
 30
0.0
 10
1.13457
 20
2.76227
 30
0.0
 10
1.13457
 20
2.76227
 30
0.0
 10
1.21384
 20
2.92695
 30
0.0
 10
1.31869
 20
3.10969
 30
0.0
 10
1.36727
 20
3.28493
 30
0.0
 10
1.36727
 20
3.28493
 30
0.0
 10
1.4196
 20
3.47368
 30
0.0
 10
1.23458
 20
3.87821
 30
0.0
 10
1.51745
 20
3.95777
 30
0.0
 10
1.51745
 20
3.95777
 30
0.0
 10
1.85231
 20
4.05196
 30
0.0
 10
1.95147
 20
3.77044
 30
0.0
 10
2.52633
 20
4.00981
 30
0.0
 10
2.52633
 20
4.00981
 30
0.0
 10
2.40071
 20
4.4396
 30
0.0
 10
2.57269
 20
5.05949
 30
0.0
 10
2.97094
 20
5.29304
 30
0.0
 10
2.97094
 20
5.29304
 30
0.0
 10
2.98581
 20
5.8733
 30
0.0
 10
3.42388
 20
6.65734
 30
0.0
 10
3.36422
 20
7.05728
 30
0.0
 10
3.36422
 20
7.05728
 30
0.0
 10
3.27979
 20
7.05982
 30
0.0
 10
3.21187
 20
7.07839
 30
0.0
 10
3.15668
 20
7.1084
 30
0.0
 10
3.15668
 20
7.1084
 30
0.0
 10
2.89003
 20
7.1515
 30
0.0
 10
2.60436
 20
7.2921
 30
0.0
 10
2.59754
 20
7.57396
 30
0.0
 10
2.59754
 20
7.57396
 30
0.0
 10
2.5959
 20
7.64161
 30
0.0
 10
2.67088
 20
7.75745
 30
0.0
 10
2.69298
 20
7.9131
 30
0.0
 10
2.69298
 20
7.9131
 30
0.0
 10
2.64565
 20
7.933
 30
0.0
 10
2.60432
 20
7.93858
 30
0.0
 10
2.53672
 20
7.96284
 30
0.0
 10
2.53672
 20
7.96284
 30
0.0
 10
2.40414
 20
8.01039
 30
0.0
 10
2.37654
 20
8.20038
 30
0.0
 10
2.54193
 20
8.21636
 30
0.0
 10
2.54193
 20
8.21636
 30
0.0
 10
2.51216
 20
8.24578
 30
0.0
 10
2.45692
 20
8.27642
 30
0.0
 10
2.45867
 20
8.32492
 30
0.0
 10
2.45867
 20
8.32492
 30
0.0
 10
2.32461
 20
8.42274
 30
0.0
 10
2.47428
 20
8.4697
 30
0.0
 10
2.47428
 20
8.58884
 30
0.0
 10
2.47428
 20
8.58884
 30
0.0
 10
2.47428
 20
8.62321
 30
0.0
 10
2.45687
 20
8.71222
 30
0.0
 10
2.50029
 20
8.72862
 30
0.0
 10
2.50029
 20
8.72862
 30
0.0
 10
2.54479
 20
8.74542
 30
0.0
 10
2.6261
 20
8.66975
 30
0.0
 10
2.70698
 20
8.70333
 30
0.0
 10
2.70698
 20
8.70333
 30
0.0
 10
2.80541
 20
8.74418
 30
0.0
 10
2.76236
 20
8.79771
 30
0.0
 10
2.9196
 20
8.79628
 30
0.0
 10
2.9196
 20
8.79628
 30
0.0
 10
3.07454
 20
8.79485
 30
0.0
 10
3.04536
 20
8.75434
 30
0.0
 10
3.1315
 20
8.63049
 30
0.0
 10
3.1315
 20
8.63049
 30
0.0
 10
3.19235
 20
8.54297
 30
0.0
 10
3.76213
 20
8.10606
 30
0.0
 10
3.85117
 20
8.07661
 30
0.0
 10
3.85117
 20
8.07661
 30
0.0
 10
4.00209
 20
8.02668
 30
0.0
 10
4.1388
 20
7.91998
 30
0.0
 10
4.23945
 20
7.79562
 30
0.0
 10
4.23945
 20
7.79562
 30
0.0
 10
4.26461
 20
7.78168
 30
0.0
 10
4.30472
 20
7.76863
 30
0.0
 10
4.34965
 20
7.78903
 30
0.0
 10
4.34965
 20
7.78903
 30
0.0
 10
4.42532
 20
7.8234
 30
0.0
 10
4.5038
 20
7.96514
 30
0.0
 10
4.5038
 20
7.96514
 30
0.0
 10
4.5038
 20
7.96514
 30
0.0
 10
4.5038
 20
7.96514
 30
0.0
 10
4.54359
 20
7.83579
 30
0.0
 10
4.51751
 20
7.7312
 30
0.0
 10
4.51751
 20
7.7312
 30
0.0
 10
4.49142
 20
7.62661
 30
0.0
 10
4.39641
 20
7.49313
 30
0.0
 10
4.39641
 20
7.49313
 30
0.0
 10
4.39641
 20
7.49313
 30
0.0
 10
4.39641
 20
7.49313
 30
0.0
 10
4.43771
 20
7.46834
 30
0.0
 10
4.55056
 20
7.33898
 30
0.0
 10
4.55056
 20
7.33898
 30
0.0
 10
4.6634
 20
7.20963
 30
0.0
 10
4.7845
 20
6.93438
 30
0.0
 10
4.7845
 20
6.93438
 30
0.0
 10
4.7845
 20
6.93438
 30
0.0
 10
4.7845
 20
6.93438
 30
0.0
 10
4.60014
 20
7.1229
 30
0.0
 10
4.5836
 20
7.07199
 30
0.0
 10
4.5836
 20
7.07199
 30
0.0
 10
4.56706
 20
7.02111
 30
0.0
 10
4.70338
 20
6.89176
 30
0.0
 10
4.75838
 20
6.74174
 30
0.0
 10
4.75838
 20
6.74174
 30
0.0
 10
4.81338
 20
6.59172
 30
0.0
 10
4.84231
 20
6.5078
 30
0.0
 10
4.84231
 20
6.5078
 30
0.0
 10
4.84231
 20
6.5078
 30
0.0
 10
4.84231
 20
6.5078
 30
0.0
 10
4.69642
 20
6.68261
 30
0.0
 10
4.67991
 20
6.63303
 30
0.0
 10
4.67991
 20
6.63303
 30
0.0
 10
4.6634
 20
6.58345
 30
0.0
 10
4.74317
 20
6.46518
 30
0.0
 10
4.78035
 20
6.36604
 30
0.0
 10
4.78035
 20
6.36604
 30
0.0
 10
4.81753
 20
6.2669
 30
0.0
 10
4.82993
 20
6.18297
 30
0.0
 10
4.82993
 20
6.18297
 30
0.0
 10
4.82993
 20
6.18297
 30
0.0
 10
4.82993
 20
6.18297
 30
0.0
 10
4.73775
 20
6.34669
 30
0.0
 10
4.72949
 20
6.27515
 30
0.0
 10
4.72949
 20
6.27515
 30
0.0
 10
4.72123
 20
6.20361
 30
0.0
 10
4.77211
 20
6.22427
 30
0.0
 10
4.79275
 20
6.06187
 30
0.0
 10
4.79275
 20
6.06187
 30
0.0
 10
4.79327
 20
6.05695
 30
0.0
 10
4.79372
 20
6.05181
 30
0.0
 10
4.79401
 20
6.04665
 30
0.0
  0
SPLINE
  5
48
330
1F
100
AcDbEntity
  8
Layer 1
100
AcDbSpline
210
0.0
220
0.0
230
1.0
 70
    11
 71
     3
 72
    16
 73
    12
 74
     0
 42
0.0000000001
 43
0.0000000001
 12
1.0
 22
0.0
 32
0.0
 13
1.0
 23
0.0
 33
0.0
 40
0.0
 40
0.0
 40
0.0
 40
0.0
 40
0.25
 40
0.25
 40
0.25
 40
0.25
 40
0.5
 40
0.5
 40
0.5
 40
0.5
 40
1.0
 40
1.0
 40
1.0
 40
1.0
 10
-4.9803
 20
-4.82814
 30
0.0
 10
-4.9544
 20
-4.84444
 30
0.0
 10
-4.91378
 20
-4.87002
 30
0.0
 10
-4.86383
 20
-4.90172
 30
0.0
 10
-4.86383
 20
-4.90172
 30
0.0
 10
-4.89775
 20
-4.90423
 30
0.0
 10
-4.93106
 20
-4.90725
 30
0.0
 10
-4.96315
 20
-4.91143
 30
0.0
 10
-4.96315
 20
-4.91143
 30
0.0
 10
-4.96509
 20
-4.89646
 30
0.0
 10
-4.96962
 20
-4.86995
 30
0.0
 10
-4.9803
 20
-4.82814
 30
0.0
  0
SPLINE
  5
49
330
1F
100
AcDbEntity
  8
Layer 1
100
AcDbSpline
210
0.0
220
0.0
230
1.0
 70
    11
 71
     3
 72
   672
 73
   668
 74
     0
 42
0.0000000001
 43
0.0000000001
 12
1.0
 22
0.0
 32
0.0
 13
1.0
 23
0.0
 33
0.0
 40
0.0
 40
0.0
 40
0.0
 40
0.0
 40
0.005952380952381
 40
0.005952380952381
 40
0.005952380952381
 40
0.005952380952381
 40
0.0119047619047619
 40
0.0119047619047619
 40
0.0119047619047619
 40
0.0119047619047619
 40
0.0178571428571429
 40
0.0178571428571429
 40
0.0178571428571429
 40
0.0178571428571429
 40
0.0238095238095238
 40
0.0238095238095238
 40
0.0238095238095238
 40
0.0238095238095238
 40
0.0297619047619048
 40
0.0297619047619048
 40
0.0297619047619048
 40
0.0297619047619048
 40
0.0357142857142857
 40
0.0357142857142857
 40
0.0357142857142857
 40
0.0357142857142857
 40
0.0416666666666667
 40
0.0416666666666667
 40
0.0416666666666667
 40
0.0416666666666667
 40
0.0476190476190476
 40
0.0476190476190476
 40
0.0476190476190476
 40
0.0476190476190476
 40
0.0535714285714286
 40
0.0535714285714286
 40
0.0535714285714286
 40
0.0535714285714286
 40
0.0595238095238095
 40
0.0595238095238095
 40
0.0595238095238095
 40
0.0595238095238095
 40
0.0654761904761905
 40
0.0654761904761905
 40
0.0654761904761905
 40
0.0654761904761905
 40
0.0714285714285714
 40
0.0714285714285714
 40
0.0714285714285714
 40
0.0714285714285714
 40
0.0773809523809524
 40
0.0773809523809524
 40
0.0773809523809524
 40
0.0773809523809524
 40
0.0833333333333333
 40
0.0833333333333333
 40
0.0833333333333333
 40
0.0833333333333333
 40
0.0892857142857143
 40
0.0892857142857143
 40
0.0892857142857143
 40
0.0892857142857143
 40
0.0952380952380952
 40
0.0952380952380952
 40
0.0952380952380952
 40
0.0952380952380952
 40
0.1011904761904762
 40
0.1011904761904762
 40
0.1011904761904762
 40
0.1011904761904762
 40
0.1071428571428571
 40
0.1071428571428571
 40
0.1071428571428571
 40
0.1071428571428571
 40
0.1130952380952381
 40
0.1130952380952381
 40
0.1130952380952381
 40
0.1130952380952381
 40
0.119047619047619
 40
0.119047619047619
 40
0.119047619047619
 40
0.119047619047619
 40
0.125
 40
0.125
 40
0.125
 40
0.125
 40
0.130952380952381
 40
0.130952380952381
 40
0.130952380952381
 40
0.130952380952381
 40
0.1369047619047619
 40
0.1369047619047619
 40
0.1369047619047619
 40
0.1369047619047619
 40
0.1428571428571428
 40
0.1428571428571428
 40
0.1428571428571428
 40
0.1428571428571428
 40
0.1488095238095238
 40
0.1488095238095238
 40
0.1488095238095238
 40
0.1488095238095238
 40
0.1547619047619048
 40
0.1547619047619048
 40
0.1547619047619048
 40
0.1547619047619048
 40
0.1607142857142857
 40
0.1607142857142857
 40
0.1607142857142857
 40
0.1607142857142857
 40
0.1666666666666667
 40
0.1666666666666667
 40
0.1666666666666667
 40
0.1666666666666667
 40
0.1726190476190476
 40
0.1726190476190476
 40
0.1726190476190476
 40
0.1726190476190476
 40
0.1785714285714286
 40
0.1785714285714286
 40
0.1785714285714286
 40
0.1785714285714286
 40
0.1845238095238095
 40
0.1845238095238095
 40
0.1845238095238095
 40
0.1845238095238095
 40
0.1904761904761905
 40
0.1904761904761905
 40
0.1904761904761905
 40
0.1904761904761905
 40
0.1964285714285714
 40
0.1964285714285714
 40
0.1964285714285714
 40
0.1964285714285714
 40
0.2023809523809524
 40
0.2023809523809524
 40
0.2023809523809524
 40
0.2023809523809524
 40
0.2083333333333333
 40
0.2083333333333333
 40
0.2083333333333333
 40
0.2083333333333333
 40
0.2142857142857143
 40
0.2142857142857143
 40
0.2142857142857143
 40
0.2142857142857143
 40
0.2202380952380952
 40
0.2202380952380952
 40
0.2202380952380952
 40
0.2202380952380952
 40
0.2261904761904762
 40
0.2261904761904762
 40
0.2261904761904762
 40
0.2261904761904762
 40
0.2321428571428572
 40
0.2321428571428572
 40
0.2321428571428572
 40
0.2321428571428572
 40
0.2380952380952381
 40
0.2380952380952381
 40
0.2380952380952381
 40
0.2380952380952381
 40
0.244047619047619
 40
0.244047619047619
 40
0.244047619047619
 40
0.244047619047619
 40
0.25
 40
0.25
 40
0.25
 40
0.25
 40
0.2559523809523809
 40
0.2559523809523809
 40
0.2559523809523809
 40
0.2559523809523809
 40
0.2619047619047619
 40
0.2619047619047619
 40
0.2619047619047619
 40
0.2619047619047619
 40
0.2678571428571428
 40
0.2678571428571428
 40
0.2678571428571428
 40
0.2678571428571428
 40
0.2738095238095238
 40
0.2738095238095238
 40
0.2738095238095238
 40
0.2738095238095238
 40
0.2797619047619048
 40
0.2797619047619048
 40
0.2797619047619048
 40
0.2797619047619048
 40
0.2857142857142857
 40
0.2857142857142857
 40
0.2857142857142857
 40
0.2857142857142857
 40
0.2916666666666667
 40
0.2916666666666667
 40
0.2916666666666667
 40
0.2916666666666667
 40
0.2976190476190476
 40
0.2976190476190476
 40
0.2976190476190476
 40
0.2976190476190476
 40
0.3035714285714285
 40
0.3035714285714285
 40
0.3035714285714285
 40
0.3035714285714285
 40
0.3095238095238095
 40
0.3095238095238095
 40
0.3095238095238095
 40
0.3095238095238095
 40
0.3154761904761905
 40
0.3154761904761905
 40
0.3154761904761905
 40
0.3154761904761905
 40
0.3214285714285715
 40
0.3214285714285715
 40
0.3214285714285715
 40
0.3214285714285715
 40
0.3273809523809524
 40
0.3273809523809524
 40
0.3273809523809524
 40
0.3273809523809524
 40
0.3333333333333333
 40
0.3333333333333333
 40
0.3333333333333333
 40
0.3333333333333333
 40
0.3392857142857143
 40
0.3392857142857143
 40
0.3392857142857143
 40
0.3392857142857143
 40
0.3452380952380952
 40
0.3452380952380952
 40
0.3452380952380952
 40
0.3452380952380952
 40
0.3511904761904762
 40
0.3511904761904762
 40
0.3511904761904762
 40
0.3511904761904762
 40
0.3571428571428572
 40
0.3571428571428572
 40
0.3571428571428572
 40
0.3571428571428572
 40
0.3630952380952381
 40
0.3630952380952381
 40
0.3630952380952381
 40
0.3630952380952381
 40
0.3690476190476191
 40
0.3690476190476191
 40
0.3690476190476191
 40
0.3690476190476191
 40
0.375
 40
0.375
 40
0.375
 40
0.375
 40
0.3809523809523809
 40
0.3809523809523809
 40
0.3809523809523809
 40
0.3809523809523809
 40
0.3869047619047619
 40
0.3869047619047619
 40
0.3869047619047619
 40
0.3869047619047619
 40
0.3928571428571428
 40
0.3928571428571428
 40
0.3928571428571428
 40
0.3928571428571428
 40
0.3988095238095238
 40
0.3988095238095238
 40
0.3988095238095238
 40
0.3988095238095238
 40
0.4047619047619048
 40
0.4047619047619048
 40
0.4047619047619048
 40
0.4047619047619048
 40
0.4107142857142857
 40
0.4107142857142857
 40
0.4107142857142857
 40
0.4107142857142857
 40
0.4166666666666667
 40
0.4166666666666667
 40
0.4166666666666667
 40
0.4166666666666667
 40
0.4226190476190476
 40
0.4226190476190476
 40
0.4226190476190476
 40
0.4226190476190476
 40
0.4285714285714285
 40
0.4285714285714285
 40
0.4285714285714285
 40
0.4285714285714285
 40
0.4345238095238095
 40
0.4345238095238095
 40
0.4345238095238095
 40
0.4345238095238095
 40
0.4404761904761905
 40
0.4404761904761905
 40
0.4404761904761905
 40
0.4404761904761905
 40
0.4464285714285715
 40
0.4464285714285715
 40
0.4464285714285715
 40
0.4464285714285715
 40
0.4523809523809524
 40
0.4523809523809524
 40
0.4523809523809524
 40
0.4523809523809524
 40
0.4583333333333333
 40
0.4583333333333333
 40
0.4583333333333333
 40
0.4583333333333333
 40
0.4642857142857143
 40
0.4642857142857143
 40
0.4642857142857143
 40
0.4642857142857143
 40
0.4702380952380952
 40
0.4702380952380952
 40
0.4702380952380952
 40
0.4702380952380952
 40
0.4761904761904762
 40
0.4761904761904762
 40
0.4761904761904762
 40
0.4761904761904762
 40
0.4821428571428572
 40
0.4821428571428572
 40
0.4821428571428572
 40
0.4821428571428572
 40
0.4880952380952381
 40
0.4880952380952381
 40
0.4880952380952381
 40
0.4880952380952381
 40
0.4940476190476191
 40
0.4940476190476191
 40
0.4940476190476191
 40
0.4940476190476191
 40
0.5
 40
0.5
 40
0.5
 40
0.5
 40
0.5059523809523809
 40
0.5059523809523809
 40
0.5059523809523809
 40
0.5059523809523809
 40
0.5119047619047619
 40
0.5119047619047619
 40
0.5119047619047619
 40
0.5119047619047619
 40
0.5178571428571429
 40
0.5178571428571429
 40
0.5178571428571429
 40
0.5178571428571429
 40
0.5238095238095238
 40
0.5238095238095238
 40
0.5238095238095238
 40
0.5238095238095238
 40
0.5297619047619048
 40
0.5297619047619048
 40
0.5297619047619048
 40
0.5297619047619048
 40
0.5357142857142857
 40
0.5357142857142857
 40
0.5357142857142857
 40
0.5357142857142857
 40
0.5416666666666666
 40
0.5416666666666666
 40
0.5416666666666666
 40
0.5416666666666666
 40
0.5476190476190477
 40
0.5476190476190477
 40
0.5476190476190477
 40
0.5476190476190477
 40
0.5535714285714286
 40
0.5535714285714286
 40
0.5535714285714286
 40
0.5535714285714286
 40
0.5595238095238095
 40
0.5595238095238095
 40
0.5595238095238095
 40
0.5595238095238095
 40
0.5654761904761905
 40
0.5654761904761905
 40
0.5654761904761905
 40
0.5654761904761905
 40
0.5714285714285714
 40
0.5714285714285714
 40
0.5714285714285714
 40
0.5714285714285714
 40
0.5773809523809523
 40
0.5773809523809523
 40
0.5773809523809523
 40
0.5773809523809523
 40
0.5833333333333334
 40
0.5833333333333334
 40
0.5833333333333334
 40
0.5833333333333334
 40
0.5892857142857143
 40
0.5892857142857143
 40
0.5892857142857143
 40
0.5892857142857143
 40
0.5952380952380952
 40
0.5952380952380952
 40
0.5952380952380952
 40
0.5952380952380952
 40
0.6011904761904762
 40
0.6011904761904762
 40
0.6011904761904762
 40
0.6011904761904762
 40
0.6071428571428571
 40
0.6071428571428571
 40
0.6071428571428571
 40
0.6071428571428571
 40
0.6130952380952381
 40
0.6130952380952381
 40
0.6130952380952381
 40
0.6130952380952381
 40
0.6190476190476191
 40
0.6190476190476191
 40
0.6190476190476191
 40
0.6190476190476191
 40
0.625
 40
0.625
 40
0.625
 40
0.625
 40
0.6309523809523809
 40
0.6309523809523809
 40
0.6309523809523809
 40
0.6309523809523809
 40
0.6369047619047619
 40
0.6369047619047619
 40
0.6369047619047619
 40
0.6369047619047619
 40
0.6428571428571429
 40
0.6428571428571429
 40
0.6428571428571429
 40
0.6428571428571429
 40
0.6488095238095238
 40
0.6488095238095238
 40
0.6488095238095238
 40
0.6488095238095238
 40
0.6547619047619048
 40
0.6547619047619048
 40
0.6547619047619048
 40
0.6547619047619048
 40
0.6607142857142857
 40
0.6607142857142857
 40
0.6607142857142857
 40
0.6607142857142857
 40
0.6666666666666666
 40
0.6666666666666666
 40
0.6666666666666666
 40
0.6666666666666666
 40
0.6726190476190477
 40
0.6726190476190477
 40
0.6726190476190477
 40
0.6726190476190477
 40
0.6785714285714286
 40
0.6785714285714286
 40
0.6785714285714286
 40
0.6785714285714286
 40
0.6845238095238095
 40
0.6845238095238095
 40
0.6845238095238095
 40
0.6845238095238095
 40
0.6904761904761905
 40
0.6904761904761905
 40
0.6904761904761905
 40
0.6904761904761905
 40
0.6964285714285714
 40
0.6964285714285714
 40
0.6964285714285714
 40
0.6964285714285714
 40
0.7023809523809523
 40
0.7023809523809523
 40
0.7023809523809523
 40
0.7023809523809523
 40
0.7083333333333334
 40
0.7083333333333334
 40
0.7083333333333334
 40
0.7083333333333334
 40
0.7142857142857143
 40
0.7142857142857143
 40
0.7142857142857143
 40
0.7142857142857143
 40
0.7202380952380952
 40
0.7202380952380952
 40
0.7202380952380952
 40
0.7202380952380952
 40
0.7261904761904762
 40
0.7261904761904762
 40
0.7261904761904762
 40
0.7261904761904762
 40
0.7321428571428571
 40
0.7321428571428571
 40
0.7321428571428571
 40
0.7321428571428571
 40
0.7380952380952381
 40
0.7380952380952381
 40
0.7380952380952381
 40
0.7380952380952381
 40
0.7440476190476191
 40
0.7440476190476191
 40
0.7440476190476191
 40
0.7440476190476191
 40
0.75
 40
0.75
 40
0.75
 40
0.75
 40
0.7559523809523809
 40
0.7559523809523809
 40
0.7559523809523809
 40
0.7559523809523809
 40
0.7619047619047619
 40
0.7619047619047619
 40
0.7619047619047619
 40
0.7619047619047619
 40
0.7678571428571429
 40
0.7678571428571429
 40
0.7678571428571429
 40
0.7678571428571429
 40
0.7738095238095238
 40
0.7738095238095238
 40
0.7738095238095238
 40
0.7738095238095238
 40
0.7797619047619048
 40
0.7797619047619048
 40
0.7797619047619048
 40
0.7797619047619048
 40
0.7857142857142857
 40
0.7857142857142857
 40
0.7857142857142857
 40
0.7857142857142857
 40
0.7916666666666666
 40
0.7916666666666666
 40
0.7916666666666666
 40
0.7916666666666666
 40
0.7976190476190477
 40
0.7976190476190477
 40
0.7976190476190477
 40
0.7976190476190477
 40
0.8035714285714286
 40
0.8035714285714286
 40
0.8035714285714286
 40
0.8035714285714286
 40
0.8095238095238095
 40
0.8095238095238095
 40
0.8095238095238095
 40
0.8095238095238095
 40
0.8154761904761905
 40
0.8154761904761905
 40
0.8154761904761905
 40
0.8154761904761905
 40
0.8214285714285714
 40
0.8214285714285714
 40
0.8214285714285714
 40
0.8214285714285714
 40
0.8273809523809523
 40
0.8273809523809523
 40
0.8273809523809523
 40
0.8273809523809523
 40
0.8333333333333334
 40
0.8333333333333334
 40
0.8333333333333334
 40
0.8333333333333334
 40
0.8392857142857143
 40
0.8392857142857143
 40
0.8392857142857143
 40
0.8392857142857143
 40
0.8452380952380952
 40
0.8452380952380952
 40
0.8452380952380952
 40
0.8452380952380952
 40
0.8511904761904762
 40
0.8511904761904762
 40
0.8511904761904762
 40
0.8511904761904762
 40
0.8571428571428571
 40
0.8571428571428571
 40
0.8571428571428571
 40
0.8571428571428571
 40
0.8630952380952381
 40
0.8630952380952381
 40
0.8630952380952381
 40
0.8630952380952381
 40
0.8690476190476191
 40
0.8690476190476191
 40
0.8690476190476191
 40
0.8690476190476191
 40
0.875
 40
0.875
 40
0.875
 40
0.875
 40
0.8809523809523809
 40
0.8809523809523809
 40
0.8809523809523809
 40
0.8809523809523809
 40
0.8869047619047619
 40
0.8869047619047619
 40
0.8869047619047619
 40
0.8869047619047619
 40
0.8928571428571429
 40
0.8928571428571429
 40
0.8928571428571429
 40
0.8928571428571429
 40
0.8988095238095238
 40
0.8988095238095238
 40
0.8988095238095238
 40
0.8988095238095238
 40
0.9047619047619048
 40
0.9047619047619048
 40
0.9047619047619048
 40
0.9047619047619048
 40
0.9107142857142857
 40
0.9107142857142857
 40
0.9107142857142857
 40
0.9107142857142857
 40
0.9166666666666666
 40
0.9166666666666666
 40
0.9166666666666666
 40
0.9166666666666666
 40
0.9226190476190477
 40
0.9226190476190477
 40
0.9226190476190477
 40
0.9226190476190477
 40
0.9285714285714286
 40
0.9285714285714286
 40
0.9285714285714286
 40
0.9285714285714286
 40
0.9345238095238095
 40
0.9345238095238095
 40
0.9345238095238095
 40
0.9345238095238095
 40
0.9404761904761905
 40
0.9404761904761905
 40
0.9404761904761905
 40
0.9404761904761905
 40
0.9464285714285714
 40
0.9464285714285714
 40
0.9464285714285714
 40
0.9464285714285714
 40
0.9523809523809523
 40
0.9523809523809523
 40
0.9523809523809523
 40
0.9523809523809523
 40
0.9583333333333334
 40
0.9583333333333334
 40
0.9583333333333334
 40
0.9583333333333334
 40
0.9642857142857143
 40
0.9642857142857143
 40
0.9642857142857143
 40
0.9642857142857143
 40
0.9702380952380952
 40
0.9702380952380952
 40
0.9702380952380952
 40
0.9702380952380952
 40
0.9761904761904762
 40
0.9761904761904762
 40
0.9761904761904762
 40
0.9761904761904762
 40
0.9821428571428571
 40
0.9821428571428571
 40
0.9821428571428571
 40
0.9821428571428571
 40
0.9880952380952381
 40
0.9880952380952381
 40
0.9880952380952381
 40
0.9880952380952381
 40
1.0
 40
1.0
 40
1.0
 40
1.0
 10
-4.78629
 20
-4.89667
 30
0.0
 10
-4.86667
 20
-4.84688
 30
0.0
 10
-4.92792
 20
-4.80597
 30
0.0
 10
-4.95861
 20
-4.78502
 30
0.0
 10
-4.95861
 20
-4.78502
 30
0.0
 10
-4.90416
 20
-4.74377
 30
0.0
 10
-4.87135
 20
-4.75324
 30
0.0
 10
-4.83584
 20
-4.70826
 30
0.0
 10
-4.83584
 20
-4.70826
 30
0.0
 10
-4.80033
 20
-4.66328
 30
0.0
 10
-4.7889
 20
-4.62391
 30
0.0
 10
-4.81732
 20
-4.54342
 30
0.0
 10
-4.81732
 20
-4.54342
 30
0.0
 10
-4.84571
 20
-4.46293
 30
0.0
 10
-4.84079
 20
-4.38192
 30
0.0
 10
-4.88103
 20
-4.32747
 30
0.0
 10
-4.88103
 20
-4.32747
 30
0.0
 10
-4.91016
 20
-4.28807
 30
0.0
 10
-5.04827
 20
-4.2463
 30
0.0
 10
-5.1739
 20
-4.20071
 30
0.0
 10
-5.1739
 20
-4.20071
 30
0.0
 10
-5.19062
 20
-4.08448
 30
0.0
 10
-5.21107
 20
-3.95629
 30
0.0
 10
-5.24325
 20
-3.83802
 30
0.0
 10
-5.24325
 20
-3.83802
 30
0.0
 10
-5.31535
 20
-3.5732
 30
0.0
 10
-5.48034
 20
-3.1378
 30
0.0
 10
-5.54347
 20
-2.99704
 30
0.0
 10
-5.54347
 20
-2.99704
 30
0.0
 10
-5.60657
 20
-2.85631
 30
0.0
 10
-5.62726
 20
-2.82181
 30
0.0
 10
-5.73259
 20
-2.74973
 30
0.0
 10
-5.73259
 20
-2.74973
 30
0.0
 10
-5.83792
 20
-2.67763
 30
0.0
 10
-5.94349
 20
-2.66911
 30
0.0
 10
-5.94349
 20
-2.66911
 30
0.0
 10
-5.94349
 20
-2.66911
 30
0.0
 10
-5.94349
 20
-2.66911
 30
0.0
 10
-5.99339
 20
-2.57484
 30
0.0
 10
-5.99339
 20
-2.57484
 30
0.0
 10
-5.99339
 20
-2.57484
 30
0.0
 10
-5.99339
 20
-2.57484
 30
0.0
 10
-5.93793
 20
-2.58593
 30
0.0
 10
-5.90468
 20
-2.56719
 30
0.0
 10
-5.90468
 20
-2.56719
 30
0.0
 10
-5.87142
 20
-2.54846
 30
0.0
 10
-5.85266
 20
-2.52838
 30
0.0
 10
-5.87483
 20
-2.43754
 30
0.0
 10
-5.87483
 20
-2.43754
 30
0.0
 10
-5.88467
 20
-2.39727
 30
0.0
 10
-5.88729
 20
-2.37526
 30
0.0
 10
-5.88764
 20
-2.35486
 30
0.0
 10
-5.88764
 20
-2.35486
 30
0.0
 10
-5.87155
 20
-2.34825
 30
0.0
 10
-5.85258
 20
-2.32835
 30
0.0
 10
-5.84925
 20
-2.30247
 30
0.0
 10
-5.84925
 20
-2.30247
 30
0.0
 10
-5.86716
 20
-2.30977
 30
0.0
 10
-5.87777
 20
-2.31308
 30
0.0
 10
-5.88682
 20
-2.31305
 30
0.0
 10
-5.88682
 20
-2.31305
 30
0.0
 10
-5.88663
 20
-2.30416
 30
0.0
 10
-5.88656
 20
-2.29411
 30
0.0
 10
-5.88682
 20
-2.2822
 30
0.0
 10
-5.88682
 20
-2.2822
 30
0.0
 10
-5.77797
 20
-2.24331
 30
0.0
 10
-5.67669
 20
-2.19769
 30
0.0
 10
-5.59244
 20
-2.14099
 30
0.0
 10
-5.59244
 20
-2.14099
 30
0.0
 10
-5.40805
 20
-2.0169
 30
0.0
 10
-5.2946
 20
-1.90697
 30
0.0
 10
-5.2556
 20
-1.82185
 30
0.0
 10
-5.2556
 20
-1.82185
 30
0.0
 10
-5.21657
 20
-1.73676
 30
0.0
 10
-5.32653
 20
-1.77221
 30
0.0
 10
-5.48253
 20
-1.85379
 30
0.0
 10
-5.48253
 20
-1.85379
 30
0.0
 10
-5.60704
 20
-1.91888
 30
0.0
 10
-5.76315
 20
-1.89813
 30
0.0
 10
-5.97974
 20
-1.85286
 30
0.0
 10
-5.97974
 20
-1.85286
 30
0.0
 10
-6.01943
 20
-1.80129
 30
0.0
 10
-6.08309
 20
-1.71742
 30
0.0
 10
-6.11484
 20
-1.66956
 30
0.0
 10
-6.11484
 20
-1.66956
 30
0.0
 10
-6.16299
 20
-1.59698
 30
0.0
 10
-6.18493
 20
-1.55052
 30
0.0
 10
-6.217
 20
-1.54547
 30
0.0
 10
-6.217
 20
-1.54547
 30
0.0
 10
-6.24907
 20
-1.54042
 30
0.0
 10
-6.29296
 20
-1.51679
 30
0.0
 10
-6.34278
 20
-1.54042
 30
0.0
 10
-6.34278
 20
-1.54042
 30
0.0
 10
-6.3926
 20
-1.56405
 30
0.0
 10
-6.45764
 20
-1.57844
 30
0.0
 10
-6.53698
 20
-1.63247
 30
0.0
 10
-6.53698
 20
-1.63247
 30
0.0
 10
-6.57098
 20
-1.65562
 30
0.0
 10
-6.59831
 20
-1.68155
 30
0.0
 10
-6.61966
 20
-1.70796
 30
0.0
 10
-6.61966
 20
-1.70796
 30
0.0
 10
-6.64286
 20
-1.70955
 30
0.0
 10
-6.669
 20
-1.71206
 30
0.0
 10
-6.69874
 20
-1.71555
 30
0.0
 10
-6.69874
 20
-1.71555
 30
0.0
 10
-7.00013
 20
-1.751
 30
0.0
 10
-7.22706
 20
-2.05236
 30
0.0
 10
-7.20931
 20
-2.21551
 30
0.0
 10
-7.20931
 20
-2.21551
 30
0.0
 10
-7.19158
 20
-2.37863
 30
0.0
 10
-7.10295
 20
-2.38214
 30
0.0
 10
-6.92568
 20
-2.42824
 30
0.0
 10
-6.92568
 20
-2.42824
 30
0.0
 10
-6.78161
 20
-2.46571
 30
0.0
 10
-6.61646
 20
-2.46571
 30
0.0
 10
-6.42641
 20
-2.43012
 30
0.0
 10
-6.42641
 20
-2.43012
 30
0.0
 10
-6.4186
 20
-2.44695
 30
0.0
 10
-6.4118
 20
-2.46444
 30
0.0
 10
-6.40662
 20
-2.48407
 30
0.0
 10
-6.40662
 20
-2.48407
 30
0.0
 10
-6.38966
 20
-2.54834
 30
0.0
 10
-6.38445
 20
-2.58599
 30
0.0
 10
-6.42326
 20
-2.61372
 30
0.0
 10
-6.42326
 20
-2.61372
 30
0.0
 10
-6.46207
 20
-2.64145
 30
0.0
 10
-6.60836
 20
-2.66918
 30
0.0
 10
-6.66591
 20
-2.77662
 30
0.0
 10
-6.66591
 20
-2.77662
 30
0.0
 10
-6.72348
 20
-2.88409
 30
0.0
 10
-6.81773
 20
-3.05808
 30
0.0
 10
-6.80109
 20
-3.20649
 30
0.0
 10
-6.80109
 20
-3.20649
 30
0.0
 10
-6.78445
 20
-3.35489
 30
0.0
 10
-6.67144
 20
-3.56217
 30
0.0
 10
-6.56953
 20
-3.81038
 30
0.0
 10
-6.56953
 20
-3.81038
 30
0.0
 10
-6.46761
 20
-4.05856
 30
0.0
 10
-6.49791
 20
-4.15624
 30
0.0
 10
-6.34813
 20
-4.24906
 30
0.0
 10
-6.34813
 20
-4.24906
 30
0.0
 10
-6.23481
 20
-4.31928
 30
0.0
 10
-6.1307
 20
-4.33449
 30
0.0
 10
-6.1307
 20
-4.33449
 30
0.0
 10
-6.1307
 20
-4.33449
 30
0.0
 10
-6.1307
 20
-4.33449
 30
0.0
 10
-6.23108
 20
-4.74007
 30
0.0
 10
-6.15843
 20
-4.94946
 30
0.0
 10
-6.15843
 20
-4.94946
 30
0.0
 10
-6.14856
 20
-4.9779
 30
0.0
 10
-6.13901
 20
-5.00658
 30
0.0
 10
-6.12978
 20
-5.03556
 30
0.0
 10
-6.12978
 20
-5.03556
 30
0.0
 10
-6.40405
 20
-5.00865
 30
0.0
 10
-6.74787
 20
-4.89078
 30
0.0
 10
-7.03455
 20
-4.95378
 30
0.0
 10
-7.03455
 20
-4.95378
 30
0.0
 10
-7.23077
 20
-4.99691
 30
0.0
 10
-7.41846
 20
-5.20984
 30
0.0
 10
-7.53234
 20
-5.38899
 30
0.0
 10
-7.53234
 20
-5.38899
 30
0.0
 10
-7.56655
 20
-5.39518
 30
0.0
 10
-7.60015
 20
-5.40349
 30
0.0
 10
-7.63254
 20
-5.41381
 30
0.0
 10
-7.63254
 20
-5.41381
 30
0.0
 10
-8.09043
 20
-5.55925
 30
0.0
 10
-8.10718
 20
-6.56118
 30
0.0
 10
-8.56414
 20
-6.82076
 30
0.0
 10
-8.56414
 20
-6.82076
 30
0.0
 10
-9.04782
 20
-7.09556
 30
0.0
 10
-9.00917
 20
-6.83534
 30
0.0
 10
-9.60848
 20
-7.37038
 30
0.0
 10
-9.60848
 20
-7.37038
 30
0.0
 10
-9.45272
 20
-7.26711
 30
0.0
 10
-9.11366
 20
-7.08955
 30
0.0
 10
-8.93162
 20
-7.1512
 30
0.0
 10
-8.93162
 20
-7.1512
 30
0.0
 10
-9.10434
 20
-7.42619
 30
0.0
 10
-9.44732
 20
-7.47072
 30
0.0
 10
-9.66647
 20
-7.7039
 30
0.0
 10
-9.66647
 20
-7.7039
 30
0.0
 10
-9.42924
 20
-7.55896
 30
0.0
 10
-8.92971
 20
-7.53703
 30
0.0
 10
-8.78811
 20
-7.38481
 30
0.0
 10
-8.78811
 20
-7.38481
 30
0.0
 10
-8.73575
 20
-7.32856
 30
0.0
 10
-8.6799
 20
-7.27443
 30
0.0
 10
-8.61563
 20
-7.23167
 30
0.0
 10
-8.61563
 20
-7.23167
 30
0.0
 10
-8.79362
 20
-7.76245
 30
0.0
 10
-9.06595
 20
-7.40566
 30
0.0
 10
-9.40377
 20
-8.08104
 30
0.0
 10
-9.40377
 20
-8.08104
 30
0.0
 10
-9.23756
 20
-7.93158
 30
0.0
 10
-9.03116
 20
-7.72226
 30
0.0
 10
-8.81229
 20
-7.66519
 30
0.0
 10
-8.81229
 20
-7.66519
 30
0.0
 10
-8.85939
 20
-7.80722
 30
0.0
 10
-8.91577
 20
-7.91739
 30
0.0
 10
-9.03147
 20
-8.015
 30
0.0
 10
-9.03147
 20
-8.015
 30
0.0
 10
-8.87026
 20
-8.06628
 30
0.0
 10
-8.73971
 20
-7.70615
 30
0.0
 10
-8.66883
 20
-7.60881
 30
0.0
 10
-8.66883
 20
-7.60881
 30
0.0
 10
-8.60001
 20
-7.5143
 30
0.0
 10
-8.50855
 20
-7.42844
 30
0.0
 10
-8.42547
 20
-7.34611
 30
0.0
 10
-8.42547
 20
-7.34611
 30
0.0
 10
-8.47362
 20
-7.53949
 30
0.0
 10
-8.52183
 20
-7.64935
 30
0.0
 10
-8.64949
 20
-7.80381
 30
0.0
 10
-8.64949
 20
-7.80381
 30
0.0
 10
-8.54027
 20
-7.86697
 30
0.0
 10
-8.24613
 20
-7.29372
 30
0.0
 10
-8.21115
 20
-7.21718
 30
0.0
 10
-8.21115
 20
-7.21718
 30
0.0
 10
-8.19686
 20
-7.34643
 30
0.0
 10
-8.25661
 20
-7.49153
 30
0.0
 10
-8.3159
 20
-7.604
 30
0.0
 10
-8.3159
 20
-7.604
 30
0.0
 10
-8.28553
 20
-7.63191
 30
0.0
 10
-8.20604
 20
-7.5219
 30
0.0
 10
-8.19665
 20
-7.50894
 30
0.0
 10
-8.19665
 20
-7.50894
 30
0.0
 10
-8.14855
 20
-7.4425
 30
0.0
 10
-7.97855
 20
-6.79163
 30
0.0
 10
-7.92426
 20
-6.969
 30
0.0
 10
-7.92426
 20
-6.969
 30
0.0
 10
-7.87195
 20
-7.13984
 30
0.0
 10
-8.0057
 20
-7.44104
 30
0.0
 10
-8.10643
 20
-7.57498
 30
0.0
 10
-8.10643
 20
-7.57498
 30
0.0
 10
-7.7567
 20
-7.35892
 30
0.0
 10
-7.8465
 20
-6.8524
 30
0.0
 10
-7.74422
 20
-6.46667
 30
0.0
 10
-7.74422
 20
-6.46667
 30
0.0
 10
-7.74131
 20
-6.54959
 30
0.0
 10
-7.73451
 20
-6.626
 30
0.0
 10
-7.72403
 20
-6.69114
 30
0.0
 10
-7.72403
 20
-6.69114
 30
0.0
 10
-7.62074
 20
-7.33323
 30
0.0
 10
-6.63604
 20
-7.92746
 30
0.0
 10
-6.54677
 20
-8.23207
 30
0.0
 10
-6.54677
 20
-8.23207
 30
0.0
 10
-6.48854
 20
-8.43088
 30
0.0
 10
-6.3745
 20
-8.57942
 30
0.0
 10
-6.20895
 20
-8.70261
 30
0.0
 10
-6.20895
 20
-8.70261
 30
0.0
 10
-5.97162
 20
-8.87925
 30
0.0
 10
-5.84679
 20
-9.13375
 30
0.0
 10
-5.69531
 20
-9.37484
 30
0.0
 10
-5.69531
 20
-9.37484
 30
0.0
 10
-5.58606
 20
-9.54872
 30
0.0
 10
-5.48314
 20
-9.47895
 30
0.0
 10
-5.39538
 20
-9.57992
 30
0.0
 10
-5.39538
 20
-9.57992
 30
0.0
 10
-5.31701
 20
-9.67009
 30
0.0
 10
-5.36204
 20
-9.72084
 30
0.0
 10
-5.33164
 20
-9.8195
 30
0.0
 10
-5.33164
 20
-9.8195
 30
0.0
 10
-5.28986
 20
-9.95507
 30
0.0
 10
-5.16366
 20
-9.96544
 30
0.0
 10
-5.04033
 20
-9.95222
 30
0.0
 10
-5.04033
 20
-9.95222
 30
0.0
 10
-4.96857
 20
-9.94455
 30
0.0
 10
-4.8135
 20
-9.92269
 30
0.0
 10
-4.76627
 20
-9.83676
 30
0.0
 10
-4.76627
 20
-9.83676
 30
0.0
 10
-4.82662
 20
-9.60125
 30
0.0
 10
-5.09613
 20
-9.55368
 30
0.0
 10
-5.17307
 20
-9.49031
 30
0.0
 10
-5.17307
 20
-9.49031
 30
0.0
 10
-5.2947
 20
-9.39009
 30
0.0
 10
-5.27721
 20
-9.34796
 30
0.0
 10
-5.34465
 20
-9.26068
 30
0.0
 10
-5.34465
 20
-9.26068
 30
0.0
 10
-5.46482
 20
-9.10513
 30
0.0
 10
-5.51255
 20
-9.15765
 30
0.0
 10
-5.60571
 20
-9.08351
 30
0.0
 10
-5.60571
 20
-9.08351
 30
0.0
 10
-5.73869
 20
-8.97765
 30
0.0
 10
-5.85675
 20
-8.79556
 30
0.0
 10
-5.96075
 20
-8.65949
 30
0.0
 10
-5.96075
 20
-8.65949
 30
0.0
 10
-6.01803
 20
-8.36096
 30
0.0
 10
-6.13593
 20
-8.29995
 30
0.0
 10
-6.17445
 20
-8.18895
 30
0.0
 10
-6.17445
 20
-8.18895
 30
0.0
 10
-6.24761
 20
-7.97837
 30
0.0
 10
-6.21107
 20
-7.48458
 30
0.0
 10
-6.30717
 20
-7.14104
 30
0.0
 10
-6.30717
 20
-7.14104
 30
0.0
 10
-6.2737
 20
-7.16364
 30
0.0
 10
-6.22094
 20
-7.18901
 30
0.0
 10
-6.15514
 20
-7.21544
 30
0.0
 10
-6.15514
 20
-7.21544
 30
0.0
 10
-5.96781
 20
-7.51
 30
0.0
 10
-6.2134
 20
-7.61946
 30
0.0
 10
-6.18758
 20
-7.82194
 30
0.0
 10
-6.18758
 20
-7.82194
 30
0.0
 10
-6.16882
 20
-7.9691
 30
0.0
 10
-5.79928
 20
-8.0498
 30
0.0
 10
-5.67471
 20
-8.13187
 30
0.0
 10
-5.67471
 20
-8.13187
 30
0.0
 10
-5.43135
 20
-8.29223
 30
0.0
 10
-5.52268
 20
-8.39735
 30
0.0
 10
-5.43886
 20
-8.50417
 30
0.0
 10
-5.43886
 20
-8.50417
 30
0.0
 10
-5.4124
 20
-8.53788
 30
0.0
 10
-5.37589
 20
-8.54873
 30
0.0
 10
-5.35181
 20
-8.58299
 30
0.0
 10
-5.35181
 20
-8.58299
 30
0.0
 10
-5.29802
 20
-8.65953
 30
0.0
 10
-5.37509
 20
-8.75333
 30
0.0
 10
-5.36827
 20
-8.84765
 30
0.0
 10
-5.36827
 20
-8.84765
 30
0.0
 10
-5.33078
 20
-8.90313
 30
0.0
 10
-5.25437
 20
-8.93295
 30
0.0
 10
-5.19066
 20
-8.93883
 30
0.0
 10
-5.19066
 20
-8.93883
 30
0.0
 10
-4.86057
 20
-8.96918
 30
0.0
 10
-5.16222
 20
-8.61202
 30
0.0
 10
-5.1742
 20
-8.50417
 30
0.0
 10
-5.1742
 20
-8.50417
 30
0.0
 10
-5.18378
 20
-8.41773
 30
0.0
 10
-5.19706
 20
-8.37947
 30
0.0
 10
-5.25241
 20
-8.3101
 30
0.0
 10
-5.25241
 20
-8.3101
 30
0.0
 10
-5.43063
 20
-8.08661
 30
0.0
 10
-5.95173
 20
-7.90486
 30
0.0
 10
-5.9435
 20
-7.76781
 30
0.0
 10
-5.9435
 20
-7.76781
 30
0.0
 10
-5.9367
 20
-7.65481
 30
0.0
 10
-5.81928
 20
-7.61901
 30
0.0
 10
-5.71612
 20
-7.47735
 30
0.0
 10
-5.71612
 20
-7.47735
 30
0.0
 10
-5.71244
 20
-7.47732
 30
0.0
 10
-5.70874
 20
-7.47714
 30
0.0
 10
-5.70498
 20
-7.47679
 30
0.0
 10
-5.70498
 20
-7.47679
 30
0.0
 10
-5.64188
 20
-7.47126
 30
0.0
 10
-5.56663
 20
-7.47203
 30
0.0
 10
-5.43145
 20
-7.48314
 30
0.0
 10
-5.43145
 20
-7.48314
 30
0.0
 10
-5.29627
 20
-7.49423
 30
0.0
 10
-5.28932
 20
-7.48155
 30
0.0
 10
-5.2731
 20
-7.4702
 30
0.0
 10
-5.2731
 20
-7.4702
 30
0.0
 10
-5.26831
 20
-7.46687
 30
0.0
 10
-5.26416
 20
-7.46295
 30
0.0
 10
-5.26088
 20
-7.45837
 30
0.0
 10
-5.26088
 20
-7.45837
 30
0.0
 10
-5.12827
 20
-7.48044
 30
0.0
 10
-5.01868
 20
-7.48972
 30
0.0
 10
-4.95936
 20
-7.4788
 30
0.0
 10
-4.95936
 20
-7.4788
 30
0.0
 10
-4.96635
 20
-7.66578
 30
0.0
 10
-4.79294
 20
-8.32406
 30
0.0
 10
-4.80077
 20
-8.33888
 30
0.0
 10
-4.80077
 20
-8.33888
 30
0.0
 10
-4.81437
 20
-8.36462
 30
0.0
 10
-4.84623
 20
-8.34438
 30
0.0
 10
-4.86229
 20
-8.33303
 30
0.0
 10
-4.86229
 20
-8.33303
 30
0.0
 10
-4.95479
 20
-8.26781
 30
0.0
 10
-5.04416
 20
-8.13642
 30
0.0
 10
-5.10071
 20
-8.03895
 30
0.0
 10
-5.10071
 20
-8.03895
 30
0.0
 10
-5.15275
 20
-7.94915
 30
0.0
 10
-5.17982
 20
-7.93208
 30
0.0
 10
-5.27994
 20
-7.93208
 30
0.0
 10
-5.27994
 20
-7.93208
 30
0.0
 10
-5.32645
 20
-7.93208
 30
0.0
 10
-5.30931
 20
-7.83498
 30
0.0
 10
-5.33167
 20
-7.79074
 30
0.0
 10
-5.33167
 20
-7.79074
 30
0.0
 10
-5.40432
 20
-7.64707
 30
0.0
 10
-5.77768
 20
-7.68062
 30
0.0
 10
-5.5885
 20
-7.97518
 30
0.0
 10
-5.5885
 20
-7.97518
 30
0.0
 10
-5.4733
 20
-8.15454
 30
0.0
 10
-5.42107
 20
-8.0214
 30
0.0
 10
-5.38681
 20
-8.09927
 30
0.0
 10
-5.38681
 20
-8.09927
 30
0.0
 10
-5.35329
 20
-8.17547
 30
0.0
 10
-5.24682
 20
-8.18396
 30
0.0
 10
-5.18173
 20
-8.23199
 30
0.0
 10
-5.18173
 20
-8.23199
 30
0.0
 10
-5.07465
 20
-8.31094
 30
0.0
 10
-4.92215
 20
-8.43313
 30
0.0
 10
-4.87841
 20
-8.56118
 30
0.0
 10
-4.87841
 20
-8.56118
 30
0.0
 10
-4.82182
 20
-8.72684
 30
0.0
 10
-4.41153
 20
-8.72797
 30
0.0
 10
-4.36475
 20
-8.56118
 30
0.0
 10
-4.36475
 20
-8.56118
 30
0.0
 10
-4.33419
 20
-8.45212
 30
0.0
 10
-4.37996
 20
-8.39719
 30
0.0
 10
-4.41126
 20
-8.29575
 30
0.0
 10
-4.41126
 20
-8.29575
 30
0.0
 10
-4.47185
 20
-8.09935
 30
0.0
 10
-4.32313
 20
-7.65435
 30
0.0
 10
-4.36475
 20
-7.36331
 30
0.0
 10
-4.36475
 20
-7.36331
 30
0.0
 10
-4.20013
 20
-7.42133
 30
0.0
 10
-3.97954
 20
-7.37773
 30
0.0
 10
-3.85974
 20
-7.24782
 30
0.0
 10
-3.85974
 20
-7.24782
 30
0.0
 10
-3.51861
 20
-7.40207
 30
0.0
 10
-3.17214
 20
-7.14514
 30
0.0
 10
-2.94793
 20
-6.92204
 30
0.0
 10
-2.94793
 20
-6.92204
 30
0.0
 10
-2.90748
 20
-6.8818
 30
0.0
 10
-2.76174
 20
-6.74966
 30
0.0
 10
-2.69972
 20
-6.83243
 30
0.0
 10
-2.69972
 20
-6.83243
 30
0.0
 10
-2.76174
 20
-7.03579
 30
0.0
 10
-2.78997
 20
-7.28855
 30
0.0
 10
-2.97378
 20
-7.42705
 30
0.0
 10
-2.97378
 20
-7.42705
 30
0.0
 10
-3.04471
 20
-7.4805
 30
0.0
 10
-3.09837
 20
-7.44835
 30
0.0
 10
-3.11512
 20
-7.54254
 30
0.0
 10
-3.11512
 20
-7.54254
 30
0.0
 10
-3.1297
 20
-7.62456
 30
0.0
 10
-3.21688
 20
-7.61432
 30
0.0
 10
-3.29202
 20
-7.56797
 30
0.0
 10
-3.29202
 20
-7.56797
 30
0.0
 10
-3.3542
 20
-7.43668
 30
0.0
 10
-3.37685
 20
-7.42364
 30
0.0
 10
-3.44244
 20
-7.42472
 30
0.0
 10
-3.44244
 20
-7.42472
 30
0.0
 10
-3.57457
 20
-7.42692
 30
0.0
 10
-3.6762
 20
-7.58604
 30
0.0
 10
-3.62146
 20
-7.77204
 30
0.0
 10
-3.62146
 20
-7.77204
 30
0.0
 10
-3.6095
 20
-7.81988
 30
0.0
 10
-3.45678
 20
-7.88549
 30
0.0
 10
-3.30161
 20
-7.83528
 30
0.0
 10
-3.30161
 20
-7.83528
 30
0.0
 10
-3.15598
 20
-7.87116
 30
0.0
 10
-3.08166
 20
-7.7849
 30
0.0
 10
-2.99967
 20
-7.79935
 30
0.0
 10
-2.99967
 20
-7.79935
 30
0.0
 10
-2.87137
 20
-7.82195
 30
0.0
 10
-2.81409
 20
-7.70738
 30
0.0
 10
-2.78073
 20
-7.60287
 30
0.0
 10
-2.78073
 20
-7.60287
 30
0.0
 10
-2.71146
 20
-7.38589
 30
0.0
 10
-2.6264
 20
-7.14538
 30
0.0
 10
-2.51189
 20
-6.94789
 30
0.0
 10
-2.51189
 20
-6.94789
 30
0.0
 10
-2.45791
 20
-6.85484
 30
0.0
 10
-2.36325
 20
-6.80433
 30
0.0
 10
-2.3102
 20
-6.71694
 30
0.0
 10
-2.3102
 20
-6.71694
 30
0.0
 10
-2.25032
 20
-6.6183
 30
0.0
 10
-2.3596
 20
-6.48358
 30
0.0
 10
-2.42566
 20
-6.41701
 30
0.0
 10
-2.42566
 20
-6.41701
 30
0.0
 10
-2.52742
 20
-6.31451
 30
0.0
 10
-2.58351
 20
-6.37251
 30
0.0
 10
-2.68328
 20
-6.43527
 30
0.0
 10
-2.68328
 20
-6.43527
 30
0.0
 10
-2.72876
 20
-6.4639
 30
0.0
 10
-3.14622
 20
-6.53057
 30
0.0
 10
-3.22197
 20
-6.5411
 30
0.0
 10
-3.22197
 20
-6.5411
 30
0.0
 10
-3.11997
 20
-6.39108
 30
0.0
 10
-3.14961
 20
-6.14039
 30
0.0
 10
-3.14961
 20
-5.97233
 30
0.0
 10
-3.14961
 20
-5.97233
 30
0.0
 10
-3.04312
 20
-5.89187
 30
0.0
 10
-2.94329
 20
-5.81419
 30
0.0
 10
-2.85079
 20
-5.73063
 30
0.0
 10
-2.85079
 20
-5.73063
 30
0.0
 10
-2.62515
 20
-5.76847
 30
0.0
 10
-2.44532
 20
-5.78855
 30
0.0
 10
-2.30908
 20
-5.79207
 30
0.0
 10
-2.30908
 20
-5.79207
 30
0.0
 10
-2.07868
 20
-5.798
 30
0.0
 10
-2.0668
 20
-5.82125
 30
0.0
 10
-1.94864
 20
-5.89243
 30
0.0
 10
-1.94864
 20
-5.89243
 30
0.0
 10
-1.83048
 20
-5.96363
 30
0.0
 10
-1.83048
 20
-5.98686
 30
0.0
 10
-1.77756
 20
-5.9572
 30
0.0
 10
-1.77756
 20
-5.9572
 30
0.0
 10
-1.72464
 20
-5.92754
 30
0.0
 10
-1.77163
 20
-5.90428
 30
0.0
 10
-1.75978
 20
-5.85089
 30
0.0
 10
-1.75978
 20
-5.85089
 30
0.0
 10
-1.75369
 20
-5.82351
 30
0.0
 10
-1.7289
 20
-5.79628
 30
0.0
 10
-1.70618
 20
-5.77622
 30
0.0
 10
-1.70618
 20
-5.77622
 30
0.0
 10
-1.54756
 20
-5.85737
 30
0.0
 10
-1.56502
 20
-6.09663
 30
0.0
 10
-1.46737
 20
-6.13949
 30
0.0
 10
-1.46737
 20
-6.13949
 30
0.0
 10
-1.34622
 20
-6.1927
 30
0.0
 10
-1.2175
 20
-6.21439
 30
0.0
 10
-1.23642
 20
-6.0154
 30
0.0
 10
-1.23642
 20
-6.0154
 30
0.0
 10
-1.18364
 20
-6.21587
 30
0.0
 10
-0.81761
 20
-6.20865
 30
0.0
 10
-0.84687
 20
-6.04466
 30
0.0
 10
-0.84687
 20
-6.04466
 30
0.0
 10
-0.86653
 20
-5.93454
 30
0.0
 10
-0.827
 20
-5.89631
 30
0.0
 10
-0.80377
 20
-5.79307
 30
0.0
 10
-0.80377
 20
-5.79307
 30
0.0
 10
-0.77014
 20
-5.64353
 30
0.0
 10
-0.79533
 20
-5.62236
 30
0.0
 10
-0.91585
 20
-5.52764
 30
0.0
 10
-0.91585
 20
-5.52764
 30
0.0
 10
-1.17258
 20
-5.32587
 30
0.0
 10
-1.40271
 20
-4.93587
 30
0.0
 10
-1.49325
 20
-4.62446
 30
0.0
 10
-1.49325
 20
-4.62446
 30
0.0
 10
-1.51267
 20
-4.5576
 30
0.0
 10
-1.70463
 20
-4.36432
 30
0.0
 10
-1.81348
 20
-4.24878
 30
0.0
 10
-1.81348
 20
-4.24878
 30
0.0
 10
-1.80856
 20
-4.24447
 30
0.0
 10
-1.78731
 20
-4.2215
 30
0.0
 10
-1.82838
 20
-4.17329
 30
0.0
 10
-1.82838
 20
-4.17329
 30
0.0
 10
-1.87426
 20
-4.11945
 30
0.0
 10
-1.8982
 20
-4.12985
 30
0.0
 10
-1.99835
 20
-4.07756
 30
0.0
 10
-1.99835
 20
-4.07756
 30
0.0
 10
-2.09852
 20
-4.02525
 30
0.0
 10
-2.12845
 20
-3.955
 30
0.0
 10
-2.20867
 20
-3.93307
 30
0.0
 10
-2.20867
 20
-3.93307
 30
0.0
 10
-2.28889
 20
-3.91111
 30
0.0
 10
-2.47283
 20
-3.86325
 30
0.0
 10
-2.47283
 20
-3.86325
 30
0.0
 10
-2.47283
 20
-3.86325
 30
0.0
 10
-2.47283
 20
-3.86325
 30
0.0
 10
-2.42052
 20
-3.89759
 30
0.0
 10
-2.37067
 20
-3.93548
 30
0.0
 10
-2.37067
 20
-3.93548
 30
0.0
 10
-2.3208
 20
-3.97339
 30
0.0
 10
-2.28889
 20
-4.0053
 30
0.0
 10
-2.31482
 20
-4.01528
 30
0.0
 10
-2.31482
 20
-4.01528
 30
0.0
 10
-2.34075
 20
-4.02526
 30
0.0
 10
-2.4274
 20
-3.93307
 30
0.0
 10
-2.53908
 20
-3.90117
 30
0.0
 10
-2.53908
 20
-3.90117
 30
0.0
 10
-2.65079
 20
-3.86923
 30
0.0
 10
-2.74694
 20
-3.86326
 30
0.0
 10
-2.74694
 20
-3.86326
 30
0.0
 10
-2.74694
 20
-3.86326
 30
0.0
 10
-2.74694
 20
-3.86326
 30
0.0
 10
-2.5874
 20
-3.89961
 30
0.0
 10
-2.54107
 20
-3.94348
 30
0.0
 10
-2.54107
 20
-3.94348
 30
0.0
 10
-2.49477
 20
-3.98735
 30
0.0
 10
-2.4808
 20
-4.00132
 30
0.0
 10
-2.50472
 20
-4.01529
 30
0.0
 10
-2.50472
 20
-4.01529
 30
0.0
 10
-2.52864
 20
-4.02923
 30
0.0
 10
-2.56314
 20
-3.96116
 30
0.0
 10
-2.64934
 20
-3.94121
 30
0.0
 10
-2.64934
 20
-3.94121
 30
0.0
 10
-2.73554
 20
-3.92126
 30
0.0
 10
-2.86902
 20
-3.90914
 30
0.0
 10
-2.86902
 20
-3.90914
 30
0.0
 10
-2.86902
 20
-3.90914
 30
0.0
 10
-2.86902
 20
-3.90914
 30
0.0
 10
-2.76287
 20
-3.96145
 30
0.0
 10
-2.74292
 20
-3.99733
 30
0.0
 10
-2.74292
 20
-3.99733
 30
0.0
 10
-2.72297
 20
-4.03321
 30
0.0
 10
-2.77327
 20
-4.0512
 30
0.0
 10
-2.81515
 20
-4.04122
 30
0.0
 10
-2.81515
 20
-4.04122
 30
0.0
 10
-2.85703
 20
-4.03124
 30
0.0
 10
-2.99044
 20
-3.91409
 30
0.0
 10
-3.04827
 20
-3.91009
 30
0.0
 10
-3.04827
 20
-3.91009
 30
0.0
 10
-3.10611
 20
-3.90612
 30
0.0
 10
-3.2393
 20
-3.91112
 30
0.0
 10
-3.2393
 20
-3.91112
 30
0.0
 10
-3.2393
 20
-3.91112
 30
0.0
 10
-3.2393
 20
-3.91112
 30
0.0
 10
-3.1531
 20
-3.92551
 30
0.0
 10
-3.09926
 20
-3.95943
 30
0.0
 10
-3.09926
 20
-3.95943
 30
0.0
 10
-3.04539
 20
-3.99332
 30
0.0
 10
-3.0414
 20
-4.02526
 30
0.0
 10
-3.07532
 20
-4.03521
 30
0.0
 10
-3.07532
 20
-4.03521
 30
0.0
 10
-3.10921
 20
-4.04518
 30
0.0
 10
-3.32723
 20
-3.99489
 30
0.0
 10
-3.35342
 20
-3.99333
 30
0.0
 10
-3.35342
 20
-3.99333
 30
0.0
 10
-3.4157
 20
-3.98963
 30
0.0
 10
-3.4855
 20
-4.01529
 30
0.0
 10
-3.4855
 20
-4.01529
 30
0.0
 10
-3.4855
 20
-4.01529
 30
0.0
 10
-3.4855
 20
-4.01529
 30
0.0
 10
-3.40041
 20
-4.02235
 30
0.0
 10
-3.35252
 20
-4.0567
 30
0.0
 10
-3.35252
 20
-4.0567
 30
0.0
 10
-3.30466
 20
-4.09104
 30
0.0
 10
-3.25214
 20
-4.11946
 30
0.0
 10
-3.33747
 20
-4.13496
 30
0.0
 10
-3.33747
 20
-4.13496
 30
0.0
 10
-3.4228
 20
-4.15046
 30
0.0
 10
-3.75631
 20
-4.13496
 30
0.0
 10
-3.75631
 20
-4.13496
 30
0.0
 10
-3.75631
 20
-4.13496
 30
0.0
 10
-3.75631
 20
-4.13496
 30
0.0
 10
-3.60894
 20
-4.15822
 30
0.0
 10
-3.60894
 20
-4.20476
 30
0.0
 10
-3.60894
 20
-4.20476
 30
0.0
 10
-3.60894
 20
-4.2513
 30
0.0
 10
-3.85715
 20
-4.24355
 30
0.0
 10
-3.93472
 20
-4.2513
 30
0.0
 10
-3.93472
 20
-4.2513
 30
0.0
 10
-4.01229
 20
-4.25905
 30
0.0
 10
-4.12863
 20
-4.29784
 30
0.0
 10
-4.12863
 20
-4.29784
 30
0.0
 10
-4.12863
 20
-4.29784
 30
0.0
 10
-4.12863
 20
-4.29784
 30
0.0
 10
-3.92696
 20
-4.26683
 30
0.0
 10
-3.86492
 20
-4.30559
 30
0.0
 10
-3.86492
 20
-4.30559
 30
0.0
 10
-3.80288
 20
-4.34435
 30
0.0
 10
-3.97351
 20
-4.39092
 30
0.0
 10
-4.08209
 20
-4.38314
 30
0.0
 10
-4.08209
 20
-4.38314
 30
0.0
 10
-4.19068
 20
-4.37539
 30
0.0
 10
-4.42335
 20
-4.41418
 30
0.0
 10
-4.42335
 20
-4.41418
 30
0.0
 10
-4.42335
 20
-4.41418
 30
0.0
 10
-4.42335
 20
-4.41418
 30
0.0
 10
-4.20618
 20
-4.42193
 30
0.0
 10
-4.16739
 20
-4.46847
 30
0.0
 10
-4.16739
 20
-4.46847
 30
0.0
 10
-4.1286
 20
-4.51501
 30
0.0
 10
-4.29148
 20
-4.49951
 30
0.0
 10
-4.4156
 20
-4.53051
 30
0.0
 10
-4.4156
 20
-4.53051
 30
0.0
 10
-4.53969
 20
-4.56155
 30
0.0
 10
-4.50093
 20
-4.6391
 30
0.0
 10
-4.50093
 20
-4.6391
 30
0.0
 10
-4.50093
 20
-4.6391
 30
0.0
 10
-4.50093
 20
-4.6391
 30
0.0
 10
-4.22947
 20
-4.51501
 30
0.0
 10
-4.32255
 20
-4.6391
 30
0.0
 10
-4.32255
 20
-4.6391
 30
0.0
 10
-4.41563
 20
-4.76319
 30
0.0
 10
-4.57073
 20
-4.73218
 30
0.0
 10
-4.60176
 20
-4.80198
 30
0.0
 10
-4.60176
 20
-4.80198
 30
0.0
 10
-4.61457
 20
-4.83085
 30
0.0
 10
-4.61679
 20
-4.85969
 30
0.0
 10
-4.61499
 20
-4.8836
 30
0.0
 10
-4.61499
 20
-4.8836
 30
0.0
 10
-4.67037
 20
-4.8899
 30
0.0
 10
-4.7285
 20
-4.89323
 30
0.0
 10
-4.78629
 20
-4.89667
 30
0.0
  0
SPLINE
  5
4A
330
1F
100
AcDbEntity
  8
Layer 1
100
AcDbSpline
210
0.0
220
0.0
230
1.0
 70
    11
 71
     3
 72
    28
 73
    24
 74
     0
 42
0.0000000001
 43
0.0000000001
 12
1.0
 22
0.0
 32
0.0
 13
1.0
 23
0.0
 33
0.0
 40
0.0
 40
0.0
 40
0.0
 40
0.0
 40
0.1428571428571428
 40
0.1428571428571428
 40
0.1428571428571428
 40
0.1428571428571428
 40
0.2857142857142857
 40
0.2857142857142857
 40
0.2857142857142857
 40
0.2857142857142857
 40
0.4285714285714285
 40
0.4285714285714285
 40
0.4285714285714285
 40
0.4285714285714285
 40
0.5714285714285714
 40
0.5714285714285714
 40
0.5714285714285714
 40
0.5714285714285714
 40
0.7142857142857143
 40
0.7142857142857143
 40
0.7142857142857143
 40
0.7142857142857143
 40
1.0
 40
1.0
 40
1.0
 40
1.0
 10
-1.76824
 20
-5.75202
 30
0.0
 10
-1.79007
 20
-5.79504
 30
0.0
 10
-1.82616
 20
-5.85807
 30
0.0
 10
-1.86005
 20
-5.88066
 30
0.0
 10
-1.86005
 20
-5.88066
 30
0.0
 10
-1.91344
 20
-5.91625
 30
0.0
 10
-1.94263
 20
-5.78623
 30
0.0
 10
-2.09045
 20
-5.7625
 30
0.0
 10
-2.09045
 20
-5.7625
 30
0.0
 10
-2.23827
 20
-5.73877
 30
0.0
 10
-2.41528
 20
-5.75657
 30
0.0
 10
-2.67534
 20
-5.71503
 30
0.0
 10
-2.67534
 20
-5.71503
 30
0.0
 10
-2.7159
 20
-5.70855
 30
0.0
 10
-2.76048
 20
-5.7005
 30
0.0
 10
-2.8079
 20
-5.69111
 30
0.0
 10
-2.8079
 20
-5.69111
 30
0.0
 10
-2.70138
 20
-5.59001
 30
0.0
 10
-2.6052
 20
-5.47883
 30
0.0
 10
-2.5204
 20
-5.34329
 30
0.0
 10
-2.5204
 20
-5.34329
 30
0.0
 10
-2.21017
 20
-5.78562
 30
0.0
 10
-1.96768
 20
-5.69423
 30
0.0
 10
-1.76824
 20
-5.75202
 30
0.0
  0
SPLINE
  5
4B
330
1F
100
AcDbEntity
  8
Layer 1
100
AcDbSpline
210
0.0
220
0.0
230
1.0
 70
    11
 71
     3
 72
    16
 73
    12
 74
     0
 42
0.0000000001
 43
0.0000000001
 12
1.0
 22
0.0
 32
0.0
 13
1.0
 23
0.0
 33
0.0
 40
0.0
 40
0.0
 40
0.0
 40
0.0
 40
0.25
 40
0.25
 40
0.25
 40
0.25
 40
0.5
 40
0.5
 40
0.5
 40
0.5
 40
1.0
 40
1.0
 40
1.0
 40
1.0
 10
-4.92527
 20
6.17111
 30
0.0
 10
-5.02764
 20
6.27665
 30
0.0
 10
-5.12376
 20
6.36399
 30
0.0
 10
-5.20189
 20
6.55621
 30
0.0
 10
-5.20189
 20
6.55621
 30
0.0
 10
-5.37374
 20
6.41892
 30
0.0
 10
-5.56485
 20
6.4055
 30
0.0
 10
-5.80268
 20
6.40863
 30
0.0
 10
-5.80268
 20
6.40863
 30
0.0
 10
-5.80268
 20
6.40863
 30
0.0
 10
-4.92527
 20
6.17111
 30
0.0
 10
-4.92527
 20
6.17111
 30
0.0
  0
SPLINE
  5
4C
330
1F
100
AcDbEntity
  8
Layer 1
100
AcDbSpline
210
0.0
220
0.0
230
1.0
 70
    11
 71
     3
 72
    44
 73
    40
 74
     0
 42
0.0000000001
 43
0.0000000001
 12
1.0
 22
0.0
 32
0.0
 13
1.0
 23
0.0
 33
0.0
 40
0.0
 40
0.0
 40
0.0
 40
0.0
 40
0.0909090909090909
 40
0.0909090909090909
 40
0.0909090909090909
 40
0.0909090909090909
 40
0.1818181818181818
 40
0.1818181818181818
 40
0.1818181818181818
 40
0.1818181818181818
 40
0.2727272727272727
 40
0.2727272727272727
 40
0.2727272727272727
 40
0.2727272727272727
 40
0.3636363636363636
 40
0.3636363636363636
 40
0.3636363636363636
 40
0.3636363636363636
 40
0.4545454545454545
 40
0.4545454545454545
 40
0.4545454545454545
 40
0.4545454545454545
 40
0.5454545454545454
 40
0.5454545454545454
 40
0.5454545454545454
 40
0.5454545454545454
 40
0.6363636363636364
 40
0.6363636363636364
 40
0.6363636363636364
 40
0.6363636363636364
 40
0.7272727272727273
 40
0.7272727272727273
 40
0.7272727272727273
 40
0.7272727272727273
 40
0.8181818181818182
 40
0.8181818181818182
 40
0.8181818181818182
 40
0.8181818181818182
 40
1.0
 40
1.0
 40
1.0
 40
1.0
 10
-4.27847
 20
2.77598
 30
0.0
 10
-4.32435
 20
2.74534
 30
0.0
 10
-4.37113
 20
2.71563
 30
0.0
 10
-4.41883
 20
2.68689
 30
0.0
 10
-4.41883
 20
2.68689
 30
0.0
 10
-4.59351
 20
2.3219
 30
0.0
 10
-4.51892
 20
2.03342
 30
0.0
 10
-4.19507
 20
1.82144
 30
0.0
 10
-4.19507
 20
1.82144
 30
0.0
 10
-4.00073
 20
1.82194
 30
0.0
 10
-3.9212
 20
1.71778
 30
0.0
 10
-3.95652
 20
1.50894
 30
0.0
 10
-3.95652
 20
1.50894
 30
0.0
 10
-3.88958
 20
1.28968
 30
0.0
 10
-3.77496
 20
1.10138
 30
0.0
 10
-3.61269
 20
0.94403
 30
0.0
 10
-3.61269
 20
0.94403
 30
0.0
 10
-3.59872
 20
0.93522
 30
0.0
 10
-3.58538
 20
0.92617
 30
0.0
 10
-3.57271
 20
0.91686
 30
0.0
 10
-3.57271
 20
0.91686
 30
0.0
 10
-3.55408
 20
0.94356
 30
0.0
 10
-3.52178
 20
0.96639
 30
0.0
 10
-3.47577
 20
0.98531
 30
0.0
 10
-3.47577
 20
0.98531
 30
0.0
 10
-3.51919
 20
1.02177
 30
0.0
 10
-3.52747
 20
1.07106
 30
0.0
 10
-3.50061
 20
1.13316
 30
0.0
 10
-3.50061
 20
1.13316
 30
0.0
 10
-3.50061
 20
1.13316
 30
0.0
 10
-3.59877
 20
1.62523
 30
0.0
 10
-3.70939
 20
1.71098
 30
0.0
 10
-3.70939
 20
1.71098
 30
0.0
 10
-3.82001
 20
1.79673
 30
0.0
 10
-4.05139
 20
1.88891
 30
0.0
 10
-3.98027
 20
2.03658
 30
0.0
 10
-3.98027
 20
2.03658
 30
0.0
 10
-3.8072
 20
2.39588
 30
0.0
 10
-4.09347
 20
2.6543
 30
0.0
 10
-4.27847
 20
2.77598
 30
0.0
  0
SPLINE
  5
4D
330
1F
100
AcDbEntity
  8
Layer 1
100
AcDbSpline
210
0.0
220
0.0
230
1.0
 70
    11
 71
     3
 72
   512
 73
   508
 74
     0
 42
0.0000000001
 43
0.0000000001
 12
1.0
 22
0.0
 32
0.0
 13
1.0
 23
0.0
 33
0.0
 40
0.0
 40
0.0
 40
0.0
 40
0.0
 40
0.0078125
 40
0.0078125
 40
0.0078125
 40
0.0078125
 40
0.015625
 40
0.015625
 40
0.015625
 40
0.015625
 40
0.0234375
 40
0.0234375
 40
0.0234375
 40
0.0234375
 40
0.03125
 40
0.03125
 40
0.03125
 40
0.03125
 40
0.0390625
 40
0.0390625
 40
0.0390625
 40
0.0390625
 40
0.046875
 40
0.046875
 40
0.046875
 40
0.046875
 40
0.0546875
 40
0.0546875
 40
0.0546875
 40
0.0546875
 40
0.0625
 40
0.0625
 40
0.0625
 40
0.0625
 40
0.0703125
 40
0.0703125
 40
0.0703125
 40
0.0703125
 40
0.078125
 40
0.078125
 40
0.078125
 40
0.078125
 40
0.0859375
 40
0.0859375
 40
0.0859375
 40
0.0859375
 40
0.09375
 40
0.09375
 40
0.09375
 40
0.09375
 40
0.1015625
 40
0.1015625
 40
0.1015625
 40
0.1015625
 40
0.109375
 40
0.109375
 40
0.109375
 40
0.109375
 40
0.1171875
 40
0.1171875
 40
0.1171875
 40
0.1171875
 40
0.125
 40
0.125
 40
0.125
 40
0.125
 40
0.1328125
 40
0.1328125
 40
0.1328125
 40
0.1328125
 40
0.140625
 40
0.140625
 40
0.140625
 40
0.140625
 40
0.1484375
 40
0.1484375
 40
0.1484375
 40
0.1484375
 40
0.15625
 40
0.15625
 40
0.15625
 40
0.15625
 40
0.1640625
 40
0.1640625
 40
0.1640625
 40
0.1640625
 40
0.171875
 40
0.171875
 40
0.171875
 40
0.171875
 40
0.1796875
 40
0.1796875
 40
0.1796875
 40
0.1796875
 40
0.1875
 40
0.1875
 40
0.1875
 40
0.1875
 40
0.1953125
 40
0.1953125
 40
0.1953125
 40
0.1953125
 40
0.203125
 40
0.203125
 40
0.203125
 40
0.203125
 40
0.2109375
 40
0.2109375
 40
0.2109375
 40
0.2109375
 40
0.21875
 40
0.21875
 40
0.21875
 40
0.21875
 40
0.2265625
 40
0.2265625
 40
0.2265625
 40
0.2265625
 40
0.234375
 40
0.234375
 40
0.234375
 40
0.234375
 40
0.2421875
 40
0.2421875
 40
0.2421875
 40
0.2421875
 40
0.25
 40
0.25
 40
0.25
 40
0.25
 40
0.2578125
 40
0.2578125
 40
0.2578125
 40
0.2578125
 40
0.265625
 40
0.265625
 40
0.265625
 40
0.265625
 40
0.2734375
 40
0.2734375
 40
0.2734375
 40
0.2734375
 40
0.28125
 40
0.28125
 40
0.28125
 40
0.28125
 40
0.2890625
 40
0.2890625
 40
0.2890625
 40
0.2890625
 40
0.296875
 40
0.296875
 40
0.296875
 40
0.296875
 40
0.3046875
 40
0.3046875
 40
0.3046875
 40
0.3046875
 40
0.3125
 40
0.3125
 40
0.3125
 40
0.3125
 40
0.3203125
 40
0.3203125
 40
0.3203125
 40
0.3203125
 40
0.328125
 40
0.328125
 40
0.328125
 40
0.328125
 40
0.3359375
 40
0.3359375
 40
0.3359375
 40
0.3359375
 40
0.34375
 40
0.34375
 40
0.34375
 40
0.34375
 40
0.3515625
 40
0.3515625
 40
0.3515625
 40
0.3515625
 40
0.359375
 40
0.359375
 40
0.359375
 40
0.359375
 40
0.3671875
 40
0.3671875
 40
0.3671875
 40
0.3671875
 40
0.375
 40
0.375
 40
0.375
 40
0.375
 40
0.3828125
 40
0.3828125
 40
0.3828125
 40
0.3828125
 40
0.390625
 40
0.390625
 40
0.390625
 40
0.390625
 40
0.3984375
 40
0.3984375
 40
0.3984375
 40
0.3984375
 40
0.40625
 40
0.40625
 40
0.40625
 40
0.40625
 40
0.4140625
 40
0.4140625
 40
0.4140625
 40
0.4140625
 40
0.421875
 40
0.421875
 40
0.421875
 40
0.421875
 40
0.4296875
 40
0.4296875
 40
0.4296875
 40
0.4296875
 40
0.4375
 40
0.4375
 40
0.4375
 40
0.4375
 40
0.4453125
 40
0.4453125
 40
0.4453125
 40
0.4453125
 40
0.453125
 40
0.453125
 40
0.453125
 40
0.453125
 40
0.4609375
 40
0.4609375
 40
0.4609375
 40
0.4609375
 40
0.46875
 40
0.46875
 40
0.46875
 40
0.46875
 40
0.4765625
 40
0.4765625
 40
0.4765625
 40
0.4765625
 40
0.484375
 40
0.484375
 40
0.484375
 40
0.484375
 40
0.4921875
 40
0.4921875
 40
0.4921875
 40
0.4921875
 40
0.5
 40
0.5
 40
0.5
 40
0.5
 40
0.5078125
 40
0.5078125
 40
0.5078125
 40
0.5078125
 40
0.515625
 40
0.515625
 40
0.515625
 40
0.515625
 40
0.5234375
 40
0.5234375
 40
0.5234375
 40
0.5234375
 40
0.53125
 40
0.53125
 40
0.53125
 40
0.53125
 40
0.5390625
 40
0.5390625
 40
0.5390625
 40
0.5390625
 40
0.546875
 40
0.546875
 40
0.546875
 40
0.546875
 40
0.5546875
 40
0.5546875
 40
0.5546875
 40
0.5546875
 40
0.5625
 40
0.5625
 40
0.5625
 40
0.5625
 40
0.5703125
 40
0.5703125
 40
0.5703125
 40
0.5703125
 40
0.578125
 40
0.578125
 40
0.578125
 40
0.578125
 40
0.5859375
 40
0.5859375
 40
0.5859375
 40
0.5859375
 40
0.59375
 40
0.59375
 40
0.59375
 40
0.59375
 40
0.6015625
 40
0.6015625
 40
0.6015625
 40
0.6015625
 40
0.609375
 40
0.609375
 40
0.609375
 40
0.609375
 40
0.6171875
 40
0.6171875
 40
0.6171875
 40
0.6171875
 40
0.625
 40
0.625
 40
0.625
 40
0.625
 40
0.6328125
 40
0.6328125
 40
0.6328125
 40
0.6328125
 40
0.640625
 40
0.640625
 40
0.640625
 40
0.640625
 40
0.6484375
 40
0.6484375
 40
0.6484375
 40
0.6484375
 40
0.65625
 40
0.65625
 40
0.65625
 40
0.65625
 40
0.6640625
 40
0.6640625
 40
0.6640625
 40
0.6640625
 40
0.671875
 40
0.671875
 40
0.671875
 40
0.671875
 40
0.6796875
 40
0.6796875
 40
0.6796875
 40
0.6796875
 40
0.6875
 40
0.6875
 40
0.6875
 40
0.6875
 40
0.6953125
 40
0.6953125
 40
0.6953125
 40
0.6953125
 40
0.703125
 40
0.703125
 40
0.703125
 40
0.703125
 40
0.7109375
 40
0.7109375
 40
0.7109375
 40
0.7109375
 40
0.71875
 40
0.71875
 40
0.71875
 40
0.71875
 40
0.7265625
 40
0.7265625
 40
0.7265625
 40
0.7265625
 40
0.734375
 40
0.734375
 40
0.734375
 40
0.734375
 40
0.7421875
 40
0.7421875
 40
0.7421875
 40
0.7421875
 40
0.75
 40
0.75
 40
0.75
 40
0.75
 40
0.7578125
 40
0.7578125
 40
0.7578125
 40
0.7578125
 40
0.765625
 40
0.765625
 40
0.765625
 40
0.765625
 40
0.7734375
 40
0.7734375
 40
0.7734375
 40
0.7734375
 40
0.78125
 40
0.78125
 40
0.78125
 40
0.78125
 40
0.7890625
 40
0.7890625
 40
0.7890625
 40
0.7890625
 40
0.796875
 40
0.796875
 40
0.796875
 40
0.796875
 40
0.8046875
 40
0.8046875
 40
0.8046875
 40
0.8046875
 40
0.8125
 40
0.8125
 40
0.8125
 40
0.8125
 40
0.8203125
 40
0.8203125
 40
0.8203125
 40
0.8203125
 40
0.828125
 40
0.828125
 40
0.828125
 40
0.828125
 40
0.8359375
 40
0.8359375
 40
0.8359375
 40
0.8359375
 40
0.84375
 40
0.84375
 40
0.84375
 40
0.84375
 40
0.8515625
 40
0.8515625
 40
0.8515625
 40
0.8515625
 40
0.859375
 40
0.859375
 40
0.859375
 40
0.859375
 40
0.8671875
 40
0.8671875
 40
0.8671875
 40
0.8671875
 40
0.875
 40
0.875
 40
0.875
 40
0.875
 40
0.8828125
 40
0.8828125
 40
0.8828125
 40
0.8828125
 40
0.890625
 40
0.890625
 40
0.890625
 40
0.890625
 40
0.8984375
 40
0.8984375
 40
0.8984375
 40
0.8984375
 40
0.90625
 40
0.90625
 40
0.90625
 40
0.90625
 40
0.9140625
 40
0.9140625
 40
0.9140625
 40
0.9140625
 40
0.921875
 40
0.921875
 40
0.921875
 40
0.921875
 40
0.9296875
 40
0.9296875
 40
0.9296875
 40
0.9296875
 40
0.9375
 40
0.9375
 40
0.9375
 40
0.9375
 40
0.9453125
 40
0.9453125
 40
0.9453125
 40
0.9453125
 40
0.953125
 40
0.953125
 40
0.953125
 40
0.953125
 40
0.9609375
 40
0.9609375
 40
0.9609375
 40
0.9609375
 40
0.96875
 40
0.96875
 40
0.96875
 40
0.96875
 40
0.9765625
 40
0.9765625
 40
0.9765625
 40
0.9765625
 40
0.984375
 40
0.984375
 40
0.984375
 40
0.984375
 40
1.0
 40
1.0
 40
1.0
 40
1.0
 10
-5.79747
 20
7.77891
 30
0.0
 10
-6.04009
 20
7.73912
 30
0.0
 10
-6.19572
 20
7.79423
 30
0.0
 10
-6.2643
 20
7.94425
 30
0.0
 10
-6.2643
 20
7.94425
 30
0.0
 10
-6.2643
 20
7.94425
 30
0.0
 10
-6.06541
 20
7.92298
 30
0.0
 10
-6.06541
 20
7.92298
 30
0.0
 10
-6.06541
 20
7.92298
 30
0.0
 10
-6.06541
 20
7.92298
 30
0.0
 10
-6.18222
 20
8.12184
 30
0.0
 10
-6.18222
 20
8.12184
 30
0.0
 10
-6.18222
 20
8.12184
 30
0.0
 10
-6.18222
 20
8.12184
 30
0.0
 10
-5.99593
 20
8.03109
 30
0.0
 10
-5.99593
 20
8.03109
 30
0.0
 10
-5.99593
 20
8.03109
 30
0.0
 10
-5.99593
 20
8.03109
 30
0.0
 10
-6.12142
 20
8.30335
 30
0.0
 10
-6.12142
 20
8.30335
 30
0.0
 10
-6.12142
 20
8.30335
 30
0.0
 10
-5.91504
 20
8.05977
 30
0.0
 10
-5.74931
 20
7.96614
 30
0.0
 10
-5.62424
 20
8.02242
 30
0.0
 10
-5.62424
 20
8.02242
 30
0.0
 10
-5.62424
 20
8.02242
 30
0.0
 10
-5.58082
 20
8.3468
 30
0.0
 10
-5.58082
 20
8.3468
 30
0.0
 10
-5.58082
 20
8.3468
 30
0.0
 10
-5.58082
 20
8.3468
 30
0.0
 10
-5.33851
 20
8.03113
 30
0.0
 10
-5.33851
 20
8.03113
 30
0.0
 10
-5.33851
 20
8.03113
 30
0.0
 10
-4.99889
 20
8.22417
 30
0.0
 10
-4.73211
 20
8.22129
 30
0.0
 10
-4.53822
 20
8.02245
 30
0.0
 10
-4.53822
 20
8.02245
 30
0.0
 10
-4.53822
 20
8.02245
 30
0.0
 10
-4.87996
 20
7.92302
 30
0.0
 10
-4.87996
 20
7.92302
 30
0.0
 10
-4.87996
 20
7.92302
 30
0.0
 10
-4.56434
 20
7.93667
 30
0.0
 10
-4.36675
 20
7.9077
 30
0.0
 10
-4.28724
 20
7.83616
 30
0.0
 10
-4.28724
 20
7.83616
 30
0.0
 10
-4.28724
 20
7.83616
 30
0.0
 10
-4.5469
 20
7.71067
 30
0.0
 10
-4.5469
 20
7.71067
 30
0.0
 10
-4.5469
 20
7.71067
 30
0.0
 10
-4.39191
 20
7.7066
 30
0.0
 10
-4.26353
 20
7.68792
 30
0.0
 10
-4.16172
 20
7.65466
 30
0.0
 10
-4.16172
 20
7.65466
 30
0.0
 10
-4.16172
 20
7.65466
 30
0.0
 10
-4.27853
 20
7.51178
 30
0.0
 10
-4.27853
 20
7.51178
 30
0.0
 10
-4.27853
 20
7.51178
 30
0.0
 10
-4.27853
 20
7.51178
 30
0.0
 10
-4.12446
 20
7.51176
 30
0.0
 10
-4.12446
 20
7.51176
 30
0.0
 10
-4.12446
 20
7.51176
 30
0.0
 10
-4.12446
 20
7.51176
 30
0.0
 10
-4.0876
 20
7.58627
 30
0.0
 10
-4.0876
 20
7.58627
 30
0.0
 10
-4.0876
 20
7.58627
 30
0.0
 10
-4.0876
 20
7.58627
 30
0.0
 10
-4.42322
 20
8.19799
 30
0.0
 10
-4.44653
 20
8.27231
 30
0.0
 10
-4.44653
 20
8.27231
 30
0.0
 10
-4.55829
 20
8.56796
 30
0.0
 10
-4.6411
 20
8.87662
 30
0.0
 10
-4.69497
 20
9.1983
 30
0.0
 10
-4.69497
 20
9.1983
 30
0.0
 10
-4.69497
 20
9.1983
 30
0.0
 10
-4.67227
 20
9.23801
 30
0.0
 10
-4.67227
 20
9.23801
 30
0.0
 10
-4.67227
 20
9.23801
 30
0.0
 10
-4.66547
 20
9.29079
 30
0.0
 10
-4.75768
 20
9.3798
 30
0.0
 10
-4.74212
 20
9.4914
 30
0.0
 10
-4.74212
 20
9.4914
 30
0.0
 10
-4.76498
 20
9.50966
 30
0.0
 10
-4.78549
 20
9.54
 30
0.0
 10
-4.80364
 20
9.58242
 30
0.0
 10
-4.80364
 20
9.58242
 30
0.0
 10
-4.82168
 20
9.5802
 30
0.0
 10
-4.84936
 20
9.57551
 30
0.0
 10
-4.89106
 20
9.59586
 30
0.0
 10
-4.89106
 20
9.59586
 30
0.0
 10
-4.92006
 20
9.6234
 30
0.0
 10
-4.9162
 20
9.6455
 30
0.0
 10
-4.86915
 20
9.64335
 30
0.0
 10
-4.86915
 20
9.64335
 30
0.0
 10
-4.86915
 20
9.64335
 30
0.0
 10
-4.8039
 20
9.63787
 30
0.0
 10
-4.8039
 20
9.63787
 30
0.0
 10
-4.8039
 20
9.63787
 30
0.0
 10
-4.7876
 20
9.6316
 30
0.0
 10
-4.72482
 20
9.5736
 30
0.0
 10
-4.72482
 20
9.5736
 30
0.0
 10
-4.72482
 20
9.5736
 30
0.0
 10
-4.74731
 20
9.60461
 30
0.0
 10
-4.76213
 20
9.63345
 30
0.0
 10
-4.76932
 20
9.66012
 30
0.0
 10
-4.76932
 20
9.66012
 30
0.0
 10
-4.79853
 20
9.66438
 30
0.0
 10
-4.82872
 20
9.67898
 30
0.0
 10
-4.85989
 20
9.70396
 30
0.0
 10
-4.85989
 20
9.70396
 30
0.0
 10
-4.88346
 20
9.73375
 30
0.0
 10
-4.87293
 20
9.78228
 30
0.0
 10
-4.80999
 20
9.74965
 30
0.0
 10
-4.80999
 20
9.74965
 30
0.0
 10
-4.80999
 20
9.74965
 30
0.0
 10
-4.71741
 20
9.6929
 30
0.0
 10
-4.71741
 20
9.6929
 30
0.0
 10
-4.71741
 20
9.6929
 30
0.0
 10
-4.71741
 20
9.6929
 30
0.0
 10
-4.65992
 20
9.61069
 30
0.0
 10
-4.65992
 20
9.61069
 30
0.0
 10
-4.65992
 20
9.61069
 30
0.0
 10
-4.66921
 20
9.65736
 30
0.0
 10
-4.67167
 20
9.69464
 30
0.0
 10
-4.66735
 20
9.72256
 30
0.0
 10
-4.66735
 20
9.72256
 30
0.0
 10
-4.69659
 20
9.73555
 30
0.0
 10
-4.72236
 20
9.76788
 30
0.0
 10
-4.74461
 20
9.81958
 30
0.0
 10
-4.74461
 20
9.81958
 30
0.0
 10
-4.76519
 20
9.86842
 30
0.0
 10
-4.73419
 20
9.89406
 30
0.0
 10
-4.69452
 20
9.8616
 30
0.0
 10
-4.69452
 20
9.8616
 30
0.0
 10
-4.69452
 20
9.8616
 30
0.0
 10
-4.6179
 20
9.77199
 30
0.0
 10
-4.6179
 20
9.77199
 30
0.0
 10
-4.6179
 20
9.77199
 30
0.0
 10
-4.6179
 20
9.77199
 30
0.0
 10
-4.58242
 20
9.66266
 30
0.0
 10
-4.57996
 20
9.67007
 30
0.0
 10
-4.57996
 20
9.67007
 30
0.0
 10
-4.57718
 20
9.73251
 30
0.0
 10
-4.57538
 20
9.74519
 30
0.0
 10
-4.56784
 20
9.79982
 30
0.0
 10
-4.56784
 20
9.79982
 30
0.0
 10
-4.58819
 20
9.82628
 30
0.0
 10
-4.60242
 20
9.86089
 30
0.0
 10
-4.61049
 20
9.90364
 30
0.0
 10
-4.61049
 20
9.90364
 30
0.0
 10
-4.61523
 20
9.95851
 30
0.0
 10
-4.56149
 20
9.97563
 30
0.0
 10
-4.54313
 20
9.93147
 30
0.0
 10
-4.54313
 20
9.93147
 30
0.0
 10
-4.54313
 20
9.93147
 30
0.0
 10
-4.50111
 20
9.82701
 30
0.0
 10
-4.50111
 20
9.82701
 30
0.0
 10
-4.50111
 20
9.82701
 30
0.0
 10
-4.49272
 20
9.79007
 30
0.0
 10
-4.49026
 20
9.72538
 30
0.0
 10
-4.4937
 20
9.63294
 30
0.0
 10
-4.4937
 20
9.63294
 30
0.0
 10
-4.4937
 20
9.63294
 30
0.0
 10
-4.44856
 20
9.69784
 30
0.0
 10
-4.44856
 20
9.69784
 30
0.0
 10
-4.44856
 20
9.69784
 30
0.0
 10
-4.44856
 20
9.69784
 30
0.0
 10
-4.44857
 20
9.78675
 30
0.0
 10
-4.44857
 20
9.78675
 30
0.0
 10
-4.44857
 20
9.78675
 30
0.0
 10
-4.43648
 20
9.88041
 30
0.0
 10
-4.3734
 20
9.88216
 30
0.0
 10
-4.37935
 20
9.76945
 30
0.0
 10
-4.37935
 20
9.76945
 30
0.0
 10
-4.37935
 20
9.76945
 30
0.0
 10
-4.37194
 20
9.5958
 30
0.0
 10
-4.37194
 20
9.5958
 30
0.0
 10
-4.37194
 20
9.5958
 30
0.0
 10
-4.37194
 20
9.5958
 30
0.0
 10
-4.4288
 20
9.36217
 30
0.0
 10
-4.4288
 20
9.36217
 30
0.0
 10
-4.4288
 20
9.36217
 30
0.0
 10
-4.4288
 20
9.36217
 30
0.0
 10
-4.38924
 20
9.35227
 30
0.0
 10
-4.38924
 20
9.35227
 30
0.0
 10
-4.38924
 20
9.35227
 30
0.0
 10
-4.38924
 20
9.35227
 30
0.0
 10
-4.08825
 20
8.50925
 30
0.0
 10
-4.08825
 20
8.50925
 30
0.0
 10
-4.08825
 20
8.50925
 30
0.0
 10
-4.08825
 20
8.50925
 30
0.0
 10
-3.52646
 20
7.9481
 30
0.0
 10
-3.52646
 20
7.9481
 30
0.0
 10
-3.52646
 20
7.9481
 30
0.0
 10
-3.52646
 20
7.9481
 30
0.0
 10
-3.46714
 20
8.01732
 30
0.0
 10
-3.46714
 20
8.01732
 30
0.0
 10
-3.46714
 20
8.01732
 30
0.0
 10
-3.44637
 20
8.03859
 30
0.0
 10
-3.42145
 20
8.03118
 30
0.0
 10
-3.39234
 20
7.99507
 30
0.0
 10
-3.39234
 20
7.99507
 30
0.0
 10
-3.39234
 20
7.99507
 30
0.0
 10
-3.32635
 20
8.17552
 30
0.0
 10
-3.309
 20
8.22753
 30
0.0
 10
-3.309
 20
8.22753
 30
0.0
 10
-3.43449
 20
8.51492
 30
0.0
 10
-3.49947
 20
8.85049
 30
0.0
 10
-3.40735
 20
9.17394
 30
0.0
 10
-3.40735
 20
9.17394
 30
0.0
 10
-3.25871
 20
9.31348
 30
0.0
 10
-2.93102
 20
8.8326
 30
0.0
 10
-2.93102
 20
8.8326
 30
0.0
 10
-2.93102
 20
8.8326
 30
0.0
 10
-2.93102
 20
8.8326
 30
0.0
 10
-2.8
 20
8.95965
 30
0.0
 10
-2.70649
 20
8.92669
 30
0.0
 10
-2.70649
 20
8.92669
 30
0.0
 10
-2.63003
 20
8.89087
 30
0.0
 10
-2.67069
 20
8.81189
 30
0.0
 10
-2.532
 20
8.80533
 30
0.0
 10
-2.532
 20
8.80533
 30
0.0
 10
-2.47464
 20
8.76779
 30
0.0
 10
-2.47289
 20
8.62629
 30
0.0
 10
-2.47289
 20
8.62629
 30
0.0
 10
-2.47289
 20
8.62629
 30
0.0
 10
-1.78426
 20
8.44582
 30
0.0
 10
-2.06789
 20
7.52044
 30
0.0
 10
-2.7915
 20
7.8254
 30
0.0
 10
-2.7915
 20
7.8254
 30
0.0
 10
-2.7915
 20
7.8254
 30
0.0
 10
-2.87193
 20
7.76314
 30
0.0
 10
-2.87193
 20
7.76314
 30
0.0
 10
-2.87193
 20
7.76314
 30
0.0
 10
-2.87193
 20
7.76314
 30
0.0
 10
-2.83103
 20
7.6736
 30
0.0
 10
-2.83103
 20
7.6736
 30
0.0
 10
-2.83103
 20
7.6736
 30
0.0
 10
-2.83103
 20
7.6736
 30
0.0
 10
-2.82333
 20
7.59632
 30
0.0
 10
-2.82333
 20
7.59632
 30
0.0
 10
-2.82333
 20
7.59632
 30
0.0
 10
-2.82333
 20
7.59632
 30
0.0
 10
-2.49877
 20
7.28226
 30
0.0
 10
-2.49877
 20
7.28226
 30
0.0
 10
-2.49877
 20
7.28226
 30
0.0
 10
-2.49877
 20
7.28226
 30
0.0
 10
-2.31375
 20
6.3205
 30
0.0
 10
-2.38651
 20
6.19914
 30
0.0
 10
-2.38651
 20
6.19914
 30
0.0
 10
-2.45927
 20
6.0778
 30
0.0
 10
-2.9356
 20
6.14143
 30
0.0
 10
-2.9356
 20
6.14143
 30
0.0
 10
-2.9356
 20
6.14143
 30
0.0
 10
-2.9356
 20
6.14143
 30
0.0
 10
-2.9356
 20
5.95188
 30
0.0
 10
-2.9356
 20
5.95188
 30
0.0
 10
-2.9356
 20
5.95188
 30
0.0
 10
-2.9356
 20
5.95188
 30
0.0
 10
-2.35156
 20
5.46645
 30
0.0
 10
-2.33791
 20
5.28285
 30
0.0
 10
-2.33791
 20
5.28285
 30
0.0
 10
-2.32426
 20
5.09926
 30
0.0
 10
-2.41379
 20
4.65018
 30
0.0
 10
-2.41379
 20
4.65018
 30
0.0
 10
-2.41379
 20
4.65018
 30
0.0
 10
-2.41379
 20
4.65018
 30
0.0
 10
-2.48057
 20
4.57742
 30
0.0
 10
-2.48057
 20
4.57742
 30
0.0
 10
-2.48057
 20
4.57742
 30
0.0
 10
-2.48057
 20
4.57742
 30
0.0
 10
-2.48967
 20
3.957
 30
0.0
 10
-2.48967
 20
3.957
 30
0.0
 10
-2.48967
 20
3.957
 30
0.0
 10
-2.30377
 20
3.84162
 30
0.0
 10
-2.07771
 20
3.75663
 30
0.0
 10
-1.81154
 20
3.70205
 30
0.0
 10
-1.81154
 20
3.70205
 30
0.0
 10
-1.73804
 20
3.56351
 30
0.0
 10
-1.8748
 20
3.46258
 30
0.0
 10
-2.22183
 20
3.39921
 30
0.0
 10
-2.22183
 20
3.39921
 30
0.0
 10
-2.2073
 20
3.34399
 30
0.0
 10
-2.19492
 20
3.28637
 30
0.0
 10
-2.18471
 20
3.22638
 30
0.0
 10
-2.18471
 20
3.22638
 30
0.0
 10
-2.00135
 20
3.17307
 30
0.0
 10
-1.92349
 20
3.05625
 30
0.0
 10
-1.95108
 20
2.87597
 30
0.0
 10
-1.95108
 20
2.87597
 30
0.0
 10
-1.95108
 20
2.87597
 30
0.0
 10
-1.63792
 20
2.47896
 30
0.0
 10
-1.63792
 20
2.47896
 30
0.0
 10
-1.63792
 20
2.47896
 30
0.0
 10
-1.44186
 20
2.4439
 30
0.0
 10
-1.364
 20
2.34262
 30
0.0
 10
-1.40429
 20
2.17511
 30
0.0
 10
-1.40429
 20
2.17511
 30
0.0
 10
-1.40429
 20
2.17511
 30
0.0
 10
-1.25022
 20
2.06909
 30
0.0
 10
-1.25022
 20
2.06909
 30
0.0
 10
-1.25022
 20
2.06909
 30
0.0
 10
-1.04252
 20
2.08383
 30
0.0
 10
-0.85337
 20
2.03012
 30
0.0
 10
-0.68277
 20
1.90804
 30
0.0
 10
-0.68277
 20
1.90804
 30
0.0
 10
-0.7073
 20
1.68785
 30
0.0
 10
-0.79625
 20
1.54868
 30
0.0
 10
-0.94958
 20
1.49061
 30
0.0
 10
-0.94958
 20
1.49061
 30
0.0
 10
-1.04798
 20
1.52225
 30
0.0
 10
-1.15371
 20
1.46304
 30
0.0
 10
-1.26682
 20
1.31294
 30
0.0
 10
-1.26682
 20
1.31294
 30
0.0
 10
-1.26682
 20
1.31294
 30
0.0
 10
-1.39469
 20
1.26254
 30
0.0
 10
-1.39469
 20
1.26254
 30
0.0
 10
-1.39469
 20
1.26254
 30
0.0
 10
-1.54574
 20
1.42521
 30
0.0
 10
-1.58469
 20
1.59962
 30
0.0
 10
-1.5115
 20
1.78573
 30
0.0
 10
-1.5115
 20
1.78573
 30
0.0
 10
-1.5115
 20
1.78573
 30
0.0
 10
-1.61725
 20
1.98615
 30
0.0
 10
-1.61725
 20
1.98615
 30
0.0
 10
-1.61725
 20
1.98615
 30
0.0
 10
-1.77629
 20
1.92884
 30
0.0
 10
-1.85601
 20
2.03991
 30
0.0
 10
-1.85641
 20
2.31937
 30
0.0
 10
-1.85641
 20
2.31937
 30
0.0
 10
-1.85641
 20
2.31937
 30
0.0
 10
-2.14596
 20
2.73127
 30
0.0
 10
-2.14596
 20
2.73127
 30
0.0
 10
-2.14596
 20
2.73127
 30
0.0
 10
-2.28796
 20
2.72079
 30
0.0
 10
-2.39165
 20
2.83575
 30
0.0
 10
-2.45703
 20
3.07615
 30
0.0
 10
-2.45703
 20
3.07615
 30
0.0
 10
-2.62115
 20
3.12753
 30
0.0
 10
-2.90166
 20
3.3597
 30
0.0
 10
-3.29854
 20
3.77269
 30
0.0
 10
-3.29854
 20
3.77269
 30
0.0
 10
-3.34579
 20
3.69966
 30
0.0
 10
-3.39525
 20
3.62894
 30
0.0
 10
-3.44689
 20
3.56049
 30
0.0
 10
-3.44689
 20
3.56049
 30
0.0
 10
-3.13759
 20
3.12591
 30
0.0
 10
-3.20064
 20
2.58315
 30
0.0
 10
-3.63604
 20
1.93222
 30
0.0
 10
-3.63604
 20
1.93222
 30
0.0
 10
-3.63604
 20
1.93222
 30
0.0
 10
-3.34032
 20
1.14561
 30
0.0
 10
-3.34032
 20
1.14561
 30
0.0
 10
-3.34032
 20
1.14561
 30
0.0
 10
-3.26507
 20
1.11251
 30
0.0
 10
-3.24475
 20
1.05906
 30
0.0
 10
-3.27941
 20
0.98533
 30
0.0
 10
-3.27941
 20
0.98533
 30
0.0
 10
-3.22972
 20
0.87846
 30
0.0
 10
-3.22972
 20
0.79647
 30
0.0
 10
-3.27941
 20
0.73929
 30
0.0
 10
-3.27941
 20
0.73929
 30
0.0
 10
-3.31531
 20
0.68899
 30
0.0
 10
-3.35442
 20
0.66402
 30
0.0
 10
-3.39675
 20
0.66439
 30
0.0
 10
-3.39675
 20
0.66439
 30
0.0
 10
-3.17564
 20
0.60084
 30
0.0
 10
-3.03835
 20
0.50837
 30
0.0
 10
-2.98479
 20
0.38631
 30
0.0
 10
-2.98479
 20
0.38631
 30
0.0
 10
-2.89563
 20
0.32471
 30
0.0
 10
-2.80604
 20
0.1865
 30
0.0
 10
-2.71608
 20
-0.02829
 30
0.0
 10
-2.71608
 20
-0.02829
 30
0.0
 10
-3.04004
 20
-0.13301
 30
0.0
 10
-3.38664
 20
-0.13886
 30
0.0
 10
-3.75579
 20
-0.04583
 30
0.0
 10
-3.75579
 20
-0.04583
 30
0.0
 10
-3.77841
 20
0.02966
 30
0.0
 10
-3.76674
 20
0.1406
 30
0.0
 10
-3.72071
 20
0.28707
 30
0.0
 10
-3.72071
 20
0.28707
 30
0.0
 10
-3.72071
 20
0.28707
 30
0.0
 10
-3.72071
 20
0.547
 30
0.0
 10
-3.72071
 20
0.547
 30
0.0
 10
-3.72071
 20
0.547
 30
0.0
 10
-3.8656
 20
0.6142
 30
0.0
 10
-3.92007
 20
0.72811
 30
0.0
 10
-3.88417
 20
0.88866
 30
0.0
 10
-3.88417
 20
0.88866
 30
0.0
 10
-3.88417
 20
0.88866
 30
0.0
 10
-4.16164
 20
1.35589
 30
0.0
 10
-4.16164
 20
1.35589
 30
0.0
 10
-4.16164
 20
1.35589
 30
0.0
 10
-4.35793
 20
1.39881
 30
0.0
 10
-4.73176
 20
1.59933
 30
0.0
 10
-5.28308
 20
1.95747
 30
0.0
 10
-5.28308
 20
1.95747
 30
0.0
 10
-5.58841
 20
1.80764
 30
0.0
 10
-5.8405
 20
1.86505
 30
0.0
 10
-6.03934
 20
2.12969
 30
0.0
 10
-6.03934
 20
2.12969
 30
0.0
 10
-5.99902
 20
2.31728
 30
0.0
 10
-5.91237
 20
2.4818
 30
0.0
 10
-5.77941
 20
2.62324
 30
0.0
 10
-5.77941
 20
2.62324
 30
0.0
 10
-5.83548
 20
2.73738
 30
0.0
 10
-5.82285
 20
2.83959
 30
0.0
 10
-5.74155
 20
2.92981
 30
0.0
 10
-5.74155
 20
2.92981
 30
0.0
 10
-5.74155
 20
2.92981
 30
0.0
 10
-5.66262
 20
3.42336
 30
0.0
 10
-5.66262
 20
3.42336
 30
0.0
 10
-5.66262
 20
3.42336
 30
0.0
 10
-5.70284
 20
3.52065
 30
0.0
 10
-5.72353
 20
3.61127
 30
0.0
 10
-5.72474
 20
3.69519
 30
0.0
 10
-5.72474
 20
3.69519
 30
0.0
 10
-5.72474
 20
3.69519
 30
0.0
 10
-5.9771
 20
3.31078
 30
0.0
 10
-5.9771
 20
3.31078
 30
0.0
 10
-5.9771
 20
3.31078
 30
0.0
 10
-5.99753
 20
3.15261
 30
0.0
 10
-6.03118
 20
3.02786
 30
0.0
 10
-6.07809
 20
2.93647
 30
0.0
 10
-6.07809
 20
2.93647
 30
0.0
 10
-6.14096
 20
2.85709
 30
0.0
 10
-6.18445
 20
2.83757
 30
0.0
 10
-6.2652
 20
2.83
 30
0.0
 10
-6.2652
 20
2.83
 30
0.0
 10
-6.37622
 20
2.84212
 30
0.0
 10
-6.48922
 20
2.90149
 30
0.0
 10
-6.6027
 20
3.04812
 30
0.0
 10
-6.6027
 20
3.04812
 30
0.0
 10
-6.6027
 20
3.04812
 30
0.0
 10
-6.54293
 20
3.08172
 30
0.0
 10
-6.54293
 20
3.08172
 30
0.0
 10
-6.54293
 20
3.08172
 30
0.0
 10
-6.80209
 20
3.18954
 30
0.0
 10
-6.95632
 20
3.42012
 30
0.0
 10
-7.00561
 20
3.77347
 30
0.0
 10
-7.00561
 20
3.77347
 30
0.0
 10
-6.99762
 20
3.90394
 30
0.0
 10
-6.86017
 20
3.95037
 30
0.0
 10
-6.7447
 20
3.8448
 30
0.0
 10
-6.7447
 20
3.8448
 30
0.0
 10
-6.59418
 20
3.67375
 30
0.0
 10
-6.4622
 20
3.59892
 30
0.0
 10
-6.3488
 20
3.62027
 30
0.0
 10
-6.3488
 20
3.62027
 30
0.0
 10
-6.1492
 20
4.03694
 30
0.0
 10
-6.02527
 20
4.35753
 30
0.0
 10
-5.97706
 20
4.58203
 30
0.0
 10
-5.97706
 20
4.58203
 30
0.0
 10
-5.9646
 20
4.7515
 30
0.0
 10
-5.90292
 20
4.88196
 30
0.0
 10
-5.79204
 20
4.9734
 30
0.0
 10
-5.79204
 20
4.9734
 30
0.0
 10
-5.77132
 20
5.12506
 30
0.0
 10
-5.68131
 20
5.24338
 30
0.0
 10
-5.52206
 20
5.32837
 30
0.0
 10
-5.52206
 20
5.32837
 30
0.0
 10
-5.41123
 20
5.53416
 30
0.0
 10
-5.23216
 20
5.73837
 30
0.0
 10
-4.9849
 20
5.94093
 30
0.0
 10
-4.9849
 20
5.94093
 30
0.0
 10
-4.95471
 20
5.98054
 30
0.0
 10
-4.91926
 20
6.01546
 30
0.0
 10
-4.87854
 20
6.04573
 30
0.0
 10
-4.87854
 20
6.04573
 30
0.0
 10
-4.87854
 20
6.04573
 30
0.0
 10
-6.03437
 20
6.39493
 30
0.0
 10
-6.03437
 20
6.39493
 30
0.0
 10
-6.03437
 20
6.39493
 30
0.0
 10
-6.11986
 20
6.0941
 30
0.0
 10
-6.28792
 20
5.97824
 30
0.0
 10
-6.50932
 20
6.13545
 30
0.0
 10
-6.50932
 20
6.13545
 30
0.0
 10
-6.50932
 20
6.13545
 30
0.0
 10
-6.47865
 20
6.18538
 30
0.0
 10
-6.47865
 20
6.18538
 30
0.0
 10
-6.47865
 20
6.18538
 30
0.0
 10
-6.47865
 20
6.18538
 30
0.0
 10
-6.50373
 20
6.23555
 30
0.0
 10
-6.50373
 20
6.23555
 30
0.0
 10
-6.50373
 20
6.23555
 30
0.0
 10
-6.57705
 20
6.19621
 30
0.0
 10
-6.65491
 20
6.18597
 30
0.0
 10
-6.73736
 20
6.20488
 30
0.0
 10
-6.73736
 20
6.20488
 30
0.0
 10
-6.8932
 20
6.18258
 30
0.0
 10
-6.93196
 20
6.2216
 30
0.0
 10
-6.91495
 20
6.30264
 30
0.0
 10
-6.91495
 20
6.30264
 30
0.0
 10
-7.14966
 20
6.2902
 30
0.0
 10
-7.07553
 20
6.38228
 30
0.0
 10
-7.02951
 20
6.54415
 30
0.0
 10
-7.02951
 20
6.54415
 30
0.0
 10
-6.98051
 20
6.7165
 30
0.0
 10
-7.20181
 20
6.81678
 30
0.0
 10
-6.7567
 20
6.98608
 30
0.0
 10
-6.7567
 20
6.98608
 30
0.0
 10
-6.7567
 20
6.98608
 30
0.0
 10
-6.08897
 20
7.42018
 30
0.0
 10
-6.08897
 20
7.42018
 30
0.0
 10
-6.08897
 20
7.42018
 30
0.0
 10
-6.07176
 20
7.56968
 30
0.0
 10
-5.97456
 20
7.68927
 30
0.0
 10
-5.79747
 20
7.77891
 30
0.0
  0
ENDSEC
  0
SECTION
  2
OBJECTS
  0
DICTIONARY
  5
C
330
0
100
AcDbDictionary
281
     1
  3
ACAD_GROUP
350
D
  3
ACAD_LAYOUT
350
1A
  3
ACAD_MATERIAL
350
3B
  3
ACAD_MLEADERSTYLE
350
50
  3
ACAD_MLINESTYLE
350
17
  3
ACAD_PLOTSETTINGS
350
19
  3
ACAD_PLOTSTYLENAME
350
E
  3
ACAD_VISUALSTYLE
350
2A
  3
AcDbVariableDictionary
350
4E
  0
DICTIONARY
  5
D
102
{ACAD_REACTORS
330
C
102
}
330
C
100
AcDbDictionary
281
     1
  0
DICTIONARY
  5
1A
102
{ACAD_REACTORS
330
C
102
}
330
C
100
AcDbDictionary
281
     1
  3
Layout1
350
1E
  3
Layout2
350
26
  3
Model
350
22
  0
DICTIONARY
  5
3B
102
{ACAD_REACTORS
330
C
102
}
330
C
100
AcDbDictionary
281
     1
  3
ByBlock
350
3D
  3
ByLayer
350
3C
  3
Global
350
3E
  0
DICTIONARY
  5
50
102
{ACAD_REACTORS
330
C
102
}
330
C
100
AcDbDictionary
281
     1
  0
DICTIONARY
  5
17
102
{ACAD_REACTORS
330
C
102
}
330
C
100
AcDbDictionary
281
     1
  3
Standard
350
18
  0
DICTIONARY
  5
19
102
{ACAD_REACTORS
330
C
102
}
330
C
100
AcDbDictionary
281
     1
  0
ACDBDICTIONARYWDFLT
  5
E
102
{ACAD_REACTORS
330
C
102
}
330
C
100
AcDbDictionary
281
     1
  3
Normal
350
F
100
AcDbDictionaryWithDefault
340
F
  0
DICTIONARY
  5
2A
102
{ACAD_REACTORS
330
C
102
}
330
C
100
AcDbDictionary
281
     1
  3
2dWireframe
350
2F
  3
3D Hidden
350
31
  3
3dWireframe
350
30
  3
Basic
350
32
  3
Brighten
350
36
  3
ColorChange
350
3A
  3
Conceptual
350
34
  3
Dim
350
35
  3
Facepattern
350
39
  3
Flat
350
2B
  3
FlatWithEdges
350
2C
  3
Gouraud
350
2D
  3
GouraudWithEdges
350
2E
  3
Linepattern
350
38
  3
Realistic
350
33
  3
Thicken
350
37
  0
DICTIONARY
  5
4E
102
{ACAD_REACTORS
330
C
102
}
330
C
100
AcDbDictionary
281
     1
  3
DIMASSOC
350
51
  3
HIDETEXT
350
52
  0
LAYOUT
  5
1E
102
{ACAD_REACTORS
330
1A
102
}
330
1A
100
AcDbPlotSettings
  1

  2
none_device
  4

  6

 40
0.0
 41
0.0
 42
0.0
 43
0.0
 44
0.0
 45
0.0
 46
0.0
 47
0.0
 48
0.0
 49
0.0
140
0.0
141
0.0
142
1.0
143
1.0
 70
   688
 72
     0
 73
     0
 74
     5
  7

 75
    16
147
1.0
148
0.0
149
0.0
100
AcDbLayout
  1
Layout1
 70
     1
 71
     1
 10
0.0
 20
0.0
 11
12.0
 21
9.0
 12
0.0
 22
0.0
 32
0.0
 14
1.000000000000000E 20
 24
1.000000000000000E 20
 34
1.000000000000000E 20
 15
-1.000000000000000E 20
 25
-1.000000000000000E 20
 35
-1.000000000000000E 20
146
0.0
 13
0.0
 23
0.0
 33
0.0
 16
1.0
 26
0.0
 36
0.0
 17
0.0
 27
1.0
 37
0.0
 76
     0
330
1B
  0
LAYOUT
  5
26
102
{ACAD_REACTORS
330
1A
102
}
330
1A
100
AcDbPlotSettings
  1

  2
none_device
  4

  6

 40
0.0
 41
0.0
 42
0.0
 43
0.0
 44
0.0
 45
0.0
 46
0.0
 47
0.0
 48
0.0
 49
0.0
140
0.0
141
0.0
142
1.0
143
1.0
 70
   688
 72
     0
 73
     0
 74
     5
  7

 75
    16
147
1.0
148
0.0
149
0.0
100
AcDbLayout
  1
Layout2
 70
     1
 71
     2
 10
0.0
 20
0.0
 11
0.0
 21
0.0
 12
0.0
 22
0.0
 32
0.0
 14
0.0
 24
0.0
 34
0.0
 15
0.0
 25
0.0
 35
0.0
146
0.0
 13
0.0
 23
0.0
 33
0.0
 16
1.0
 26
0.0
 36
0.0
 17
0.0
 27
1.0
 37
0.0
 76
     0
330
23
  0
LAYOUT
  5
22
102
{ACAD_REACTORS
330
1A
102
}
330
1A
100
AcDbPlotSettings
  1

  2
none_device
  4

  6

 40
0.0
 41
0.0
 42
0.0
 43
0.0
 44
0.0
 45
0.0
 46
0.0
 47
0.0
 48
0.0
 49
0.0
140
0.0
141
0.0
142
1.0
143
1.0
 70
  1712
 72
     0
 73
     0
 74
     0
  7

 75
     0
147
1.0
148
0.0
149
0.0
100
AcDbLayout
  1
Model
 70
     1
 71
     0
 10
0.0
 20
0.0
 11
12.0
 21
9.0
 12
0.0
 22
0.0
 32
0.0
 14
-9.66647
 24
-9.95651
 34
0.0
 15
9.66642
 25
9.95658
 35
0.0
146
0.0
 13
0.0
 23
0.0
 33
0.0
 16
1.0
 26
0.0
 36
0.0
 17
0.0
 27
1.0
 37
0.0
 76
     0
330
1F
331
29
  0
MATERIAL
  5
3D
102
{ACAD_REACTORS
330
3B
102
}
102
{ACAD_XDICTIONARY
360
75
102
}
330
3B
100
AcDbMaterial
  1
ByBlock
  0
MATERIAL
  5
3C
102
{ACAD_REACTORS
330
3B
102
}
102
{ACAD_XDICTIONARY
360
73
102
}
330
3B
100
AcDbMaterial
  1
ByLayer
  0
MATERIAL
  5
3E
102
{ACAD_REACTORS
330
3B
102
}
102
{ACAD_XDICTIONARY
360
77
102
}
330
3B
100
AcDbMaterial
  1
Global
  0
MLINESTYLE
  5
18
102
{ACAD_REACTORS
330
17
102
}
330
17
100
AcDbMlineStyle
  2
Standard
 70
     0
  3

 62
   256
 51
90.0
 52
90.0
 71
     2
 49
0.5
 62
   256
  6
BYLAYER
 49
-0.5
 62
   256
  6
BYLAYER
  0
ACDBPLACEHOLDER
  5
F
102
{ACAD_REACTORS
330
E
102
}
330
E
  0
VISUALSTYLE
  5
2F
102
{ACAD_REACTORS
330
2A
102
}
102
{ACAD_XDICTIONARY
360
5B
102
}
330
2A
100
AcDbVisualStyle
  2
2dWireframe
 70
     4
 71
     0
 72
     2
 73
     0
 90
        0
 40
-0.6
 41
-30.0
 62
     5
 63
     7
 74
     1
 91
        4
 64
     7
 65
   257
 75
     1
175
     1
 42
1.0
 92
        0
 66
   257
 43
1.0
 76
     1
 77
     6
 78
     2
 67
     7
 79
     5
170
     0
171
     0
290
     0
174
     0
 93
        1
 44
0.0
173
     0
291
     0
 45
0.0
1001
ACAD
1000
AcDbSavedByObjectVersion
1070
     0
  0
VISUALSTYLE
  5
31
102
{ACAD_REACTORS
330
2A
102
}
102
{ACAD_XDICTIONARY
360
5F
102
}
330
2A
100
AcDbVisualStyle
  2
3D Hidden
 70
     6
 71
     1
 72
     2
 73
     2
 90
        0
 40
-0.6
 41
-30.0
 62
     5
 63
     7
 74
     2
 91
        2
 64
     7
 65
   257
 75
     2
175
     1
 42
40.0
 92
        0
 66
   257
 43
1.0
 76
     1
 77
     6
 78
     2
 67
     7
 79
     3
170
     0
171
     0
290
     0
174
     0
 93
        1
 44
0.0
173
     0
291
     0
 45
0.0
1001
ACAD
1000
AcDbSavedByObjectVersion
1070
     0
  0
VISUALSTYLE
  5
30
102
{ACAD_REACTORS
330
2A
102
}
102
{ACAD_XDICTIONARY
360
5D
102
}
330
2A
100
AcDbVisualStyle
  2
3dWireframe
 70
     5
 71
     0
 72
     2
 73
     0
 90
        0
 40
-0.6
 41
-30.0
 62
     5
 63
     7
 74
     1
 91
        4
 64
     7
 65
   257
 75
     1
175
     1
 42
1.0
 92
        0
 66
   257
 43
1.0
 76
     1
 77
     6
 78
     2
 67
     7
 79
     5
170
     0
171
     0
290
     0
174
     0
 93
        1
 44
0.0
173
     0
291
     0
 45
0.0
1001
ACAD
1000
AcDbSavedByObjectVersion
1070
     0
  0
VISUALSTYLE
  5
32
102
{ACAD_REACTORS
330
2A
102
}
102
{ACAD_XDICTIONARY
360
61
102
}
330
2A
100
AcDbVisualStyle
  2
Basic
 70
     7
 71
     1
 72
     0
 73
     1
 90
        0
 40
-0.6
 41
-30.0
 62
     5
 63
     7
 74
     0
 91
        4
 64
     7
 65
   257
 75
     1
175
     1
 42
1.0
 92
        8
 66
     7
 43
1.0
 76
     1
 77
     6
 78
     2
 67
     7
 79
     5
170
     0
171
     0
290
     0
174
     0
 93
        1
 44
0.0
173
     0
291
     1
 45
0.0
1001
ACAD
1000
AcDbSavedByObjectVersion
1070
     0
  0
VISUALSTYLE
  5
36
102
{ACAD_REACTORS
330
2A
102
}
102
{ACAD_XDICTIONARY
360
69
102
}
330
2A
100
AcDbVisualStyle
  2
Brighten
 70
    12
 71
     2
 72
     2
 73
     0
 90
        0
 40
-0.6
 41
-30.0
 62
     5
 63
     7
 74
     1
 91
        4
 64
     7
 65
   257
 75
     1
175
     1
 42
1.0
 92
        8
 66
     7
 43
1.0
 76
     1
 77
     6
 78
     2
 67
     7
 79
     5
170
     0
171
     0
290
     0
174
     0
 93
        1
 44
50.0
173
     0
291
     1
 45
0.0
1001
ACAD
1000
AcDbSavedByObjectVersion
1070
     0
  0
VISUALSTYLE
  5
3A
102
{ACAD_REACTORS
330
2A
102
}
102
{ACAD_XDICTIONARY
360
71
102
}
330
2A
100
AcDbVisualStyle
  2
ColorChange
 70
    16
 71
     2
 72
     2
 73
     3
 90
        0
 40
-0.6
 41
-30.0
 62
     5
 63
     8
 74
     1
 91
        4
 64
     7
 65
   257
 75
     1
175
     1
 42
1.0
 92
        8
 66
     8
 43
1.0
 76
     1
 77
     6
 78
     2
 67
     7
 79
     5
170
     0
171
     0
290
     0
174
     0
 93
        1
 44
0.0
173
     0
291
     1
 45
0.0
1001
ACAD
1000
AcDbSavedByObjectVersion
1070
     0
  0
VISUALSTYLE
  5
34
102
{ACAD_REACTORS
330
2A
102
}
102
{ACAD_XDICTIONARY
360
65
102
}
330
2A
100
AcDbVisualStyle
  2
Conceptual
 70
     9
 71
     3
 72
     2
 73
     0
 90
        0
 40
-0.6
 41
-30.0
 62
     5
 63
     7
 74
     2
 91
        2
 64
     7
 65
   257
 75
     1
175
     1
 42
40.0
 92
        8
 66
     7
 43
1.0
 76
     1
 77
     6
 78
     2
 67
     7
 79
     3
170
     0
171
     0
290
     0
174
     0
 93
        1
 44
0.0
173
     0
291
     0
 45
0.0
1001
ACAD
1000
AcDbSavedByObjectVersion
1070
     0
  0
VISUALSTYLE
  5
35
102
{ACAD_REACTORS
330
2A
102
}
102
{ACAD_XDICTIONARY
360
67
102
}
330
2A
100
AcDbVisualStyle
  2
Dim
 70
    11
 71
     2
 72
     2
 73
     0
 90
        0
 40
-0.6
 41
-30.0
 62
     5
 63
     7
 74
     1
 91
        4
 64
     7
 65
   257
 75
     1
175
     1
 42
1.0
 92
        8
 66
     7
 43
1.0
 76
     1
 77
     6
 78
     2
 67
     7
 79
     5
170
     0
171
     0
290
     0
174
     0
 93
        1
 44
-50.0
173
     0
291
     1
 45
0.0
1001
ACAD
1000
AcDbSavedByObjectVersion
1070
     0
  0
VISUALSTYLE
  5
39
102
{ACAD_REACTORS
330
2A
102
}
102
{ACAD_XDICTIONARY
360
6F
102
}
330
2A
100
AcDbVisualStyle
  2
Facepattern
 70
    15
 71
     2
 72
     2
 73
     0
 90
        0
 40
-0.6
 41
-30.0
 62
     5
 63
     7
 74
     1
 91
        4
 64
     7
 65
   257
 75
     1
175
     1
 42
1.0
 92
        8
 66
     7
 43
1.0
 76
     1
 77
     6
 78
     2
 67
     7
 79
     5
170
     0
171
     0
290
     0
174
     0
 93
        1
 44
0.0
173
     0
291
     1
 45
0.0
1001
ACAD
1000
AcDbSavedByObjectVersion
1070
     0
  0
VISUALSTYLE
  5
2B
102
{ACAD_REACTORS
330
2A
102
}
102
{ACAD_XDICTIONARY
360
53
102
}
330
2A
100
AcDbVisualStyle
  2
Flat
 70
     0
 71
     2
 72
     1
 73
     1
 90
        2
 40
-0.6
 41
30.0
 62
     5
 63
     7
 74
     0
 91
        4
 64
     7
 65
   257
 75
     1
175
     1
 42
1.0
 92
        8
 66
     7
 43
1.0
 76
     1
 77
     6
 78
     2
 67
     7
 79
     5
170
     0
171
     0
290
     0
174
     0
 93
       13
 44
0.0
173
     0
291
     1
 45
0.0
1001
ACAD
1000
AcDbSavedByObjectVersion
1070
     0
  0
VISUALSTYLE
  5
2C
102
{ACAD_REACTORS
330
2A
102
}
102
{ACAD_XDICTIONARY
360
55
102
}
330
2A
100
AcDbVisualStyle
  2
FlatWithEdges
 70
     1
 71
     2
 72
     1
 73
     1
 90
        2
 40
-0.6
 41
30.0
 62
     5
 63
     7
 74
     1
 91
        4
 64
     7
 65
   257
 75
     1
175
     1
 42
1.0
 92
        0
 66
   257
 43
1.0
 76
     1
 77
     6
 78
     2
 67
     7
 79
     5
170
     0
171
     0
290
     0
174
     0
 93
       13
 44
0.0
173
     0
291
     1
 45
0.0
1001
ACAD
1000
AcDbSavedByObjectVersion
1070
     0
  0
VISUALSTYLE
  5
2D
102
{ACAD_REACTORS
330
2A
102
}
102
{ACAD_XDICTIONARY
360
57
102
}
330
2A
100
AcDbVisualStyle
  2
Gouraud
 70
     2
 71
     2
 72
     2
 73
     1
 90
        2
 40
-0.6
 41
30.0
 62
     5
 63
     7
 74
     0
 91
        4
 64
     7
 65
   257
 75
     1
175
     1
 42
1.0
 92
        0
 66
     7
 43
1.0
 76
     1
 77
     6
 78
     2
 67
     7
 79
     5
170
     0
171
     0
290
     0
174
     0
 93
       13
 44
0.0
173
     0
291
     1
 45
0.0
1001
ACAD
1000
AcDbSavedByObjectVersion
1070
     0
  0
VISUALSTYLE
  5
2E
102
{ACAD_REACTORS
330
2A
102
}
102
{ACAD_XDICTIONARY
360
59
102
}
330
2A
100
AcDbVisualStyle
  2
GouraudWithEdges
 70
     3
 71
     2
 72
     2
 73
     1
 90
        2
 40
-0.6
 41
30.0
 62
     5
 63
     7
 74
     1
 91
        4
 64
     7
 65
   257
 75
     1
175
     1
 42
1.0
 92
        0
 66
   257
 43
1.0
 76
     1
 77
     6
 78
     2
 67
     7
 79
     5
170
     0
171
     0
290
     0
174
     0
 93
       13
 44
0.0
173
     0
291
     1
 45
0.0
1001
ACAD
1000
AcDbSavedByObjectVersion
1070
     0
  0
VISUALSTYLE
  5
38
102
{ACAD_REACTORS
330
2A
102
}
102
{ACAD_XDICTIONARY
360
6D
102
}
330
2A
100
AcDbVisualStyle
  2
Linepattern
 70
    14
 71
     2
 72
     2
 73
     0
 90
        0
 40
-0.6
 41
-30.0
 62
     5
 63
     7
 74
     1
 91
        4
 64
     7
 65
   257
 75
     7
175
     7
 42
1.0
 92
        8
 66
     7
 43
1.0
 76
     1
 77
     6
 78
     2
 67
     7
 79
     5
170
     0
171
     0
290
     0
174
     0
 93
        1
 44
0.0
173
     0
291
     1
 45
0.0
1001
ACAD
1000
AcDbSavedByObjectVersion
1070
     0
  0
VISUALSTYLE
  5
33
102
{ACAD_REACTORS
330
2A
102
}
102
{ACAD_XDICTIONARY
360
63
102
}
330
2A
100
AcDbVisualStyle
  2
Realistic
 70
     8
 71
     2
 72
     2
 73
     0
 90
        0
 40
-0.6
 41
-30.0
 62
     5
 63
     7
 74
     1
 91
        0
 64
     7
 65
   257
 75
     1
175
     1
 42
1.0
 92
        8
 66
     8
 43
1.0
 76
     1
 77
     6
 78
     2
 67
     7
 79
     5
170
     0
171
     0
290
     0
174
     0
 93
       13
 44
0.0
173
     0
291
     0
 45
0.0
1001
ACAD
1000
AcDbSavedByObjectVersion
1070
     0
  0
VISUALSTYLE
  5
37
102
{ACAD_REACTORS
330
2A
102
}
102
{ACAD_XDICTIONARY
360
6B
102
}
330
2A
100
AcDbVisualStyle
  2
Thicken
 70
    13
 71
     2
 72
     2
 73
     0
 90
        0
 40
-0.6
 41
-30.0
 62
     5
 63
     7
 74
     1
 91
        4
 64
     7
 65
   257
 75
     1
175
     1
 42
1.0
 92
       12
 66
     7
 43
1.0
 76
     1
 77
     6
 78
     2
 67
     7
 79
     5
170
     0
171
     0
290
     0
174
     0
 93
        1
 44
0.0
173
     0
291
     1
 45
0.0
1001
ACAD
1000
AcDbSavedByObjectVersion
1070
     0
  0
DICTIONARYVAR
  5
51
102
{ACAD_REACTORS
330
4E
102
}
330
4E
100
DictionaryVariables
280
     0
  1
2
  0
DICTIONARYVAR
  5
52
102
{ACAD_REACTORS
330
4E
102
}
330
4E
100
DictionaryVariables
280
     0
  1
1
  0
DICTIONARY
  5
75
330
3D
100
AcDbDictionary
280
     1
281
     1
  3
ACAD_XREC_ROUNDTRIP
360
76
  0
DICTIONARY
  5
73
330
3C
100
AcDbDictionary
280
     1
281
     1
  3
ACAD_XREC_ROUNDTRIP
360
74
  0
DICTIONARY
  5
77
330
3E
100
AcDbDictionary
280
     1
281
     1
  3
ACAD_XREC_ROUNDTRIP
360
78
  0
DICTIONARY
  5
5B
330
2F
100
AcDbDictionary
280
     1
281
     1
  3
ACAD_XREC_ROUNDTRIP
360
5C
  0
DICTIONARY
  5
5F
330
31
100
AcDbDictionary
280
     1
281
     1
  3
ACAD_XREC_ROUNDTRIP
360
60
  0
DICTIONARY
  5
5D
330
30
100
AcDbDictionary
280
     1
281
     1
  3
ACAD_XREC_ROUNDTRIP
360
5E
  0
DICTIONARY
  5
61
330
32
100
AcDbDictionary
280
     1
281
     1
  3
ACAD_XREC_ROUNDTRIP
360
62
  0
DICTIONARY
  5
69
330
36
100
AcDbDictionary
280
     1
281
     1
  3
ACAD_XREC_ROUNDTRIP
360
6A
  0
DICTIONARY
  5
71
330
3A
100
AcDbDictionary
280
     1
281
     1
  3
ACAD_XREC_ROUNDTRIP
360
72
  0
DICTIONARY
  5
65
330
34
100
AcDbDictionary
280
     1
281
     1
  3
ACAD_XREC_ROUNDTRIP
360
66
  0
DICTIONARY
  5
67
330
35
100
AcDbDictionary
280
     1
281
     1
  3
ACAD_XREC_ROUNDTRIP
360
68
  0
DICTIONARY
  5
6F
330
39
100
AcDbDictionary
280
     1
281
     1
  3
ACAD_XREC_ROUNDTRIP
360
70
  0
DICTIONARY
  5
53
330
2B
100
AcDbDictionary
280
     1
281
     1
  3
ACAD_XREC_ROUNDTRIP
360
54
  0
DICTIONARY
  5
55
330
2C
100
AcDbDictionary
280
     1
281
     1
  3
ACAD_XREC_ROUNDTRIP
360
56
  0
DICTIONARY
  5
57
330
2D
100
AcDbDictionary
280
     1
281
     1
  3
ACAD_XREC_ROUNDTRIP
360
58
  0
DICTIONARY
  5
59
330
2E
100
AcDbDictionary
280
     1
281
     1
  3
ACAD_XREC_ROUNDTRIP
360
5A
  0
DICTIONARY
  5
6D
330
38
100
AcDbDictionary
280
     1
281
     1
  3
ACAD_XREC_ROUNDTRIP
360
6E
  0
DICTIONARY
  5
63
330
33
100
AcDbDictionary
280
     1
281
     1
  3
ACAD_XREC_ROUNDTRIP
360
64
  0
DICTIONARY
  5
6B
330
37
100
AcDbDictionary
280
     1
281
     1
  3
ACAD_XREC_ROUNDTRIP
360
6C
  0
XRECORD
  5
76
102
{ACAD_REACTORS
330
75
102
}
330
75
100
AcDbXrecord
280
     1
102
MATERIAL
148
0.0
149
0.0
149
0.0
 93
        0
 94
      127
282
     0
 72
     1
 77
     1
171
     1
175
     1
179
     1
273
     0
  0
XRECORD
  5
74
102
{ACAD_REACTORS
330
73
102
}
330
73
100
AcDbXrecord
280
     1
102
MATERIAL
148
0.0
149
0.0
149
0.0
 93
        0
 94
      127
282
     0
 72
     1
 77
     1
171
     1
175
     1
179
     1
273
     0
  0
XRECORD
  5
78
102
{ACAD_REACTORS
330
77
102
}
330
77
100
AcDbXrecord
280
     1
102
MATERIAL
148
0.0
149
0.0
149
0.0
 93
        0
 94
      127
282
     0
 72
     1
 77
     1
171
     1
175
     1
179
     1
273
     0
  0
XRECORD
  5
5C
102
{ACAD_REACTORS
330
5B
102
}
330
5B
100
AcDbXrecord
280
     1
102
RTVSPropertyOp0
 70
     1
102
RTVSPropertyOp1
 70
     1
102
RTVSPropertyOp2
 70
     1
102
RTVSPropertyOp3
 70
     1
102
RTVSPropertyOp4
 70
     1
102
RTVSPropertyOp5
 70
     1
102
RTVSPropertyOp6
 70
     1
102
RTVSPropertyOp7
 70
     1
102
RTVSPropertyOp8
 70
     1
102
RTVSPropertyOp9
 70
     1
102
RTVSPropertyOp10
 70
     1
102
RTVSPropertyOp11
 70
     1
102
RTVSPropertyOp12
 70
     1
102
RTVSPropertyOp13
 70
     1
102
RTVSPropertyOp14
 70
     1
102
RTVSPropertyOp15
 70
     1
102
RTVSPropertyOp16
 70
     1
102
RTVSPropertyOp17
 70
     1
102
RTVSPropertyOp18
 70
     1
102
RTVSPropertyOp19
 70
     1
102
RTVSPropertyOp20
 70
     1
102
RTVSPropertyOp21
 70
     1
102
RTVSPropertyOp22
 70
     1
102
RTVSPropertyOp23
 70
     1
102
RTVSPropertyOp24
 70
     1
102
RTVSPropertyOp25
 70
     1
102
RTVSPropertyOp26
 70
     1
102
RTVSPropertyOp27
 70
     1
102
RTVSPropertyOp28
 70
     1
102
RTVSPropertyOp29
 70
     1
102
RTVSPropertyOp30
 70
     1
102
RTVSPropertyOp31
 70
     1
102
RTVSPropertyOp32
 70
     1
  0
XRECORD
  5
60
102
{ACAD_REACTORS
330
5F
102
}
330
5F
100
AcDbXrecord
280
     1
102
RTVSPropertyOp0
 70
     1
102
RTVSPropertyOp1
 70
     1
102
RTVSPropertyOp2
 70
     1
102
RTVSPropertyOp3
 70
     1
102
RTVSPropertyOp4
 70
     1
102
RTVSPropertyOp5
 70
     1
102
RTVSPropertyOp6
 70
     1
102
RTVSPropertyOp7
 70
     1
102
RTVSPropertyOp8
 70
     1
102
RTVSPropertyOp9
 70
     1
102
RTVSPropertyOp10
 70
     1
102
RTVSPropertyOp11
 70
     1
102
RTVSPropertyOp12
 70
     1
102
RTVSPropertyOp13
 70
     1
102
RTVSPropertyOp14
 70
     1
102
RTVSPropertyOp15
 70
     1
102
RTVSPropertyOp16
 70
     1
102
RTVSPropertyOp17
 70
     1
102
RTVSPropertyOp18
 70
     1
102
RTVSPropertyOp19
 70
     1
102
RTVSPropertyOp20
 70
     1
102
RTVSPropertyOp21
 70
     1
102
RTVSPropertyOp22
 70
     1
102
RTVSPropertyOp23
 70
     1
102
RTVSPropertyOp24
 70
     1
102
RTVSPropertyOp25
 70
     1
102
RTVSPropertyOp26
 70
     1
102
RTVSPropertyOp27
 70
     1
102
RTVSPropertyOp28
 70
     1
102
RTVSPropertyOp29
 70
     1
102
RTVSPropertyOp30
 70
     1
102
RTVSPropertyOp31
 70
     1
102
RTVSPropertyOp32
 70
     1
  0
XRECORD
  5
5E
102
{ACAD_REACTORS
330
5D
102
}
330
5D
100
AcDbXrecord
280
     1
102
RTVSPropertyOp0
 70
     1
102
RTVSPropertyOp1
 70
     1
102
RTVSPropertyOp2
 70
     1
102
RTVSPropertyOp3
 70
     1
102
RTVSPropertyOp4
 70
     1
102
RTVSPropertyOp5
 70
     1
102
RTVSPropertyOp6
 70
     1
102
RTVSPropertyOp7
 70
     1
102
RTVSPropertyOp8
 70
     1
102
RTVSPropertyOp9
 70
     1
102
RTVSPropertyOp10
 70
     1
102
RTVSPropertyOp11
 70
     1
102
RTVSPropertyOp12
 70
     1
102
RTVSPropertyOp13
 70
     1
102
RTVSPropertyOp14
 70
     1
102
RTVSPropertyOp15
 70
     1
102
RTVSPropertyOp16
 70
     1
102
RTVSPropertyOp17
 70
     1
102
RTVSPropertyOp18
 70
     1
102
RTVSPropertyOp19
 70
     1
102
RTVSPropertyOp20
 70
     1
102
RTVSPropertyOp21
 70
     1
102
RTVSPropertyOp22
 70
     1
102
RTVSPropertyOp23
 70
     1
102
RTVSPropertyOp24
 70
     1
102
RTVSPropertyOp25
 70
     1
102
RTVSPropertyOp26
 70
     1
102
RTVSPropertyOp27
 70
     1
102
RTVSPropertyOp28
 70
     1
102
RTVSPropertyOp29
 70
     1
102
RTVSPropertyOp30
 70
     1
102
RTVSPropertyOp31
 70
     1
102
RTVSPropertyOp32
 70
     1
  0
XRECORD
  5
62
102
{ACAD_REACTORS
330
61
102
}
330
61
100
AcDbXrecord
280
     1
102
RTVSPropertyOp0
 70
     1
102
RTVSPropertyOp1
 70
     1
102
RTVSPropertyOp2
 70
     1
102
RTVSPropertyOp3
 70
     1
102
RTVSPropertyOp4
 70
     1
102
RTVSPropertyOp5
 70
     1
102
RTVSPropertyOp6
 70
     1
102
RTVSPropertyOp7
 70
     1
102
RTVSPropertyOp8
 70
     1
102
RTVSPropertyOp9
 70
     1
102
RTVSPropertyOp10
 70
     1
102
RTVSPropertyOp11
 70
     1
102
RTVSPropertyOp12
 70
     1
102
RTVSPropertyOp13
 70
     1
102
RTVSPropertyOp14
 70
     1
102
RTVSPropertyOp15
 70
     1
102
RTVSPropertyOp16
 70
     1
102
RTVSPropertyOp17
 70
     1
102
RTVSPropertyOp18
 70
     1
102
RTVSPropertyOp19
 70
     1
102
RTVSPropertyOp20
 70
     1
102
RTVSPropertyOp21
 70
     1
102
RTVSPropertyOp22
 70
     1
102
RTVSPropertyOp23
 70
     1
102
RTVSPropertyOp24
 70
     1
102
RTVSPropertyOp25
 70
     1
102
RTVSPropertyOp26
 70
     1
102
RTVSPropertyOp27
 70
     1
102
RTVSPropertyOp28
 70
     1
102
RTVSPropertyOp29
 70
     1
102
RTVSPropertyOp30
 70
     1
102
RTVSPropertyOp31
 70
     1
102
RTVSPropertyOp32
 70
     1
  0
XRECORD
  5
6A
102
{ACAD_REACTORS
330
69
102
}
330
69
100
AcDbXrecord
280
     1
102
RTVSPropertyOp0
 70
     1
102
RTVSPropertyOp1
 70
     1
102
RTVSPropertyOp2
 70
     1
102
RTVSPropertyOp3
 70
     1
102
RTVSPropertyOp4
 70
     1
102
RTVSPropertyOp5
 70
     1
102
RTVSPropertyOp6
 70
     1
102
RTVSPropertyOp7
 70
     1
102
RTVSPropertyOp8
 70
     1
102
RTVSPropertyOp9
 70
     1
102
RTVSPropertyOp10
 70
     1
102
RTVSPropertyOp11
 70
     1
102
RTVSPropertyOp12
 70
     1
102
RTVSPropertyOp13
 70
     1
102
RTVSPropertyOp14
 70
     1
102
RTVSPropertyOp15
 70
     1
102
RTVSPropertyOp16
 70
     1
102
RTVSPropertyOp17
 70
     1
102
RTVSPropertyOp18
 70
     1
102
RTVSPropertyOp19
 70
     1
102
RTVSPropertyOp20
 70
     1
102
RTVSPropertyOp21
 70
     1
102
RTVSPropertyOp22
 70
     1
102
RTVSPropertyOp23
 70
     1
102
RTVSPropertyOp24
 70
     1
102
RTVSPropertyOp25
 70
     1
102
RTVSPropertyOp26
 70
     1
102
RTVSPropertyOp27
 70
     1
102
RTVSPropertyOp28
 70
     1
102
RTVSPropertyOp29
 70
     1
102
RTVSPropertyOp30
 70
     1
102
RTVSPropertyOp31
 70
     1
102
RTVSPropertyOp32
 70
     1
  0
XRECORD
  5
72
102
{ACAD_REACTORS
330
71
102
}
330
71
100
AcDbXrecord
280
     1
102
RTVSPropertyOp0
 70
     1
102
RTVSPropertyOp1
 70
     1
102
RTVSPropertyOp2
 70
     1
102
RTVSPropertyOp3
 70
     1
102
RTVSPropertyOp4
 70
     1
102
RTVSPropertyOp5
 70
     1
102
RTVSPropertyOp6
 70
     1
102
RTVSPropertyOp7
 70
     1
102
RTVSPropertyOp8
 70
     1
102
RTVSPropertyOp9
 70
     1
102
RTVSPropertyOp10
 70
     1
102
RTVSPropertyOp11
 70
     1
102
RTVSPropertyOp12
 70
     1
102
RTVSPropertyOp13
 70
     1
102
RTVSPropertyOp14
 70
     1
102
RTVSPropertyOp15
 70
     1
102
RTVSPropertyOp16
 70
     1
102
RTVSPropertyOp17
 70
     1
102
RTVSPropertyOp18
 70
     1
102
RTVSPropertyOp19
 70
     1
102
RTVSPropertyOp20
 70
     1
102
RTVSPropertyOp21
 70
     1
102
RTVSPropertyOp22
 70
     1
102
RTVSPropertyOp23
 70
     1
102
RTVSPropertyOp24
 70
     1
102
RTVSPropertyOp25
 70
     1
102
RTVSPropertyOp26
 70
     1
102
RTVSPropertyOp27
 70
     1
102
RTVSPropertyOp28
 70
     1
102
RTVSPropertyOp29
 70
     1
102
RTVSPropertyOp30
 70
     1
102
RTVSPropertyOp31
 70
     1
102
RTVSPropertyOp32
 70
     1
  0
XRECORD
  5
66
102
{ACAD_REACTORS
330
65
102
}
330
65
100
AcDbXrecord
280
     1
102
RTVSPropertyOp0
 70
     1
102
RTVSPropertyOp1
 70
     1
102
RTVSPropertyOp2
 70
     1
102
RTVSPropertyOp3
 70
     1
102
RTVSPropertyOp4
 70
     1
102
RTVSPropertyOp5
 70
     1
102
RTVSPropertyOp6
 70
     1
102
RTVSPropertyOp7
 70
     1
102
RTVSPropertyOp8
 70
     1
102
RTVSPropertyOp9
 70
     1
102
RTVSPropertyOp10
 70
     1
102
RTVSPropertyOp11
 70
     1
102
RTVSPropertyOp12
 70
     1
102
RTVSPropertyOp13
 70
     1
102
RTVSPropertyOp14
 70
     1
102
RTVSPropertyOp15
 70
     1
102
RTVSPropertyOp16
 70
     1
102
RTVSPropertyOp17
 70
     1
102
RTVSPropertyOp18
 70
     1
102
RTVSPropertyOp19
 70
     1
102
RTVSPropertyOp20
 70
     1
102
RTVSPropertyOp21
 70
     1
102
RTVSPropertyOp22
 70
     1
102
RTVSPropertyOp23
 70
     1
102
RTVSPropertyOp24
 70
     1
102
RTVSPropertyOp25
 70
     1
102
RTVSPropertyOp26
 70
     1
102
RTVSPropertyOp27
 70
     1
102
RTVSPropertyOp28
 70
     1
102
RTVSPropertyOp29
 70
     1
102
RTVSPropertyOp30
 70
     1
102
RTVSPropertyOp31
 70
     1
102
RTVSPropertyOp32
 70
     1
  0
XRECORD
  5
68
102
{ACAD_REACTORS
330
67
102
}
330
67
100
AcDbXrecord
280
     1
102
RTVSPropertyOp0
 70
     1
102
RTVSPropertyOp1
 70
     1
102
RTVSPropertyOp2
 70
     1
102
RTVSPropertyOp3
 70
     1
102
RTVSPropertyOp4
 70
     1
102
RTVSPropertyOp5
 70
     1
102
RTVSPropertyOp6
 70
     1
102
RTVSPropertyOp7
 70
     1
102
RTVSPropertyOp8
 70
     1
102
RTVSPropertyOp9
 70
     1
102
RTVSPropertyOp10
 70
     1
102
RTVSPropertyOp11
 70
     1
102
RTVSPropertyOp12
 70
     1
102
RTVSPropertyOp13
 70
     1
102
RTVSPropertyOp14
 70
     1
102
RTVSPropertyOp15
 70
     1
102
RTVSPropertyOp16
 70
     1
102
RTVSPropertyOp17
 70
     1
102
RTVSPropertyOp18
 70
     1
102
RTVSPropertyOp19
 70
     1
102
RTVSPropertyOp20
 70
     1
102
RTVSPropertyOp21
 70
     1
102
RTVSPropertyOp22
 70
     1
102
RTVSPropertyOp23
 70
     1
102
RTVSPropertyOp24
 70
     1
102
RTVSPropertyOp25
 70
     1
102
RTVSPropertyOp26
 70
     1
102
RTVSPropertyOp27
 70
     1
102
RTVSPropertyOp28
 70
     1
102
RTVSPropertyOp29
 70
     1
102
RTVSPropertyOp30
 70
     1
102
RTVSPropertyOp31
 70
     1
102
RTVSPropertyOp32
 70
     1
  0
XRECORD
  5
70
102
{ACAD_REACTORS
330
6F
102
}
330
6F
100
AcDbXrecord
280
     1
102
RTVSPropertyOp0
 70
     1
102
RTVSPropertyOp1
 70
     1
102
RTVSPropertyOp2
 70
     1
102
RTVSPropertyOp3
 70
     1
102
RTVSPropertyOp4
 70
     1
102
RTVSPropertyOp5
 70
     1
102
RTVSPropertyOp6
 70
     1
102
RTVSPropertyOp7
 70
     1
102
RTVSPropertyOp8
 70
     1
102
RTVSPropertyOp9
 70
     1
102
RTVSPropertyOp10
 70
     1
102
RTVSPropertyOp11
 70
     1
102
RTVSPropertyOp12
 70
     1
102
RTVSPropertyOp13
 70
     1
102
RTVSPropertyOp14
 70
     1
102
RTVSPropertyOp15
 70
     1
102
RTVSPropertyOp16
 70
     1
102
RTVSPropertyOp17
 70
     1
102
RTVSPropertyOp18
 70
     1
102
RTVSPropertyOp19
 70
     1
102
RTVSPropertyOp20
 70
     1
102
RTVSPropertyOp21
 70
     1
102
RTVSPropertyOp22
 70
     1
102
RTVSPropertyOp23
 70
     1
102
RTVSPropertyOp24
 70
     1
102
RTVSPropertyOp25
 70
     1
102
RTVSPropertyOp26
 70
     1
102
RTVSPropertyOp27
 70
     1
102
RTVSPropertyOp28
 70
     1
102
RTVSPropertyOp29
 70
     1
102
RTVSPropertyOp30
 70
     1
102
RTVSPropertyOp31
 70
     1
102
RTVSPropertyOp32
 70
     1
  0
XRECORD
  5
54
102
{ACAD_REACTORS
330
53
102
}
330
53
100
AcDbXrecord
280
     1
102
RTVSPropertyOp0
 70
     1
102
RTVSPropertyOp1
 70
     1
102
RTVSPropertyOp2
 70
     1
102
RTVSPropertyOp3
 70
     1
102
RTVSPropertyOp4
 70
     1
102
RTVSPropertyOp5
 70
     1
102
RTVSPropertyOp6
 70
     1
102
RTVSPropertyOp7
 70
     1
102
RTVSPropertyOp8
 70
     1
102
RTVSPropertyOp9
 70
     1
102
RTVSPropertyOp10
 70
     1
102
RTVSPropertyOp11
 70
     1
102
RTVSPropertyOp12
 70
     1
102
RTVSPropertyOp13
 70
     1
102
RTVSPropertyOp14
 70
     1
102
RTVSPropertyOp15
 70
     1
102
RTVSPropertyOp16
 70
     1
102
RTVSPropertyOp17
 70
     1
102
RTVSPropertyOp18
 70
     1
102
RTVSPropertyOp19
 70
     1
102
RTVSPropertyOp20
 70
     1
102
RTVSPropertyOp21
 70
     1
102
RTVSPropertyOp22
 70
     1
102
RTVSPropertyOp23
 70
     1
102
RTVSPropertyOp24
 70
     1
102
RTVSPropertyOp25
 70
     1
102
RTVSPropertyOp26
 70
     1
102
RTVSPropertyOp27
 70
     1
102
RTVSPropertyOp28
 70
     1
102
RTVSPropertyOp29
 70
     1
102
RTVSPropertyOp30
 70
     1
102
RTVSPropertyOp31
 70
     1
102
RTVSPropertyOp32
 70
     1
  0
XRECORD
  5
56
102
{ACAD_REACTORS
330
55
102
}
330
55
100
AcDbXrecord
280
     1
102
RTVSPropertyOp0
 70
     1
102
RTVSPropertyOp1
 70
     1
102
RTVSPropertyOp2
 70
     1
102
RTVSPropertyOp3
 70
     1
102
RTVSPropertyOp4
 70
     1
102
RTVSPropertyOp5
 70
     1
102
RTVSPropertyOp6
 70
     1
102
RTVSPropertyOp7
 70
     1
102
RTVSPropertyOp8
 70
     1
102
RTVSPropertyOp9
 70
     1
102
RTVSPropertyOp10
 70
     1
102
RTVSPropertyOp11
 70
     1
102
RTVSPropertyOp12
 70
     1
102
RTVSPropertyOp13
 70
     1
102
RTVSPropertyOp14
 70
     1
102
RTVSPropertyOp15
 70
     1
102
RTVSPropertyOp16
 70
     1
102
RTVSPropertyOp17
 70
     1
102
RTVSPropertyOp18
 70
     1
102
RTVSPropertyOp19
 70
     1
102
RTVSPropertyOp20
 70
     1
102
RTVSPropertyOp21
 70
     1
102
RTVSPropertyOp22
 70
     1
102
RTVSPropertyOp23
 70
     1
102
RTVSPropertyOp24
 70
     1
102
RTVSPropertyOp25
 70
     1
102
RTVSPropertyOp26
 70
     1
102
RTVSPropertyOp27
 70
     1
102
RTVSPropertyOp28
 70
     1
102
RTVSPropertyOp29
 70
     1
102
RTVSPropertyOp30
 70
     1
102
RTVSPropertyOp31
 70
     1
102
RTVSPropertyOp32
 70
     1
  0
XRECORD
  5
58
102
{ACAD_REACTORS
330
57
102
}
330
57
100
AcDbXrecord
280
     1
102
RTVSPropertyOp0
 70
     1
102
RTVSPropertyOp1
 70
     1
102
RTVSPropertyOp2
 70
     1
102
RTVSPropertyOp3
 70
     1
102
RTVSPropertyOp4
 70
     1
102
RTVSPropertyOp5
 70
     1
102
RTVSPropertyOp6
 70
     1
102
RTVSPropertyOp7
 70
     1
102
RTVSPropertyOp8
 70
     1
102
RTVSPropertyOp9
 70
     1
102
RTVSPropertyOp10
 70
     1
102
RTVSPropertyOp11
 70
     1
102
RTVSPropertyOp12
 70
     1
102
RTVSPropertyOp13
 70
     1
102
RTVSPropertyOp14
 70
     1
102
RTVSPropertyOp15
 70
     1
102
RTVSPropertyOp16
 70
     1
102
RTVSPropertyOp17
 70
     1
102
RTVSPropertyOp18
 70
     1
102
RTVSPropertyOp19
 70
     1
102
RTVSPropertyOp20
 70
     1
102
RTVSPropertyOp21
 70
     1
102
RTVSPropertyOp22
 70
     1
102
RTVSPropertyOp23
 70
     1
102
RTVSPropertyOp24
 70
     1
102
RTVSPropertyOp25
 70
     1
102
RTVSPropertyOp26
 70
     1
102
RTVSPropertyOp27
 70
     1
102
RTVSPropertyOp28
 70
     1
102
RTVSPropertyOp29
 70
     1
102
RTVSPropertyOp30
 70
     1
102
RTVSPropertyOp31
 70
     1
102
RTVSPropertyOp32
 70
     1
  0
XRECORD
  5
5A
102
{ACAD_REACTORS
330
59
102
}
330
59
100
AcDbXrecord
280
     1
102
RTVSPropertyOp0
 70
     1
102
RTVSPropertyOp1
 70
     1
102
RTVSPropertyOp2
 70
     1
102
RTVSPropertyOp3
 70
     1
102
RTVSPropertyOp4
 70
     1
102
RTVSPropertyOp5
 70
     1
102
RTVSPropertyOp6
 70
     1
102
RTVSPropertyOp7
 70
     1
102
RTVSPropertyOp8
 70
     1
102
RTVSPropertyOp9
 70
     1
102
RTVSPropertyOp10
 70
     1
102
RTVSPropertyOp11
 70
     1
102
RTVSPropertyOp12
 70
     1
102
RTVSPropertyOp13
 70
     1
102
RTVSPropertyOp14
 70
     1
102
RTVSPropertyOp15
 70
     1
102
RTVSPropertyOp16
 70
     1
102
RTVSPropertyOp17
 70
     1
102
RTVSPropertyOp18
 70
     1
102
RTVSPropertyOp19
 70
     1
102
RTVSPropertyOp20
 70
     1
102
RTVSPropertyOp21
 70
     1
102
RTVSPropertyOp22
 70
     1
102
RTVSPropertyOp23
 70
     1
102
RTVSPropertyOp24
 70
     1
102
RTVSPropertyOp25
 70
     1
102
RTVSPropertyOp26
 70
     1
102
RTVSPropertyOp27
 70
     1
102
RTVSPropertyOp28
 70
     1
102
RTVSPropertyOp29
 70
     1
102
RTVSPropertyOp30
 70
     1
102
RTVSPropertyOp31
 70
     1
102
RTVSPropertyOp32
 70
     1
  0
XRECORD
  5
6E
102
{ACAD_REACTORS
330
6D
102
}
330
6D
100
AcDbXrecord
280
     1
102
RTVSPropertyOp0
 70
     1
102
RTVSPropertyOp1
 70
     1
102
RTVSPropertyOp2
 70
     1
102
RTVSPropertyOp3
 70
     1
102
RTVSPropertyOp4
 70
     1
102
RTVSPropertyOp5
 70
     1
102
RTVSPropertyOp6
 70
     1
102
RTVSPropertyOp7
 70
     1
102
RTVSPropertyOp8
 70
     1
102
RTVSPropertyOp9
 70
     1
102
RTVSPropertyOp10
 70
     1
102
RTVSPropertyOp11
 70
     1
102
RTVSPropertyOp12
 70
     1
102
RTVSPropertyOp13
 70
     1
102
RTVSPropertyOp14
 70
     1
102
RTVSPropertyOp15
 70
     1
102
RTVSPropertyOp16
 70
     1
102
RTVSPropertyOp17
 70
     1
102
RTVSPropertyOp18
 70
     1
102
RTVSPropertyOp19
 70
     1
102
RTVSPropertyOp20
 70
     1
102
RTVSPropertyOp21
 70
     1
102
RTVSPropertyOp22
 70
     1
102
RTVSPropertyOp23
 70
     1
102
RTVSPropertyOp24
 70
     1
102
RTVSPropertyOp25
 70
     1
102
RTVSPropertyOp26
 70
     1
102
RTVSPropertyOp27
 70
     1
102
RTVSPropertyOp28
 70
     1
102
RTVSPropertyOp29
 70
     1
102
RTVSPropertyOp30
 70
     1
102
RTVSPropertyOp31
 70
     1
102
RTVSPropertyOp32
 70
     1
  0
XRECORD
  5
64
102
{ACAD_REACTORS
330
63
102
}
330
63
100
AcDbXrecord
280
     1
102
RTVSPropertyOp0
 70
     1
102
RTVSPropertyOp1
 70
     1
102
RTVSPropertyOp2
 70
     1
102
RTVSPropertyOp3
 70
     1
102
RTVSPropertyOp4
 70
     1
102
RTVSPropertyOp5
 70
     1
102
RTVSPropertyOp6
 70
     1
102
RTVSPropertyOp7
 70
     1
102
RTVSPropertyOp8
 70
     1
102
RTVSPropertyOp9
 70
     1
102
RTVSPropertyOp10
 70
     1
102
RTVSPropertyOp11
 70
     1
102
RTVSPropertyOp12
 70
     1
102
RTVSPropertyOp13
 70
     1
102
RTVSPropertyOp14
 70
     1
102
RTVSPropertyOp15
 70
     1
102
RTVSPropertyOp16
 70
     1
102
RTVSPropertyOp17
 70
     1
102
RTVSPropertyOp18
 70
     1
102
RTVSPropertyOp19
 70
     1
102
RTVSPropertyOp20
 70
     1
102
RTVSPropertyOp21
 70
     1
102
RTVSPropertyOp22
 70
     1
102
RTVSPropertyOp23
 70
     1
102
RTVSPropertyOp24
 70
     1
102
RTVSPropertyOp25
 70
     1
102
RTVSPropertyOp26
 70
     1
102
RTVSPropertyOp27
 70
     1
102
RTVSPropertyOp28
 70
     1
102
RTVSPropertyOp29
 70
     1
102
RTVSPropertyOp30
 70
     1
102
RTVSPropertyOp31
 70
     1
102
RTVSPropertyOp32
 70
     1
  0
XRECORD
  5
6C
102
{ACAD_REACTORS
330
6B
102
}
330
6B
100
AcDbXrecord
280
     1
102
RTVSPropertyOp0
 70
     1
102
RTVSPropertyOp1
 70
     1
102
RTVSPropertyOp2
 70
     1
102
RTVSPropertyOp3
 70
     1
102
RTVSPropertyOp4
 70
     1
102
RTVSPropertyOp5
 70
     1
102
RTVSPropertyOp6
 70
     1
102
RTVSPropertyOp7
 70
     1
102
RTVSPropertyOp8
 70
     1
102
RTVSPropertyOp9
 70
     1
102
RTVSPropertyOp10
 70
     1
102
RTVSPropertyOp11
 70
     1
102
RTVSPropertyOp12
 70
     1
102
RTVSPropertyOp13
 70
     1
102
RTVSPropertyOp14
 70
     1
102
RTVSPropertyOp15
 70
     1
102
RTVSPropertyOp16
 70
     1
102
RTVSPropertyOp17
 70
     1
102
RTVSPropertyOp18
 70
     1
102
RTVSPropertyOp19
 70
     1
102
RTVSPropertyOp20
 70
     1
102
RTVSPropertyOp21
 70
     1
102
RTVSPropertyOp22
 70
     1
102
RTVSPropertyOp23
 70
     1
102
RTVSPropertyOp24
 70
     1
102
RTVSPropertyOp25
 70
     1
102
RTVSPropertyOp26
 70
     1
102
RTVSPropertyOp27
 70
     1
102
RTVSPropertyOp28
 70
     1
102
RTVSPropertyOp29
 70
     1
102
RTVSPropertyOp30
 70
     1
102
RTVSPropertyOp31
 70
     1
102
RTVSPropertyOp32
 70
     1
  0
ENDSEC
  0
EOF
