  0
SECTION
  2
HEADER
  9
$ACADVER
  1
AC1014
  9
$HANDSEED
  5
FFFF
  9
$MEASUREMENT
 70
     1
  0
ENDSEC
  0
SECTION
  2
TABLES
  0
TABLE
  2
VPORT
  5
8
330
0
100
AcDbSymbolTable
 70
     4
  0
VPORT
  5
2E
330
8
100
AcDbSymbolTableRecord
100
AcDbViewportTableRecord
  2
*ACTIVE
 70
     0
 10
0.0
 20
0.0
 11
1.0
 21
1.0
 12
210.0
 22
148.5
 13
0.0
 23
0.0
 14
10.0
 24
10.0
 15
10.0
 25
10.0
 16
0.0
 26
0.0
 36
1.0
 17
0.0
 27
0.0
 37
0.0
 40
341.0
 41
1.24
 42
50.0
 43
0.0
 44
0.0
 50
0.0
 51
0.0
 71
     0
 72
   100
 73
     1
 74
     3
 75
     0
 76
     0
 77
     0
 78
     0
  0
ENDTAB
  0
TABLE
  2
LTYPE
  5
5
330
0
100
AcDbSymbolTable
 70
     1
  0
LTYPE
  5
14
330
5
100
AcDbSymbolTableRecord
100
AcDbLinetypeTableRecord
  2
BYBLOCK
 70
     0
  3

 72
    65
 73
     0
 40
0.0
  0
LTYPE
  5
15
330
5
100
AcDbSymbolTableRecord
100
AcDbLinetypeTableRecord
  2
BYLAYER
 70
     0
  3

 72
    65
 73
     0
 40
0.0
  0
LTYPE
  5
16
330
5
100
AcDbSymbolTableRecord
100
AcDbLinetypeTableRecord
  2
CONTINUOUS
 70
     0
  3
Solid line
 72
    65
 73
     0
 40
0.0
  0
ENDTAB
  0
TABLE
  2
LAYER
  5
2
100
AcDbSymbolTable
 70
1
  0
LAYER
  5
50
100
AcDbSymbolTableRecord
100
AcDbLayerTableRecord
  2
0
 70
0
  6
CONTINUOUS
  0
ENDTAB
  0
TABLE
  2
STYLE
  5
3
330
0
100
AcDbSymbolTable
 70
     1
  0
STYLE
  5
11
330
3
100
AcDbSymbolTableRecord
100
AcDbTextStyleTableRecord
  2
STANDARD
 70
     0
 40
0.0
 41
1.0
 50
0.0
 71
     0
 42
2.5
  3
txt
  4

  0
ENDTAB
  0
TABLE
  2
VIEW
  5
6
330
0
100
AcDbSymbolTable
 70
     0
  0
ENDTAB
  0
TABLE
  2
UCS
  5
7
330
0
100
AcDbSymbolTable
 70
     0
  0
ENDTAB
  0
TABLE
  2
APPID
  5
9
330
0
100
AcDbSymbolTable
 70
     2
  0
APPID
  5
12
330
9
100
AcDbSymbolTableRecord
100
AcDbRegAppTableRecord
  2
ACAD
 70
     0
  0
ENDTAB
  0
TABLE
  2
DIMSTYLE
  5
A
330
0
100
AcDbSymbolTable
 70
     1
  0
DIMSTYLE
105
27
330
A
100
AcDbSymbolTableRecord
100
AcDbDimStyleTableRecord
  2
ISO-25
 70
     0
  3

  4

  5

  6

  7

 40
1.0
 41
2.5
 42
0.625
 43
3.75
 44
1.25
 45
0.0
 46
0.0
 47
0.0
 48
0.0
140
2.5
141
2.5
142
0.0
143
0.03937007874016
144
1.0
145
0.0
146
1.0
147
0.625
 71
     0
 72
     0
 73
     0
 74
     0
 75
     0
 76
     0
 77
     1
 78
     8
170
     0
171
     3
172
     1
173
     0
174
     0
175
     0
176
     0
177
     0
178
     0
270
     2
271
     2
272
     2
273
     2
274
     3
340
11
275
     0
280
     0
281
     0
282
     0
283
     0
284
     8
285
     0
286
     0
287
     3
288
     0
  0
ENDTAB
  0
TABLE
  2
BLOCK_RECORD
  5
1
330
0
100
AcDbSymbolTable
 70
     1
  0
BLOCK_RECORD
  5
1F
330
1
100
AcDbSymbolTableRecord
100
AcDbBlockTableRecord
  2
*MODEL_SPACE
  0
BLOCK_RECORD
  5
1B
330
1
100
AcDbSymbolTableRecord
100
AcDbBlockTableRecord
  2
*PAPER_SPACE
  0
ENDTAB
  0
ENDSEC
  0
SECTION
  2
BLOCKS
  0
BLOCK
  5
20
330
1F
100
AcDbEntity
  8
0
100
AcDbBlockBegin
  2
*MODEL_SPACE
 70
     0
 10
0.0
 20
0.0
 30
0.0
  3
*MODEL_SPACE
  1

  0
ENDBLK
  5
21
330
1F
100
AcDbEntity
  8
0
100
AcDbBlockEnd
  0
BLOCK
  5
1C
330
1B
100
AcDbEntity
 67
     1
  8
0
100
AcDbBlockBegin
  2
*PAPER_SPACE
  1

  0
ENDBLK
  5
1D
330
1B
100
AcDbEntity
 67
     1
  8
0
100
AcDbBlockEnd
  0
ENDSEC
  0
SECTION
  2
ENTITIES
  0
SPLINE
  5
100
100
AcDbEntity
  8
0
 62
7
100
AcDbSpline
 70
8
 71
3
 72
8
 73
4
 74
0
 40
0
 40
0
 40
0
 40
0
 40
1
 40
1
 40
1
 40
1
 10
63.650228
 20
11.822753
 30
0.0
 10
62.709655
 20
12.075681
 30
0.0
 10
62.130382
 20
13.437701
 30
0.0
 10
61.395184
 20
17.124937
 30
0.0
  0
SPLINE
  5
101
100
AcDbEntity
  8
0
 62
7
100
AcDbSpline
 70
8
 71
3
 72
8
 73
4
 74
0
 40
0
 40
0
 40
0
 40
0
 40
1
 40
1
 40
1
 40
1
 10
61.395184
 20
17.124937
 30
0.0
 10
60.007926
 20
24.082454
 30
0.0
 10
59.890533
 20
28.676923
 30
0.0
 10
60.996341
 20
32.734734
 30
0.0
  0
SPLINE
  5
102
100
AcDbEntity
  8
0
 62
7
100
AcDbSpline
 70
8
 71
3
 72
8
 73
4
 74
0
 40
0
 40
0
 40
0
 40
0
 40
1
 40
1
 40
1
 40
1
 10
60.996341
 20
32.734734
 30
0.0
 10
61.659360
 20
35.167713
 30
0.0
 10
61.468691
 20
36.066386
 30
0.0
 10
59.829827
 20
38.232831
 30
0.0
  0
SPLINE
  5
103
100
AcDbEntity
  8
0
 62
7
100
AcDbSpline
 70
8
 71
3
 72
8
 73
4
 74
0
 40
0
 40
0
 40
0
 40
0
 40
1
 40
1
 40
1
 40
1
 10
61.555736
 20
39.844152
 30
0.0
 10
63.144270
 20
39.885297
 30
0.0
 10
65.743685
 20
39.885297
 30
0.0
 10
67.332220
 20
39.844152
 30
0.0
  0
LWPOLYLINE
  5
104
100
AcDbEntity
  8
0
 62
7
100
AcDbPolyline
 90
3
 70
0
 10
59.829827
 20
38.232831
 30
0.0
 10
58.667497
 20
39.769341
 30
0.0
 10
61.555736
 20
39.844152
 30
0.0
  0
SPLINE
  5
105
100
AcDbEntity
  8
0
 62
7
100
AcDbSpline
 70
8
 71
3
 72
8
 73
4
 74
0
 40
0
 40
0
 40
0
 40
0
 40
1
 40
1
 40
1
 40
1
 10
69.058129
 20
38.232831
 30
0.0
 10
67.391920
 20
36.030241
 30
0.0
 10
67.223172
 20
35.178844
 30
0.0
 10
67.942328
 20
32.603215
 30
0.0
  0
SPLINE
  5
106
100
AcDbEntity
  8
0
 62
7
100
AcDbSpline
 70
8
 71
3
 72
8
 73
4
 74
0
 40
0
 40
0
 40
0
 40
0
 40
1
 40
1
 40
1
 40
1
 10
67.942328
 20
32.603215
 30
0.0
 10
68.825211
 20
29.441196
 30
0.0
 10
68.759919
 20
23.366241
 30
0.0
 10
67.790433
 20
18.470383
 30
0.0
  0
SPLINE
  5
107
100
AcDbEntity
  8
0
 62
7
100
AcDbSpline
 70
8
 71
3
 72
8
 73
4
 74
0
 40
0
 40
0
 40
0
 40
0
 40
1
 40
1
 40
1
 40
1
 10
67.790433
 20
18.470383
 30
0.0
 10
66.837960
 20
13.660435
 30
0.0
 10
66.463955
 20
12.600088
 30
0.0
 10
65.566790
 20
12.166089
 30
0.0
  0
SPLINE
  5
108
100
AcDbEntity
  8
0
 62
7
100
AcDbSpline
 70
8
 71
3
 72
8
 73
4
 74
0
 40
0
 40
0
 40
0
 40
0
 40
1
 40
1
 40
1
 40
1
 10
65.566790
 20
12.166089
 30
0.0
 10
64.500495
 20
11.650274
 30
0.0
 10
64.375146
 20
11.627818
 30
0.0
 10
63.650228
 20
11.822753
 30
0.0
  0
LWPOLYLINE
  5
109
100
AcDbEntity
  8
0
 62
7
100
AcDbPolyline
 90
3
 70
0
 10
67.332220
 20
39.844152
 30
0.0
 10
70.220459
 20
39.769341
 30
0.0
 10
69.058129
 20
38.232831
 30
0.0
  0
SPLINE
  5
10a
100
AcDbEntity
  8
0
 62
7
100
AcDbSpline
 70
8
 71
3
 72
8
 73
4
 74
0
 40
0
 40
0
 40
0
 40
0
 40
1
 40
1
 40
1
 40
1
 10
42.002067
 20
34.279237
 30
0.0
 10
35.449809
 20
41.400397
 30
0.0
 10
29.034452
 20
50.364834
 30
0.0
 10
25.386798
 20
57.496424
 30
0.0
  0
SPLINE
  5
10b
100
AcDbEntity
  8
0
 62
7
100
AcDbSpline
 70
8
 71
3
 72
8
 73
4
 74
0
 40
0
 40
0
 40
0
 40
0
 40
1
 40
1
 40
1
 40
1
 10
25.386798
 20
57.496424
 30
0.0
 10
23.354462
 20
61.469884
 30
0.0
 10
21.402183
 20
66.653254
 30
0.0
 10
20.902399
 20
69.402674
 30
0.0
  0
LWPOLYLINE
  5
10c
100
AcDbEntity
  8
0
 62
7
100
AcDbPolyline
 90
1
 70
1
 10
63.650228
 20
11.822753
 30
0.0
  0
SPLINE
  5
10d
100
AcDbEntity
  8
0
 62
7
100
AcDbSpline
 70
8
 71
3
 72
8
 73
4
 74
0
 40
0
 40
0
 40
0
 40
0
 40
1
 40
1
 40
1
 40
1
 10
21.831383
 20
69.311314
 30
0.0
 10
22.448134
 20
68.678983
 30
0.0
 10
23.745540
 20
67.786015
 30
0.0
 10
24.714510
 20
67.326939
 30
0.0
  0
SPLINE
  5
10e
100
AcDbEntity
  8
0
 62
7
100
AcDbSpline
 70
8
 71
3
 72
8
 73
4
 74
0
 40
0
 40
0
 40
0
 40
0
 40
1
 40
1
 40
1
 40
1
 10
24.714510
 20
67.326939
 30
0.0
 10
26.420588
 20
66.518639
 30
0.0
 10
26.589162
 20
66.492258
 30
0.0
 10
30.048144
 20
66.492258
 30
0.0
  0
SPLINE
  5
10f
100
AcDbEntity
  8
0
 62
7
100
AcDbSpline
 70
8
 71
3
 72
8
 73
4
 74
0
 40
0
 40
0
 40
0
 40
0
 40
1
 40
1
 40
1
 40
1
 10
30.048144
 20
66.492258
 30
0.0
 10
32.939180
 20
66.492258
 30
0.0
 10
34.048695
 20
66.607714
 30
0.0
 10
35.868978
 20
67.097971
 30
0.0
  0
SPLINE
  5
110
100
AcDbEntity
  8
0
 62
7
100
AcDbSpline
 70
8
 71
3
 72
8
 73
4
 74
0
 40
0
 40
0
 40
0
 40
0
 40
1
 40
1
 40
1
 40
1
 10
35.868978
 20
67.097971
 30
0.0
 10
38.375423
 20
67.773034
 30
0.0
 10
43.535531
 20
70.176842
 30
0.0
 10
44.846901
 20
71.280290
 30
0.0
  0
LWPOLYLINE
  5
111
100
AcDbEntity
  8
0
 62
7
100
AcDbPolyline
 90
3
 70
0
 10
20.902399
 20
69.402674
 30
0.0
 10
20.710018
 20
70.461008
 30
0.0
 10
21.831383
 20
69.311314
 30
0.0
  0
SPLINE
  5
112
100
AcDbEntity
  8
0
 62
7
100
AcDbSpline
 70
8
 71
3
 72
8
 73
4
 74
0
 40
0
 40
0
 40
0
 40
0
 40
1
 40
1
 40
1
 40
1
 10
46.404765
 20
71.290275
 30
0.0
 10
47.075728
 20
70.619313
 30
0.0
 10
47.090902
 20
70.547537
 30
0.0
 10
46.706917
 20
69.860964
 30
0.0
  0
SPLINE
  5
113
100
AcDbEntity
  8
0
 62
7
100
AcDbSpline
 70
8
 71
3
 72
8
 73
4
 74
0
 40
0
 40
0
 40
0
 40
0
 40
1
 40
1
 40
1
 40
1
 10
46.706917
 20
69.860964
 30
0.0
 10
45.640072
 20
67.953430
 30
0.0
 10
39.096278
 20
65.513537
 30
0.0
 10
33.991293
 20
65.119869
 30
0.0
  0
SPLINE
  5
114
100
AcDbEntity
  8
0
 62
7
100
AcDbSpline
 70
8
 71
3
 72
8
 73
4
 74
0
 40
0
 40
0
 40
0
 40
0
 40
1
 40
1
 40
1
 40
1
 10
33.991293
 20
65.119869
 30
0.0
 10
32.841208
 20
65.031181
 30
0.0
 10
31.900228
 20
64.913806
 30
0.0
 10
31.900228
 20
64.859040
 30
0.0
  0
SPLINE
  5
115
100
AcDbEntity
  8
0
 62
7
100
AcDbSpline
 70
8
 71
3
 72
8
 73
4
 74
0
 40
0
 40
0
 40
0
 40
0
 40
1
 40
1
 40
1
 40
1
 10
31.900228
 20
64.859040
 30
0.0
 10
31.900228
 20
64.566221
 30
0.0
 10
39.502577
 20
55.397122
 30
0.0
 10
40.034144
 20
55.048827
 30
0.0
  0
SPLINE
  5
116
100
AcDbEntity
  8
0
 62
7
100
AcDbSpline
 70
8
 71
3
 72
8
 73
4
 74
0
 40
0
 40
0
 40
0
 40
0
 40
1
 40
1
 40
1
 40
1
 10
40.034144
 20
55.048827
 30
0.0
 10
40.566046
 20
54.700313
 30
0.0
 10
41.304398
 20
54.662623
 30
0.0
 10
44.814530
 20
54.804813
 30
0.0
  0
SPLINE
  5
117
100
AcDbEntity
  8
0
 62
7
100
AcDbSpline
 70
8
 71
3
 72
8
 73
4
 74
0
 40
0
 40
0
 40
0
 40
0
 40
1
 40
1
 40
1
 40
1
 10
44.814530
 20
54.804813
 30
0.0
 10
49.364059
 20
54.989108
 30
0.0
 10
52.275854
 20
55.482855
 30
0.0
 10
53.318238
 20
56.246765
 30
0.0
  0
SPLINE
  5
118
100
AcDbEntity
  8
0
 62
7
100
AcDbSpline
 70
8
 71
3
 72
8
 73
4
 74
0
 40
0
 40
0
 40
0
 40
0
 40
1
 40
1
 40
1
 40
1
 10
53.318238
 20
56.246765
 30
0.0
 10
53.689321
 20
56.518712
 30
0.0
 10
54.853446
 20
57.804106
 30
0.0
 10
55.905180
 20
59.103194
 30
0.0
  0
SPLINE
  5
119
100
AcDbEntity
  8
0
 62
7
100
AcDbSpline
 70
8
 71
3
 72
8
 73
4
 74
0
 40
0
 40
0
 40
0
 40
0
 40
1
 40
1
 40
1
 40
1
 10
55.905180
 20
59.103194
 30
0.0
 10
57.150466
 20
60.641354
 30
0.0
 10
57.981009
 20
61.446090
 30
0.0
 10
58.286430
 20
61.410461
 30
0.0
  0
SPLINE
  5
11a
100
AcDbEntity
  8
0
 62
7
100
AcDbSpline
 70
8
 71
3
 72
8
 73
4
 74
0
 40
0
 40
0
 40
0
 40
0
 40
1
 40
1
 40
1
 40
1
 10
58.286430
 20
61.410461
 30
0.0
 10
58.544383
 20
61.380367
 30
0.0
 10
59.588874
 20
61.119340
 30
0.0
 10
60.607519
 20
60.830399
 30
0.0
  0
SPLINE
  5
11b
100
AcDbEntity
  8
0
 62
7
100
AcDbSpline
 70
8
 71
3
 72
8
 73
4
 74
0
 40
0
 40
0
 40
0
 40
0
 40
1
 40
1
 40
1
 40
1
 10
60.607519
 20
60.830399
 30
0.0
 10
63.013587
 20
60.147914
 30
0.0
 10
65.874368
 20
60.147914
 30
0.0
 10
68.280436
 20
60.830399
 30
0.0
  0
SPLINE
  5
11c
100
AcDbEntity
  8
0
 62
7
100
AcDbSpline
 70
8
 71
3
 72
8
 73
4
 74
0
 40
0
 40
0
 40
0
 40
0
 40
1
 40
1
 40
1
 40
1
 10
68.280436
 20
60.830399
 30
0.0
 10
69.299082
 20
61.119340
 30
0.0
 10
70.343572
 20
61.380367
 30
0.0
 10
70.601525
 20
61.410461
 30
0.0
  0
SPLINE
  5
11d
100
AcDbEntity
  8
0
 62
7
100
AcDbSpline
 70
8
 71
3
 72
8
 73
4
 74
0
 40
0
 40
0
 40
0
 40
0
 40
1
 40
1
 40
1
 40
1
 10
70.601525
 20
61.410461
 30
0.0
 10
70.906947
 20
61.446090
 30
0.0
 10
71.737490
 20
60.641354
 30
0.0
 10
72.982775
 20
59.103194
 30
0.0
  0
SPLINE
  5
11e
100
AcDbEntity
  8
0
 62
7
100
AcDbSpline
 70
8
 71
3
 72
8
 73
4
 74
0
 40
0
 40
0
 40
0
 40
0
 40
1
 40
1
 40
1
 40
1
 10
72.982775
 20
59.103194
 30
0.0
 10
74.034510
 20
57.804106
 30
0.0
 10
75.198634
 20
56.518712
 30
0.0
 10
75.569718
 20
56.246765
 30
0.0
  0
SPLINE
  5
11f
100
AcDbEntity
  8
0
 62
7
100
AcDbSpline
 70
8
 71
3
 72
8
 73
4
 74
0
 40
0
 40
0
 40
0
 40
0
 40
1
 40
1
 40
1
 40
1
 10
75.569718
 20
56.246765
 30
0.0
 10
76.612102
 20
55.482855
 30
0.0
 10
79.523897
 20
54.989108
 30
0.0
 10
84.073426
 20
54.804813
 30
0.0
  0
SPLINE
  5
120
100
AcDbEntity
  8
0
 62
7
100
AcDbSpline
 70
8
 71
3
 72
8
 73
4
 74
0
 40
0
 40
0
 40
0
 40
0
 40
1
 40
1
 40
1
 40
1
 10
84.073426
 20
54.804813
 30
0.0
 10
87.583558
 20
54.662623
 30
0.0
 10
88.321909
 20
54.700313
 30
0.0
 10
88.853812
 20
55.048827
 30
0.0
  0
SPLINE
  5
121
100
AcDbEntity
  8
0
 62
7
100
AcDbSpline
 70
8
 71
3
 72
8
 73
4
 74
0
 40
0
 40
0
 40
0
 40
0
 40
1
 40
1
 40
1
 40
1
 10
88.853812
 20
55.048827
 30
0.0
 10
89.385378
 20
55.397122
 30
0.0
 10
96.987728
 20
64.566221
 30
0.0
 10
96.987728
 20
64.859040
 30
0.0
  0
SPLINE
  5
122
100
AcDbEntity
  8
0
 62
7
100
AcDbSpline
 70
8
 71
3
 72
8
 73
4
 74
0
 40
0
 40
0
 40
0
 40
0
 40
1
 40
1
 40
1
 40
1
 10
96.987728
 20
64.859040
 30
0.0
 10
96.987728
 20
64.913806
 30
0.0
 10
96.046748
 20
65.031181
 30
0.0
 10
94.896662
 20
65.119869
 30
0.0
  0
SPLINE
  5
123
100
AcDbEntity
  8
0
 62
7
100
AcDbSpline
 70
8
 71
3
 72
8
 73
4
 74
0
 40
0
 40
0
 40
0
 40
0
 40
1
 40
1
 40
1
 40
1
 10
94.896662
 20
65.119869
 30
0.0
 10
89.791678
 20
65.513537
 30
0.0
 10
83.247884
 20
67.953430
 30
0.0
 10
82.181039
 20
69.860964
 30
0.0
  0
SPLINE
  5
124
100
AcDbEntity
  8
0
 62
7
100
AcDbSpline
 70
8
 71
3
 72
8
 73
4
 74
0
 40
0
 40
0
 40
0
 40
0
 40
1
 40
1
 40
1
 40
1
 10
82.181039
 20
69.860964
 30
0.0
 10
81.797054
 20
70.547537
 30
0.0
 10
81.812228
 20
70.619313
 30
0.0
 10
82.483190
 20
71.290275
 30
0.0
  0
LWPOLYLINE
  5
125
100
AcDbEntity
  8
0
 62
7
100
AcDbPolyline
 90
3
 70
0
 10
44.846901
 20
71.280290
 30
0.0
 10
45.698325
 20
71.996715
 30
0.0
 10
46.404765
 20
71.290275
 30
0.0
  0
SPLINE
  5
126
100
AcDbEntity
  8
0
 62
7
100
AcDbSpline
 70
8
 71
3
 72
8
 73
4
 74
0
 40
0
 40
0
 40
0
 40
0
 40
1
 40
1
 40
1
 40
1
 10
83.973397
 20
71.337218
 30
0.0
 10
85.117982
 20
70.374113
 30
0.0
 10
89.131211
 20
68.377099
 30
0.0
 10
91.512250
 20
67.585825
 30
0.0
  0
SPLINE
  5
127
100
AcDbEntity
  8
0
 62
7
100
AcDbSpline
 70
8
 71
3
 72
8
 73
4
 74
0
 40
0
 40
0
 40
0
 40
0
 40
1
 40
1
 40
1
 40
1
 10
91.512250
 20
67.585825
 30
0.0
 10
94.483595
 20
66.598377
 30
0.0
 10
96.644412
 20
66.286867
 30
0.0
 10
99.713195
 20
66.403551
 30
0.0
  0
SPLINE
  5
128
100
AcDbEntity
  8
0
 62
7
100
AcDbSpline
 70
8
 71
3
 72
8
 73
4
 74
0
 40
0
 40
0
 40
0
 40
0
 40
1
 40
1
 40
1
 40
1
 10
99.713195
 20
66.403551
 30
0.0
 10
102.061301
 20
66.492834
 30
0.0
 10
102.640442
 20
66.613633
 30
0.0
 10
104.173449
 20
67.333889
 30
0.0
  0
SPLINE
  5
129
100
AcDbEntity
  8
0
 62
7
100
AcDbSpline
 70
8
 71
3
 72
8
 73
4
 74
0
 40
0
 40
0
 40
0
 40
0
 40
1
 40
1
 40
1
 40
1
 10
104.173449
 20
67.333889
 30
0.0
 10
105.145951
 20
67.790803
 30
0.0
 10
106.437576
 20
68.676676
 30
0.0
 10
107.056574
 20
69.311314
 30
0.0
  0
LWPOLYLINE
  5
12a
100
AcDbEntity
  8
0
 62
7
100
AcDbPolyline
 90
3
 70
0
 10
82.483190
 20
71.290275
 30
0.0
 10
83.189630
 20
71.996715
 30
0.0
 10
83.973397
 20
71.337218
 30
0.0
  0
SPLINE
  5
12b
100
AcDbEntity
  8
0
 62
7
100
AcDbSpline
 70
8
 71
3
 72
8
 73
4
 74
0
 40
0
 40
0
 40
0
 40
0
 40
1
 40
1
 40
1
 40
1
 10
107.985557
 20
69.402674
 30
0.0
 10
107.485775
 20
66.653254
 30
0.0
 10
105.533497
 20
61.469884
 30
0.0
 10
103.501158
 20
57.496424
 30
0.0
  0
SPLINE
  5
12c
100
AcDbEntity
  8
0
 62
7
100
AcDbSpline
 70
8
 71
3
 72
8
 73
4
 74
0
 40
0
 40
0
 40
0
 40
0
 40
1
 40
1
 40
1
 40
1
 10
103.501158
 20
57.496424
 30
0.0
 10
100.513811
 20
51.655816
 30
0.0
 10
96.553531
 20
45.823878
 30
0.0
 10
90.744577
 20
38.711008
 30
0.0
  0
SPLINE
  5
12d
100
AcDbEntity
  8
0
 62
7
100
AcDbSpline
 70
8
 71
3
 72
8
 73
4
 74
0
 40
0
 40
0
 40
0
 40
0
 40
1
 40
1
 40
1
 40
1
 10
90.744577
 20
38.711008
 30
0.0
 10
88.427928
 20
35.874346
 30
0.0
 10
83.719294
 20
30.864532
 30
0.0
 10
85.025002
 20
32.625591
 30
0.0
  0
SPLINE
  5
12e
100
AcDbEntity
  8
0
 62
7
100
AcDbSpline
 70
8
 71
3
 72
8
 73
4
 74
0
 40
0
 40
0
 40
0
 40
0
 40
1
 40
1
 40
1
 40
1
 10
85.025002
 20
32.625591
 30
0.0
 10
87.538790
 20
36.016033
 30
0.0
 10
95.400228
 20
48.626347
 30
0.0
 10
95.400228
 20
49.268205
 30
0.0
  0
SPLINE
  5
12f
100
AcDbEntity
  8
0
 62
7
100
AcDbSpline
 70
8
 71
3
 72
8
 73
4
 74
0
 40
0
 40
0
 40
0
 40
0
 40
1
 40
1
 40
1
 40
1
 10
95.400228
 20
49.268205
 30
0.0
 10
95.400228
 20
49.365834
 30
0.0
 10
94.459197
 20
48.679756
 30
0.0
 10
93.309048
 20
47.743584
 30
0.0
  0
SPLINE
  5
130
100
AcDbEntity
  8
0
 62
7
100
AcDbSpline
 70
8
 71
3
 72
8
 73
4
 74
0
 40
0
 40
0
 40
0
 40
0
 40
1
 40
1
 40
1
 40
1
 10
93.309048
 20
47.743584
 30
0.0
 10
92.158897
 20
46.807411
 30
0.0
 10
90.425347
 20
45.598249
 30
0.0
 10
89.456710
 20
45.056557
 30
0.0
  0
SPLINE
  5
131
100
AcDbEntity
  8
0
 62
7
100
AcDbSpline
 70
8
 71
3
 72
8
 73
4
 74
0
 40
0
 40
0
 40
0
 40
0
 40
1
 40
1
 40
1
 40
1
 10
89.456710
 20
45.056557
 30
0.0
 10
87.609717
 20
44.023661
 30
0.0
 10
84.134412
 20
42.730243
 30
0.0
 10
83.646822
 20
42.894269
 30
0.0
  0
SPLINE
  5
132
100
AcDbEntity
  8
0
 62
7
100
AcDbSpline
 70
8
 71
3
 72
8
 73
4
 74
0
 40
0
 40
0
 40
0
 40
0
 40
1
 40
1
 40
1
 40
1
 10
83.646822
 20
42.894269
 30
0.0
 10
83.489998
 20
42.947024
 30
0.0
 10
83.837936
 20
43.141553
 30
0.0
 10
84.420019
 20
43.326558
 30
0.0
  0
SPLINE
  5
133
100
AcDbEntity
  8
0
 62
7
100
AcDbSpline
 70
8
 71
3
 72
8
 73
4
 74
0
 40
0
 40
0
 40
0
 40
0
 40
1
 40
1
 40
1
 40
1
 10
84.420019
 20
43.326558
 30
0.0
 10
85.792723
 20
43.762843
 30
0.0
 10
89.154497
 20
45.573902
 30
0.0
 10
90.505436
 20
46.604902
 30
0.0
  0
SPLINE
  5
134
100
AcDbEntity
  8
0
 62
7
100
AcDbSpline
 70
8
 71
3
 72
8
 73
4
 74
0
 40
0
 40
0
 40
0
 40
0
 40
1
 40
1
 40
1
 40
1
 10
90.505436
 20
46.604902
 30
0.0
 10
94.149196
 20
49.385720
 30
0.0
 10
97.532513
 20
53.174913
 30
0.0
 10
99.025440
 20
56.147012
 30
0.0
  0
SPLINE
  5
135
100
AcDbEntity
  8
0
 62
7
100
AcDbSpline
 70
8
 71
3
 72
8
 73
4
 74
0
 40
0
 40
0
 40
0
 40
0
 40
1
 40
1
 40
1
 40
1
 10
99.025440
 20
56.147012
 30
0.0
 10
100.864278
 20
59.807737
 30
0.0
 10
103.371409
 20
65.356147
 30
0.0
 10
103.244203
 20
65.483351
 30
0.0
  0
SPLINE
  5
136
100
AcDbEntity
  8
0
 62
7
100
AcDbSpline
 70
8
 71
3
 72
8
 73
4
 74
0
 40
0
 40
0
 40
0
 40
0
 40
1
 40
1
 40
1
 40
1
 10
103.244203
 20
65.483351
 30
0.0
 10
103.182036
 20
65.545518
 30
0.0
 10
102.767032
 20
65.500311
 30
0.0
 10
102.321974
 20
65.382862
 30
0.0
  0
SPLINE
  5
137
100
AcDbEntity
  8
0
 62
7
100
AcDbSpline
 70
8
 71
3
 72
8
 73
4
 74
0
 40
0
 40
0
 40
0
 40
0
 40
1
 40
1
 40
1
 40
1
 10
102.321974
 20
65.382862
 30
0.0
 10
101.631993
 20
65.200800
 30
0.0
 10
100.999248
 20
64.370230
 30
0.0
 10
98.027225
 20
59.745383
 30
0.0
  0
SPLINE
  5
138
100
AcDbEntity
  8
0
 62
7
100
AcDbSpline
 70
8
 71
3
 72
8
 73
4
 74
0
 40
0
 40
0
 40
0
 40
0
 40
1
 40
1
 40
1
 40
1
 10
98.027225
 20
59.745383
 30
0.0
 10
93.299346
 20
52.388198
 30
0.0
 10
92.050685
 20
50.860965
 30
0.0
 10
90.003024
 20
49.931037
 30
0.0
  0
SPLINE
  5
139
100
AcDbEntity
  8
0
 62
7
100
AcDbSpline
 70
8
 71
3
 72
8
 73
4
 74
0
 40
0
 40
0
 40
0
 40
0
 40
1
 40
1
 40
1
 40
1
 10
90.003024
 20
49.931037
 30
0.0
 10
89.015335
 20
49.482486
 30
0.0
 10
88.129478
 20
49.437732
 30
0.0
 10
80.134005
 20
49.432443
 30
0.0
  0
LWPOLYLINE
  5
13a
100
AcDbEntity
  8
0
 62
7
100
AcDbPolyline
 90
3
 70
0
 10
107.056574
 20
69.311314
 30
0.0
 10
108.177939
 20
70.461008
 30
0.0
 10
107.985557
 20
69.402674
 30
0.0
  0
SPLINE
  5
13b
100
AcDbEntity
  8
0
 62
7
100
AcDbSpline
 70
8
 71
3
 72
8
 73
4
 74
0
 40
0
 40
0
 40
0
 40
0
 40
1
 40
1
 40
1
 40
1
 10
70.617771
 20
50.418809
 30
0.0
 10
70.215003
 20
50.964513
 30
0.0
 10
68.873807
 20
52.690919
 30
0.0
 10
67.637332
 20
54.255268
 30
0.0
  0
SPLINE
  5
13c
100
AcDbEntity
  8
0
 62
7
100
AcDbSpline
 70
8
 71
3
 72
8
 73
4
 74
0
 40
0
 40
0
 40
0
 40
0
 40
1
 40
1
 40
1
 40
1
 10
67.637332
 20
54.255268
 30
0.0
 10
65.530365
 20
56.920948
 30
0.0
 10
65.329842
 20
57.099549
 30
0.0
 10
64.443978
 20
57.099549
 30
0.0
  0
SPLINE
  5
13d
100
AcDbEntity
  8
0
 62
7
100
AcDbSpline
 70
8
 71
3
 72
8
 73
4
 74
0
 40
0
 40
0
 40
0
 40
0
 40
1
 40
1
 40
1
 40
1
 10
64.443978
 20
57.099549
 30
0.0
 10
63.558113
 20
57.099549
 30
0.0
 10
63.357591
 20
56.920948
 30
0.0
 10
61.250624
 20
54.255278
 30
0.0
  0
SPLINE
  5
13e
100
AcDbEntity
  8
0
 62
7
100
AcDbSpline
 70
8
 71
3
 72
8
 73
4
 74
0
 40
0
 40
0
 40
0
 40
0
 40
1
 40
1
 40
1
 40
1
 10
61.250624
 20
54.255278
 30
0.0
 10
60.014149
 20
52.690929
 30
0.0
 10
58.672952
 20
50.964523
 30
0.0
 10
58.270185
 20
50.418820
 30
0.0
  0
LWPOLYLINE
  5
13f
100
AcDbEntity
  8
0
 62
7
100
AcDbPolyline
 90
3
 70
0
 10
80.134005
 20
49.432443
 30
0.0
 10
71.350074
 20
49.426622
 30
0.0
 10
70.617771
 20
50.418809
 30
0.0
  0
SPLINE
  5
140
100
AcDbEntity
  8
0
 62
7
100
AcDbSpline
 70
8
 71
3
 72
8
 73
4
 74
0
 40
0
 40
0
 40
0
 40
0
 40
1
 40
1
 40
1
 40
1
 10
48.753951
 20
49.432453
 30
0.0
 10
38.705920
 20
49.439094
 30
0.0
 10
38.726232
 20
49.435311
 30
0.0
 10
36.515842
 20
51.722584
 30
0.0
  0
SPLINE
  5
141
100
AcDbEntity
  8
0
 62
7
100
AcDbSpline
 70
8
 71
3
 72
8
 73
4
 74
0
 40
0
 40
0
 40
0
 40
0
 40
1
 40
1
 40
1
 40
1
 10
36.515842
 20
51.722584
 30
0.0
 10
35.371558
 20
52.906671
 30
0.0
 10
32.555847
 20
57.007723
 30
0.0
 10
28.893624
 20
62.824249
 30
0.0
  0
SPLINE
  5
142
100
AcDbEntity
  8
0
 62
7
100
AcDbSpline
 70
8
 71
3
 72
8
 73
4
 74
0
 40
0
 40
0
 40
0
 40
0
 40
1
 40
1
 40
1
 40
1
 10
28.893624
 20
62.824249
 30
0.0
 10
27.626633
 20
64.836551
 30
0.0
 10
27.234057
 20
65.269147
 30
0.0
 10
26.550932
 20
65.405773
 30
0.0
  0
SPLINE
  5
143
100
AcDbEntity
  8
0
 62
7
100
AcDbSpline
 70
8
 71
3
 72
8
 73
4
 74
0
 40
0
 40
0
 40
0
 40
0
 40
1
 40
1
 40
1
 40
1
 10
26.550932
 20
65.405773
 30
0.0
 10
26.099580
 20
65.496043
 30
0.0
 10
25.685388
 20
65.524999
 30
0.0
 10
25.630506
 20
65.470117
 30
0.0
  0
SPLINE
  5
144
100
AcDbEntity
  8
0
 62
7
100
AcDbSpline
 70
8
 71
3
 72
8
 73
4
 74
0
 40
0
 40
0
 40
0
 40
0
 40
1
 40
1
 40
1
 40
1
 10
25.630506
 20
65.470117
 30
0.0
 10
25.512695
 20
65.352306
 30
0.0
 10
28.139393
 20
59.572234
 30
0.0
 10
29.855258
 20
56.173518
 30
0.0
  0
SPLINE
  5
145
100
AcDbEntity
  8
0
 62
7
100
AcDbSpline
 70
8
 71
3
 72
8
 73
4
 74
0
 40
0
 40
0
 40
0
 40
0
 40
1
 40
1
 40
1
 40
1
 10
29.855258
 20
56.173518
 30
0.0
 10
31.072759
 20
53.761939
 30
0.0
 10
32.948232
 20
51.448772
 30
0.0
 10
35.873817
 20
48.750352
 30
0.0
  0
SPLINE
  5
146
100
AcDbEntity
  8
0
 62
7
100
AcDbSpline
 70
8
 71
3
 72
8
 73
4
 74
0
 40
0
 40
0
 40
0
 40
0
 40
1
 40
1
 40
1
 40
1
 10
35.873817
 20
48.750352
 30
0.0
 10
38.548125
 20
46.283703
 30
0.0
 10
40.894939
 20
44.758160
 30
0.0
 10
43.998068
 20
43.469203
 30
0.0
  0
SPLINE
  5
147
100
AcDbEntity
  8
0
 62
7
100
AcDbSpline
 70
8
 71
3
 72
8
 73
4
 74
0
 40
0
 40
0
 40
0
 40
0
 40
1
 40
1
 40
1
 40
1
 10
43.998068
 20
43.469203
 30
0.0
 10
45.971979
 20
42.649291
 30
0.0
 10
45.441963
 20
42.633945
 30
0.0
 10
43.053953
 20
43.441866
 30
0.0
  0
SPLINE
  5
148
100
AcDbEntity
  8
0
 62
7
100
AcDbSpline
 70
8
 71
3
 72
8
 73
4
 74
0
 40
0
 40
0
 40
0
 40
0
 40
1
 40
1
 40
1
 40
1
 10
43.053953
 20
43.441866
 30
0.0
 10
40.533548
 20
44.294578
 30
0.0
 10
38.085324
 20
45.703479
 30
0.0
 10
35.578907
 20
47.743594
 30
0.0
  0
SPLINE
  5
149
100
AcDbEntity
  8
0
 62
7
100
AcDbSpline
 70
8
 71
3
 72
8
 73
4
 74
0
 40
0
 40
0
 40
0
 40
0
 40
1
 40
1
 40
1
 40
1
 10
35.578907
 20
47.743594
 30
0.0
 10
34.428758
 20
48.679756
 30
0.0
 10
33.487728
 20
49.361455
 30
0.0
 10
33.487728
 20
49.258471
 30
0.0
  0
SPLINE
  5
14a
100
AcDbEntity
  8
0
 62
7
100
AcDbSpline
 70
8
 71
3
 72
8
 73
4
 74
0
 40
0
 40
0
 40
0
 40
0
 40
1
 40
1
 40
1
 40
1
 10
33.487728
 20
49.258471
 30
0.0
 10
33.487728
 20
48.541162
 30
0.0
 10
40.976733
 20
36.518162
 30
0.0
 10
43.477365
 20
33.220903
 30
0.0
  0
SPLINE
  5
14b
100
AcDbEntity
  8
0
 62
7
100
AcDbSpline
 70
8
 71
3
 72
8
 73
4
 74
0
 40
0
 40
0
 40
0
 40
0
 40
1
 40
1
 40
1
 40
1
 10
43.477365
 20
33.220903
 30
0.0
 10
44.111950
 20
32.384159
 30
0.0
 10
44.573672
 20
31.699549
 30
0.0
 10
44.503411
 20
31.699549
 30
0.0
  0
SPLINE
  5
14c
100
AcDbEntity
  8
0
 62
7
100
AcDbSpline
 70
8
 71
3
 72
8
 73
4
 74
0
 40
0
 40
0
 40
0
 40
0
 40
1
 40
1
 40
1
 40
1
 10
44.503411
 20
31.699549
 30
0.0
 10
44.433151
 20
31.699549
 30
0.0
 10
43.307548
 20
32.860409
 30
0.0
 10
42.002067
 20
34.279237
 30
0.0
  0
LWPOLYLINE
  5
14d
100
AcDbEntity
  8
0
 62
7
100
AcDbPolyline
 90
3
 70
0
 10
58.270185
 20
50.418820
 30
0.0
 10
57.537882
 20
49.426633
 30
0.0
 10
48.753951
 20
49.432453
 30
0.0
  0
SPLINE
  5
14e
100
AcDbEntity
  8
0
 62
7
100
AcDbSpline
 70
8
 71
3
 72
8
 73
4
 74
0
 40
0
 40
0
 40
0
 40
0
 40
1
 40
1
 40
1
 40
1
 10
56.025402
 20
47.323724
 30
0.0
 10
54.960446
 20
47.455810
 30
0.0
 10
53.612190
 20
47.692299
 30
0.0
 10
53.029279
 20
47.849261
 30
0.0
  0
SPLINE
  5
14f
100
AcDbEntity
  8
0
 62
7
100
AcDbSpline
 70
8
 71
3
 72
8
 73
4
 74
0
 40
0
 40
0
 40
0
 40
0
 40
1
 40
1
 40
1
 40
1
 10
53.029279
 20
47.849261
 30
0.0
 10
52.145626
 20
48.087203
 30
0.0
 10
52.022428
 20
48.198498
 30
0.0
 10
52.288197
 20
48.518728
 30
0.0
  0
SPLINE
  5
150
100
AcDbEntity
  8
0
 62
7
100
AcDbSpline
 70
8
 71
3
 72
8
 73
4
 74
0
 40
0
 40
0
 40
0
 40
0
 40
1
 40
1
 40
1
 40
1
 10
52.288197
 20
48.518728
 30
0.0
 10
52.775638
 20
49.106058
 30
0.0
 10
76.482519
 20
48.958659
 30
0.0
 10
76.482519
 20
48.368299
 30
0.0
  0
SPLINE
  5
151
100
AcDbEntity
  8
0
 62
7
100
AcDbSpline
 70
8
 71
3
 72
8
 73
4
 74
0
 40
0
 40
0
 40
0
 40
0
 40
1
 40
1
 40
1
 40
1
 10
76.482519
 20
48.368299
 30
0.0
 10
76.482519
 20
47.579534
 30
0.0
 10
73.674031
 20
47.270564
 30
0.0
 10
65.634603
 20
47.174888
 30
0.0
  0
SPLINE
  5
152
100
AcDbEntity
  8
0
 62
7
100
AcDbSpline
 70
8
 71
3
 72
8
 73
4
 74
0
 40
0
 40
0
 40
0
 40
0
 40
1
 40
1
 40
1
 40
1
 10
65.634603
 20
47.174888
 30
0.0
 10
61.414499
 20
47.124665
 30
0.0
 10
57.090358
 20
47.191636
 30
0.0
 10
56.025402
 20
47.323724
 30
0.0
  0
LWPOLYLINE
  5
153
100
AcDbEntity
  8
0
 62
7
100
AcDbPolyline
 90
1
 70
1
 10
42.002067
 20
34.279237
 30
0.0
  0
SPLINE
  5
154
100
AcDbEntity
  8
0
 62
7
100
AcDbSpline
 70
8
 71
3
 72
8
 73
4
 74
0
 40
0
 40
0
 40
0
 40
0
 40
1
 40
1
 40
1
 40
1
 10
61.868140
 20
62.253114
 30
0.0
 10
59.352794
 20
62.961060
 30
0.0
 10
57.922938
 20
63.857516
 30
0.0
 10
57.113940
 20
65.233788
 30
0.0
  0
SPLINE
  5
155
100
AcDbEntity
  8
0
 62
7
100
AcDbSpline
 70
8
 71
3
 72
8
 73
4
 74
0
 40
0
 40
0
 40
0
 40
0
 40
1
 40
1
 40
1
 40
1
 10
57.113940
 20
65.233788
 30
0.0
 10
56.452008
 20
66.359868
 30
0.0
 10
56.374186
 20
66.742762
 30
0.0
 10
56.374186
 20
68.873508
 30
0.0
  0
SPLINE
  5
156
100
AcDbEntity
  8
0
 62
7
100
AcDbSpline
 70
8
 71
3
 72
8
 73
4
 74
0
 40
0
 40
0
 40
0
 40
0
 40
1
 40
1
 40
1
 40
1
 10
56.374186
 20
68.873508
 30
0.0
 10
56.374186
 20
70.183195
 30
0.0
 10
56.479795
 20
72.415617
 30
0.0
 10
56.608874
 20
73.834445
 30
0.0
  0
SPLINE
  5
157
100
AcDbEntity
  8
0
 62
7
100
AcDbSpline
 70
8
 71
3
 72
8
 73
4
 74
0
 40
0
 40
0
 40
0
 40
0
 40
1
 40
1
 40
1
 40
1
 10
56.608874
 20
73.834445
 30
0.0
 10
56.824769
 20
76.207580
 30
0.0
 10
56.806351
 20
76.414133
 30
0.0
 10
56.378837
 20
76.414133
 30
0.0
  0
SPLINE
  5
158
100
AcDbEntity
  8
0
 62
7
100
AcDbSpline
 70
8
 71
3
 72
8
 73
4
 74
0
 40
0
 40
0
 40
0
 40
0
 40
1
 40
1
 40
1
 40
1
 10
56.378837
 20
76.414133
 30
0.0
 10
55.734736
 20
76.414133
 30
0.0
 10
51.274514
 20
72.136876
 30
0.0
 10
50.201465
 20
70.490165
 30
0.0
  0
SPLINE
  5
159
100
AcDbEntity
  8
0
 62
7
100
AcDbSpline
 70
8
 71
3
 72
8
 73
4
 74
0
 40
0
 40
0
 40
0
 40
0
 40
1
 40
1
 40
1
 40
1
 10
50.201465
 20
70.490165
 30
0.0
 10
49.371861
 20
69.217053
 30
0.0
 10
49.327480
 20
69.031361
 30
0.0
 10
49.441507
 20
67.310561
 30
0.0
  0
SPLINE
  5
15a
100
AcDbEntity
  8
0
 62
7
100
AcDbSpline
 70
8
 71
3
 72
8
 73
4
 74
0
 40
0
 40
0
 40
0
 40
0
 40
1
 40
1
 40
1
 40
1
 10
49.441507
 20
67.310561
 30
0.0
 10
49.572185
 20
65.338529
 30
0.0
 10
49.353647
 20
65.426892
 30
0.0
 10
48.696031
 20
67.611985
 30
0.0
  0
SPLINE
  5
15b
100
AcDbEntity
  8
0
 62
7
100
AcDbSpline
 70
8
 71
3
 72
8
 73
4
 74
0
 40
0
 40
0
 40
0
 40
0
 40
1
 40
1
 40
1
 40
1
 10
48.696031
 20
67.611985
 30
0.0
 10
48.054361
 20
69.744093
 30
0.0
 10
48.329829
 20
70.389165
 30
0.0
 10
51.935925
 20
75.198917
 30
0.0
  0
SPLINE
  5
15c
100
AcDbEntity
  8
0
 62
7
100
AcDbSpline
 70
8
 71
3
 72
8
 73
4
 74
0
 40
0
 40
0
 40
0
 40
0
 40
1
 40
1
 40
1
 40
1
 10
51.935925
 20
75.198917
 30
0.0
 10
56.235619
 20
80.933785
 30
0.0
 10
57.795911
 20
85.200474
 30
0.0
 10
58.475946
 20
93.082883
 30
0.0
  0
LWPOLYLINE
  5
15d
100
AcDbEntity
  8
0
 62
7
100
AcDbPolyline
 90
1
 70
1
 10
56.025402
 20
47.323724
 30
0.0
  0
SPLINE
  5
15e
100
AcDbEntity
  8
0
 62
7
100
AcDbSpline
 70
8
 71
3
 72
8
 73
4
 74
0
 40
0
 40
0
 40
0
 40
0
 40
1
 40
1
 40
1
 40
1
 10
59.044967
 20
93.876633
 30
0.0
 10
59.503871
 20
88.989556
 30
0.0
 10
59.482670
 20
78.820661
 30
0.0
 10
59.004700
 20
74.562049
 30
0.0
  0
SPLINE
  5
15f
100
AcDbEntity
  8
0
 62
7
100
AcDbSpline
 70
8
 71
3
 72
8
 73
4
 74
0
 40
0
 40
0
 40
0
 40
0
 40
1
 40
1
 40
1
 40
1
 10
59.004700
 20
74.562049
 30
0.0
 10
58.226169
 20
67.625481
 30
0.0
 10
58.196760
 20
67.162111
 30
0.0
 10
58.479923
 20
66.293682
 30
0.0
  0
SPLINE
  5
160
100
AcDbEntity
  8
0
 62
7
100
AcDbSpline
 70
8
 71
3
 72
8
 73
4
 74
0
 40
0
 40
0
 40
0
 40
0
 40
1
 40
1
 40
1
 40
1
 10
58.479923
 20
66.293682
 30
0.0
 10
58.818915
 20
65.254023
 30
0.0
 10
60.193851
 20
64.431466
 30
0.0
 10
62.361659
 20
63.971427
 30
0.0
  0
SPLINE
  5
161
100
AcDbEntity
  8
0
 62
7
100
AcDbSpline
 70
8
 71
3
 72
8
 73
4
 74
0
 40
0
 40
0
 40
0
 40
0
 40
1
 40
1
 40
1
 40
1
 10
62.361659
 20
63.971427
 30
0.0
 10
65.128434
 20
63.384277
 30
0.0
 10
69.041074
 20
64.228136
 30
0.0
 10
70.094607
 20
65.639230
 30
0.0
  0
SPLINE
  5
162
100
AcDbEntity
  8
0
 62
7
100
AcDbSpline
 70
8
 71
3
 72
8
 73
4
 74
0
 40
0
 40
0
 40
0
 40
0
 40
1
 40
1
 40
1
 40
1
 10
70.094607
 20
65.639230
 30
0.0
 10
70.689819
 20
66.436449
 30
0.0
 10
70.758661
 20
68.329207
 30
0.0
 10
70.291799
 20
71.060842
 30
0.0
  0
SPLINE
  5
163
100
AcDbEntity
  8
0
 62
7
100
AcDbSpline
 70
8
 71
3
 72
8
 73
4
 74
0
 40
0
 40
0
 40
0
 40
0
 40
1
 40
1
 40
1
 40
1
 10
70.291799
 20
71.060842
 30
0.0
 10
69.612825
 20
75.033558
 30
0.0
 10
69.402407
 20
79.553784
 30
0.0
 10
69.570891
 20
86.547433
 30
0.0
  0
SPLINE
  5
164
100
AcDbEntity
  8
0
 62
7
100
AcDbSpline
 70
8
 71
3
 72
8
 73
4
 74
0
 40
0
 40
0
 40
0
 40
0
 40
1
 40
1
 40
1
 40
1
 10
69.570891
 20
86.547433
 30
0.0
 10
69.666250
 20
90.505732
 30
0.0
 10
69.836792
 20
94.339653
 30
0.0
 10
69.949875
 20
95.067258
 30
0.0
  0
SPLINE
  5
165
100
AcDbEntity
  8
0
 62
7
100
AcDbSpline
 70
8
 71
3
 72
8
 73
4
 74
0
 40
0
 40
0
 40
0
 40
0
 40
1
 40
1
 40
1
 40
1
 10
69.949875
 20
95.067258
 30
0.0
 10
70.138494
 20
96.280901
 30
0.0
 10
70.173025
 20
96.138847
 30
0.0
 10
70.367895
 20
93.347466
 30
0.0
  0
SPLINE
  5
166
100
AcDbEntity
  8
0
 62
7
100
AcDbSpline
 70
8
 71
3
 72
8
 73
4
 74
0
 40
0
 40
0
 40
0
 40
0
 40
1
 40
1
 40
1
 40
1
 10
70.367895
 20
93.347466
 30
0.0
 10
70.893898
 20
85.812871
 30
0.0
 10
72.674821
 20
80.902016
 30
0.0
 10
76.941140
 20
75.221902
 30
0.0
  0
SPLINE
  5
167
100
AcDbEntity
  8
0
 62
7
100
AcDbSpline
 70
8
 71
3
 72
8
 73
4
 74
0
 40
0
 40
0
 40
0
 40
0
 40
1
 40
1
 40
1
 40
1
 10
76.941140
 20
75.221902
 30
0.0
 10
80.703730
 20
70.212445
 30
0.0
 10
80.876217
 20
69.765751
 30
0.0
 10
80.031050
 20
67.219862
 30
0.0
  0
SPLINE
  5
168
100
AcDbEntity
  8
0
 62
7
100
AcDbSpline
 70
8
 71
3
 72
8
 73
4
 74
0
 40
0
 40
0
 40
0
 40
0
 40
1
 40
1
 40
1
 40
1
 10
80.031050
 20
67.219862
 30
0.0
 10
79.729118
 20
66.310357
 30
0.0
 10
79.445972
 20
65.566216
 30
0.0
 10
79.401831
 20
65.566216
 30
0.0
  0
SPLINE
  5
169
100
AcDbEntity
  8
0
 62
7
100
AcDbSpline
 70
8
 71
3
 72
8
 73
4
 74
0
 40
0
 40
0
 40
0
 40
0
 40
1
 40
1
 40
1
 40
1
 10
79.401831
 20
65.566216
 30
0.0
 10
79.357694
 20
65.566216
 30
0.0
 10
79.383099
 20
66.332637
 30
0.0
 10
79.458293
 20
67.269373
 30
0.0
  0
SPLINE
  5
16a
100
AcDbEntity
  8
0
 62
7
100
AcDbSpline
 70
8
 71
3
 72
8
 73
4
 74
0
 40
0
 40
0
 40
0
 40
0
 40
1
 40
1
 40
1
 40
1
 10
79.458293
 20
67.269373
 30
0.0
 10
79.578102
 20
68.761938
 30
0.0
 10
79.511176
 20
69.115578
 30
0.0
 10
78.917038
 20
70.129400
 30
0.0
  0
SPLINE
  5
16b
100
AcDbEntity
  8
0
 62
7
100
AcDbSpline
 70
8
 71
3
 72
8
 73
4
 74
0
 40
0
 40
0
 40
0
 40
0
 40
1
 40
1
 40
1
 40
1
 10
78.917038
 20
70.129400
 30
0.0
 10
78.034573
 20
71.635210
 30
0.0
 10
73.190113
 20
76.411384
 30
0.0
 10
72.543665
 20
76.412934
 30
0.0
  0
SPLINE
  5
16c
100
AcDbEntity
  8
0
 62
7
100
AcDbSpline
 70
8
 71
3
 72
8
 73
4
 74
0
 40
0
 40
0
 40
0
 40
0
 40
1
 40
1
 40
1
 40
1
 10
72.543665
 20
76.412934
 30
0.0
 10
72.072410
 20
76.413992
 30
0.0
 10
72.057564
 20
76.269371
 30
0.0
 10
72.279081
 20
73.834445
 30
0.0
  0
SPLINE
  5
16d
100
AcDbEntity
  8
0
 62
7
100
AcDbSpline
 70
8
 71
3
 72
8
 73
4
 74
0
 40
0
 40
0
 40
0
 40
0
 40
1
 40
1
 40
1
 40
1
 10
72.279081
 20
73.834445
 30
0.0
 10
73.006376
 20
65.840025
 30
0.0
 10
72.416543
 20
64.240479
 30
0.0
 10
68.148473
 20
62.632820
 30
0.0
  0
SPLINE
  5
16e
100
AcDbEntity
  8
0
 62
7
100
AcDbSpline
 70
8
 71
3
 72
8
 73
4
 74
0
 40
0
 40
0
 40
0
 40
0
 40
1
 40
1
 40
1
 40
1
 10
68.148473
 20
62.632820
 30
0.0
 10
66.237504
 20
61.913013
 30
0.0
 10
63.635477
 20
61.755695
 30
0.0
 10
61.868140
 20
62.253114
 30
0.0
  0
LWPOLYLINE
  5
16f
100
AcDbEntity
  8
0
 62
7
100
AcDbPolyline
 90
3
 70
0
 10
58.475946
 20
93.082883
 30
0.0
 10
58.784098
 20
96.654758
 30
0.0
 10
59.044967
 20
93.876633
 30
0.0
  0
SPLINE
  5
170
100
AcDbEntity
  8
0
 62
7
100
AcDbSpline
 70
8
 71
3
 72
8
 73
4
 74
0
 40
0
 40
0
 40
0
 40
0
 40
1
 40
1
 40
1
 40
1
 10
55.177526
 20
62.532416
 30
0.0
 10
54.003633
 20
62.894321
 30
0.0
 10
52.802311
 20
63.760146
 30
0.0
 10
52.802311
 20
64.244297
 30
0.0
  0
SPLINE
  5
171
100
AcDbEntity
  8
0
 62
7
100
AcDbSpline
 70
8
 71
3
 72
8
 73
4
 74
0
 40
0
 40
0
 40
0
 40
0
 40
1
 40
1
 40
1
 40
1
 10
52.802311
 20
64.244297
 30
0.0
 10
52.802311
 20
64.379028
 30
0.0
 10
53.035330
 20
64.613973
 30
0.0
 10
53.320127
 20
64.766391
 30
0.0
  0
SPLINE
  5
172
100
AcDbEntity
  8
0
 62
7
100
AcDbSpline
 70
8
 71
3
 72
8
 73
4
 74
0
 40
0
 40
0
 40
0
 40
0
 40
1
 40
1
 40
1
 40
1
 10
53.320127
 20
64.766391
 30
0.0
 10
53.710948
 20
64.975552
 30
0.0
 10
54.176335
 20
64.914939
 30
0.0
 10
55.217719
 20
64.519244
 30
0.0
  0
SPLINE
  5
173
100
AcDbEntity
  8
0
 62
7
100
AcDbSpline
 70
8
 71
3
 72
8
 73
4
 74
0
 40
0
 40
0
 40
0
 40
0
 40
1
 40
1
 40
1
 40
1
 10
55.217719
 20
64.519244
 30
0.0
 10
56.710424
 20
63.952062
 30
0.0
 10
57.025344
 20
63.640017
 30
0.0
 10
57.031594
 20
62.721945
 30
0.0
  0
SPLINE
  5
174
100
AcDbEntity
  8
0
 62
7
100
AcDbSpline
 70
8
 71
3
 72
8
 73
4
 74
0
 40
0
 40
0
 40
0
 40
0
 40
1
 40
1
 40
1
 40
1
 10
57.031594
 20
62.721945
 30
0.0
 10
57.036224
 20
62.041887
 30
0.0
 10
56.835260
 20
62.021344
 30
0.0
 10
55.177526
 20
62.532416
 30
0.0
  0
LWPOLYLINE
  5
175
100
AcDbEntity
  8
0
 62
7
100
AcDbPolyline
 90
1
 70
1
 10
61.868140
 20
62.253114
 30
0.0
  0
SPLINE
  5
176
100
AcDbEntity
  8
0
 62
7
100
AcDbSpline
 70
8
 71
3
 72
8
 73
4
 74
0
 40
0
 40
0
 40
0
 40
0
 40
1
 40
1
 40
1
 40
1
 10
71.856362
 20
62.721945
 30
0.0
 10
71.862606
 20
63.640017
 30
0.0
 10
72.177532
 20
63.952062
 30
0.0
 10
73.670237
 20
64.519244
 30
0.0
  0
SPLINE
  5
177
100
AcDbEntity
  8
0
 62
7
100
AcDbSpline
 70
8
 71
3
 72
8
 73
4
 74
0
 40
0
 40
0
 40
0
 40
0
 40
1
 40
1
 40
1
 40
1
 10
73.670237
 20
64.519244
 30
0.0
 10
74.711621
 20
64.914939
 30
0.0
 10
75.177007
 20
64.975552
 30
0.0
 10
75.567828
 20
64.766391
 30
0.0
  0
SPLINE
  5
178
100
AcDbEntity
  8
0
 62
7
100
AcDbSpline
 70
8
 71
3
 72
8
 73
4
 74
0
 40
0
 40
0
 40
0
 40
0
 40
1
 40
1
 40
1
 40
1
 10
75.567828
 20
64.766391
 30
0.0
 10
75.852626
 20
64.613973
 30
0.0
 10
76.085644
 20
64.379028
 30
0.0
 10
76.085644
 20
64.244297
 30
0.0
  0
SPLINE
  5
179
100
AcDbEntity
  8
0
 62
7
100
AcDbSpline
 70
8
 71
3
 72
8
 73
4
 74
0
 40
0
 40
0
 40
0
 40
0
 40
1
 40
1
 40
1
 40
1
 10
76.085644
 20
64.244297
 30
0.0
 10
76.085644
 20
63.739326
 30
0.0
 10
74.868635
 20
62.893760
 30
0.0
 10
73.599289
 20
62.516806
 30
0.0
  0
SPLINE
  5
17a
100
AcDbEntity
  8
0
 62
7
100
AcDbSpline
 70
8
 71
3
 72
8
 73
4
 74
0
 40
0
 40
0
 40
0
 40
0
 40
1
 40
1
 40
1
 40
1
 10
73.599289
 20
62.516806
 30
0.0
 10
71.900172
 20
62.012221
 30
0.0
 10
71.851570
 20
62.017942
 30
0.0
 10
71.856362
 20
62.721945
 30
0.0
  0
LWPOLYLINE
  5
17b
100
AcDbEntity
  8
0
 62
7
100
AcDbPolyline
 90
1
 70
1
 10
55.177526
 20
62.532416
 30
0.0
  0
SPLINE
  5
17c
100
AcDbEntity
  8
0
 62
7
100
AcDbSpline
 70
8
 71
3
 72
8
 73
4
 74
0
 40
0
 40
0
 40
0
 40
0
 40
1
 40
1
 40
1
 40
1
 10
18.939489
 20
85.342010
 30
0.0
 10
19.743780
 20
86.364479
 30
0.0
 10
22.394120
 20
88.446134
 30
0.0
 10
23.830437
 20
89.183506
 30
0.0
  0
SPLINE
  5
17d
100
AcDbEntity
  8
0
 62
7
100
AcDbSpline
 70
8
 71
3
 72
8
 73
4
 74
0
 40
0
 40
0
 40
0
 40
0
 40
1
 40
1
 40
1
 40
1
 10
23.830437
 20
89.183506
 30
0.0
 10
24.412520
 20
89.482335
 30
0.0
 10
24.740982
 20
89.777144
 30
0.0
 10
24.560348
 20
89.838638
 30
0.0
  0
SPLINE
  5
17e
100
AcDbEntity
  8
0
 62
7
100
AcDbSpline
 70
8
 71
3
 72
8
 73
4
 74
0
 40
0
 40
0
 40
0
 40
0
 40
1
 40
1
 40
1
 40
1
 10
24.560348
 20
89.838638
 30
0.0
 10
24.051014
 20
90.012031
 30
0.0
 10
22.600243
 20
89.453175
 30
0.0
 10
20.890397
 20
88.424925
 30
0.0
  0
LWPOLYLINE
  5
17f
100
AcDbEntity
  8
0
 62
7
100
AcDbPolyline
 90
1
 70
1
 10
71.856362
 20
62.721945
 30
0.0
  0
SPLINE
  5
180
100
AcDbEntity
  8
0
 62
7
100
AcDbSpline
 70
8
 71
3
 72
8
 73
4
 74
0
 40
0
 40
0
 40
0
 40
0
 40
1
 40
1
 40
1
 40
1
 10
20.120031
 20
88.311958
 30
0.0
 10
20.553162
 20
88.765100
 30
0.0
 10
21.481569
 20
89.504205
 30
0.0
 10
22.183159
 20
89.954415
 30
0.0
  0
SPLINE
  5
181
100
AcDbEntity
  8
0
 62
7
100
AcDbSpline
 70
8
 71
3
 72
8
 73
4
 74
0
 40
0
 40
0
 40
0
 40
0
 40
1
 40
1
 40
1
 40
1
 10
22.183159
 20
89.954415
 30
0.0
 10
23.458578
 20
90.772848
 30
0.0
 10
23.458700
 20
90.773065
 30
0.0
 10
22.946887
 20
91.332616
 30
0.0
  0
SPLINE
  5
182
100
AcDbEntity
  8
0
 62
7
100
AcDbSpline
 70
8
 71
3
 72
8
 73
4
 74
0
 40
0
 40
0
 40
0
 40
0
 40
1
 40
1
 40
1
 40
1
 10
22.946887
 20
91.332616
 30
0.0
 10
22.318213
 20
92.019935
 30
0.0
 10
20.907595
 20
94.564298
 30
0.0
 10
20.656339
 20
95.464133
 30
0.0
  0
SPLINE
  5
183
100
AcDbEntity
  8
0
 62
7
100
AcDbSpline
 70
8
 71
3
 72
8
 73
4
 74
0
 40
0
 40
0
 40
0
 40
0
 40
1
 40
1
 40
1
 40
1
 10
20.656339
 20
95.464133
 30
0.0
 10
20.546846
 20
95.856264
 30
0.0
 10
20.815943
 20
95.586936
 30
0.0
 10
21.317234
 20
94.802674
 30
0.0
  0
SPLINE
  5
184
100
AcDbEntity
  8
0
 62
7
100
AcDbSpline
 70
8
 71
3
 72
8
 73
4
 74
0
 40
0
 40
0
 40
0
 40
0
 40
1
 40
1
 40
1
 40
1
 10
21.317234
 20
94.802674
 30
0.0
 10
23.212373
 20
91.837738
 30
0.0
 10
24.626946
 20
91.032428
 30
0.0
 10
26.433799
 20
91.889837
 30
0.0
  0
SPLINE
  5
185
100
AcDbEntity
  8
0
 62
7
100
AcDbSpline
 70
8
 71
3
 72
8
 73
4
 74
0
 40
0
 40
0
 40
0
 40
0
 40
1
 40
1
 40
1
 40
1
 10
26.433799
 20
91.889837
 30
0.0
 10
26.967339
 20
92.143019
 30
0.0
 10
28.469675
 20
93.583887
 30
0.0
 10
29.932641
 20
95.245526
 30
0.0
  0
SPLINE
  5
186
100
AcDbEntity
  8
0
 62
7
100
AcDbSpline
 70
8
 71
3
 72
8
 73
4
 74
0
 40
0
 40
0
 40
0
 40
0
 40
1
 40
1
 40
1
 40
1
 10
29.932641
 20
95.245526
 30
0.0
 10
31.827944
 20
97.398213
 30
0.0
 10
32.801708
 20
98.288364
 30
0.0
 10
33.667099
 20
98.659312
 30
0.0
  0
SPLINE
  5
187
100
AcDbEntity
  8
0
 62
7
100
AcDbSpline
 70
8
 71
3
 72
8
 73
4
 74
0
 40
0
 40
0
 40
0
 40
0
 40
1
 40
1
 40
1
 40
1
 10
33.667099
 20
98.659312
 30
0.0
 10
35.071905
 20
99.261483
 30
0.0
 10
37.557543
 20
99.692733
 30
0.0
 10
39.639290
 20
99.695468
 30
0.0
  0
SPLINE
  5
188
100
AcDbEntity
  8
0
 62
7
100
AcDbSpline
 70
8
 71
3
 72
8
 73
4
 74
0
 40
0
 40
0
 40
0
 40
0
 40
1
 40
1
 40
1
 40
1
 10
39.639290
 20
99.695468
 30
0.0
 10
41.139388
 20
99.697320
 30
0.0
 10
41.160644
 20
99.686816
 30
0.0
 10
41.160644
 20
98.936080
 30
0.0
  0
LWPOLYLINE
  5
189
100
AcDbEntity
  8
0
 62
7
100
AcDbPolyline
 90
3
 70
0
 10
20.890397
 20
88.424925
 30
0.0
 10
19.332520
 20
87.488067
 30
0.0
 10
20.120031
 20
88.311958
 30
0.0
  0
SPLINE
  5
18a
100
AcDbEntity
  8
0
 62
7
100
AcDbSpline
 70
8
 71
3
 72
8
 73
4
 74
0
 40
0
 40
0
 40
0
 40
0
 40
1
 40
1
 40
1
 40
1
 10
38.803800
 20
98.062010
 30
0.0
 10
34.815076
 20
97.871309
 30
0.0
 10
32.181670
 20
96.161691
 30
0.0
 10
30.459714
 20
92.644995
 30
0.0
  0
SPLINE
  5
18b
100
AcDbEntity
  8
0
 62
7
100
AcDbSpline
 70
8
 71
3
 72
8
 73
4
 74
0
 40
0
 40
0
 40
0
 40
0
 40
1
 40
1
 40
1
 40
1
 10
30.459714
 20
92.644995
 30
0.0
 10
29.746019
 20
91.187439
 30
0.0
 10
29.737841
 20
91.124275
 30
0.0
 10
30.215448
 20
90.758753
 30
0.0
  0
SPLINE
  5
18c
100
AcDbEntity
  8
0
 62
7
100
AcDbSpline
 70
8
 71
3
 72
8
 73
4
 74
0
 40
0
 40
0
 40
0
 40
0
 40
1
 40
1
 40
1
 40
1
 10
30.215448
 20
90.758753
 30
0.0
 10
31.677454
 20
89.639854
 30
0.0
 10
34.485882
 20
88.919592
 30
0.0
 10
38.316374
 20
88.681160
 30
0.0
  0
LWPOLYLINE
  5
18d
100
AcDbEntity
  8
0
 62
7
100
AcDbPolyline
 90
3
 70
0
 10
41.160644
 20
98.936080
 30
0.0
 10
41.160644
 20
98.174694
 30
0.0
 10
38.803800
 20
98.062010
 30
0.0
  0
SPLINE
  5
18e
100
AcDbEntity
  8
0
 62
7
100
AcDbSpline
 70
8
 71
3
 72
8
 73
4
 74
0
 40
0
 40
0
 40
0
 40
0
 40
1
 40
1
 40
1
 40
1
 10
38.316374
 20
86.279297
 30
0.0
 10
35.333366
 20
86.441706
 30
0.0
 10
32.777322
 20
87.076272
 30
0.0
 10
30.533030
 20
88.211597
 30
0.0
  0
SPLINE
  5
18f
100
AcDbEntity
  8
0
 62
7
100
AcDbSpline
 70
8
 71
3
 72
8
 73
4
 74
0
 40
0
 40
0
 40
0
 40
0
 40
1
 40
1
 40
1
 40
1
 10
30.533030
 20
88.211597
 30
0.0
 10
29.853834
 20
88.555184
 30
0.0
 10
28.811455
 20
88.914123
 30
0.0
 10
28.216632
 20
89.009241
 30
0.0
  0
SPLINE
  5
190
100
AcDbEntity
  8
0
 62
7
100
AcDbSpline
 70
8
 71
3
 72
8
 73
4
 74
0
 40
0
 40
0
 40
0
 40
0
 40
1
 40
1
 40
1
 40
1
 10
28.216632
 20
89.009241
 30
0.0
 10
26.190803
 20
89.333184
 30
0.0
 10
22.965231
 20
88.103170
 30
0.0
 10
20.130114
 20
85.925591
 30
0.0
  0
SPLINE
  5
191
100
AcDbEntity
  8
0
 62
7
100
AcDbSpline
 70
8
 71
3
 72
8
 73
4
 74
0
 40
0
 40
0
 40
0
 40
0
 40
1
 40
1
 40
1
 40
1
 10
20.130114
 20
85.925591
 30
0.0
 10
18.611528
 20
84.759202
 30
0.0
 10
18.399165
 20
84.655115
 30
0.0
 10
18.939489
 20
85.342010
 30
0.0
  0
LWPOLYLINE
  5
192
100
AcDbEntity
  8
0
 62
7
100
AcDbPolyline
 90
5
 70
0
 10
38.316374
 20
88.681160
 30
0.0
 10
41.160644
 20
88.504115
 30
0.0
 10
41.160644
 20
87.314278
 30
0.0
 10
41.160644
 20
86.124441
 30
0.0
 10
38.316374
 20
86.279297
 30
0.0
  0
SPLINE
  5
193
100
AcDbEntity
  8
0
 62
7
100
AcDbSpline
 70
8
 71
3
 72
8
 73
4
 74
0
 40
0
 40
0
 40
0
 40
0
 40
1
 40
1
 40
1
 40
1
 10
109.530444
 20
85.304003
 30
0.0
 10
107.016296
 20
87.553342
 30
0.0
 10
102.986194
 20
89.314097
 30
0.0
 10
100.970696
 20
89.043761
 30
0.0
  0
SPLINE
  5
194
100
AcDbEntity
  8
0
 62
7
100
AcDbSpline
 70
8
 71
3
 72
8
 73
4
 74
0
 40
0
 40
0
 40
0
 40
0
 40
1
 40
1
 40
1
 40
1
 10
100.970696
 20
89.043761
 30
0.0
 10
100.400440
 20
88.967276
 30
0.0
 10
99.241218
 20
88.582960
 30
0.0
 10
98.394650
 20
88.189729
 30
0.0
  0
SPLINE
  5
195
100
AcDbEntity
  8
0
 62
7
100
AcDbSpline
 70
8
 71
3
 72
8
 73
4
 74
0
 40
0
 40
0
 40
0
 40
0
 40
1
 40
1
 40
1
 40
1
 10
98.394650
 20
88.189729
 30
0.0
 10
95.911749
 20
87.036421
 30
0.0
 10
93.603326
 20
86.473371
 30
0.0
 10
90.632926
 20
86.296564
 30
0.0
  0
LWPOLYLINE
  5
196
100
AcDbEntity
  8
0
 62
7
100
AcDbPolyline
 90
1
 70
1
 10
18.939489
 20
85.342010
 30
0.0
  0
SPLINE
  5
197
100
AcDbEntity
  8
0
 62
7
100
AcDbSpline
 70
8
 71
3
 72
8
 73
4
 74
0
 40
0
 40
0
 40
0
 40
0
 40
1
 40
1
 40
1
 40
1
 10
90.764069
 20
88.674168
 30
0.0
 10
94.341019
 20
88.893026
 30
0.0
 10
97.229517
 20
89.654404
 30
0.0
 10
98.672507
 20
90.758753
 30
0.0
  0
SPLINE
  5
198
100
AcDbEntity
  8
0
 62
7
100
AcDbSpline
 70
8
 71
3
 72
8
 73
4
 74
0
 40
0
 40
0
 40
0
 40
0
 40
1
 40
1
 40
1
 40
1
 10
98.672507
 20
90.758753
 30
0.0
 10
99.150109
 20
91.124270
 30
0.0
 10
99.141907
 20
91.187498
 30
0.0
 10
98.427720
 20
92.646058
 30
0.0
  0
SPLINE
  5
199
100
AcDbEntity
  8
0
 62
7
100
AcDbSpline
 70
8
 71
3
 72
8
 73
4
 74
0
 40
0
 40
0
 40
0
 40
0
 40
1
 40
1
 40
1
 40
1
 10
98.427720
 20
92.646058
 30
0.0
 10
96.772529
 20
96.026399
 30
0.0
 10
93.984493
 20
97.861792
 30
0.0
 10
90.203345
 20
98.060253
 30
0.0
  0
LWPOLYLINE
  5
19a
100
AcDbEntity
  8
0
 62
7
100
AcDbPolyline
 90
5
 70
0
 10
90.632926
 20
86.296564
 30
0.0
 10
87.849998
 20
86.130913
 30
0.0
 10
87.944505
 20
87.319173
 30
0.0
 10
88.039011
 20
88.507432
 30
0.0
 10
90.764069
 20
88.674168
 30
0.0
  0
SPLINE
  5
19b
100
AcDbEntity
  8
0
 62
7
100
AcDbSpline
 70
8
 71
3
 72
8
 73
4
 74
0
 40
0
 40
0
 40
0
 40
0
 40
1
 40
1
 40
1
 40
1
 10
90.488762
 20
99.613262
 30
0.0
 10
91.909807
 20
99.519917
 30
0.0
 10
93.644516
 20
99.217670
 30
0.0
 10
94.514837
 20
98.911778
 30
0.0
  0
SPLINE
  5
19c
100
AcDbEntity
  8
0
 62
7
100
AcDbSpline
 70
8
 71
3
 72
8
 73
4
 74
0
 40
0
 40
0
 40
0
 40
0
 40
1
 40
1
 40
1
 40
1
 10
94.514837
 20
98.911778
 30
0.0
 10
96.081302
 20
98.361209
 30
0.0
 10
96.153497
 20
98.296965
 30
0.0
 10
100.594874
 20
93.501422
 30
0.0
  0
SPLINE
  5
19d
100
AcDbEntity
  8
0
 62
7
100
AcDbSpline
 70
8
 71
3
 72
8
 73
4
 74
0
 40
0
 40
0
 40
0
 40
0
 40
1
 40
1
 40
1
 40
1
 10
100.594874
 20
93.501422
 30
0.0
 10
103.315868
 20
90.563451
 30
0.0
 10
105.070256
 20
90.890709
 30
0.0
 10
107.570725
 20
94.802674
 30
0.0
  0
SPLINE
  5
19e
100
AcDbEntity
  8
0
 62
7
100
AcDbSpline
 70
8
 71
3
 72
8
 73
4
 74
0
 40
0
 40
0
 40
0
 40
0
 40
1
 40
1
 40
1
 40
1
 10
107.570725
 20
94.802674
 30
0.0
 10
108.072013
 20
95.586936
 30
0.0
 10
108.341110
 20
95.856264
 30
0.0
 10
108.231617
 20
95.464133
 30
0.0
  0
SPLINE
  5
19f
100
AcDbEntity
  8
0
 62
7
100
AcDbSpline
 70
8
 71
3
 72
8
 73
4
 74
0
 40
0
 40
0
 40
0
 40
0
 40
1
 40
1
 40
1
 40
1
 10
108.231617
 20
95.464133
 30
0.0
 10
107.980364
 20
94.564298
 30
0.0
 10
106.569745
 20
92.019935
 30
0.0
 10
105.941069
 20
91.332616
 30
0.0
  0
SPLINE
  5
1a0
100
AcDbEntity
  8
0
 62
7
100
AcDbSpline
 70
8
 71
3
 72
8
 73
4
 74
0
 40
0
 40
0
 40
0
 40
0
 40
1
 40
1
 40
1
 40
1
 10
105.941069
 20
91.332616
 30
0.0
 10
105.429259
 20
90.773065
 30
0.0
 10
105.429378
 20
90.772848
 30
0.0
 10
106.704797
 20
89.954415
 30
0.0
  0
SPLINE
  5
1a1
100
AcDbEntity
  8
0
 62
7
100
AcDbSpline
 70
8
 71
3
 72
8
 73
4
 74
0
 40
0
 40
0
 40
0
 40
0
 40
1
 40
1
 40
1
 40
1
 10
106.704797
 20
89.954415
 30
0.0
 10
107.406390
 20
89.504205
 30
0.0
 10
108.334797
 20
88.765100
 30
0.0
 10
108.767928
 20
88.311958
 30
0.0
  0
LWPOLYLINE
  5
1a2
100
AcDbEntity
  8
0
 62
7
100
AcDbPolyline
 90
5
 70
0
 10
90.203345
 20
98.060253
 30
0.0
 10
87.991894
 20
98.176323
 30
0.0
 10
87.991894
 20
98.976799
 30
0.0
 10
87.991894
 20
99.777277
 30
0.0
 10
90.488762
 20
99.613262
 30
0.0
  0
SPLINE
  5
1a3
100
AcDbEntity
  8
0
 62
7
100
AcDbSpline
 70
8
 71
3
 72
8
 73
4
 74
0
 40
0
 40
0
 40
0
 40
0
 40
1
 40
1
 40
1
 40
1
 10
107.997559
 20
88.424925
 30
0.0
 10
106.287713
 20
89.453175
 30
0.0
 10
104.836944
 20
90.012031
 30
0.0
 10
104.327608
 20
89.838638
 30
0.0
  0
SPLINE
  5
1a4
100
AcDbEntity
  8
0
 62
7
100
AcDbSpline
 70
8
 71
3
 72
8
 73
4
 74
0
 40
0
 40
0
 40
0
 40
0
 40
1
 40
1
 40
1
 40
1
 10
104.327608
 20
89.838638
 30
0.0
 10
104.146977
 20
89.777144
 30
0.0
 10
104.475436
 20
89.482335
 30
0.0
 10
105.057519
 20
89.183506
 30
0.0
  0
SPLINE
  5
1a5
100
AcDbEntity
  8
0
 62
7
100
AcDbSpline
 70
8
 71
3
 72
8
 73
4
 74
0
 40
0
 40
0
 40
0
 40
0
 40
1
 40
1
 40
1
 40
1
 10
105.057519
 20
89.183506
 30
0.0
 10
106.461883
 20
88.462541
 30
0.0
 10
109.137805
 20
86.372509
 30
0.0
 10
109.905342
 20
85.397115
 30
0.0
  0
SPLINE
  5
1a6
100
AcDbEntity
  8
0
 62
7
100
AcDbSpline
 70
8
 71
3
 72
8
 73
4
 74
0
 40
0
 40
0
 40
0
 40
0
 40
1
 40
1
 40
1
 40
1
 10
109.905342
 20
85.397115
 30
0.0
 10
110.663450
 20
84.433701
 30
0.0
 10
110.538022
 20
84.402549
 30
0.0
 10
109.530444
 20
85.304003
 30
0.0
  0
LWPOLYLINE
  5
1a7
100
AcDbEntity
  8
0
 62
7
100
AcDbPolyline
 90
3
 70
0
 10
108.767928
 20
88.311958
 30
0.0
 10
109.555436
 20
87.488067
 30
0.0
 10
107.997559
 20
88.424925
 30
0.0
  0
SPLINE
  5
1a8
100
AcDbEntity
  8
0
 62
7
100
AcDbSpline
 70
8
 71
3
 72
8
 73
4
 74
0
 40
0
 40
0
 40
0
 40
0
 40
1
 40
1
 40
1
 40
1
 10
42.846879
 20
86.592632
 30
0.0
 10
42.770872
 20
86.790705
 30
0.0
 10
42.747327
 20
87.290246
 30
0.0
 10
42.794560
 20
87.702721
 30
0.0
  0
SPLINE
  5
1a9
100
AcDbEntity
  8
0
 62
7
100
AcDbSpline
 70
8
 71
3
 72
8
 73
4
 74
0
 40
0
 40
0
 40
0
 40
0
 40
1
 40
1
 40
1
 40
1
 10
42.794560
 20
87.702721
 30
0.0
 10
42.878457
 20
88.435381
 30
0.0
 10
42.927577
 20
88.456950
 30
0.0
 10
44.924686
 20
88.638041
 30
0.0
  0
SPLINE
  5
1aa
100
AcDbEntity
  8
0
 62
7
100
AcDbSpline
 70
8
 71
3
 72
8
 73
4
 74
0
 40
0
 40
0
 40
0
 40
0
 40
1
 40
1
 40
1
 40
1
 10
44.924686
 20
88.638041
 30
0.0
 10
47.546752
 20
88.875801
 30
0.0
 10
50.459653
 20
89.744005
 30
0.0
 10
51.106409
 20
90.480534
 30
0.0
  0
SPLINE
  5
1ab
100
AcDbEntity
  8
0
 62
7
100
AcDbSpline
 70
8
 71
3
 72
8
 73
4
 74
0
 40
0
 40
0
 40
0
 40
0
 40
1
 40
1
 40
1
 40
1
 10
51.106409
 20
90.480534
 30
0.0
 10
51.605188
 20
91.048544
 30
0.0
 10
51.604881
 20
91.053330
 30
0.0
 10
51.082517
 20
90.852736
 30
0.0
  0
SPLINE
  5
1ac
100
AcDbEntity
  8
0
 62
7
100
AcDbSpline
 70
8
 71
3
 72
8
 73
4
 74
0
 40
0
 40
0
 40
0
 40
0
 40
1
 40
1
 40
1
 40
1
 10
51.082517
 20
90.852736
 30
0.0
 10
50.791475
 20
90.740973
 30
0.0
 10
49.481788
 20
90.422320
 30
0.0
 10
48.172100
 20
90.144621
 30
0.0
  0
SPLINE
  5
1ad
100
AcDbEntity
  8
0
 62
7
100
AcDbSpline
 70
8
 71
3
 72
8
 73
4
 74
0
 40
0
 40
0
 40
0
 40
0
 40
1
 40
1
 40
1
 40
1
 10
48.172100
 20
90.144621
 30
0.0
 10
41.951238
 20
88.825583
 30
0.0
 10
31.106475
 20
90.106251
 30
0.0
 10
31.106475
 20
92.159915
 30
0.0
  0
SPLINE
  5
1ae
100
AcDbEntity
  8
0
 62
7
100
AcDbSpline
 70
8
 71
3
 72
8
 73
4
 74
0
 40
0
 40
0
 40
0
 40
0
 40
1
 40
1
 40
1
 40
1
 10
31.106475
 20
92.159915
 30
0.0
 10
31.106475
 20
93.234968
 30
0.0
 10
33.871016
 20
95.073819
 30
0.0
 10
37.067077
 20
96.124641
 30
0.0
  0
SPLINE
  5
1af
100
AcDbEntity
  8
0
 62
7
100
AcDbSpline
 70
8
 71
3
 72
8
 73
4
 74
0
 40
0
 40
0
 40
0
 40
0
 40
1
 40
1
 40
1
 40
1
 10
37.067077
 20
96.124641
 30
0.0
 10
41.311409
 20
97.520122
 30
0.0
 10
45.834951
 20
96.931618
 30
0.0
 10
50.222621
 20
94.413128
 30
0.0
  0
SPLINE
  5
1b0
100
AcDbEntity
  8
0
 62
7
100
AcDbSpline
 70
8
 71
3
 72
8
 73
4
 74
0
 40
0
 40
0
 40
0
 40
0
 40
1
 40
1
 40
1
 40
1
 10
50.222621
 20
94.413128
 30
0.0
 10
52.173561
 20
93.293303
 30
0.0
 10
52.586652
 20
93.387839
 30
0.0
 10
51.016371
 20
94.594775
 30
0.0
  0
SPLINE
  5
1b1
100
AcDbEntity
  8
0
 62
7
100
AcDbSpline
 70
8
 71
3
 72
8
 73
4
 74
0
 40
0
 40
0
 40
0
 40
0
 40
1
 40
1
 40
1
 40
1
 10
51.016371
 20
94.594775
 30
0.0
 10
49.082616
 20
96.081083
 30
0.0
 10
46.771616
 20
97.142665
 30
0.0
 10
44.229877
 20
97.712220
 30
0.0
  0
SPLINE
  5
1b2
100
AcDbEntity
  8
0
 62
7
100
AcDbSpline
 70
8
 71
3
 72
8
 73
4
 74
0
 40
0
 40
0
 40
0
 40
0
 40
1
 40
1
 40
1
 40
1
 10
44.229877
 20
97.712220
 30
0.0
 10
43.043962
 20
97.977963
 30
0.0
 10
42.870064
 20
98.102857
 30
0.0
 10
42.794867
 20
98.742868
 30
0.0
  0
SPLINE
  5
1b3
100
AcDbEntity
  8
0
 62
7
100
AcDbSpline
 70
8
 71
3
 72
8
 73
4
 74
0
 40
0
 40
0
 40
0
 40
0
 40
1
 40
1
 40
1
 40
1
 10
42.794867
 20
98.742868
 30
0.0
 10
42.709349
 20
99.470739
 30
0.0
 10
42.709989
 20
99.471028
 30
0.0
 10
43.985492
 20
99.280567
 30
0.0
  0
SPLINE
  5
1b4
100
AcDbEntity
  8
0
 62
7
100
AcDbSpline
 70
8
 71
3
 72
8
 73
4
 74
0
 40
0
 40
0
 40
0
 40
0
 40
1
 40
1
 40
1
 40
1
 10
43.985492
 20
99.280567
 30
0.0
 10
46.882000
 20
98.848056
 30
0.0
 10
51.175333
 20
96.995888
 30
0.0
 10
52.689014
 20
95.525820
 30
0.0
  0
SPLINE
  5
1b5
100
AcDbEntity
  8
0
 62
7
100
AcDbSpline
 70
8
 71
3
 72
8
 73
4
 74
0
 40
0
 40
0
 40
0
 40
0
 40
1
 40
1
 40
1
 40
1
 10
52.689014
 20
95.525820
 30
0.0
 10
53.830098
 20
94.417613
 30
0.0
 10
54.762874
 20
92.490311
 30
0.0
 10
54.555004
 20
91.670307
 30
0.0
  0
SPLINE
  5
1b6
100
AcDbEntity
  8
0
 62
7
100
AcDbSpline
 70
8
 71
3
 72
8
 73
4
 74
0
 40
0
 40
0
 40
0
 40
0
 40
1
 40
1
 40
1
 40
1
 10
54.555004
 20
91.670307
 30
0.0
 10
54.116782
 20
89.941617
 30
0.0
 10
50.908096
 20
87.939406
 30
0.0
 10
47.104345
 20
87.021122
 30
0.0
  0
SPLINE
  5
1b7
100
AcDbEntity
  8
0
 62
7
100
AcDbSpline
 70
8
 71
3
 72
8
 73
4
 74
0
 40
0
 40
0
 40
0
 40
0
 40
1
 40
1
 40
1
 40
1
 10
47.104345
 20
87.021122
 30
0.0
 10
43.972935
 20
86.265152
 30
0.0
 10
43.009741
 20
86.168211
 30
0.0
 10
42.846876
 20
86.592632
 30
0.0
  0
LWPOLYLINE
  5
1b8
100
AcDbEntity
  8
0
 62
7
100
AcDbPolyline
 90
1
 70
1
 10
109.530444
 20
85.304003
 30
0.0
  0
SPLINE
  5
1b9
100
AcDbEntity
  8
0
 62
7
100
AcDbSpline
 70
8
 71
3
 72
8
 73
4
 74
0
 40
0
 40
0
 40
0
 40
0
 40
1
 40
1
 40
1
 40
1
 10
84.023144
 20
86.483359
 30
0.0
 10
80.000038
 20
87.078077
 30
0.0
 10
75.629386
 20
89.209211
 30
0.0
 10
74.631092
 20
91.062932
 30
0.0
  0
SPLINE
  5
1ba
100
AcDbEntity
  8
0
 62
7
100
AcDbSpline
 70
8
 71
3
 72
8
 73
4
 74
0
 40
0
 40
0
 40
0
 40
0
 40
1
 40
1
 40
1
 40
1
 10
74.631092
 20
91.062932
 30
0.0
 10
74.162261
 20
91.933498
 30
0.0
 10
74.160973
 20
92.022726
 30
0.0
 10
74.600612
 20
93.173902
 30
0.0
  0
SPLINE
  5
1bb
100
AcDbEntity
  8
0
 62
7
100
AcDbSpline
 70
8
 71
3
 72
8
 73
4
 74
0
 40
0
 40
0
 40
0
 40
0
 40
1
 40
1
 40
1
 40
1
 10
74.600612
 20
93.173902
 30
0.0
 10
75.469406
 20
95.448808
 30
0.0
 10
77.661521
 20
97.047201
 30
0.0
 10
81.906478
 20
98.501009
 30
0.0
  0
SPLINE
  5
1bc
100
AcDbEntity
  8
0
 62
7
100
AcDbSpline
 70
8
 71
3
 72
8
 73
4
 74
0
 40
0
 40
0
 40
0
 40
0
 40
1
 40
1
 40
1
 40
1
 10
81.906478
 20
98.501009
 30
0.0
 10
82.852363
 20
98.824957
 30
0.0
 10
84.200556
 20
99.175758
 30
0.0
 10
84.902461
 20
99.280567
 30
0.0
  0
SPLINE
  5
1bd
100
AcDbEntity
  8
0
 62
7
100
AcDbSpline
 70
8
 71
3
 72
8
 73
4
 74
0
 40
0
 40
0
 40
0
 40
0
 40
1
 40
1
 40
1
 40
1
 10
84.902461
 20
99.280567
 30
0.0
 10
86.177644
 20
99.470980
 30
0.0
 10
86.178583
 20
99.470557
 30
0.0
 10
86.093086
 20
98.743778
 30
0.0
  0
SPLINE
  5
1be
100
AcDbEntity
  8
0
 62
7
100
AcDbSpline
 70
8
 71
3
 72
8
 73
4
 74
0
 40
0
 40
0
 40
0
 40
0
 40
1
 40
1
 40
1
 40
1
 10
86.093086
 20
98.743778
 30
0.0
 10
86.016465
 20
98.092477
 30
0.0
 10
85.847613
 20
97.980272
 30
0.0
 10
84.478170
 20
97.670639
 30
0.0
  0
SPLINE
  5
1bf
100
AcDbEntity
  8
0
 62
7
100
AcDbSpline
 70
8
 71
3
 72
8
 73
4
 74
0
 40
0
 40
0
 40
0
 40
0
 40
1
 40
1
 40
1
 40
1
 10
84.478170
 20
97.670639
 30
0.0
 10
82.543441
 20
97.233195
 30
0.0
 10
79.280520
 20
95.733894
 30
0.0
 10
77.922525
 20
94.658341
 30
0.0
  0
SPLINE
  5
1c0
100
AcDbEntity
  8
0
 62
7
100
AcDbSpline
 70
8
 71
3
 72
8
 73
4
 74
0
 40
0
 40
0
 40
0
 40
0
 40
1
 40
1
 40
1
 40
1
 10
77.922525
 20
94.658341
 30
0.0
 10
76.323164
 20
93.391625
 30
0.0
 10
76.680293
 20
93.273729
 30
0.0
 10
78.665332
 20
94.413128
 30
0.0
  0
SPLINE
  5
1c1
100
AcDbEntity
  8
0
 62
7
100
AcDbSpline
 70
8
 71
3
 72
8
 73
4
 74
0
 40
0
 40
0
 40
0
 40
0
 40
1
 40
1
 40
1
 40
1
 10
78.665332
 20
94.413128
 30
0.0
 10
83.075399
 20
96.944471
 30
0.0
 10
87.558798
 20
97.527983
 30
0.0
 10
91.820876
 20
96.125310
 30
0.0
  0
SPLINE
  5
1c2
100
AcDbEntity
  8
0
 62
7
100
AcDbSpline
 70
8
 71
3
 72
8
 73
4
 74
0
 40
0
 40
0
 40
0
 40
0
 40
1
 40
1
 40
1
 40
1
 10
91.820876
 20
96.125310
 30
0.0
 10
94.981162
 20
95.085247
 30
0.0
 10
97.781478
 20
93.234640
 30
0.0
 10
97.781478
 20
92.186212
 30
0.0
  0
SPLINE
  5
1c3
100
AcDbEntity
  8
0
 62
7
100
AcDbSpline
 70
8
 71
3
 72
8
 73
4
 74
0
 40
0
 40
0
 40
0
 40
0
 40
1
 40
1
 40
1
 40
1
 10
97.781478
 20
92.186212
 30
0.0
 10
97.781478
 20
90.127214
 30
0.0
 10
86.936178
 20
88.830642
 30
0.0
 10
80.715853
 20
90.145989
 30
0.0
  0
SPLINE
  5
1c4
100
AcDbEntity
  8
0
 62
7
100
AcDbSpline
 70
8
 71
3
 72
8
 73
4
 74
0
 40
0
 40
0
 40
0
 40
0
 40
1
 40
1
 40
1
 40
1
 10
80.715853
 20
90.145989
 30
0.0
 10
79.406165
 20
90.422936
 30
0.0
 10
78.096478
 20
90.740973
 30
0.0
 10
77.805436
 20
90.852736
 30
0.0
  0
SPLINE
  5
1c5
100
AcDbEntity
  8
0
 62
7
100
AcDbSpline
 70
8
 71
3
 72
8
 73
4
 74
0
 40
0
 40
0
 40
0
 40
0
 40
1
 40
1
 40
1
 40
1
 10
77.805436
 20
90.852736
 30
0.0
 10
77.283075
 20
91.053330
 30
0.0
 10
77.282768
 20
91.048544
 30
0.0
 10
77.781544
 20
90.480534
 30
0.0
  0
SPLINE
  5
1c6
100
AcDbEntity
  8
0
 62
7
100
AcDbSpline
 70
8
 71
3
 72
8
 73
4
 74
0
 40
0
 40
0
 40
0
 40
0
 40
1
 40
1
 40
1
 40
1
 10
77.781544
 20
90.480534
 30
0.0
 10
78.451250
 20
89.717872
 30
0.0
 10
81.522800
 20
88.825808
 30
0.0
 10
84.083401
 20
88.650302
 30
0.0
  0
LWPOLYLINE
  5
1c7
100
AcDbEntity
  8
0
 62
7
100
AcDbPolyline
 90
1
 70
1
 10
42.846876
 20
86.592632
 30
0.0
  0
SPLINE
  5
1c8
100
AcDbEntity
  8
0
 62
7
100
AcDbSpline
 70
8
 71
3
 72
8
 73
4
 74
0
 40
0
 40
0
 40
0
 40
0
 40
1
 40
1
 40
1
 40
1
 10
86.139808
 20
87.356535
 30
0.0
 10
86.139808
 20
86.593460
 30
0.0
 10
86.027996
 20
86.214625
 30
0.0
 10
85.809079
 20
86.235979
 30
0.0
  0
SPLINE
  5
1c9
100
AcDbEntity
  8
0
 62
7
100
AcDbSpline
 70
8
 71
3
 72
8
 73
4
 74
0
 40
0
 40
0
 40
0
 40
0
 40
1
 40
1
 40
1
 40
1
 10
85.809079
 20
86.235979
 30
0.0
 10
85.627178
 20
86.253733
 30
0.0
 10
84.823506
 20
86.365046
 30
0.0
 10
84.023142
 20
86.483359
 30
0.0
  0
LWPOLYLINE
  5
1ca
100
AcDbEntity
  8
0
 62
7
100
AcDbPolyline
 90
3
 70
0
 10
84.083401
 20
88.650302
 30
0.0
 10
86.139808
 20
88.509351
 30
0.0
 10
86.139808
 20
87.356535
 30
0.0
  0
SPLINE
  5
1cb
100
AcDbEntity
  8
0
 62
7
100
AcDbSpline
 70
8
 71
3
 72
8
 73
4
 74
0
 40
0
 40
0
 40
0
 40
0
 40
1
 40
1
 40
1
 40
1
 10
55.845019
 20
95.940981
 30
0.0
 10
55.262936
 20
96.760977
 30
0.0
 10
53.238874
 20
98.996788
 30
0.0
 10
51.347103
 20
100.909453
 30
0.0
  0
SPLINE
  5
1cc
100
AcDbEntity
  8
0
 62
7
100
AcDbSpline
 70
8
 71
3
 72
8
 73
4
 74
0
 40
0
 40
0
 40
0
 40
0
 40
1
 40
1
 40
1
 40
1
 10
51.347103
 20
100.909453
 30
0.0
 10
46.571739
 20
105.737557
 30
0.0
 10
42.504365
 20
108.311257
 30
0.0
 10
37.296413
 20
109.800268
 30
0.0
  0
SPLINE
  5
1cd
100
AcDbEntity
  8
0
 62
7
100
AcDbSpline
 70
8
 71
3
 72
8
 73
4
 74
0
 40
0
 40
0
 40
0
 40
0
 40
1
 40
1
 40
1
 40
1
 10
37.296413
 20
109.800268
 30
0.0
 10
35.567686
 20
110.294531
 30
0.0
 10
34.546040
 20
110.398668
 30
0.0
 10
31.371061
 20
110.404243
 30
0.0
  0
SPLINE
  5
1ce
100
AcDbEntity
  8
0
 62
7
100
AcDbSpline
 70
8
 71
3
 72
8
 73
4
 74
0
 40
0
 40
0
 40
0
 40
0
 40
1
 40
1
 40
1
 40
1
 10
31.371061
 20
110.404243
 30
0.0
 10
27.472190
 20
110.411096
 30
0.0
 10
25.027555
 20
109.989900
 30
0.0
 10
23.499707
 20
109.048076
 30
0.0
  0
SPLINE
  5
1cf
100
AcDbEntity
  8
0
 62
7
100
AcDbSpline
 70
8
 71
3
 72
8
 73
4
 74
0
 40
0
 40
0
 40
0
 40
0
 40
1
 40
1
 40
1
 40
1
 10
23.499707
 20
109.048076
 30
0.0
 10
23.172286
 20
108.846239
 30
0.0
 10
22.904395
 20
108.727002
 30
0.0
 10
22.904395
 20
108.783101
 30
0.0
  0
SPLINE
  5
1d0
100
AcDbEntity
  8
0
 62
7
100
AcDbSpline
 70
8
 71
3
 72
8
 73
4
 74
0
 40
0
 40
0
 40
0
 40
0
 40
1
 40
1
 40
1
 40
1
 10
22.904395
 20
108.783101
 30
0.0
 10
22.904395
 20
109.103176
 30
0.0
 10
24.618183
 20
112.963947
 30
0.0
 10
25.210035
 20
113.977177
 30
0.0
  0
SPLINE
  5
1d1
100
AcDbEntity
  8
0
 62
7
100
AcDbSpline
 70
8
 71
3
 72
8
 73
4
 74
0
 40
0
 40
0
 40
0
 40
0
 40
1
 40
1
 40
1
 40
1
 10
25.210035
 20
113.977177
 30
0.0
 10
26.076797
 20
115.461048
 30
0.0
 10
28.530240
 20
118.077999
 30
0.0
 10
29.828882
 20
118.903843
 30
0.0
  0
SPLINE
  5
1d2
100
AcDbEntity
  8
0
 62
7
100
AcDbSpline
 70
8
 71
3
 72
8
 73
4
 74
0
 40
0
 40
0
 40
0
 40
0
 40
1
 40
1
 40
1
 40
1
 10
29.828882
 20
118.903843
 30
0.0
 10
32.476244
 20
120.587380
 30
0.0
 10
37.152188
 20
121.146103
 30
0.0
 10
40.975349
 20
120.235722
 30
0.0
  0
SPLINE
  5
1d3
100
AcDbEntity
  8
0
 62
7
100
AcDbSpline
 70
8
 71
3
 72
8
 73
4
 74
0
 40
0
 40
0
 40
0
 40
0
 40
1
 40
1
 40
1
 40
1
 10
40.975349
 20
120.235722
 30
0.0
 10
44.251724
 20
119.455542
 30
0.0
 10
48.630321
 20
117.387561
 30
0.0
 10
51.934102
 20
115.059976
 30
0.0
  0
SPLINE
  5
1d4
100
AcDbEntity
  8
0
 62
7
100
AcDbSpline
 70
8
 71
3
 72
8
 73
4
 74
0
 40
0
 40
0
 40
0
 40
0
 40
1
 40
1
 40
1
 40
1
 10
51.934102
 20
115.059976
 30
0.0
 10
52.872796
 20
114.398645
 30
0.0
 10
52.628191
 20
114.193620
 30
0.0
 10
51.545540
 20
114.734288
 30
0.0
  0
SPLINE
  5
1d5
100
AcDbEntity
  8
0
 62
7
100
AcDbSpline
 70
8
 71
3
 72
8
 73
4
 74
0
 40
0
 40
0
 40
0
 40
0
 40
1
 40
1
 40
1
 40
1
 10
51.545540
 20
114.734288
 30
0.0
 10
50.005237
 20
115.503505
 30
0.0
 10
45.775848
 20
116.439652
 30
0.0
 10
41.822103
 20
116.886498
 30
0.0
  0
SPLINE
  5
1d6
100
AcDbEntity
  8
0
 62
7
100
AcDbSpline
 70
8
 71
3
 72
8
 73
4
 74
0
 40
0
 40
0
 40
0
 40
0
 40
1
 40
1
 40
1
 40
1
 10
41.822103
 20
116.886498
 30
0.0
 10
38.448118
 20
117.267824
 30
0.0
 10
37.104595
 20
117.200067
 30
0.0
 10
39.482771
 20
116.768523
 30
0.0
  0
SPLINE
  5
1d7
100
AcDbEntity
  8
0
 62
7
100
AcDbSpline
 70
8
 71
3
 72
8
 73
4
 74
0
 40
0
 40
0
 40
0
 40
0
 40
1
 40
1
 40
1
 40
1
 10
39.482771
 20
116.768523
 30
0.0
 10
44.971425
 20
115.772552
 30
0.0
 10
51.224021
 20
112.465107
 30
0.0
 10
55.117415
 20
108.498243
 30
0.0
  0
SPLINE
  5
1d8
100
AcDbEntity
  8
0
 62
7
100
AcDbSpline
 70
8
 71
3
 72
8
 73
4
 74
0
 40
0
 40
0
 40
0
 40
0
 40
1
 40
1
 40
1
 40
1
 10
55.117415
 20
108.498243
 30
0.0
 10
57.226335
 20
106.349527
 30
0.0
 10
57.498843
 20
105.569414
 30
0.0
 10
56.393506
 20
104.845170
 30
0.0
  0
SPLINE
  5
1d9
100
AcDbEntity
  8
0
 62
7
100
AcDbSpline
 70
8
 71
3
 72
8
 73
4
 74
0
 40
0
 40
0
 40
0
 40
0
 40
1
 40
1
 40
1
 40
1
 10
56.393506
 20
104.845170
 30
0.0
 10
55.876404
 20
104.506350
 30
0.0
 10
55.557306
 20
104.478008
 30
0.0
 10
54.754738
 20
104.699607
 30
0.0
  0
SPLINE
  5
1da
100
AcDbEntity
  8
0
 62
7
100
AcDbSpline
 70
8
 71
3
 72
8
 73
4
 74
0
 40
0
 40
0
 40
0
 40
0
 40
1
 40
1
 40
1
 40
1
 10
54.754738
 20
104.699607
 30
0.0
 10
54.206590
 20
104.850957
 30
0.0
 10
53.736497
 20
104.948252
 30
0.0
 10
53.710083
 20
104.915817
 30
0.0
  0
SPLINE
  5
1db
100
AcDbEntity
  8
0
 62
7
100
AcDbSpline
 70
8
 71
3
 72
8
 73
4
 74
0
 40
0
 40
0
 40
0
 40
0
 40
1
 40
1
 40
1
 40
1
 10
53.710083
 20
104.915817
 30
0.0
 10
53.683678
 20
104.883379
 30
0.0
 10
54.131623
 20
103.690835
 30
0.0
 10
54.705533
 20
102.265715
 30
0.0
  0
SPLINE
  5
1dc
100
AcDbEntity
  8
0
 62
7
100
AcDbSpline
 70
8
 71
3
 72
8
 73
4
 74
0
 40
0
 40
0
 40
0
 40
0
 40
1
 40
1
 40
1
 40
1
 10
54.705533
 20
102.265715
 30
0.0
 10
55.614787
 20
100.007891
 30
0.0
 10
57.164174
 20
94.710546
 30
0.0
 10
56.971557
 20
94.518194
 30
0.0
  0
SPLINE
  5
1dd
100
AcDbEntity
  8
0
 62
7
100
AcDbSpline
 70
8
 71
3
 72
8
 73
4
 74
0
 40
0
 40
0
 40
0
 40
0
 40
1
 40
1
 40
1
 40
1
 10
56.971557
 20
94.518194
 30
0.0
 10
56.934044
 20
94.480732
 30
0.0
 10
56.427103
 20
95.120987
 30
0.0
 10
55.845019
 20
95.940981
 30
0.0
  0
LWPOLYLINE
  5
1de
100
AcDbEntity
  8
0
 62
7
100
AcDbPolyline
 90
1
 70
1
 10
84.023142
 20
86.483359
 30
0.0
  0
SPLINE
  5
1df
100
AcDbEntity
  8
0
 62
7
100
AcDbSpline
 70
8
 71
3
 72
8
 73
4
 74
0
 40
0
 40
0
 40
0
 40
0
 40
1
 40
1
 40
1
 40
1
 10
72.032178
 20
95.199549
 30
0.0
 10
72.338999
 20
96.984860
 30
0.0
 10
73.476977
 20
100.643111
 30
0.0
 10
74.373179
 20
102.725162
 30
0.0
  0
SPLINE
  5
1e0
100
AcDbEntity
  8
0
 62
7
100
AcDbSpline
 70
8
 71
3
 72
8
 73
4
 74
0
 40
0
 40
0
 40
0
 40
0
 40
1
 40
1
 40
1
 40
1
 10
74.373179
 20
102.725162
 30
0.0
 10
74.870731
 20
103.881073
 30
0.0
 10
75.244526
 20
104.860111
 30
0.0
 10
75.203833
 20
104.900804
 30
0.0
  0
SPLINE
  5
1e1
100
AcDbEntity
  8
0
 62
7
100
AcDbSpline
 70
8
 71
3
 72
8
 73
4
 74
0
 40
0
 40
0
 40
0
 40
0
 40
1
 40
1
 40
1
 40
1
 10
75.203833
 20
104.900804
 30
0.0
 10
75.163143
 20
104.941497
 30
0.0
 10
74.681366
 20
104.850957
 30
0.0
 10
74.133218
 20
104.699607
 30
0.0
  0
SPLINE
  5
1e2
100
AcDbEntity
  8
0
 62
7
100
AcDbSpline
 70
8
 71
3
 72
8
 73
4
 74
0
 40
0
 40
0
 40
0
 40
0
 40
1
 40
1
 40
1
 40
1
 10
74.133218
 20
104.699607
 30
0.0
 10
72.882784
 20
104.354344
 30
0.0
 10
71.852311
 20
104.908660
 30
0.0
 10
71.852311
 20
105.926559
 30
0.0
  0
SPLINE
  5
1e3
100
AcDbEntity
  8
0
 62
7
100
AcDbSpline
 70
8
 71
3
 72
8
 73
4
 74
0
 40
0
 40
0
 40
0
 40
0
 40
1
 40
1
 40
1
 40
1
 10
71.852311
 20
105.926559
 30
0.0
 10
71.852311
 20
106.887050
 30
0.0
 10
75.150707
 20
110.103854
 30
0.0
 10
78.144365
 20
112.062967
 30
0.0
  0
SPLINE
  5
1e4
100
AcDbEntity
  8
0
 62
7
100
AcDbSpline
 70
8
 71
3
 72
8
 73
4
 74
0
 40
0
 40
0
 40
0
 40
0
 40
1
 40
1
 40
1
 40
1
 10
78.144365
 20
112.062967
 30
0.0
 10
81.998423
 20
114.585145
 30
0.0
 10
87.864881
 20
116.895383
 30
0.0
 10
90.415467
 20
116.895383
 30
0.0
  0
SPLINE
  5
1e5
100
AcDbEntity
  8
0
 62
7
100
AcDbSpline
 70
8
 71
3
 72
8
 73
4
 74
0
 40
0
 40
0
 40
0
 40
0
 40
1
 40
1
 40
1
 40
1
 10
90.415467
 20
116.895383
 30
0.0
 10
90.828752
 20
116.895383
 30
0.0
 10
91.166894
 20
116.990048
 30
0.0
 10
91.166894
 20
117.105753
 30
0.0
  0
SPLINE
  5
1e6
100
AcDbEntity
  8
0
 62
7
100
AcDbSpline
 70
8
 71
3
 72
8
 73
4
 74
0
 40
0
 40
0
 40
0
 40
0
 40
1
 40
1
 40
1
 40
1
 10
91.166894
 20
117.105753
 30
0.0
 10
91.166894
 20
117.689078
 30
0.0
 10
80.999640
 20
116.083985
 30
0.0
 10
77.946898
 20
115.018728
 30
0.0
  0
SPLINE
  5
1e7
100
AcDbEntity
  8
0
 62
7
100
AcDbSpline
 70
8
 71
3
 72
8
 73
4
 74
0
 40
0
 40
0
 40
0
 40
0
 40
1
 40
1
 40
1
 40
1
 10
77.946898
 20
115.018728
 30
0.0
 10
76.168803
 20
114.398261
 30
0.0
 10
76.125840
 20
114.397314
 30
0.0
 10
76.909859
 20
114.995841
 30
0.0
  0
SPLINE
  5
1e8
100
AcDbEntity
  8
0
 62
7
100
AcDbSpline
 70
8
 71
3
 72
8
 73
4
 74
0
 40
0
 40
0
 40
0
 40
0
 40
1
 40
1
 40
1
 40
1
 10
76.909859
 20
114.995841
 30
0.0
 10
79.925569
 20
117.298034
 30
0.0
 10
84.936894
 20
119.601257
 30
0.0
 10
88.521061
 20
120.332391
 30
0.0
  0
SPLINE
  5
1e9
100
AcDbEntity
  8
0
 62
7
100
AcDbSpline
 70
8
 71
3
 72
8
 73
4
 74
0
 40
0
 40
0
 40
0
 40
0
 40
1
 40
1
 40
1
 40
1
 10
88.521061
 20
120.332391
 30
0.0
 10
92.170964
 20
121.076935
 30
0.0
 10
96.313628
 20
120.562567
 30
0.0
 10
98.839811
 20
119.051179
 30
0.0
  0
SPLINE
  5
1ea
100
AcDbEntity
  8
0
 62
7
100
AcDbSpline
 70
8
 71
3
 72
8
 73
4
 74
0
 40
0
 40
0
 40
0
 40
0
 40
1
 40
1
 40
1
 40
1
 10
98.839811
 20
119.051179
 30
0.0
 10
100.074886
 20
118.312245
 30
0.0
 10
102.572111
 20
115.710817
 30
0.0
 10
103.492168
 20
114.204687
 30
0.0
  0
SPLINE
  5
1eb
100
AcDbEntity
  8
0
 62
7
100
AcDbSpline
 70
8
 71
3
 72
8
 73
4
 74
0
 40
0
 40
0
 40
0
 40
0
 40
1
 40
1
 40
1
 40
1
 10
103.492168
 20
114.204687
 30
0.0
 10
104.262817
 20
112.943135
 30
0.0
 10
105.983561
 20
109.180424
 30
0.0
 10
105.983561
 20
108.756812
 30
0.0
  0
SPLINE
  5
1ec
100
AcDbEntity
  8
0
 62
7
100
AcDbSpline
 70
8
 71
3
 72
8
 73
4
 74
0
 40
0
 40
0
 40
0
 40
0
 40
1
 40
1
 40
1
 40
1
 10
105.983561
 20
108.756812
 30
0.0
 10
105.983561
 20
108.686248
 30
0.0
 10
105.817617
 20
108.766232
 30
0.0
 10
105.614798
 20
108.934560
 30
0.0
  0
SPLINE
  5
1ed
100
AcDbEntity
  8
0
 62
7
100
AcDbSpline
 70
8
 71
3
 72
8
 73
4
 74
0
 40
0
 40
0
 40
0
 40
0
 40
1
 40
1
 40
1
 40
1
 10
105.614798
 20
108.934560
 30
0.0
 10
105.411979
 20
109.102885
 30
0.0
 10
104.370182
 20
109.501114
 30
0.0
 10
103.299694
 20
109.819514
 30
0.0
  0
SPLINE
  5
1ee
100
AcDbEntity
  8
0
 62
7
100
AcDbSpline
 70
8
 71
3
 72
8
 73
4
 74
0
 40
0
 40
0
 40
0
 40
0
 40
1
 40
1
 40
1
 40
1
 10
103.299694
 20
109.819514
 30
0.0
 10
100.461011
 20
110.663837
 30
0.0
 10
94.578112
 20
110.654169
 30
0.0
 10
91.591543
 20
109.800279
 30
0.0
  0
SPLINE
  5
1ef
100
AcDbEntity
  8
0
 62
7
100
AcDbSpline
 70
8
 71
3
 72
8
 73
4
 74
0
 40
0
 40
0
 40
0
 40
0
 40
1
 40
1
 40
1
 40
1
 10
91.591543
 20
109.800279
 30
0.0
 10
86.913633
 20
108.462813
 30
0.0
 10
82.722926
 20
105.941601
 30
0.0
 10
78.493840
 20
101.920440
 30
0.0
  0
SPLINE
  5
1f0
100
AcDbEntity
  8
0
 62
7
100
AcDbSpline
 70
8
 71
3
 72
8
 73
4
 74
0
 40
0
 40
0
 40
0
 40
0
 40
1
 40
1
 40
1
 40
1
 10
78.493840
 20
101.920440
 30
0.0
 10
76.132513
 20
99.675209
 30
0.0
 10
73.701630
 20
96.919693
 30
0.0
 10
72.325690
 20
94.928568
 30
0.0
  0
LWPOLYLINE
  5
1f1
100
AcDbEntity
  8
0
 62
7
100
AcDbPolyline
 90
1
 70
1
 10
55.845019
 20
95.940981
 30
0.0
  0
LWPOLYLINE
  5
1f2
100
AcDbEntity
  8
0
 62
7
100
AcDbPolyline
 90
3
 70
0
 10
72.325690
 20
94.928568
 30
0.0
 10
71.873028
 20
94.273508
 30
0.0
 10
72.032178
 20
95.199549
 30
0.0
  0
ENDSEC
  0
SECTION
  2
OBJECTS
  0
DICTIONARY
  5
C
330
0
100
AcDbDictionary
  3
ACAD_GROUP
350
D
  3
ACAD_MLINESTYLE
350
17
  0
DICTIONARY
  5
D
330
C
100
AcDbDictionary
  0
DICTIONARY
  5
1A
330
C
100
AcDbDictionary
  0
DICTIONARY
  5
17
330
C
100
AcDbDictionary
  3
STANDARD
350
18
  0
DICTIONARY
  5
19
330
C
100
AcDbDictionary
  0
ENDSEC
  0
EOF
