  0
SECTION
  2
HEADER
  9
$ACADVER
  1
AC1021
  9
$ACADMAINTVER
 70
    25
  9
$DWGCODEPAGE
  3
ANSI_1251
  9
$INSBASE
 10
0.0
 20
0.0
 30
0.0
  9
$EXTMIN
 10
-11.6167
 20
-0.285
 30
0.0
  9
$EXTMAX
 10
9.97555
 20
8.3048
 30
0.0
  9
$LIMMIN
 10
0.0
 20
0.0
  9
$LIMMAX
 10
12.0
 20
9.0
  9
$ORTHOMODE
 70
     0
  9
$REGENMODE
 70
     1
  9
$FILLMODE
 70
     1
  9
$QTEXTMODE
 70
     0
  9
$MIRRTEXT
 70
     1
  9
$LTSCALE
 40
1.0
  9
$ATTMODE
 70
     1
  9
$TEXTSIZE
 40
0.2
  9
$TRACEWID
 40
0.05
  9
$TEXTSTYLE
  7
Standard
  9
$CLAYER
  8
0
  9
$CELTYPE
  6
ByLayer
  9
$CECOLOR
 62
   256
  9
$CELTSCALE
 40
1.0
  9
$DISPSILH
 70
     0
  9
$DIMSCALE
 40
1.0
  9
$DIMASZ
 40
0.18
  9
$DIMEXO
 40
0.0625
  9
$DIMDLI
 40
0.38
  9
$DIMRND
 40
0.0
  9
$DIMDLE
 40
0.0
  9
$DIMEXE
 40
0.18
  9
$DIMTP
 40
0.0
  9
$DIMTM
 40
0.0
  9
$DIMTXT
 40
0.18
  9
$DIMCEN
 40
0.09
  9
$DIMTSZ
 40
0.0
  9
$DIMTOL
 70
     0
  9
$DIMLIM
 70
     0
  9
$DIMTIH
 70
     1
  9
$DIMTOH
 70
     1
  9
$DIMSE1
 70
     0
  9
$DIMSE2
 70
     0
  9
$DIMTAD
 70
     0
  9
$DIMZIN
 70
     0
  9
$DIMBLK
  1

  9
$DIMASO
 70
     1
  9
$DIMSHO
 70
     1
  9
$DIMPOST
  1

  9
$DIMAPOST
  1

  9
$DIMALT
 70
     0
  9
$DIMALTD
 70
     2
  9
$DIMALTF
 40
25.4
  9
$DIMLFAC
 40
1.0
  9
$DIMTOFL
 70
     0
  9
$DIMTVP
 40
0.0
  9
$DIMTIX
 70
     0
  9
$DIMSOXD
 70
     0
  9
$DIMSAH
 70
     0
  9
$DIMBLK1
  1

  9
$DIMBLK2
  1

  9
$DIMSTYLE
  2
Standard
  9
$DIMCLRD
 70
     0
  9
$DIMCLRE
 70
     0
  9
$DIMCLRT
 70
     0
  9
$DIMTFAC
 40
1.0
  9
$DIMGAP
 40
0.09
  9
$DIMJUST
 70
     0
  9
$DIMSD1
 70
     0
  9
$DIMSD2
 70
     0
  9
$DIMTOLJ
 70
     1
  9
$DIMTZIN
 70
     0
  9
$DIMALTZ
 70
     0
  9
$DIMALTTZ
 70
     0
  9
$DIMUPT
 70
     0
  9
$DIMDEC
 70
     4
  9
$DIMTDEC
 70
     4
  9
$DIMALTU
 70
     2
  9
$DIMALTTD
 70
     2
  9
$DIMTXSTY
  7
Standard
  9
$DIMAUNIT
 70
     0
  9
$DIMADEC
 70
     0
  9
$DIMALTRND
 40
0.0
  9
$DIMAZIN
 70
     0
  9
$DIMDSEP
 70
    46
  9
$DIMATFIT
 70
     3
  9
$DIMFRAC
 70
     0
  9
$DIMLDRBLK
  1

  9
$DIMLUNIT
 70
     2
  9
$DIMLWD
 70
    -2
  9
$DIMLWE
 70
    -2
  9
$DIMTMOVE
 70
     0
  9
$DIMFXL
 40
1.0
  9
$DIMFXLON
 70
     0
  9
$DIMJOGANG
 40
0.7853981633974483
  9
$DIMTFILL
 70
     0
  9
$DIMTFILLCLR
 70
     0
  9
$DIMARCSYM
 70
     0
  9
$DIMLTYPE
  6

  9
$DIMLTEX1
  6

  9
$DIMLTEX2
  6

  9
$LUNITS
 70
     2
  9
$LUPREC
 70
     4
  9
$SKETCHINC
 40
0.1
  9
$FILLETRAD
 40
0.5
  9
$AUNITS
 70
     0
  9
$AUPREC
 70
     0
  9
$MENU
  1
.
  9
$ELEVATION
 40
0.0
  9
$PELEVATION
 40
0.0
  9
$THICKNESS
 40
0.0
  9
$LIMCHECK
 70
     0
  9
$CHAMFERA
 40
0.5
  9
$CHAMFERB
 40
0.5
  9
$CHAMFERC
 40
1.0
  9
$CHAMFERD
 40
0.0
  9
$SKPOLY
 70
     0
  9
$TDCREATE
 40
2456014.63390463
  9
$TDUCREATE
 40
2456014.467237963
  9
$TDUPDATE
 40
2456014.633904641
  9
$TDUUPDATE
 40
2456014.467237975
  9
$TDINDWG
 40
0.0000000116
  9
$TDUSRTIMER
 40
0.0000000116
  9
$USRTIMER
 70
     1
  9
$ANGBASE
 50
0.0
  9
$ANGDIR
 70
     0
  9
$PDMODE
 70
     0
  9
$PDSIZE
 40
0.0
  9
$PLINEWID
 40
0.0
  9
$SPLFRAME
 70
     0
  9
$SPLINETYPE
 70
     6
  9
$SPLINESEGS
 70
     8
  9
$HANDSEED
  5
8F
  9
$SURFTAB1
 70
     6
  9
$SURFTAB2
 70
     6
  9
$SURFTYPE
 70
     6
  9
$SURFU
 70
     6
  9
$SURFV
 70
     6
  9
$UCSBASE
  2

  9
$UCSNAME
  2

  9
$UCSORG
 10
0.0
 20
0.0
 30
0.0
  9
$UCSXDIR
 10
1.0
 20
0.0
 30
0.0
  9
$UCSYDIR
 10
0.0
 20
1.0
 30
0.0
  9
$UCSORTHOREF
  2

  9
$UCSORTHOVIEW
 70
     0
  9
$UCSORGTOP
 10
0.0
 20
0.0
 30
0.0
  9
$UCSORGBOTTOM
 10
0.0
 20
0.0
 30
0.0
  9
$UCSORGLEFT
 10
0.0
 20
0.0
 30
0.0
  9
$UCSORGRIGHT
 10
0.0
 20
0.0
 30
0.0
  9
$UCSORGFRONT
 10
0.0
 20
0.0
 30
0.0
  9
$UCSORGBACK
 10
0.0
 20
0.0
 30
0.0
  9
$PUCSBASE
  2

  9
$PUCSNAME
  2

  9
$PUCSORG
 10
0.0
 20
0.0
 30
0.0
  9
$PUCSXDIR
 10
1.0
 20
0.0
 30
0.0
  9
$PUCSYDIR
 10
0.0
 20
1.0
 30
0.0
  9
$PUCSORTHOREF
  2

  9
$PUCSORTHOVIEW
 70
     0
  9
$PUCSORGTOP
 10
0.0
 20
0.0
 30
0.0
  9
$PUCSORGBOTTOM
 10
0.0
 20
0.0
 30
0.0
  9
$PUCSORGLEFT
 10
0.0
 20
0.0
 30
0.0
  9
$PUCSORGRIGHT
 10
0.0
 20
0.0
 30
0.0
  9
$PUCSORGFRONT
 10
0.0
 20
0.0
 30
0.0
  9
$PUCSORGBACK
 10
0.0
 20
0.0
 30
0.0
  9
$USERI1
 70
     0
  9
$USERI2
 70
     0
  9
$USERI3
 70
     0
  9
$USERI4
 70
     0
  9
$USERI5
 70
     0
  9
$USERR1
 40
0.0
  9
$USERR2
 40
0.0
  9
$USERR3
 40
0.0
  9
$USERR4
 40
0.0
  9
$USERR5
 40
0.0
  9
$WORLDVIEW
 70
     1
  9
$SHADEDGE
 70
     3
  9
$SHADEDIF
 70
    70
  9
$TILEMODE
 70
     1
  9
$MAXACTVP
 70
    64
  9
$PINSBASE
 10
0.0
 20
0.0
 30
0.0
  9
$PLIMCHECK
 70
     0
  9
$PEXTMIN
 10
1.000000000000000E 20
 20
1.000000000000000E 20
 30
1.000000000000000E 20
  9
$PEXTMAX
 10
-1.000000000000000E 20
 20
-1.000000000000000E 20
 30
-1.000000000000000E 20
  9
$PLIMMIN
 10
0.0
 20
0.0
  9
$PLIMMAX
 10
12.0
 20
9.0
  9
$UNITMODE
 70
     0
  9
$VISRETAIN
 70
     1
  9
$PLINEGEN
 70
     0
  9
$PSLTSCALE
 70
     1
  9
$TREEDEPTH
 70
  3020
  9
$CMLSTYLE
  2
Standard
  9
$CMLJUST
 70
     0
  9
$CMLSCALE
 40
1.0
  9
$PROXYGRAPHICS
 70
     1
  9
$MEASUREMENT
 70
     0
  9
$CELWEIGHT
370
    -1
  9
$ENDCAPS
280
     0
  9
$JOINSTYLE
280
     0
  9
$LWDISPLAY
290
     0
  9
$INSUNITS
 70
     5
  9
$HYPERLINKBASE
  1

  9
$STYLESHEET
  1

  9
$XEDIT
290
     1
  9
$CEPSNTYPE
380
     0
  9
$PSTYLEMODE
290
     1
  9
$FINGERPRINTGUID
  2
{D3252E6E-DC3E-4A62-BB68-FF35F73A580B}
  9
$VERSIONGUID
  2
{FAEB1C32-E019-11D5-929B-00C0DF256EC4}
  9
$EXTNAMES
290
     1
  9
$PSVPSCALE
 40
0.0
  9
$OLESTARTUP
290
     0
  9
$SORTENTS
280
   127
  9
$INDEXCTL
280
     0
  9
$HIDETEXT
280
     1
  9
$XCLIPFRAME
290
     0
  9
$HALOGAP
280
     0
  9
$OBSCOLOR
 70
   257
  9
$OBSLTYPE
280
     0
  9
$INTERSECTIONDISPLAY
280
     0
  9
$INTERSECTIONCOLOR
 70
   257
  9
$DIMASSOC
280
     2
  9
$PROJECTNAME
  1

  9
$CAMERADISPLAY
290
     0
  9
$LENSLENGTH
 40
50.0
  9
$CAMERAHEIGHT
 40
0.0
  9
$STEPSPERSEC
 40
2.0
  9
$STEPSIZE
 40
6.0
  9
$3DDWFPREC
 40
2.0
  9
$PSOLWIDTH
 40
0.25
  9
$PSOLHEIGHT
 40
4.0
  9
$LOFTANG1
 40
1.570796326794897
  9
$LOFTANG2
 40
1.570796326794897
  9
$LOFTMAG1
 40
0.0
  9
$LOFTMAG2
 40
0.0
  9
$LOFTPARAM
 70
     7
  9
$LOFTNORMALS
280
     1
  9
$LATITUDE
 40
37.795
  9
$LONGITUDE
 40
-122.394
  9
$NORTHDIRECTION
 40
0.0
  9
$TIMEZONE
 70
 -8000
  9
$LIGHTGLYPHDISPLAY
280
     1
  9
$TILEMODELIGHTSYNCH
280
     1
  9
$SOLIDHIST
280
     1
  9
$SHOWHIST
280
     1
  9
$DWFFRAME
280
     2
  9
$DGNFRAME
280
     2
  9
$REALWORLDSCALE
290
     1
  9
$INTERFERECOLOR
 62
   256
  9
$CSHADOW
280
     0
  9
$SHADOWPLANELOCATION
 40
0.0
  0
ENDSEC
  0
SECTION
  2
CLASSES
  0
CLASS
  1
ACDBDICTIONARYWDFLT
  2
AcDbDictionaryWithDefault
  3
ObjectDBX Classes
 90
        0
 91
        4
280
     0
281
     0
  0
CLASS
  1
VISUALSTYLE
  2
AcDbVisualStyle
  3
ObjectDBX Classes
 90
     4095
 91
        4
280
     0
281
     0
  0
CLASS
  1
MATERIAL
  2
AcDbMaterial
  3
ObjectDBX Classes
 90
     1153
 91
        4
280
     0
281
     0
  0
ENDSEC
  0
SECTION
  2
TABLES
  0
TABLE
  2
VPORT
  5
8
330
0
100
AcDbSymbolTable
 70
     1
  0
VPORT
  5
29
330
8
100
AcDbSymbolTableRecord
100
AcDbViewportTableRecord
  2
*Active
 70
     0
 10
0.0
 20
0.0
 11
1.0
 21
1.0
 12
10.42990654205607
 22
4.5
 13
0.0
 23
0.0
 14
0.5
 24
0.5
 15
0.5
 25
0.5
 16
0.0
 26
0.0
 36
1.0
 17
0.0
 27
0.0
 37
0.0
 40
9.0
 41
1.972972972850329
 42
50.0
 43
0.0
 44
0.0
 50
0.0
 51
0.0
 71
     0
 72
   100
 73
     1
 74
     3
 75
     0
 76
     0
 77
     0
 78
     0
281
     0
 65
     1
110
0.0
120
0.0
130
0.0
111
1.0
121
0.0
131
0.0
112
0.0
122
1.0
132
0.0
 79
     0
146
0.0
 60
     3
 61
     5
292
     1
282
     1
141
0.0
142
0.0
 63
   250
  0
ENDTAB
  0
TABLE
  2
LTYPE
  5
5
330
0
100
AcDbSymbolTable
 70
     1
  0
LTYPE
  5
14
330
5
100
AcDbSymbolTableRecord
100
AcDbLinetypeTableRecord
  2
ByBlock
 70
     0
  3

 72
    65
 73
     0
 40
0.0
  0
LTYPE
  5
15
330
5
100
AcDbSymbolTableRecord
100
AcDbLinetypeTableRecord
  2
ByLayer
 70
     0
  3

 72
    65
 73
     0
 40
0.0
  0
LTYPE
  5
16
330
5
100
AcDbSymbolTableRecord
100
AcDbLinetypeTableRecord
  2
Continuous
 70
     0
  3
Solid line
 72
    65
 73
     0
 40
0.0
  0
ENDTAB
  0
TABLE
  2
LAYER
  5
2
330
0
100
AcDbSymbolTable
 70
     2
  0
LAYER
  5
10
330
2
100
AcDbSymbolTableRecord
100
AcDbLayerTableRecord
  2
0
 70
     0
 62
     7
  6
Continuous
370
    -3
390
F
347
3E
  0
LAYER
  5
40
330
2
100
AcDbSymbolTableRecord
100
AcDbLayerTableRecord
  2
layer 1
 70
     0
 62
     7
  6
Continuous
370
    -3
390
F
347
3E
  0
ENDTAB
  0
TABLE
  2
STYLE
  5
3
330
0
100
AcDbSymbolTable
 70
     1
  0
STYLE
  5
11
330
3
100
AcDbSymbolTableRecord
100
AcDbTextStyleTableRecord
  2
Standard
 70
     0
 40
0.0
 41
1.0
 50
0.0
 71
     0
 42
0.2
  3
txt
  4

  0
ENDTAB
  0
TABLE
  2
VIEW
  5
6
330
0
100
AcDbSymbolTable
 70
     0
  0
ENDTAB
  0
TABLE
  2
UCS
  5
7
330
0
100
AcDbSymbolTable
 70
     0
  0
ENDTAB
  0
TABLE
  2
APPID
  5
9
330
0
100
AcDbSymbolTable
 70
     2
  0
APPID
  5
12
330
9
100
AcDbSymbolTableRecord
100
AcDbRegAppTableRecord
  2
ACAD
 70
     0
  0
APPID
  5
3F
330
9
100
AcDbSymbolTableRecord
100
AcDbRegAppTableRecord
  2
ODA
 70
     0
  0
ENDTAB
  0
TABLE
  2
DIMSTYLE
  5
A
330
0
100
AcDbSymbolTable
 70
     1
100
AcDbDimStyleTable
  0
DIMSTYLE
105
27
330
A
100
AcDbSymbolTableRecord
100
AcDbDimStyleTableRecord
  2
Standard
 70
     0
178
     0
340
11
  0
ENDTAB
  0
TABLE
  2
BLOCK_RECORD
  5
1
330
0
100
AcDbSymbolTable
 70
     1
  0
BLOCK_RECORD
  5
1F
330
1
100
AcDbSymbolTableRecord
100
AcDbBlockTableRecord
  2
*Model_Space
340
22
 70
     0
280
     1
281
     0
  0
BLOCK_RECORD
  5
1B
330
1
100
AcDbSymbolTableRecord
100
AcDbBlockTableRecord
  2
*Paper_Space
340
1E
 70
     0
280
     1
281
     0
  0
BLOCK_RECORD
  5
23
330
1
100
AcDbSymbolTableRecord
100
AcDbBlockTableRecord
  2
*Paper_Space0
340
26
 70
     0
280
     1
281
     0
  0
ENDTAB
  0
ENDSEC
  0
SECTION
  2
BLOCKS
  0
BLOCK
  5
20
330
1F
100
AcDbEntity
  8
0
100
AcDbBlockBegin
  2
*Model_Space
 70
     0
 10
0.0
 20
0.0
 30
0.0
  3
*Model_Space
  1

  0
ENDBLK
  5
21
330
1F
100
AcDbEntity
  8
0
100
AcDbBlockEnd
  0
BLOCK
  5
1C
330
1B
100
AcDbEntity
 67
     1
  8
0
100
AcDbBlockBegin
  2
*Paper_Space
 70
     0
 10
0.0
 20
0.0
 30
0.0
  3
*Paper_Space
  1

  0
ENDBLK
  5
1D
330
1B
100
AcDbEntity
 67
     1
  8
0
100
AcDbBlockEnd
  0
BLOCK
  5
24
330
23
100
AcDbEntity
  8
0
100
AcDbBlockBegin
  2
*Paper_Space0
 70
     0
 10
0.0
 20
0.0
 30
0.0
  3
*Paper_Space0
  1

  0
ENDBLK
  5
25
330
23
100
AcDbEntity
  8
0
100
AcDbBlockEnd
  0
ENDSEC
  0
SECTION
  2
ENTITIES
  0
SPLINE
  5
41
330
1F
100
AcDbEntity
  8
layer 1
 62
   250
370
    20
100
AcDbSpline
210
0.0
220
0.0
230
1.0
 70
    11
 71
     3
 72
    20
 73
    16
 74
     0
 42
0.0000000001
 43
0.0000000001
 40
0.0
 40
0.0
 40
0.0
 40
0.0
 40
0.2
 40
0.2
 40
0.2
 40
0.2
 40
0.4
 40
0.4
 40
0.4
 40
0.4
 40
0.6
 40
0.6
 40
0.6
 40
0.6
 40
1.0
 40
1.0
 40
1.0
 40
1.0
 10
9.96555
 20
8.2948
 30
0.0
 10
2.77481
 20
8.2948
 30
0.0
 10
-4.41596
 20
8.2948
 30
0.0
 10
-11.6067
 20
8.2948
 30
0.0
 10
-11.6067
 20
8.2948
 30
0.0
 10
-11.6067
 20
8.2948
 30
0.0
 10
-11.6067
 20
-0.275
 30
0.0
 10
-11.6067
 20
-0.275
 30
0.0
 10
-11.6067
 20
-0.275
 30
0.0
 10
-4.41596
 20
-0.275
 30
0.0
 10
2.77481
 20
-0.275
 30
0.0
 10
9.96555
 20
-0.275
 30
0.0
 10
9.96555
 20
-0.275
 30
0.0
 10
9.96555
 20
-0.275
 30
0.0
 10
9.96555
 20
8.2948
 30
0.0
 10
9.96555
 20
8.2948
 30
0.0
  0
SPLINE
  5
42
330
1F
100
AcDbEntity
  8
layer 1
 62
   250
370
    20
100
AcDbSpline
210
0.0
220
0.0
230
1.0
 70
    11
 71
     3
 72
    24
 73
    20
 74
     0
 42
0.0000000001
 43
0.0000000001
 40
0.0
 40
0.0
 40
0.0
 40
0.0
 40
0.1666666666666667
 40
0.1666666666666667
 40
0.1666666666666667
 40
0.1666666666666667
 40
0.3333333333333333
 40
0.3333333333333333
 40
0.3333333333333333
 40
0.3333333333333333
 40
0.5
 40
0.5
 40
0.5
 40
0.5
 40
0.6666666666666666
 40
0.6666666666666666
 40
0.6666666666666666
 40
0.6666666666666666
 40
1.0
 40
1.0
 40
1.0
 40
1.0
 10
-1.14867
 20
7.70549
 30
0.0
 10
-1.14867
 20
7.70549
 30
0.0
 10
-4.17601
 20
7.70391
 30
0.0
 10
-4.17601
 20
7.70391
 30
0.0
 10
-4.17601
 20
7.70391
 30
0.0
 10
-3.99177
 20
7.58428
 30
0.0
 10
-3.8801
 20
7.3559
 30
0.0
 10
-3.93277
 20
6.9585
 30
0.0
 10
-3.93277
 20
6.9585
 30
0.0
 10
-3.16619
 20
7.34971
 30
0.0
 10
-2.65809
 20
7.35382
 30
0.0
 10
-2.38201
 20
7.1865
 30
0.0
 10
-2.38201
 20
7.1865
 30
0.0
 10
-2.17794
 20
7.23079
 30
0.0
 10
-1.97114
 20
7.21308
 30
0.0
 10
-1.76822
 20
7.126
 30
0.0
 10
-1.76822
 20
7.126
 30
0.0
 10
-1.70281
 20
7.27216
 30
0.0
 10
-1.5052
 20
7.57606
 30
0.0
 10
-1.14867
 20
7.70549
 30
0.0
  0
SPLINE
  5
43
330
1F
100
AcDbEntity
  8
layer 1
 62
   250
370
    20
100
AcDbSpline
210
0.0
220
0.0
230
1.0
 70
    11
 71
     3
 72
    20
 73
    16
 74
     0
 42
0.0000000001
 43
0.0000000001
 40
0.0
 40
0.0
 40
0.0
 40
0.0
 40
0.2
 40
0.2
 40
0.2
 40
0.2
 40
0.4
 40
0.4
 40
0.4
 40
0.4
 40
0.6
 40
0.6
 40
0.6
 40
0.6
 40
1.0
 40
1.0
 40
1.0
 40
1.0
 10
-6.21972
 20
6.93904
 30
0.0
 10
-6.01358
 20
7.10654
 30
0.0
 10
-6.09732
 20
7.51253
 30
0.0
 10
-6.18751
 20
7.70378
 30
0.0
 10
-6.18751
 20
7.70378
 30
0.0
 10
-6.18751
 20
7.70378
 30
0.0
 10
-4.96496
 20
7.70001
 30
0.0
 10
-4.96496
 20
7.70001
 30
0.0
 10
-4.96496
 20
7.70001
 30
0.0
 10
-5.2708
 20
7.45489
 30
0.0
 10
-5.30341
 20
6.89798
 30
0.0
 10
-4.65429
 20
6.7137
 30
0.0
 10
-4.65429
 20
6.7137
 30
0.0
 10
-4.89268
 20
6.51036
 30
0.0
 10
-5.85898
 20
6.60039
 30
0.0
 10
-6.21972
 20
6.93904
 30
0.0
  0
SPLINE
  5
44
330
1F
100
AcDbEntity
  8
layer 1
 62
   250
370
    20
100
AcDbSpline
210
0.0
220
0.0
230
1.0
 70
    11
 71
     3
 72
    16
 73
    12
 74
     0
 42
0.0000000001
 43
0.0000000001
 40
0.0
 40
0.0
 40
0.0
 40
0.0
 40
0.25
 40
0.25
 40
0.25
 40
0.25
 40
0.5
 40
0.5
 40
0.5
 40
0.5
 40
1.0
 40
1.0
 40
1.0
 40
1.0
 10
-7.71588
 20
7.70378
 30
0.0
 10
-7.71588
 20
7.70378
 30
0.0
 10
-6.31636
 20
7.70378
 30
0.0
 10
-6.31636
 20
7.70378
 30
0.0
 10
-6.31636
 20
7.70378
 30
0.0
 10
-6.31636
 20
7.49964
 30
0.0
 10
-6.42911
 20
7.23538
 30
0.0
 10
-6.93159
 20
7.28692
 30
0.0
 10
-6.93159
 20
7.28692
 30
0.0
 10
-7.12162
 20
7.45775
 30
0.0
 10
-7.31001
 20
7.60523
 30
0.0
 10
-7.71588
 20
7.70378
 30
0.0
  0
SPLINE
  5
45
330
1F
100
AcDbEntity
  8
layer 1
 62
   250
370
    20
100
AcDbSpline
210
0.0
220
0.0
230
1.0
 70
    11
 71
     3
 72
    32
 73
    28
 74
     0
 42
0.0000000001
 43
0.0000000001
 40
0.0
 40
0.0
 40
0.0
 40
0.0
 40
0.125
 40
0.125
 40
0.125
 40
0.125
 40
0.25
 40
0.25
 40
0.25
 40
0.25
 40
0.375
 40
0.375
 40
0.375
 40
0.375
 40
0.5
 40
0.5
 40
0.5
 40
0.5
 40
0.625
 40
0.625
 40
0.625
 40
0.625
 40
0.75
 40
0.75
 40
0.75
 40
0.75
 40
1.0
 40
1.0
 40
1.0
 40
1.0
 10
-11.01568
 20
4.30541
 30
0.0
 10
-11.01568
 20
4.30541
 30
0.0
 10
-11.01568
 20
7.70378
 30
0.0
 10
-11.01568
 20
7.70378
 30
0.0
 10
-11.01568
 20
7.70378
 30
0.0
 10
-11.01568
 20
7.70378
 30
0.0
 10
-8.72571
 20
7.70378
 30
0.0
 10
-8.72571
 20
7.70378
 30
0.0
 10
-8.72571
 20
7.70378
 30
0.0
 10
-9.0607
 20
7.62204
 30
0.0
 10
-9.32288
 20
7.43745
 30
0.0
 10
-9.52453
 20
7.19046
 30
0.0
 10
-9.52453
 20
7.19046
 30
0.0
 10
-9.8402
 20
7.66718
 30
0.0
 10
-10.40711
 20
7.40945
 30
0.0
 10
-10.63258
 20
7.06158
 30
0.0
 10
-10.63258
 20
7.06158
 30
0.0
 10
-10.29759
 20
6.93273
 30
0.0
 10
-10.07856
 20
6.84254
 30
0.0
 10
-10.01414
 20
6.62351
 30
0.0
 10
-10.01414
 20
6.62351
 30
0.0
 10
-10.15586
 20
6.32717
 30
0.0
 10
-10.24605
 20
5.51547
 30
0.0
 10
-9.98837
 20
5.03875
 30
0.0
 10
-9.98837
 20
5.03875
 30
0.0
 10
-10.58104
 20
5.05163
 30
0.0
 10
-10.74168
 20
4.38378
 30
0.0
 10
-11.01568
 20
4.30541
 30
0.0
  0
SPLINE
  5
46
330
1F
100
AcDbEntity
  8
layer 1
 62
   250
370
    20
100
AcDbSpline
210
0.0
220
0.0
230
1.0
 70
    11
 71
     3
 72
    24
 73
    20
 74
     0
 42
0.0000000001
 43
0.0000000001
 40
0.0
 40
0.0
 40
0.0
 40
0.0
 40
0.1666666666666667
 40
0.1666666666666667
 40
0.1666666666666667
 40
0.1666666666666667
 40
0.3333333333333333
 40
0.3333333333333333
 40
0.3333333333333333
 40
0.3333333333333333
 40
0.5
 40
0.5
 40
0.5
 40
0.5
 40
0.6666666666666666
 40
0.6666666666666666
 40
0.6666666666666666
 40
0.6666666666666666
 40
1.0
 40
1.0
 40
1.0
 40
1.0
 10
-6.35501
 20
5.0774
 30
0.0
 10
-7.58772
 20
4.0099
 30
0.0
 10
-9.20255
 20
4.67137
 30
0.0
 10
-9.17666
 20
5.85046
 30
0.0
 10
-9.17666
 20
5.85046
 30
0.0
 10
-9.15077
 20
7.02954
 30
0.0
 10
-7.78516
 20
6.76524
 30
0.0
 10
-7.90112
 20
6.05661
 30
0.0
 10
-7.90112
 20
6.05661
 30
0.0
 10
-8.35538
 20
6.1113
 30
0.0
 10
-8.52236
 20
5.47834
 30
0.0
 10
-8.14121
 20
5.17878
 30
0.0
 10
-8.14121
 20
5.17878
 30
0.0
 10
-7.80573
 20
4.91514
 30
0.0
 10
-7.13994
 20
4.91307
 30
0.0
 10
-6.84461
 20
5.57989
 30
0.0
 10
-6.84461
 20
5.57989
 30
0.0
 10
-6.66988
 20
5.44191
 30
0.0
 10
-6.5225
 20
5.27067
 30
0.0
 10
-6.35501
 20
5.0774
 30
0.0
  0
SPLINE
  5
47
330
1F
100
AcDbEntity
  8
layer 1
 62
   250
370
    20
100
AcDbSpline
210
0.0
220
0.0
230
1.0
 70
    11
 71
     3
 72
    20
 73
    16
 74
     0
 42
0.0000000001
 43
0.0000000001
 40
0.0
 40
0.0
 40
0.0
 40
0.0
 40
0.2
 40
0.2
 40
0.2
 40
0.2
 40
0.4
 40
0.4
 40
0.4
 40
0.4
 40
0.6
 40
0.6
 40
0.6
 40
0.6
 40
1.0
 40
1.0
 40
1.0
 40
1.0
 10
-4.71871
 20
6.12103
 30
0.0
 10
-5.20831
 20
6.12103
 30
0.0
 10
-6.08444
 20
6.26275
 30
0.0
 10
-6.62558
 20
6.7137
 30
0.0
 10
-6.62558
 20
6.7137
 30
0.0
 10
-6.58755
 20
6.55826
 30
0.0
 10
-6.56761
 20
6.37418
 30
0.0
 10
-6.61269
 20
6.15968
 30
0.0
 10
-6.61269
 20
6.15968
 30
0.0
 10
-6.41943
 20
6.01795
 30
0.0
 10
-5.98137
 20
5.567
 30
0.0
 10
-5.83964
 20
5.39951
 30
0.0
 10
-5.83964
 20
5.39951
 30
0.0
 10
-5.59484
 20
5.567
 30
0.0
 10
-5.01505
 20
6.05661
 30
0.0
 10
-4.71871
 20
6.12103
 30
0.0
  0
SPLINE
  5
48
330
1F
100
AcDbEntity
  8
layer 1
 62
   250
370
    20
100
AcDbSpline
210
0.0
220
0.0
230
1.0
 70
    11
 71
     3
 72
    16
 73
    12
 74
     0
 42
0.0000000001
 43
0.0000000001
 40
0.0
 40
0.0
 40
0.0
 40
0.0
 40
0.25
 40
0.25
 40
0.25
 40
0.25
 40
0.5
 40
0.5
 40
0.5
 40
0.5
 40
1.0
 40
1.0
 40
1.0
 40
1.0
 10
-3.00892
 20
6.32775
 30
0.0
 10
-3.34658
 20
6.40433
 30
0.0
 10
-3.71463
 20
6.38808
 30
0.0
 10
-4.0294
 20
6.30141
 30
0.0
 10
-4.0294
 20
6.30141
 30
0.0
 10
-3.70093
 20
6.46695
 30
0.0
 10
-3.40345
 20
6.86122
 30
0.0
 10
-2.94068
 20
6.84254
 30
0.0
 10
-2.94068
 20
6.84254
 30
0.0
 10
-3.11004
 20
6.64897
 30
0.0
 10
-3.10219
 20
6.46312
 30
0.0
 10
-3.00892
 20
6.32775
 30
0.0
  0
SPLINE
  5
49
330
1F
100
AcDbEntity
  8
layer 1
 62
   250
370
    20
100
AcDbSpline
210
0.0
220
0.0
230
1.0
 70
    11
 71
     3
 72
    20
 73
    16
 74
     0
 42
0.0000000001
 43
0.0000000001
 40
0.0
 40
0.0
 40
0.0
 40
0.0
 40
0.2
 40
0.2
 40
0.2
 40
0.2
 40
0.4
 40
0.4
 40
0.4
 40
0.4
 40
0.6
 40
0.6
 40
0.6
 40
0.6
 40
1.0
 40
1.0
 40
1.0
 40
1.0
 10
-1.96387
 20
5.16509
 30
0.0
 10
-1.98617
 20
5.6363
 30
0.0
 10
-2.2021
 20
5.92673
 30
0.0
 10
-2.50884
 20
6.12367
 30
0.0
 10
-2.50884
 20
6.12367
 30
0.0
 10
-2.31233
 20
6.16064
 30
0.0
 10
-2.13158
 20
6.3293
 30
0.0
 10
-2.12493
 20
6.69727
 30
0.0
 10
-2.12493
 20
6.69727
 30
0.0
 10
-1.92927
 20
6.5913
 30
0.0
 10
-1.48435
 20
5.8906
 30
0.0
 10
-1.50323
 20
5.48534
 30
0.0
 10
-1.50323
 20
5.48534
 30
0.0
 10
-1.67515
 20
5.40566
 30
0.0
 10
-1.83084
 20
5.29679
 30
0.0
 10
-1.96387
 20
5.16509
 30
0.0
  0
SPLINE
  5
4A
330
1F
100
AcDbEntity
  8
layer 1
 62
   250
370
    20
100
AcDbSpline
210
0.0
220
0.0
230
1.0
 70
    11
 71
     3
 72
    16
 73
    12
 74
     0
 42
0.0000000001
 43
0.0000000001
 40
0.0
 40
0.0
 40
0.0
 40
0.0
 40
0.25
 40
0.25
 40
0.25
 40
0.25
 40
0.5
 40
0.5
 40
0.5
 40
0.5
 40
1.0
 40
1.0
 40
1.0
 40
1.0
 10
-5.3954
 20
5.03528
 30
0.0
 10
-4.86129
 20
5.4162
 30
0.0
 10
-4.29464
 20
5.75523
 30
0.0
 10
-3.59778
 20
5.77315
 30
0.0
 10
-3.59778
 20
5.77315
 30
0.0
 10
-2.4582
 20
5.80247
 30
0.0
 10
-2.23623
 20
4.25876
 30
0.0
 10
-3.57924
 20
4.23068
 30
0.0
 10
-3.57924
 20
4.23068
 30
0.0
 10
-4.08184
 20
4.22017
 30
0.0
 10
-4.672
 20
4.44664
 30
0.0
 10
-5.3954
 20
5.03528
 30
0.0
  0
SPLINE
  5
4B
330
1F
100
AcDbEntity
  8
layer 1
 62
   250
370
    20
100
AcDbSpline
210
0.0
220
0.0
230
1.0
 70
    11
 71
     3
 72
    20
 73
    16
 74
     0
 42
0.0000000001
 43
0.0000000001
 40
0.0
 40
0.0
 40
0.0
 40
0.0
 40
0.2
 40
0.2
 40
0.2
 40
0.2
 40
0.4
 40
0.4
 40
0.4
 40
0.4
 40
0.6
 40
0.6
 40
0.6
 40
0.6
 40
1.0
 40
1.0
 40
1.0
 40
1.0
 10
-7.30844
 20
4.0099
 30
0.0
 10
-6.77489
 20
4.07808
 30
0.0
 10
-6.31624
 20
4.36373
 30
0.0
 10
-5.8647
 20
4.68536
 30
0.0
 10
-5.8647
 20
4.68536
 30
0.0
 10
-5.6698
 20
4.46008
 30
0.0
 10
-5.19219
 20
4.13685
 30
0.0
 10
-4.67682
 20
4.0099
 30
0.0
 10
-4.67682
 20
4.0099
 30
0.0
 10
-5.19219
 20
3.88295
 30
0.0
 10
-5.6698
 20
3.55972
 30
0.0
 10
-5.8647
 20
3.33444
 30
0.0
 10
-5.8647
 20
3.33444
 30
0.0
 10
-6.31624
 20
3.65607
 30
0.0
 10
-6.77489
 20
3.94173
 30
0.0
 10
-7.30844
 20
4.0099
 30
0.0
  0
SPLINE
  5
4C
330
1F
100
AcDbEntity
  8
layer 1
 62
   250
370
    20
100
AcDbSpline
210
0.0
220
0.0
230
1.0
 70
    11
 71
     3
 72
    20
 73
    16
 74
     0
 42
0.0000000001
 43
0.0000000001
 40
0.0
 40
0.0
 40
0.0
 40
0.0
 40
0.2
 40
0.2
 40
0.2
 40
0.2
 40
0.4
 40
0.4
 40
0.4
 40
0.4
 40
0.6
 40
0.6
 40
0.6
 40
0.6
 40
1.0
 40
1.0
 40
1.0
 40
1.0
 10
-0.82057
 20
3.345
 30
0.0
 10
-1.18773
 20
3.345
 30
0.0
 10
-1.48547
 20
3.64274
 30
0.0
 10
-1.48547
 20
4.0099
 30
0.0
 10
-1.48547
 20
4.0099
 30
0.0
 10
-1.48547
 20
4.37706
 30
0.0
 10
-1.18773
 20
4.6748
 30
0.0
 10
-0.82057
 20
4.6748
 30
0.0
 10
-0.82057
 20
4.6748
 30
0.0
 10
-0.45342
 20
4.6748
 30
0.0
 10
-0.15568
 20
4.37706
 30
0.0
 10
-0.15568
 20
4.0099
 30
0.0
 10
-0.15568
 20
4.0099
 30
0.0
 10
-0.15568
 20
3.64274
 30
0.0
 10
-0.45342
 20
3.345
 30
0.0
 10
-0.82057
 20
3.345
 30
0.0
  0
SPLINE
  5
4D
330
1F
100
AcDbEntity
  8
layer 1
 62
   250
370
    20
100
AcDbSpline
210
0.0
220
0.0
230
1.0
 70
    11
 71
     3
 72
    28
 73
    24
 74
     0
 42
0.0000000001
 43
0.0000000001
 40
0.0
 40
0.0
 40
0.0
 40
0.0
 40
0.1428571428571428
 40
0.1428571428571428
 40
0.1428571428571428
 40
0.1428571428571428
 40
0.2857142857142857
 40
0.2857142857142857
 40
0.2857142857142857
 40
0.2857142857142857
 40
0.4285714285714285
 40
0.4285714285714285
 40
0.4285714285714285
 40
0.4285714285714285
 40
0.5714285714285714
 40
0.5714285714285714
 40
0.5714285714285714
 40
0.5714285714285714
 40
0.7142857142857143
 40
0.7142857142857143
 40
0.7142857142857143
 40
0.7142857142857143
 40
1.0
 40
1.0
 40
1.0
 40
1.0
 10
-0.8204
 20
5.63521
 30
0.0
 10
-0.86229
 20
5.63521
 30
0.0
 10
-0.90057
 20
5.63386
 30
0.0
 10
-0.94167
 20
5.63076
 30
0.0
 10
-0.94167
 20
5.63076
 30
0.0
 10
-0.93396
 20
5.99245
 30
0.0
 10
-0.99837
 20
6.46521
 30
0.0
 10
-1.28829
 20
6.78142
 30
0.0
 10
-1.28829
 20
6.78142
 30
0.0
 10
-1.20777
 20
6.92972
 30
0.0
 10
-0.99475
 20
7.04869
 30
0.0
 10
-0.82037
 20
7.04869
 30
0.0
 10
-0.82037
 20
7.04869
 30
0.0
 10
-0.64599
 20
7.04869
 30
0.0
 10
-0.43338
 20
6.92972
 30
0.0
 10
-0.35286
 20
6.78142
 30
0.0
 10
-0.35286
 20
6.78142
 30
0.0
 10
-0.64278
 20
6.46521
 30
0.0
 10
-0.70719
 20
5.99245
 30
0.0
 10
-0.69947
 20
5.63076
 30
0.0
 10
-0.69947
 20
5.63076
 30
0.0
 10
-0.74058
 20
5.63386
 30
0.0
 10
-0.77851
 20
5.63521
 30
0.0
 10
-0.8204
 20
5.63521
 30
0.0
  0
SPLINE
  5
4E
330
1F
100
AcDbEntity
  8
layer 1
 62
   250
370
    20
100
AcDbSpline
210
0.0
220
0.0
230
1.0
 70
    11
 71
     3
 72
    20
 73
    16
 74
     0
 42
0.0000000001
 43
0.0000000001
 40
0.0
 40
0.0
 40
0.0
 40
0.0
 40
0.2
 40
0.2
 40
0.2
 40
0.2
 40
0.4
 40
0.4
 40
0.4
 40
0.4
 40
0.6
 40
0.6
 40
0.6
 40
0.6
 40
1.0
 40
1.0
 40
1.0
 40
1.0
 10
-9.3165
 20
4.0099
 30
0.0
 10
-9.3165
 20
4.21388
 30
0.0
 10
-9.15107
 20
4.37929
 30
0.0
 10
-8.94711
 20
4.37929
 30
0.0
 10
-8.94711
 20
4.37929
 30
0.0
 10
-8.74315
 20
4.37929
 30
0.0
 10
-8.57772
 20
4.21388
 30
0.0
 10
-8.57772
 20
4.0099
 30
0.0
 10
-8.57772
 20
4.0099
 30
0.0
 10
-8.57772
 20
3.80592
 30
0.0
 10
-8.74315
 20
3.64051
 30
0.0
 10
-8.94711
 20
3.64051
 30
0.0
 10
-8.94711
 20
3.64051
 30
0.0
 10
-9.15107
 20
3.64051
 30
0.0
 10
-9.3165
 20
3.80592
 30
0.0
 10
-9.3165
 20
4.0099
 30
0.0
  0
SPLINE
  5
4F
330
1F
100
AcDbEntity
  8
layer 1
 62
   250
370
    20
100
AcDbSpline
210
0.0
220
0.0
230
1.0
 70
    11
 71
     3
 72
    24
 73
    20
 74
     0
 42
0.0000000001
 43
0.0000000001
 40
0.0
 40
0.0
 40
0.0
 40
0.0
 40
0.1666666666666667
 40
0.1666666666666667
 40
0.1666666666666667
 40
0.1666666666666667
 40
0.3333333333333333
 40
0.3333333333333333
 40
0.3333333333333333
 40
0.3333333333333333
 40
0.5
 40
0.5
 40
0.5
 40
0.5
 40
0.6666666666666666
 40
0.6666666666666666
 40
0.6666666666666666
 40
0.6666666666666666
 40
1.0
 40
1.0
 40
1.0
 40
1.0
 10
-0.49248
 20
7.70549
 30
0.0
 10
-0.49248
 20
7.70549
 30
0.0
 10
2.53486
 20
7.70391
 30
0.0
 10
2.53486
 20
7.70391
 30
0.0
 10
2.53486
 20
7.70391
 30
0.0
 10
2.35062
 20
7.58428
 30
0.0
 10
2.23895
 20
7.3559
 30
0.0
 10
2.29162
 20
6.9585
 30
0.0
 10
2.29162
 20
6.9585
 30
0.0
 10
1.52504
 20
7.34971
 30
0.0
 10
1.01694
 20
7.35382
 30
0.0
 10
0.74086
 20
7.1865
 30
0.0
 10
0.74086
 20
7.1865
 30
0.0
 10
0.53679
 20
7.23079
 30
0.0
 10
0.32999
 20
7.21308
 30
0.0
 10
0.12707
 20
7.126
 30
0.0
 10
0.12707
 20
7.126
 30
0.0
 10
0.06166
 20
7.27216
 30
0.0
 10
-0.13595
 20
7.57606
 30
0.0
 10
-0.49248
 20
7.70549
 30
0.0
  0
SPLINE
  5
50
330
1F
100
AcDbEntity
  8
layer 1
 62
   250
370
    20
100
AcDbSpline
210
0.0
220
0.0
230
1.0
 70
    11
 71
     3
 72
    20
 73
    16
 74
     0
 42
0.0000000001
 43
0.0000000001
 40
0.0
 40
0.0
 40
0.0
 40
0.0
 40
0.2
 40
0.2
 40
0.2
 40
0.2
 40
0.4
 40
0.4
 40
0.4
 40
0.4
 40
0.6
 40
0.6
 40
0.6
 40
0.6
 40
1.0
 40
1.0
 40
1.0
 40
1.0
 10
4.57858
 20
6.93904
 30
0.0
 10
4.37243
 20
7.10654
 30
0.0
 10
4.45617
 20
7.51253
 30
0.0
 10
4.54636
 20
7.70378
 30
0.0
 10
4.54636
 20
7.70378
 30
0.0
 10
4.54636
 20
7.70378
 30
0.0
 10
3.32381
 20
7.70001
 30
0.0
 10
3.32381
 20
7.70001
 30
0.0
 10
3.32381
 20
7.70001
 30
0.0
 10
3.62965
 20
7.45489
 30
0.0
 10
3.66226
 20
6.89798
 30
0.0
 10
3.01314
 20
6.7137
 30
0.0
 10
3.01314
 20
6.7137
 30
0.0
 10
3.25153
 20
6.51036
 30
0.0
 10
4.21783
 20
6.60039
 30
0.0
 10
4.57858
 20
6.93904
 30
0.0
  0
SPLINE
  5
51
330
1F
100
AcDbEntity
  8
layer 1
 62
   250
370
    20
100
AcDbSpline
210
0.0
220
0.0
230
1.0
 70
    11
 71
     3
 72
    16
 73
    12
 74
     0
 42
0.0000000001
 43
0.0000000001
 40
0.0
 40
0.0
 40
0.0
 40
0.0
 40
0.25
 40
0.25
 40
0.25
 40
0.25
 40
0.5
 40
0.5
 40
0.5
 40
0.5
 40
1.0
 40
1.0
 40
1.0
 40
1.0
 10
6.07473
 20
7.70378
 30
0.0
 10
6.07473
 20
7.70378
 30
0.0
 10
4.67521
 20
7.70378
 30
0.0
 10
4.67521
 20
7.70378
 30
0.0
 10
4.67521
 20
7.70378
 30
0.0
 10
4.67521
 20
7.49964
 30
0.0
 10
4.78796
 20
7.23538
 30
0.0
 10
5.29044
 20
7.28692
 30
0.0
 10
5.29044
 20
7.28692
 30
0.0
 10
5.48047
 20
7.45775
 30
0.0
 10
5.66886
 20
7.60523
 30
0.0
 10
6.07473
 20
7.70378
 30
0.0
  0
SPLINE
  5
52
330
1F
100
AcDbEntity
  8
layer 1
 62
   250
370
    20
100
AcDbSpline
210
0.0
220
0.0
230
1.0
 70
    11
 71
     3
 72
    32
 73
    28
 74
     0
 42
0.0000000001
 43
0.0000000001
 40
0.0
 40
0.0
 40
0.0
 40
0.0
 40
0.125
 40
0.125
 40
0.125
 40
0.125
 40
0.25
 40
0.25
 40
0.25
 40
0.25
 40
0.375
 40
0.375
 40
0.375
 40
0.375
 40
0.5
 40
0.5
 40
0.5
 40
0.5
 40
0.625
 40
0.625
 40
0.625
 40
0.625
 40
0.75
 40
0.75
 40
0.75
 40
0.75
 40
1.0
 40
1.0
 40
1.0
 40
1.0
 10
9.37453
 20
4.30541
 30
0.0
 10
9.37453
 20
4.30541
 30
0.0
 10
9.37453
 20
7.70378
 30
0.0
 10
9.37453
 20
7.70378
 30
0.0
 10
9.37453
 20
7.70378
 30
0.0
 10
9.37453
 20
7.70378
 30
0.0
 10
7.08456
 20
7.70378
 30
0.0
 10
7.08456
 20
7.70378
 30
0.0
 10
7.08456
 20
7.70378
 30
0.0
 10
7.41955
 20
7.62204
 30
0.0
 10
7.68173
 20
7.43745
 30
0.0
 10
7.88339
 20
7.19046
 30
0.0
 10
7.88339
 20
7.19046
 30
0.0
 10
8.19905
 20
7.66718
 30
0.0
 10
8.76596
 20
7.40945
 30
0.0
 10
8.99143
 20
7.06158
 30
0.0
 10
8.99143
 20
7.06158
 30
0.0
 10
8.65644
 20
6.93273
 30
0.0
 10
8.43741
 20
6.84254
 30
0.0
 10
8.37299
 20
6.62351
 30
0.0
 10
8.37299
 20
6.62351
 30
0.0
 10
8.51471
 20
6.32717
 30
0.0
 10
8.6049
 20
5.51547
 30
0.0
 10
8.34722
 20
5.03875
 30
0.0
 10
8.34722
 20
5.03875
 30
0.0
 10
8.93989
 20
5.05163
 30
0.0
 10
9.10053
 20
4.38378
 30
0.0
 10
9.37453
 20
4.30541
 30
0.0
  0
SPLINE
  5
53
330
1F
100
AcDbEntity
  8
layer 1
 62
   250
370
    20
100
AcDbSpline
210
0.0
220
0.0
230
1.0
 70
    11
 71
     3
 72
    24
 73
    20
 74
     0
 42
0.0000000001
 43
0.0000000001
 40
0.0
 40
0.0
 40
0.0
 40
0.0
 40
0.1666666666666667
 40
0.1666666666666667
 40
0.1666666666666667
 40
0.1666666666666667
 40
0.3333333333333333
 40
0.3333333333333333
 40
0.3333333333333333
 40
0.3333333333333333
 40
0.5
 40
0.5
 40
0.5
 40
0.5
 40
0.6666666666666666
 40
0.6666666666666666
 40
0.6666666666666666
 40
0.6666666666666666
 40
1.0
 40
1.0
 40
1.0
 40
1.0
 10
4.71386
 20
5.0774
 30
0.0
 10
5.94657
 20
4.0099
 30
0.0
 10
7.5614
 20
4.67137
 30
0.0
 10
7.53551
 20
5.85046
 30
0.0
 10
7.53551
 20
5.85046
 30
0.0
 10
7.50962
 20
7.02954
 30
0.0
 10
6.14401
 20
6.76524
 30
0.0
 10
6.25997
 20
6.05661
 30
0.0
 10
6.25997
 20
6.05661
 30
0.0
 10
6.71423
 20
6.1113
 30
0.0
 10
6.88121
 20
5.47834
 30
0.0
 10
6.50006
 20
5.17878
 30
0.0
 10
6.50006
 20
5.17878
 30
0.0
 10
6.16458
 20
4.91514
 30
0.0
 10
5.49879
 20
4.91307
 30
0.0
 10
5.20346
 20
5.57989
 30
0.0
 10
5.20346
 20
5.57989
 30
0.0
 10
5.02873
 20
5.44191
 30
0.0
 10
4.88136
 20
5.27067
 30
0.0
 10
4.71386
 20
5.0774
 30
0.0
  0
SPLINE
  5
54
330
1F
100
AcDbEntity
  8
layer 1
 62
   250
370
    20
100
AcDbSpline
210
0.0
220
0.0
230
1.0
 70
    11
 71
     3
 72
    20
 73
    16
 74
     0
 42
0.0000000001
 43
0.0000000001
 40
0.0
 40
0.0
 40
0.0
 40
0.0
 40
0.2
 40
0.2
 40
0.2
 40
0.2
 40
0.4
 40
0.4
 40
0.4
 40
0.4
 40
0.6
 40
0.6
 40
0.6
 40
0.6
 40
1.0
 40
1.0
 40
1.0
 40
1.0
 10
3.07756
 20
6.12103
 30
0.0
 10
3.56716
 20
6.12103
 30
0.0
 10
4.44329
 20
6.26275
 30
0.0
 10
4.98443
 20
6.7137
 30
0.0
 10
4.98443
 20
6.7137
 30
0.0
 10
4.9464
 20
6.55826
 30
0.0
 10
4.92646
 20
6.37418
 30
0.0
 10
4.97154
 20
6.15968
 30
0.0
 10
4.97154
 20
6.15968
 30
0.0
 10
4.77828
 20
6.01795
 30
0.0
 10
4.34022
 20
5.567
 30
0.0
 10
4.19849
 20
5.39951
 30
0.0
 10
4.19849
 20
5.39951
 30
0.0
 10
3.95369
 20
5.567
 30
0.0
 10
3.3739
 20
6.05661
 30
0.0
 10
3.07756
 20
6.12103
 30
0.0
  0
SPLINE
  5
55
330
1F
100
AcDbEntity
  8
layer 1
 62
   250
370
    20
100
AcDbSpline
210
0.0
220
0.0
230
1.0
 70
    11
 71
     3
 72
    16
 73
    12
 74
     0
 42
0.0000000001
 43
0.0000000001
 40
0.0
 40
0.0
 40
0.0
 40
0.0
 40
0.25
 40
0.25
 40
0.25
 40
0.25
 40
0.5
 40
0.5
 40
0.5
 40
0.5
 40
1.0
 40
1.0
 40
1.0
 40
1.0
 10
1.36777
 20
6.32775
 30
0.0
 10
1.70543
 20
6.40433
 30
0.0
 10
2.07348
 20
6.38808
 30
0.0
 10
2.38825
 20
6.30141
 30
0.0
 10
2.38825
 20
6.30141
 30
0.0
 10
2.05978
 20
6.46695
 30
0.0
 10
1.7623
 20
6.86122
 30
0.0
 10
1.29953
 20
6.84254
 30
0.0
 10
1.29953
 20
6.84254
 30
0.0
 10
1.46889
 20
6.64897
 30
0.0
 10
1.46105
 20
6.46312
 30
0.0
 10
1.36777
 20
6.32775
 30
0.0
  0
SPLINE
  5
56
330
1F
100
AcDbEntity
  8
layer 1
 62
   250
370
    20
100
AcDbSpline
210
0.0
220
0.0
230
1.0
 70
    11
 71
     3
 72
    20
 73
    16
 74
     0
 42
0.0000000001
 43
0.0000000001
 40
0.0
 40
0.0
 40
0.0
 40
0.0
 40
0.2
 40
0.2
 40
0.2
 40
0.2
 40
0.4
 40
0.4
 40
0.4
 40
0.4
 40
0.6
 40
0.6
 40
0.6
 40
0.6
 40
1.0
 40
1.0
 40
1.0
 40
1.0
 10
0.32272
 20
5.16509
 30
0.0
 10
0.34502
 20
5.6363
 30
0.0
 10
0.56095
 20
5.92673
 30
0.0
 10
0.86769
 20
6.12367
 30
0.0
 10
0.86769
 20
6.12367
 30
0.0
 10
0.67118
 20
6.16064
 30
0.0
 10
0.49043
 20
6.3293
 30
0.0
 10
0.48378
 20
6.69727
 30
0.0
 10
0.48378
 20
6.69727
 30
0.0
 10
0.28812
 20
6.5913
 30
0.0
 10
-0.1568
 20
5.8906
 30
0.0
 10
-0.13792
 20
5.48534
 30
0.0
 10
-0.13792
 20
5.48534
 30
0.0
 10
0.034
 20
5.40566
 30
0.0
 10
0.18969
 20
5.29679
 30
0.0
 10
0.32272
 20
5.16509
 30
0.0
  0
SPLINE
  5
57
330
1F
100
AcDbEntity
  8
layer 1
 62
   250
370
    20
100
AcDbSpline
210
0.0
220
0.0
230
1.0
 70
    11
 71
     3
 72
    16
 73
    12
 74
     0
 42
0.0000000001
 43
0.0000000001
 40
0.0
 40
0.0
 40
0.0
 40
0.0
 40
0.25
 40
0.25
 40
0.25
 40
0.25
 40
0.5
 40
0.5
 40
0.5
 40
0.5
 40
1.0
 40
1.0
 40
1.0
 40
1.0
 10
3.75425
 20
5.03528
 30
0.0
 10
3.22014
 20
5.4162
 30
0.0
 10
2.65349
 20
5.75523
 30
0.0
 10
1.95663
 20
5.77315
 30
0.0
 10
1.95663
 20
5.77315
 30
0.0
 10
0.81705
 20
5.80247
 30
0.0
 10
0.59508
 20
4.25876
 30
0.0
 10
1.93809
 20
4.23068
 30
0.0
 10
1.93809
 20
4.23068
 30
0.0
 10
2.44069
 20
4.22017
 30
0.0
 10
3.03086
 20
4.44664
 30
0.0
 10
3.75425
 20
5.03528
 30
0.0
  0
SPLINE
  5
58
330
1F
100
AcDbEntity
  8
layer 1
 62
   250
370
    20
100
AcDbSpline
210
0.0
220
0.0
230
1.0
 70
    11
 71
     3
 72
    20
 73
    16
 74
     0
 42
0.0000000001
 43
0.0000000001
 40
0.0
 40
0.0
 40
0.0
 40
0.0
 40
0.2
 40
0.2
 40
0.2
 40
0.2
 40
0.4
 40
0.4
 40
0.4
 40
0.4
 40
0.6
 40
0.6
 40
0.6
 40
0.6
 40
1.0
 40
1.0
 40
1.0
 40
1.0
 10
5.66729
 20
4.0099
 30
0.0
 10
5.13374
 20
4.07808
 30
0.0
 10
4.67509
 20
4.36373
 30
0.0
 10
4.22355
 20
4.68536
 30
0.0
 10
4.22355
 20
4.68536
 30
0.0
 10
4.02865
 20
4.46008
 30
0.0
 10
3.55104
 20
4.13685
 30
0.0
 10
3.03567
 20
4.0099
 30
0.0
 10
3.03567
 20
4.0099
 30
0.0
 10
3.55104
 20
3.88295
 30
0.0
 10
4.02865
 20
3.55972
 30
0.0
 10
4.22355
 20
3.33444
 30
0.0
 10
4.22355
 20
3.33444
 30
0.0
 10
4.67509
 20
3.65607
 30
0.0
 10
5.13374
 20
3.94173
 30
0.0
 10
5.66729
 20
4.0099
 30
0.0
  0
SPLINE
  5
59
330
1F
100
AcDbEntity
  8
layer 1
 62
   250
370
    20
100
AcDbSpline
210
0.0
220
0.0
230
1.0
 70
    11
 71
     3
 72
    20
 73
    16
 74
     0
 42
0.0000000001
 43
0.0000000001
 40
0.0
 40
0.0
 40
0.0
 40
0.0
 40
0.2
 40
0.2
 40
0.2
 40
0.2
 40
0.4
 40
0.4
 40
0.4
 40
0.4
 40
0.6
 40
0.6
 40
0.6
 40
0.6
 40
1.0
 40
1.0
 40
1.0
 40
1.0
 10
7.67535
 20
4.0099
 30
0.0
 10
7.67535
 20
4.21388
 30
0.0
 10
7.50992
 20
4.37929
 30
0.0
 10
7.30596
 20
4.37929
 30
0.0
 10
7.30596
 20
4.37929
 30
0.0
 10
7.102
 20
4.37929
 30
0.0
 10
6.93657
 20
4.21388
 30
0.0
 10
6.93657
 20
4.0099
 30
0.0
 10
6.93657
 20
4.0099
 30
0.0
 10
6.93657
 20
3.80592
 30
0.0
 10
7.102
 20
3.64051
 30
0.0
 10
7.30596
 20
3.64051
 30
0.0
 10
7.30596
 20
3.64051
 30
0.0
 10
7.50992
 20
3.64051
 30
0.0
 10
7.67535
 20
3.80592
 30
0.0
 10
7.67535
 20
4.0099
 30
0.0
  0
SPLINE
  5
5A
330
1F
100
AcDbEntity
  8
layer 1
 62
   250
370
    20
100
AcDbSpline
210
0.0
220
0.0
230
1.0
 70
    11
 71
     3
 72
    24
 73
    20
 74
     0
 42
0.0000000001
 43
0.0000000001
 40
0.0
 40
0.0
 40
0.0
 40
0.0
 40
0.1666666666666667
 40
0.1666666666666667
 40
0.1666666666666667
 40
0.1666666666666667
 40
0.3333333333333333
 40
0.3333333333333333
 40
0.3333333333333333
 40
0.3333333333333333
 40
0.5
 40
0.5
 40
0.5
 40
0.5
 40
0.6666666666666666
 40
0.6666666666666666
 40
0.6666666666666666
 40
0.6666666666666666
 40
1.0
 40
1.0
 40
1.0
 40
1.0
 10
-1.14867
 20
0.31431
 30
0.0
 10
-1.14867
 20
0.31431
 30
0.0
 10
-4.17601
 20
0.31589
 30
0.0
 10
-4.17601
 20
0.31589
 30
0.0
 10
-4.17601
 20
0.31589
 30
0.0
 10
-3.99177
 20
0.43553
 30
0.0
 10
-3.8801
 20
0.6639
 30
0.0
 10
-3.93277
 20
1.0613
 30
0.0
 10
-3.93277
 20
1.0613
 30
0.0
 10
-3.16619
 20
0.67009
 30
0.0
 10
-2.65809
 20
0.66598
 30
0.0
 10
-2.38201
 20
0.8333
 30
0.0
 10
-2.38201
 20
0.8333
 30
0.0
 10
-2.17794
 20
0.78902
 30
0.0
 10
-1.97114
 20
0.80672
 30
0.0
 10
-1.76822
 20
0.8938
 30
0.0
 10
-1.76822
 20
0.8938
 30
0.0
 10
-1.70281
 20
0.74764
 30
0.0
 10
-1.5052
 20
0.44374
 30
0.0
 10
-1.14867
 20
0.31431
 30
0.0
  0
SPLINE
  5
5B
330
1F
100
AcDbEntity
  8
layer 1
 62
   250
370
    20
100
AcDbSpline
210
0.0
220
0.0
230
1.0
 70
    11
 71
     3
 72
    20
 73
    16
 74
     0
 42
0.0000000001
 43
0.0000000001
 40
0.0
 40
0.0
 40
0.0
 40
0.0
 40
0.2
 40
0.2
 40
0.2
 40
0.2
 40
0.4
 40
0.4
 40
0.4
 40
0.4
 40
0.6
 40
0.6
 40
0.6
 40
0.6
 40
1.0
 40
1.0
 40
1.0
 40
1.0
 10
-6.21972
 20
1.08076
 30
0.0
 10
-6.01358
 20
0.91326
 30
0.0
 10
-6.09732
 20
0.50728
 30
0.0
 10
-6.18751
 20
0.31602
 30
0.0
 10
-6.18751
 20
0.31602
 30
0.0
 10
-6.18751
 20
0.31602
 30
0.0
 10
-4.96496
 20
0.31979
 30
0.0
 10
-4.96496
 20
0.31979
 30
0.0
 10
-4.96496
 20
0.31979
 30
0.0
 10
-5.2708
 20
0.56492
 30
0.0
 10
-5.30341
 20
1.12182
 30
0.0
 10
-4.65429
 20
1.3061
 30
0.0
 10
-4.65429
 20
1.3061
 30
0.0
 10
-4.89268
 20
1.50944
 30
0.0
 10
-5.85898
 20
1.41941
 30
0.0
 10
-6.21972
 20
1.08076
 30
0.0
  0
SPLINE
  5
5C
330
1F
100
AcDbEntity
  8
layer 1
 62
   250
370
    20
100
AcDbSpline
210
0.0
220
0.0
230
1.0
 70
    11
 71
     3
 72
    16
 73
    12
 74
     0
 42
0.0000000001
 43
0.0000000001
 40
0.0
 40
0.0
 40
0.0
 40
0.0
 40
0.25
 40
0.25
 40
0.25
 40
0.25
 40
0.5
 40
0.5
 40
0.5
 40
0.5
 40
1.0
 40
1.0
 40
1.0
 40
1.0
 10
-7.71588
 20
0.31602
 30
0.0
 10
-7.71588
 20
0.31602
 30
0.0
 10
-6.31636
 20
0.31602
 30
0.0
 10
-6.31636
 20
0.31602
 30
0.0
 10
-6.31636
 20
0.31602
 30
0.0
 10
-6.31636
 20
0.52016
 30
0.0
 10
-6.42911
 20
0.78442
 30
0.0
 10
-6.93159
 20
0.73288
 30
0.0
 10
-6.93159
 20
0.73288
 30
0.0
 10
-7.12162
 20
0.56205
 30
0.0
 10
-7.31001
 20
0.41458
 30
0.0
 10
-7.71588
 20
0.31602
 30
0.0
  0
SPLINE
  5
5D
330
1F
100
AcDbEntity
  8
layer 1
 62
   250
370
    20
100
AcDbSpline
210
0.0
220
0.0
230
1.0
 70
    11
 71
     3
 72
    32
 73
    28
 74
     0
 42
0.0000000001
 43
0.0000000001
 40
0.0
 40
0.0
 40
0.0
 40
0.0
 40
0.125
 40
0.125
 40
0.125
 40
0.125
 40
0.25
 40
0.25
 40
0.25
 40
0.25
 40
0.375
 40
0.375
 40
0.375
 40
0.375
 40
0.5
 40
0.5
 40
0.5
 40
0.5
 40
0.625
 40
0.625
 40
0.625
 40
0.625
 40
0.75
 40
0.75
 40
0.75
 40
0.75
 40
1.0
 40
1.0
 40
1.0
 40
1.0
 10
-11.01568
 20
3.71439
 30
0.0
 10
-11.01568
 20
3.71439
 30
0.0
 10
-11.01568
 20
0.31602
 30
0.0
 10
-11.01568
 20
0.31602
 30
0.0
 10
-11.01568
 20
0.31602
 30
0.0
 10
-11.01568
 20
0.31602
 30
0.0
 10
-8.72571
 20
0.31602
 30
0.0
 10
-8.72571
 20
0.31602
 30
0.0
 10
-8.72571
 20
0.31602
 30
0.0
 10
-9.0607
 20
0.39776
 30
0.0
 10
-9.32288
 20
0.58235
 30
0.0
 10
-9.52453
 20
0.82934
 30
0.0
 10
-9.52453
 20
0.82934
 30
0.0
 10
-9.8402
 20
0.35262
 30
0.0
 10
-10.40711
 20
0.61035
 30
0.0
 10
-10.63258
 20
0.95823
 30
0.0
 10
-10.63258
 20
0.95823
 30
0.0
 10
-10.29759
 20
1.08707
 30
0.0
 10
-10.07856
 20
1.17726
 30
0.0
 10
-10.01414
 20
1.39629
 30
0.0
 10
-10.01414
 20
1.39629
 30
0.0
 10
-10.15586
 20
1.69263
 30
0.0
 10
-10.24605
 20
2.50434
 30
0.0
 10
-9.98837
 20
2.98105
 30
0.0
 10
-9.98837
 20
2.98105
 30
0.0
 10
-10.58104
 20
2.96817
 30
0.0
 10
-10.74168
 20
3.63602
 30
0.0
 10
-11.01568
 20
3.71439
 30
0.0
  0
SPLINE
  5
5E
330
1F
100
AcDbEntity
  8
layer 1
 62
   250
370
    20
100
AcDbSpline
210
0.0
220
0.0
230
1.0
 70
    11
 71
     3
 72
    24
 73
    20
 74
     0
 42
0.0000000001
 43
0.0000000001
 40
0.0
 40
0.0
 40
0.0
 40
0.0
 40
0.1666666666666667
 40
0.1666666666666667
 40
0.1666666666666667
 40
0.1666666666666667
 40
0.3333333333333333
 40
0.3333333333333333
 40
0.3333333333333333
 40
0.3333333333333333
 40
0.5
 40
0.5
 40
0.5
 40
0.5
 40
0.6666666666666666
 40
0.6666666666666666
 40
0.6666666666666666
 40
0.6666666666666666
 40
1.0
 40
1.0
 40
1.0
 40
1.0
 10
-6.35501
 20
2.9424
 30
0.0
 10
-7.58772
 20
4.0099
 30
0.0
 10
-9.20255
 20
3.34843
 30
0.0
 10
-9.17666
 20
2.16934
 30
0.0
 10
-9.17666
 20
2.16934
 30
0.0
 10
-9.15077
 20
0.99026
 30
0.0
 10
-7.78516
 20
1.25456
 30
0.0
 10
-7.90112
 20
1.9632
 30
0.0
 10
-7.90112
 20
1.9632
 30
0.0
 10
-8.35538
 20
1.9085
 30
0.0
 10
-8.52236
 20
2.54147
 30
0.0
 10
-8.14121
 20
2.84102
 30
0.0
 10
-8.14121
 20
2.84102
 30
0.0
 10
-7.80573
 20
3.10466
 30
0.0
 10
-7.13994
 20
3.10673
 30
0.0
 10
-6.84461
 20
2.43991
 30
0.0
 10
-6.84461
 20
2.43991
 30
0.0
 10
-6.66988
 20
2.57789
 30
0.0
 10
-6.5225
 20
2.74914
 30
0.0
 10
-6.35501
 20
2.9424
 30
0.0
  0
SPLINE
  5
5F
330
1F
100
AcDbEntity
  8
layer 1
 62
   250
370
    20
100
AcDbSpline
210
0.0
220
0.0
230
1.0
 70
    11
 71
     3
 72
    20
 73
    16
 74
     0
 42
0.0000000001
 43
0.0000000001
 40
0.0
 40
0.0
 40
0.0
 40
0.0
 40
0.2
 40
0.2
 40
0.2
 40
0.2
 40
0.4
 40
0.4
 40
0.4
 40
0.4
 40
0.6
 40
0.6
 40
0.6
 40
0.6
 40
1.0
 40
1.0
 40
1.0
 40
1.0
 10
-4.71871
 20
1.89878
 30
0.0
 10
-5.20831
 20
1.89878
 30
0.0
 10
-6.08444
 20
1.75705
 30
0.0
 10
-6.62558
 20
1.3061
 30
0.0
 10
-6.62558
 20
1.3061
 30
0.0
 10
-6.58755
 20
1.46154
 30
0.0
 10
-6.56761
 20
1.64563
 30
0.0
 10
-6.61269
 20
1.86012
 30
0.0
 10
-6.61269
 20
1.86012
 30
0.0
 10
-6.41943
 20
2.00185
 30
0.0
 10
-5.98137
 20
2.4528
 30
0.0
 10
-5.83964
 20
2.62029
 30
0.0
 10
-5.83964
 20
2.62029
 30
0.0
 10
-5.59484
 20
2.4528
 30
0.0
 10
-5.01505
 20
1.9632
 30
0.0
 10
-4.71871
 20
1.89878
 30
0.0
  0
SPLINE
  5
60
330
1F
100
AcDbEntity
  8
layer 1
 62
   250
370
    20
100
AcDbSpline
210
0.0
220
0.0
230
1.0
 70
    11
 71
     3
 72
    16
 73
    12
 74
     0
 42
0.0000000001
 43
0.0000000001
 40
0.0
 40
0.0
 40
0.0
 40
0.0
 40
0.25
 40
0.25
 40
0.25
 40
0.25
 40
0.5
 40
0.5
 40
0.5
 40
0.5
 40
1.0
 40
1.0
 40
1.0
 40
1.0
 10
-3.00892
 20
1.69205
 30
0.0
 10
-3.34658
 20
1.61547
 30
0.0
 10
-3.71463
 20
1.63172
 30
0.0
 10
-4.0294
 20
1.7184
 30
0.0
 10
-4.0294
 20
1.7184
 30
0.0
 10
-3.70093
 20
1.55285
 30
0.0
 10
-3.40345
 20
1.15858
 30
0.0
 10
-2.94068
 20
1.17726
 30
0.0
 10
-2.94068
 20
1.17726
 30
0.0
 10
-3.11004
 20
1.37083
 30
0.0
 10
-3.10219
 20
1.55668
 30
0.0
 10
-3.00892
 20
1.69205
 30
0.0
  0
SPLINE
  5
61
330
1F
100
AcDbEntity
  8
layer 1
 62
   250
370
    20
100
AcDbSpline
210
0.0
220
0.0
230
1.0
 70
    11
 71
     3
 72
    20
 73
    16
 74
     0
 42
0.0000000001
 43
0.0000000001
 40
0.0
 40
0.0
 40
0.0
 40
0.0
 40
0.2
 40
0.2
 40
0.2
 40
0.2
 40
0.4
 40
0.4
 40
0.4
 40
0.4
 40
0.6
 40
0.6
 40
0.6
 40
0.6
 40
1.0
 40
1.0
 40
1.0
 40
1.0
 10
-1.96387
 20
2.85471
 30
0.0
 10
-1.98617
 20
2.3835
 30
0.0
 10
-2.2021
 20
2.09307
 30
0.0
 10
-2.50884
 20
1.89613
 30
0.0
 10
-2.50884
 20
1.89613
 30
0.0
 10
-2.31233
 20
1.85916
 30
0.0
 10
-2.13158
 20
1.6905
 30
0.0
 10
-2.12493
 20
1.32253
 30
0.0
 10
-2.12493
 20
1.32253
 30
0.0
 10
-1.92927
 20
1.4285
 30
0.0
 10
-1.48435
 20
2.1292
 30
0.0
 10
-1.50323
 20
2.53446
 30
0.0
 10
-1.50323
 20
2.53446
 30
0.0
 10
-1.67515
 20
2.61415
 30
0.0
 10
-1.83084
 20
2.72301
 30
0.0
 10
-1.96387
 20
2.85471
 30
0.0
  0
SPLINE
  5
62
330
1F
100
AcDbEntity
  8
layer 1
 62
   250
370
    20
100
AcDbSpline
210
0.0
220
0.0
230
1.0
 70
    11
 71
     3
 72
    16
 73
    12
 74
     0
 42
0.0000000001
 43
0.0000000001
 40
0.0
 40
0.0
 40
0.0
 40
0.0
 40
0.25
 40
0.25
 40
0.25
 40
0.25
 40
0.5
 40
0.5
 40
0.5
 40
0.5
 40
1.0
 40
1.0
 40
1.0
 40
1.0
 10
-5.3954
 20
2.98452
 30
0.0
 10
-4.86129
 20
2.6036
 30
0.0
 10
-4.29464
 20
2.26457
 30
0.0
 10
-3.59778
 20
2.24665
 30
0.0
 10
-3.59778
 20
2.24665
 30
0.0
 10
-2.4582
 20
2.21734
 30
0.0
 10
-2.23623
 20
3.76104
 30
0.0
 10
-3.57924
 20
3.78913
 30
0.0
 10
-3.57924
 20
3.78913
 30
0.0
 10
-4.08184
 20
3.79963
 30
0.0
 10
-4.672
 20
3.57317
 30
0.0
 10
-5.3954
 20
2.98452
 30
0.0
  0
SPLINE
  5
63
330
1F
100
AcDbEntity
  8
layer 1
 62
   250
370
    20
100
AcDbSpline
210
0.0
220
0.0
230
1.0
 70
    11
 71
     3
 72
    28
 73
    24
 74
     0
 42
0.0000000001
 43
0.0000000001
 40
0.0
 40
0.0
 40
0.0
 40
0.0
 40
0.1428571428571428
 40
0.1428571428571428
 40
0.1428571428571428
 40
0.1428571428571428
 40
0.2857142857142857
 40
0.2857142857142857
 40
0.2857142857142857
 40
0.2857142857142857
 40
0.4285714285714285
 40
0.4285714285714285
 40
0.4285714285714285
 40
0.4285714285714285
 40
0.5714285714285714
 40
0.5714285714285714
 40
0.5714285714285714
 40
0.5714285714285714
 40
0.7142857142857143
 40
0.7142857142857143
 40
0.7142857142857143
 40
0.7142857142857143
 40
1.0
 40
1.0
 40
1.0
 40
1.0
 10
-0.82037
 20
0.97111
 30
0.0
 10
-0.99475
 20
0.97111
 30
0.0
 10
-1.20777
 20
1.09008
 30
0.0
 10
-1.28829
 20
1.23838
 30
0.0
 10
-1.28829
 20
1.23838
 30
0.0
 10
-0.99837
 20
1.55459
 30
0.0
 10
-0.93396
 20
2.02735
 30
0.0
 10
-0.94167
 20
2.38904
 30
0.0
 10
-0.94167
 20
2.38904
 30
0.0
 10
-0.90057
 20
2.38594
 30
0.0
 10
-0.86229
 20
2.38459
 30
0.0
 10
-0.8204
 20
2.38459
 30
0.0
 10
-0.8204
 20
2.38459
 30
0.0
 10
-0.77851
 20
2.38459
 30
0.0
 10
-0.74058
 20
2.38594
 30
0.0
 10
-0.69947
 20
2.38904
 30
0.0
 10
-0.69947
 20
2.38904
 30
0.0
 10
-0.70719
 20
2.02735
 30
0.0
 10
-0.64278
 20
1.55459
 30
0.0
 10
-0.35286
 20
1.23838
 30
0.0
 10
-0.35286
 20
1.23838
 30
0.0
 10
-0.43338
 20
1.09008
 30
0.0
 10
-0.64599
 20
0.97111
 30
0.0
 10
-0.82037
 20
0.97111
 30
0.0
  0
SPLINE
  5
64
330
1F
100
AcDbEntity
  8
layer 1
 62
   250
370
    20
100
AcDbSpline
210
0.0
220
0.0
230
1.0
 70
    11
 71
     3
 72
    24
 73
    20
 74
     0
 42
0.0000000001
 43
0.0000000001
 40
0.0
 40
0.0
 40
0.0
 40
0.0
 40
0.1666666666666667
 40
0.1666666666666667
 40
0.1666666666666667
 40
0.1666666666666667
 40
0.3333333333333333
 40
0.3333333333333333
 40
0.3333333333333333
 40
0.3333333333333333
 40
0.5
 40
0.5
 40
0.5
 40
0.5
 40
0.6666666666666666
 40
0.6666666666666666
 40
0.6666666666666666
 40
0.6666666666666666
 40
1.0
 40
1.0
 40
1.0
 40
1.0
 10
-0.49248
 20
0.31431
 30
0.0
 10
-0.49248
 20
0.31431
 30
0.0
 10
2.53486
 20
0.31589
 30
0.0
 10
2.53486
 20
0.31589
 30
0.0
 10
2.53486
 20
0.31589
 30
0.0
 10
2.35062
 20
0.43553
 30
0.0
 10
2.23895
 20
0.6639
 30
0.0
 10
2.29162
 20
1.0613
 30
0.0
 10
2.29162
 20
1.0613
 30
0.0
 10
1.52504
 20
0.67009
 30
0.0
 10
1.01694
 20
0.66598
 30
0.0
 10
0.74086
 20
0.8333
 30
0.0
 10
0.74086
 20
0.8333
 30
0.0
 10
0.53679
 20
0.78902
 30
0.0
 10
0.32999
 20
0.80672
 30
0.0
 10
0.12707
 20
0.8938
 30
0.0
 10
0.12707
 20
0.8938
 30
0.0
 10
0.06166
 20
0.74764
 30
0.0
 10
-0.13595
 20
0.44374
 30
0.0
 10
-0.49248
 20
0.31431
 30
0.0
  0
SPLINE
  5
65
330
1F
100
AcDbEntity
  8
layer 1
 62
   250
370
    20
100
AcDbSpline
210
0.0
220
0.0
230
1.0
 70
    11
 71
     3
 72
    20
 73
    16
 74
     0
 42
0.0000000001
 43
0.0000000001
 40
0.0
 40
0.0
 40
0.0
 40
0.0
 40
0.2
 40
0.2
 40
0.2
 40
0.2
 40
0.4
 40
0.4
 40
0.4
 40
0.4
 40
0.6
 40
0.6
 40
0.6
 40
0.6
 40
1.0
 40
1.0
 40
1.0
 40
1.0
 10
4.57858
 20
1.08076
 30
0.0
 10
4.37243
 20
0.91326
 30
0.0
 10
4.45617
 20
0.50728
 30
0.0
 10
4.54636
 20
0.31602
 30
0.0
 10
4.54636
 20
0.31602
 30
0.0
 10
4.54636
 20
0.31602
 30
0.0
 10
3.32381
 20
0.31979
 30
0.0
 10
3.32381
 20
0.31979
 30
0.0
 10
3.32381
 20
0.31979
 30
0.0
 10
3.62965
 20
0.56492
 30
0.0
 10
3.66226
 20
1.12182
 30
0.0
 10
3.01314
 20
1.3061
 30
0.0
 10
3.01314
 20
1.3061
 30
0.0
 10
3.25153
 20
1.50944
 30
0.0
 10
4.21783
 20
1.41941
 30
0.0
 10
4.57858
 20
1.08076
 30
0.0
  0
SPLINE
  5
66
330
1F
100
AcDbEntity
  8
layer 1
 62
   250
370
    20
100
AcDbSpline
210
0.0
220
0.0
230
1.0
 70
    11
 71
     3
 72
    16
 73
    12
 74
     0
 42
0.0000000001
 43
0.0000000001
 40
0.0
 40
0.0
 40
0.0
 40
0.0
 40
0.25
 40
0.25
 40
0.25
 40
0.25
 40
0.5
 40
0.5
 40
0.5
 40
0.5
 40
1.0
 40
1.0
 40
1.0
 40
1.0
 10
6.07473
 20
0.31602
 30
0.0
 10
6.07473
 20
0.31602
 30
0.0
 10
4.67521
 20
0.31602
 30
0.0
 10
4.67521
 20
0.31602
 30
0.0
 10
4.67521
 20
0.31602
 30
0.0
 10
4.67521
 20
0.52016
 30
0.0
 10
4.78796
 20
0.78442
 30
0.0
 10
5.29044
 20
0.73288
 30
0.0
 10
5.29044
 20
0.73288
 30
0.0
 10
5.48047
 20
0.56205
 30
0.0
 10
5.66886
 20
0.41458
 30
0.0
 10
6.07473
 20
0.31602
 30
0.0
  0
SPLINE
  5
67
330
1F
100
AcDbEntity
  8
layer 1
 62
   250
370
    20
100
AcDbSpline
210
0.0
220
0.0
230
1.0
 70
    11
 71
     3
 72
    32
 73
    28
 74
     0
 42
0.0000000001
 43
0.0000000001
 40
0.0
 40
0.0
 40
0.0
 40
0.0
 40
0.125
 40
0.125
 40
0.125
 40
0.125
 40
0.25
 40
0.25
 40
0.25
 40
0.25
 40
0.375
 40
0.375
 40
0.375
 40
0.375
 40
0.5
 40
0.5
 40
0.5
 40
0.5
 40
0.625
 40
0.625
 40
0.625
 40
0.625
 40
0.75
 40
0.75
 40
0.75
 40
0.75
 40
1.0
 40
1.0
 40
1.0
 40
1.0
 10
9.37453
 20
3.71439
 30
0.0
 10
9.37453
 20
3.71439
 30
0.0
 10
9.37453
 20
0.31602
 30
0.0
 10
9.37453
 20
0.31602
 30
0.0
 10
9.37453
 20
0.31602
 30
0.0
 10
9.37453
 20
0.31602
 30
0.0
 10
7.08456
 20
0.31602
 30
0.0
 10
7.08456
 20
0.31602
 30
0.0
 10
7.08456
 20
0.31602
 30
0.0
 10
7.41955
 20
0.39776
 30
0.0
 10
7.68173
 20
0.58235
 30
0.0
 10
7.88339
 20
0.82934
 30
0.0
 10
7.88339
 20
0.82934
 30
0.0
 10
8.19905
 20
0.35262
 30
0.0
 10
8.76596
 20
0.61035
 30
0.0
 10
8.99143
 20
0.95823
 30
0.0
 10
8.99143
 20
0.95823
 30
0.0
 10
8.65644
 20
1.08707
 30
0.0
 10
8.43741
 20
1.17726
 30
0.0
 10
8.37299
 20
1.39629
 30
0.0
 10
8.37299
 20
1.39629
 30
0.0
 10
8.51471
 20
1.69263
 30
0.0
 10
8.6049
 20
2.50434
 30
0.0
 10
8.34722
 20
2.98105
 30
0.0
 10
8.34722
 20
2.98105
 30
0.0
 10
8.93989
 20
2.96817
 30
0.0
 10
9.10053
 20
3.63602
 30
0.0
 10
9.37453
 20
3.71439
 30
0.0
  0
SPLINE
  5
68
330
1F
100
AcDbEntity
  8
layer 1
 62
   250
370
    20
100
AcDbSpline
210
0.0
220
0.0
230
1.0
 70
    11
 71
     3
 72
    24
 73
    20
 74
     0
 42
0.0000000001
 43
0.0000000001
 40
0.0
 40
0.0
 40
0.0
 40
0.0
 40
0.1666666666666667
 40
0.1666666666666667
 40
0.1666666666666667
 40
0.1666666666666667
 40
0.3333333333333333
 40
0.3333333333333333
 40
0.3333333333333333
 40
0.3333333333333333
 40
0.5
 40
0.5
 40
0.5
 40
0.5
 40
0.6666666666666666
 40
0.6666666666666666
 40
0.6666666666666666
 40
0.6666666666666666
 40
1.0
 40
1.0
 40
1.0
 40
1.0
 10
4.71386
 20
2.9424
 30
0.0
 10
5.94657
 20
4.0099
 30
0.0
 10
7.5614
 20
3.34843
 30
0.0
 10
7.53551
 20
2.16934
 30
0.0
 10
7.53551
 20
2.16934
 30
0.0
 10
7.50962
 20
0.99026
 30
0.0
 10
6.14401
 20
1.25456
 30
0.0
 10
6.25997
 20
1.9632
 30
0.0
 10
6.25997
 20
1.9632
 30
0.0
 10
6.71423
 20
1.9085
 30
0.0
 10
6.88121
 20
2.54147
 30
0.0
 10
6.50006
 20
2.84102
 30
0.0
 10
6.50006
 20
2.84102
 30
0.0
 10
6.16458
 20
3.10466
 30
0.0
 10
5.49879
 20
3.10673
 30
0.0
 10
5.20346
 20
2.43991
 30
0.0
 10
5.20346
 20
2.43991
 30
0.0
 10
5.02873
 20
2.57789
 30
0.0
 10
4.88136
 20
2.74914
 30
0.0
 10
4.71386
 20
2.9424
 30
0.0
  0
SPLINE
  5
69
330
1F
100
AcDbEntity
  8
layer 1
 62
   250
370
    20
100
AcDbSpline
210
0.0
220
0.0
230
1.0
 70
    11
 71
     3
 72
    20
 73
    16
 74
     0
 42
0.0000000001
 43
0.0000000001
 40
0.0
 40
0.0
 40
0.0
 40
0.0
 40
0.2
 40
0.2
 40
0.2
 40
0.2
 40
0.4
 40
0.4
 40
0.4
 40
0.4
 40
0.6
 40
0.6
 40
0.6
 40
0.6
 40
1.0
 40
1.0
 40
1.0
 40
1.0
 10
3.07756
 20
1.89878
 30
0.0
 10
3.56716
 20
1.89878
 30
0.0
 10
4.44329
 20
1.75705
 30
0.0
 10
4.98443
 20
1.3061
 30
0.0
 10
4.98443
 20
1.3061
 30
0.0
 10
4.9464
 20
1.46154
 30
0.0
 10
4.92646
 20
1.64563
 30
0.0
 10
4.97154
 20
1.86012
 30
0.0
 10
4.97154
 20
1.86012
 30
0.0
 10
4.77828
 20
2.00185
 30
0.0
 10
4.34022
 20
2.4528
 30
0.0
 10
4.19849
 20
2.62029
 30
0.0
 10
4.19849
 20
2.62029
 30
0.0
 10
3.95369
 20
2.4528
 30
0.0
 10
3.3739
 20
1.9632
 30
0.0
 10
3.07756
 20
1.89878
 30
0.0
  0
SPLINE
  5
6A
330
1F
100
AcDbEntity
  8
layer 1
 62
   250
370
    20
100
AcDbSpline
210
0.0
220
0.0
230
1.0
 70
    11
 71
     3
 72
    16
 73
    12
 74
     0
 42
0.0000000001
 43
0.0000000001
 40
0.0
 40
0.0
 40
0.0
 40
0.0
 40
0.25
 40
0.25
 40
0.25
 40
0.25
 40
0.5
 40
0.5
 40
0.5
 40
0.5
 40
1.0
 40
1.0
 40
1.0
 40
1.0
 10
1.36777
 20
1.69205
 30
0.0
 10
1.70543
 20
1.61547
 30
0.0
 10
2.07348
 20
1.63172
 30
0.0
 10
2.38825
 20
1.7184
 30
0.0
 10
2.38825
 20
1.7184
 30
0.0
 10
2.05978
 20
1.55285
 30
0.0
 10
1.7623
 20
1.15858
 30
0.0
 10
1.29953
 20
1.17726
 30
0.0
 10
1.29953
 20
1.17726
 30
0.0
 10
1.46889
 20
1.37083
 30
0.0
 10
1.46105
 20
1.55668
 30
0.0
 10
1.36777
 20
1.69205
 30
0.0
  0
SPLINE
  5
6B
330
1F
100
AcDbEntity
  8
layer 1
 62
   250
370
    20
100
AcDbSpline
210
0.0
220
0.0
230
1.0
 70
    11
 71
     3
 72
    20
 73
    16
 74
     0
 42
0.0000000001
 43
0.0000000001
 40
0.0
 40
0.0
 40
0.0
 40
0.0
 40
0.2
 40
0.2
 40
0.2
 40
0.2
 40
0.4
 40
0.4
 40
0.4
 40
0.4
 40
0.6
 40
0.6
 40
0.6
 40
0.6
 40
1.0
 40
1.0
 40
1.0
 40
1.0
 10
0.32272
 20
2.85471
 30
0.0
 10
0.34502
 20
2.3835
 30
0.0
 10
0.56095
 20
2.09307
 30
0.0
 10
0.86769
 20
1.89613
 30
0.0
 10
0.86769
 20
1.89613
 30
0.0
 10
0.67118
 20
1.85916
 30
0.0
 10
0.49043
 20
1.6905
 30
0.0
 10
0.48378
 20
1.32253
 30
0.0
 10
0.48378
 20
1.32253
 30
0.0
 10
0.28812
 20
1.4285
 30
0.0
 10
-0.1568
 20
2.1292
 30
0.0
 10
-0.13792
 20
2.53446
 30
0.0
 10
-0.13792
 20
2.53446
 30
0.0
 10
0.034
 20
2.61415
 30
0.0
 10
0.18969
 20
2.72301
 30
0.0
 10
0.32272
 20
2.85471
 30
0.0
  0
SPLINE
  5
6C
330
1F
100
AcDbEntity
  8
layer 1
 62
   250
370
    20
100
AcDbSpline
210
0.0
220
0.0
230
1.0
 70
    11
 71
     3
 72
    16
 73
    12
 74
     0
 42
0.0000000001
 43
0.0000000001
 40
0.0
 40
0.0
 40
0.0
 40
0.0
 40
0.25
 40
0.25
 40
0.25
 40
0.25
 40
0.5
 40
0.5
 40
0.5
 40
0.5
 40
1.0
 40
1.0
 40
1.0
 40
1.0
 10
3.75425
 20
2.98452
 30
0.0
 10
3.22014
 20
2.6036
 30
0.0
 10
2.65349
 20
2.26457
 30
0.0
 10
1.95663
 20
2.24665
 30
0.0
 10
1.95663
 20
2.24665
 30
0.0
 10
0.81705
 20
2.21734
 30
0.0
 10
0.59508
 20
3.76104
 30
0.0
 10
1.93809
 20
3.78913
 30
0.0
 10
1.93809
 20
3.78913
 30
0.0
 10
2.44069
 20
3.79963
 30
0.0
 10
3.03086
 20
3.57317
 30
0.0
 10
3.75425
 20
2.98452
 30
0.0
  0
ENDSEC
  0
SECTION
  2
OBJECTS
  0
DICTIONARY
  5
C
330
0
100
AcDbDictionary
281
     1
  3
ACAD_GROUP
350
D
  3
ACAD_LAYOUT
350
1A
  3
ACAD_MATERIAL
350
3B
  3
ACAD_MLEADERSTYLE
350
8E
  3
ACAD_MLINESTYLE
350
17
  3
ACAD_PLOTSETTINGS
350
19
  3
ACAD_PLOTSTYLENAME
350
E
  3
ACAD_TABLESTYLE
350
8D
  3
ACAD_VISUALSTYLE
350
2A
  0
DICTIONARY
  5
D
102
{ACAD_REACTORS
330
C
102
}
330
C
100
AcDbDictionary
281
     1
  0
DICTIONARY
  5
1A
102
{ACAD_REACTORS
330
C
102
}
330
C
100
AcDbDictionary
281
     1
  3
Layout1
350
1E
  3
Layout2
350
26
  3
Model
350
22
  0
DICTIONARY
  5
3B
102
{ACAD_REACTORS
330
C
102
}
330
C
100
AcDbDictionary
281
     1
  3
ByBlock
350
3D
  3
ByLayer
350
3C
  3
Global
350
3E
  0
DICTIONARY
  5
8E
102
{ACAD_REACTORS
330
C
102
}
330
C
100
AcDbDictionary
281
     1
  0
DICTIONARY
  5
17
102
{ACAD_REACTORS
330
C
102
}
330
C
100
AcDbDictionary
281
     1
  3
Standard
350
18
  0
DICTIONARY
  5
19
102
{ACAD_REACTORS
330
C
102
}
330
C
100
AcDbDictionary
281
     1
  0
ACDBDICTIONARYWDFLT
  5
E
102
{ACAD_REACTORS
330
C
102
}
330
C
100
AcDbDictionary
281
     1
  3
Normal
350
F
100
AcDbDictionaryWithDefault
340
F
  0
DICTIONARY
  5
8D
102
{ACAD_REACTORS
330
C
102
}
330
C
100
AcDbDictionary
281
     1
  0
DICTIONARY
  5
2A
102
{ACAD_REACTORS
330
C
102
}
330
C
100
AcDbDictionary
281
     1
  3
2dWireframe
350
2F
  3
3D Hidden
350
31
  3
3dWireframe
350
30
  3
Basic
350
32
  3
Brighten
350
36
  3
ColorChange
350
3A
  3
Conceptual
350
34
  3
Dim
350
35
  3
Facepattern
350
39
  3
Flat
350
2B
  3
FlatWithEdges
350
2C
  3
Gouraud
350
2D
  3
GouraudWithEdges
350
2E
  3
Linepattern
350
38
  3
Realistic
350
33
  3
Thicken
350
37
  0
LAYOUT
  5
1E
102
{ACAD_REACTORS
330
1A
102
}
330
1A
100
AcDbPlotSettings
  1

  2
none_device
  4

  6

 40
0.0
 41
0.0
 42
0.0
 43
0.0
 44
0.0
 45
0.0
 46
0.0
 47
0.0
 48
0.0
 49
0.0
140
0.0
141
0.0
142
1.0
143
1.0
 70
   688
 72
     0
 73
     0
 74
     5
  7

 75
    16
 76
     0
 77
     2
 78
   300
147
1.0
148
0.0
149
0.0
100
AcDbLayout
  1
Layout1
 70
     1
 71
     1
 10
0.0
 20
0.0
 11
12.0
 21
9.0
 12
0.0
 22
0.0
 32
0.0
 14
1.000000000000000E 20
 24
1.000000000000000E 20
 34
1.000000000000000E 20
 15
-1.000000000000000E 20
 25
-1.000000000000000E 20
 35
-1.000000000000000E 20
146
0.0
 13
0.0
 23
0.0
 33
0.0
 16
1.0
 26
0.0
 36
0.0
 17
0.0
 27
1.0
 37
0.0
 76
     0
330
1B
  0
LAYOUT
  5
26
102
{ACAD_REACTORS
330
1A
102
}
330
1A
100
AcDbPlotSettings
  1

  2
none_device
  4

  6

 40
0.0
 41
0.0
 42
0.0
 43
0.0
 44
0.0
 45
0.0
 46
0.0
 47
0.0
 48
0.0
 49
0.0
140
0.0
141
0.0
142
1.0
143
1.0
 70
   688
 72
     0
 73
     0
 74
     5
  7

 75
    16
 76
     0
 77
     2
 78
   300
147
1.0
148
0.0
149
0.0
100
AcDbLayout
  1
Layout2
 70
     1
 71
     2
 10
0.0
 20
0.0
 11
0.0
 21
0.0
 12
0.0
 22
0.0
 32
0.0
 14
0.0
 24
0.0
 34
0.0
 15
0.0
 25
0.0
 35
0.0
146
0.0
 13
0.0
 23
0.0
 33
0.0
 16
1.0
 26
0.0
 36
0.0
 17
0.0
 27
1.0
 37
0.0
 76
     0
330
23
  0
LAYOUT
  5
22
102
{ACAD_REACTORS
330
1A
102
}
330
1A
100
AcDbPlotSettings
  1

  2
none_device
  4

  6

 40
0.0
 41
0.0
 42
0.0
 43
0.0
 44
0.0
 45
0.0
 46
0.0
 47
0.0
 48
0.0
 49
0.0
140
0.0
141
0.0
142
1.0
143
1.0
 70
  1712
 72
     0
 73
     0
 74
     0
  7

 75
     0
 76
     0
 77
     2
 78
   300
147
1.0
148
0.0
149
0.0
100
AcDbLayout
  1
Model
 70
     1
 71
     0
 10
0.0
 20
0.0
 11
12.0
 21
9.0
 12
0.0
 22
0.0
 32
0.0
 14
-11.6167
 24
-0.285
 34
0.0
 15
9.97555
 25
8.3048
 35
0.0
146
0.0
 13
0.0
 23
0.0
 33
0.0
 16
1.0
 26
0.0
 36
0.0
 17
0.0
 27
1.0
 37
0.0
 76
     0
330
1F
331
29
  0
MATERIAL
  5
3D
102
{ACAD_REACTORS
330
3B
102
}
330
3B
100
AcDbMaterial
  1
ByBlock
 72
     1
 94
      127
  0
MATERIAL
  5
3C
102
{ACAD_REACTORS
330
3B
102
}
330
3B
100
AcDbMaterial
  1
ByLayer
 72
     1
 94
      127
  0
MATERIAL
  5
3E
102
{ACAD_REACTORS
330
3B
102
}
330
3B
100
AcDbMaterial
  1
Global
 72
     1
 94
      127
  0
MLINESTYLE
  5
18
102
{ACAD_REACTORS
330
17
102
}
330
17
100
AcDbMlineStyle
  2
Standard
 70
     0
  3

 62
   256
 51
90.0
 52
90.0
 71
     2
 49
0.5
 62
   256
  6
BYLAYER
 49
-0.5
 62
   256
  6
BYLAYER
  0
ACDBPLACEHOLDER
  5
F
102
{ACAD_REACTORS
330
E
102
}
330
E
  0
VISUALSTYLE
  5
2F
102
{ACAD_REACTORS
330
2A
102
}
102
{ACAD_XDICTIONARY
360
75
102
}
330
2A
100
AcDbVisualStyle
  2
2dWireframe
 70
     4
 71
     0
 72
     2
 73
     0
 90
        0
 40
-0.6
 41
-30.0
 62
     5
 63
     7
421
 16777215
 74
     1
 91
        4
 64
     7
 65
   257
 75
     1
175
     1
 42
1.0
 92
        0
 66
   257
 43
1.0
 76
     1
 77
     6
 78
     2
 67
     7
 79
     5
170
     0
171
     0
290
     0
174
     0
 93
        1
 44
0.0
173
     0
291
     0
 45
0.0
  0
VISUALSTYLE
  5
31
102
{ACAD_REACTORS
330
2A
102
}
102
{ACAD_XDICTIONARY
360
79
102
}
330
2A
100
AcDbVisualStyle
  2
3D Hidden
 70
     6
 71
     1
 72
     2
 73
     2
 90
        0
 40
-0.6
 41
-30.0
 62
     5
 63
     7
421
 16777215
 74
     2
 91
        2
 64
     7
 65
   257
 75
     2
175
     1
 42
40.0
 92
        0
 66
   257
 43
1.0
 76
     1
 77
     6
 78
     2
 67
     7
 79
     3
170
     0
171
     0
290
     0
174
     0
 93
        1
 44
0.0
173
     0
291
     0
 45
0.0
  0
VISUALSTYLE
  5
30
102
{ACAD_REACTORS
330
2A
102
}
102
{ACAD_XDICTIONARY
360
77
102
}
330
2A
100
AcDbVisualStyle
  2
3dWireframe
 70
     5
 71
     0
 72
     2
 73
     0
 90
        0
 40
-0.6
 41
-30.0
 62
     5
 63
     7
421
 16777215
 74
     1
 91
        4
 64
     7
 65
   257
 75
     1
175
     1
 42
1.0
 92
        0
 66
   257
 43
1.0
 76
     1
 77
     6
 78
     2
 67
     7
 79
     5
170
     0
171
     0
290
     0
174
     0
 93
        1
 44
0.0
173
     0
291
     0
 45
0.0
  0
VISUALSTYLE
  5
32
102
{ACAD_REACTORS
330
2A
102
}
102
{ACAD_XDICTIONARY
360
7B
102
}
330
2A
100
AcDbVisualStyle
  2
Basic
 70
     7
 71
     1
 72
     0
 73
     1
 90
        0
 40
-0.6
 41
-30.0
 62
     5
 63
     7
421
 16777215
 74
     0
 91
        4
 64
     7
 65
   257
 75
     1
175
     1
 42
1.0
 92
        8
 66
     7
 43
1.0
 76
     1
 77
     6
 78
     2
 67
     7
 79
     5
170
     0
171
     0
290
     0
174
     0
 93
        1
 44
0.0
173
     0
291
     1
 45
0.0
  0
VISUALSTYLE
  5
36
102
{ACAD_REACTORS
330
2A
102
}
102
{ACAD_XDICTIONARY
360
83
102
}
330
2A
100
AcDbVisualStyle
  2
Brighten
 70
    12
 71
     2
 72
     2
 73
     0
 90
        0
 40
-0.6
 41
-30.0
 62
     5
 63
     7
421
 16777215
 74
     1
 91
        4
 64
     7
 65
   257
 75
     1
175
     1
 42
1.0
 92
        8
 66
     7
 43
1.0
 76
     1
 77
     6
 78
     2
 67
     7
 79
     5
170
     0
171
     0
290
     0
174
     0
 93
        1
 44
50.0
173
     0
291
     1
 45
0.0
  0
VISUALSTYLE
  5
3A
102
{ACAD_REACTORS
330
2A
102
}
102
{ACAD_XDICTIONARY
360
8B
102
}
330
2A
100
AcDbVisualStyle
  2
ColorChange
 70
    16
 71
     2
 72
     2
 73
     3
 90
        0
 40
-0.6
 41
-30.0
 62
     5
 63
     8
421
  8421504
 74
     1
 91
        4
 64
     7
 65
   257
 75
     1
175
     1
 42
1.0
 92
        8
 66
     8
424
  8421504
 43
1.0
 76
     1
 77
     6
 78
     2
 67
     7
 79
     5
170
     0
171
     0
290
     0
174
     0
 93
        1
 44
0.0
173
     0
291
     1
 45
0.0
  0
VISUALSTYLE
  5
34
102
{ACAD_REACTORS
330
2A
102
}
102
{ACAD_XDICTIONARY
360
7F
102
}
330
2A
100
AcDbVisualStyle
  2
Conceptual
 70
     9
 71
     3
 72
     2
 73
     0
 90
        0
 40
-0.6
 41
-30.0
 62
     5
 63
     7
421
 16777215
 74
     2
 91
        2
 64
     7
 65
   257
 75
     1
175
     1
 42
40.0
 92
        8
 66
     7
 43
1.0
 76
     1
 77
     6
 78
     2
 67
     7
 79
     3
170
     0
171
     0
290
     0
174
     0
 93
        1
 44
0.0
173
     0
291
     0
 45
0.0
  0
VISUALSTYLE
  5
35
102
{ACAD_REACTORS
330
2A
102
}
102
{ACAD_XDICTIONARY
360
81
102
}
330
2A
100
AcDbVisualStyle
  2
Dim
 70
    11
 71
     2
 72
     2
 73
     0
 90
        0
 40
-0.6
 41
-30.0
 62
     5
 63
     7
421
 16777215
 74
     1
 91
        4
 64
     7
 65
   257
 75
     1
175
     1
 42
1.0
 92
        8
 66
     7
 43
1.0
 76
     1
 77
     6
 78
     2
 67
     7
 79
     5
170
     0
171
     0
290
     0
174
     0
 93
        1
 44
-50.0
173
     0
291
     1
 45
0.0
  0
VISUALSTYLE
  5
39
102
{ACAD_REACTORS
330
2A
102
}
102
{ACAD_XDICTIONARY
360
89
102
}
330
2A
100
AcDbVisualStyle
  2
Facepattern
 70
    15
 71
     2
 72
     2
 73
     0
 90
        0
 40
-0.6
 41
-30.0
 62
     5
 63
     7
421
 16777215
 74
     1
 91
        4
 64
     7
 65
   257
 75
     1
175
     1
 42
1.0
 92
        8
 66
     7
 43
1.0
 76
     1
 77
     6
 78
     2
 67
     7
 79
     5
170
     0
171
     0
290
     0
174
     0
 93
        1
 44
0.0
173
     0
291
     1
 45
0.0
  0
VISUALSTYLE
  5
2B
102
{ACAD_REACTORS
330
2A
102
}
102
{ACAD_XDICTIONARY
360
6D
102
}
330
2A
100
AcDbVisualStyle
  2
Flat
 70
     0
 71
     2
 72
     1
 73
     1
 90
        2
 40
-0.6
 41
30.0
 62
     5
 63
     7
421
 16777215
 74
     0
 91
        4
 64
     7
 65
   257
 75
     1
175
     1
 42
1.0
 92
        8
 66
     7
 43
1.0
 76
     1
 77
     6
 78
     2
 67
     7
 79
     5
170
     0
171
     0
290
     0
174
     0
 93
       13
 44
0.0
173
     0
291
     1
 45
0.0
  0
VISUALSTYLE
  5
2C
102
{ACAD_REACTORS
330
2A
102
}
102
{ACAD_XDICTIONARY
360
6F
102
}
330
2A
100
AcDbVisualStyle
  2
FlatWithEdges
 70
     1
 71
     2
 72
     1
 73
     1
 90
        2
 40
-0.6
 41
30.0
 62
     5
 63
     7
421
 16777215
 74
     1
 91
        4
 64
     7
 65
   257
 75
     1
175
     1
 42
1.0
 92
        0
 66
   257
 43
1.0
 76
     1
 77
     6
 78
     2
 67
     7
 79
     5
170
     0
171
     0
290
     0
174
     0
 93
       13
 44
0.0
173
     0
291
     1
 45
0.0
  0
VISUALSTYLE
  5
2D
102
{ACAD_REACTORS
330
2A
102
}
102
{ACAD_XDICTIONARY
360
71
102
}
330
2A
100
AcDbVisualStyle
  2
Gouraud
 70
     2
 71
     2
 72
     2
 73
     1
 90
        2
 40
-0.6
 41
30.0
 62
     5
 63
     7
421
 16777215
 74
     0
 91
        4
 64
     7
 65
   257
 75
     1
175
     1
 42
1.0
 92
        0
 66
     7
 43
1.0
 76
     1
 77
     6
 78
     2
 67
     7
 79
     5
170
     0
171
     0
290
     0
174
     0
 93
       13
 44
0.0
173
     0
291
     1
 45
0.0
  0
VISUALSTYLE
  5
2E
102
{ACAD_REACTORS
330
2A
102
}
102
{ACAD_XDICTIONARY
360
73
102
}
330
2A
100
AcDbVisualStyle
  2
GouraudWithEdges
 70
     3
 71
     2
 72
     2
 73
     1
 90
        2
 40
-0.6
 41
30.0
 62
     5
 63
     7
421
 16777215
 74
     1
 91
        4
 64
     7
 65
   257
 75
     1
175
     1
 42
1.0
 92
        0
 66
   257
 43
1.0
 76
     1
 77
     6
 78
     2
 67
     7
 79
     5
170
     0
171
     0
290
     0
174
     0
 93
       13
 44
0.0
173
     0
291
     1
 45
0.0
  0
VISUALSTYLE
  5
38
102
{ACAD_REACTORS
330
2A
102
}
102
{ACAD_XDICTIONARY
360
87
102
}
330
2A
100
AcDbVisualStyle
  2
Linepattern
 70
    14
 71
     2
 72
     2
 73
     0
 90
        0
 40
-0.6
 41
-30.0
 62
     5
 63
     7
421
 16777215
 74
     1
 91
        4
 64
     7
 65
   257
 75
     7
175
     7
 42
1.0
 92
        8
 66
     7
 43
1.0
 76
     1
 77
     6
 78
     2
 67
     7
 79
     5
170
     0
171
     0
290
     0
174
     0
 93
        1
 44
0.0
173
     0
291
     1
 45
0.0
  0
VISUALSTYLE
  5
33
102
{ACAD_REACTORS
330
2A
102
}
102
{ACAD_XDICTIONARY
360
7D
102
}
330
2A
100
AcDbVisualStyle
  2
Realistic
 70
     8
 71
     2
 72
     2
 73
     0
 90
        0
 40
-0.6
 41
-30.0
 62
     5
 63
     7
421
 16777215
 74
     1
 91
        0
 64
     7
 65
   257
 75
     1
175
     1
 42
1.0
 92
        8
 66
     8
424
  7895160
 43
1.0
 76
     1
 77
     6
 78
     2
 67
     7
 79
     5
170
     0
171
     0
290
     0
174
     0
 93
       13
 44
0.0
173
     0
291
     0
 45
0.0
  0
VISUALSTYLE
  5
37
102
{ACAD_REACTORS
330
2A
102
}
102
{ACAD_XDICTIONARY
360
85
102
}
330
2A
100
AcDbVisualStyle
  2
Thicken
 70
    13
 71
     2
 72
     2
 73
     0
 90
        0
 40
-0.6
 41
-30.0
 62
     5
 63
     7
421
 16777215
 74
     1
 91
        4
 64
     7
 65
   257
 75
     1
175
     1
 42
1.0
 92
       12
 66
     7
 43
1.0
 76
     1
 77
     6
 78
     2
 67
     7
 79
     5
170
     0
171
     0
290
     0
174
     0
 93
        1
 44
0.0
173
     0
291
     1
 45
0.0
  0
DICTIONARY
  5
75
330
2F
100
AcDbDictionary
280
     1
281
     1
  3
ACAD_XREC_ROUNDTRIP
360
76
  0
DICTIONARY
  5
79
330
31
100
AcDbDictionary
280
     1
281
     1
  3
ACAD_XREC_ROUNDTRIP
360
7A
  0
DICTIONARY
  5
77
330
30
100
AcDbDictionary
280
     1
281
     1
  3
ACAD_XREC_ROUNDTRIP
360
78
  0
DICTIONARY
  5
7B
330
32
100
AcDbDictionary
280
     1
281
     1
  3
ACAD_XREC_ROUNDTRIP
360
7C
  0
DICTIONARY
  5
83
330
36
100
AcDbDictionary
280
     1
281
     1
  3
ACAD_XREC_ROUNDTRIP
360
84
  0
DICTIONARY
  5
8B
330
3A
100
AcDbDictionary
280
     1
281
     1
  3
ACAD_XREC_ROUNDTRIP
360
8C
  0
DICTIONARY
  5
7F
330
34
100
AcDbDictionary
280
     1
281
     1
  3
ACAD_XREC_ROUNDTRIP
360
80
  0
DICTIONARY
  5
81
330
35
100
AcDbDictionary
280
     1
281
     1
  3
ACAD_XREC_ROUNDTRIP
360
82
  0
DICTIONARY
  5
89
330
39
100
AcDbDictionary
280
     1
281
     1
  3
ACAD_XREC_ROUNDTRIP
360
8A
  0
DICTIONARY
  5
6D
330
2B
100
AcDbDictionary
280
     1
281
     1
  3
ACAD_XREC_ROUNDTRIP
360
6E
  0
DICTIONARY
  5
6F
330
2C
100
AcDbDictionary
280
     1
281
     1
  3
ACAD_XREC_ROUNDTRIP
360
70
  0
DICTIONARY
  5
71
330
2D
100
AcDbDictionary
280
     1
281
     1
  3
ACAD_XREC_ROUNDTRIP
360
72
  0
DICTIONARY
  5
73
330
2E
100
AcDbDictionary
280
     1
281
     1
  3
ACAD_XREC_ROUNDTRIP
360
74
  0
DICTIONARY
  5
87
330
38
100
AcDbDictionary
280
     1
281
     1
  3
ACAD_XREC_ROUNDTRIP
360
88
  0
DICTIONARY
  5
7D
330
33
100
AcDbDictionary
280
     1
281
     1
  3
ACAD_XREC_ROUNDTRIP
360
7E
  0
DICTIONARY
  5
85
330
37
100
AcDbDictionary
280
     1
281
     1
  3
ACAD_XREC_ROUNDTRIP
360
86
  0
XRECORD
  5
76
102
{ACAD_REACTORS
330
75
102
}
330
75
100
AcDbXrecord
280
     1
102
RTVSPropertyOp0
 70
     1
102
RTVSPropertyOp1
 70
     1
102
RTVSPropertyOp2
 70
     1
102
RTVSPropertyOp3
 70
     1
102
RTVSPropertyOp4
 70
     1
102
RTVSPropertyOp5
 70
     1
102
RTVSPropertyOp6
 70
     1
102
RTVSPropertyOp7
 70
     1
102
RTVSPropertyOp8
 70
     1
102
RTVSPropertyOp9
 70
     1
102
RTVSPropertyOp10
 70
     1
102
RTVSPropertyOp11
 70
     1
102
RTVSPropertyOp12
 70
     1
102
RTVSPropertyOp13
 70
     1
102
RTVSPropertyOp14
 70
     1
102
RTVSPropertyOp15
 70
     1
102
RTVSPropertyOp16
 70
     1
102
RTVSPropertyOp17
 70
     1
102
RTVSPropertyOp18
 70
     1
102
RTVSPropertyOp19
 70
     1
102
RTVSPropertyOp20
 70
     1
102
RTVSPropertyOp21
 70
     1
102
RTVSPropertyOp22
 70
     1
102
RTVSPropertyOp23
 70
     1
102
RTVSPropertyOp24
 70
     1
102
RTVSPropertyOp25
 70
     1
102
RTVSPropertyOp26
 70
     1
102
RTVSPropertyOp27
 70
     1
  0
XRECORD
  5
7A
102
{ACAD_REACTORS
330
79
102
}
330
79
100
AcDbXrecord
280
     1
102
RTVSPropertyOp0
 70
     1
102
RTVSPropertyOp1
 70
     1
102
RTVSPropertyOp2
 70
     1
102
RTVSPropertyOp3
 70
     1
102
RTVSPropertyOp4
 70
     1
102
RTVSPropertyOp5
 70
     1
102
RTVSPropertyOp6
 70
     1
102
RTVSPropertyOp7
 70
     1
102
RTVSPropertyOp8
 70
     1
102
RTVSPropertyOp9
 70
     1
102
RTVSPropertyOp10
 70
     1
102
RTVSPropertyOp11
 70
     1
102
RTVSPropertyOp12
 70
     1
102
RTVSPropertyOp13
 70
     1
102
RTVSPropertyOp14
 70
     1
102
RTVSPropertyOp15
 70
     1
102
RTVSPropertyOp16
 70
     1
102
RTVSPropertyOp17
 70
     1
102
RTVSPropertyOp18
 70
     1
102
RTVSPropertyOp19
 70
     1
102
RTVSPropertyOp20
 70
     1
102
RTVSPropertyOp21
 70
     1
102
RTVSPropertyOp22
 70
     1
102
RTVSPropertyOp23
 70
     1
102
RTVSPropertyOp24
 70
     1
102
RTVSPropertyOp25
 70
     1
102
RTVSPropertyOp26
 70
     1
102
RTVSPropertyOp27
 70
     1
  0
XRECORD
  5
78
102
{ACAD_REACTORS
330
77
102
}
330
77
100
AcDbXrecord
280
     1
102
RTVSPropertyOp0
 70
     1
102
RTVSPropertyOp1
 70
     1
102
RTVSPropertyOp2
 70
     1
102
RTVSPropertyOp3
 70
     1
102
RTVSPropertyOp4
 70
     1
102
RTVSPropertyOp5
 70
     1
102
RTVSPropertyOp6
 70
     1
102
RTVSPropertyOp7
 70
     1
102
RTVSPropertyOp8
 70
     1
102
RTVSPropertyOp9
 70
     1
102
RTVSPropertyOp10
 70
     1
102
RTVSPropertyOp11
 70
     1
102
RTVSPropertyOp12
 70
     1
102
RTVSPropertyOp13
 70
     1
102
RTVSPropertyOp14
 70
     1
102
RTVSPropertyOp15
 70
     1
102
RTVSPropertyOp16
 70
     1
102
RTVSPropertyOp17
 70
     1
102
RTVSPropertyOp18
 70
     1
102
RTVSPropertyOp19
 70
     1
102
RTVSPropertyOp20
 70
     1
102
RTVSPropertyOp21
 70
     1
102
RTVSPropertyOp22
 70
     1
102
RTVSPropertyOp23
 70
     1
102
RTVSPropertyOp24
 70
     1
102
RTVSPropertyOp25
 70
     1
102
RTVSPropertyOp26
 70
     1
102
RTVSPropertyOp27
 70
     1
  0
XRECORD
  5
7C
102
{ACAD_REACTORS
330
7B
102
}
330
7B
100
AcDbXrecord
280
     1
102
RTVSPropertyOp0
 70
     1
102
RTVSPropertyOp1
 70
     1
102
RTVSPropertyOp2
 70
     1
102
RTVSPropertyOp3
 70
     1
102
RTVSPropertyOp4
 70
     1
102
RTVSPropertyOp5
 70
     1
102
RTVSPropertyOp6
 70
     1
102
RTVSPropertyOp7
 70
     1
102
RTVSPropertyOp8
 70
     1
102
RTVSPropertyOp9
 70
     1
102
RTVSPropertyOp10
 70
     1
102
RTVSPropertyOp11
 70
     1
102
RTVSPropertyOp12
 70
     1
102
RTVSPropertyOp13
 70
     1
102
RTVSPropertyOp14
 70
     1
102
RTVSPropertyOp15
 70
     1
102
RTVSPropertyOp16
 70
     1
102
RTVSPropertyOp17
 70
     1
102
RTVSPropertyOp18
 70
     1
102
RTVSPropertyOp19
 70
     1
102
RTVSPropertyOp20
 70
     1
102
RTVSPropertyOp21
 70
     1
102
RTVSPropertyOp22
 70
     1
102
RTVSPropertyOp23
 70
     1
102
RTVSPropertyOp24
 70
     1
102
RTVSPropertyOp25
 70
     1
102
RTVSPropertyOp26
 70
     1
102
RTVSPropertyOp27
 70
     1
  0
XRECORD
  5
84
102
{ACAD_REACTORS
330
83
102
}
330
83
100
AcDbXrecord
280
     1
102
RTVSPropertyOp0
 70
     1
102
RTVSPropertyOp1
 70
     1
102
RTVSPropertyOp2
 70
     1
102
RTVSPropertyOp3
 70
     1
102
RTVSPropertyOp4
 70
     1
102
RTVSPropertyOp5
 70
     1
102
RTVSPropertyOp6
 70
     1
102
RTVSPropertyOp7
 70
     1
102
RTVSPropertyOp8
 70
     1
102
RTVSPropertyOp9
 70
     1
102
RTVSPropertyOp10
 70
     1
102
RTVSPropertyOp11
 70
     1
102
RTVSPropertyOp12
 70
     1
102
RTVSPropertyOp13
 70
     1
102
RTVSPropertyOp14
 70
     1
102
RTVSPropertyOp15
 70
     1
102
RTVSPropertyOp16
 70
     1
102
RTVSPropertyOp17
 70
     1
102
RTVSPropertyOp18
 70
     1
102
RTVSPropertyOp19
 70
     1
102
RTVSPropertyOp20
 70
     1
102
RTVSPropertyOp21
 70
     1
102
RTVSPropertyOp22
 70
     1
102
RTVSPropertyOp23
 70
     1
102
RTVSPropertyOp24
 70
     1
102
RTVSPropertyOp25
 70
     1
102
RTVSPropertyOp26
 70
     1
102
RTVSPropertyOp27
 70
     1
  0
XRECORD
  5
8C
102
{ACAD_REACTORS
330
8B
102
}
330
8B
100
AcDbXrecord
280
     1
102
RTVSPropertyOp0
 70
     1
102
RTVSPropertyOp1
 70
     1
102
RTVSPropertyOp2
 70
     1
102
RTVSPropertyOp3
 70
     1
102
RTVSPropertyOp4
 70
     1
102
RTVSPropertyOp5
 70
     1
102
RTVSPropertyOp6
 70
     1
102
RTVSPropertyOp7
 70
     1
102
RTVSPropertyOp8
 70
     1
102
RTVSPropertyOp9
 70
     1
102
RTVSPropertyOp10
 70
     1
102
RTVSPropertyOp11
 70
     1
102
RTVSPropertyOp12
 70
     1
102
RTVSPropertyOp13
 70
     1
102
RTVSPropertyOp14
 70
     1
102
RTVSPropertyOp15
 70
     1
102
RTVSPropertyOp16
 70
     1
102
RTVSPropertyOp17
 70
     1
102
RTVSPropertyOp18
 70
     1
102
RTVSPropertyOp19
 70
     1
102
RTVSPropertyOp20
 70
     1
102
RTVSPropertyOp21
 70
     1
102
RTVSPropertyOp22
 70
     1
102
RTVSPropertyOp23
 70
     1
102
RTVSPropertyOp24
 70
     1
102
RTVSPropertyOp25
 70
     1
102
RTVSPropertyOp26
 70
     1
102
RTVSPropertyOp27
 70
     1
  0
XRECORD
  5
80
102
{ACAD_REACTORS
330
7F
102
}
330
7F
100
AcDbXrecord
280
     1
102
RTVSPropertyOp0
 70
     1
102
RTVSPropertyOp1
 70
     1
102
RTVSPropertyOp2
 70
     1
102
RTVSPropertyOp3
 70
     1
102
RTVSPropertyOp4
 70
     1
102
RTVSPropertyOp5
 70
     1
102
RTVSPropertyOp6
 70
     1
102
RTVSPropertyOp7
 70
     1
102
RTVSPropertyOp8
 70
     1
102
RTVSPropertyOp9
 70
     1
102
RTVSPropertyOp10
 70
     1
102
RTVSPropertyOp11
 70
     1
102
RTVSPropertyOp12
 70
     1
102
RTVSPropertyOp13
 70
     1
102
RTVSPropertyOp14
 70
     1
102
RTVSPropertyOp15
 70
     1
102
RTVSPropertyOp16
 70
     1
102
RTVSPropertyOp17
 70
     1
102
RTVSPropertyOp18
 70
     1
102
RTVSPropertyOp19
 70
     1
102
RTVSPropertyOp20
 70
     1
102
RTVSPropertyOp21
 70
     1
102
RTVSPropertyOp22
 70
     1
102
RTVSPropertyOp23
 70
     1
102
RTVSPropertyOp24
 70
     1
102
RTVSPropertyOp25
 70
     1
102
RTVSPropertyOp26
 70
     1
102
RTVSPropertyOp27
 70
     1
  0
XRECORD
  5
82
102
{ACAD_REACTORS
330
81
102
}
330
81
100
AcDbXrecord
280
     1
102
RTVSPropertyOp0
 70
     1
102
RTVSPropertyOp1
 70
     1
102
RTVSPropertyOp2
 70
     1
102
RTVSPropertyOp3
 70
     1
102
RTVSPropertyOp4
 70
     1
102
RTVSPropertyOp5
 70
     1
102
RTVSPropertyOp6
 70
     1
102
RTVSPropertyOp7
 70
     1
102
RTVSPropertyOp8
 70
     1
102
RTVSPropertyOp9
 70
     1
102
RTVSPropertyOp10
 70
     1
102
RTVSPropertyOp11
 70
     1
102
RTVSPropertyOp12
 70
     1
102
RTVSPropertyOp13
 70
     1
102
RTVSPropertyOp14
 70
     1
102
RTVSPropertyOp15
 70
     1
102
RTVSPropertyOp16
 70
     1
102
RTVSPropertyOp17
 70
     1
102
RTVSPropertyOp18
 70
     1
102
RTVSPropertyOp19
 70
     1
102
RTVSPropertyOp20
 70
     1
102
RTVSPropertyOp21
 70
     1
102
RTVSPropertyOp22
 70
     1
102
RTVSPropertyOp23
 70
     1
102
RTVSPropertyOp24
 70
     1
102
RTVSPropertyOp25
 70
     1
102
RTVSPropertyOp26
 70
     1
102
RTVSPropertyOp27
 70
     1
  0
XRECORD
  5
8A
102
{ACAD_REACTORS
330
89
102
}
330
89
100
AcDbXrecord
280
     1
102
RTVSPropertyOp0
 70
     1
102
RTVSPropertyOp1
 70
     1
102
RTVSPropertyOp2
 70
     1
102
RTVSPropertyOp3
 70
     1
102
RTVSPropertyOp4
 70
     1
102
RTVSPropertyOp5
 70
     1
102
RTVSPropertyOp6
 70
     1
102
RTVSPropertyOp7
 70
     1
102
RTVSPropertyOp8
 70
     1
102
RTVSPropertyOp9
 70
     1
102
RTVSPropertyOp10
 70
     1
102
RTVSPropertyOp11
 70
     1
102
RTVSPropertyOp12
 70
     1
102
RTVSPropertyOp13
 70
     1
102
RTVSPropertyOp14
 70
     1
102
RTVSPropertyOp15
 70
     1
102
RTVSPropertyOp16
 70
     1
102
RTVSPropertyOp17
 70
     1
102
RTVSPropertyOp18
 70
     1
102
RTVSPropertyOp19
 70
     1
102
RTVSPropertyOp20
 70
     1
102
RTVSPropertyOp21
 70
     1
102
RTVSPropertyOp22
 70
     1
102
RTVSPropertyOp23
 70
     1
102
RTVSPropertyOp24
 70
     1
102
RTVSPropertyOp25
 70
     1
102
RTVSPropertyOp26
 70
     1
102
RTVSPropertyOp27
 70
     1
  0
XRECORD
  5
6E
102
{ACAD_REACTORS
330
6D
102
}
330
6D
100
AcDbXrecord
280
     1
102
RTVSPropertyOp0
 70
     1
102
RTVSPropertyOp1
 70
     1
102
RTVSPropertyOp2
 70
     1
102
RTVSPropertyOp3
 70
     1
102
RTVSPropertyOp4
 70
     1
102
RTVSPropertyOp5
 70
     1
102
RTVSPropertyOp6
 70
     1
102
RTVSPropertyOp7
 70
     1
102
RTVSPropertyOp8
 70
     1
102
RTVSPropertyOp9
 70
     1
102
RTVSPropertyOp10
 70
     1
102
RTVSPropertyOp11
 70
     1
102
RTVSPropertyOp12
 70
     1
102
RTVSPropertyOp13
 70
     1
102
RTVSPropertyOp14
 70
     1
102
RTVSPropertyOp15
 70
     1
102
RTVSPropertyOp16
 70
     1
102
RTVSPropertyOp17
 70
     1
102
RTVSPropertyOp18
 70
     1
102
RTVSPropertyOp19
 70
     1
102
RTVSPropertyOp20
 70
     1
102
RTVSPropertyOp21
 70
     1
102
RTVSPropertyOp22
 70
     1
102
RTVSPropertyOp23
 70
     1
102
RTVSPropertyOp24
 70
     1
102
RTVSPropertyOp25
 70
     1
102
RTVSPropertyOp26
 70
     1
102
RTVSPropertyOp27
 70
     1
  0
XRECORD
  5
70
102
{ACAD_REACTORS
330
6F
102
}
330
6F
100
AcDbXrecord
280
     1
102
RTVSPropertyOp0
 70
     1
102
RTVSPropertyOp1
 70
     1
102
RTVSPropertyOp2
 70
     1
102
RTVSPropertyOp3
 70
     1
102
RTVSPropertyOp4
 70
     1
102
RTVSPropertyOp5
 70
     1
102
RTVSPropertyOp6
 70
     1
102
RTVSPropertyOp7
 70
     1
102
RTVSPropertyOp8
 70
     1
102
RTVSPropertyOp9
 70
     1
102
RTVSPropertyOp10
 70
     1
102
RTVSPropertyOp11
 70
     1
102
RTVSPropertyOp12
 70
     1
102
RTVSPropertyOp13
 70
     1
102
RTVSPropertyOp14
 70
     1
102
RTVSPropertyOp15
 70
     1
102
RTVSPropertyOp16
 70
     1
102
RTVSPropertyOp17
 70
     1
102
RTVSPropertyOp18
 70
     1
102
RTVSPropertyOp19
 70
     1
102
RTVSPropertyOp20
 70
     1
102
RTVSPropertyOp21
 70
     1
102
RTVSPropertyOp22
 70
     1
102
RTVSPropertyOp23
 70
     1
102
RTVSPropertyOp24
 70
     1
102
RTVSPropertyOp25
 70
     1
102
RTVSPropertyOp26
 70
     1
102
RTVSPropertyOp27
 70
     1
  0
XRECORD
  5
72
102
{ACAD_REACTORS
330
71
102
}
330
71
100
AcDbXrecord
280
     1
102
RTVSPropertyOp0
 70
     1
102
RTVSPropertyOp1
 70
     1
102
RTVSPropertyOp2
 70
     1
102
RTVSPropertyOp3
 70
     1
102
RTVSPropertyOp4
 70
     1
102
RTVSPropertyOp5
 70
     1
102
RTVSPropertyOp6
 70
     1
102
RTVSPropertyOp7
 70
     1
102
RTVSPropertyOp8
 70
     1
102
RTVSPropertyOp9
 70
     1
102
RTVSPropertyOp10
 70
     1
102
RTVSPropertyOp11
 70
     1
102
RTVSPropertyOp12
 70
     1
102
RTVSPropertyOp13
 70
     1
102
RTVSPropertyOp14
 70
     1
102
RTVSPropertyOp15
 70
     1
102
RTVSPropertyOp16
 70
     1
102
RTVSPropertyOp17
 70
     1
102
RTVSPropertyOp18
 70
     1
102
RTVSPropertyOp19
 70
     1
102
RTVSPropertyOp20
 70
     1
102
RTVSPropertyOp21
 70
     1
102
RTVSPropertyOp22
 70
     1
102
RTVSPropertyOp23
 70
     1
102
RTVSPropertyOp24
 70
     1
102
RTVSPropertyOp25
 70
     1
102
RTVSPropertyOp26
 70
     1
102
RTVSPropertyOp27
 70
     1
  0
XRECORD
  5
74
102
{ACAD_REACTORS
330
73
102
}
330
73
100
AcDbXrecord
280
     1
102
RTVSPropertyOp0
 70
     1
102
RTVSPropertyOp1
 70
     1
102
RTVSPropertyOp2
 70
     1
102
RTVSPropertyOp3
 70
     1
102
RTVSPropertyOp4
 70
     1
102
RTVSPropertyOp5
 70
     1
102
RTVSPropertyOp6
 70
     1
102
RTVSPropertyOp7
 70
     1
102
RTVSPropertyOp8
 70
     1
102
RTVSPropertyOp9
 70
     1
102
RTVSPropertyOp10
 70
     1
102
RTVSPropertyOp11
 70
     1
102
RTVSPropertyOp12
 70
     1
102
RTVSPropertyOp13
 70
     1
102
RTVSPropertyOp14
 70
     1
102
RTVSPropertyOp15
 70
     1
102
RTVSPropertyOp16
 70
     1
102
RTVSPropertyOp17
 70
     1
102
RTVSPropertyOp18
 70
     1
102
RTVSPropertyOp19
 70
     1
102
RTVSPropertyOp20
 70
     1
102
RTVSPropertyOp21
 70
     1
102
RTVSPropertyOp22
 70
     1
102
RTVSPropertyOp23
 70
     1
102
RTVSPropertyOp24
 70
     1
102
RTVSPropertyOp25
 70
     1
102
RTVSPropertyOp26
 70
     1
102
RTVSPropertyOp27
 70
     1
  0
XRECORD
  5
88
102
{ACAD_REACTORS
330
87
102
}
330
87
100
AcDbXrecord
280
     1
102
RTVSPropertyOp0
 70
     1
102
RTVSPropertyOp1
 70
     1
102
RTVSPropertyOp2
 70
     1
102
RTVSPropertyOp3
 70
     1
102
RTVSPropertyOp4
 70
     1
102
RTVSPropertyOp5
 70
     1
102
RTVSPropertyOp6
 70
     1
102
RTVSPropertyOp7
 70
     1
102
RTVSPropertyOp8
 70
     1
102
RTVSPropertyOp9
 70
     1
102
RTVSPropertyOp10
 70
     1
102
RTVSPropertyOp11
 70
     1
102
RTVSPropertyOp12
 70
     1
102
RTVSPropertyOp13
 70
     1
102
RTVSPropertyOp14
 70
     1
102
RTVSPropertyOp15
 70
     1
102
RTVSPropertyOp16
 70
     1
102
RTVSPropertyOp17
 70
     1
102
RTVSPropertyOp18
 70
     1
102
RTVSPropertyOp19
 70
     1
102
RTVSPropertyOp20
 70
     1
102
RTVSPropertyOp21
 70
     1
102
RTVSPropertyOp22
 70
     1
102
RTVSPropertyOp23
 70
     1
102
RTVSPropertyOp24
 70
     1
102
RTVSPropertyOp25
 70
     1
102
RTVSPropertyOp26
 70
     1
102
RTVSPropertyOp27
 70
     1
  0
XRECORD
  5
7E
102
{ACAD_REACTORS
330
7D
102
}
330
7D
100
AcDbXrecord
280
     1
102
RTVSPropertyOp0
 70
     1
102
RTVSPropertyOp1
 70
     1
102
RTVSPropertyOp2
 70
     1
102
RTVSPropertyOp3
 70
     1
102
RTVSPropertyOp4
 70
     1
102
RTVSPropertyOp5
 70
     1
102
RTVSPropertyOp6
 70
     1
102
RTVSPropertyOp7
 70
     1
102
RTVSPropertyOp8
 70
     1
102
RTVSPropertyOp9
 70
     1
102
RTVSPropertyOp10
 70
     1
102
RTVSPropertyOp11
 70
     1
102
RTVSPropertyOp12
 70
     1
102
RTVSPropertyOp13
 70
     1
102
RTVSPropertyOp14
 70
     1
102
RTVSPropertyOp15
 70
     1
102
RTVSPropertyOp16
 70
     1
102
RTVSPropertyOp17
 70
     1
102
RTVSPropertyOp18
 70
     1
102
RTVSPropertyOp19
 70
     1
102
RTVSPropertyOp20
 70
     1
102
RTVSPropertyOp21
 70
     1
102
RTVSPropertyOp22
 70
     1
102
RTVSPropertyOp23
 70
     1
102
RTVSPropertyOp24
 70
     1
102
RTVSPropertyOp25
 70
     1
102
RTVSPropertyOp26
 70
     1
102
RTVSPropertyOp27
 70
     1
  0
XRECORD
  5
86
102
{ACAD_REACTORS
330
85
102
}
330
85
100
AcDbXrecord
280
     1
102
RTVSPropertyOp0
 70
     1
102
RTVSPropertyOp1
 70
     1
102
RTVSPropertyOp2
 70
     1
102
RTVSPropertyOp3
 70
     1
102
RTVSPropertyOp4
 70
     1
102
RTVSPropertyOp5
 70
     1
102
RTVSPropertyOp6
 70
     1
102
RTVSPropertyOp7
 70
     1
102
RTVSPropertyOp8
 70
     1
102
RTVSPropertyOp9
 70
     1
102
RTVSPropertyOp10
 70
     1
102
RTVSPropertyOp11
 70
     1
102
RTVSPropertyOp12
 70
     1
102
RTVSPropertyOp13
 70
     1
102
RTVSPropertyOp14
 70
     1
102
RTVSPropertyOp15
 70
     1
102
RTVSPropertyOp16
 70
     1
102
RTVSPropertyOp17
 70
     1
102
RTVSPropertyOp18
 70
     1
102
RTVSPropertyOp19
 70
     1
102
RTVSPropertyOp20
 70
     1
102
RTVSPropertyOp21
 70
     1
102
RTVSPropertyOp22
 70
     1
102
RTVSPropertyOp23
 70
     1
102
RTVSPropertyOp24
 70
     1
102
RTVSPropertyOp25
 70
     1
102
RTVSPropertyOp26
 70
     1
102
RTVSPropertyOp27
 70
     1
  0
ENDSEC
  0
EOF
