  0
SECTION
  2
HEADER
  9
$ACADVER
  1
AC1014
  9
$ACADMAINTVER
 70
     0
  9
$DWGCODEPAGE
  3
ANSI_1252
  9
$INSBASE
 10
0.0
 20
0.0
 30
0.0
  9
$EXTMIN
 10
-0.939693
 20
-0.984808
 30
0.0
  9
$EXTMAX
 10
13.0
 20
12.984808
 30
0.0
  9
$LIMMIN
 10
0.0
 20
0.0
  9
$LIMMAX
 10
0.0
 20
0.0
  9
$ORTHOMODE
 70
     0
  9
$REGENMODE
 70
     1
  9
$FILLMODE
 70
     1
  9
$QTEXTMODE
 70
     0
  9
$MIRRTEXT
 70
     1
  9
$DRAGMODE
 70
     2
  9
$LTSCALE
 40
1.0
  9
$OSMODE
 70
     0
  9
$ATTMODE
 70
     1
  9
$TEXTSIZE
 40
0.2
  9
$TRACEWID
 40
0.05
  9
$TEXTSTYLE
  7
STANDARD
  9
$CLAYER
  8
0
  9
$CELTYPE
  6
CONTINUOUS
  9
$CECOLOR
 62
   256
  9
$CELTSCALE
 40
1.0
  9
$DELOBJ
 70
     1
  9
$DISPSILH
 70
     0
  9
$DIMSCALE
 40
1.0
  9
$DIMASZ
 40
0.18
  9
$DIMEXO
 40
0.0625
  9
$DIMDLI
 40
0.38
  9
$DIMRND
 40
0.0
  9
$DIMDLE
 40
0.0
  9
$DIMEXE
 40
0.18
  9
$DIMTP
 40
0.0
  9
$DIMTM
 40
0.0
  9
$DIMTXT
 40
0.18
  9
$DIMCEN
 40
0.09
  9
$DIMTSZ
 40
0.0
  9
$DIMTOL
 70
     0
  9
$DIMLIM
 70
     0
  9
$DIMTIH
 70
     1
  9
$DIMTOH
 70
     1
  9
$DIMSE1
 70
     0
  9
$DIMSE2
 70
     0
  9
$DIMTAD
 70
     0
  9
$DIMZIN
 70
     0
  9
$DIMBLK
  1

  9
$DIMASO
 70
     1
  9
$DIMSHO
 70
     1
  9
$DIMPOST
  1

  9
$DIMAPOST
  1

  9
$DIMALT
 70
     0
  9
$DIMALTD
 70
     2
  9
$DIMALTF
 40
25.4
  9
$DIMLFAC
 40
1.0
  9
$DIMTOFL
 70
     0
  9
$DIMTVP
 40
0.0
  9
$DIMTIX
 70
     0
  9
$DIMSOXD
 70
     0
  9
$DIMSAH
 70
     0
  9
$DIMBLK1
  1

  9
$DIMBLK2
  1

  9
$DIMSTYLE
  2
STANDARD
  9
$DIMCLRD
 70
     0
  9
$DIMCLRE
 70
     0
  9
$DIMCLRT
 70
     0
  9
$DIMTFAC
 40
1.0
  9
$DIMGAP
 40
0.09
  9
$DIMJUST
 70
     0
  9
$DIMSD1
 70
     0
  9
$DIMSD2
 70
     0
  9
$DIMTOLJ
 70
     1
  9
$DIMTZIN
 70
     0
  9
$DIMALTZ
 70
     0
  9
$DIMALTTZ
 70
     0
  9
$DIMFIT
 70
     0
  9
$DIMUPT
 70
     0
  9
$DIMUNIT
 70
     2
  9
$DIMDEC
 70
     4
  9
$DIMTDEC
 70
     4
  9
$DIMALTU
 70
     2
  9
$DIMALTTD
 70
     2
  9
$DIMTXSTY
  7
STANDARD
  9
$DIMAUNIT
 70
     0
  9
$LUNITS
 70
     2
  9
$LUPREC
 70
     4
  9
$SKETCHINC
 40
0.1
  9
$FILLETRAD
 40
0.0
  9
$AUNITS
 70
     0
  9
$AUPREC
 70
     0
  9
$MENU
  1
acad
  9
$ELEVATION
 40
0.0
  9
$PELEVATION
 40
0.0
  9
$THICKNESS
 40
0.0
  9
$LIMCHECK
 70
     0
  9
$BLIPMODE
 70
     1
  9
$CHAMFERA
 40
0.0
  9
$CHAMFERB
 40
0.0
  9
$CHAMFERC
 40
0.0
  9
$CHAMFERD
 40
0.0
  9
$SKPOLY
 70
     0
  9
$TDCREATE
 40
2457966.345902778
  9
$TDUPDATE
 40
2457966.345902778
  9
$TDINDWG
 40
0.0000000000
  9
$TDUSRTIMER
 40
0.0000000000
  9
$USRTIMER
 70
     1
  9
$ANGBASE
 50
0.0
  9
$ANGDIR
 70
     0
  9
$PDMODE
 70
     0
  9
$PDSIZE
 40
0.0
  9
$PLINEWID
 40
0.0
  9
$COORDS
 70
     0
  9
$SPLFRAME
 70
     0
  9
$SPLINETYPE
 70
     6
  9
$SPLINESEGS
 70
     8
  9
$ATTDIA
 70
     0
  9
$ATTREQ
 70
     1
  9
$HANDLING
 70
     1
  9
$HANDSEED
  5
98
  9
$SURFTAB1
 70
     6
  9
$SURFTAB2
 70
     6
  9
$SURFTYPE
 70
     6
  9
$SURFU
 70
     6
  9
$SURFV
 70
     6
  9
$UCSNAME
  2

  9
$UCSORG
 10
0.0
 20
0.0
 30
0.0
  9
$UCSXDIR
 10
1.0
 20
0.0
 30
0.0
  9
$UCSYDIR
 10
0.0
 20
1.0
 30
0.0
  9
$PUCSNAME
  2

  9
$PUCSORG
 10
0.0
 20
0.0
 30
0.0
  9
$PUCSXDIR
 10
1.0
 20
0.0
 30
0.0
  9
$PUCSYDIR
 10
0.0
 20
1.0
 30
0.0
  9
$USERI1
 70
     0
  9
$USERI2
 70
     0
  9
$USERI3
 70
     0
  9
$USERI4
 70
     0
  9
$USERI5
 70
     0
  9
$USERR1
 40
0.0
  9
$USERR2
 40
0.0
  9
$USERR3
 40
0.0
  9
$USERR4
 40
0.0
  9
$USERR5
 40
0.0
  9
$WORLDVIEW
 70
     1
  9
$SHADEDGE
 70
     3
  9
$SHADEDIF
 70
    70
  9
$TILEMODE
 70
     1
  9
$MAXACTVP
 70
    16
  9
$PINSBASE
 10
0.0
 20
0.0
 30
0.0
  9
$PLIMCHECK
 70
     0
  9
$PEXTMIN
 10
1.000000E 20
 20
1.000000E 20
 30
1.000000E 20
  9
$PEXTMAX
 10
-1.000000E 20
 20
-1.000000E 20
 30
-1.000000E 20
  9
$PLIMMIN
 10
0.0
 20
0.0
  9
$PLIMMAX
 10
12.0
 20
9.0
  9
$UNITMODE
 70
     0
  9
$VISRETAIN
 70
     0
  9
$PLINEGEN
 70
     1
  9
$PSLTSCALE
 70
     0
  9
$TREEDEPTH
 70
  3020
  9
$PICKSTYLE
 70
     1
  9
$CMLSTYLE
  2
STANDARD
  9
$CMLJUST
 70
     0
  9
$CMLSCALE
 40
1.0
  9
$PROXYGRAPHICS
 70
     0
  9
$MEASUREMENT
 70
     0
  0
ENDSEC
  0
SECTION
  2
CLASSES
  0
CLASS
  1
LWPOLYLINE
  2
AcDbPolyline
  3
\"AutoCAD\"
 90
        0
280
     0
281
     1
  0
CLASS
  1
IMAGE
  2
AcDbRasterImage
  3
ISM
 90
      127
280
     0
281
     1
  0
CLASS
  1
OLE2FRAME
  2
AcDbOle2Frame
  3
\"\"
 90
        0
280
     0
281
     1
  0
CLASS
  1
HATCH
  2
AcDbHatch
  3
\"ACAD_SEDONA\"
 90
        0
280
     0
281
     1
  0
CLASS
  1
DICTIONARYVAR
  2
AcDbDictionaryVar
  3
\"AutoCAD\"
 90
        0
280
     0
281
     0
  0
CLASS
  1
RASTERVARIABLES
  2
AcDbRasterVariables
  3
ISM
 90
        0
280
     0
281
     0
  0
CLASS
  1
IMAGEDEF
  2
AcDbRasterImageDef
  3
ISM
 90
        0
280
     0
281
     0
  0
CLASS
  1
IMAGEDEF_REACTOR
  2
AcDbRasterImageDefReactor
  3
ISM
 90
        1
280
     0
281
     0
  0
CLASS
  1
IDBUFFER
  2
AcDbIdBuffer
  3
\"Acad\"
 90
        0
280
     0
281
     0
  0
CLASS
  1
SPATIAL_FILTER
  2
AcDbSpatialFilter
  3
\"Acad\"
 90
        0
280
     0
281
     0
  0
CLASS
  1
XRECORD
  2
AcDbXrecord
  3
\"<Built In>\"
 90
        0
280
     0
281
     0
  0
CLASS
  1
SORTENTSTABLE
  2
AcDbSortentsTable
  3
\"AutoCAD\"
 90
        0
280
     0
281
     0
  0
CLASS
  1
LAYER_INDEX
  2
AcDbLayerIndex
  3
\"Acad\"
 90
        0
280
     0
281
     0
  0
CLASS
  1
SPATIAL_INDEX
  2
AcDbSpatialIndex
  3
\"Acad\"
 90
        0
280
     0
281
     0
  0
CLASS
  1
OBJECT_PTR
  2
CAseDLPNTableRecord
  3
\"ASE-LPNTableRecord\"
 90
        1
280
     0
281
     0
  0
CLASS
  1
LAYOUT
  2
AcDbLayout
  3
\"AutoCAD 2000\"
 90
        1
280
     0
281
     0
  0
CLASS
  1
PLOTSETTINGS
  2
AcDbPlotSettings
  3
\"AutoCAD 2000\"
 90
        1
280
     0
281
     0
  0
CLASS
  1
ACDBDICTIONARYWDFLT
  2
AcDbDictionaryWithDefault
  3
\"AutoCAD 2000\"
 90
        1
280
     0
281
     0
  0
CLASS
  1
ACDBPLACEHOLDER
  2
AcDbPlaceHolder
  3
\"AutoCAD 2000\"
 90
        1
280
     0
281
     0
  0
CLASS
  1
VBA_PROJECT
  2
AcDbVbaProject
  3
\"acadvba\"
 90
        1
280
     0
281
     0
  0
CLASS
  1
WIPEOUT
  2
AcDbWipeout
  3
WipeOut|AutoCAD Express Tool|expresstools@autodesk.com
 90
      127
280
     0
281
     1
  0
CLASS
  1
WIPEOUTVARIABLES
  2
AcDbWipeoutVariables
  3
WipeOut|AutoCAD Express Tool|expresstools@autodesk.com
 90
        0
280
     0
281
     0
  0
CLASS
  1
RTEXT
  2
RText
  3
RText|AutoCAD Express Tool|expresstools@autodesk.com
 90
        0
280
     0
281
     1
  0
CLASS
  1
ARCALIGNEDTEXT
  2
AcDbArcAlignedText
  3
ATEXT|AutoCAD Express Tool|expresstools@autodesk.com
 90
        0
280
     0
281
     1
  0
ENDSEC
  0
SECTION
  2
TABLES
  0
TABLE
  2
VPORT
  5
7
100
AcDbSymbolTable
 70
     1
  0
VPORT
  5
15
100
AcDbSymbolTableRecord
100
AcDbViewportTableRecord
  2
*ACTIVE
 70
     0
 10
0.0
 20
0.0
 11
1.0
 21
1.0
 12
6.591288
 22
4.579184
 13
0.0
 23
0.0
 14
1.0
 24
1.0
 15
0.0
 25
0.0
 16
0.0
 26
0.0
 36
1.0
 17
0.0
 27
0.0
 37
0.0
 40
9.158369
 41
0.688564
 42
50.0
 43
0.0
 44
0.0
 50
0.0
 51
0.0
 71
     0
 72
   100
 73
     1
 74
     1
 75
     0
 76
     0
 77
     0
 78
     0
  0
ENDTAB
  0
TABLE
  2
LTYPE
  5
4
100
AcDbSymbolTable
 70
     6
  0
LTYPE
  5
11
100
AcDbSymbolTableRecord
100
AcDbLinetypeTableRecord
  2
BYBLOCK
 70
    64
  3

 72
    65
 73
     0
 40
0.0
  0
LTYPE
  5
12
100
AcDbSymbolTableRecord
100
AcDbLinetypeTableRecord
  2
BYLAYER
 70
    64
  3

 72
    65
 73
     0
 40
0.0
  0
LTYPE
  5
13
100
AcDbSymbolTableRecord
100
AcDbLinetypeTableRecord
  2
CONTINUOUS
 70
    64
  3
Solid line
 72
    65
 73
     0
 40
0.0
  0
LTYPE
  5
1D
100
AcDbSymbolTableRecord
100
AcDbLinetypeTableRecord
  2
SOLID
 70
    64
  3

 72
    65
 73
     0
 40
0.0
  0
LTYPE
  5
1E
100
AcDbSymbolTableRecord
100
AcDbLinetypeTableRecord
  2
DASHED
 70
    64
  3

 72
    65
 73
     0
 40
0.0
  0
LTYPE
  5
1F
100
AcDbSymbolTableRecord
100
AcDbLinetypeTableRecord
  2
CENTER
 70
    64
  3

 72
    65
 73
     0
 40
0.0
  0
ENDTAB
  0
TABLE
  2
LAYER
  5
2
100
AcDbSymbolTable
 70
     2
  0
LAYER
  5
14
100
AcDbSymbolTableRecord
100
AcDbLayerTableRecord
  2
0
 70
     0
 62
     7
  6
CONTINUOUS
  0
LAYER
  5
20
100
AcDbSymbolTableRecord
100
AcDbLayerTableRecord
  2
NAME
 70
     0
 62
     1
  6
SOLID
  0
ENDTAB
  0
TABLE
  2
STYLE
  5
3
100
AcDbSymbolTable
 70
     1
  0
STYLE
  5
17
100
AcDbSymbolTableRecord
100
AcDbTextStyleTableRecord
  2
STANDARD
 70
     0
 40
0.0
 41
1.0
 50
0.0
 71
     0
 42
0.0
  3
txt
  4

  0
ENDTAB
  0
TABLE
  2
VIEW
  5
5
100
AcDbSymbolTable
 70
     0
  0
ENDTAB
  0
TABLE
  2
UCS
  5
6
100
AcDbSymbolTable
 70
     0
  0
ENDTAB
  0
TABLE
  2
APPID
  5
8
100
AcDbSymbolTable
 70
     1
  0
APPID
  5
16
100
AcDbSymbolTableRecord
100
AcDbRegAppTableRecord
  2
ACAD
 70
     0
  0
ENDTAB
  0
TABLE
  2
DIMSTYLE
  5
9
100
AcDbSymbolTable
 70
     1
  0
DIMSTYLE
105
18
100
AcDbSymbolTableRecord
100
AcDbDimStyleTableRecord
  2
STANDARD
 70
     0
  3

  4

  5

  6

  7

 40
1.0
 41
0.18
 42
0.0625
 43
0.38
 44
0.18
 45
0.0
 46
0.0
 47
0.0
 48
0.0
 71
     0
 72
     0
 73
     1
 74
     1
 75
     0
 76
     0
 77
     0
 78
     0
140
0.18
141
0.09
142
0.0
143
25.4
144
1.0
145
0.0
146
1.0
147
0.09
170
     0
171
     2
172
     0
173
     0
174
     0
175
     0
176
     0
177
     0
178
     0
270
     2
271
     4
272
     4
273
     2
274
     2
275
     0
280
     0
281
     0
282
     0
283
     1
284
     0
285
     0
286
     0
287
     0
288
     0
340
17
  0
ENDTAB
  0
TABLE
  2
BLOCK_RECORD
  5
1
100
AcDbSymbolTable
 70
     0
  0
BLOCK_RECORD
  5
A
100
AcDbSymbolTableRecord
100
AcDbBlockTableRecord
  2
*MODEL_SPACE
  0
BLOCK_RECORD
  5
B
100
AcDbSymbolTableRecord
100
AcDbBlockTableRecord
  2
*PAPER_SPACE
  0
ENDTAB
  0
ENDSEC
  0
SECTION
  2
BLOCKS
  0
BLOCK
  5
D
100
AcDbEntity
  8
0
100
AcDbBlockBegin
  2
*MODEL_SPACE
 70
     0
 10
0.0
 20
0.0
 30
0.0
  3
*MODEL_SPACE
  1

  0
ENDBLK
  5
E
100
AcDbEntity
  8
0
100
AcDbBlockEnd
  0
BLOCK
  5
F
100
AcDbEntity
 67
     1
  8
0
100
AcDbBlockBegin
  2
*PAPER_SPACE
 70
     0
 10
0.0
 20
0.0
 30
0.0
  3
*PAPER_SPACE
  1

  0
ENDBLK
  5
10
100
AcDbEntity
 67
     1
  8
0
100
AcDbBlockEnd
  0
ENDSEC
  0
SECTION
  2
ENTITIES
  0
SPLINE
  5
21
100
AcDbEntity
  8
NAME
  6
SOLID
 62
     0
100
AcDbSpline
210
0.0
220
0.0
230
1.0
 70
     0
 71
     2
 72
     6
 73
     3
 74
     0
 42
0.000001
 43
0.000001
 40
0.0
 40
0.0
 40
0.0
 40
1.0
 40
1.0
 40
1.0
 10
2.0086193090986395
 20
0.1365960406072824
 30
0.0
 10
1.8703811790767251
 20
0.1399620011624321
 30
0.0
 10
1.7436083521957908
 20
0.4414959675612633
 30
0.0
  0
SPLINE
  5
22
100
AcDbEntity
  8
NAME
  6
SOLID
 62
     0
100
AcDbSpline
210
0.0
220
0.0
230
1.0
 70
     0
 71
     2
 72
     6
 73
     3
 74
     0
 42
0.000001
 43
0.000001
 40
0.0
 40
0.0
 40
0.0
 40
1.0
 40
1.0
 40
1.0
 10
1.7436083521957908
 20
0.4414959675612633
 30
0.0
 10
1.6433892141388142
 20
0.6338349010893862
 30
0.0
 10
1.5733351600847598
 20
0.9035792400229143
 30
0.0
  0
SPLINE
  5
23
100
AcDbEntity
  8
NAME
  6
SOLID
 62
     0
100
AcDbSpline
210
0.0
220
0.0
230
1.0
 70
     0
 71
     2
 72
     6
 73
     3
 74
     0
 42
0.000001
 43
0.000001
 40
0.0
 40
0.0
 40
0.0
 40
1.0
 40
1.0
 40
1.0
 10
1.5733351600847598
 20
0.9035792400229143
 30
0.0
 10
1.4517982718451705
 20
0.8745361428717091
 30
0.0
 10
1.1603621871117866
 20
0.8454930457205039
 30
0.0
  0
SPLINE
  5
24
100
AcDbEntity
  8
NAME
  6
SOLID
 62
     0
100
AcDbSpline
210
0.0
220
0.0
230
1.0
 70
     0
 71
     2
 72
     6
 73
     3
 74
     0
 42
0.000001
 43
0.000001
 40
0.0
 40
0.0
 40
0.0
 40
1.0
 40
1.0
 40
1.0
 10
1.1603621871117866
 20
0.8454930457205039
 30
0.0
 10
0.8805199665128107
 20
0.8164499485692986
 30
0.0
 10
0.7348019241461188
 20
0.794010211534967
 30
0.0
  0
SPLINE
  5
25
100
AcDbEntity
  8
NAME
  6
SOLID
 62
     0
100
AcDbSpline
210
0.0
220
0.0
230
1.0
 70
     0
 71
     2
 72
     6
 73
     3
 74
     0
 42
0.000001
 43
0.000001
 40
0.0
 40
0.0
 40
0.0
 40
1.0
 40
1.0
 40
1.0
 10
0.7348019241461188
 20
0.794010211534967
 30
0.0
 10
0.6576419533645268
 20
0.6136391377584878
 30
0.0
 10
0.465303019836405
 20
0.251401007736574
 30
0.0
  0
SPLINE
  5
26
100
AcDbEntity
  8
NAME
  6
SOLID
 62
     0
100
AcDbSpline
210
0.0
220
0.0
230
1.0
 70
     0
 71
     2
 72
     6
 73
     3
 74
     0
 42
0.000001
 43
0.000001
 40
0.0
 40
0.0
 40
0.0
 40
1.0
 40
1.0
 40
1.0
 10
0.465303019836405
 20
0.251401007736574
 30
0.0
 10
0.3922570008444399
 20
0.1365960406072824
 30
0.0
 10
0.2573848313776743
 20
0.1365960406072824
 30
0.0
  0
SPLINE
  5
27
100
AcDbEntity
  8
NAME
  6
SOLID
 62
     0
100
AcDbSpline
210
0.0
220
0.0
230
1.0
 70
     0
 71
     2
 72
     7
 73
     4
 74
     0
 42
0.000001
 43
0.000001
 40
0.0
 40
0.0
 40
0.0
 40
1.0
 40
2.0
 40
2.0
 40
2.0
 10
0.2573848313776743
 20
0.1365960406072824
 30
0.0
 10
0.1601576582586102
 20
0.1365960406072824
 30
0.0
 10
0.0270269058846146
 20
0.2581329288468734
 30
0.0
 10
0.0270269058846146
 20
0.3605960406072826
 30
0.0
  0
SPLINE
  5
28
100
AcDbEntity
  8
NAME
  6
SOLID
 62
     0
100
AcDbSpline
210
0.0
220
0.0
230
1.0
 70
     0
 71
     2
 72
     6
 73
     3
 74
     0
 42
0.000001
 43
0.000001
 40
0.0
 40
0.0
 40
0.0
 40
1.0
 40
1.0
 40
1.0
 10
0.0270269058846146
 20
0.3605960406072826
 30
0.0
 10
0.0270269058846146
 20
0.44261795441298
 30
0.0
 10
0.2648647437224518
 20
0.9483301530981521
 30
0.0
  0
SPLINE
  5
29
100
AcDbEntity
  8
NAME
  6
SOLID
 62
     0
100
AcDbSpline
210
0.0
220
0.0
230
1.0
 70
     0
 71
     2
 72
     6
 73
     3
 74
     0
 42
0.000001
 43
0.000001
 40
0.0
 40
0.0
 40
0.0
 40
1.0
 40
1.0
 40
1.0
 10
0.2648647437224518
 20
0.9483301530981521
 30
0.0
 10
0.2491569277984205
 20
0.9953250398768221
 30
0.0
 10
0.251400901501853
 20
1.0507932648585609
 30
0.0
  0
SPLINE
  5
2A
100
AcDbEntity
  8
NAME
  6
SOLID
 62
     0
100
AcDbSpline
210
0.0
220
0.0
230
1.0
 70
     0
 71
     2
 72
     6
 73
     3
 74
     0
 42
0.000001
 43
0.000001
 40
0.0
 40
0.0
 40
0.0
 40
1.0
 40
1.0
 40
1.0
 10
0.251400901501853
 20
1.0507932648585609
 30
0.0
 10
0.2558888489087199
 20
1.1294492181091087
 30
0.0
 10
0.4094607992374257
 20
1.1723301530981516
 30
0.0
  0
SPLINE
  5
2B
100
AcDbEntity
  8
NAME
  6
SOLID
 62
     0
100
AcDbSpline
210
0.0
220
0.0
230
1.0
 70
     0
 71
     2
 72
     6
 73
     3
 74
     0
 42
0.000001
 43
0.000001
 40
0.0
 40
0.0
 40
0.0
 40
1.0
 40
1.0
 40
1.0
 10
0.4094607992374257
 20
1.1723301530981516
 30
0.0
 10
0.6553979796610925
 20
1.5978904160638203
 30
0.0
 10
0.9494520337151471
 20
2.0436464423603873
 30
0.0
  0
SPLINE
  5
2C
100
AcDbEntity
  8
NAME
  6
SOLID
 62
     0
100
AcDbSpline
210
0.0
220
0.0
230
1.0
 70
     0
 71
     2
 72
     6
 73
     3
 74
     0
 42
0.000001
 43
0.000001
 40
0.0
 40
0.0
 40
0.0
 40
1.0
 40
1.0
 40
1.0
 10
0.9494520337151471
 20
2.0436464423603873
 30
0.0
 10
1.3783782572359655
 20
2.6932067053260553
 30
0.0
 10
1.4712460439415906
 20
2.6932067053260553
 30
0.0
  0
SPLINE
  5
2D
100
AcDbEntity
  8
NAME
  6
SOLID
 62
     0
100
AcDbSpline
210
0.0
220
0.0
230
1.0
 70
     0
 71
     2
 72
     6
 73
     3
 74
     0
 42
0.000001
 43
0.000001
 40
0.0
 40
0.0
 40
0.0
 40
1.0
 40
1.0
 40
1.0
 10
1.4712460439415906
 20
2.6932067053260553
 30
0.0
 10
1.6750502806106908
 20
2.6932067053260553
 30
0.0
 10
1.7436083521957908
 20
2.4573674065678377
 30
0.0
  0
SPLINE
  5
2E
100
AcDbEntity
  8
NAME
  6
SOLID
 62
     0
100
AcDbSpline
210
0.0
220
0.0
230
1.0
 70
     0
 71
     2
 72
     6
 73
     3
 74
     0
 42
0.000001
 43
0.000001
 40
0.0
 40
0.0
 40
0.0
 40
1.0
 40
1.0
 40
1.0
 10
1.7436083521957908
 20
2.4573674065678377
 30
0.0
 10
1.7660480892301216
 20
2.2755003503224032
 30
0.0
 10
1.8394681038393266
 20
1.9117662378315341
 30
0.0
  0
SPLINE
  5
2F
100
AcDbEntity
  8
NAME
  6
SOLID
 62
     0
100
AcDbSpline
210
0.0
220
0.0
230
1.0
 70
     0
 71
     2
 72
     6
 73
     3
 74
     0
 42
0.000001
 43
0.000001
 40
0.0
 40
0.0
 40
0.0
 40
1.0
 40
1.0
 40
1.0
 10
1.8394681038393266
 20
1.9117662378315341
 30
0.0
 10
1.9456711717721227
 20
1.4283652151872679
 30
0.0
 10
2.0943811790767271
 20
0.8018641194969829
 30
0.0
  0
SPLINE
  5
30
100
AcDbEntity
  8
NAME
  6
SOLID
 62
     0
100
AcDbSpline
210
0.0
220
0.0
230
1.0
 70
     0
 71
     2
 72
     6
 73
     3
 74
     0
 42
0.000001
 43
0.000001
 40
0.0
 40
0.0
 40
0.0
 40
1.0
 40
1.0
 40
1.0
 10
2.0943811790767271
 20
0.8018641194969829
 30
0.0
 10
2.1148223770314374
 20
0.7582351932734621
 30
0.0
 10
2.1893643784923569
 20
0.5797340975831773
 30
0.0
  0
SPLINE
  5
31
100
AcDbEntity
  8
NAME
  6
SOLID
 62
     0
100
AcDbSpline
210
0.0
220
0.0
230
1.0
 70
     0
 71
     2
 72
     6
 73
     3
 74
     0
 42
0.000001
 43
0.000001
 40
0.0
 40
0.0
 40
0.0
 40
1.0
 40
1.0
 40
1.0
 10
2.1893643784923569
 20
0.5797340975831773
 30
0.0
 10
2.2549304851395462
 20
0.4340160552164862
 30
0.0
 10
2.2549304851395462
 20
0.3609700362245214
 30
0.0
  0
SPLINE
  5
32
100
AcDbEntity
  8
NAME
  6
SOLID
 62
     0
100
AcDbSpline
210
0.0
220
0.0
230
1.0
 70
     0
 71
     2
 72
     7
 73
     4
 74
     0
 42
0.000001
 43
0.000001
 40
0.0
 40
0.0
 40
0.0
 40
1.0
 40
2.0
 40
2.0
 40
2.0
 10
2.2549304851395462
 20
0.3609700362245214
 30
0.0
 10
2.2549304851395462
 20
0.2588809200813511
 30
0.0
 10
2.0951291703112034
 20
0.1217647769111538
 30
0.0
 10
2.0086193090986395
 20
0.1365960406072824
 30
0.0
  0
SPLINE
  5
33
100
AcDbEntity
  8
NAME
  6
SOLID
 62
     0
100
AcDbSpline
210
0.0
220
0.0
230
1.0
 70
     0
 71
     2
 72
     6
 73
     3
 74
     0
 42
0.000001
 43
0.000001
 40
0.0
 40
0.0
 40
0.0
 40
1.0
 40
1.0
 40
1.0
 10
1.3527011206399102
 20
1.8688853028424903
 30
0.0
 10
1.214836986235234
 20
1.647129276545924
 30
0.0
 10
0.9856010475938923
 20
1.2688093349827394
 30
0.0
  0
SPLINE
  5
34
100
AcDbEntity
  8
NAME
  6
SOLID
 62
     0
100
AcDbSpline
210
0.0
220
0.0
230
1.0
 70
     0
 71
     2
 72
     6
 73
     3
 74
     0
 42
0.000001
 43
0.000001
 40
0.0
 40
0.0
 40
0.0
 40
1.0
 40
1.0
 40
1.0
 10
0.9856010475938923
 20
1.2688093349827394
 30
0.0
 10
1.0612650359065281
 20
1.2777852297964718
 30
0.0
 10
1.2182029467903845
 20
1.2830211684378154
 30
0.0
  0
SPLINE
  5
35
100
AcDbEntity
  8
NAME
  6
SOLID
 62
     0
100
AcDbSpline
210
0.0
220
0.0
230
1.0
 70
     0
 71
     2
 72
     6
 73
     3
 74
     0
 42
0.000001
 43
0.000001
 40
0.0
 40
0.0
 40
0.0
 40
1.0
 40
1.0
 40
1.0
 10
1.2182029467903845
 20
1.2830211684378154
 30
0.0
 10
1.4216331878422466
 20
1.2893790939308767
 30
0.0
 10
1.4682540790036782
 20
1.3053323444787215
 30
0.0
  0
SPLINE
  5
36
100
AcDbEntity
  8
NAME
  6
SOLID
 62
     0
100
AcDbSpline
210
0.0
220
0.0
230
1.0
 70
     0
 71
     2
 72
     6
 73
     3
 74
     0
 42
0.000001
 43
0.000001
 40
0.0
 40
0.0
 40
0.0
 40
1.0
 40
1.0
 40
1.0
 10
1.4682540790036782
 20
1.3053323444787215
 30
0.0
 10
1.4272431221008297
 20
1.5248443970718553
 30
0.0
 10
1.3527011206399102
 20
1.8688853028424903
 30
0.0
  0
SPLINE
  5
37
100
AcDbEntity
  8
NAME
  6
SOLID
 62
     0
100
AcDbSpline
210
0.0
220
0.0
230
1.0
 70
     0
 71
     2
 72
     6
 73
     3
 74
     0
 42
0.000001
 43
0.000001
 40
0.0
 40
0.0
 40
0.0
 40
1.0
 40
1.0
 40
1.0
 10
3.4875814712607998
 20
0.8812680639820085
 30
0.0
 10
3.7242973222469224
 20
1.5439181735510372
 30
0.0
 10
3.8636574391205514
 20
1.9404353393655009
 30
0.0
  0
SPLINE
  5
38
100
AcDbEntity
  8
NAME
  6
SOLID
 62
     0
100
AcDbSpline
210
0.0
220
0.0
230
1.0
 70
     0
 71
     2
 72
     6
 73
     3
 74
     0
 42
0.000001
 43
0.000001
 40
0.0
 40
0.0
 40
0.0
 40
1.0
 40
1.0
 40
1.0
 10
3.8636574391205514
 20
1.9404353393655009
 30
0.0
 10
3.9355814712608002
 20
2.1524674796138568
 30
0.0
 10
4.0067575121665726
 20
2.3659956023311688
 30
0.0
  0
SPLINE
  5
39
100
AcDbEntity
  8
NAME
  6
SOLID
 62
     0
100
AcDbSpline
210
0.0
220
0.0
230
1.0
 70
     0
 71
     2
 72
     6
 73
     3
 74
     0
 42
0.000001
 43
0.000001
 40
0.0
 40
0.0
 40
0.0
 40
1.0
 40
1.0
 40
1.0
 10
4.0067575121665726
 20
2.3659956023311688
 30
0.0
 10
4.0951373514653291
 20
2.604207435786245
 30
0.0
 10
4.2180416611804503
 20
2.7431935570426376
 30
0.0
  0
SPLINE
  5
3A
100
AcDbEntity
  8
NAME
  6
SOLID
 62
     0
100
AcDbSpline
210
0.0
220
0.0
230
1.0
 70
     0
 71
     2
 72
     6
 73
     3
 74
     0
 42
0.000001
 43
0.000001
 40
0.0
 40
0.0
 40
0.0
 40
1.0
 40
1.0
 40
1.0
 10
4.2180416611804503
 20
2.7431935570426376
 30
0.0
 10
4.2989415881344328
 20
2.8392987433099854
 30
0.0
 10
4.414868542115439
 20
2.8392987433099854
 30
0.0
  0
SPLINE
  5
3B
100
AcDbEntity
  8
NAME
  6
SOLID
 62
     0
100
AcDbSpline
210
0.0
220
0.0
230
1.0
 70
     0
 71
     2
 72
     7
 73
     4
 74
     0
 42
0.000001
 43
0.000001
 40
0.0
 40
0.0
 40
0.0
 40
1.0
 40
2.0
 40
2.0
 40
2.0
 10
4.414868542115439
 20
2.8392987433099854
 30
0.0
 10
4.5233155837516712
 20
2.8392987433099854
 30
0.0
 10
4.6928407846282241
 20
2.6988166395846385
 30
0.0
 10
4.6928407846282241
 20
2.5959795322069903
 30
0.0
  0
SPLINE
  5
3C
100
AcDbEntity
  8
NAME
  6
SOLID
 62
     0
100
AcDbSpline
210
0.0
220
0.0
230
1.0
 70
     0
 71
     2
 72
     6
 73
     3
 74
     0
 42
0.000001
 43
0.000001
 40
0.0
 40
0.0
 40
0.0
 40
1.0
 40
1.0
 40
1.0
 10
4.6928407846282241
 20
2.5959795322069903
 30
0.0
 10
4.6928407846282241
 20
2.5251774869184587
 30
0.0
 10
4.6377465552637247
 20
2.4554974284816433
 30
0.0
  0
SPLINE
  5
3D
100
AcDbEntity
  8
NAME
  6
SOLID
 62
     0
100
AcDbSpline
210
0.0
220
0.0
230
1.0
 70
     0
 71
     2
 72
     6
 73
     3
 74
     0
 42
0.000001
 43
0.000001
 40
0.0
 40
0.0
 40
0.0
 40
1.0
 40
1.0
 40
1.0
 10
4.6377465552637247
 20
2.4554974284816433
 30
0.0
 10
4.5523586809028771
 20
2.32835060598347
 30
0.0
 10
4.4770686882074777
 20
2.1275383342522796
 30
0.0
  0
SPLINE
  5
3E
100
AcDbEntity
  8
NAME
  6
SOLID
 62
     0
100
AcDbSpline
210
0.0
220
0.0
230
1.0
 70
     0
 71
     2
 72
     6
 73
     3
 74
     0
 42
0.000001
 43
0.000001
 40
0.0
 40
0.0
 40
0.0
 40
1.0
 40
1.0
 40
1.0
 10
4.4770686882074777
 20
2.1275383342522796
 30
0.0
 10
4.4748247145040452
 20
2.1226763912281736
 30
0.0
 10
4.3444404924441464
 20
1.7879853758885096
 30
0.0
  0
SPLINE
  5
3F
100
AcDbEntity
  8
NAME
  6
SOLID
 62
     0
100
AcDbSpline
210
0.0
220
0.0
230
1.0
 70
     0
 71
     2
 72
     6
 73
     3
 74
     0
 42
0.000001
 43
0.000001
 40
0.0
 40
0.0
 40
0.0
 40
1.0
 40
1.0
 40
1.0
 10
4.3444404924441464
 20
1.7879853758885096
 30
0.0
 10
4.1938605070533512
 20
1.3858582758154636
 30
0.0
 10
3.895318505592428
 20
0.5812300800521326
 30
0.0
  0
SPLINE
  5
40
100
AcDbEntity
  8
NAME
  6
SOLID
 62
     0
100
AcDbSpline
210
0.0
220
0.0
230
1.0
 70
     0
 71
     2
 72
     6
 73
     3
 74
     0
 42
0.000001
 43
0.000001
 40
0.0
 40
0.0
 40
0.0
 40
1.0
 40
1.0
 40
1.0
 10
3.895318505592428
 20
0.5812300800521326
 30
0.0
 10
3.8189065260453177
 20
0.3677019573348208
 30
0.0
 10
3.7067195282366967
 20
0.1537998390002699
 30
0.0
  0
SPLINE
  5
41
100
AcDbEntity
  8
NAME
  6
SOLID
 62
     0
100
AcDbSpline
210
0.0
220
0.0
230
1.0
 70
     0
 71
     2
 72
     6
 73
     3
 74
     0
 42
0.000001
 43
0.000001
 40
0.0
 40
0.0
 40
0.0
 40
1.0
 40
1.0
 40
1.0
 10
3.7067195282366967
 20
0.1537998390002699
 30
0.0
 10
3.6154762849934521
 20
0.027027012119335
 30
0.0
 10
3.4634003171337007
 20
0.027027012119335
 30
0.0
  0
SPLINE
  5
42
100
AcDbEntity
  8
NAME
  6
SOLID
 62
     0
100
AcDbSpline
210
0.0
220
0.0
230
1.0
 70
     0
 71
     2
 72
     6
 73
     3
 74
     0
 42
0.000001
 43
0.000001
 40
0.0
 40
0.0
 40
0.0
 40
1.0
 40
1.0
 40
1.0
 10
3.4634003171337007
 20
0.027027012119335
 30
0.0
 10
3.271435379222817
 20
0.027027012119335
 30
0.0
 10
3.1953973952929413
 20
0.1873308835583416
 30
0.0
  0
SPLINE
  5
43
100
AcDbEntity
  8
NAME
  6
SOLID
 62
     0
100
AcDbSpline
210
0.0
220
0.0
230
1.0
 70
     0
 71
     2
 72
     6
 73
     3
 74
     0
 42
0.000001
 43
0.000001
 40
0.0
 40
0.0
 40
0.0
 40
1.0
 40
1.0
 40
1.0
 10
3.1953973952929413
 20
0.1873308835583416
 30
0.0
 10
2.9844872418963018
 20
0.6896771216883635
 30
0.0
 10
2.7310701491278575
 20
1.6180861793947185
 30
0.0
  0
SPLINE
  5
44
100
AcDbEntity
  8
NAME
  6
SOLID
 62
     0
100
AcDbSpline
210
0.0
220
0.0
230
1.0
 70
     0
 71
     2
 72
     6
 73
     3
 74
     0
 42
0.000001
 43
0.000001
 40
0.0
 40
0.0
 40
0.0
 40
1.0
 40
1.0
 40
1.0
 10
2.7310701491278575
 20
1.6180861793947185
 30
0.0
 10
2.6606420994565649
 20
1.8576654343253249
 30
0.0
 10
2.5887180673163162
 20
2.0842834036459967
 30
0.0
  0
SPLINE
  5
45
100
AcDbEntity
  8
NAME
  6
SOLID
 62
     0
100
AcDbSpline
210
0.0
220
0.0
230
1.0
 70
     0
 71
     2
 72
     6
 73
     3
 74
     0
 42
0.000001
 43
0.000001
 40
0.0
 40
0.0
 40
0.0
 40
1.0
 40
1.0
 40
1.0
 10
2.5887180673163162
 20
2.0842834036459967
 30
0.0
 10
2.5014602148692759
 20
2.4085025417029726
 30
0.0
 10
2.5014602148692759
 20
2.5281694518563693
 30
0.0
  0
SPLINE
  5
46
100
AcDbEntity
  8
NAME
  6
SOLID
 62
     0
100
AcDbSpline
210
0.0
220
0.0
230
1.0
 70
     0
 71
     2
 72
     6
 73
     3
 74
     0
 42
0.000001
 43
0.000001
 40
0.0
 40
0.0
 40
0.0
 40
1.0
 40
1.0
 40
1.0
 10
2.5014602148692759
 20
2.5281694518563693
 30
0.0
 10
2.5014602148692759
 20
2.6317545504684956
 30
0.0
 10
2.5763762119474336
 20
2.7006866176708337
 30
0.0
  0
SPLINE
  5
47
100
AcDbEntity
  8
NAME
  6
SOLID
 62
     0
100
AcDbSpline
210
0.0
220
0.0
230
1.0
 70
     0
 71
     2
 72
     6
 73
     3
 74
     0
 42
0.000001
 43
0.000001
 40
0.0
 40
0.0
 40
0.0
 40
1.0
 40
1.0
 40
1.0
 10
2.5763762119474336
 20
2.7006866176708337
 30
0.0
 10
2.6486742397049206
 20
2.7662527243180204
 30
0.0
 10
2.7370540790036788
 20
2.7662527243180204
 30
0.0
  0
SPLINE
  5
48
100
AcDbEntity
  8
NAME
  6
SOLID
 62
     0
100
AcDbSpline
210
0.0
220
0.0
230
1.0
 70
     0
 71
     2
 72
     6
 73
     3
 74
     0
 42
0.000001
 43
0.000001
 40
0.0
 40
0.0
 40
0.0
 40
1.0
 40
1.0
 40
1.0
 10
2.7370540790036788
 20
2.7662527243180204
 30
0.0
 10
2.9080752623491861
 20
2.7662527243180204
 30
0.0
 10
2.9762593383170461
 20
2.5914915848001243
 30
0.0
  0
SPLINE
  5
49
100
AcDbEntity
  8
NAME
  6
SOLID
 62
     0
100
AcDbSpline
210
0.0
220
0.0
230
1.0
 70
     0
 71
     2
 72
     6
 73
     3
 74
     0
 42
0.000001
 43
0.000001
 40
0.0
 40
0.0
 40
0.0
 40
1.0
 40
1.0
 40
1.0
 10
2.9762593383170461
 20
2.5914915848001243
 30
0.0
 10
2.999821062203095
 20
2.444277559964477
 30
0.0
 10
3.0355960804646003
 20
2.2978115263633088
 30
0.0
  0
SPLINE
  5
4A
100
AcDbEntity
  8
NAME
  6
SOLID
 62
     0
100
AcDbSpline
210
0.0
220
0.0
230
1.0
 70
     0
 71
     2
 72
     6
 73
     3
 74
     0
 42
0.000001
 43
0.000001
 40
0.0
 40
0.0
 40
0.0
 40
1.0
 40
1.0
 40
1.0
 10
3.0355960804646003
 20
2.2978115263633088
 30
0.0
 10
3.0996662046428316
 20
2.1144484876489189
 30
0.0
 10
3.2099832243652564
 20
1.7473484146029001
 30
0.0
  0
SPLINE
  5
4B
100
AcDbEntity
  8
NAME
  6
SOLID
 62
     0
100
AcDbSpline
210
0.0
220
0.0
230
1.0
 70
     0
 71
     2
 72
     6
 73
     3
 74
     0
 42
0.000001
 43
0.000001
 40
0.0
 40
0.0
 40
0.0
 40
1.0
 40
1.0
 40
1.0
 10
3.2099832243652564
 20
1.7473484146029001
 30
0.0
 10
3.3515873149423214
 20
1.251734097583177
 30
0.0
 10
3.4875814712607998
 20
0.8812680639820085
 30
0.0
  0
SPLINE
  5
4C
100
AcDbEntity
  8
NAME
  6
SOLID
 62
     0
100
AcDbSpline
210
0.0
220
0.0
230
1.0
 70
     0
 71
     2
 72
     6
 73
     3
 74
     0
 42
0.000001
 43
0.000001
 40
0.0
 40
0.0
 40
0.0
 40
1.0
 40
1.0
 40
1.0
 10
6.4603756275792819
 20
2.2184075818782834
 30
0.0
 10
6.3828416611804499
 20
2.2184075818782834
 30
0.0
 10
6.0350607992374279
 20
2.2549305913742659
 30
0.0
  0
SPLINE
  5
4D
100
AcDbEntity
  8
NAME
  6
SOLID
 62
     0
100
AcDbSpline
210
0.0
220
0.0
230
1.0
 70
     0
 71
     2
 72
     6
 73
     3
 74
     0
 42
0.000001
 43
0.000001
 40
0.0
 40
0.0
 40
0.0
 40
1.0
 40
1.0
 40
1.0
 10
6.0350607992374279
 20
2.2549305913742659
 30
0.0
 10
6.0000337722104007
 20
1.935199400724156
 30
0.0
 10
6.0000337722104007
 20
1.4163973554356244
 30
0.0
  0
LINE
  5
4E
100
AcDbEntity
  8
NAME
  6
SOLID
 62
     0
100
AcDbLine
 10
6.000034
 20
1.416397
 30
0.0
 11
5.998538
 21
0.647918
 31
0.0
  0
SPLINE
  5
4F
100
AcDbEntity
  8
NAME
  6
SOLID
 62
     0
100
AcDbSpline
210
0.0
220
0.0
230
1.0
 70
     0
 71
     2
 72
     6
 73
     3
 74
     0
 42
0.000001
 43
0.000001
 40
0.0
 40
0.0
 40
0.0
 40
1.0
 40
1.0
 40
1.0
 10
5.9985377897414445
 20
0.6479181735510371
 30
0.0
 10
6.2214158028897302
 20
0.6512841341061866
 30
0.0
 10
6.4502777459138336
 20
0.6512841341061866
 30
0.0
  0
SPLINE
  5
50
100
AcDbEntity
  8
NAME
  6
SOLID
 62
     0
100
AcDbSpline
210
0.0
220
0.0
230
1.0
 70
     0
 71
     2
 72
     7
 73
     4
 74
     0
 42
0.000001
 43
0.000001
 40
0.0
 40
0.0
 40
0.0
 40
1.0
 40
2.0
 40
2.0
 40
2.0
 10
6.4502777459138336
 20
0.6512841341061866
 30
0.0
 10
6.5546108357604354
 20
0.6512841341061866
 30
0.0
 10
6.6924749701651116
 20
0.5081840610601678
 30
0.0
 10
6.6924749701651116
 20
0.4053469536825198
 30
0.0
  0
SPLINE
  5
51
100
AcDbEntity
  8
NAME
  6
SOLID
 62
     0
100
AcDbSpline
210
0.0
220
0.0
230
1.0
 70
     0
 71
     2
 72
     7
 73
     4
 74
     0
 42
0.000001
 43
0.000001
 40
0.0
 40
0.0
 40
0.0
 40
1.0
 40
2.0
 40
2.0
 40
2.0
 10
6.6924749701651116
 20
0.4053469536825198
 30
0.0
 10
6.6924749701651116
 20
0.3025098463048721
 30
0.0
 10
6.5523668620570064
 20
0.1731190501032649
 30
0.0
 10
6.4461637941242067
 20
0.1731190501032649
 30
0.0
  0
SPLINE
  5
52
100
AcDbEntity
  8
NAME
  6
SOLID
 62
     0
100
AcDbSpline
210
0.0
220
0.0
230
1.0
 70
     0
 71
     2
 72
     7
 73
     4
 74
     0
 42
0.000001
 43
0.000001
 40
0.0
 40
0.0
 40
0.0
 40
1.0
 40
2.0
 40
2.0
 40
2.0
 10
6.4461637941242067
 20
0.1731190501032649
 30
0.0
 10
6.3448226692155139
 20
0.1731190501032649
 30
0.0
 10
5.9642587539488972
 20
0.1575397951726587
 30
0.0
 10
5.8625436334229661
 20
0.1575397951726587
 30
0.0
  0
SPLINE
  5
53
100
AcDbEntity
  8
NAME
  6
SOLID
 62
     0
100
AcDbSpline
210
0.0
220
0.0
230
1.0
 70
     0
 71
     2
 72
     7
 73
     4
 74
     0
 42
0.000001
 43
0.000001
 40
0.0
 40
0.0
 40
0.0
 40
1.0
 40
2.0
 40
2.0
 40
2.0
 10
5.8625436334229661
 20
0.1575397951726587
 30
0.0
 10
5.749982639997107
 20
0.1575397951726587
 30
0.0
 10
5.2860293894492614
 20
0.1365960406072824
 30
0.0
 10
5.1730944004061641
 20
0.1365960406072824
 30
0.0
  0
SPLINE
  5
54
100
AcDbEntity
  8
NAME
  6
SOLID
 62
     0
100
AcDbSpline
210
0.0
220
0.0
230
1.0
 70
     0
 71
     2
 72
     7
 73
     4
 74
     0
 42
0.000001
 43
0.000001
 40
0.0
 40
0.0
 40
0.0
 40
1.0
 40
2.0
 40
2.0
 40
2.0
 10
5.1730944004061641
 20
0.1365960406072824
 30
0.0
 10
5.066891332473368
 20
0.1365960406072824
 30
0.0
 10
4.9393705143579538
 20
0.2845580566774066
 30
0.0
 10
4.9393705143579538
 20
0.3789218258519866
 30
0.0
  0
SPLINE
  5
55
100
AcDbEntity
  8
NAME
  6
SOLID
 62
     0
100
AcDbSpline
210
0.0
220
0.0
230
1.0
 70
     0
 71
     2
 72
     7
 73
     4
 74
     0
 42
0.000001
 43
0.000001
 40
0.0
 40
0.0
 40
0.0
 40
1.0
 40
2.0
 40
2.0
 40
2.0
 10
4.9393705143579538
 20
0.3789218258519866
 30
0.0
 10
4.9393705143579538
 20
0.485872885019262
 30
0.0
 10
5.0721272711147094
 20
0.6479181735510371
 30
0.0
 10
5.1950315808298306
 20
0.6479181735510371
 30
0.0
  0
SPLINE
  5
56
100
AcDbEntity
  8
NAME
  6
SOLID
 62
     0
100
AcDbSpline
210
0.0
220
0.0
230
1.0
 70
     0
 71
     2
 72
     6
 73
     3
 74
     0
 42
0.000001
 43
0.000001
 40
0.0
 40
0.0
 40
0.0
 40
1.0
 40
1.0
 40
1.0
 10
5.1950315808298306
 20
0.6479181735510371
 30
0.0
 10
5.3146984909832256
 20
0.6479181735510371
 30
0.0
 10
5.5237386662936743
 20
0.6479181735510371
 30
0.0
  0
SPLINE
  5
57
100
AcDbEntity
  8
NAME
  6
SOLID
 62
     0
100
AcDbSpline
210
0.0
220
0.0
230
1.0
 70
     0
 71
     2
 72
     6
 73
     3
 74
     0
 42
0.000001
 43
0.000001
 40
0.0
 40
0.0
 40
0.0
 40
1.0
 40
1.0
 40
1.0
 10
5.5237386662936743
 20
0.6479181735510371
 30
0.0
 10
5.5089074025975435
 20
0.8387611246102047
 30
0.0
 10
5.5089074025975435
 20
1.389972227605091
 30
0.0
  0
SPLINE
  5
58
100
AcDbEntity
  8
NAME
  6
SOLID
 62
     0
100
AcDbSpline
210
0.0
220
0.0
230
1.0
 70
     0
 71
     2
 72
     6
 73
     3
 74
     0
 42
0.000001
 43
0.000001
 40
0.0
 40
0.0
 40
0.0
 40
1.0
 40
1.0
 40
1.0
 10
5.5089074025975435
 20
1.389972227605091
 30
0.0
 10
5.5089074025975435
 20
1.8361022495188974
 30
0.0
 10
5.5602616757896541
 20
2.2549305913742659
 30
0.0
  0
LINE
  5
59
100
AcDbEntity
  8
NAME
  6
SOLID
 62
     0
100
AcDbLine
 10
5.560262
 20
2.254931
 30
0.0
 11
5.175338
 21
2.254931
 31
0.0
  0
SPLINE
  5
5A
100
AcDbEntity
  8
NAME
  6
SOLID
 62
     0
100
AcDbSpline
210
0.0
220
0.0
230
1.0
 70
     0
 71
     2
 72
     7
 73
     4
 74
     0
 42
0.000001
 43
0.000001
 40
0.0
 40
0.0
 40
0.0
 40
1.0
 40
2.0
 40
2.0
 40
2.0
 10
5.1753383741095966
 20
2.2549305913742659
 30
0.0
 10
5.069135306176797
 20
2.2549305913742659
 30
0.0
 10
4.9393705143579538
 20
2.3798334401690067
 30
0.0
 10
4.9393705143579538
 20
2.4822965519294149
 30
0.0
  0
SPLINE
  5
5B
100
AcDbEntity
  8
NAME
  6
SOLID
 62
     0
100
AcDbSpline
210
0.0
220
0.0
230
1.0
 70
     0
 71
     2
 72
     6
 73
     3
 74
     0
 42
0.000001
 43
0.000001
 40
0.0
 40
0.0
 40
0.0
 40
1.0
 40
1.0
 40
1.0
 10
4.9393705143579538
 20
2.4822965519294149
 30
0.0
 10
4.9393705143579538
 20
2.5858816505415412
 30
0.0
 10
4.9949673003331156
 20
2.6396084584305122
 30
0.0
  0
SPLINE
  5
5C
100
AcDbEntity
  8
NAME
  6
SOLID
 62
     0
100
AcDbSpline
210
0.0
220
0.0
230
1.0
 70
     0
 71
     2
 72
     6
 73
     3
 74
     0
 42
0.000001
 43
0.000001
 40
0.0
 40
0.0
 40
0.0
 40
1.0
 40
1.0
 40
1.0
 10
4.9949673003331156
 20
2.6396084584305122
 30
0.0
 10
5.0601594113630668
 20
2.7025565957570272
 30
0.0
 10
5.14367730763772
 20
2.7081665300156104
 30
0.0
  0
SPLINE
  5
5D
100
AcDbEntity
  8
NAME
  6
SOLID
 62
     0
100
AcDbSpline
210
0.0
220
0.0
230
1.0
 70
     0
 71
     2
 72
     6
 73
     3
 74
     0
 42
0.000001
 43
0.000001
 40
0.0
 40
0.0
 40
0.0
 40
1.0
 40
1.0
 40
1.0
 10
5.14367730763772
 20
2.7081665300156104
 30
0.0
 10
5.2890213543871738
 20
2.7297297148220379
 30
0.0
 10
5.6501374975573668
 20
2.7297297148220379
 30
0.0
  0
SPLINE
  5
5E
100
AcDbEntity
  8
NAME
  6
SOLID
 62
     0
100
AcDbSpline
210
0.0
220
0.0
230
1.0
 70
     0
 71
     2
 72
     6
 73
     3
 74
     0
 42
0.000001
 43
0.000001
 40
0.0
 40
0.0
 40
0.0
 40
1.0
 40
1.0
 40
1.0
 10
5.6501374975573668
 20
2.7297297148220379
 30
0.0
 10
5.9747306312315835
 20
2.7297297148220379
 30
0.0
 10
6.4841827860891428
 20
2.6932067053260553
 30
0.0
  0
SPLINE
  5
5F
100
AcDbEntity
  8
NAME
  6
SOLID
 62
     0
100
AcDbSpline
210
0.0
220
0.0
230
1.0
 70
     0
 71
     2
 72
     6
 73
     3
 74
     0
 42
0.000001
 43
0.000001
 40
0.0
 40
0.0
 40
0.0
 40
1.0
 40
1.0
 40
1.0
 10
6.4841827860891428
 20
2.6932067053260553
 30
0.0
 10
6.6924749701651116
 20
2.6611716432369397
 30
0.0
 10
6.6924749701651116
 20
2.4461475380506723
 30
0.0
  0
SPLINE
  5
60
100
AcDbEntity
  8
NAME
  6
SOLID
 62
     0
100
AcDbSpline
210
0.0
220
0.0
230
1.0
 70
     0
 71
     2
 72
     6
 73
     3
 74
     0
 42
0.000001
 43
0.000001
 40
0.0
 40
0.0
 40
0.0
 40
1.0
 40
1.0
 40
1.0
 10
6.6924749701651116
 20
2.4461475380506723
 30
0.0
 10
6.6924749701651116
 20
2.3347085314765303
 30
0.0
 10
6.6042236918597794
 20
2.2668984511259094
 30
0.0
  0
SPLINE
  5
61
100
AcDbEntity
  8
NAME
  6
SOLID
 62
     0
100
AcDbSpline
210
0.0
220
0.0
230
1.0
 70
     0
 71
     2
 72
     6
 73
     3
 74
     0
 42
0.000001
 43
0.000001
 40
0.0
 40
0.0
 40
0.0
 40
1.0
 40
1.0
 40
1.0
 10
6.6042236918597794
 20
2.2668984511259094
 30
0.0
 10
6.5504968839708084
 20
2.2184075818782834
 30
0.0
 10
6.4603756275792819
 20
2.2184075818782834
 30
0.0
  0
SPLINE
  5
62
100
AcDbEntity
  8
NAME
  6
SOLID
 62
     0
100
AcDbSpline
210
0.0
220
0.0
230
1.0
 70
     0
 71
     2
 72
     6
 73
     3
 74
     0
 42
0.000001
 43
0.000001
 40
0.0
 40
0.0
 40
0.0
 40
1.0
 40
1.0
 40
1.0
 10
8.920597103108868
 20
0.1365960406072824
 30
0.0
 10
8.7823589730869536
 20
0.1399620011624321
 30
0.0
 10
8.6555861462060193
 20
0.4414959675612633
 30
0.0
  0
SPLINE
  5
63
100
AcDbEntity
  8
NAME
  6
SOLID
 62
     0
100
AcDbSpline
210
0.0
220
0.0
230
1.0
 70
     0
 71
     2
 72
     6
 73
     3
 74
     0
 42
0.000001
 43
0.000001
 40
0.0
 40
0.0
 40
0.0
 40
1.0
 40
1.0
 40
1.0
 10
8.6555861462060193
 20
0.4414959675612633
 30
0.0
 10
8.5553670081490409
 20
0.6338349010893862
 30
0.0
 10
8.4853129540949865
 20
0.9035792400229143
 30
0.0
  0
SPLINE
  5
64
100
AcDbEntity
  8
NAME
  6
SOLID
 62
     0
100
AcDbSpline
210
0.0
220
0.0
230
1.0
 70
     0
 71
     2
 72
     6
 73
     3
 74
     0
 42
0.000001
 43
0.000001
 40
0.0
 40
0.0
 40
0.0
 40
1.0
 40
1.0
 40
1.0
 10
8.4853129540949865
 20
0.9035792400229143
 30
0.0
 10
8.3637760658553972
 20
0.8745361428717091
 30
0.0
 10
8.0723399811220133
 20
0.8454930457205039
 30
0.0
  0
SPLINE
  5
65
100
AcDbEntity
  8
NAME
  6
SOLID
 62
     0
100
AcDbSpline
210
0.0
220
0.0
230
1.0
 70
     0
 71
     2
 72
     6
 73
     3
 74
     0
 42
0.000001
 43
0.000001
 40
0.0
 40
0.0
 40
0.0
 40
1.0
 40
1.0
 40
1.0
 10
8.0723399811220133
 20
0.8454930457205039
 30
0.0
 10
7.7924977605230374
 20
0.8164499485692986
 30
0.0
 10
7.6467797181563455
 20
0.794010211534967
 30
0.0
  0
SPLINE
  5
66
100
AcDbEntity
  8
NAME
  6
SOLID
 62
     0
100
AcDbSpline
210
0.0
220
0.0
230
1.0
 70
     0
 71
     2
 72
     6
 73
     3
 74
     0
 42
0.000001
 43
0.000001
 40
0.0
 40
0.0
 40
0.0
 40
1.0
 40
1.0
 40
1.0
 10
7.6467797181563455
 20
0.794010211534967
 30
0.0
 10
7.5696197473747517
 20
0.6136391377584878
 30
0.0
 10
7.3772808138466317
 20
0.251401007736574
 30
0.0
  0
SPLINE
  5
67
100
AcDbEntity
  8
NAME
  6
SOLID
 62
     0
100
AcDbSpline
210
0.0
220
0.0
230
1.0
 70
     0
 71
     2
 72
     6
 73
     3
 74
     0
 42
0.000001
 43
0.000001
 40
0.0
 40
0.0
 40
0.0
 40
1.0
 40
1.0
 40
1.0
 10
7.3772808138466317
 20
0.251401007736574
 30
0.0
 10
7.3042347948546649
 20
0.1365960406072824
 30
0.0
 10
7.169362625387901
 20
0.1365960406072824
 30
0.0
  0
SPLINE
  5
68
100
AcDbEntity
  8
NAME
  6
SOLID
 62
     0
100
AcDbSpline
210
0.0
220
0.0
230
1.0
 70
     0
 71
     2
 72
     7
 73
     4
 74
     0
 42
0.000001
 43
0.000001
 40
0.0
 40
0.0
 40
0.0
 40
1.0
 40
2.0
 40
2.0
 40
2.0
 10
7.169362625387901
 20
0.1365960406072824
 30
0.0
 10
7.0721354522688387
 20
0.1365960406072824
 30
0.0
 10
6.9390046998948414
 20
0.2581329288468734
 30
0.0
 10
6.9390046998948414
 20
0.3605960406072826
 30
0.0
  0
SPLINE
  5
69
100
AcDbEntity
  8
NAME
  6
SOLID
 62
     0
100
AcDbSpline
210
0.0
220
0.0
230
1.0
 70
     0
 71
     2
 72
     6
 73
     3
 74
     0
 42
0.000001
 43
0.000001
 40
0.0
 40
0.0
 40
0.0
 40
1.0
 40
1.0
 40
1.0
 10
6.9390046998948414
 20
0.3605960406072826
 30
0.0
 10
6.9390046998948414
 20
0.44261795441298
 30
0.0
 10
7.1768425377326821
 20
0.9483301530981521
 30
0.0
  0
SPLINE
  5
6A
100
AcDbEntity
  8
NAME
  6
SOLID
 62
     0
100
AcDbSpline
210
0.0
220
0.0
230
1.0
 70
     0
 71
     2
 72
     6
 73
     3
 74
     0
 42
0.000001
 43
0.000001
 40
0.0
 40
0.0
 40
0.0
 40
1.0
 40
1.0
 40
1.0
 10
7.1768425377326821
 20
0.9483301530981521
 30
0.0
 10
7.1611347218086472
 20
0.9953250398768221
 30
0.0
 10
7.1633786955120797
 20
1.0507932648585609
 30
0.0
  0
SPLINE
  5
6B
100
AcDbEntity
  8
NAME
  6
SOLID
 62
     0
100
AcDbSpline
210
0.0
220
0.0
230
1.0
 70
     0
 71
     2
 72
     6
 73
     3
 74
     0
 42
0.000001
 43
0.000001
 40
0.0
 40
0.0
 40
0.0
 40
1.0
 40
1.0
 40
1.0
 10
7.1633786955120797
 20
1.0507932648585609
 30
0.0
 10
7.1678666429189448
 20
1.1294492181091087
 30
0.0
 10
7.3214385932476524
 20
1.1723301530981516
 30
0.0
  0
SPLINE
  5
6C
100
AcDbEntity
  8
NAME
  6
SOLID
 62
     0
100
AcDbSpline
210
0.0
220
0.0
230
1.0
 70
     0
 71
     2
 72
     6
 73
     3
 74
     0
 42
0.000001
 43
0.000001
 40
0.0
 40
0.0
 40
0.0
 40
1.0
 40
1.0
 40
1.0
 10
7.3214385932476524
 20
1.1723301530981516
 30
0.0
 10
7.5673757736713227
 20
1.5978904160638203
 30
0.0
 10
7.8614298277253738
 20
2.0436464423603873
 30
0.0
  0
SPLINE
  5
6D
100
AcDbEntity
  8
NAME
  6
SOLID
 62
     0
100
AcDbSpline
210
0.0
220
0.0
230
1.0
 70
     0
 71
     2
 72
     6
 73
     3
 74
     0
 42
0.000001
 43
0.000001
 40
0.0
 40
0.0
 40
0.0
 40
1.0
 40
1.0
 40
1.0
 10
7.8614298277253738
 20
2.0436464423603873
 30
0.0
 10
8.2903560512461922
 20
2.6932067053260553
 30
0.0
 10
8.3832238379518174
 20
2.6932067053260553
 30
0.0
  0
SPLINE
  5
6E
100
AcDbEntity
  8
NAME
  6
SOLID
 62
     0
100
AcDbSpline
210
0.0
220
0.0
230
1.0
 70
     0
 71
     2
 72
     6
 73
     3
 74
     0
 42
0.000001
 43
0.000001
 40
0.0
 40
0.0
 40
0.0
 40
1.0
 40
1.0
 40
1.0
 10
8.3832238379518174
 20
2.6932067053260553
 30
0.0
 10
8.5870280746209176
 20
2.6932067053260553
 30
0.0
 10
8.6555861462060193
 20
2.4573674065678377
 30
0.0
  0
SPLINE
  5
6F
100
AcDbEntity
  8
NAME
  6
SOLID
 62
     0
100
AcDbSpline
210
0.0
220
0.0
230
1.0
 70
     0
 71
     2
 72
     6
 73
     3
 74
     0
 42
0.000001
 43
0.000001
 40
0.0
 40
0.0
 40
0.0
 40
1.0
 40
1.0
 40
1.0
 10
8.6555861462060193
 20
2.4573674065678377
 30
0.0
 10
8.6780258832403483
 20
2.2755003503224032
 30
0.0
 10
8.7514458978495533
 20
1.9117662378315341
 30
0.0
  0
SPLINE
  5
70
100
AcDbEntity
  8
NAME
  6
SOLID
 62
     0
100
AcDbSpline
210
0.0
220
0.0
230
1.0
 70
     0
 71
     2
 72
     6
 73
     3
 74
     0
 42
0.000001
 43
0.000001
 40
0.0
 40
0.0
 40
0.0
 40
1.0
 40
1.0
 40
1.0
 10
8.7514458978495533
 20
1.9117662378315341
 30
0.0
 10
8.8576489657823529
 20
1.4283652151872679
 30
0.0
 10
9.0063589730869538
 20
0.8018641194969829
 30
0.0
  0
SPLINE
  5
71
100
AcDbEntity
  8
NAME
  6
SOLID
 62
     0
100
AcDbSpline
210
0.0
220
0.0
230
1.0
 70
     0
 71
     2
 72
     6
 73
     3
 74
     0
 42
0.000001
 43
0.000001
 40
0.0
 40
0.0
 40
0.0
 40
1.0
 40
1.0
 40
1.0
 10
9.0063589730869538
 20
0.8018641194969829
 30
0.0
 10
9.0268001710416641
 20
0.7582351932734621
 30
0.0
 10
9.1013421725025836
 20
0.5797340975831773
 30
0.0
  0
SPLINE
  5
72
100
AcDbEntity
  8
NAME
  6
SOLID
 62
     0
100
AcDbSpline
210
0.0
220
0.0
230
1.0
 70
     0
 71
     2
 72
     6
 73
     3
 74
     0
 42
0.000001
 43
0.000001
 40
0.0
 40
0.0
 40
0.0
 40
1.0
 40
1.0
 40
1.0
 10
9.1013421725025836
 20
0.5797340975831773
 30
0.0
 10
9.1669082791497729
 20
0.4340160552164862
 30
0.0
 10
9.1669082791497729
 20
0.3609700362245214
 30
0.0
  0
SPLINE
  5
73
100
AcDbEntity
  8
NAME
  6
SOLID
 62
     0
100
AcDbSpline
210
0.0
220
0.0
230
1.0
 70
     0
 71
     2
 72
     7
 73
     4
 74
     0
 42
0.000001
 43
0.000001
 40
0.0
 40
0.0
 40
0.0
 40
1.0
 40
2.0
 40
2.0
 40
2.0
 10
9.1669082791497729
 20
0.3609700362245214
 30
0.0
 10
9.1669082791497729
 20
0.2588809200813511
 30
0.0
 10
9.0071069643214301
 20
0.1217647769111538
 30
0.0
 10
8.920597103108868
 20
0.1365960406072824
 30
0.0
  0
SPLINE
  5
74
100
AcDbEntity
  8
NAME
  6
SOLID
 62
     0
100
AcDbSpline
210
0.0
220
0.0
230
1.0
 70
     0
 71
     2
 72
     6
 73
     3
 74
     0
 42
0.000001
 43
0.000001
 40
0.0
 40
0.0
 40
0.0
 40
1.0
 40
1.0
 40
1.0
 10
8.2646789146501405
 20
1.8688853028424903
 30
0.0
 10
8.1268147802454607
 20
1.647129276545924
 30
0.0
 10
7.897578841604119
 20
1.2688093349827394
 30
0.0
  0
SPLINE
  5
75
100
AcDbEntity
  8
NAME
  6
SOLID
 62
     0
100
AcDbSpline
210
0.0
220
0.0
230
1.0
 70
     0
 71
     2
 72
     6
 73
     3
 74
     0
 42
0.000001
 43
0.000001
 40
0.0
 40
0.0
 40
0.0
 40
1.0
 40
1.0
 40
1.0
 10
7.897578841604119
 20
1.2688093349827394
 30
0.0
 10
7.9732428299167566
 20
1.2777852297964718
 30
0.0
 10
8.1301807408006113
 20
1.2830211684378154
 30
0.0
  0
SPLINE
  5
76
100
AcDbEntity
  8
NAME
  6
SOLID
 62
     0
100
AcDbSpline
210
0.0
220
0.0
230
1.0
 70
     0
 71
     2
 72
     6
 73
     3
 74
     0
 42
0.000001
 43
0.000001
 40
0.0
 40
0.0
 40
0.0
 40
1.0
 40
1.0
 40
1.0
 10
8.1301807408006113
 20
1.2830211684378154
 30
0.0
 10
8.3336109818524733
 20
1.2893790939308767
 30
0.0
 10
8.3802318730139049
 20
1.3053323444787215
 30
0.0
  0
SPLINE
  5
77
100
AcDbEntity
  8
NAME
  6
SOLID
 62
     0
100
AcDbSpline
210
0.0
220
0.0
230
1.0
 70
     0
 71
     2
 72
     6
 73
     3
 74
     0
 42
0.000001
 43
0.000001
 40
0.0
 40
0.0
 40
0.0
 40
1.0
 40
1.0
 40
1.0
 10
8.3802318730139049
 20
1.3053323444787215
 30
0.0
 10
8.33922091611106
 20
1.5248443970718553
 30
0.0
 10
8.2646789146501405
 20
1.8688853028424903
 30
0.0
  0
SPLINE
  5
78
100
AcDbEntity
  8
NAME
  6
SOLID
 62
     0
100
AcDbSpline
210
0.0
220
0.0
230
1.0
 70
     0
 71
     2
 72
     6
 73
     3
 74
     0
 42
0.000001
 43
0.000001
 40
0.0
 40
0.0
 40
0.0
 40
1.0
 40
1.0
 40
1.0
 10
11.950729462495282
 20
0.5898319792486264
 30
0.0
 10
11.950729462495282
 20
0.507810065442929
 30
0.0
 10
11.919068396023405
 20
0.3222030530251057
 30
0.0
  0
SPLINE
  5
79
100
AcDbEntity
  8
NAME
  6
SOLID
 62
     0
100
AcDbSpline
210
0.0
220
0.0
230
1.0
 70
     0
 71
     2
 72
     6
 73
     3
 74
     0
 42
0.000001
 43
0.000001
 40
0.0
 40
0.0
 40
0.0
 40
1.0
 40
1.0
 40
1.0
 10
11.919068396023405
 20
0.3222030530251057
 30
0.0
 10
11.884041368996378
 20
0.1000730311113001
 30
0.0
 10
11.68010857133385
 20
0.1000730311113001
 30
0.0
  0
SPLINE
  5
7A
100
AcDbEntity
  8
NAME
  6
SOLID
 62
     0
100
AcDbSpline
210
0.0
220
0.0
230
1.0
 70
     0
 71
     2
 72
     6
 73
     3
 74
     0
 42
0.000001
 43
0.000001
 40
0.0
 40
0.0
 40
0.0
 40
1.0
 40
1.0
 40
1.0
 10
11.68010857133385
 20
0.1000730311113001
 30
0.0
 10
11.551220331742904
 20
0.1000730311113001
 30
0.0
 10
11.402136328821065
 20
0.226845857992235
 30
0.0
  0
SPLINE
  5
7B
100
AcDbEntity
  8
NAME
  6
SOLID
 62
     0
100
AcDbSpline
210
0.0
220
0.0
230
1.0
 70
     0
 71
     2
 72
     6
 73
     3
 74
     0
 42
0.000001
 43
0.000001
 40
0.0
 40
0.0
 40
0.0
 40
1.0
 40
1.0
 40
1.0
 10
11.402136328821065
 20
0.226845857992235
 30
0.0
 10
10.743974166658901
 20
0.8320292034999048
 30
0.0
 10
9.9247601418232563
 20
1.9031643386350403
 30
0.0
  0
SPLINE
  5
7C
100
AcDbEntity
  8
NAME
  6
SOLID
 62
     0
100
AcDbSpline
210
0.0
220
0.0
230
1.0
 70
     0
 71
     2
 72
     6
 73
     3
 74
     0
 42
0.000001
 43
0.000001
 40
0.0
 40
0.0
 40
0.0
 40
1.0
 40
1.0
 40
1.0
 10
9.9247601418232563
 20
1.9031643386350403
 30
0.0
 10
9.9054409307202604
 20
1.4577823079557124
 30
0.0
 10
9.9054409307202604
 20
1.3530752224918698
 30
0.0
  0
SPLINE
  5
7D
100
AcDbEntity
  8
NAME
  6
SOLID
 62
     0
100
AcDbSpline
210
0.0
220
0.0
230
1.0
 70
     0
 71
     2
 72
     7
 73
     4
 74
     0
 42
0.000001
 43
0.000001
 40
0.0
 40
0.0
 40
0.0
 40
1.0
 40
2.0
 40
2.0
 40
2.0
 10
9.9054409307202604
 20
1.3530752224918698
 30
0.0
 10
9.9054409307202604
 20
1.2133411100010005
 30
0.0
 10
9.9247601418232563
 20
0.6643739807095468
 30
0.0
 10
9.9247601418232563
 20
0.5246398682186777
 30
0.0
  0
SPLINE
  5
7E
100
AcDbEntity
  8
NAME
  6
SOLID
 62
     0
100
AcDbSpline
210
0.0
220
0.0
230
1.0
 70
     0
 71
     2
 72
     6
 73
     3
 74
     0
 42
0.000001
 43
0.000001
 40
0.0
 40
0.0
 40
0.0
 40
1.0
 40
1.0
 40
1.0
 10
9.9247601418232563
 20
0.5246398682186777
 30
0.0
 10
9.9247601418232563
 20
0.027027012119335
 30
0.0
 10
9.6874248605960815
 20
0.027027012119335
 30
0.0
  0
SPLINE
  5
7F
100
AcDbEntity
  8
NAME
  6
SOLID
 62
     0
100
AcDbSpline
210
0.0
220
0.0
230
1.0
 70
     0
 71
     2
 72
     6
 73
     3
 74
     0
 42
0.000001
 43
0.000001
 40
0.0
 40
0.0
 40
0.0
 40
1.0
 40
1.0
 40
1.0
 10
9.6874248605960815
 20
0.027027012119335
 30
0.0
 10
9.5737418803185079
 20
0.027027012119335
 30
0.0
 10
9.5029398350299772
 20
0.1030649960492109
 30
0.0
  0
SPLINE
  5
80
100
AcDbEntity
  8
NAME
  6
SOLID
 62
     0
100
AcDbSpline
210
0.0
220
0.0
230
1.0
 70
     0
 71
     2
 72
     6
 73
     3
 74
     0
 42
0.000001
 43
0.000001
 40
0.0
 40
0.0
 40
0.0
 40
1.0
 40
1.0
 40
1.0
 10
9.5029398350299772
 20
0.1030649960492109
 30
0.0
 10
9.4499610183754825
 20
0.1734930457205037
 30
0.0
 10
9.4499610183754825
 20
0.2629948718709785
 30
0.0
  0
SPLINE
  5
81
100
AcDbEntity
  8
NAME
  6
SOLID
 62
     0
100
AcDbSpline
210
0.0
220
0.0
230
1.0
 70
     0
 71
     2
 72
     7
 73
     4
 74
     0
 42
0.000001
 43
0.000001
 40
0.0
 40
0.0
 40
0.0
 40
1.0
 40
2.0
 40
2.0
 40
2.0
 10
9.4499610183754825
 20
0.2629948718709785
 30
0.0
 10
9.4499610183754825
 20
0.3334229215422715
 30
0.0
 10
9.4499610183754825
 20
0.6173790939308765
 30
0.0
 10
9.4499610183754825
 20
0.6878071436021691
 30
0.0
  0
SPLINE
  5
82
100
AcDbEntity
  8
NAME
  6
SOLID
 62
     0
100
AcDbSpline
210
0.0
220
0.0
230
1.0
 70
     0
 71
     2
 72
     7
 73
     4
 74
     0
 42
0.000001
 43
0.000001
 40
0.0
 40
0.0
 40
0.0
 40
1.0
 40
2.0
 40
2.0
 40
2.0
 10
9.4499610183754825
 20
0.6878071436021691
 30
0.0
 10
9.4499610183754825
 20
0.7795529434560773
 30
0.0
 10
9.4499610183754825
 20
1.1976332940769687
 30
0.0
 10
9.4499610183754825
 20
1.2893790939308767
 30
0.0
  0
SPLINE
  5
83
100
AcDbEntity
  8
NAME
  6
SOLID
 62
     0
100
AcDbSpline
210
0.0
220
0.0
230
1.0
 70
     0
 71
     2
 72
     7
 73
     4
 74
     0
 42
0.000001
 43
0.000001
 40
0.0
 40
0.0
 40
0.0
 40
1.0
 40
2.0
 40
2.0
 40
2.0
 10
9.4499610183754825
 20
1.2893790939308767
 30
0.0
 10
9.4499610183754825
 20
1.3985741268015852
 30
0.0
 10
9.4325117853586846
 20
1.8368502407533747
 30
0.0
 10
9.4325117853586846
 20
1.9456712780068441
 30
0.0
  0
SPLINE
  5
84
100
AcDbEntity
  8
NAME
  6
SOLID
 62
     0
100
AcDbSpline
210
0.0
220
0.0
230
1.0
 70
     0
 71
     2
 72
     7
 73
     4
 74
     0
 42
0.000001
 43
0.000001
 40
0.0
 40
0.0
 40
0.0
 40
1.0
 40
2.0
 40
2.0
 40
2.0
 10
9.4325117853586846
 20
1.9456712780068441
 30
0.0
 10
9.4325117853586846
 20
2.0511263547051648
 30
0.0
 10
9.4134380088795027
 20
2.458863389036793
 30
0.0
 10
9.4134380088795027
 20
2.5643184657351137
 30
0.0
  0
SPLINE
  5
85
100
AcDbEntity
  8
NAME
  6
SOLID
 62
     0
100
AcDbSpline
210
0.0
220
0.0
230
1.0
 70
     0
 71
     2
 72
     7
 73
     4
 74
     0
 42
0.000001
 43
0.000001
 40
0.0
 40
0.0
 40
0.0
 40
1.0
 40
2.0
 40
2.0
 40
2.0
 10
9.4134380088795027
 20
2.5643184657351137
 30
0.0
 10
9.4134380088795027
 20
2.6701475380506725
 30
0.0
 10
9.578229827725373
 20
2.8392987433099854
 30
0.0
 10
9.6892948386822795
 20
2.8392987433099854
 30
0.0
  0
SPLINE
  5
86
100
AcDbEntity
  8
NAME
  6
SOLID
 62
     0
100
AcDbSpline
210
0.0
220
0.0
230
1.0
 70
     0
 71
     2
 72
     6
 73
     3
 74
     0
 42
0.000001
 43
0.000001
 40
0.0
 40
0.0
 40
0.0
 40
1.0
 40
1.0
 40
1.0
 10
9.6892948386822795
 20
2.8392987433099854
 30
0.0
 10
9.8215490388283726
 20
2.8392987433099854
 30
0.0
 10
9.9717550286019261
 20
2.6068254051069175
 30
0.0
  0
SPLINE
  5
87
100
AcDbEntity
  8
NAME
  6
SOLID
 62
     0
100
AcDbSpline
210
0.0
220
0.0
230
1.0
 70
     0
 71
     2
 72
     6
 73
     3
 74
     0
 42
0.000001
 43
0.000001
 40
0.0
 40
0.0
 40
0.0
 40
1.0
 40
1.0
 40
1.0
 10
9.9717550286019261
 20
2.6068254051069175
 30
0.0
 10
10.740234210486513
 20
1.4984192692413223
 30
0.0
 10
11.495249550150504
 20
0.7981241633245944
 30
0.0
  0
SPLINE
  5
88
100
AcDbEntity
  8
NAME
  6
SOLID
 62
     0
100
AcDbSpline
210
0.0
220
0.0
230
1.0
 70
     0
 71
     2
 72
     6
 73
     3
 74
     0
 42
0.000001
 43
0.000001
 40
0.0
 40
0.0
 40
0.0
 40
1.0
 40
1.0
 40
1.0
 10
11.495249550150504
 20
0.7981241633245944
 30
0.0
 10
11.496371537002219
 20
0.8469890281894592
 30
0.0
 10
11.496371537002219
 20
1.0593951640550547
 30
0.0
  0
SPLINE
  5
89
100
AcDbEntity
  8
NAME
  6
SOLID
 62
     0
100
AcDbSpline
210
0.0
220
0.0
230
1.0
 70
     0
 71
     2
 72
     6
 73
     3
 74
     0
 42
0.000001
 43
0.000001
 40
0.0
 40
0.0
 40
0.0
 40
1.0
 40
1.0
 40
1.0
 10
11.496371537002219
 20
1.0593951640550547
 30
0.0
 10
11.496371537002219
 20
1.9106442509798169
 30
0.0
 10
11.475930339047508
 20
2.2199035643472387
 30
0.0
  0
SPLINE
  5
8A
100
AcDbEntity
  8
NAME
  6
SOLID
 62
     0
100
AcDbSpline
210
0.0
220
0.0
230
1.0
 70
     0
 71
     2
 72
     6
 73
     3
 74
     0
 42
0.000001
 43
0.000001
 40
0.0
 40
0.0
 40
0.0
 40
1.0
 40
1.0
 40
1.0
 10
11.475930339047508
 20
2.2199035643472387
 30
0.0
 10
11.474434356578552
 20
2.265402468656954
 30
0.0
 10
11.466206452999298
 20
2.405884572382301
 30
0.0
  0
SPLINE
  5
8B
100
AcDbEntity
  8
NAME
  6
SOLID
 62
     0
100
AcDbSpline
210
0.0
220
0.0
230
1.0
 70
     0
 71
     2
 72
     6
 73
     3
 74
     0
 42
0.000001
 43
0.000001
 40
0.0
 40
0.0
 40
0.0
 40
1.0
 40
1.0
 40
1.0
 10
11.466206452999298
 20
2.405884572382301
 30
0.0
 10
11.458726540654521
 20
2.5233075088322652
 30
0.0
 10
11.458726540654521
 20
2.5941095541207968
 30
0.0
  0
SPLINE
  5
8C
100
AcDbEntity
  8
NAME
  6
SOLID
 62
     0
100
AcDbSpline
210
0.0
220
0.0
230
1.0
 70
     0
 71
     2
 72
     6
 73
     3
 74
     0
 42
0.000001
 43
0.000001
 40
0.0
 40
0.0
 40
0.0
 40
1.0
 40
1.0
 40
1.0
 10
11.458726540654521
 20
2.5941095541207968
 30
0.0
 10
11.458726540654521
 20
2.8392987433099854
 30
0.0
 10
11.693572413554449
 20
2.8392987433099854
 30
0.0
  0
SPLINE
  5
8D
100
AcDbEntity
  8
NAME
  6
SOLID
 62
     0
100
AcDbSpline
210
0.0
220
0.0
230
1.0
 70
     0
 71
     2
 72
     6
 73
     3
 74
     0
 42
0.000001
 43
0.000001
 40
0.0
 40
0.0
 40
0.0
 40
1.0
 40
1.0
 40
1.0
 10
11.693572413554449
 20
2.8392987433099854
 30
0.0
 10
11.972292647301707
 20
2.8392987433099854
 30
0.0
 10
11.972292647301707
 20
1.9657384803443172
 30
0.0
  0
SPLINE
  5
8E
100
AcDbEntity
  8
NAME
  6
SOLID
 62
     0
100
AcDbSpline
210
0.0
220
0.0
230
1.0
 70
     0
 71
     2
 72
     6
 73
     3
 74
     0
 42
0.000001
 43
0.000001
 40
0.0
 40
0.0
 40
0.0
 40
1.0
 40
1.0
 40
1.0
 10
11.972292647301707
 20
1.9657384803443172
 30
0.0
 10
11.972292647301707
 20
1.9404353393655009
 30
0.0
 10
11.970048673598274
 20
1.6855222641281005
 30
0.0
  0
SPLINE
  5
8F
100
AcDbEntity
  8
NAME
  6
SOLID
 62
     0
100
AcDbSpline
210
0.0
220
0.0
230
1.0
 70
     0
 71
     2
 72
     6
 73
     3
 74
     0
 42
0.000001
 43
0.000001
 40
0.0
 40
0.0
 40
0.0
 40
1.0
 40
1.0
 40
1.0
 10
11.970048673598274
 20
1.6855222641281005
 30
0.0
 10
11.950729462495282
 20
0.8063520669038493
 30
0.0
 10
11.950729462495282
 20
0.5898319792486264
 30
0.0
  0
LINE
  5
90
100
AcDbEntity
  8
NAME
  6
SOLID
 62
     0
100
AcDbLine
 10
0.0
 20
0.0
 30
0.0
 11
11.99932
 21
0.0
 31
0.0
  0
LINE
  5
91
100
AcDbEntity
  8
NAME
  6
SOLID
 62
     0
100
AcDbLine
 10
0.0
 20
2.866326
 30
0.0
 11
11.99932
 21
2.866326
 31
0.0
  0
LINE
  5
92
100
AcDbEntity
  8
NAME
  6
SOLID
 62
     0
100
AcDbLine
 10
0.0
 20
0.0
 30
0.0
 11
0.0
 21
2.866326
 31
0.0
  0
LINE
  5
93
100
AcDbEntity
  8
NAME
  6
SOLID
 62
     0
100
AcDbLine
 10
11.99932
 20
0.0
 30
0.0
 11
11.99932
 21
2.866326
 31
0.0
  0
LINE
  5
94
100
AcDbEntity
  8
NAME
  6
SOLID
 62
     0
100
AcDbLine
 10
1.468254
 20
1.305332
 30
0.0
 11
1.573335
 21
0.903579
 31
0.0
  0
LINE
  5
95
100
AcDbEntity
  8
NAME
  6
SOLID
 62
     0
100
AcDbLine
 10
1.317944
 20
1.287228
 30
0.0
 11
1.425288
 21
0.876819
 31
0.0
  0
LINE
  5
96
100
AcDbEntity
  8
NAME
  6
SOLID
 62
     0
100
AcDbLine
 10
8.380233
 20
1.305332
 30
0.0
 11
8.485312
 21
0.903579
 31
0.0
  0
LINE
  5
97
100
AcDbEntity
  8
NAME
  6
SOLID
 62
     0
100
AcDbLine
 10
8.229922
 20
1.287228
 30
0.0
 11
8.337266
 21
0.876819
 31
0.0
  0
ENDSEC
  0
SECTION
  2
OBJECTS
  0
DICTIONARY
  5
19
100
AcDbDictionary
  3
ACAD_GROUP
350
1A
  3
ACAD_MLINESTYLE
350
1B
  0
DICTIONARY
  5
1A
102
{ACAD_REACTORS
330
19
102
}
100
AcDbDictionary
  0
DICTIONARY
  5
1B
102
{ACAD_REACTORS
330
19
102
}
100
AcDbDictionary
  3
STANDARD
350
1C
  0
MLINESTYLE
  5
1C
102
{ACAD_REACTORS
330
1B
102
}
100
AcDbMlineStyle
  2
STANDARD
 70
     0
  3

 62
     0
 51
90.0
 52
90.0
 71
     2
 49
0.5
 62
   256
  6
BYLAYER
 49
-0.5
 62
   256
  6
BYLAYER
  0
ENDSEC
  0
EOF
