  0
SECTION
  2
HEADER
  9
$ACADVER
  1
AC1015
  9
$ACADMAINTVER
 70
     6
  9
$DWGCODEPAGE
  3
ANSI_1252
  9
$INSBASE
 10
0.0
 20
0.0
 30
0.0
  9
$EXTMIN
 10
1.000000000000000E+20
 20
1.000000000000000E+20
 30
1.000000000000000E+20
  9
$EXTMAX
 10
-1.000000000000000E+20
 20
-1.000000000000000E+20
 30
-1.000000000000000E+20
  9
$LIMMIN
 10
0.0
 20
0.0
  9
$LIMMAX
 10
12.0
 20
9.0
  9
$ORTHOMODE
 70
     0
  9
$REGENMODE
 70
     1
  9
$FILLMODE
 70
     1
  9
$QTEXTMODE
 70
     0
  9
$MIRRTEXT
 70
     1
  9
$LTSCALE
 40
1.0
  9
$ATTMODE
 70
     1
  9
$TEXTSIZE
 40
0.2
  9
$TRACEWID
 40
0.05
  9
$TEXTSTYLE
  7
Standard
  9
$CLAYER
  8
0
  9
$CELTYPE
  6
ByLayer
  9
$CECOLOR
 62
   256
  9
$CELTSCALE
 40
1.0
  9
$DISPSILH
 70
     0
  9
$DIMSCALE
 40
1.0
  9
$DIMASZ
 40
0.18
  9
$DIMEXO
 40
0.0625
  9
$DIMDLI
 40
0.38
  9
$DIMRND
 40
0.0
  9
$DIMDLE
 40
0.0
  9
$DIMEXE
 40
0.18
  9
$DIMTP
 40
0.0
  9
$DIMTM
 40
0.0
  9
$DIMTXT
 40
0.18
  9
$DIMCEN
 40
0.09
  9
$DIMTSZ
 40
0.0
  9
$DIMTOL
 70
     0
  9
$DIMLIM
 70
     0
  9
$DIMTIH
 70
     1
  9
$DIMTOH
 70
     1
  9
$DIMSE1
 70
     0
  9
$DIMSE2
 70
     0
  9
$DIMTAD
 70
     0
  9
$DIMZIN
 70
     0
  9
$DIMBLK
  1

  9
$DIMASO
 70
     1
  9
$DIMSHO
 70
     1
  9
$DIMPOST
  1

  9
$DIMAPOST
  1

  9
$DIMALT
 70
     0
  9
$DIMALTD
 70
     2
  9
$DIMALTF
 40
25.4
  9
$DIMLFAC
 40
1.0
  9
$DIMTOFL
 70
     0
  9
$DIMTVP
 40
0.0
  9
$DIMTIX
 70
     0
  9
$DIMSOXD
 70
     0
  9
$DIMSAH
 70
     0
  9
$DIMBLK1
  1

  9
$DIMBLK2
  1

  9
$DIMSTYLE
  2
Standard
  9
$DIMCLRD
 70
     0
  9
$DIMCLRE
 70
     0
  9
$DIMCLRT
 70
     0
  9
$DIMTFAC
 40
1.0
  9
$DIMGAP
 40
0.09
  9
$DIMJUST
 70
     0
  9
$DIMSD1
 70
     0
  9
$DIMSD2
 70
     0
  9
$DIMTOLJ
 70
     1
  9
$DIMTZIN
 70
     0
  9
$DIMALTZ
 70
     0
  9
$DIMALTTZ
 70
     0
  9
$DIMUPT
 70
     0
  9
$DIMDEC
 70
     4
  9
$DIMTDEC
 70
     4
  9
$DIMALTU
 70
     2
  9
$DIMALTTD
 70
     2
  9
$DIMTXSTY
  7
Standard
  9
$DIMAUNIT
 70
     0
  9
$DIMADEC
 70
     0
  9
$DIMALTRND
 40
0.0
  9
$DIMAZIN
 70
     0
  9
$DIMDSEP
 70
    46
  9
$DIMATFIT
 70
     3
  9
$DIMFRAC
 70
     0
  9
$DIMLDRBLK
  1

  9
$DIMLUNIT
 70
     2
  9
$DIMLWD
 70
    -2
  9
$DIMLWE
 70
    -2
  9
$DIMTMOVE
 70
     0
  9
$LUNITS
 70
     2
  9
$LUPREC
 70
     4
  9
$SKETCHINC
 40
0.1
  9
$FILLETRAD
 40
0.5
  9
$AUNITS
 70
     0
  9
$AUPREC
 70
     0
  9
$MENU
  1
.
  9
$ELEVATION
 40
0.0
  9
$PELEVATION
 40
0.0
  9
$THICKNESS
 40
0.0
  9
$LIMCHECK
 70
     0
  9
$CHAMFERA
 40
0.5
  9
$CHAMFERB
 40
0.5
  9
$CHAMFERC
 40
1.0
  9
$CHAMFERD
 40
0.0
  9
$SKPOLY
 70
     0
  9
$TDCREATE
 40
2458449.494323924
  9
$TDUCREATE
 40
2458449.702657257
  9
$TDUPDATE
 40
2458449.494323935
  9
$TDUUPDATE
 40
2458449.702657268
  9
$TDINDWG
 40
0.0000000116
  9
$TDUSRTIMER
 40
0.0000000116
  9
$USRTIMER
 70
     1
  9
$ANGBASE
 50
0.0
  9
$ANGDIR
 70
     0
  9
$PDMODE
 70
     0
  9
$PDSIZE
 40
0.0
  9
$PLINEWID
 40
0.0
  9
$SPLFRAME
 70
     0
  9
$SPLINETYPE
 70
     6
  9
$SPLINESEGS
 70
     8
  9
$HANDSEED
  5
6A
  9
$SURFTAB1
 70
     6
  9
$SURFTAB2
 70
     6
  9
$SURFTYPE
 70
     6
  9
$SURFU
 70
     6
  9
$SURFV
 70
     6
  9
$UCSBASE
  2

  9
$UCSNAME
  2

  9
$UCSORG
 10
0.0
 20
0.0
 30
0.0
  9
$UCSXDIR
 10
1.0
 20
0.0
 30
0.0
  9
$UCSYDIR
 10
0.0
 20
1.0
 30
0.0
  9
$UCSORTHOREF
  2

  9
$UCSORTHOVIEW
 70
     0
  9
$UCSORGTOP
 10
0.0
 20
0.0
 30
0.0
  9
$UCSORGBOTTOM
 10
0.0
 20
0.0
 30
0.0
  9
$UCSORGLEFT
 10
0.0
 20
0.0
 30
0.0
  9
$UCSORGRIGHT
 10
0.0
 20
0.0
 30
0.0
  9
$UCSORGFRONT
 10
0.0
 20
0.0
 30
0.0
  9
$UCSORGBACK
 10
0.0
 20
0.0
 30
0.0
  9
$PUCSBASE
  2

  9
$PUCSNAME
  2

  9
$PUCSORG
 10
0.0
 20
0.0
 30
0.0
  9
$PUCSXDIR
 10
1.0
 20
0.0
 30
0.0
  9
$PUCSYDIR
 10
0.0
 20
1.0
 30
0.0
  9
$PUCSORTHOREF
  2

  9
$PUCSORTHOVIEW
 70
     0
  9
$PUCSORGTOP
 10
0.0
 20
0.0
 30
0.0
  9
$PUCSORGBOTTOM
 10
0.0
 20
0.0
 30
0.0
  9
$PUCSORGLEFT
 10
0.0
 20
0.0
 30
0.0
  9
$PUCSORGRIGHT
 10
0.0
 20
0.0
 30
0.0
  9
$PUCSORGFRONT
 10
0.0
 20
0.0
 30
0.0
  9
$PUCSORGBACK
 10
0.0
 20
0.0
 30
0.0
  9
$USERI1
 70
     0
  9
$USERI2
 70
     0
  9
$USERI3
 70
     0
  9
$USERI4
 70
     0
  9
$USERI5
 70
     0
  9
$USERR1
 40
0.0
  9
$USERR2
 40
0.0
  9
$USERR3
 40
0.0
  9
$USERR4
 40
0.0
  9
$USERR5
 40
0.0
  9
$WORLDVIEW
 70
     1
  9
$SHADEDGE
 70
     3
  9
$SHADEDIF
 70
    70
  9
$TILEMODE
 70
     1
  9
$MAXACTVP
 70
    64
  9
$PINSBASE
 10
0.0
 20
0.0
 30
0.0
  9
$PLIMCHECK
 70
     0
  9
$PEXTMIN
 10
1.000000000000000E+20
 20
1.000000000000000E+20
 30
1.000000000000000E+20
  9
$PEXTMAX
 10
-1.000000000000000E+20
 20
-1.000000000000000E+20
 30
-1.000000000000000E+20
  9
$PLIMMIN
 10
0.0
 20
0.0
  9
$PLIMMAX
 10
12.0
 20
9.0
  9
$UNITMODE
 70
     0
  9
$VISRETAIN
 70
     1
  9
$PLINEGEN
 70
     0
  9
$PSLTSCALE
 70
     1
  9
$TREEDEPTH
 70
  3020
  9
$CMLSTYLE
  2
Standard
  9
$CMLJUST
 70
     0
  9
$CMLSCALE
 40
1.0
  9
$PROXYGRAPHICS
 70
     1
  9
$MEASUREMENT
 70
     0
  9
$CELWEIGHT
370
    -1
  9
$ENDCAPS
280
     0
  9
$JOINSTYLE
280
     0
  9
$LWDISPLAY
290
     1
  9
$INSUNITS
 70
     1
  9
$HYPERLINKBASE
  1

  9
$STYLESHEET
  1

  9
$XEDIT
290
     1
  9
$CEPSNTYPE
380
     0
  9
$PSTYLEMODE
290
     1
  9
$FINGERPRINTGUID
  2
{F933B645-7672-47E1-A766-B9BF9A661679}
  9
$VERSIONGUID
  2
{FAEB1C32-E019-11D5-929B-00C0DF256EC4}
  9
$EXTNAMES
290
     1
  9
$PSVPSCALE
 40
0.0
  9
$OLESTARTUP
290
     0
  0
ENDSEC
  0
SECTION
  2
CLASSES
  0
CLASS
  1
ACDBDICTIONARYWDFLT
  2
AcDbDictionaryWithDefault
  3
ObjectDBX Classes
 90
        0
280
     0
281
     0
  0
CLASS
  1
VISUALSTYLE
  2
AcDbVisualStyle
  3
ObjectDBX Classes
 90
     4095
280
     0
281
     0
  0
CLASS
  1
ACDBPLACEHOLDER
  2
AcDbPlaceHolder
  3
ObjectDBX Classes
 90
        0
280
     0
281
     0
  0
CLASS
  1
LAYOUT
  2
AcDbLayout
  3
ObjectDBX Classes
 90
        0
280
     0
281
     0
  0
ENDSEC
  0
SECTION
  2
TABLES
  0
TABLE
  2
VPORT
  5
8
330
0
100
AcDbSymbolTable
 70
     1
  0
VPORT
  5
29
330
8
100
AcDbSymbolTableRecord
100
AcDbViewportTableRecord
  2
*Active
 70
     0
 10
0.0
 20
0.0
 11
1.0
 21
1.0
 12
0.0
 22
0.0
 13
0.0
 23
0.0
 14
0.5
 24
0.5
 15
0.5
 25
0.5
 16
0.0
 26
0.0
 36
1.0
 17
500.0
 27
-500.0
 37
0.0
 40
1000.0
 41
1.0
 42
50.0
 43
0.0
 44
0.0
 50
0.0
 51
0.0
 71
     0
 72
   100
 73
     1
 74
     3
 75
     0
 76
     0
 77
     0
 78
     0
281
     0
 65
     1
110
0.0
120
0.0
130
0.0
111
1.0
121
0.0
131
0.0
112
0.0
122
1.0
132
0.0
 79
     0
146
0.0
  0
ENDTAB
  0
TABLE
  2
LTYPE
  5
5
330
0
100
AcDbSymbolTable
 70
     1
  0
LTYPE
  5
14
330
5
100
AcDbSymbolTableRecord
100
AcDbLinetypeTableRecord
  2
ByBlock
 70
     0
  3

 72
    65
 73
     0
 40
0.0
  0
LTYPE
  5
15
330
5
100
AcDbSymbolTableRecord
100
AcDbLinetypeTableRecord
  2
ByLayer
 70
     0
  3

 72
    65
 73
     0
 40
0.0
  0
LTYPE
  5
16
330
5
100
AcDbSymbolTableRecord
100
AcDbLinetypeTableRecord
  2
Continuous
 70
     0
  3
Solid line
 72
    65
 73
     0
 40
0.0
  0
ENDTAB
  0
TABLE
  2
LAYER
  5
2
330
0
100
AcDbSymbolTable
 70
     2
  0
LAYER
  5
10
330
2
100
AcDbSymbolTableRecord
100
AcDbLayerTableRecord
  2
0
 70
     0
 62
     7
  6
Continuous
370
    -3
390
F
  0
LAYER
  5
3B
330
2
100
AcDbSymbolTableRecord
100
AcDbLayerTableRecord
  2
Layer 1
 70
     0
 62
     7
  6
Continuous
370
    -3
390
F
  0
ENDTAB
  0
TABLE
  2
STYLE
  5
3
330
0
100
AcDbSymbolTable
 70
     1
  0
STYLE
  5
11
330
3
100
AcDbSymbolTableRecord
100
AcDbTextStyleTableRecord
  2
Standard
 70
     0
 40
0.0
 41
1.0
 50
0.0
 71
     0
 42
0.2
  3
txt
  4

  0
ENDTAB
  0
TABLE
  2
VIEW
  5
6
330
0
100
AcDbSymbolTable
 70
     0
  0
ENDTAB
  0
TABLE
  2
UCS
  5
7
330
0
100
AcDbSymbolTable
 70
     0
  0
ENDTAB
  0
TABLE
  2
APPID
  5
9
330
0
100
AcDbSymbolTable
 70
     1
  0
APPID
  5
12
330
9
100
AcDbSymbolTableRecord
100
AcDbRegAppTableRecord
  2
ACAD
 70
     0
  0
ENDTAB
  0
TABLE
  2
DIMSTYLE
  5
A
330
0
100
AcDbSymbolTable
 70
     1
100
AcDbDimStyleTable
  0
DIMSTYLE
105
27
330
A
100
AcDbSymbolTableRecord
100
AcDbDimStyleTableRecord
  2
Standard
 70
     0
340
11
  0
ENDTAB
  0
TABLE
  2
BLOCK_RECORD
  5
1
330
0
100
AcDbSymbolTable
 70
     2
  0
BLOCK_RECORD
  5
1F
330
1
100
AcDbSymbolTableRecord
100
AcDbBlockTableRecord
  2
*Model_Space
340
22
  0
BLOCK_RECORD
  5
1B
330
1
100
AcDbSymbolTableRecord
100
AcDbBlockTableRecord
  2
*Paper_Space
340
1E
  0
BLOCK_RECORD
  5
23
330
1
100
AcDbSymbolTableRecord
100
AcDbBlockTableRecord
  2
*Paper_Space0
340
26
  0
BLOCK_RECORD
  5
3C
330
1
100
AcDbSymbolTableRecord
100
AcDbBlockTableRecord
  2
block 2
340
0
102
{BLKREFS
331
3D
102
}
  0
ENDTAB
  0
ENDSEC
  0
SECTION
  2
BLOCKS
  0
BLOCK
  5
20
330
1F
100
AcDbEntity
  8
0
100
AcDbBlockBegin
  2
*Model_Space
 70
     0
 71
     0
 10
0.0
 20
0.0
 30
0.0
  3
*Model_Space
  1

  0
ENDBLK
  5
21
330
1F
100
AcDbEntity
  8
0
100
AcDbBlockEnd
  0
BLOCK
  5
1C
330
1B
100
AcDbEntity
 67
     1
  8
0
100
AcDbBlockBegin
  2
*Paper_Space
 70
     0
 71
     0
 10
0.0
 20
0.0
 30
0.0
  3
*Paper_Space
  1

  0
ENDBLK
  5
1D
330
1B
100
AcDbEntity
 67
     1
  8
0
100
AcDbBlockEnd
  0
BLOCK
  5
24
330
23
100
AcDbEntity
  8
0
100
AcDbBlockBegin
  2
*Paper_Space0
 70
     0
 71
     0
 10
0.0
 20
0.0
 30
0.0
  3
*Paper_Space0
  1

  0
ENDBLK
  5
25
330
23
100
AcDbEntity
  8
0
100
AcDbBlockEnd
  0
BLOCK
  5
3E
330
3C
100
AcDbEntity
  8
0
100
AcDbBlockBegin
  2
block 2
 70
     0
 71
     0
 10
0.0
 20
0.0
 30
0.0
  3
block 2
  1

  0
SPLINE
  5
40
330
3C
100
AcDbEntity
  8
Layer 1
370
     0
100
AcDbSpline
210
0.0
220
0.0
230
1.0
 70
    11
 71
     3
 72
    26
 73
    22
 74
     0
 42
0.0000000001
 43
0.0000000001
 40
0.0
 40
0.0
 40
0.0
 40
0.0
 40
1.0
 40
1.0
 40
1.0
 40
2.0
 40
2.0
 40
2.0
 40
3.0
 40
3.0
 40
3.0
 40
4.0
 40
4.0
 40
4.0
 40
5.0
 40
5.0
 40
5.0
 40
6.0
 40
6.0
 40
6.0
 40
7.0
 40
7.0
 40
7.0
 40
7.0
 10
612.03125
 20
-709.6064453125
 30
0.0
 10
609.642578125
 20
-710.8134765625
 30
0.0
 10
607.220703125
 20
-712.03515625
 30
0.0
 10
604.7734375
 20
-713.2724609375
 30
0.0
 10
610.7568359375
 20
-728.0205078125
 30
0.0
 10
617.4521484375
 20
-739.58203125
 30
0.0
 10
625.193359375
 20
-748.5576171875
 30
0.0
 10
636.166015625
 20
-761.28125
 30
0.0
 10
649.201171875
 20
-770.8740234375
 30
0.0
 10
663.4697265625
 20
-777.0185546875
 30
0.0
 10
674.1767578125
 20
-756.3251953125
 30
0.0
 10
679.5712890625
 20
-734.3193359375
 30
0.0
 10
679.5712890625
 20
-710.962890625
 30
0.0
 10
679.5712890625
 20
-700.7666015625
 30
0.0
 10
678.6826171875
 20
-690.9970703125
 30
0.0
 10
676.9208984375
 20
-681.6396484375
 30
0.0
 10
664.1220703125
 20
-685.482421875
 30
0.0
 10
651.30859375
 20
-690.8427734375
 30
0.0
 10
638.9111328125
 20
-696.4404296875
 30
0.0
 10
630.6708984375
 20
-700.1591796875
 30
0.0
 10
621.6171875
 20
-704.748046875
 30
0.0
 10
612.03125
 20
-709.6064453125
 30
0.0
  0
SPLINE
  5
41
330
3C
100
AcDbEntity
  8
Layer 1
370
     0
100
AcDbSpline
210
0.0
220
0.0
230
1.0
 70
    11
 71
     3
 72
    41
 73
    37
 74
     0
 42
0.0000000001
 43
0.0000000001
 40
0.0
 40
0.0
 40
0.0
 40
0.0
 40
1.0
 40
1.0
 40
1.0
 40
2.0
 40
2.0
 40
2.0
 40
3.0
 40
3.0
 40
3.0
 40
4.0
 40
4.0
 40
4.0
 40
5.0
 40
5.0
 40
5.0
 40
6.0
 40
6.0
 40
6.0
 40
7.0
 40
7.0
 40
7.0
 40
8.0
 40
8.0
 40
8.0
 40
9.0
 40
9.0
 40
9.0
 40
10.0
 40
10.0
 40
10.0
 40
11.0
 40
11.0
 40
11.0
 40
12.0
 40
12.0
 40
12.0
 40
12.0
 10
196.88232421875
 20
-835.119140625
 30
0.0
 10
205.1484375
 20
-833.41015625
 30
0.0
 10
211.2294921875
 20
-826.9990234375
 30
0.0
 10
217.759765625
 20
-819.4189453125
 30
0.0
 10
219.95654296875
 20
-816.869140625
 30
0.0
 10
222.873046875
 20
-815.4677734375
 30
0.0
 10
225.9736328125
 20
-815.4677734375
 30
0.0
 10
229.9736328125
 20
-815.4677734375
 30
0.0
 10
233.89501953125
 20
-817.76953125
 30
0.0
 10
236.19677734375
 20
-821.48828125
 30
0.0
 10
236.421875
 20
-821.84765625
 30
0.0
 10
236.5341796875
 20
-822.23828125
 30
0.0
 10
236.7197265625
 20
-822.609375
 30
0.0
 10
236.7197265625
 20
-822.609375
 30
0.0
 10
236.7197265625
 20
-754.4541015625
 30
0.0
 10
236.7197265625
 20
-754.4541015625
 30
0.0
 10
235.07421875
 20
-755.2001953125
 30
0.0
 10
233.24853515625
 20
-755.634765625
 30
0.0
 10
231.33837890625
 20
-755.634765625
 30
0.0
 10
228.3916015625
 20
-755.634765625
 30
0.0
 10
225.572265625
 20
-754.623046875
 30
0.0
 10
223.3984375
 20
-752.80078125
 30
0.0
 10
206.27685546875
 20
-738.419921875
 30
0.0
 10
209.67724609375
 20
-711.953125
 30
0.0
 10
221.56494140625
 20
-694.3486328125
 30
0.0
 10
221.7412109375
 20
-694.09375
 30
0.0
 10
221.9208984375
 20
-693.8310546875
 30
0.0
 10
222.09716796875
 20
-693.568359375
 30
0.0
 10
193.6171875
 20
-713.3623046875
 30
0.0
 10
175.1875
 20
-740.9765625
 30
0.0
 10
170.2685546875
 20
-772.310546875
 30
0.0
 10
167.14990234375
 20
-792.1865234375
 30
0.0
 10
170.9658203125
 20
-813.1279296875
 30
0.0
 10
180.7431640625
 20
-829.8779296875
 30
0.0
 10
186.359375
 20
-834.5498046875
 30
0.0
 10
191.52490234375
 20
-836.2216796875
 30
0.0
 10
196.88232421875
 20
-835.119140625
 30
0.0
  0
SPLINE
  5
42
330
3C
100
AcDbEntity
  8
Layer 1
370
     0
100
AcDbSpline
210
0.0
220
0.0
230
1.0
 70
    11
 71
     3
 72
    26
 73
    22
 74
     0
 42
0.0000000001
 43
0.0000000001
 40
0.0
 40
0.0
 40
0.0
 40
0.0
 40
1.0
 40
1.0
 40
1.0
 40
2.0
 40
2.0
 40
2.0
 40
3.0
 40
3.0
 40
3.0
 40
4.0
 40
4.0
 40
4.0
 40
5.0
 40
5.0
 40
5.0
 40
6.0
 40
6.0
 40
6.0
 40
7.0
 40
7.0
 40
7.0
 40
7.0
 10
661.0478515625
 20
-473.06591796875
 30
0.0
 10
671.7021484375
 20
-479.431640625
 30
0.0
 10
681.5810546875
 20
-486.70068359375
 30
0.0
 10
690.7919921875
 20
-494.7421875
 30
0.0
 10
690.7919921875
 20
-494.7421875
 30
0.0
 10
695.6953125
 20
-494.7421875
 30
0.0
 10
695.6953125
 20
-494.7421875
 30
0.0
 10
696.0546875
 20
-477.9169921875
 30
0.0
 10
686.75
 20
-457.470703125
 30
0.0
 10
669.71875
 20
-437.87890625
 30
0.0
 10
667.7431640625
 20
-437.51171875
 30
0.0
 10
665.763671875
 20
-437.173828125
 30
0.0
 10
663.77734375
 20
-436.86669921875
 30
0.0
 10
653.669921875
 20
-435.2919921875
 30
0.0
 10
643.4541015625
 20
-433.9501953125
 30
0.0
 10
633.576171875
 20
-432.65283203125
 30
0.0
 10
604.3681640625
 20
-428.81787109375
 30
0.0
 10
574.189453125
 20
-424.81005859375
 30
0.0
 10
544.8173828125
 20
-414.380859375
 30
0.0
 10
596.4248046875
 20
-438.05126953125
 30
0.0
 10
635.1953125
 20
-457.6279296875
 30
0.0
 10
661.0478515625
 20
-473.06591796875
 30
0.0
  0
SPLINE
  5
43
330
3C
100
AcDbEntity
  8
Layer 1
370
     0
100
AcDbSpline
210
0.0
220
0.0
230
1.0
 70
    11
 71
     3
 72
    32
 73
    28
 74
     0
 42
0.0000000001
 43
0.0000000001
 40
0.0
 40
0.0
 40
0.0
 40
0.0
 40
1.0
 40
1.0
 40
1.0
 40
2.0
 40
2.0
 40
2.0
 40
3.0
 40
3.0
 40
3.0
 40
4.0
 40
4.0
 40
4.0
 40
5.0
 40
5.0
 40
5.0
 40
6.0
 40
6.0
 40
6.0
 40
7.0
 40
7.0
 40
7.0
 40
8.0
 40
8.0
 40
8.0
 40
9.0
 40
9.0
 40
9.0
 40
9.0
 10
482.46923828125
 20
-859.3447265625
 30
0.0
 10
497.0
 20
-855.0634765625
 30
0.0
 10
505.982421875
 20
-840.2255859375
 30
0.0
 10
503.830078125
 20
-824.0673828125
 30
0.0
 10
501.75390625
 20
-808.5166015625
 30
0.0
 10
490.72802734375
 20
-792.6962890625
 30
0.0
 10
473.5771484375
 20
-780.669921875
 30
0.0
 10
469.6630859375
 20
-777.92578125
 30
0.0
 10
465.494140625
 20
-775.287109375
 30
0.0
 10
460.87548828125
 20
-772.6328125
 30
0.0
 10
460.87548828125
 20
-772.6328125
 30
0.0
 10
460.57568359375
 20
-772.7373046875
 30
0.0
 10
460.57568359375
 20
-772.7373046875
 30
0.0
 10
445.625
 20
-777.8583984375
 30
0.0
 10
430.51708984375
 20
-780.453125
 30
0.0
 10
415.6826171875
 20
-780.453125
 30
0.0
 10
379.2021484375
 20
-780.453125
 30
0.0
 10
344.3486328125
 20
-764.287109375
 30
0.0
 10
319.849609375
 20
-736.04296875
 30
0.0
 10
313.38671875
 20
-734.521484375
 30
0.0
 10
307.53466796875
 20
-732.6923828125
 30
0.0
 10
302.1474609375
 20
-730.5439453125
 30
0.0
 10
340.0078125
 20
-811.5048828125
 30
0.0
 10
397.701171875
 20
-856.2138671875
 30
0.0
 10
475.216796875
 20
-864.67578125
 30
0.0
 10
476.79150390625
 20
-862.1826171875
 30
0.0
 10
479.28466796875
 20
-860.2822265625
 30
0.0
 10
482.46923828125
 20
-859.3447265625
 30
0.0
  0
SPLINE
  5
44
330
3C
100
AcDbEntity
  8
Layer 1
370
     0
100
AcDbSpline
210
0.0
220
0.0
230
1.0
 70
    11
 71
     3
 72
   209
 73
   205
 74
     0
 42
0.0000000001
 43
0.0000000001
 40
0.0
 40
0.0
 40
0.0
 40
0.0
 40
1.0
 40
1.0
 40
1.0
 40
2.0
 40
2.0
 40
2.0
 40
3.0
 40
3.0
 40
3.0
 40
4.0
 40
4.0
 40
4.0
 40
5.0
 40
5.0
 40
5.0
 40
6.0
 40
6.0
 40
6.0
 40
7.0
 40
7.0
 40
7.0
 40
8.0
 40
8.0
 40
8.0
 40
9.0
 40
9.0
 40
9.0
 40
10.0
 40
10.0
 40
10.0
 40
11.0
 40
11.0
 40
11.0
 40
12.0
 40
12.0
 40
12.0
 40
13.0
 40
13.0
 40
13.0
 40
14.0
 40
14.0
 40
14.0
 40
15.0
 40
15.0
 40
15.0
 40
16.0
 40
16.0
 40
16.0
 40
17.0
 40
17.0
 40
17.0
 40
18.0
 40
18.0
 40
18.0
 40
19.0
 40
19.0
 40
19.0
 40
20.0
 40
20.0
 40
20.0
 40
21.0
 40
21.0
 40
21.0
 40
22.0
 40
22.0
 40
22.0
 40
23.0
 40
23.0
 40
23.0
 40
24.0
 40
24.0
 40
24.0
 40
25.0
 40
25.0
 40
25.0
 40
26.0
 40
26.0
 40
26.0
 40
27.0
 40
27.0
 40
27.0
 40
28.0
 40
28.0
 40
28.0
 40
29.0
 40
29.0
 40
29.0
 40
30.0
 40
30.0
 40
30.0
 40
31.0
 40
31.0
 40
31.0
 40
32.0
 40
32.0
 40
32.0
 40
33.0
 40
33.0
 40
33.0
 40
34.0
 40
34.0
 40
34.0
 40
35.0
 40
35.0
 40
35.0
 40
36.0
 40
36.0
 40
36.0
 40
37.0
 40
37.0
 40
37.0
 40
38.0
 40
38.0
 40
38.0
 40
39.0
 40
39.0
 40
39.0
 40
40.0
 40
40.0
 40
40.0
 40
41.0
 40
41.0
 40
41.0
 40
42.0
 40
42.0
 40
42.0
 40
43.0
 40
43.0
 40
43.0
 40
44.0
 40
44.0
 40
44.0
 40
45.0
 40
45.0
 40
45.0
 40
46.0
 40
46.0
 40
46.0
 40
47.0
 40
47.0
 40
47.0
 40
48.0
 40
48.0
 40
48.0
 40
49.0
 40
49.0
 40
49.0
 40
50.0
 40
50.0
 40
50.0
 40
51.0
 40
51.0
 40
51.0
 40
52.0
 40
52.0
 40
52.0
 40
53.0
 40
53.0
 40
53.0
 40
54.0
 40
54.0
 40
54.0
 40
55.0
 40
55.0
 40
55.0
 40
56.0
 40
56.0
 40
56.0
 40
57.0
 40
57.0
 40
57.0
 40
58.0
 40
58.0
 40
58.0
 40
59.0
 40
59.0
 40
59.0
 40
60.0
 40
60.0
 40
60.0
 40
61.0
 40
61.0
 40
61.0
 40
62.0
 40
62.0
 40
62.0
 40
63.0
 40
63.0
 40
63.0
 40
64.0
 40
64.0
 40
64.0
 40
65.0
 40
65.0
 40
65.0
 40
66.0
 40
66.0
 40
66.0
 40
67.0
 40
67.0
 40
67.0
 40
68.0
 40
68.0
 40
68.0
 40
68.0
 10
362.576171875
 20
-312.2158203125
 30
0.0
 10
390.015625
 20
-338.09814453125
 30
0.0
 10
439.619140625
 20
-367.11474609375
 30
0.0
 10
511.369140625
 20
-399.2578125
 30
0.0
 10
512.583984375
 20
-399.80126953125
 30
0.0
 10
513.75390625
 20
-400.326171875
 30
0.0
 10
514.95703125
 20
-400.8662109375
 30
0.0
 10
515.0244140625
 20
-400.82470703125
 30
0.0
 10
515.0849609375
 20
-400.77978515625
 30
0.0
 10
515.15234375
 20
-400.7421875
 30
0.0
 10
503.9619140625
 20
-394.0693359375
 30
0.0
 10
494.75048828125
 20
-386.37646484375
 30
0.0
 10
487.70654296875
 20
-377.81396484375
 30
0.0
 10
486.48046875
 20
-377.154296875
 30
0.0
 10
485.2734375
 20
-376.44189453125
 30
0.0
 10
484.06640625
 20
-375.72216796875
 30
0.0
 10
482.33447265625
 20
-374.70263671875
 30
0.0
 10
480.6962890625
 20
-373.7275390625
 30
0.0
 10
479.02783203125
 20
-372.92578125
 30
0.0
 10
474.60400390625
 20
-370.7958984375
 30
0.0
 10
469.99658203125
 20
-370.0986328125
 30
0.0
 10
464.8681640625
 20
-369.46875
 30
0.0
 10
460.009765625
 20
-368.869140625
 30
0.0
 10
456.83447265625
 20
-364.8955078125
 30
0.0
 10
457.1455078125
 20
-359.796875
 30
0.0
 10
457.5205078125
 20
-353.68603515625
 30
0.0
 10
462.8251953125
 20
-349.4873046875
 30
0.0
 10
468.33203125
 20
-351.1669921875
 30
0.0
 10
470.25927734375
 20
-351.75927734375
 30
0.0
 10
472.201171875
 20
-352.44140625
 30
0.0
 10
474.11328125
 20
-353.19140625
 30
0.0
 10
473.4384765625
 20
-351.08447265625
 30
0.0
 10
472.86083984375
 20
-348.947265625
 30
0.0
 10
472.388671875
 20
-346.78076171875
 30
0.0
 10
471.9462890625
 20
-344.77880859375
 30
0.0
 10
471.60107421875
 20
-342.724609375
 30
0.0
 10
471.361328125
 20
-340.66259765625
 30
0.0
 10
470.1201171875
 20
-339.75537109375
 30
0.0
 10
468.90966796875
 20
-338.79541015625
 30
0.0
 10
467.69482421875
 20
-337.8359375
 30
0.0
 10
464.92822265625
 20
-335.646484375
 30
0.0
 10
462.31884765625
 20
-333.5771484375
 30
0.0
 10
459.43994140625
 20
-332.2197265625
 30
0.0
 10
455.826171875
 20
-330.51806640625
 30
0.0
 10
451.9794921875
 20
-329.6259765625
 30
0.0
 10
447.90087890625
 20
-328.68115234375
 30
0.0
 10
444.14453125
 20
-327.8037109375
 30
0.0
 10
440.26416015625
 20
-326.904296875
 30
0.0
 10
436.458984375
 20
-325.30712890625
 30
0.0
 10
432.04296875
 20
-323.455078125
 30
0.0
 10
429.5947265625
 20
-318.37890625
 30
0.0
 10
430.63330078125
 20
-313.2353515625
 30
0.0
 10
431.5927734375
 20
-308.466796875
 30
0.0
 10
435.30810546875
 20
-305.27294921875
 30
0.0
 10
439.8779296875
 20
-305.27294921875
 30
0.0
 10
451.03466796875
 20
-305.6552734375
 30
0.0
 10
460.90576171875
 20
-312.1708984375
 30
0.0
 10
468.29833984375
 20
-317.80908203125
 30
0.0
 10
468.29833984375
 20
-317.80908203125
 30
0.0
 10
469.2919921875
 20
-318.56640625
 30
0.0
 10
469.2919921875
 20
-318.56640625
 30
0.0
 10
470.23291015625
 20
-319.27880859375
 30
0.0
 10
471.21875
 20
-320.0283203125
 30
0.0
 10
472.2158203125
 20
-320.80859375
 30
0.0
 10
476.5087890625
 20
-300.08447265625
 30
0.0
 10
491.1591796875
 20
-283.5517578125
 30
0.0
 10
511.013671875
 20
-277.6962890625
 30
0.0
 10
512.322265625
 20
-277.3134765625
 30
0.0
 10
513.6337890625
 20
-277.11865234375
 30
0.0
 10
514.916015625
 20
-277.11865234375
 30
0.0
 10
522.080078125
 20
-277.11865234375
 30
0.0
 10
526.6728515625
 20
-282.95947265625
 30
0.0
 10
527.5048828125
 20
-288.7255859375
 30
0.0
 10
528.453125
 20
-295.29345703125
 30
0.0
 10
524.8359375
 20
-300.9619140625
 30
0.0
 10
518.5078125
 20
-302.82861328125
 30
0.0
 10
503.9765625
 20
-307.10986328125
 30
0.0
 10
494.994140625
 20
-321.9404296875
 30
0.0
 10
497.15380859375
 20
-338.10546875
 30
0.0
 10
499.22314453125
 20
-353.65625
 30
0.0
 10
510.248046875
 20
-369.4765625
 30
0.0
 10
527.3994140625
 20
-381.5029296875
 30
0.0
 10
531.3134765625
 20
-384.2470703125
 30
0.0
 10
535.482421875
 20
-386.88623046875
 30
0.0
 10
540.1015625
 20
-389.54052734375
 30
0.0
 10
540.1015625
 20
-389.54052734375
 30
0.0
 10
540.3935546875
 20
-389.435546875
 30
0.0
 10
540.3935546875
 20
-389.435546875
 30
0.0
 10
555.3515625
 20
-384.314453125
 30
0.0
 10
570.4560546875
 20
-381.712890625
 30
0.0
 10
585.2900390625
 20
-381.712890625
 30
0.0
 10
621.7744140625
 20
-381.712890625
 30
0.0
 10
656.6279296875
 20
-397.8857421875
 30
0.0
 10
681.126953125
 20
-426.1298828125
 30
0.0
 10
697.5625
 20
-430.005859375
 30
0.0
 10
710.173828125
 20
-435.74951171875
 30
0.0
 10
720.7265625
 20
-444.14697265625
 30
0.0
 10
730.58203125
 20
-451.9970703125
 30
0.0
 10
741.513671875
 20
-465.02099609375
 30
0.0
 10
745.240234375
 20
-479.6787109375
 30
0.0
 10
749.068359375
 20
-476.7548828125
 30
0.0
 10
752.27734375
 20
-473.7255859375
 30
0.0
 10
754.96875
 20
-470.50927734375
 30
0.0
 10
768.7314453125
 20
-454.05908203125
 30
0.0
 10
764.326171875
 20
-440.26318359375
 30
0.0
 10
758.234375
 20
-421.166015625
 30
0.0
 10
757.109375
 20
-417.634765625
 30
0.0
 10
757.6123046875
 20
-414.15576171875
 30
0.0
 10
759.6435546875
 20
-411.3740234375
 30
0.0
 10
761.86328125
 20
-408.34521484375
 30
0.0
 10
765.5966796875
 20
-406.5380859375
 30
0.0
 10
769.6455078125
 20
-406.5380859375
 30
0.0
 10
772.5849609375
 20
-406.5380859375
 30
0.0
 10
775.404296875
 20
-407.54296875
 30
0.0
 10
777.58203125
 20
-409.3720703125
 30
0.0
 10
794.703125
 20
-423.7529296875
 30
0.0
 10
791.302734375
 20
-450.22021484375
 30
0.0
 10
779.412109375
 20
-467.8251953125
 30
0.0
 10
779.2353515625
 20
-468.080078125
 30
0.0
 10
779.0595703125
 20
-468.34228515625
 30
0.0
 10
778.8828125
 20
-468.59716796875
 30
0.0
 10
807.359375
 20
-448.810546875
 30
0.0
 10
825.78515625
 20
-421.1962890625
 30
0.0
 10
830.7080078125
 20
-389.85546875
 30
0.0
 10
833.8271484375
 20
-369.97900390625
 30
0.0
 10
830.0107421875
 20
-349.03759765625
 30
0.0
 10
820.2333984375
 20
-332.294921875
 30
0.0
 10
814.6171875
 20
-327.6240234375
 30
0.0
 10
809.4443359375
 20
-325.9443359375
 30
0.0
 10
804.0986328125
 20
-327.0537109375
 30
0.0
 10
795.8359375
 20
-328.755859375
 30
0.0
 10
789.7509765625
 20
-335.173828125
 30
0.0
 10
783.212890625
 20
-342.75439453125
 30
0.0
 10
781.01953125
 20
-345.2958984375
 30
0.0
 10
778.099609375
 20
-346.70556640625
 30
0.0
 10
774.9990234375
 20
-346.70556640625
 30
0.0
 10
771.0029296875
 20
-346.70556640625
 30
0.0
 10
767.0888671875
 20
-344.396484375
 30
0.0
 10
764.783203125
 20
-340.68505859375
 30
0.0
 10
762.4892578125
 20
-336.99609375
 30
0.0
 10
762.2451171875
 20
-332.71484375
 30
0.0
 10
764.1123046875
 20
-328.943359375
 30
0.0
 10
770.2158203125
 20
-316.609375
 30
0.0
 10
783.83203125
 20
-309.3740234375
 30
0.0
 10
800.0009765625
 20
-309.90673828125
 30
0.0
 10
793.5673828125
 20
-305.31787109375
 30
0.0
 10
786.4111328125
 20
-301.951171875
 30
0.0
 10
778.61328125
 20
-299.859375
 30
0.0
 10
774.1298828125
 20
-298.65234375
 30
0.0
 10
769.447265625
 20
-298.03759765625
 30
0.0
 10
764.705078125
 20
-298.03759765625
 30
0.0
 10
750.5263671875
 20
-298.03759765625
 30
0.0
 10
736.73828125
 20
-303.49609375
 30
0.0
 10
726.87890625
 20
-313.0107421875
 30
0.0
 10
721.513671875
 20
-318.18408203125
 30
0.0
 10
714.7841796875
 20
-326.619140625
 30
0.0
 10
713.1875
 20
-337.4306640625
 30
0.0
 10
712.2724609375
 20
-343.654296875
 30
0.0
 10
713.5478515625
 20
-352.8837890625
 30
0.0
 10
717.7236328125
 20
-357.7197265625
 30
0.0
 10
720.580078125
 20
-361.0263671875
 30
0.0
 10
724.26953125
 20
-361.4990234375
 30
0.0
 10
729.09765625
 20
-359.39208984375
 30
0.0
 10
731.279296875
 20
-358.43212890625
 30
0.0
 10
733.4912109375
 20
-357.9521484375
 30
0.0
 10
735.673828125
 20
-357.9521484375
 30
0.0
 10
741.6533203125
 20
-357.9521484375
 30
0.0
 10
746.9541015625
 20
-361.78369140625
 30
0.0
 10
748.8623046875
 20
-367.48974609375
 30
0.0
 10
750.87109375
 20
-373.4951171875
 30
0.0
 10
748.7197265625
 20
-379.7861328125
 30
0.0
 10
743.25390625
 20
-383.89453125
 30
0.0
 10
737.65234375
 20
-388.1162109375
 30
0.0
 10
731.0546875
 20
-390.3427734375
 30
0.0
 10
724.1796875
 20
-390.3427734375
 30
0.0
 10
707.796875
 20
-390.3427734375
 30
0.0
 10
691.833984375
 20
-377.88134765625
 30
0.0
 10
687.0576171875
 20
-361.3486328125
 30
0.0
 10
680.609375
 20
-339.05029296875
 30
0.0
 10
690.46875
 20
-316.15966796875
 30
0.0
 10
704.34765625
 20
-301.119140625
 30
0.0
 10
704.34765625
 20
-301.119140625
 30
0.0
 10
703.5380859375
 20
-301.06640625
 30
0.0
 10
703.5380859375
 20
-301.06640625
 30
0.0
 10
695.04296875
 20
-300.51171875
 30
0.0
 10
679.6494140625
 20
-299.5068359375
 30
0.0
 10
672.7373046875
 20
-291.63427734375
 30
0.0
 10
672.7373046875
 20
-291.63427734375
 30
0.0
 10
668.984375
 20
-291.63427734375
 30
0.0
 10
668.984375
 20
-291.63427734375
 30
0.0
 10
654.08203125
 20
-230.86474609375
 30
0.0
 10
627.716796875
 20
-183.03662109375
 30
0.0
 10
589.8828125
 20
-148.13427734375
 30
0.0
 10
552.041015625
 20
-113.2392578125
 30
0.0
 10
508.2275390625
 20
-95.7919921875
 30
0.0
 10
458.43896484375
 20
-95.7919921875
 30
0.0
 10
410.99462890625
 20
-95.7919921875
 30
0.0
 10
376.1953125
 20
-108.6357421875
 30
0.0
 10
354.048828125
 20
-134.31591796875
 30
0.0
 10
331.89306640625
 20
-159.99560546875
 30
0.0
 10
320.82080078125
 20
-188.12744140625
 30
0.0
 10
320.82080078125
 20
-218.7109375
 30
0.0
 10
320.82080078125
 20
-255.5625
 30
0.0
 10
334.73291015625
 20
-286.73828125
 30
0.0
 10
362.576171875
 20
-312.2158203125
 30
0.0
  0
SPLINE
  5
45
330
3C
100
AcDbEntity
  8
Layer 1
370
     0
100
AcDbSpline
210
0.0
220
0.0
230
1.0
 70
    11
 71
     3
 72
    38
 73
    34
 74
     0
 42
0.0000000001
 43
0.0000000001
 40
0.0
 40
0.0
 40
0.0
 40
0.0
 40
1.0
 40
1.0
 40
1.0
 40
2.0
 40
2.0
 40
2.0
 40
3.0
 40
3.0
 40
3.0
 40
4.0
 40
4.0
 40
4.0
 40
5.0
 40
5.0
 40
5.0
 40
6.0
 40
6.0
 40
6.0
 40
7.0
 40
7.0
 40
7.0
 40
8.0
 40
8.0
 40
8.0
 40
9.0
 40
9.0
 40
9.0
 40
10.0
 40
10.0
 40
10.0
 40
11.0
 40
11.0
 40
11.0
 40
11.0
 10
219.9189453125
 20
-427.8466796875
 30
0.0
 10
227.54833984375
 20
-406.2080078125
 30
0.0
 10
248.103515625
 20
-390.5
 30
0.0
 10
268.79736328125
 20
-390.5
 30
0.0
 10
271.736328125
 20
-390.5
 30
0.0
 10
274.6904296875
 20
-390.80029296875
 30
0.0
 10
277.5771484375
 20
-391.39990234375
 30
0.0
 10
279.50048828125
 20
-391.79736328125
 30
0.0
 10
281.33349609375
 20
-392.3857421875
 30
0.0
 10
283.1220703125
 20
-393.05712890625
 30
0.0
 10
280.25
 20
-389.0009765625
 30
0.0
 10
277.51904296875
 20
-384.82080078125
 30
0.0
 10
274.90625
 20
-380.54296875
 30
0.0
 10
254.888671875
 20
-386.0693359375
 30
0.0
 10
237.02734375
 20
-398.45556640625
 30
0.0
 10
222.28466796875
 20
-417.22265625
 30
0.0
 10
216.0615234375
 20
-425.14013671875
 30
0.0
 10
210.2392578125
 20
-433.6953125
 30
0.0
 10
204.6083984375
 20
-441.97265625
 30
0.0
 10
192.64990234375
 20
-459.54736328125
 30
0.0
 10
180.2861328125
 20
-477.72216796875
 30
0.0
 10
163.11962890625
 20
-491.337890625
 30
0.0
 10
161.62744140625
 20
-492.51513671875
 30
0.0
 10
160.109375
 20
-493.65478515625
 30
0.0
 10
158.572265625
 20
-494.7421875
 30
0.0
 10
158.572265625
 20
-494.7421875
 30
0.0
 10
239.06103515625
 20
-494.7421875
 30
0.0
 10
239.06103515625
 20
-494.7421875
 30
0.0
 10
238.10888671875
 20
-494.0224609375
 30
0.0
 10
237.17919921875
 20
-493.2802734375
 30
0.0
 10
236.27197265625
 20
-492.5078125
 30
0.0
 10
218.26953125
 20
-477.189453125
 30
0.0
 10
211.69775390625
 20
-451.2021484375
 30
0.0
 10
219.9189453125
 20
-427.8466796875
 30
0.0
  0
SPLINE
  5
46
330
3C
100
AcDbEntity
  8
Layer 1
370
     0
100
AcDbSpline
210
0.0
220
0.0
230
1.0
 70
    11
 71
     3
 72
    20
 73
    16
 74
     0
 42
0.0000000001
 43
0.0000000001
 40
0.0
 40
0.0
 40
0.0
 40
0.0
 40
1.0
 40
1.0
 40
1.0
 40
2.0
 40
2.0
 40
2.0
 40
3.0
 40
3.0
 40
3.0
 40
4.0
 40
4.0
 40
4.0
 40
5.0
 40
5.0
 40
5.0
 40
5.0
 10
408.779296875
 20
-486.966796875
 30
0.0
 10
400.9287109375
 20
-483.07568359375
 30
0.0
 10
393.49658203125
 20
-479.27783203125
 30
0.0
 10
386.4619140625
 20
-475.5703125
 30
0.0
 10
373.6162109375
 20
-482.3896484375
 30
0.0
 10
360.5048828125
 20
-489.1376953125
 30
0.0
 10
346.9501953125
 20
-494.7421875
 30
0.0
 10
346.9501953125
 20
-494.7421875
 30
0.0
 10
411.02294921875
 20
-494.7421875
 30
0.0
 10
411.02294921875
 20
-494.7421875
 30
0.0
 10
411.02294921875
 20
-494.7421875
 30
0.0
 10
410.53173828125
 20
-493.03271484375
 30
0.0
 10
410.53173828125
 20
-493.03271484375
 30
0.0
 10
409.9599609375
 20
-491.0341796875
 30
0.0
 10
409.3623046875
 20
-488.9912109375
 30
0.0
 10
408.779296875
 20
-486.966796875
 30
0.0
  0
SPLINE
  5
47
330
3C
100
AcDbEntity
  8
Layer 1
370
     0
100
AcDbSpline
210
0.0
220
0.0
230
1.0
 70
    11
 71
     3
 72
    20
 73
    16
 74
     0
 42
0.0000000001
 43
0.0000000001
 40
0.0
 40
0.0
 40
0.0
 40
0.0
 40
1.0
 40
1.0
 40
1.0
 40
2.0
 40
2.0
 40
2.0
 40
3.0
 40
3.0
 40
3.0
 40
4.0
 40
4.0
 40
4.0
 40
5.0
 40
5.0
 40
5.0
 40
5.0
 10
440.32421875
 20
-762.3681640625
 30
0.0
 10
418.72314453125
 20
-753.078125
 30
0.0
 10
393.96533203125
 20
-746.578125
 30
0.0
 10
366.56103515625
 20
-743.0087890625
 30
0.0
 10
362.939453125
 20
-742.5361328125
 30
0.0
 10
359.28076171875
 20
-742.1015625
 30
0.0
 10
355.59912109375
 20
-741.6669921875
 30
0.0
 10
353.02001953125
 20
-741.359375
 30
0.0
 10
350.4033203125
 20
-741.0517578125
 30
0.0
 10
347.77880859375
 20
-740.7216796875
 30
0.0
 10
360.2177734375
 20
-751.4208984375
 30
0.0
 10
373.2900390625
 20
-759.271484375
 30
0.0
 10
384.1171875
 20
-762.3828125
 30
0.0
 10
400.31591796875
 20
-767.0322265625
 30
0.0
 10
420.91259765625
 20
-766.9794921875
 30
0.0
 10
440.32421875
 20
-762.3681640625
 30
0.0
  0
SPLINE
  5
48
330
3C
100
AcDbEntity
  8
Layer 1
370
     0
100
AcDbSpline
210
0.0
220
0.0
230
1.0
 70
    11
 71
     3
 72
    20
 73
    16
 74
     0
 42
0.0000000001
 43
0.0000000001
 40
0.0
 40
0.0
 40
0.0
 40
0.0
 40
1.0
 40
1.0
 40
1.0
 40
2.0
 40
2.0
 40
2.0
 40
3.0
 40
3.0
 40
3.0
 40
4.0
 40
4.0
 40
4.0
 40
5.0
 40
5.0
 40
5.0
 40
5.0
 10
645.3701171875
 20
-420.50634765625
 30
0.0
 10
647.94921875
 20
-420.81396484375
 30
0.0
 10
650.56640625
 20
-421.12109375
 30
0.0
 10
653.201171875
 20
-421.451171875
 30
0.0
 10
640.7587890625
 20
-410.751953125
 30
0.0
 10
627.6826171875
 20
-402.9013671875
 30
0.0
 10
616.85546875
 20
-399.7900390625
 30
0.0
 10
600.6572265625
 20
-395.1416015625
 30
0.0
 10
580.064453125
 20
-395.1865234375
 30
0.0
 10
560.6484375
 20
-399.80517578125
 30
0.0
 10
582.24609375
 20
-409.0947265625
 30
0.0
 10
607.0078125
 20
-415.595703125
 30
0.0
 10
634.416015625
 20
-419.1640625
 30
0.0
 10
638.033203125
 20
-419.62890625
 30
0.0
 10
641.6884765625
 20
-420.06396484375
 30
0.0
 10
645.3701171875
 20
-420.50634765625
 30
0.0
  0
SPLINE
  5
49
330
3C
100
AcDbEntity
  8
Layer 1
370
     0
100
AcDbSpline
210
0.0
220
0.0
230
1.0
 70
    11
 71
     3
 72
    47
 73
    43
 74
     0
 42
0.0000000001
 43
0.0000000001
 40
0.0
 40
0.0
 40
0.0
 40
0.0
 40
1.0
 40
1.0
 40
1.0
 40
2.0
 40
2.0
 40
2.0
 40
3.0
 40
3.0
 40
3.0
 40
4.0
 40
4.0
 40
4.0
 40
5.0
 40
5.0
 40
5.0
 40
6.0
 40
6.0
 40
6.0
 40
7.0
 40
7.0
 40
7.0
 40
8.0
 40
8.0
 40
8.0
 40
9.0
 40
9.0
 40
9.0
 40
10.0
 40
10.0
 40
10.0
 40
11.0
 40
11.0
 40
11.0
 40
12.0
 40
12.0
 40
12.0
 40
13.0
 40
13.0
 40
13.0
 40
14.0
 40
14.0
 40
14.0
 40
14.0
 10
365.53564453125
 20
-464.1171875
 30
0.0
 10
358.5400390625
 20
-460.125
 30
0.0
 10
352.056640625
 20
-456.24462890625
 30
0.0
 10
346.10888671875
 20
-452.484375
 30
0.0
 10
331.0849609375
 20
-442.98095703125
 30
0.0
 10
317.658203125
 20
-432.1015625
 30
0.0
 10
305.6865234375
 20
-419.966796875
 30
0.0
 10
307.3583984375
 20
-428.8662109375
 30
0.0
 10
305.71435546875
 20
-438.2236328125
 30
0.0
 10
300.8203125
 20
-446.15625
 30
0.0
 10
298.22998046875
 20
-450.35498046875
 30
0.0
 10
294.30859375
 20
-452.66455078125
 30
0.0
 10
289.77978515625
 20
-452.66455078125
 30
0.0
 10
283.98388671875
 20
-452.66455078125
 30
0.0
 10
278.3046875
 20
-448.7880859375
 30
0.0
 10
275.97265625
 20
-443.23974609375
 30
0.0
 10
273.74609375
 20
-437.9462890625
 30
0.0
 10
274.9755859375
 20
-432.35302734375
 30
0.0
 10
279.3388671875
 20
-427.8916015625
 30
0.0
 10
280.44873046875
 20
-426.759765625
 30
0.0
 10
280.84619140625
 20
-425.544921875
 30
0.0
 10
280.59130859375
 20
-424.0830078125
 30
0.0
 10
280.08154296875
 20
-421.13623046875
 30
0.0
 10
277.14990234375
 20
-418.046875
 30
0.0
 10
274.72802734375
 20
-416.8701171875
 30
0.0
 10
271.41796875
 20
-415.2578125
 30
0.0
 10
267.04638671875
 20
-415.5126953125
 30
0.0
 10
261.126953125
 20
-417.6796875
 30
0.0
 10
253.126953125
 20
-420.5966796875
 30
0.0
 10
246.92626953125
 20
-427.16455078125
 30
0.0
 10
243.66455078125
 20
-436.154296875
 30
0.0
 10
237.583984375
 20
-452.912109375
 30
0.0
 10
244.06201171875
 20
-470.5390625
 30
0.0
 10
259.41748046875
 20
-479.0341796875
 30
0.0
 10
268.07763671875
 20
-483.81787109375
 30
0.0
 10
278.26318359375
 20
-486.2470703125
 30
0.0
 10
289.697265625
 20
-486.2470703125
 30
0.0
 10
313.3603515625
 20
-486.2470703125
 30
0.0
 10
338.462890625
 20
-476.3876953125
 30
0.0
 10
362.06982421875
 20
-465.7255859375
 30
0.0
 10
363.1982421875
 20
-465.2158203125
 30
0.0
 10
364.376953125
 20
-464.6533203125
 30
0.0
 10
365.53564453125
 20
-464.1171875
 30
0.0
  0
SPLINE
  5
4A
330
3C
100
AcDbEntity
  8
Layer 1
370
     0
100
AcDbSpline
210
0.0
220
0.0
230
1.0
 70
    11
 71
     3
 72
    23
 73
    19
 74
     0
 42
0.0000000001
 43
0.0000000001
 40
0.0
 40
0.0
 40
0.0
 40
0.0
 40
1.0
 40
1.0
 40
1.0
 40
2.0
 40
2.0
 40
2.0
 40
3.0
 40
3.0
 40
3.0
 40
4.0
 40
4.0
 40
4.0
 40
5.0
 40
5.0
 40
5.0
 40
6.0
 40
6.0
 40
6.0
 40
6.0
 10
497.232421875
 20
-727.0458984375
 30
0.0
 10
502.2333984375
 20
-719.2412109375
 30
0.0
 10
506.9755859375
 20
-707.57421875
 30
0.0
 10
504.0029296875
 20
-693.703125
 30
0.0
 10
500.99609375
 20
-679.66015625
 30
0.0
 10
488.2724609375
 20
-668.6533203125
 30
0.0
 10
475.03125
 20
-668.6533203125
 30
0.0
 10
470.65283203125
 20
-668.6533203125
 30
0.0
 10
466.427734375
 20
-669.845703125
 30
0.0
 10
462.48046875
 20
-672.2001953125
 30
0.0
 10
456.70703125
 20
-675.6337890625
 30
0.0
 10
453.36669921875
 20
-680.6875
 30
0.0
 10
452.5458984375
 20
-687.2177734375
 30
0.0
 10
451.4248046875
 20
-696.1328125
 30
0.0
 10
455.48486328125
 20
-706.9521484375
 30
0.0
 10
462.64501953125
 20
-714.142578125
 30
0.0
 10
470.517578125
 20
-722.052734375
 30
0.0
 10
482.14697265625
 20
-726.3935546875
 30
0.0
 10
497.232421875
 20
-727.0458984375
 30
0.0
  0
SPLINE
  5
4B
330
3C
100
AcDbEntity
  8
Layer 1
370
     0
100
AcDbSpline
210
0.0
220
0.0
230
1.0
 70
    11
 71
     3
 72
    80
 73
    76
 74
     0
 42
0.0000000001
 43
0.0000000001
 40
0.0
 40
0.0
 40
0.0
 40
0.0
 40
1.0
 40
1.0
 40
1.0
 40
2.0
 40
2.0
 40
2.0
 40
3.0
 40
3.0
 40
3.0
 40
4.0
 40
4.0
 40
4.0
 40
5.0
 40
5.0
 40
5.0
 40
6.0
 40
6.0
 40
6.0
 40
7.0
 40
7.0
 40
7.0
 40
8.0
 40
8.0
 40
8.0
 40
9.0
 40
9.0
 40
9.0
 40
10.0
 40
10.0
 40
10.0
 40
11.0
 40
11.0
 40
11.0
 40
12.0
 40
12.0
 40
12.0
 40
13.0
 40
13.0
 40
13.0
 40
14.0
 40
14.0
 40
14.0
 40
15.0
 40
15.0
 40
15.0
 40
16.0
 40
16.0
 40
16.0
 40
17.0
 40
17.0
 40
17.0
 40
18.0
 40
18.0
 40
18.0
 40
19.0
 40
19.0
 40
19.0
 40
20.0
 40
20.0
 40
20.0
 40
21.0
 40
21.0
 40
21.0
 40
22.0
 40
22.0
 40
22.0
 40
23.0
 40
23.0
 40
23.0
 40
24.0
 40
24.0
 40
24.0
 40
25.0
 40
25.0
 40
25.0
 40
25.0
 10
513.27734375
 20
-784.3515625
 30
0.0
 10
514.4921875
 20
-785.0185546875
 30
0.0
 10
515.6923828125
 20
-785.7236328125
 30
0.0
 10
516.8916015625
 20
-786.4365234375
 30
0.0
 10
518.630859375
 20
-787.462890625
 30
0.0
 10
520.2734375
 20
-788.4375
 30
0.0
 10
521.9453125
 20
-789.248046875
 30
0.0
 10
526.3798828125
 20
-791.376953125
 30
0.0
 10
530.9833984375
 20
-792.07421875
 30
0.0
 10
536.1083984375
 20
-792.6962890625
 30
0.0
 10
540.966796875
 20
-793.296875
 30
0.0
 10
544.146484375
 20
-797.2783203125
 30
0.0
 10
543.8310546875
 20
-802.369140625
 30
0.0
 10
543.4560546875
 20
-808.4873046875
 30
0.0
 10
538.1552734375
 20
-812.693359375
 30
0.0
 10
532.64453125
 20
-811.005859375
 30
0.0
 10
530.7216796875
 20
-810.4140625
 30
0.0
 10
528.775390625
 20
-809.7314453125
 30
0.0
 10
526.86328125
 20
-808.9814453125
 30
0.0
 10
527.5380859375
 20
-811.0888671875
 30
0.0
 10
528.1162109375
 20
-813.2255859375
 30
0.0
 10
528.595703125
 20
-815.384765625
 30
0.0
 10
529.0302734375
 20
-817.3720703125
 30
0.0
 10
529.375
 20
-819.4267578125
 30
0.0
 10
529.619140625
 20
-821.5107421875
 30
0.0
 10
530.8486328125
 20
-822.41015625
 30
0.0
 10
532.0517578125
 20
-823.3623046875
 30
0.0
 10
533.259765625
 20
-824.314453125
 30
0.0
 10
536.033203125
 20
-826.51171875
 30
0.0
 10
538.650390625
 20
-828.5888671875
 30
0.0
 10
541.5439453125
 20
-829.953125
 30
0.0
 10
545.150390625
 20
-831.6474609375
 30
0.0
 10
548.9970703125
 20
-832.5478515625
 30
0.0
 10
553.068359375
 20
-833.4921875
 30
0.0
 10
556.8251953125
 20
-834.3623046875
 30
0.0
 10
560.708984375
 20
-835.26953125
 30
0.0
 10
564.517578125
 20
-836.8583984375
 30
0.0
 10
568.92578125
 20
-838.7109375
 30
0.0
 10
571.3818359375
 20
-843.787109375
 30
0.0
 10
570.34765625
 20
-848.9296875
 30
0.0
 10
569.3876953125
 20
-853.6982421875
 30
0.0
 10
565.66796875
 20
-856.900390625
 30
0.0
 10
561.0908203125
 20
-856.900390625
 30
0.0
 10
549.94140625
 20
-856.517578125
 30
0.0
 10
540.0751953125
 20
-849.9951171875
 30
0.0
 10
532.681640625
 20
-844.3564453125
 30
0.0
 10
532.681640625
 20
-844.3564453125
 30
0.0
 10
531.6845703125
 20
-843.599609375
 30
0.0
 10
531.6845703125
 20
-843.599609375
 30
0.0
 10
530.748046875
 20
-842.88671875
 30
0.0
 10
529.765625
 20
-842.14453125
 30
0.0
 10
528.7646484375
 20
-841.365234375
 30
0.0
 10
526.8671875
 20
-850.51953125
 30
0.0
 10
522.9423828125
 20
-858.853515625
 30
0.0
 10
517.4462890625
 20
-865.8115234375
 30
0.0
 10
566.625
 20
-863.27734375
 30
0.0
 10
605.2978515625
 20
-847.4677734375
 30
0.0
 10
633.4033203125
 20
-818.2939453125
 30
0.0
 10
641.5087890625
 20
-809.8779296875
 30
0.0
 10
648.51953125
 20
-801.19140625
 30
0.0
 10
654.4873046875
 20
-792.2431640625
 30
0.0
 10
646.9970703125
 20
-788.7978515625
 30
0.0
 10
639.8515625
 20
-784.6025390625
 30
0.0
 10
633.294921875
 20
-779.5751953125
 30
0.0
 10
616.4775390625
 20
-766.6865234375
 30
0.0
 10
599.546875
 20
-745.265625
 30
0.0
 10
587.505859375
 20
-721.775390625
 30
0.0
 10
562.23828125
 20
-733.8388671875
 30
0.0
 10
533.1396484375
 20
-745.677734375
 30
0.0
 10
505.1572265625
 20
-746.2705078125
 30
0.0
 10
499.935546875
 20
-751.87109375
 30
0.0
 10
493.45361328125
 20
-756.955078125
 30
0.0
 10
485.82470703125
 20
-761.4306640625
 30
0.0
 10
497.01513671875
 20
-768.0966796875
 30
0.0
 10
506.2294921875
 20
-775.7890625
 30
0.0
 10
513.27734375
 20
-784.3515625
 30
0.0
  0
SPLINE
  5
4C
330
3C
100
AcDbEntity
  8
Layer 1
370
     0
100
AcDbSpline
210
0.0
220
0.0
230
1.0
 70
    11
 71
     3
 72
    20
 73
    16
 74
     0
 42
0.0000000001
 43
0.0000000001
 40
0.0
 40
0.0
 40
0.0
 40
0.0
 40
1.0
 40
1.0
 40
1.0
 40
2.0
 40
2.0
 40
2.0
 40
3.0
 40
3.0
 40
3.0
 40
4.0
 40
4.0
 40
4.0
 40
5.0
 40
5.0
 40
5.0
 40
5.0
 10
521.28515625
 20
-717.3515625
 30
0.0
 10
520.55078125
 20
-720.2001953125
 30
0.0
 10
519.609375
 20
-723.0126953125
 30
0.0
 10
518.4736328125
 20
-725.7568359375
 30
0.0
 10
541.4619140625
 20
-722.3154296875
 30
0.0
 10
562.1630859375
 20
-713.4677734375
 30
0.0
 10
579.8134765625
 20
-704.7626953125
 30
0.0
 10
574.6923828125
 20
-691.626953125
 30
0.0
 10
571.677734375
 20
-679.09765625
 30
0.0
 10
570.8271484375
 20
-667.423828125
 30
0.0
 10
570.8271484375
 20
-667.423828125
 30
0.0
 10
511.32421875
 20
-667.423828125
 30
0.0
 10
511.32421875
 20
-667.423828125
 30
0.0
 10
521.8779296875
 20
-680.552734375
 30
0.0
 10
525.8740234375
 20
-699.4990234375
 30
0.0
 10
521.28515625
 20
-717.3515625
 30
0.0
  0
SPLINE
  5
4D
330
3C
100
AcDbEntity
  8
Layer 1
370
     0
100
AcDbSpline
210
0.0
220
0.0
230
1.0
 70
    11
 71
     3
 72
    35
 73
    31
 74
     0
 42
0.0000000001
 43
0.0000000001
 40
0.0
 40
0.0
 40
0.0
 40
0.0
 40
1.0
 40
1.0
 40
1.0
 40
2.0
 40
2.0
 40
2.0
 40
3.0
 40
3.0
 40
3.0
 40
4.0
 40
4.0
 40
4.0
 40
5.0
 40
5.0
 40
5.0
 40
6.0
 40
6.0
 40
6.0
 40
7.0
 40
7.0
 40
7.0
 40
8.0
 40
8.0
 40
8.0
 40
9.0
 40
9.0
 40
9.0
 40
10.0
 40
10.0
 40
10.0
 40
10.0
 10
337.19970703125
 20
-725.306640625
 30
0.0
 10
347.31396484375
 20
-726.880859375
 30
0.0
 10
357.53369140625
 20
-728.2236328125
 30
0.0
 10
367.41552734375
 20
-729.5205078125
 30
0.0
 10
397.279296875
 20
-733.44140625
 30
0.0
 10
428.1552734375
 20
-737.498046875
 30
0.0
 10
458.142578125
 20
-748.4521484375
 30
0.0
 10
461.43408203125
 20
-749.6591796875
 30
0.0
 10
464.6845703125
 20
-750.94921875
 30
0.0
 10
467.830078125
 20
-752.298828125
 30
0.0
 10
472.8271484375
 20
-749.7197265625
 30
0.0
 10
477.416015625
 20
-746.84765625
 30
0.0
 10
481.5244140625
 20
-743.728515625
 30
0.0
 10
472.6171875
 20
-741.486328125
 30
0.0
 10
464.34716796875
 20
-737.7607421875
 30
0.0
 10
456.8642578125
 20
-732.6240234375
 30
0.0
 10
439.533203125
 20
-720.7177734375
 30
0.0
 10
427.525390625
 20
-695.375
 30
0.0
 10
437.43017578125
 20
-673.564453125
 30
0.0
 10
438.412109375
 20
-671.3974609375
 30
0.0
 10
439.58935546875
 20
-669.3505859375
 30
0.0
 10
440.9541015625
 20
-667.423828125
 30
0.0
 10
440.9541015625
 20
-667.423828125
 30
0.0
 10
305.28125
 20
-667.423828125
 30
0.0
 10
305.28125
 20
-667.423828125
 30
0.0
 10
304.921875
 20
-684.255859375
 30
0.0
 10
314.2265625
 20
-704.703125
 30
0.0
 10
331.25390625
 20
-724.2939453125
 30
0.0
 10
333.2333984375
 20
-724.662109375
 30
0.0
 10
335.212890625
 20
-724.9912109375
 30
0.0
 10
337.19970703125
 20
-725.306640625
 30
0.0
  0
SPLINE
  5
4E
330
3C
100
AcDbEntity
  8
Layer 1
370
     0
100
AcDbSpline
210
0.0
220
0.0
230
1.0
 70
    11
 71
     3
 72
    23
 73
    19
 74
     0
 42
0.0000000001
 43
0.0000000001
 40
0.0
 40
0.0
 40
0.0
 40
0.0
 40
1.0
 40
1.0
 40
1.0
 40
2.0
 40
2.0
 40
2.0
 40
3.0
 40
3.0
 40
3.0
 40
4.0
 40
4.0
 40
4.0
 40
5.0
 40
5.0
 40
5.0
 40
6.0
 40
6.0
 40
6.0
 40
6.0
 10
306.1513671875
 20
-717.1640625
 30
0.0
 10
296.92138671875
 20
-701.845703125
 30
0.0
 10
290.84814453125
 20
-684.8935546875
 30
0.0
 10
288.35888671875
 20
-667.423828125
 30
0.0
 10
288.35888671875
 20
-667.423828125
 30
0.0
 10
283.87890625
 20
-667.423828125
 30
0.0
 10
283.87890625
 20
-667.423828125
 30
0.0
 10
282.7734375
 20
-667.65625
 30
0.0
 10
281.66357421875
 20
-667.896484375
 30
0.0
 10
280.5537109375
 20
-668.1513671875
 30
0.0
 10
280.109375
 20
-668.3642578125
 30
0.0
 10
279.6015625
 20
-668.623046875
 30
0.0
 10
279.142578125
 20
-668.8447265625
 30
0.0
 10
283.47216796875
 20
-683.5625
 30
0.0
 10
288.24267578125
 20
-697.470703125
 30
0.0
 10
293.47265625
 20
-710.5400390625
 30
0.0
 10
297.33935546875
 20
-713.029296875
 30
0.0
 10
301.53076171875
 20
-715.251953125
 30
0.0
 10
306.1513671875
 20
-717.1640625
 30
0.0
  0
SPLINE
  5
4F
330
3C
100
AcDbEntity
  8
Layer 1
370
     0
100
AcDbSpline
210
0.0
220
0.0
230
1.0
 70
    11
 71
     3
 72
    20
 73
    16
 74
     0
 42
0.0000000001
 43
0.0000000001
 40
0.0
 40
0.0
 40
0.0
 40
0.0
 40
1.0
 40
1.0
 40
1.0
 40
2.0
 40
2.0
 40
2.0
 40
3.0
 40
3.0
 40
3.0
 40
4.0
 40
4.0
 40
4.0
 40
5.0
 40
5.0
 40
5.0
 40
5.0
 10
598.25390625
 20
-695.2705078125
 30
0.0
 10
601.080078125
 20
-693.7705078125
 30
0.0
 10
603.9033203125
 20
-692.255859375
 30
0.0
 10
606.7265625
 20
-690.7490234375
 30
0.0
 10
622.041015625
 20
-682.5537109375
 30
0.0
 10
637.7255859375
 20
-674.171875
 30
0.0
 10
654.0263671875
 20
-667.423828125
 30
0.0
 10
654.0263671875
 20
-667.423828125
 30
0.0
 10
589.9580078125
 20
-667.423828125
 30
0.0
 10
589.9580078125
 20
-667.423828125
 30
0.0
 10
589.9580078125
 20
-667.423828125
 30
0.0
 10
590.4033203125
 20
-668.990234375
 30
0.0
 10
590.4033203125
 20
-668.990234375
 30
0.0
 10
592.8701171875
 20
-677.6279296875
 30
0.0
 10
595.408203125
 20
-686.5205078125
 30
0.0
 10
598.25390625
 20
-695.2705078125
 30
0.0
  0
SPLINE
  5
50
330
3C
100
AcDbEntity
  8
Layer 1
370
     0
100
AcDbSpline
210
0.0
220
0.0
230
1.0
 70
    11
 71
     3
 72
   281
 73
   277
 74
     0
 42
0.0000000001
 43
0.0000000001
 40
0.0
 40
0.0
 40
0.0
 40
0.0
 40
1.0
 40
1.0
 40
1.0
 40
2.0
 40
2.0
 40
2.0
 40
3.0
 40
3.0
 40
3.0
 40
4.0
 40
4.0
 40
4.0
 40
5.0
 40
5.0
 40
5.0
 40
6.0
 40
6.0
 40
6.0
 40
7.0
 40
7.0
 40
7.0
 40
8.0
 40
8.0
 40
8.0
 40
9.0
 40
9.0
 40
9.0
 40
10.0
 40
10.0
 40
10.0
 40
11.0
 40
11.0
 40
11.0
 40
12.0
 40
12.0
 40
12.0
 40
13.0
 40
13.0
 40
13.0
 40
14.0
 40
14.0
 40
14.0
 40
15.0
 40
15.0
 40
15.0
 40
16.0
 40
16.0
 40
16.0
 40
17.0
 40
17.0
 40
17.0
 40
18.0
 40
18.0
 40
18.0
 40
19.0
 40
19.0
 40
19.0
 40
20.0
 40
20.0
 40
20.0
 40
21.0
 40
21.0
 40
21.0
 40
22.0
 40
22.0
 40
22.0
 40
23.0
 40
23.0
 40
23.0
 40
24.0
 40
24.0
 40
24.0
 40
25.0
 40
25.0
 40
25.0
 40
26.0
 40
26.0
 40
26.0
 40
27.0
 40
27.0
 40
27.0
 40
28.0
 40
28.0
 40
28.0
 40
29.0
 40
29.0
 40
29.0
 40
30.0
 40
30.0
 40
30.0
 40
31.0
 40
31.0
 40
31.0
 40
32.0
 40
32.0
 40
32.0
 40
33.0
 40
33.0
 40
33.0
 40
34.0
 40
34.0
 40
34.0
 40
35.0
 40
35.0
 40
35.0
 40
36.0
 40
36.0
 40
36.0
 40
37.0
 40
37.0
 40
37.0
 40
38.0
 40
38.0
 40
38.0
 40
39.0
 40
39.0
 40
39.0
 40
40.0
 40
40.0
 40
40.0
 40
41.0
 40
41.0
 40
41.0
 40
42.0
 40
42.0
 40
42.0
 40
43.0
 40
43.0
 40
43.0
 40
44.0
 40
44.0
 40
44.0
 40
45.0
 40
45.0
 40
45.0
 40
46.0
 40
46.0
 40
46.0
 40
47.0
 40
47.0
 40
47.0
 40
48.0
 40
48.0
 40
48.0
 40
49.0
 40
49.0
 40
49.0
 40
50.0
 40
50.0
 40
50.0
 40
51.0
 40
51.0
 40
51.0
 40
52.0
 40
52.0
 40
52.0
 40
53.0
 40
53.0
 40
53.0
 40
54.0
 40
54.0
 40
54.0
 40
55.0
 40
55.0
 40
55.0
 40
56.0
 40
56.0
 40
56.0
 40
57.0
 40
57.0
 40
57.0
 40
58.0
 40
58.0
 40
58.0
 40
59.0
 40
59.0
 40
59.0
 40
60.0
 40
60.0
 40
60.0
 40
61.0
 40
61.0
 40
61.0
 40
62.0
 40
62.0
 40
62.0
 40
63.0
 40
63.0
 40
63.0
 40
64.0
 40
64.0
 40
64.0
 40
65.0
 40
65.0
 40
65.0
 40
66.0
 40
66.0
 40
66.0
 40
67.0
 40
67.0
 40
67.0
 40
68.0
 40
68.0
 40
68.0
 40
69.0
 40
69.0
 40
69.0
 40
70.0
 40
70.0
 40
70.0
 40
71.0
 40
71.0
 40
71.0
 40
72.0
 40
72.0
 40
72.0
 40
73.0
 40
73.0
 40
73.0
 40
74.0
 40
74.0
 40
74.0
 40
75.0
 40
75.0
 40
75.0
 40
76.0
 40
76.0
 40
76.0
 40
77.0
 40
77.0
 40
77.0
 40
78.0
 40
78.0
 40
78.0
 40
79.0
 40
79.0
 40
79.0
 40
80.0
 40
80.0
 40
80.0
 40
81.0
 40
81.0
 40
81.0
 40
82.0
 40
82.0
 40
82.0
 40
83.0
 40
83.0
 40
83.0
 40
84.0
 40
84.0
 40
84.0
 40
85.0
 40
85.0
 40
85.0
 40
86.0
 40
86.0
 40
86.0
 40
87.0
 40
87.0
 40
87.0
 40
88.0
 40
88.0
 40
88.0
 40
89.0
 40
89.0
 40
89.0
 40
90.0
 40
90.0
 40
90.0
 40
91.0
 40
91.0
 40
91.0
 40
92.0
 40
92.0
 40
92.0
 40
92.0
 10
148.3154296875
 20
-779.005859375
 30
0.0
 10
150.8720703125
 20
-776.1416015625
 30
0.0
 10
153.49267578125
 20
-773.1953125
 30
0.0
 10
156.12060546875
 20
-770.173828125
 30
0.0
 10
151.029296875
 20
-795.3955078125
 30
0.0
 10
154.51611328125
 20
-819.958984375
 30
0.0
 10
166.392578125
 20
-840.7724609375
 30
0.0
 10
169.54150390625
 20
-846.298828125
 30
0.0
 10
173.373046875
 20
-851.5546875
 30
0.0
 10
177.8076171875
 20
-856.4130859375
 30
0.0
 10
177.93896484375
 20
-859.0595703125
 30
0.0
 10
178.26904296875
 20
-861.6611328125
 30
0.0
 10
178.587890625
 20
-864.1953125
 30
0.0
 10
178.9814453125
 20
-867.330078125
 30
0.0
 10
179.3564453125
 20
-870.2841796875
 30
0.0
 10
179.36376953125
 20
-873.2158203125
 30
0.0
 10
179.3935546875
 20
-882.392578125
 30
0.0
 10
177.24169921875
 20
-890.35546875
 30
0.0
 10
172.38330078125
 20
-899.0380859375
 30
0.0
 10
172.0908203125
 20
-899.5703125
 30
0.0
 10
171.65576171875
 20
-900.2822265625
 30
0.0
 10
171.138671875
 20
-901.14453125
 30
0.0
 10
165.42529296875
 20
-910.6220703125
 30
0.0
 10
159.65185546875
 20
-921.306640625
 30
0.0
 10
163.4755859375
 20
-928.0693359375
 30
0.0
 10
164.6904296875
 20
-930.220703125
 30
0.0
 10
167.35986328125
 20
-932.7783203125
 30
0.0
 10
173.2041015625
 20
-932.7783203125
 30
0.0
 10
173.560546875
 20
-932.7783203125
 30
0.0
 10
173.927734375
 20
-932.7705078125
 30
0.0
 10
174.306640625
 20
-932.748046875
 30
0.0
 10
192.29736328125
 20
-931.86328125
 30
0.0
 10
195.11279296875
 20
-902.4189453125
 30
0.0
 10
196.173828125
 20
-891.337890625
 30
0.0
 10
196.6611328125
 20
-886.2841796875
 30
0.0
 10
197.328125
 20
-879.37890625
 30
0.0
 10
197.06982421875
 20
-872.337890625
 30
0.0
 10
210.61083984375
 20
-880.638671875
 30
0.0
 10
226.07470703125
 20
-885.14453125
 30
0.0
 10
241.38525390625
 20
-885.14453125
 30
0.0
 10
254.6376953125
 20
-885.14453125
 30
0.0
 10
267.5673828125
 20
-881.7177734375
 30
0.0
 10
278.84423828125
 20
-875.224609375
 30
0.0
 10
284.4599609375
 20
-874.8349609375
 30
0.0
 10
289.8359375
 20
-875.3076171875
 30
0.0
 10
294.6943359375
 20
-876.724609375
 30
0.0
 10
297.802734375
 20
-877.6240234375
 30
0.0
 10
300.8955078125
 20
-880.0830078125
 30
0.0
 10
304.171875
 20
-882.6923828125
 30
0.0
 10
309.056640625
 20
-886.576171875
 30
0.0
 10
314.1064453125
 20
-890.587890625
 30
0.0
 10
320.5771484375
 20
-890.587890625
 30
0.0
 10
321.93408203125
 20
-890.587890625
 30
0.0
 10
323.298828125
 20
-890.400390625
 30
0.0
 10
324.640625
 20
-890.033203125
 30
0.0
 10
328.787109375
 20
-888.8935546875
 30
0.0
 10
331.6552734375
 20
-885.1748046875
 30
0.0
 10
331.767578125
 20
-880.7802734375
 30
0.0
 10
332.228515625
 20
-863.37109375
 30
0.0
 10
308.734375
 20
-861.841796875
 30
0.0
 10
297.4462890625
 20
-861.1064453125
 30
0.0
 10
297.4462890625
 20
-861.1064453125
 30
0.0
 10
296.63671875
 20
-861.046875
 30
0.0
 10
296.63671875
 20
-861.046875
 30
0.0
 10
307.2724609375
 20
-849.5224609375
 30
0.0
 10
315.51416015625
 20
-833.3720703125
 30
0.0
 10
315.892578125
 20
-816.416015625
 30
0.0
 10
370.5048828125
 20
-868.798828125
 30
0.0
 10
436.4345703125
 20
-895.0419921875
 30
0.0
 10
513.7236328125
 20
-895.0419921875
 30
0.0
 10
589.78125
 20
-895.0419921875
 30
0.0
 10
650.55078125
 20
-873.6728515625
 30
0.0
 10
696.0400390625
 20
-830.935546875
 30
0.0
 10
706.1279296875
 20
-821.4541015625
 30
0.0
 10
715.0322265625
 20
-811.3095703125
 30
0.0
 10
722.8818359375
 20
-800.5771484375
 30
0.0
 10
732.4189453125
 20
-798.7138671875
 30
0.0
 10
741.6982421875
 20
-795.6435546875
 30
0.0
 10
750.3427734375
 20
-791.369140625
 30
0.0
 10
757.8369140625
 20
-787.666015625
 30
0.0
 10
764.9638671875
 20
-782.8447265625
 30
0.0
 10
771.9287109375
 20
-776.7568359375
 30
0.0
 10
770.556640625
 20
-786.96875
 30
0.0
 10
770.14453125
 20
-799.0400390625
 30
0.0
 10
775.08203125
 20
-809.1318359375
 30
0.0
 10
776.900390625
 20
-812.8359375
 30
0.0
 10
780.322265625
 20
-814.9580078125
 30
0.0
 10
784.47265625
 20
-814.9580078125
 30
0.0
 10
788.048828125
 20
-814.9580078125
 30
0.0
 10
791.65234375
 20
-813.345703125
 30
0.0
 10
794.111328125
 20
-810.646484375
 30
0.0
 10
796.2890625
 20
-808.2548828125
 30
0.0
 10
797.3310546875
 20
-805.248046875
 30
0.0
 10
797.04296875
 20
-802.1884765625
 30
0.0
 10
796.58203125
 20
-797.3076171875
 30
0.0
 10
795.3447265625
 20
-792.7041015625
 30
0.0
 10
794.14453125
 20
-788.2431640625
 30
0.0
 10
792.8251953125
 20
-783.33203125
 30
0.0
 10
791.5810546875
 20
-778.6904296875
 30
0.0
 10
791.3330078125
 20
-773.802734375
 30
0.0
 10
791.138671875
 20
-769.873046875
 30
0.0
 10
791.8583984375
 20
-765.876953125
 30
0.0
 10
792.626953125
 20
-761.640625
 30
0.0
 10
793.140625
 20
-758.798828125
 30
0.0
 10
793.6728515625
 20
-755.875
 30
0.0
 10
793.919921875
 20
-752.8984375
 30
0.0
 10
798.1416015625
 20
-747.4853515625
 30
0.0
 10
802.2421875
 20
-741.8466796875
 30
0.0
 10
806.2353515625
 20
-736.3056640625
 30
0.0
 10
806.2841796875
 20
-743.6240234375
 30
0.0
 10
807.3330078125
 20
-750.072265625
 30
0.0
 10
807.978515625
 20
-753.3857421875
 30
0.0
 10
808.8818359375
 20
-757.966796875
 30
0.0
 10
812.5595703125
 20
-760.9208984375
 30
0.0
 10
817.3583984375
 20
-760.9208984375
 30
0.0
 10
821.1669921875
 20
-760.9208984375
 30
0.0
 10
824.9453125
 20
-759.0087890625
 30
0.0
 10
826.9736328125
 20
-756.0546875
 30
0.0
 10
828.7841796875
 20
-753.416015625
 30
0.0
 10
829.1142578125
 20
-750.236328125
 30
0.0
 10
827.900390625
 20
-747.1025390625
 30
0.0
 10
825.6318359375
 20
-741.224609375
 30
0.0
 10
823.7314453125
 20
-735.86328125
 30
0.0
 10
823.4765625
 20
-729.828125
 30
0.0
 10
823.3828125
 20
-727.5634765625
 30
0.0
 10
823.4833984375
 20
-725.25390625
 30
0.0
 10
823.5966796875
 20
-722.8095703125
 30
0.0
 10
823.73828125
 20
-719.578125
 30
0.0
 10
823.888671875
 20
-716.2490234375
 30
0.0
 10
823.55859375
 20
-712.8974609375
 30
0.0
 10
826.767578125
 20
-708.8564453125
 30
0.0
 10
829.8115234375
 20
-705.2724609375
 30
0.0
 10
832.8037109375
 20
-702.0185546875
 30
0.0
 10
832.7470703125
 20
-709.958984375
 30
0.0
 10
834.857421875
 20
-717.7783203125
 30
0.0
 10
838.8916015625
 20
-723.5068359375
 30
0.0
 10
840.916015625
 20
-726.4013671875
 30
0.0
 10
844.919921875
 20
-727.712890625
 30
0.0
 10
848.0048828125
 20
-726.4541015625
 30
0.0
 10
849.3212890625
 20
-725.9287109375
 30
0.0
 10
850.16796875
 20
-725.2470703125
 30
0.0
 10
850.9033203125
 20
-724.5791015625
 30
0.0
 10
853.0029296875
 20
-722.64453125
 30
0.0
 10
853.7490234375
 20
-719.1513671875
 30
0.0
 10
852.638671875
 20
-716.4443359375
 30
0.0
 10
852.638671875
 20
-716.4443359375
 30
0.0
 10
852.4404296875
 20
-715.9638671875
 30
0.0
 10
852.4404296875
 20
-715.9638671875
 30
0.0
 10
850.265625
 20
-710.6630859375
 30
0.0
 10
848.3837890625
 20
-706.08203125
 30
0.0
 10
848.458984375
 20
-700.638671875
 30
0.0
 10
848.5341796875
 20
-694.9326171875
 30
0.0
 10
850.685546875
 20
-689.564453125
 30
0.0
 10
852.818359375
 20
-684.361328125
 30
0.0
 10
854.171875
 20
-683.431640625
 30
0.0
 10
855.5478515625
 20
-682.53125
 30
0.0
 10
856.96484375
 20
-681.6767578125
 30
0.0
 10
866.888671875
 20
-675.693359375
 30
0.0
 10
878.9677734375
 20
-672.267578125
 30
0.0
 10
890.09375
 20
-672.267578125
 30
0.0
 10
901.2431640625
 20
-672.267578125
 30
0.0
 10
920.9921875
 20
-675.693359375
 30
0.0
 10
927.9501953125
 20
-698.65234375
 30
0.0
 10
932.111328125
 20
-712.3876953125
 30
0.0
 10
927.1103515625
 20
-727.765625
 30
0.0
 10
916.06640625
 20
-735.2109375
 30
0.0
 10
909.3037109375
 20
-739.7626953125
 30
0.0
 10
901.775390625
 20
-740.189453125
 30
0.0
 10
895.6796875
 20
-736.3359375
 30
0.0
 10
892.486328125
 20
-734.2744140625
 30
0.0
 10
890.048828125
 20
-731.5517578125
 30
0.0
 10
888.1748046875
 20
-727.916015625
 30
0.0
 10
887.9873046875
 20
-727.578125
 30
0.0
 10
887.818359375
 20
-727.2412109375
 30
0.0
 10
887.6650390625
 20
-726.9033203125
 30
0.0
 10
887.6982421875
 20
-726.9033203125
 30
0.0
 10
887.732421875
 20
-726.9033203125
 30
0.0
 10
887.76953125
 20
-726.9033203125
 30
0.0
 10
893.310546875
 20
-726.9033203125
 30
0.0
 10
898.5439453125
 20
-724.3916015625
 30
0.0
 10
901.7607421875
 20
-720.177734375
 30
0.0
 10
905.044921875
 20
-715.8818359375
 30
0.0
 10
905.93359375
 20
-710.1611328125
 30
0.0
 10
904.2724609375
 20
-704.0576171875
 30
0.0
 10
902.1884765625
 20
-696.40234375
 30
0.0
 10
895.732421875
 20
-691.4541015625
 30
0.0
 10
887.822265625
 20
-691.4541015625
 30
0.0
 10
885.0107421875
 20
-691.4541015625
 30
0.0
 10
882.1318359375
 20
-692.0986328125
 30
0.0
 10
879.484375
 20
-693.3212890625
 30
0.0
 10
867.6044921875
 20
-698.8017578125
 30
0.0
 10
864.185546875
 20
-712.927734375
 30
0.0
 10
864.8642578125
 20
-723.357421875
 30
0.0
 10
866.228515625
 20
-744.34375
 30
0.0
 10
883.8671875
 20
-761.423828125
 30
0.0
 10
904.1826171875
 20
-761.423828125
 30
0.0
 10
906.517578125
 20
-761.423828125
 30
0.0
 10
908.861328125
 20
-761.19140625
 30
0.0
 10
911.1513671875
 20
-760.7333984375
 30
0.0
 10
932.62109375
 20
-756.4453125
 30
0.0
 10
949.896484375
 20
-734.1318359375
 30
0.0
 10
950.4736328125
 20
-709.9365234375
 30
0.0
 10
951.05859375
 20
-685.748046875
 30
0.0
 10
935.9130859375
 20
-662.955078125
 30
0.0
 10
913.63671875
 20
-654.490234375
 30
0.0
 10
909.6630859375
 20
-652.982421875
 30
0.0
 10
905.509765625
 20
-651.888671875
 30
0.0
 10
901.2431640625
 20
-651.228515625
 30
0.0
 10
901.2431640625
 20
-651.228515625
 30
0.0
 10
901.2431640625
 20
-650.2685546875
 30
0.0
 10
901.2431640625
 20
-650.2685546875
 30
0.0
 10
901.2431640625
 20
-650.2685546875
 30
0.0
 10
97.1806640625
 20
-650.2685546875
 30
0.0
 10
97.1806640625
 20
-650.2685546875
 30
0.0
 10
97.1806640625
 20
-650.2685546875
 30
0.0
 10
97.1806640625
 20
-667.423828125
 30
0.0
 10
97.1806640625
 20
-667.423828125
 30
0.0
 10
97.1806640625
 20
-667.423828125
 30
0.0
 10
236.7197265625
 20
-667.423828125
 30
0.0
 10
236.7197265625
 20
-667.423828125
 30
0.0
 10
236.7197265625
 20
-667.423828125
 30
0.0
 10
236.7197265625
 20
-669.0615234375
 30
0.0
 10
236.7197265625
 20
-669.0615234375
 30
0.0
 10
227.81640625
 20
-673.69921875
 30
0.0
 10
219.26318359375
 20
-679.09375
 30
0.0
 10
211.1806640625
 20
-685.283203125
 30
0.0
 10
202.58447265625
 20
-689.2646484375
 30
0.0
 10
195.3525390625
 20
-692.2861328125
 30
0.0
 10
187.59619140625
 20
-692.2861328125
 30
0.0
 10
183.9111328125
 20
-692.2861328125
 30
0.0
 10
180.3232421875
 20
-691.6044921875
 30
0.0
 10
176.63427734375
 20
-690.1865234375
 30
0.0
 10
172.1884765625
 20
-688.4921875
 30
0.0
 10
166.4111328125
 20
-686.1455078125
 30
0.0
 10
161.18896484375
 20
-683.064453125
 30
0.0
 10
161.18896484375
 20
-683.064453125
 30
0.0
 10
159.26220703125
 20
-681.90234375
 30
0.0
 10
159.26220703125
 20
-681.90234375
 30
0.0
 10
155.4384765625
 20
-679.5703125
 30
0.0
 10
151.82421875
 20
-677.365234375
 30
0.0
 10
145.81103515625
 20
-677.201171875
 30
0.0
 10
143.0068359375
 20
-677.201171875
 30
0.0
 10
140.375
 20
-678.490234375
 30
0.0
 10
138.5908203125
 20
-680.7470703125
 30
0.0
 10
136.708984375
 20
-683.1240234375
 30
0.0
 10
136.0
 20
-686.2802734375
 30
0.0
 10
136.69384765625
 20
-689.205078125
 30
0.0
 10
141.0947265625
 20
-707.626953125
 30
0.0
 10
166.021484375
 20
-709.05859375
 30
0.0
 10
173.556640625
 20
-709.05859375
 30
0.0
 10
176.03466796875
 20
-709.05859375
 30
0.0
 10
178.44140625
 20
-708.931640625
 30
0.0
 10
180.71337890625
 20
-708.68359375
 30
0.0
 10
182.5654296875
 20
-708.4814453125
 30
0.0
 10
184.7998046875
 20
-708.1669921875
 30
0.0
 10
187.28125
 20
-707.6796875
 30
0.0
 10
186.22802734375
 20
-708.9091796875
 30
0.0
 10
185.189453125
 20
-710.1611328125
 30
0.0
 10
184.17724609375
 20
-711.427734375
 30
0.0
 10
183.3564453125
 20
-711.728515625
 30
0.0
 10
182.63671875
 20
-712.2607421875
 30
0.0
 10
182.0927734375
 20
-712.98046875
 30
0.0
 10
179.3037109375
 20
-716.6767578125
 30
0.0
 10
176.439453125
 20
-720.6728515625
 30
0.0
 10
173.47021484375
 20
-724.8193359375
 30
0.0
 10
154.8984375
 20
-750.7470703125
 30
0.0
 10
133.8447265625
 20
-780.294921875
 30
0.0
 10
102.04638671875
 20
-777.9189453125
 30
0.0
 10
95.0283203125
 20
-777.37109375
 30
0.0
 10
90.0126953125
 20
-782.072265625
 30
0.0
 10
89.69775390625
 20
-788.9326171875
 30
0.0
 10
89.41259765625
 20
-795.1181640625
 30
0.0
 10
93.4541015625
 20
-802.0986328125
 30
0.0
 10
101.5068359375
 20
-802.8408203125
 30
0.0
 10
122.33544921875
 20
-804.775390625
 30
0.0
 10
136.9638671875
 20
-791.7294921875
 30
0.0
 10
148.3154296875
 20
-779.005859375
 30
0.0
  0
SPLINE
  5
51
330
3C
100
AcDbEntity
  8
Layer 1
370
     0
100
AcDbSpline
210
0.0
220
0.0
230
1.0
 70
    11
 71
     3
 72
    20
 73
    16
 74
     0
 42
0.0000000001
 43
0.0000000001
 40
0.0
 40
0.0
 40
0.0
 40
0.0
 40
1.0
 40
1.0
 40
1.0
 40
2.0
 40
2.0
 40
2.0
 40
3.0
 40
3.0
 40
3.0
 40
4.0
 40
4.0
 40
4.0
 40
5.0
 40
5.0
 40
5.0
 40
5.0
 10
222.36328125
 20
-862.3134765625
 30
0.0
 10
214.56591796875
 20
-860.2216796875
 30
0.0
 10
207.4091796875
 20
-856.85546875
 30
0.0
 10
200.97607421875
 20
-852.2666015625
 30
0.0
 10
216.966796875
 20
-852.802734375
 30
0.0
 10
230.5546875
 20
-845.6494140625
 30
0.0
 10
236.7197265625
 20
-833.4697265625
 30
0.0
 10
236.7197265625
 20
-833.4697265625
 30
0.0
 10
236.7197265625
 20
-864.11328125
 30
0.0
 10
236.7197265625
 20
-864.11328125
 30
0.0
 10
236.56982421875
 20
-864.1171875
 30
0.0
 10
236.421875
 20
-864.1357421875
 30
0.0
 10
236.27197265625
 20
-864.1357421875
 30
0.0
 10
231.52587890625
 20
-864.1357421875
 30
0.0
 10
226.8505859375
 20
-863.5205078125
 30
0.0
 10
222.36328125
 20
-862.3134765625
 30
0.0
  0
SPLINE
  5
52
330
3C
100
AcDbEntity
  8
Layer 1
370
     0
100
AcDbSpline
210
0.0
220
0.0
230
1.0
 70
    11
 71
     3
 72
    17
 73
    13
 74
     0
 42
0.0000000001
 43
0.0000000001
 40
0.0
 40
0.0
 40
0.0
 40
0.0
 40
1.0
 40
1.0
 40
1.0
 40
2.0
 40
2.0
 40
2.0
 40
3.0
 40
3.0
 40
3.0
 40
4.0
 40
4.0
 40
4.0
 40
4.0
 10
287.7890625
 20
-824.734375
 30
0.0
 10
286.19580078125
 20
-835.546875
 30
0.0
 10
279.466796875
 20
-843.9892578125
 30
0.0
 10
274.10546875
 20
-849.162109375
 30
0.0
 10
272.9658203125
 20
-850.2607421875
 30
0.0
 10
271.7626953125
 20
-851.2919921875
 30
0.0
 10
270.5234375
 20
-852.28125
 30
0.0
 10
274.712890625
 20
-835.767578125
 30
0.0
 10
279.87158203125
 20
-821.4130859375
 30
0.0
 10
286.0537109375
 20
-809.349609375
 30
0.0
 10
287.9482421875
 20
-814.193359375
 30
0.0
 10
288.45263671875
 20
-820.236328125
 30
0.0
 10
287.7890625
 20
-824.734375
 30
0.0
  0
SPLINE
  5
53
330
3C
100
AcDbEntity
  8
Layer 1
370
     0
100
AcDbSpline
210
0.0
220
0.0
230
1.0
 70
    11
 71
     3
 72
    32
 73
    28
 74
     0
 42
0.0000000001
 43
0.0000000001
 40
0.0
 40
0.0
 40
0.0
 40
0.0
 40
1.0
 40
1.0
 40
1.0
 40
2.0
 40
2.0
 40
2.0
 40
3.0
 40
3.0
 40
3.0
 40
4.0
 40
4.0
 40
4.0
 40
5.0
 40
5.0
 40
5.0
 40
6.0
 40
6.0
 40
6.0
 40
7.0
 40
7.0
 40
7.0
 40
8.0
 40
8.0
 40
8.0
 40
9.0
 40
9.0
 40
9.0
 40
9.0
 10
302.1474609375
 20
-730.5439453125
 30
0.0
 10
307.53466796875
 20
-732.6923828125
 30
0.0
 10
313.38671875
 20
-734.521484375
 30
0.0
 10
319.849609375
 20
-736.04296875
 30
0.0
 10
344.3486328125
 20
-764.287109375
 30
0.0
 10
379.2021484375
 20
-780.453125
 30
0.0
 10
415.6826171875
 20
-780.453125
 30
0.0
 10
430.51708984375
 20
-780.453125
 30
0.0
 10
445.625
 20
-777.8583984375
 30
0.0
 10
460.57568359375
 20
-772.7373046875
 30
0.0
 10
460.57568359375
 20
-772.7373046875
 30
0.0
 10
460.87548828125
 20
-772.6328125
 30
0.0
 10
460.87548828125
 20
-772.6328125
 30
0.0
 10
465.494140625
 20
-775.287109375
 30
0.0
 10
469.6630859375
 20
-777.92578125
 30
0.0
 10
473.5771484375
 20
-780.669921875
 30
0.0
 10
490.72802734375
 20
-792.6962890625
 30
0.0
 10
501.75390625
 20
-808.5166015625
 30
0.0
 10
503.830078125
 20
-824.0673828125
 30
0.0
 10
505.982421875
 20
-840.2255859375
 30
0.0
 10
497.0
 20
-855.0634765625
 30
0.0
 10
482.46923828125
 20
-859.3447265625
 30
0.0
 10
479.28466796875
 20
-860.2822265625
 30
0.0
 10
476.79150390625
 20
-862.1826171875
 30
0.0
 10
475.216796875
 20
-864.67578125
 30
0.0
 10
397.701171875
 20
-856.2138671875
 30
0.0
 10
340.0078125
 20
-811.5048828125
 30
0.0
 10
302.1474609375
 20
-730.5439453125
 30
0.0
  0
SPLINE
  5
54
330
3C
100
AcDbEntity
  8
Layer 1
370
     0
100
AcDbSpline
210
0.0
220
0.0
230
1.0
 70
    11
 71
     3
 72
    20
 73
    16
 74
     0
 42
0.0000000001
 43
0.0000000001
 40
0.0
 40
0.0
 40
0.0
 40
0.0
 40
1.0
 40
1.0
 40
1.0
 40
2.0
 40
2.0
 40
2.0
 40
3.0
 40
3.0
 40
3.0
 40
4.0
 40
4.0
 40
4.0
 40
5.0
 40
5.0
 40
5.0
 40
5.0
 10
347.77880859375
 20
-740.7216796875
 30
0.0
 10
350.4033203125
 20
-741.0517578125
 30
0.0
 10
353.02001953125
 20
-741.359375
 30
0.0
 10
355.59912109375
 20
-741.6669921875
 30
0.0
 10
359.28076171875
 20
-742.1015625
 30
0.0
 10
362.939453125
 20
-742.5361328125
 30
0.0
 10
366.56103515625
 20
-743.0087890625
 30
0.0
 10
393.96533203125
 20
-746.578125
 30
0.0
 10
418.72314453125
 20
-753.078125
 30
0.0
 10
440.32421875
 20
-762.3681640625
 30
0.0
 10
420.91259765625
 20
-766.9794921875
 30
0.0
 10
400.31591796875
 20
-767.0322265625
 30
0.0
 10
384.1171875
 20
-762.3828125
 30
0.0
 10
373.2900390625
 20
-759.271484375
 30
0.0
 10
360.2177734375
 20
-751.4208984375
 30
0.0
 10
347.77880859375
 20
-740.7216796875
 30
0.0
  0
SPLINE
  5
55
330
3C
100
AcDbEntity
  8
Layer 1
370
     0
100
AcDbSpline
210
0.0
220
0.0
230
1.0
 70
    11
 71
     3
 72
    35
 73
    31
 74
     0
 42
0.0000000001
 43
0.0000000001
 40
0.0
 40
0.0
 40
0.0
 40
0.0
 40
1.0
 40
1.0
 40
1.0
 40
2.0
 40
2.0
 40
2.0
 40
3.0
 40
3.0
 40
3.0
 40
4.0
 40
4.0
 40
4.0
 40
5.0
 40
5.0
 40
5.0
 40
6.0
 40
6.0
 40
6.0
 40
7.0
 40
7.0
 40
7.0
 40
8.0
 40
8.0
 40
8.0
 40
9.0
 40
9.0
 40
9.0
 40
10.0
 40
10.0
 40
10.0
 40
10.0
 10
837.857421875
 20
-670.8349609375
 30
0.0
 10
820.6943359375
 20
-684.451171875
 30
0.0
 10
808.3271484375
 20
-702.6259765625
 30
0.0
 10
796.3681640625
 20
-720.2001953125
 30
0.0
 10
790.7373046875
 20
-728.478515625
 30
0.0
 10
784.9150390625
 20
-737.033203125
 30
0.0
 10
778.6923828125
 20
-744.951171875
 30
0.0
 10
766.8271484375
 20
-760.05859375
 30
0.0
 10
752.93359375
 20
-771.0283203125
 30
0.0
 10
737.529296875
 20
-777.6220703125
 30
0.0
 10
738.76953125
 20
-775.3466796875
 30
0.0
 10
739.9091796875
 20
-773.0146484375
 30
0.0
 10
741.064453125
 20
-770.6904296875
 30
0.0
 10
758.5224609375
 20
-766.990234375
 30
0.0
 10
774.5341796875
 20
-752.849609375
 30
0.0
 10
781.0537109375
 20
-734.326171875
 30
0.0
 10
789.2822265625
 20
-710.970703125
 30
0.0
 10
782.7109375
 20
-684.9833984375
 30
0.0
 10
764.705078125
 20
-669.658203125
 30
0.0
 10
764.5283203125
 20
-669.5078125
 30
0.0
 10
764.337890625
 20
-669.369140625
 30
0.0
 10
764.1572265625
 20
-669.22265625
 30
0.0
 10
764.1689453125
 20
-668.619140625
 30
0.0
 10
764.19140625
 20
-668.02734375
 30
0.0
 10
764.1953125
 20
-667.423828125
 30
0.0
 10
764.1953125
 20
-667.423828125
 30
0.0
 10
842.408203125
 20
-667.423828125
 30
0.0
 10
842.408203125
 20
-667.423828125
 30
0.0
 10
840.86328125
 20
-668.5185546875
 30
0.0
 10
839.3486328125
 20
-669.658203125
 30
0.0
 10
837.857421875
 20
-670.8349609375
 30
0.0
  0
SPLINE
  5
56
330
3C
100
AcDbEntity
  8
Layer 1
370
     0
100
AcDbSpline
210
0.0
220
0.0
230
1.0
 70
    11
 71
     3
 72
    14
 73
    10
 74
     0
 42
0.0000000001
 43
0.0000000001
 40
0.0
 40
0.0
 40
0.0
 40
0.0
 40
1.0
 40
1.0
 40
1.0
 40
2.0
 40
2.0
 40
2.0
 40
3.0
 40
3.0
 40
3.0
 40
3.0
 10
757.162109375
 20
-726.38671875
 30
0.0
 10
758.009765625
 20
-722.892578125
 30
0.0
 10
758.7744140625
 20
-719.349609375
 30
0.0
 10
759.4716796875
 20
-715.7734375
 30
0.0
 10
759.2421875
 20
-719.166015625
 30
0.0
 10
758.552734375
 20
-722.607421875
 30
0.0
 10
757.3154296875
 20
-726.01171875
 30
0.0
 10
757.2666015625
 20
-726.138671875
 30
0.0
 10
757.20703125
 20
-726.2587890625
 30
0.0
 10
757.162109375
 20
-726.38671875
 30
0.0
  0
SPLINE
  5
57
330
3C
100
AcDbEntity
  8
Layer 1
370
     0
100
AcDbSpline
210
0.0
220
0.0
230
1.0
 70
    11
 71
     3
 72
    26
 73
    22
 74
     0
 42
0.0000000001
 43
0.0000000001
 40
0.0
 40
0.0
 40
0.0
 40
0.0
 40
1.0
 40
1.0
 40
1.0
 40
2.0
 40
2.0
 40
2.0
 40
3.0
 40
3.0
 40
3.0
 40
4.0
 40
4.0
 40
4.0
 40
5.0
 40
5.0
 40
5.0
 40
6.0
 40
6.0
 40
6.0
 40
7.0
 40
7.0
 40
7.0
 40
7.0
 10
679.5712890625
 20
-710.962890625
 30
0.0
 10
679.5712890625
 20
-734.3193359375
 30
0.0
 10
674.1767578125
 20
-756.3251953125
 30
0.0
 10
663.4697265625
 20
-777.0185546875
 30
0.0
 10
649.201171875
 20
-770.8740234375
 30
0.0
 10
636.166015625
 20
-761.28125
 30
0.0
 10
625.193359375
 20
-748.5576171875
 30
0.0
 10
617.4521484375
 20
-739.58203125
 30
0.0
 10
610.7568359375
 20
-728.0205078125
 30
0.0
 10
604.7734375
 20
-713.2724609375
 30
0.0
 10
607.220703125
 20
-712.03515625
 30
0.0
 10
609.642578125
 20
-710.8134765625
 30
0.0
 10
612.03125
 20
-709.6064453125
 30
0.0
 10
621.6171875
 20
-704.748046875
 30
0.0
 10
630.6708984375
 20
-700.1591796875
 30
0.0
 10
638.9111328125
 20
-696.4404296875
 30
0.0
 10
651.30859375
 20
-690.8427734375
 30
0.0
 10
664.1220703125
 20
-685.482421875
 30
0.0
 10
676.9208984375
 20
-681.6396484375
 30
0.0
 10
678.6826171875
 20
-690.9970703125
 30
0.0
 10
679.5712890625
 20
-700.7666015625
 30
0.0
 10
679.5712890625
 20
-710.962890625
 30
0.0
  0
SPLINE
  5
58
330
3C
100
AcDbEntity
  8
Layer 1
370
     0
100
AcDbSpline
210
0.0
220
0.0
230
1.0
 70
    11
 71
     3
 72
    20
 73
    16
 74
     0
 42
0.0000000001
 43
0.0000000001
 40
0.0
 40
0.0
 40
0.0
 40
0.0
 40
1.0
 40
1.0
 40
1.0
 40
2.0
 40
2.0
 40
2.0
 40
3.0
 40
3.0
 40
3.0
 40
4.0
 40
4.0
 40
4.0
 40
5.0
 40
5.0
 40
5.0
 40
5.0
 10
654.0263671875
 20
-667.423828125
 30
0.0
 10
637.7255859375
 20
-674.171875
 30
0.0
 10
622.041015625
 20
-682.5537109375
 30
0.0
 10
606.7265625
 20
-690.7490234375
 30
0.0
 10
603.9033203125
 20
-692.255859375
 30
0.0
 10
601.080078125
 20
-693.7705078125
 30
0.0
 10
598.25390625
 20
-695.2705078125
 30
0.0
 10
595.408203125
 20
-686.5205078125
 30
0.0
 10
592.8701171875
 20
-677.6279296875
 30
0.0
 10
590.4033203125
 20
-668.990234375
 30
0.0
 10
590.4033203125
 20
-668.990234375
 30
0.0
 10
589.9580078125
 20
-667.423828125
 30
0.0
 10
589.9580078125
 20
-667.423828125
 30
0.0
 10
589.9580078125
 20
-667.423828125
 30
0.0
 10
654.0263671875
 20
-667.423828125
 30
0.0
 10
654.0263671875
 20
-667.423828125
 30
0.0
  0
SPLINE
  5
59
330
3C
100
AcDbEntity
  8
Layer 1
370
     0
100
AcDbSpline
210
0.0
220
0.0
230
1.0
 70
    11
 71
     3
 72
    20
 73
    16
 74
     0
 42
0.0000000001
 43
0.0000000001
 40
0.0
 40
0.0
 40
0.0
 40
0.0
 40
1.0
 40
1.0
 40
1.0
 40
2.0
 40
2.0
 40
2.0
 40
3.0
 40
3.0
 40
3.0
 40
4.0
 40
4.0
 40
4.0
 40
5.0
 40
5.0
 40
5.0
 40
5.0
 10
570.8271484375
 20
-667.423828125
 30
0.0
 10
571.677734375
 20
-679.09765625
 30
0.0
 10
574.6923828125
 20
-691.626953125
 30
0.0
 10
579.8134765625
 20
-704.7626953125
 30
0.0
 10
562.1630859375
 20
-713.4677734375
 30
0.0
 10
541.4619140625
 20
-722.3154296875
 30
0.0
 10
518.4736328125
 20
-725.7568359375
 30
0.0
 10
519.609375
 20
-723.0126953125
 30
0.0
 10
520.55078125
 20
-720.2001953125
 30
0.0
 10
521.28515625
 20
-717.3515625
 30
0.0
 10
525.8740234375
 20
-699.4990234375
 30
0.0
 10
521.8779296875
 20
-680.552734375
 30
0.0
 10
511.32421875
 20
-667.423828125
 30
0.0
 10
511.32421875
 20
-667.423828125
 30
0.0
 10
570.8271484375
 20
-667.423828125
 30
0.0
 10
570.8271484375
 20
-667.423828125
 30
0.0
  0
SPLINE
  5
5A
330
3C
100
AcDbEntity
  8
Layer 1
370
     0
100
AcDbSpline
210
0.0
220
0.0
230
1.0
 70
    11
 71
     3
 72
    80
 73
    76
 74
     0
 42
0.0000000001
 43
0.0000000001
 40
0.0
 40
0.0
 40
0.0
 40
0.0
 40
1.0
 40
1.0
 40
1.0
 40
2.0
 40
2.0
 40
2.0
 40
3.0
 40
3.0
 40
3.0
 40
4.0
 40
4.0
 40
4.0
 40
5.0
 40
5.0
 40
5.0
 40
6.0
 40
6.0
 40
6.0
 40
7.0
 40
7.0
 40
7.0
 40
8.0
 40
8.0
 40
8.0
 40
9.0
 40
9.0
 40
9.0
 40
10.0
 40
10.0
 40
10.0
 40
11.0
 40
11.0
 40
11.0
 40
12.0
 40
12.0
 40
12.0
 40
13.0
 40
13.0
 40
13.0
 40
14.0
 40
14.0
 40
14.0
 40
15.0
 40
15.0
 40
15.0
 40
16.0
 40
16.0
 40
16.0
 40
17.0
 40
17.0
 40
17.0
 40
18.0
 40
18.0
 40
18.0
 40
19.0
 40
19.0
 40
19.0
 40
20.0
 40
20.0
 40
20.0
 40
21.0
 40
21.0
 40
21.0
 40
22.0
 40
22.0
 40
22.0
 40
23.0
 40
23.0
 40
23.0
 40
24.0
 40
24.0
 40
24.0
 40
25.0
 40
25.0
 40
25.0
 40
25.0
 10
587.505859375
 20
-721.775390625
 30
0.0
 10
599.546875
 20
-745.265625
 30
0.0
 10
616.4775390625
 20
-766.6865234375
 30
0.0
 10
633.294921875
 20
-779.5751953125
 30
0.0
 10
639.8515625
 20
-784.6025390625
 30
0.0
 10
646.9970703125
 20
-788.7978515625
 30
0.0
 10
654.4873046875
 20
-792.2431640625
 30
0.0
 10
648.51953125
 20
-801.19140625
 30
0.0
 10
641.5087890625
 20
-809.8779296875
 30
0.0
 10
633.4033203125
 20
-818.2939453125
 30
0.0
 10
605.2978515625
 20
-847.4677734375
 30
0.0
 10
566.625
 20
-863.27734375
 30
0.0
 10
517.4462890625
 20
-865.8115234375
 30
0.0
 10
522.9423828125
 20
-858.853515625
 30
0.0
 10
526.8671875
 20
-850.51953125
 30
0.0
 10
528.7646484375
 20
-841.365234375
 30
0.0
 10
529.765625
 20
-842.14453125
 30
0.0
 10
530.748046875
 20
-842.88671875
 30
0.0
 10
531.6845703125
 20
-843.599609375
 30
0.0
 10
531.6845703125
 20
-843.599609375
 30
0.0
 10
532.681640625
 20
-844.3564453125
 30
0.0
 10
532.681640625
 20
-844.3564453125
 30
0.0
 10
540.0751953125
 20
-849.9951171875
 30
0.0
 10
549.94140625
 20
-856.517578125
 30
0.0
 10
561.0908203125
 20
-856.900390625
 30
0.0
 10
565.66796875
 20
-856.900390625
 30
0.0
 10
569.3876953125
 20
-853.6982421875
 30
0.0
 10
570.34765625
 20
-848.9296875
 30
0.0
 10
571.3818359375
 20
-843.787109375
 30
0.0
 10
568.92578125
 20
-838.7109375
 30
0.0
 10
564.517578125
 20
-836.8583984375
 30
0.0
 10
560.708984375
 20
-835.26953125
 30
0.0
 10
556.8251953125
 20
-834.3623046875
 30
0.0
 10
553.068359375
 20
-833.4921875
 30
0.0
 10
548.9970703125
 20
-832.5478515625
 30
0.0
 10
545.150390625
 20
-831.6474609375
 30
0.0
 10
541.5439453125
 20
-829.953125
 30
0.0
 10
538.650390625
 20
-828.5888671875
 30
0.0
 10
536.033203125
 20
-826.51171875
 30
0.0
 10
533.259765625
 20
-824.314453125
 30
0.0
 10
532.0517578125
 20
-823.3623046875
 30
0.0
 10
530.8486328125
 20
-822.41015625
 30
0.0
 10
529.619140625
 20
-821.5107421875
 30
0.0
 10
529.375
 20
-819.4267578125
 30
0.0
 10
529.0302734375
 20
-817.3720703125
 30
0.0
 10
528.595703125
 20
-815.384765625
 30
0.0
 10
528.1162109375
 20
-813.2255859375
 30
0.0
 10
527.5380859375
 20
-811.0888671875
 30
0.0
 10
526.86328125
 20
-808.9814453125
 30
0.0
 10
528.775390625
 20
-809.7314453125
 30
0.0
 10
530.7216796875
 20
-810.4140625
 30
0.0
 10
532.64453125
 20
-811.005859375
 30
0.0
 10
538.1552734375
 20
-812.693359375
 30
0.0
 10
543.4560546875
 20
-808.4873046875
 30
0.0
 10
543.8310546875
 20
-802.369140625
 30
0.0
 10
544.146484375
 20
-797.2783203125
 30
0.0
 10
540.966796875
 20
-793.296875
 30
0.0
 10
536.1083984375
 20
-792.6962890625
 30
0.0
 10
530.9833984375
 20
-792.07421875
 30
0.0
 10
526.3798828125
 20
-791.376953125
 30
0.0
 10
521.9453125
 20
-789.248046875
 30
0.0
 10
520.2734375
 20
-788.4375
 30
0.0
 10
518.630859375
 20
-787.462890625
 30
0.0
 10
516.8916015625
 20
-786.4365234375
 30
0.0
 10
515.6923828125
 20
-785.7236328125
 30
0.0
 10
514.4921875
 20
-785.0185546875
 30
0.0
 10
513.27734375
 20
-784.3515625
 30
0.0
 10
506.2294921875
 20
-775.7890625
 30
0.0
 10
497.01513671875
 20
-768.0966796875
 30
0.0
 10
485.82470703125
 20
-761.4306640625
 30
0.0
 10
493.45361328125
 20
-756.955078125
 30
0.0
 10
499.935546875
 20
-751.87109375
 30
0.0
 10
505.1572265625
 20
-746.2705078125
 30
0.0
 10
533.1396484375
 20
-745.677734375
 30
0.0
 10
562.23828125
 20
-733.8388671875
 30
0.0
 10
587.505859375
 20
-721.775390625
 30
0.0
  0
SPLINE
  5
5B
330
3C
100
AcDbEntity
  8
Layer 1
370
     0
100
AcDbSpline
210
0.0
220
0.0
230
1.0
 70
    11
 71
     3
 72
    23
 73
    19
 74
     0
 42
0.0000000001
 43
0.0000000001
 40
0.0
 40
0.0
 40
0.0
 40
0.0
 40
1.0
 40
1.0
 40
1.0
 40
2.0
 40
2.0
 40
2.0
 40
3.0
 40
3.0
 40
3.0
 40
4.0
 40
4.0
 40
4.0
 40
5.0
 40
5.0
 40
5.0
 40
6.0
 40
6.0
 40
6.0
 40
6.0
 10
452.5458984375
 20
-687.2177734375
 30
0.0
 10
453.36669921875
 20
-680.6875
 30
0.0
 10
456.70703125
 20
-675.6337890625
 30
0.0
 10
462.48046875
 20
-672.2001953125
 30
0.0
 10
466.427734375
 20
-669.845703125
 30
0.0
 10
470.65283203125
 20
-668.6533203125
 30
0.0
 10
475.03125
 20
-668.6533203125
 30
0.0
 10
488.2724609375
 20
-668.6533203125
 30
0.0
 10
500.99609375
 20
-679.66015625
 30
0.0
 10
504.0029296875
 20
-693.703125
 30
0.0
 10
506.9755859375
 20
-707.57421875
 30
0.0
 10
502.2333984375
 20
-719.2412109375
 30
0.0
 10
497.232421875
 20
-727.0458984375
 30
0.0
 10
482.14697265625
 20
-726.3935546875
 30
0.0
 10
470.517578125
 20
-722.052734375
 30
0.0
 10
462.64501953125
 20
-714.142578125
 30
0.0
 10
455.48486328125
 20
-706.9521484375
 30
0.0
 10
451.4248046875
 20
-696.1328125
 30
0.0
 10
452.5458984375
 20
-687.2177734375
 30
0.0
  0
SPLINE
  5
5C
330
3C
100
AcDbEntity
  8
Layer 1
370
     0
100
AcDbSpline
210
0.0
220
0.0
230
1.0
 70
    11
 71
     3
 72
    35
 73
    31
 74
     0
 42
0.0000000001
 43
0.0000000001
 40
0.0
 40
0.0
 40
0.0
 40
0.0
 40
1.0
 40
1.0
 40
1.0
 40
2.0
 40
2.0
 40
2.0
 40
3.0
 40
3.0
 40
3.0
 40
4.0
 40
4.0
 40
4.0
 40
5.0
 40
5.0
 40
5.0
 40
6.0
 40
6.0
 40
6.0
 40
7.0
 40
7.0
 40
7.0
 40
8.0
 40
8.0
 40
8.0
 40
9.0
 40
9.0
 40
9.0
 40
10.0
 40
10.0
 40
10.0
 40
10.0
 10
440.9541015625
 20
-667.423828125
 30
0.0
 10
439.58935546875
 20
-669.3505859375
 30
0.0
 10
438.412109375
 20
-671.3974609375
 30
0.0
 10
437.43017578125
 20
-673.564453125
 30
0.0
 10
427.525390625
 20
-695.375
 30
0.0
 10
439.533203125
 20
-720.7177734375
 30
0.0
 10
456.8642578125
 20
-732.6240234375
 30
0.0
 10
464.34716796875
 20
-737.7607421875
 30
0.0
 10
472.6171875
 20
-741.486328125
 30
0.0
 10
481.5244140625
 20
-743.728515625
 30
0.0
 10
477.416015625
 20
-746.84765625
 30
0.0
 10
472.8271484375
 20
-749.7197265625
 30
0.0
 10
467.830078125
 20
-752.298828125
 30
0.0
 10
464.6845703125
 20
-750.94921875
 30
0.0
 10
461.43408203125
 20
-749.6591796875
 30
0.0
 10
458.142578125
 20
-748.4521484375
 30
0.0
 10
428.1552734375
 20
-737.498046875
 30
0.0
 10
397.279296875
 20
-733.44140625
 30
0.0
 10
367.41552734375
 20
-729.5205078125
 30
0.0
 10
357.53369140625
 20
-728.2236328125
 30
0.0
 10
347.31396484375
 20
-726.880859375
 30
0.0
 10
337.19970703125
 20
-725.306640625
 30
0.0
 10
335.212890625
 20
-724.9912109375
 30
0.0
 10
333.2333984375
 20
-724.662109375
 30
0.0
 10
331.25390625
 20
-724.2939453125
 30
0.0
 10
314.2265625
 20
-704.703125
 30
0.0
 10
304.921875
 20
-684.255859375
 30
0.0
 10
305.28125
 20
-667.423828125
 30
0.0
 10
305.28125
 20
-667.423828125
 30
0.0
 10
440.9541015625
 20
-667.423828125
 30
0.0
 10
440.9541015625
 20
-667.423828125
 30
0.0
  0
SPLINE
  5
5D
330
3C
100
AcDbEntity
  8
Layer 1
370
     0
100
AcDbSpline
210
0.0
220
0.0
230
1.0
 70
    11
 71
     3
 72
    23
 73
    19
 74
     0
 42
0.0000000001
 43
0.0000000001
 40
0.0
 40
0.0
 40
0.0
 40
0.0
 40
1.0
 40
1.0
 40
1.0
 40
2.0
 40
2.0
 40
2.0
 40
3.0
 40
3.0
 40
3.0
 40
4.0
 40
4.0
 40
4.0
 40
5.0
 40
5.0
 40
5.0
 40
6.0
 40
6.0
 40
6.0
 40
6.0
 10
280.5537109375
 20
-668.1513671875
 30
0.0
 10
281.66357421875
 20
-667.896484375
 30
0.0
 10
282.7734375
 20
-667.65625
 30
0.0
 10
283.87890625
 20
-667.423828125
 30
0.0
 10
283.87890625
 20
-667.423828125
 30
0.0
 10
288.35888671875
 20
-667.423828125
 30
0.0
 10
288.35888671875
 20
-667.423828125
 30
0.0
 10
290.84814453125
 20
-684.8935546875
 30
0.0
 10
296.92138671875
 20
-701.845703125
 30
0.0
 10
306.1513671875
 20
-717.1640625
 30
0.0
 10
301.53076171875
 20
-715.251953125
 30
0.0
 10
297.33935546875
 20
-713.029296875
 30
0.0
 10
293.47265625
 20
-710.5400390625
 30
0.0
 10
288.24267578125
 20
-697.470703125
 30
0.0
 10
283.47216796875
 20
-683.5625
 30
0.0
 10
279.142578125
 20
-668.8447265625
 30
0.0
 10
279.6015625
 20
-668.623046875
 30
0.0
 10
280.109375
 20
-668.3642578125
 30
0.0
 10
280.5537109375
 20
-668.1513671875
 30
0.0
  0
SPLINE
  5
5E
330
3C
100
AcDbEntity
  8
Layer 1
370
     0
100
AcDbSpline
210
0.0
220
0.0
230
1.0
 70
    11
 71
     3
 72
    41
 73
    37
 74
     0
 42
0.0000000001
 43
0.0000000001
 40
0.0
 40
0.0
 40
0.0
 40
0.0
 40
1.0
 40
1.0
 40
1.0
 40
2.0
 40
2.0
 40
2.0
 40
3.0
 40
3.0
 40
3.0
 40
4.0
 40
4.0
 40
4.0
 40
5.0
 40
5.0
 40
5.0
 40
6.0
 40
6.0
 40
6.0
 40
7.0
 40
7.0
 40
7.0
 40
8.0
 40
8.0
 40
8.0
 40
9.0
 40
9.0
 40
9.0
 40
10.0
 40
10.0
 40
10.0
 40
11.0
 40
11.0
 40
11.0
 40
12.0
 40
12.0
 40
12.0
 40
12.0
 10
170.2685546875
 20
-772.310546875
 30
0.0
 10
175.1875
 20
-740.9765625
 30
0.0
 10
193.6171875
 20
-713.3623046875
 30
0.0
 10
222.09716796875
 20
-693.568359375
 30
0.0
 10
221.9208984375
 20
-693.8310546875
 30
0.0
 10
221.7412109375
 20
-694.09375
 30
0.0
 10
221.56494140625
 20
-694.3486328125
 30
0.0
 10
209.67724609375
 20
-711.953125
 30
0.0
 10
206.27685546875
 20
-738.419921875
 30
0.0
 10
223.3984375
 20
-752.80078125
 30
0.0
 10
225.572265625
 20
-754.623046875
 30
0.0
 10
228.3916015625
 20
-755.634765625
 30
0.0
 10
231.33837890625
 20
-755.634765625
 30
0.0
 10
233.24853515625
 20
-755.634765625
 30
0.0
 10
235.07421875
 20
-755.2001953125
 30
0.0
 10
236.7197265625
 20
-754.4541015625
 30
0.0
 10
236.7197265625
 20
-754.4541015625
 30
0.0
 10
236.7197265625
 20
-822.609375
 30
0.0
 10
236.7197265625
 20
-822.609375
 30
0.0
 10
236.5341796875
 20
-822.23828125
 30
0.0
 10
236.421875
 20
-821.84765625
 30
0.0
 10
236.19677734375
 20
-821.48828125
 30
0.0
 10
233.89501953125
 20
-817.76953125
 30
0.0
 10
229.9736328125
 20
-815.4677734375
 30
0.0
 10
225.9736328125
 20
-815.4677734375
 30
0.0
 10
222.873046875
 20
-815.4677734375
 30
0.0
 10
219.95654296875
 20
-816.869140625
 30
0.0
 10
217.759765625
 20
-819.4189453125
 30
0.0
 10
211.2294921875
 20
-826.9990234375
 30
0.0
 10
205.1484375
 20
-833.41015625
 30
0.0
 10
196.88232421875
 20
-835.119140625
 30
0.0
 10
191.52490234375
 20
-836.2216796875
 30
0.0
 10
186.359375
 20
-834.5498046875
 30
0.0
 10
180.7431640625
 20
-829.8779296875
 30
0.0
 10
170.9658203125
 20
-813.1279296875
 30
0.0
 10
167.14990234375
 20
-792.1865234375
 30
0.0
 10
170.2685546875
 20
-772.310546875
 30
0.0
  0
HATCH
  5
5F
330
3C
100
AcDbEntity
  8
Layer 1
 62
     7
100
AcDbHatch
 10
0.0
 20
0.0
 30
0.0
210
0.0
220
0.0
230
1.0
  2
SOLID
 70
     1
 71
     0
 91
       15
 92
        1
 93
        1
 72
     4
 94
        3
 73
     0
 74
     1
 95
      281
 96
      277
 40
0.0
 40
0.0
 40
0.0
 40
0.0
 40
1.0
 40
1.0
 40
1.0
 40
2.0
 40
2.0
 40
2.0
 40
3.0
 40
3.0
 40
3.0
 40
4.0
 40
4.0
 40
4.0
 40
5.0
 40
5.0
 40
5.0
 40
6.0
 40
6.0
 40
6.0
 40
7.0
 40
7.0
 40
7.0
 40
8.0
 40
8.0
 40
8.0
 40
9.0
 40
9.0
 40
9.0
 40
10.0
 40
10.0
 40
10.0
 40
11.0
 40
11.0
 40
11.0
 40
12.0
 40
12.0
 40
12.0
 40
13.0
 40
13.0
 40
13.0
 40
14.0
 40
14.0
 40
14.0
 40
15.0
 40
15.0
 40
15.0
 40
16.0
 40
16.0
 40
16.0
 40
17.0
 40
17.0
 40
17.0
 40
18.0
 40
18.0
 40
18.0
 40
19.0
 40
19.0
 40
19.0
 40
20.0
 40
20.0
 40
20.0
 40
21.0
 40
21.0
 40
21.0
 40
22.0
 40
22.0
 40
22.0
 40
23.0
 40
23.0
 40
23.0
 40
24.0
 40
24.0
 40
24.0
 40
25.0
 40
25.0
 40
25.0
 40
26.0
 40
26.0
 40
26.0
 40
27.0
 40
27.0
 40
27.0
 40
28.0
 40
28.0
 40
28.0
 40
29.0
 40
29.0
 40
29.0
 40
30.0
 40
30.0
 40
30.0
 40
31.0
 40
31.0
 40
31.0
 40
32.0
 40
32.0
 40
32.0
 40
33.0
 40
33.0
 40
33.0
 40
34.0
 40
34.0
 40
34.0
 40
35.0
 40
35.0
 40
35.0
 40
36.0
 40
36.0
 40
36.0
 40
37.0
 40
37.0
 40
37.0
 40
38.0
 40
38.0
 40
38.0
 40
39.0
 40
39.0
 40
39.0
 40
40.0
 40
40.0
 40
40.0
 40
41.0
 40
41.0
 40
41.0
 40
42.0
 40
42.0
 40
42.0
 40
43.0
 40
43.0
 40
43.0
 40
44.0
 40
44.0
 40
44.0
 40
45.0
 40
45.0
 40
45.0
 40
46.0
 40
46.0
 40
46.0
 40
47.0
 40
47.0
 40
47.0
 40
48.0
 40
48.0
 40
48.0
 40
49.0
 40
49.0
 40
49.0
 40
50.0
 40
50.0
 40
50.0
 40
51.0
 40
51.0
 40
51.0
 40
52.0
 40
52.0
 40
52.0
 40
53.0
 40
53.0
 40
53.0
 40
54.0
 40
54.0
 40
54.0
 40
55.0
 40
55.0
 40
55.0
 40
56.0
 40
56.0
 40
56.0
 40
57.0
 40
57.0
 40
57.0
 40
58.0
 40
58.0
 40
58.0
 40
59.0
 40
59.0
 40
59.0
 40
60.0
 40
60.0
 40
60.0
 40
61.0
 40
61.0
 40
61.0
 40
62.0
 40
62.0
 40
62.0
 40
63.0
 40
63.0
 40
63.0
 40
64.0
 40
64.0
 40
64.0
 40
65.0
 40
65.0
 40
65.0
 40
66.0
 40
66.0
 40
66.0
 40
67.0
 40
67.0
 40
67.0
 40
68.0
 40
68.0
 40
68.0
 40
69.0
 40
69.0
 40
69.0
 40
70.0
 40
70.0
 40
70.0
 40
71.0
 40
71.0
 40
71.0
 40
72.0
 40
72.0
 40
72.0
 40
73.0
 40
73.0
 40
73.0
 40
74.0
 40
74.0
 40
74.0
 40
75.0
 40
75.0
 40
75.0
 40
76.0
 40
76.0
 40
76.0
 40
77.0
 40
77.0
 40
77.0
 40
78.0
 40
78.0
 40
78.0
 40
79.0
 40
79.0
 40
79.0
 40
80.0
 40
80.0
 40
80.0
 40
81.0
 40
81.0
 40
81.0
 40
82.0
 40
82.0
 40
82.0
 40
83.0
 40
83.0
 40
83.0
 40
84.0
 40
84.0
 40
84.0
 40
85.0
 40
85.0
 40
85.0
 40
86.0
 40
86.0
 40
86.0
 40
87.0
 40
87.0
 40
87.0
 40
88.0
 40
88.0
 40
88.0
 40
89.0
 40
89.0
 40
89.0
 40
90.0
 40
90.0
 40
90.0
 40
91.0
 40
91.0
 40
91.0
 40
92.0
 40
92.0
 40
92.0
 40
92.0
 10
148.3154296875
 20
-779.005859375
 10
150.8720703125
 20
-776.1416015625
 10
153.49267578125
 20
-773.1953125
 10
156.12060546875
 20
-770.173828125
 10
151.029296875
 20
-795.3955078125
 10
154.51611328125
 20
-819.958984375
 10
166.392578125
 20
-840.7724609375
 10
169.54150390625
 20
-846.298828125
 10
173.373046875
 20
-851.5546875
 10
177.8076171875
 20
-856.4130859375
 10
177.93896484375
 20
-859.0595703125
 10
178.26904296875
 20
-861.6611328125
 10
178.587890625
 20
-864.1953125
 10
178.9814453125
 20
-867.330078125
 10
179.3564453125
 20
-870.2841796875
 10
179.36376953125
 20
-873.2158203125
 10
179.3935546875
 20
-882.392578125
 10
177.24169921875
 20
-890.35546875
 10
172.38330078125
 20
-899.0380859375
 10
172.0908203125
 20
-899.5703125
 10
171.65576171875
 20
-900.2822265625
 10
171.138671875
 20
-901.14453125
 10
165.42529296875
 20
-910.6220703125
 10
159.65185546875
 20
-921.306640625
 10
163.4755859375
 20
-928.0693359375
 10
164.6904296875
 20
-930.220703125
 10
167.35986328125
 20
-932.7783203125
 10
173.2041015625
 20
-932.7783203125
 10
173.560546875
 20
-932.7783203125
 10
173.927734375
 20
-932.7705078125
 10
174.306640625
 20
-932.748046875
 10
192.29736328125
 20
-931.86328125
 10
195.11279296875
 20
-902.4189453125
 10
196.173828125
 20
-891.337890625
 10
196.6611328125
 20
-886.2841796875
 10
197.328125
 20
-879.37890625
 10
197.06982421875
 20
-872.337890625
 10
210.61083984375
 20
-880.638671875
 10
226.07470703125
 20
-885.14453125
 10
241.38525390625
 20
-885.14453125
 10
254.6376953125
 20
-885.14453125
 10
267.5673828125
 20
-881.7177734375
 10
278.84423828125
 20
-875.224609375
 10
284.4599609375
 20
-874.8349609375
 10
289.8359375
 20
-875.3076171875
 10
294.6943359375
 20
-876.724609375
 10
297.802734375
 20
-877.6240234375
 10
300.8955078125
 20
-880.0830078125
 10
304.171875
 20
-882.6923828125
 10
309.056640625
 20
-886.576171875
 10
314.1064453125
 20
-890.587890625
 10
320.5771484375
 20
-890.587890625
 10
321.93408203125
 20
-890.587890625
 10
323.298828125
 20
-890.400390625
 10
324.640625
 20
-890.033203125
 10
328.787109375
 20
-888.8935546875
 10
331.6552734375
 20
-885.1748046875
 10
331.767578125
 20
-880.7802734375
 10
332.228515625
 20
-863.37109375
 10
308.734375
 20
-861.841796875
 10
297.4462890625
 20
-861.1064453125
 10
297.4462890625
 20
-861.1064453125
 10
296.63671875
 20
-861.046875
 10
296.63671875
 20
-861.046875
 10
307.2724609375
 20
-849.5224609375
 10
315.51416015625
 20
-833.3720703125
 10
315.892578125
 20
-816.416015625
 10
370.5048828125
 20
-868.798828125
 10
436.4345703125
 20
-895.0419921875
 10
513.7236328125
 20
-895.0419921875
 10
589.78125
 20
-895.0419921875
 10
650.55078125
 20
-873.6728515625
 10
696.0400390625
 20
-830.935546875
 10
706.1279296875
 20
-821.4541015625
 10
715.0322265625
 20
-811.3095703125
 10
722.8818359375
 20
-800.5771484375
 10
732.4189453125
 20
-798.7138671875
 10
741.6982421875
 20
-795.6435546875
 10
750.3427734375
 20
-791.369140625
 10
757.8369140625
 20
-787.666015625
 10
764.9638671875
 20
-782.8447265625
 10
771.9287109375
 20
-776.7568359375
 10
770.556640625
 20
-786.96875
 10
770.14453125
 20
-799.0400390625
 10
775.08203125
 20
-809.1318359375
 10
776.900390625
 20
-812.8359375
 10
780.322265625
 20
-814.9580078125
 10
784.47265625
 20
-814.9580078125
 10
788.048828125
 20
-814.9580078125
 10
791.65234375
 20
-813.345703125
 10
794.111328125
 20
-810.646484375
 10
796.2890625
 20
-808.2548828125
 10
797.3310546875
 20
-805.248046875
 10
797.04296875
 20
-802.1884765625
 10
796.58203125
 20
-797.3076171875
 10
795.3447265625
 20
-792.7041015625
 10
794.14453125
 20
-788.2431640625
 10
792.8251953125
 20
-783.33203125
 10
791.5810546875
 20
-778.6904296875
 10
791.3330078125
 20
-773.802734375
 10
791.138671875
 20
-769.873046875
 10
791.8583984375
 20
-765.876953125
 10
792.626953125
 20
-761.640625
 10
793.140625
 20
-758.798828125
 10
793.6728515625
 20
-755.875
 10
793.919921875
 20
-752.8984375
 10
798.1416015625
 20
-747.4853515625
 10
802.2421875
 20
-741.8466796875
 10
806.2353515625
 20
-736.3056640625
 10
806.2841796875
 20
-743.6240234375
 10
807.3330078125
 20
-750.072265625
 10
807.978515625
 20
-753.3857421875
 10
808.8818359375
 20
-757.966796875
 10
812.5595703125
 20
-760.9208984375
 10
817.3583984375
 20
-760.9208984375
 10
821.1669921875
 20
-760.9208984375
 10
824.9453125
 20
-759.0087890625
 10
826.9736328125
 20
-756.0546875
 10
828.7841796875
 20
-753.416015625
 10
829.1142578125
 20
-750.236328125
 10
827.900390625
 20
-747.1025390625
 10
825.6318359375
 20
-741.224609375
 10
823.7314453125
 20
-735.86328125
 10
823.4765625
 20
-729.828125
 10
823.3828125
 20
-727.5634765625
 10
823.4833984375
 20
-725.25390625
 10
823.5966796875
 20
-722.8095703125
 10
823.73828125
 20
-719.578125
 10
823.888671875
 20
-716.2490234375
 10
823.55859375
 20
-712.8974609375
 10
826.767578125
 20
-708.8564453125
 10
829.8115234375
 20
-705.2724609375
 10
832.8037109375
 20
-702.0185546875
 10
832.7470703125
 20
-709.958984375
 10
834.857421875
 20
-717.7783203125
 10
838.8916015625
 20
-723.5068359375
 10
840.916015625
 20
-726.4013671875
 10
844.919921875
 20
-727.712890625
 10
848.0048828125
 20
-726.4541015625
 10
849.3212890625
 20
-725.9287109375
 10
850.16796875
 20
-725.2470703125
 10
850.9033203125
 20
-724.5791015625
 10
853.0029296875
 20
-722.64453125
 10
853.7490234375
 20
-719.1513671875
 10
852.638671875
 20
-716.4443359375
 10
852.638671875
 20
-716.4443359375
 10
852.4404296875
 20
-715.9638671875
 10
852.4404296875
 20
-715.9638671875
 10
850.265625
 20
-710.6630859375
 10
848.3837890625
 20
-706.08203125
 10
848.458984375
 20
-700.638671875
 10
848.5341796875
 20
-694.9326171875
 10
850.685546875
 20
-689.564453125
 10
852.818359375
 20
-684.361328125
 10
854.171875
 20
-683.431640625
 10
855.5478515625
 20
-682.53125
 10
856.96484375
 20
-681.6767578125
 10
866.888671875
 20
-675.693359375
 10
878.9677734375
 20
-672.267578125
 10
890.09375
 20
-672.267578125
 10
901.2431640625
 20
-672.267578125
 10
920.9921875
 20
-675.693359375
 10
927.9501953125
 20
-698.65234375
 10
932.111328125
 20
-712.3876953125
 10
927.1103515625
 20
-727.765625
 10
916.06640625
 20
-735.2109375
 10
909.3037109375
 20
-739.7626953125
 10
901.775390625
 20
-740.189453125
 10
895.6796875
 20
-736.3359375
 10
892.486328125
 20
-734.2744140625
 10
890.048828125
 20
-731.5517578125
 10
888.1748046875
 20
-727.916015625
 10
887.9873046875
 20
-727.578125
 10
887.818359375
 20
-727.2412109375
 10
887.6650390625
 20
-726.9033203125
 10
887.6982421875
 20
-726.9033203125
 10
887.732421875
 20
-726.9033203125
 10
887.76953125
 20
-726.9033203125
 10
893.310546875
 20
-726.9033203125
 10
898.5439453125
 20
-724.3916015625
 10
901.7607421875
 20
-720.177734375
 10
905.044921875
 20
-715.8818359375
 10
905.93359375
 20
-710.1611328125
 10
904.2724609375
 20
-704.0576171875
 10
902.1884765625
 20
-696.40234375
 10
895.732421875
 20
-691.4541015625
 10
887.822265625
 20
-691.4541015625
 10
885.0107421875
 20
-691.4541015625
 10
882.1318359375
 20
-692.0986328125
 10
879.484375
 20
-693.3212890625
 10
867.6044921875
 20
-698.8017578125
 10
864.185546875
 20
-712.927734375
 10
864.8642578125
 20
-723.357421875
 10
866.228515625
 20
-744.34375
 10
883.8671875
 20
-761.423828125
 10
904.1826171875
 20
-761.423828125
 10
906.517578125
 20
-761.423828125
 10
908.861328125
 20
-761.19140625
 10
911.1513671875
 20
-760.7333984375
 10
932.62109375
 20
-756.4453125
 10
949.896484375
 20
-734.1318359375
 10
950.4736328125
 20
-709.9365234375
 10
951.05859375
 20
-685.748046875
 10
935.9130859375
 20
-662.955078125
 10
913.63671875
 20
-654.490234375
 10
909.6630859375
 20
-652.982421875
 10
905.509765625
 20
-651.888671875
 10
901.2431640625
 20
-651.228515625
 10
901.2431640625
 20
-651.228515625
 10
901.2431640625
 20
-650.2685546875
 10
901.2431640625
 20
-650.2685546875
 10
901.2431640625
 20
-650.2685546875
 10
97.1806640625
 20
-650.2685546875
 10
97.1806640625
 20
-650.2685546875
 10
97.1806640625
 20
-650.2685546875
 10
97.1806640625
 20
-667.423828125
 10
97.1806640625
 20
-667.423828125
 10
97.1806640625
 20
-667.423828125
 10
236.7197265625
 20
-667.423828125
 10
236.7197265625
 20
-667.423828125
 10
236.7197265625
 20
-667.423828125
 10
236.7197265625
 20
-669.0615234375
 10
236.7197265625
 20
-669.0615234375
 10
227.81640625
 20
-673.69921875
 10
219.26318359375
 20
-679.09375
 10
211.1806640625
 20
-685.283203125
 10
202.58447265625
 20
-689.2646484375
 10
195.3525390625
 20
-692.2861328125
 10
187.59619140625
 20
-692.2861328125
 10
183.9111328125
 20
-692.2861328125
 10
180.3232421875
 20
-691.6044921875
 10
176.63427734375
 20
-690.1865234375
 10
172.1884765625
 20
-688.4921875
 10
166.4111328125
 20
-686.1455078125
 10
161.18896484375
 20
-683.064453125
 10
161.18896484375
 20
-683.064453125
 10
159.26220703125
 20
-681.90234375
 10
159.26220703125
 20
-681.90234375
 10
155.4384765625
 20
-679.5703125
 10
151.82421875
 20
-677.365234375
 10
145.81103515625
 20
-677.201171875
 10
143.0068359375
 20
-677.201171875
 10
140.375
 20
-678.490234375
 10
138.5908203125
 20
-680.7470703125
 10
136.708984375
 20
-683.1240234375
 10
136.0
 20
-686.2802734375
 10
136.69384765625
 20
-689.205078125
 10
141.0947265625
 20
-707.626953125
 10
166.021484375
 20
-709.05859375
 10
173.556640625
 20
-709.05859375
 10
176.03466796875
 20
-709.05859375
 10
178.44140625
 20
-708.931640625
 10
180.71337890625
 20
-708.68359375
 10
182.5654296875
 20
-708.4814453125
 10
184.7998046875
 20
-708.1669921875
 10
187.28125
 20
-707.6796875
 10
186.22802734375
 20
-708.9091796875
 10
185.189453125
 20
-710.1611328125
 10
184.17724609375
 20
-711.427734375
 10
183.3564453125
 20
-711.728515625
 10
182.63671875
 20
-712.2607421875
 10
182.0927734375
 20
-712.98046875
 10
179.3037109375
 20
-716.6767578125
 10
176.439453125
 20
-720.6728515625
 10
173.47021484375
 20
-724.8193359375
 10
154.8984375
 20
-750.7470703125
 10
133.8447265625
 20
-780.294921875
 10
102.04638671875
 20
-777.9189453125
 10
95.0283203125
 20
-777.37109375
 10
90.0126953125
 20
-782.072265625
 10
89.69775390625
 20
-788.9326171875
 10
89.41259765625
 20
-795.1181640625
 10
93.4541015625
 20
-802.0986328125
 10
101.5068359375
 20
-802.8408203125
 10
122.33544921875
 20
-804.775390625
 10
136.9638671875
 20
-791.7294921875
 10
148.3154296875
 20
-779.005859375
 97
        0
 92
        1
 93
        1
 72
     4
 94
        3
 73
     0
 74
     1
 95
       20
 96
       16
 40
0.0
 40
0.0
 40
0.0
 40
0.0
 40
1.0
 40
1.0
 40
1.0
 40
2.0
 40
2.0
 40
2.0
 40
3.0
 40
3.0
 40
3.0
 40
4.0
 40
4.0
 40
4.0
 40
5.0
 40
5.0
 40
5.0
 40
5.0
 10
222.36328125
 20
-862.3134765625
 10
214.56591796875
 20
-860.2216796875
 10
207.4091796875
 20
-856.85546875
 10
200.97607421875
 20
-852.2666015625
 10
216.966796875
 20
-852.802734375
 10
230.5546875
 20
-845.6494140625
 10
236.7197265625
 20
-833.4697265625
 10
236.7197265625
 20
-833.4697265625
 10
236.7197265625
 20
-864.11328125
 10
236.7197265625
 20
-864.11328125
 10
236.56982421875
 20
-864.1171875
 10
236.421875
 20
-864.1357421875
 10
236.27197265625
 20
-864.1357421875
 10
231.52587890625
 20
-864.1357421875
 10
226.8505859375
 20
-863.5205078125
 10
222.36328125
 20
-862.3134765625
 97
        0
 92
        1
 93
        1
 72
     4
 94
        3
 73
     0
 74
     1
 95
       17
 96
       13
 40
0.0
 40
0.0
 40
0.0
 40
0.0
 40
1.0
 40
1.0
 40
1.0
 40
2.0
 40
2.0
 40
2.0
 40
3.0
 40
3.0
 40
3.0
 40
4.0
 40
4.0
 40
4.0
 40
4.0
 10
287.7890625
 20
-824.734375
 10
286.19580078125
 20
-835.546875
 10
279.466796875
 20
-843.9892578125
 10
274.10546875
 20
-849.162109375
 10
272.9658203125
 20
-850.2607421875
 10
271.7626953125
 20
-851.2919921875
 10
270.5234375
 20
-852.28125
 10
274.712890625
 20
-835.767578125
 10
279.87158203125
 20
-821.4130859375
 10
286.0537109375
 20
-809.349609375
 10
287.9482421875
 20
-814.193359375
 10
288.45263671875
 20
-820.236328125
 10
287.7890625
 20
-824.734375
 97
        0
 92
        1
 93
        1
 72
     4
 94
        3
 73
     0
 74
     1
 95
       32
 96
       28
 40
0.0
 40
0.0
 40
0.0
 40
0.0
 40
1.0
 40
1.0
 40
1.0
 40
2.0
 40
2.0
 40
2.0
 40
3.0
 40
3.0
 40
3.0
 40
4.0
 40
4.0
 40
4.0
 40
5.0
 40
5.0
 40
5.0
 40
6.0
 40
6.0
 40
6.0
 40
7.0
 40
7.0
 40
7.0
 40
8.0
 40
8.0
 40
8.0
 40
9.0
 40
9.0
 40
9.0
 40
9.0
 10
302.1474609375
 20
-730.5439453125
 10
307.53466796875
 20
-732.6923828125
 10
313.38671875
 20
-734.521484375
 10
319.849609375
 20
-736.04296875
 10
344.3486328125
 20
-764.287109375
 10
379.2021484375
 20
-780.453125
 10
415.6826171875
 20
-780.453125
 10
430.51708984375
 20
-780.453125
 10
445.625
 20
-777.8583984375
 10
460.57568359375
 20
-772.7373046875
 10
460.57568359375
 20
-772.7373046875
 10
460.87548828125
 20
-772.6328125
 10
460.87548828125
 20
-772.6328125
 10
465.494140625
 20
-775.287109375
 10
469.6630859375
 20
-777.92578125
 10
473.5771484375
 20
-780.669921875
 10
490.72802734375
 20
-792.6962890625
 10
501.75390625
 20
-808.5166015625
 10
503.830078125
 20
-824.0673828125
 10
505.982421875
 20
-840.2255859375
 10
497.0
 20
-855.0634765625
 10
482.46923828125
 20
-859.3447265625
 10
479.28466796875
 20
-860.2822265625
 10
476.79150390625
 20
-862.1826171875
 10
475.216796875
 20
-864.67578125
 10
397.701171875
 20
-856.2138671875
 10
340.0078125
 20
-811.5048828125
 10
302.1474609375
 20
-730.5439453125
 97
        0
 92
        1
 93
        1
 72
     4
 94
        3
 73
     0
 74
     1
 95
       20
 96
       16
 40
0.0
 40
0.0
 40
0.0
 40
0.0
 40
1.0
 40
1.0
 40
1.0
 40
2.0
 40
2.0
 40
2.0
 40
3.0
 40
3.0
 40
3.0
 40
4.0
 40
4.0
 40
4.0
 40
5.0
 40
5.0
 40
5.0
 40
5.0
 10
347.77880859375
 20
-740.7216796875
 10
350.4033203125
 20
-741.0517578125
 10
353.02001953125
 20
-741.359375
 10
355.59912109375
 20
-741.6669921875
 10
359.28076171875
 20
-742.1015625
 10
362.939453125
 20
-742.5361328125
 10
366.56103515625
 20
-743.0087890625
 10
393.96533203125
 20
-746.578125
 10
418.72314453125
 20
-753.078125
 10
440.32421875
 20
-762.3681640625
 10
420.91259765625
 20
-766.9794921875
 10
400.31591796875
 20
-767.0322265625
 10
384.1171875
 20
-762.3828125
 10
373.2900390625
 20
-759.271484375
 10
360.2177734375
 20
-751.4208984375
 10
347.77880859375
 20
-740.7216796875
 97
        0
 92
        1
 93
        1
 72
     4
 94
        3
 73
     0
 74
     1
 95
       35
 96
       31
 40
0.0
 40
0.0
 40
0.0
 40
0.0
 40
1.0
 40
1.0
 40
1.0
 40
2.0
 40
2.0
 40
2.0
 40
3.0
 40
3.0
 40
3.0
 40
4.0
 40
4.0
 40
4.0
 40
5.0
 40
5.0
 40
5.0
 40
6.0
 40
6.0
 40
6.0
 40
7.0
 40
7.0
 40
7.0
 40
8.0
 40
8.0
 40
8.0
 40
9.0
 40
9.0
 40
9.0
 40
10.0
 40
10.0
 40
10.0
 40
10.0
 10
837.857421875
 20
-670.8349609375
 10
820.6943359375
 20
-684.451171875
 10
808.3271484375
 20
-702.6259765625
 10
796.3681640625
 20
-720.2001953125
 10
790.7373046875
 20
-728.478515625
 10
784.9150390625
 20
-737.033203125
 10
778.6923828125
 20
-744.951171875
 10
766.8271484375
 20
-760.05859375
 10
752.93359375
 20
-771.0283203125
 10
737.529296875
 20
-777.6220703125
 10
738.76953125
 20
-775.3466796875
 10
739.9091796875
 20
-773.0146484375
 10
741.064453125
 20
-770.6904296875
 10
758.5224609375
 20
-766.990234375
 10
774.5341796875
 20
-752.849609375
 10
781.0537109375
 20
-734.326171875
 10
789.2822265625
 20
-710.970703125
 10
782.7109375
 20
-684.9833984375
 10
764.705078125
 20
-669.658203125
 10
764.5283203125
 20
-669.5078125
 10
764.337890625
 20
-669.369140625
 10
764.1572265625
 20
-669.22265625
 10
764.1689453125
 20
-668.619140625
 10
764.19140625
 20
-668.02734375
 10
764.1953125
 20
-667.423828125
 10
764.1953125
 20
-667.423828125
 10
842.408203125
 20
-667.423828125
 10
842.408203125
 20
-667.423828125
 10
840.86328125
 20
-668.5185546875
 10
839.3486328125
 20
-669.658203125
 10
837.857421875
 20
-670.8349609375
 97
        0
 92
        1
 93
        1
 72
     4
 94
        3
 73
     0
 74
     1
 95
       14
 96
       10
 40
0.0
 40
0.0
 40
0.0
 40
0.0
 40
1.0
 40
1.0
 40
1.0
 40
2.0
 40
2.0
 40
2.0
 40
3.0
 40
3.0
 40
3.0
 40
3.0
 10
757.162109375
 20
-726.38671875
 10
758.009765625
 20
-722.892578125
 10
758.7744140625
 20
-719.349609375
 10
759.4716796875
 20
-715.7734375
 10
759.2421875
 20
-719.166015625
 10
758.552734375
 20
-722.607421875
 10
757.3154296875
 20
-726.01171875
 10
757.2666015625
 20
-726.138671875
 10
757.20703125
 20
-726.2587890625
 10
757.162109375
 20
-726.38671875
 97
        0
 92
        1
 93
        1
 72
     4
 94
        3
 73
     0
 74
     1
 95
       26
 96
       22
 40
0.0
 40
0.0
 40
0.0
 40
0.0
 40
1.0
 40
1.0
 40
1.0
 40
2.0
 40
2.0
 40
2.0
 40
3.0
 40
3.0
 40
3.0
 40
4.0
 40
4.0
 40
4.0
 40
5.0
 40
5.0
 40
5.0
 40
6.0
 40
6.0
 40
6.0
 40
7.0
 40
7.0
 40
7.0
 40
7.0
 10
679.5712890625
 20
-710.962890625
 10
679.5712890625
 20
-734.3193359375
 10
674.1767578125
 20
-756.3251953125
 10
663.4697265625
 20
-777.0185546875
 10
649.201171875
 20
-770.8740234375
 10
636.166015625
 20
-761.28125
 10
625.193359375
 20
-748.5576171875
 10
617.4521484375
 20
-739.58203125
 10
610.7568359375
 20
-728.0205078125
 10
604.7734375
 20
-713.2724609375
 10
607.220703125
 20
-712.03515625
 10
609.642578125
 20
-710.8134765625
 10
612.03125
 20
-709.6064453125
 10
621.6171875
 20
-704.748046875
 10
630.6708984375
 20
-700.1591796875
 10
638.9111328125
 20
-696.4404296875
 10
651.30859375
 20
-690.8427734375
 10
664.1220703125
 20
-685.482421875
 10
676.9208984375
 20
-681.6396484375
 10
678.6826171875
 20
-690.9970703125
 10
679.5712890625
 20
-700.7666015625
 10
679.5712890625
 20
-710.962890625
 97
        0
 92
        1
 93
        1
 72
     4
 94
        3
 73
     0
 74
     1
 95
       20
 96
       16
 40
0.0
 40
0.0
 40
0.0
 40
0.0
 40
1.0
 40
1.0
 40
1.0
 40
2.0
 40
2.0
 40
2.0
 40
3.0
 40
3.0
 40
3.0
 40
4.0
 40
4.0
 40
4.0
 40
5.0
 40
5.0
 40
5.0
 40
5.0
 10
654.0263671875
 20
-667.423828125
 10
637.7255859375
 20
-674.171875
 10
622.041015625
 20
-682.5537109375
 10
606.7265625
 20
-690.7490234375
 10
603.9033203125
 20
-692.255859375
 10
601.080078125
 20
-693.7705078125
 10
598.25390625
 20
-695.2705078125
 10
595.408203125
 20
-686.5205078125
 10
592.8701171875
 20
-677.6279296875
 10
590.4033203125
 20
-668.990234375
 10
590.4033203125
 20
-668.990234375
 10
589.9580078125
 20
-667.423828125
 10
589.9580078125
 20
-667.423828125
 10
589.9580078125
 20
-667.423828125
 10
654.0263671875
 20
-667.423828125
 10
654.0263671875
 20
-667.423828125
 97
        0
 92
        1
 93
        1
 72
     4
 94
        3
 73
     0
 74
     1
 95
       20
 96
       16
 40
0.0
 40
0.0
 40
0.0
 40
0.0
 40
1.0
 40
1.0
 40
1.0
 40
2.0
 40
2.0
 40
2.0
 40
3.0
 40
3.0
 40
3.0
 40
4.0
 40
4.0
 40
4.0
 40
5.0
 40
5.0
 40
5.0
 40
5.0
 10
570.8271484375
 20
-667.423828125
 10
571.677734375
 20
-679.09765625
 10
574.6923828125
 20
-691.626953125
 10
579.8134765625
 20
-704.7626953125
 10
562.1630859375
 20
-713.4677734375
 10
541.4619140625
 20
-722.3154296875
 10
518.4736328125
 20
-725.7568359375
 10
519.609375
 20
-723.0126953125
 10
520.55078125
 20
-720.2001953125
 10
521.28515625
 20
-717.3515625
 10
525.8740234375
 20
-699.4990234375
 10
521.8779296875
 20
-680.552734375
 10
511.32421875
 20
-667.423828125
 10
511.32421875
 20
-667.423828125
 10
570.8271484375
 20
-667.423828125
 10
570.8271484375
 20
-667.423828125
 97
        0
 92
        1
 93
        1
 72
     4
 94
        3
 73
     0
 74
     1
 95
       80
 96
       76
 40
0.0
 40
0.0
 40
0.0
 40
0.0
 40
1.0
 40
1.0
 40
1.0
 40
2.0
 40
2.0
 40
2.0
 40
3.0
 40
3.0
 40
3.0
 40
4.0
 40
4.0
 40
4.0
 40
5.0
 40
5.0
 40
5.0
 40
6.0
 40
6.0
 40
6.0
 40
7.0
 40
7.0
 40
7.0
 40
8.0
 40
8.0
 40
8.0
 40
9.0
 40
9.0
 40
9.0
 40
10.0
 40
10.0
 40
10.0
 40
11.0
 40
11.0
 40
11.0
 40
12.0
 40
12.0
 40
12.0
 40
13.0
 40
13.0
 40
13.0
 40
14.0
 40
14.0
 40
14.0
 40
15.0
 40
15.0
 40
15.0
 40
16.0
 40
16.0
 40
16.0
 40
17.0
 40
17.0
 40
17.0
 40
18.0
 40
18.0
 40
18.0
 40
19.0
 40
19.0
 40
19.0
 40
20.0
 40
20.0
 40
20.0
 40
21.0
 40
21.0
 40
21.0
 40
22.0
 40
22.0
 40
22.0
 40
23.0
 40
23.0
 40
23.0
 40
24.0
 40
24.0
 40
24.0
 40
25.0
 40
25.0
 40
25.0
 40
25.0
 10
587.505859375
 20
-721.775390625
 10
599.546875
 20
-745.265625
 10
616.4775390625
 20
-766.6865234375
 10
633.294921875
 20
-779.5751953125
 10
639.8515625
 20
-784.6025390625
 10
646.9970703125
 20
-788.7978515625
 10
654.4873046875
 20
-792.2431640625
 10
648.51953125
 20
-801.19140625
 10
641.5087890625
 20
-809.8779296875
 10
633.4033203125
 20
-818.2939453125
 10
605.2978515625
 20
-847.4677734375
 10
566.625
 20
-863.27734375
 10
517.4462890625
 20
-865.8115234375
 10
522.9423828125
 20
-858.853515625
 10
526.8671875
 20
-850.51953125
 10
528.7646484375
 20
-841.365234375
 10
529.765625
 20
-842.14453125
 10
530.748046875
 20
-842.88671875
 10
531.6845703125
 20
-843.599609375
 10
531.6845703125
 20
-843.599609375
 10
532.681640625
 20
-844.3564453125
 10
532.681640625
 20
-844.3564453125
 10
540.0751953125
 20
-849.9951171875
 10
549.94140625
 20
-856.517578125
 10
561.0908203125
 20
-856.900390625
 10
565.66796875
 20
-856.900390625
 10
569.3876953125
 20
-853.6982421875
 10
570.34765625
 20
-848.9296875
 10
571.3818359375
 20
-843.787109375
 10
568.92578125
 20
-838.7109375
 10
564.517578125
 20
-836.8583984375
 10
560.708984375
 20
-835.26953125
 10
556.8251953125
 20
-834.3623046875
 10
553.068359375
 20
-833.4921875
 10
548.9970703125
 20
-832.5478515625
 10
545.150390625
 20
-831.6474609375
 10
541.5439453125
 20
-829.953125
 10
538.650390625
 20
-828.5888671875
 10
536.033203125
 20
-826.51171875
 10
533.259765625
 20
-824.314453125
 10
532.0517578125
 20
-823.3623046875
 10
530.8486328125
 20
-822.41015625
 10
529.619140625
 20
-821.5107421875
 10
529.375
 20
-819.4267578125
 10
529.0302734375
 20
-817.3720703125
 10
528.595703125
 20
-815.384765625
 10
528.1162109375
 20
-813.2255859375
 10
527.5380859375
 20
-811.0888671875
 10
526.86328125
 20
-808.9814453125
 10
528.775390625
 20
-809.7314453125
 10
530.7216796875
 20
-810.4140625
 10
532.64453125
 20
-811.005859375
 10
538.1552734375
 20
-812.693359375
 10
543.4560546875
 20
-808.4873046875
 10
543.8310546875
 20
-802.369140625
 10
544.146484375
 20
-797.2783203125
 10
540.966796875
 20
-793.296875
 10
536.1083984375
 20
-792.6962890625
 10
530.9833984375
 20
-792.07421875
 10
526.3798828125
 20
-791.376953125
 10
521.9453125
 20
-789.248046875
 10
520.2734375
 20
-788.4375
 10
518.630859375
 20
-787.462890625
 10
516.8916015625
 20
-786.4365234375
 10
515.6923828125
 20
-785.7236328125
 10
514.4921875
 20
-785.0185546875
 10
513.27734375
 20
-784.3515625
 10
506.2294921875
 20
-775.7890625
 10
497.01513671875
 20
-768.0966796875
 10
485.82470703125
 20
-761.4306640625
 10
493.45361328125
 20
-756.955078125
 10
499.935546875
 20
-751.87109375
 10
505.1572265625
 20
-746.2705078125
 10
533.1396484375
 20
-745.677734375
 10
562.23828125
 20
-733.8388671875
 10
587.505859375
 20
-721.775390625
 97
        0
 92
        1
 93
        1
 72
     4
 94
        3
 73
     0
 74
     1
 95
       23
 96
       19
 40
0.0
 40
0.0
 40
0.0
 40
0.0
 40
1.0
 40
1.0
 40
1.0
 40
2.0
 40
2.0
 40
2.0
 40
3.0
 40
3.0
 40
3.0
 40
4.0
 40
4.0
 40
4.0
 40
5.0
 40
5.0
 40
5.0
 40
6.0
 40
6.0
 40
6.0
 40
6.0
 10
452.5458984375
 20
-687.2177734375
 10
453.36669921875
 20
-680.6875
 10
456.70703125
 20
-675.6337890625
 10
462.48046875
 20
-672.2001953125
 10
466.427734375
 20
-669.845703125
 10
470.65283203125
 20
-668.6533203125
 10
475.03125
 20
-668.6533203125
 10
488.2724609375
 20
-668.6533203125
 10
500.99609375
 20
-679.66015625
 10
504.0029296875
 20
-693.703125
 10
506.9755859375
 20
-707.57421875
 10
502.2333984375
 20
-719.2412109375
 10
497.232421875
 20
-727.0458984375
 10
482.14697265625
 20
-726.3935546875
 10
470.517578125
 20
-722.052734375
 10
462.64501953125
 20
-714.142578125
 10
455.48486328125
 20
-706.9521484375
 10
451.4248046875
 20
-696.1328125
 10
452.5458984375
 20
-687.2177734375
 97
        0
 92
        1
 93
        1
 72
     4
 94
        3
 73
     0
 74
     1
 95
       35
 96
       31
 40
0.0
 40
0.0
 40
0.0
 40
0.0
 40
1.0
 40
1.0
 40
1.0
 40
2.0
 40
2.0
 40
2.0
 40
3.0
 40
3.0
 40
3.0
 40
4.0
 40
4.0
 40
4.0
 40
5.0
 40
5.0
 40
5.0
 40
6.0
 40
6.0
 40
6.0
 40
7.0
 40
7.0
 40
7.0
 40
8.0
 40
8.0
 40
8.0
 40
9.0
 40
9.0
 40
9.0
 40
10.0
 40
10.0
 40
10.0
 40
10.0
 10
440.9541015625
 20
-667.423828125
 10
439.58935546875
 20
-669.3505859375
 10
438.412109375
 20
-671.3974609375
 10
437.43017578125
 20
-673.564453125
 10
427.525390625
 20
-695.375
 10
439.533203125
 20
-720.7177734375
 10
456.8642578125
 20
-732.6240234375
 10
464.34716796875
 20
-737.7607421875
 10
472.6171875
 20
-741.486328125
 10
481.5244140625
 20
-743.728515625
 10
477.416015625
 20
-746.84765625
 10
472.8271484375
 20
-749.7197265625
 10
467.830078125
 20
-752.298828125
 10
464.6845703125
 20
-750.94921875
 10
461.43408203125
 20
-749.6591796875
 10
458.142578125
 20
-748.4521484375
 10
428.1552734375
 20
-737.498046875
 10
397.279296875
 20
-733.44140625
 10
367.41552734375
 20
-729.5205078125
 10
357.53369140625
 20
-728.2236328125
 10
347.31396484375
 20
-726.880859375
 10
337.19970703125
 20
-725.306640625
 10
335.212890625
 20
-724.9912109375
 10
333.2333984375
 20
-724.662109375
 10
331.25390625
 20
-724.2939453125
 10
314.2265625
 20
-704.703125
 10
304.921875
 20
-684.255859375
 10
305.28125
 20
-667.423828125
 10
305.28125
 20
-667.423828125
 10
440.9541015625
 20
-667.423828125
 10
440.9541015625
 20
-667.423828125
 97
        0
 92
        1
 93
        1
 72
     4
 94
        3
 73
     0
 74
     1
 95
       23
 96
       19
 40
0.0
 40
0.0
 40
0.0
 40
0.0
 40
1.0
 40
1.0
 40
1.0
 40
2.0
 40
2.0
 40
2.0
 40
3.0
 40
3.0
 40
3.0
 40
4.0
 40
4.0
 40
4.0
 40
5.0
 40
5.0
 40
5.0
 40
6.0
 40
6.0
 40
6.0
 40
6.0
 10
280.5537109375
 20
-668.1513671875
 10
281.66357421875
 20
-667.896484375
 10
282.7734375
 20
-667.65625
 10
283.87890625
 20
-667.423828125
 10
283.87890625
 20
-667.423828125
 10
288.35888671875
 20
-667.423828125
 10
288.35888671875
 20
-667.423828125
 10
290.84814453125
 20
-684.8935546875
 10
296.92138671875
 20
-701.845703125
 10
306.1513671875
 20
-717.1640625
 10
301.53076171875
 20
-715.251953125
 10
297.33935546875
 20
-713.029296875
 10
293.47265625
 20
-710.5400390625
 10
288.24267578125
 20
-697.470703125
 10
283.47216796875
 20
-683.5625
 10
279.142578125
 20
-668.8447265625
 10
279.6015625
 20
-668.623046875
 10
280.109375
 20
-668.3642578125
 10
280.5537109375
 20
-668.1513671875
 97
        0
 92
        1
 93
        1
 72
     4
 94
        3
 73
     0
 74
     1
 95
       41
 96
       37
 40
0.0
 40
0.0
 40
0.0
 40
0.0
 40
1.0
 40
1.0
 40
1.0
 40
2.0
 40
2.0
 40
2.0
 40
3.0
 40
3.0
 40
3.0
 40
4.0
 40
4.0
 40
4.0
 40
5.0
 40
5.0
 40
5.0
 40
6.0
 40
6.0
 40
6.0
 40
7.0
 40
7.0
 40
7.0
 40
8.0
 40
8.0
 40
8.0
 40
9.0
 40
9.0
 40
9.0
 40
10.0
 40
10.0
 40
10.0
 40
11.0
 40
11.0
 40
11.0
 40
12.0
 40
12.0
 40
12.0
 40
12.0
 10
170.2685546875
 20
-772.310546875
 10
175.1875
 20
-740.9765625
 10
193.6171875
 20
-713.3623046875
 10
222.09716796875
 20
-693.568359375
 10
221.9208984375
 20
-693.8310546875
 10
221.7412109375
 20
-694.09375
 10
221.56494140625
 20
-694.3486328125
 10
209.67724609375
 20
-711.953125
 10
206.27685546875
 20
-738.419921875
 10
223.3984375
 20
-752.80078125
 10
225.572265625
 20
-754.623046875
 10
228.3916015625
 20
-755.634765625
 10
231.33837890625
 20
-755.634765625
 10
233.24853515625
 20
-755.634765625
 10
235.07421875
 20
-755.2001953125
 10
236.7197265625
 20
-754.4541015625
 10
236.7197265625
 20
-754.4541015625
 10
236.7197265625
 20
-822.609375
 10
236.7197265625
 20
-822.609375
 10
236.5341796875
 20
-822.23828125
 10
236.421875
 20
-821.84765625
 10
236.19677734375
 20
-821.48828125
 10
233.89501953125
 20
-817.76953125
 10
229.9736328125
 20
-815.4677734375
 10
225.9736328125
 20
-815.4677734375
 10
222.873046875
 20
-815.4677734375
 10
219.95654296875
 20
-816.869140625
 10
217.759765625
 20
-819.4189453125
 10
211.2294921875
 20
-826.9990234375
 10
205.1484375
 20
-833.41015625
 10
196.88232421875
 20
-835.119140625
 10
191.52490234375
 20
-836.2216796875
 10
186.359375
 20
-834.5498046875
 10
180.7431640625
 20
-829.8779296875
 10
170.9658203125
 20
-813.1279296875
 10
167.14990234375
 20
-792.1865234375
 10
170.2685546875
 20
-772.310546875
 97
        0
 75
     2
 76
     1
 98
        0
  0
SPLINE
  5
60
330
3C
100
AcDbEntity
  8
Layer 1
370
     0
100
AcDbSpline
210
0.0
220
0.0
230
1.0
 70
    11
 71
     3
 72
   278
 73
   274
 74
     0
 42
0.0000000001
 43
0.0000000001
 40
0.0
 40
0.0
 40
0.0
 40
0.0
 40
1.0
 40
1.0
 40
1.0
 40
2.0
 40
2.0
 40
2.0
 40
3.0
 40
3.0
 40
3.0
 40
4.0
 40
4.0
 40
4.0
 40
5.0
 40
5.0
 40
5.0
 40
6.0
 40
6.0
 40
6.0
 40
7.0
 40
7.0
 40
7.0
 40
8.0
 40
8.0
 40
8.0
 40
9.0
 40
9.0
 40
9.0
 40
10.0
 40
10.0
 40
10.0
 40
11.0
 40
11.0
 40
11.0
 40
12.0
 40
12.0
 40
12.0
 40
13.0
 40
13.0
 40
13.0
 40
14.0
 40
14.0
 40
14.0
 40
15.0
 40
15.0
 40
15.0
 40
16.0
 40
16.0
 40
16.0
 40
17.0
 40
17.0
 40
17.0
 40
18.0
 40
18.0
 40
18.0
 40
19.0
 40
19.0
 40
19.0
 40
20.0
 40
20.0
 40
20.0
 40
21.0
 40
21.0
 40
21.0
 40
22.0
 40
22.0
 40
22.0
 40
23.0
 40
23.0
 40
23.0
 40
24.0
 40
24.0
 40
24.0
 40
25.0
 40
25.0
 40
25.0
 40
26.0
 40
26.0
 40
26.0
 40
27.0
 40
27.0
 40
27.0
 40
28.0
 40
28.0
 40
28.0
 40
29.0
 40
29.0
 40
29.0
 40
30.0
 40
30.0
 40
30.0
 40
31.0
 40
31.0
 40
31.0
 40
32.0
 40
32.0
 40
32.0
 40
33.0
 40
33.0
 40
33.0
 40
34.0
 40
34.0
 40
34.0
 40
35.0
 40
35.0
 40
35.0
 40
36.0
 40
36.0
 40
36.0
 40
37.0
 40
37.0
 40
37.0
 40
38.0
 40
38.0
 40
38.0
 40
39.0
 40
39.0
 40
39.0
 40
40.0
 40
40.0
 40
40.0
 40
41.0
 40
41.0
 40
41.0
 40
42.0
 40
42.0
 40
42.0
 40
43.0
 40
43.0
 40
43.0
 40
44.0
 40
44.0
 40
44.0
 40
45.0
 40
45.0
 40
45.0
 40
46.0
 40
46.0
 40
46.0
 40
47.0
 40
47.0
 40
47.0
 40
48.0
 40
48.0
 40
48.0
 40
49.0
 40
49.0
 40
49.0
 40
50.0
 40
50.0
 40
50.0
 40
51.0
 40
51.0
 40
51.0
 40
52.0
 40
52.0
 40
52.0
 40
53.0
 40
53.0
 40
53.0
 40
54.0
 40
54.0
 40
54.0
 40
55.0
 40
55.0
 40
55.0
 40
56.0
 40
56.0
 40
56.0
 40
57.0
 40
57.0
 40
57.0
 40
58.0
 40
58.0
 40
58.0
 40
59.0
 40
59.0
 40
59.0
 40
60.0
 40
60.0
 40
60.0
 40
61.0
 40
61.0
 40
61.0
 40
62.0
 40
62.0
 40
62.0
 40
63.0
 40
63.0
 40
63.0
 40
64.0
 40
64.0
 40
64.0
 40
65.0
 40
65.0
 40
65.0
 40
66.0
 40
66.0
 40
66.0
 40
67.0
 40
67.0
 40
67.0
 40
68.0
 40
68.0
 40
68.0
 40
69.0
 40
69.0
 40
69.0
 40
70.0
 40
70.0
 40
70.0
 40
71.0
 40
71.0
 40
71.0
 40
72.0
 40
72.0
 40
72.0
 40
73.0
 40
73.0
 40
73.0
 40
74.0
 40
74.0
 40
74.0
 40
75.0
 40
75.0
 40
75.0
 40
76.0
 40
76.0
 40
76.0
 40
77.0
 40
77.0
 40
77.0
 40
78.0
 40
78.0
 40
78.0
 40
79.0
 40
79.0
 40
79.0
 40
80.0
 40
80.0
 40
80.0
 40
81.0
 40
81.0
 40
81.0
 40
82.0
 40
82.0
 40
82.0
 40
83.0
 40
83.0
 40
83.0
 40
84.0
 40
84.0
 40
84.0
 40
85.0
 40
85.0
 40
85.0
 40
86.0
 40
86.0
 40
86.0
 40
87.0
 40
87.0
 40
87.0
 40
88.0
 40
88.0
 40
88.0
 40
89.0
 40
89.0
 40
89.0
 40
90.0
 40
90.0
 40
90.0
 40
91.0
 40
91.0
 40
91.0
 40
91.0
 10
903.7958984375
 20
-511.896484375
 30
0.0
 10
903.7958984375
 20
-511.896484375
 30
0.0
 10
903.7958984375
 20
-494.7421875
 30
0.0
 10
903.7958984375
 20
-494.7421875
 30
0.0
 10
903.7958984375
 20
-494.7421875
 30
0.0
 10
761.1435546875
 20
-494.7421875
 30
0.0
 10
761.1435546875
 20
-494.7421875
 30
0.0
 10
771.1826171875
 20
-489.77099609375
 30
0.0
 10
780.7646484375
 20
-483.802734375
 30
0.0
 10
789.7919921875
 20
-476.8896484375
 30
0.0
 10
798.396484375
 20
-472.908203125
 30
0.0
 10
805.6318359375
 20
-469.88671875
 30
0.0
 10
813.380859375
 20
-469.88671875
 30
0.0
 10
817.0693359375
 20
-469.88671875
 30
0.0
 10
820.6533203125
 20
-470.5693359375
 30
0.0
 10
824.345703125
 20
-471.986328125
 30
0.0
 10
828.7958984375
 20
-473.6806640625
 30
0.0
 10
834.5732421875
 20
-476.02734375
 30
0.0
 10
839.7880859375
 20
-479.109375
 30
0.0
 10
839.7880859375
 20
-479.109375
 30
0.0
 10
841.70703125
 20
-480.263671875
 30
0.0
 10
841.70703125
 20
-480.263671875
 30
0.0
 10
845.5380859375
 20
-482.60302734375
 30
0.0
 10
849.15234375
 20
-484.8076171875
 30
0.0
 10
855.166015625
 20
-484.97265625
 30
0.0
 10
857.9736328125
 20
-484.97265625
 30
0.0
 10
860.609375
 20
-483.67529296875
 30
0.0
 10
862.3935546875
 20
-481.41845703125
 30
0.0
 10
864.267578125
 20
-479.0419921875
 30
0.0
 10
864.98046875
 20
-475.88525390625
 30
0.0
 10
864.283203125
 20
-472.96875
 30
0.0
 10
859.8818359375
 20
-454.5390625
 30
0.0
 10
834.951171875
 20
-453.10693359375
 30
0.0
 10
827.416015625
 20
-453.10693359375
 30
0.0
 10
824.9423828125
 20
-453.10693359375
 30
0.0
 10
822.53515625
 20
-453.234375
 30
0.0
 10
820.263671875
 20
-453.4892578125
 30
0.0
 10
818.408203125
 20
-453.69140625
 30
0.0
 10
816.1806640625
 20
-454.0068359375
 30
0.0
 10
813.6953125
 20
-454.494140625
 30
0.0
 10
814.7490234375
 20
-453.26416015625
 30
0.0
 10
815.787109375
 20
-452.01220703125
 30
0.0
 10
816.7998046875
 20
-450.7373046875
 30
0.0
 10
817.6201171875
 20
-450.4375
 30
0.0
 10
818.33984375
 20
-449.9130859375
 30
0.0
 10
818.8837890625
 20
-449.19287109375
 30
0.0
 10
821.6728515625
 20
-445.49658203125
 30
0.0
 10
824.537109375
 20
-441.49267578125
 30
0.0
 10
827.505859375
 20
-437.35400390625
 30
0.0
 10
846.078125
 20
-411.4189453125
 30
0.0
 10
867.20703125
 20
-381.9228515625
 30
0.0
 10
898.9306640625
 20
-384.2470703125
 30
0.0
 10
899.2939453125
 20
-384.27734375
 30
0.0
 10
899.650390625
 20
-384.2919921875
 30
0.0
 10
899.9951171875
 20
-384.2919921875
 30
0.0
 10
899.9951171875
 20
-384.2919921875
 30
0.0
 10
899.9951171875
 20
-384.2919921875
 30
0.0
 10
899.9990234375
 20
-384.2919921875
 30
0.0
 10
906.337890625
 20
-384.2919921875
 30
0.0
 10
910.9794921875
 20
-379.74853515625
 30
0.0
 10
911.279296875
 20
-373.248046875
 30
0.0
 10
911.5673828125
 20
-367.0546875
 30
0.0
 10
907.5263671875
 20
-360.07421875
 30
0.0
 10
899.4697265625
 20
-359.32421875
 30
0.0
 10
878.619140625
 20
-357.39013671875
 30
0.0
 10
864.0126953125
 20
-370.44384765625
 30
0.0
 10
852.6611328125
 20
-383.16015625
 30
0.0
 10
850.1044921875
 20
-386.0244140625
 30
0.0
 10
847.48828125
 20
-388.970703125
 30
0.0
 10
844.8603515625
 20
-392.0
 30
0.0
 10
849.951171875
 20
-366.77734375
 30
0.0
 10
846.4609375
 20
-342.21435546875
 30
0.0
 10
834.583984375
 20
-321.39306640625
 30
0.0
 10
831.419921875
 20
-315.8525390625
 30
0.0
 10
827.5810546875
 20
-310.59619140625
 30
0.0
 10
823.1689453125
 20
-305.76025390625
 30
0.0
 10
823.0380859375
 20
-303.11328125
 30
0.0
 10
822.7080078125
 20
-300.51171875
 30
0.0
 10
822.388671875
 20
-297.9775390625
 30
0.0
 10
821.9951171875
 20
-294.84375
 30
0.0
 10
821.6201171875
 20
-291.8818359375
 30
0.0
 10
821.61328125
 20
-288.9501953125
 30
0.0
 10
821.5830078125
 20
-279.7802734375
 30
0.0
 10
823.73828125
 20
-271.81787109375
 30
0.0
 10
828.59375
 20
-263.1279296875
 30
0.0
 10
828.8935546875
 20
-262.595703125
 30
0.0
 10
829.32421875
 20
-261.88330078125
 30
0.0
 10
829.845703125
 20
-261.02099609375
 30
0.0
 10
835.5517578125
 20
-251.5439453125
 30
0.0
 10
841.3212890625
 20
-240.859375
 30
0.0
 10
837.5009765625
 20
-234.0966796875
 30
0.0
 10
836.2109375
 20
-231.82470703125
 30
0.0
 10
833.3017578125
 20
-229.08056640625
 30
0.0
 10
826.673828125
 20
-229.42529296875
 30
0.0
 10
808.6943359375
 20
-230.302734375
 30
0.0
 10
805.8671875
 20
-259.74609375
 30
0.0
 10
804.802734375
 20
-270.828125
 30
0.0
 10
804.3154296875
 20
-275.88916015625
 30
0.0
 10
803.6484375
 20
-282.79443359375
 30
0.0
 10
803.9072265625
 20
-289.82763671875
 30
0.0
 10
790.3662109375
 20
-281.52734375
 30
0.0
 10
774.9052734375
 20
-277.021484375
 30
0.0
 10
759.591796875
 20
-277.021484375
 30
0.0
 10
746.3349609375
 20
-277.021484375
 30
0.0
 10
733.4052734375
 20
-280.455078125
 30
0.0
 10
722.12890625
 20
-286.9482421875
 30
0.0
 10
716.5244140625
 20
-287.33837890625
 30
0.0
 10
711.1484375
 20
-286.86572265625
 30
0.0
 10
706.2822265625
 20
-285.44873046875
 30
0.0
 10
703.177734375
 20
-284.548828125
 30
0.0
 10
700.0810546875
 20
-282.08984375
 30
0.0
 10
696.8125
 20
-279.48828125
 30
0.0
 10
696.16796875
 20
-278.974609375
 30
0.0
 10
695.515625
 20
-278.45703125
 30
0.0
 10
694.86328125
 20
-277.951171875
 30
0.0
 10
694.86328125
 20
-277.951171875
 30
0.0
 10
694.86328125
 20
-82.85107421875
 30
0.0
 10
694.86328125
 20
-82.85107421875
 30
0.0
 10
694.86328125
 20
-82.85107421875
 30
0.0
 10
668.984375
 20
-82.85107421875
 30
0.0
 10
668.984375
 20
-82.85107421875
 30
0.0
 10
666.6337890625
 20
-107.9462890625
 30
0.0
 10
656.4326171875
 20
-131.279296875
 30
0.0
 10
638.404296875
 20
-152.83544921875
 30
0.0
 10
607.0302734375
 20
-118.337890625
 30
0.0
 10
576.4501953125
 20
-95.59716796875
 30
0.0
 10
546.654296875
 20
-84.62060546875
 30
0.0
 10
516.857421875
 20
-73.6435546875
 30
0.0
 10
485.09716796875
 20
-68.14794921875
 30
0.0
 10
451.3818359375
 20
-68.14794921875
 30
0.0
 10
391.0
 20
-68.14794921875
 30
0.0
 10
341.10986328125
 20
-87.072265625
 30
0.0
 10
301.70703125
 20
-124.90625
 30
0.0
 10
262.30224609375
 20
-162.74755859375
 30
0.0
 10
242.60205078125
 20
-210.08837890625
 30
0.0
 10
242.60205078125
 20
-266.92919921875
 30
0.0
 10
242.60205078125
 20
-301.36279296875
 30
0.0
 10
250.4892578125
 20
-333.91455078125
 30
0.0
 10
266.0625
 20
-364.6552734375
 30
0.0
 10
260.763671875
 20
-366.32373046875
 30
0.0
 10
255.58984375
 20
-368.3515625
 30
0.0
 10
250.6337890625
 20
-370.8037109375
 30
0.0
 10
243.1474609375
 20
-374.5078125
 30
0.0
 10
236.01708984375
 20
-379.3212890625
 30
0.0
 10
229.0439453125
 20
-385.4169921875
 30
0.0
 10
230.419921875
 20
-375.205078125
 30
0.0
 10
230.8359375
 20
-363.13330078125
 30
0.0
 10
225.89111328125
 20
-353.04150390625
 30
0.0
 10
224.0732421875
 20
-349.33740234375
 30
0.0
 10
220.65380859375
 20
-347.2080078125
 30
0.0
 10
216.5
 20
-347.2080078125
 30
0.0
 10
212.927734375
 20
-347.2080078125
 30
0.0
 10
209.32470703125
 20
-348.82763671875
 30
0.0
 10
206.865234375
 20
-351.52685546875
 30
0.0
 10
204.69140625
 20
-353.91845703125
 30
0.0
 10
203.64892578125
 20
-356.92529296875
 30
0.0
 10
203.9375
 20
-359.9765625
 30
0.0
 10
204.39501953125
 20
-364.873046875
 30
0.0
 10
205.6357421875
 20
-369.48388671875
 30
0.0
 10
206.83544921875
 20
-373.9453125
 30
0.0
 10
208.1513671875
 20
-378.8486328125
 30
0.0
 10
209.39599609375
 20
-383.48974609375
 30
0.0
 10
209.6435546875
 20
-388.37109375
 30
0.0
 10
209.84228515625
 20
-392.30712890625
 30
0.0
 10
209.11474609375
 20
-396.31103515625
 30
0.0
 10
208.35009765625
 20
-400.54736328125
 30
0.0
 10
207.8330078125
 20
-403.38134765625
 30
0.0
 10
207.30029296875
 20
-406.3056640625
 30
0.0
 10
207.056640625
 20
-409.26708984375
 30
0.0
 10
202.83154296875
 20
-414.68798828125
 30
0.0
 10
198.73046875
 20
-420.32666015625
 30
0.0
 10
194.74169921875
 20
-425.8671875
 30
0.0
 10
194.68896484375
 20
-418.5498046875
 30
0.0
 10
193.64306640625
 20
-412.09375
 30
0.0
 10
192.99462890625
 20
-408.787109375
 30
0.0
 10
192.0947265625
 20
-404.2060546875
 30
0.0
 10
188.4169921875
 20
-401.24462890625
 30
0.0
 10
183.62255859375
 20
-401.24462890625
 30
0.0
 10
179.8095703125
 20
-401.24462890625
 30
0.0
 10
176.03466796875
 20
-403.15673828125
 30
0.0
 10
174.0029296875
 20
-406.1181640625
 30
0.0
 10
172.19580078125
 20
-408.75732421875
 30
0.0
 10
171.86572265625
 20
-411.9365234375
 30
0.0
 10
173.0732421875
 20
-415.0703125
 30
0.0
 10
175.3447265625
 20
-420.94873046875
 30
0.0
 10
177.24560546875
 20
-426.30224609375
 30
0.0
 10
177.50390625
 20
-432.345703125
 30
0.0
 10
177.59423828125
 20
-434.6025390625
 30
0.0
 10
177.4931640625
 20
-436.904296875
 30
0.0
 10
177.38427734375
 20
-439.3486328125
 30
0.0
 10
177.24169921875
 20
-442.580078125
 30
0.0
 10
177.091796875
 20
-445.9091796875
 30
0.0
 10
177.421875
 20
-449.275390625
 30
0.0
 10
174.212890625
 20
-453.31689453125
 30
0.0
 10
171.1650390625
 20
-456.90087890625
 30
0.0
 10
168.1767578125
 20
-460.15478515625
 30
0.0
 10
168.2294921875
 20
-452.22216796875
 30
0.0
 10
166.11865234375
 20
-444.39453125
 30
0.0
 10
162.0888671875
 20
-438.666015625
 30
0.0
 10
160.064453125
 20
-435.77197265625
 30
0.0
 10
156.11669921875
 20
-434.4375
 30
0.0
 10
152.95263671875
 20
-435.7197265625
 30
0.0
 10
151.60693359375
 20
-436.2666015625
 30
0.0
 10
150.7373046875
 20
-436.97900390625
 30
0.0
 10
150.0849609375
 20
-437.58642578125
 30
0.0
 10
147.97021484375
 20
-439.52099609375
 30
0.0
 10
147.224609375
 20
-443.0224609375
 30
0.0
 10
148.341796875
 20
-445.72900390625
 30
0.0
 10
148.341796875
 20
-445.72900390625
 30
0.0
 10
148.521484375
 20
-446.1640625
 30
0.0
 10
148.521484375
 20
-446.1640625
 30
0.0
 10
150.703125
 20
-451.47998046875
 30
0.0
 10
152.5888671875
 20
-456.068359375
 30
0.0
 10
152.51416015625
 20
-461.5341796875
 30
0.0
 10
152.44287109375
 20
-467.2099609375
 30
0.0
 10
150.3095703125
 20
-472.5712890625
 30
0.0
 10
148.15771484375
 20
-477.81201171875
 30
0.0
 10
146.80078125
 20
-478.74169921875
 30
0.0
 10
145.4287109375
 20
-479.6416015625
 30
0.0
 10
144.01171875
 20
-480.49609375
 30
0.0
 10
134.091796875
 20
-486.4794921875
 30
0.0
 10
122.01318359375
 20
-489.90625
 30
0.0
 10
110.88623046875
 20
-489.90625
 30
0.0
 10
99.7373046875
 20
-489.90625
 30
0.0
 10
79.98779296875
 20
-486.4794921875
 30
0.0
 10
73.0302734375
 20
-463.521484375
 30
0.0
 10
68.861328125
 20
-449.78515625
 30
0.0
 10
73.8623046875
 20
-434.4150390625
 30
0.0
 10
84.9140625
 20
-426.9619140625
 30
0.0
 10
91.67333984375
 20
-422.4033203125
 30
0.0
 10
99.205078125
 20
-421.9833984375
 30
0.0
 10
105.29296875
 20
-425.83740234375
 30
0.0
 10
108.49462890625
 20
-427.8994140625
 30
0.0
 10
110.93505859375
 20
-430.62109375
 30
0.0
 10
112.8017578125
 20
-434.25
 30
0.0
 10
112.98583984375
 20
-434.5947265625
 30
0.0
 10
113.158203125
 20
-434.93212890625
 30
0.0
 10
113.31201171875
 20
-435.26953125
 30
0.0
 10
107.8349609375
 20
-435.2548828125
 30
0.0
 10
102.455078125
 20
-437.7587890625
 30
0.0
 10
99.21240234375
 20
-441.9951171875
 30
0.0
 10
95.935546875
 20
-446.29150390625
 30
0.0
 10
95.04345703125
 20
-452.01220703125
 30
0.0
 10
96.7080078125
 20
-458.115234375
 30
0.0
 10
98.79248046875
 20
-465.7705078125
 30
0.0
 10
105.248046875
 20
-470.7119140625
 30
0.0
 10
113.154296875
 20
-470.7119140625
 30
0.0
 10
115.96240234375
 20
-470.7119140625
 30
0.0
 10
118.84912109375
 20
-470.07421875
 30
0.0
 10
121.4921875
 20
-468.85205078125
 30
0.0
 10
133.3798828125
 20
-463.37109375
 30
0.0
 10
136.794921875
 20
-449.24560546875
 30
0.0
 10
136.10888671875
 20
-438.81591796875
 30
0.0
 10
134.744140625
 20
-417.822265625
 30
0.0
 10
117.109375
 20
-400.75
 30
0.0
 10
96.7978515625
 20
-400.75
 30
0.0
 10
94.45849609375
 20
-400.75
 30
0.0
 10
92.11572265625
 20
-400.982421875
 30
0.0
 10
89.82861328125
 20
-401.439453125
 30
0.0
 10
68.35888671875
 20
-405.720703125
 30
0.0
 10
51.083984375
 20
-428.0341796875
 30
0.0
 10
50.5068359375
 20
-452.2294921875
 30
0.0
 10
49.921875
 20
-476.4248046875
 30
0.0
 10
65.0673828125
 20
-499.21826171875
 30
0.0
 10
87.34326171875
 20
-507.68359375
 30
0.0
 10
91.3095703125
 20
-509.1826171875
 30
0.0
 10
95.46337890625
 20
-510.27734375
 30
0.0
 10
99.7294921875
 20
-510.9453125
 30
0.0
 10
99.7294921875
 20
-510.9453125
 30
0.0
 10
99.7294921875
 20
-511.896484375
 30
0.0
 10
99.7294921875
 20
-511.896484375
 30
0.0
 10
99.7294921875
 20
-511.896484375
 30
0.0
 10
903.7958984375
 20
-511.896484375
 30
0.0
 10
903.7958984375
 20
-511.896484375
 30
0.0
  0
SPLINE
  5
61
330
3C
100
AcDbEntity
  8
Layer 1
370
     0
100
AcDbSpline
210
0.0
220
0.0
230
1.0
 70
    11
 71
     3
 72
    26
 73
    22
 74
     0
 42
0.0000000001
 43
0.0000000001
 40
0.0
 40
0.0
 40
0.0
 40
0.0
 40
1.0
 40
1.0
 40
1.0
 40
2.0
 40
2.0
 40
2.0
 40
3.0
 40
3.0
 40
3.0
 40
4.0
 40
4.0
 40
4.0
 40
5.0
 40
5.0
 40
5.0
 40
6.0
 40
6.0
 40
6.0
 40
7.0
 40
7.0
 40
7.0
 40
7.0
 10
633.576171875
 20
-432.65283203125
 30
0.0
 10
643.4541015625
 20
-433.9501953125
 30
0.0
 10
653.669921875
 20
-435.2919921875
 30
0.0
 10
663.77734375
 20
-436.86669921875
 30
0.0
 10
665.763671875
 20
-437.173828125
 30
0.0
 10
667.7431640625
 20
-437.51171875
 30
0.0
 10
669.71875
 20
-437.87890625
 30
0.0
 10
686.75
 20
-457.470703125
 30
0.0
 10
696.0546875
 20
-477.9169921875
 30
0.0
 10
695.6953125
 20
-494.7421875
 30
0.0
 10
695.6953125
 20
-494.7421875
 30
0.0
 10
690.7919921875
 20
-494.7421875
 30
0.0
 10
690.7919921875
 20
-494.7421875
 30
0.0
 10
681.5810546875
 20
-486.70068359375
 30
0.0
 10
671.7021484375
 20
-479.431640625
 30
0.0
 10
661.0478515625
 20
-473.06591796875
 30
0.0
 10
635.1953125
 20
-457.6279296875
 30
0.0
 10
596.4248046875
 20
-438.05126953125
 30
0.0
 10
544.8173828125
 20
-414.380859375
 30
0.0
 10
574.189453125
 20
-424.81005859375
 30
0.0
 10
604.3681640625
 20
-428.81787109375
 30
0.0
 10
633.576171875
 20
-432.65283203125
 30
0.0
  0
SPLINE
  5
62
330
3C
100
AcDbEntity
  8
Layer 1
370
     0
100
AcDbSpline
210
0.0
220
0.0
230
1.0
 70
    11
 71
     3
 72
    20
 73
    16
 74
     0
 42
0.0000000001
 43
0.0000000001
 40
0.0
 40
0.0
 40
0.0
 40
0.0
 40
1.0
 40
1.0
 40
1.0
 40
2.0
 40
2.0
 40
2.0
 40
3.0
 40
3.0
 40
3.0
 40
4.0
 40
4.0
 40
4.0
 40
5.0
 40
5.0
 40
5.0
 40
5.0
 10
560.6484375
 20
-399.80517578125
 30
0.0
 10
580.064453125
 20
-395.1865234375
 30
0.0
 10
600.6572265625
 20
-395.1416015625
 30
0.0
 10
616.85546875
 20
-399.7900390625
 30
0.0
 10
627.6826171875
 20
-402.9013671875
 30
0.0
 10
640.7587890625
 20
-410.751953125
 30
0.0
 10
653.201171875
 20
-421.451171875
 30
0.0
 10
650.56640625
 20
-421.12109375
 30
0.0
 10
647.94921875
 20
-420.81396484375
 30
0.0
 10
645.3701171875
 20
-420.50634765625
 30
0.0
 10
641.6884765625
 20
-420.06396484375
 30
0.0
 10
638.033203125
 20
-419.62890625
 30
0.0
 10
634.416015625
 20
-419.1640625
 30
0.0
 10
607.0078125
 20
-415.595703125
 30
0.0
 10
582.24609375
 20
-409.0947265625
 30
0.0
 10
560.6484375
 20
-399.80517578125
 30
0.0
  0
SPLINE
  5
63
330
3C
100
AcDbEntity
  8
Layer 1
370
     0
100
AcDbSpline
210
0.0
220
0.0
230
1.0
 70
    11
 71
     3
 72
    23
 73
    19
 74
     0
 42
0.0000000001
 43
0.0000000001
 40
0.0
 40
0.0
 40
0.0
 40
0.0
 40
1.0
 40
1.0
 40
1.0
 40
2.0
 40
2.0
 40
2.0
 40
3.0
 40
3.0
 40
3.0
 40
4.0
 40
4.0
 40
4.0
 40
5.0
 40
5.0
 40
5.0
 40
6.0
 40
6.0
 40
6.0
 40
6.0
 10
720.4228515625
 20
-494.0224609375
 30
0.0
 10
719.3134765625
 20
-494.26953125
 30
0.0
 10
718.2109375
 20
-494.509765625
 30
0.0
 10
717.1015625
 20
-494.7421875
 30
0.0
 10
717.1015625
 20
-494.7421875
 30
0.0
 10
712.6171875
 20
-494.7421875
 30
0.0
 10
712.6171875
 20
-494.7421875
 30
0.0
 10
710.1279296875
 20
-477.27978515625
 30
0.0
 10
704.0478515625
 20
-460.31982421875
 30
0.0
 10
694.8291015625
 20
-445.00927734375
 30
0.0
 10
703.2158203125
 20
-448.48046875
 30
0.0
 10
710.30078125
 20
-452.87451171875
 30
0.0
 10
716.306640625
 20
-458.29541015625
 30
0.0
 10
725.154296875
 20
-466.265625
 30
0.0
 10
730.439453125
 20
-475.34521484375
 30
0.0
 10
733.244140625
 20
-487.4541015625
 30
0.0
 10
728.8125
 20
-489.93603515625
 30
0.0
 10
724.3515625
 20
-492.1328125
 30
0.0
 10
720.4228515625
 20
-494.0224609375
 30
0.0
  0
SPLINE
  5
64
330
3C
100
AcDbEntity
  8
Layer 1
370
     0
100
AcDbSpline
210
0.0
220
0.0
230
1.0
 70
    11
 71
     3
 72
   209
 73
   205
 74
     0
 42
0.0000000001
 43
0.0000000001
 40
0.0
 40
0.0
 40
0.0
 40
0.0
 40
1.0
 40
1.0
 40
1.0
 40
2.0
 40
2.0
 40
2.0
 40
3.0
 40
3.0
 40
3.0
 40
4.0
 40
4.0
 40
4.0
 40
5.0
 40
5.0
 40
5.0
 40
6.0
 40
6.0
 40
6.0
 40
7.0
 40
7.0
 40
7.0
 40
8.0
 40
8.0
 40
8.0
 40
9.0
 40
9.0
 40
9.0
 40
10.0
 40
10.0
 40
10.0
 40
11.0
 40
11.0
 40
11.0
 40
12.0
 40
12.0
 40
12.0
 40
13.0
 40
13.0
 40
13.0
 40
14.0
 40
14.0
 40
14.0
 40
15.0
 40
15.0
 40
15.0
 40
16.0
 40
16.0
 40
16.0
 40
17.0
 40
17.0
 40
17.0
 40
18.0
 40
18.0
 40
18.0
 40
19.0
 40
19.0
 40
19.0
 40
20.0
 40
20.0
 40
20.0
 40
21.0
 40
21.0
 40
21.0
 40
22.0
 40
22.0
 40
22.0
 40
23.0
 40
23.0
 40
23.0
 40
24.0
 40
24.0
 40
24.0
 40
25.0
 40
25.0
 40
25.0
 40
26.0
 40
26.0
 40
26.0
 40
27.0
 40
27.0
 40
27.0
 40
28.0
 40
28.0
 40
28.0
 40
29.0
 40
29.0
 40
29.0
 40
30.0
 40
30.0
 40
30.0
 40
31.0
 40
31.0
 40
31.0
 40
32.0
 40
32.0
 40
32.0
 40
33.0
 40
33.0
 40
33.0
 40
34.0
 40
34.0
 40
34.0
 40
35.0
 40
35.0
 40
35.0
 40
36.0
 40
36.0
 40
36.0
 40
37.0
 40
37.0
 40
37.0
 40
38.0
 40
38.0
 40
38.0
 40
39.0
 40
39.0
 40
39.0
 40
40.0
 40
40.0
 40
40.0
 40
41.0
 40
41.0
 40
41.0
 40
42.0
 40
42.0
 40
42.0
 40
43.0
 40
43.0
 40
43.0
 40
44.0
 40
44.0
 40
44.0
 40
45.0
 40
45.0
 40
45.0
 40
46.0
 40
46.0
 40
46.0
 40
47.0
 40
47.0
 40
47.0
 40
48.0
 40
48.0
 40
48.0
 40
49.0
 40
49.0
 40
49.0
 40
50.0
 40
50.0
 40
50.0
 40
51.0
 40
51.0
 40
51.0
 40
52.0
 40
52.0
 40
52.0
 40
53.0
 40
53.0
 40
53.0
 40
54.0
 40
54.0
 40
54.0
 40
55.0
 40
55.0
 40
55.0
 40
56.0
 40
56.0
 40
56.0
 40
57.0
 40
57.0
 40
57.0
 40
58.0
 40
58.0
 40
58.0
 40
59.0
 40
59.0
 40
59.0
 40
60.0
 40
60.0
 40
60.0
 40
61.0
 40
61.0
 40
61.0
 40
62.0
 40
62.0
 40
62.0
 40
63.0
 40
63.0
 40
63.0
 40
64.0
 40
64.0
 40
64.0
 40
65.0
 40
65.0
 40
65.0
 40
66.0
 40
66.0
 40
66.0
 40
67.0
 40
67.0
 40
67.0
 40
68.0
 40
68.0
 40
68.0
 40
68.0
 10
354.048828125
 20
-134.31591796875
 30
0.0
 10
376.1953125
 20
-108.6357421875
 30
0.0
 10
410.99462890625
 20
-95.7919921875
 30
0.0
 10
458.43896484375
 20
-95.7919921875
 30
0.0
 10
508.2275390625
 20
-95.7919921875
 30
0.0
 10
552.041015625
 20
-113.2392578125
 30
0.0
 10
589.8828125
 20
-148.13427734375
 30
0.0
 10
627.716796875
 20
-183.03662109375
 30
0.0
 10
654.08203125
 20
-230.86474609375
 30
0.0
 10
668.984375
 20
-291.63427734375
 30
0.0
 10
668.984375
 20
-291.63427734375
 30
0.0
 10
672.7373046875
 20
-291.63427734375
 30
0.0
 10
672.7373046875
 20
-291.63427734375
 30
0.0
 10
679.6494140625
 20
-299.5068359375
 30
0.0
 10
695.04296875
 20
-300.51171875
 30
0.0
 10
703.5380859375
 20
-301.06640625
 30
0.0
 10
703.5380859375
 20
-301.06640625
 30
0.0
 10
704.34765625
 20
-301.119140625
 30
0.0
 10
704.34765625
 20
-301.119140625
 30
0.0
 10
690.46875
 20
-316.15966796875
 30
0.0
 10
680.609375
 20
-339.05029296875
 30
0.0
 10
687.0576171875
 20
-361.3486328125
 30
0.0
 10
691.833984375
 20
-377.88134765625
 30
0.0
 10
707.796875
 20
-390.3427734375
 30
0.0
 10
724.1796875
 20
-390.3427734375
 30
0.0
 10
731.0546875
 20
-390.3427734375
 30
0.0
 10
737.65234375
 20
-388.1162109375
 30
0.0
 10
743.25390625
 20
-383.89453125
 30
0.0
 10
748.7197265625
 20
-379.7861328125
 30
0.0
 10
750.87109375
 20
-373.4951171875
 30
0.0
 10
748.8623046875
 20
-367.48974609375
 30
0.0
 10
746.9541015625
 20
-361.78369140625
 30
0.0
 10
741.6533203125
 20
-357.9521484375
 30
0.0
 10
735.673828125
 20
-357.9521484375
 30
0.0
 10
733.4912109375
 20
-357.9521484375
 30
0.0
 10
731.279296875
 20
-358.43212890625
 30
0.0
 10
729.09765625
 20
-359.39208984375
 30
0.0
 10
724.26953125
 20
-361.4990234375
 30
0.0
 10
720.580078125
 20
-361.0263671875
 30
0.0
 10
717.7236328125
 20
-357.7197265625
 30
0.0
 10
713.5478515625
 20
-352.8837890625
 30
0.0
 10
712.2724609375
 20
-343.654296875
 30
0.0
 10
713.1875
 20
-337.4306640625
 30
0.0
 10
714.7841796875
 20
-326.619140625
 30
0.0
 10
721.513671875
 20
-318.18408203125
 30
0.0
 10
726.87890625
 20
-313.0107421875
 30
0.0
 10
736.73828125
 20
-303.49609375
 30
0.0
 10
750.5263671875
 20
-298.03759765625
 30
0.0
 10
764.705078125
 20
-298.03759765625
 30
0.0
 10
769.447265625
 20
-298.03759765625
 30
0.0
 10
774.1298828125
 20
-298.65234375
 30
0.0
 10
778.61328125
 20
-299.859375
 30
0.0
 10
786.4111328125
 20
-301.951171875
 30
0.0
 10
793.5673828125
 20
-305.31787109375
 30
0.0
 10
800.0009765625
 20
-309.90673828125
 30
0.0
 10
783.83203125
 20
-309.3740234375
 30
0.0
 10
770.2158203125
 20
-316.609375
 30
0.0
 10
764.1123046875
 20
-328.943359375
 30
0.0
 10
762.2451171875
 20
-332.71484375
 30
0.0
 10
762.4892578125
 20
-336.99609375
 30
0.0
 10
764.783203125
 20
-340.68505859375
 30
0.0
 10
767.0888671875
 20
-344.396484375
 30
0.0
 10
771.0029296875
 20
-346.70556640625
 30
0.0
 10
774.9990234375
 20
-346.70556640625
 30
0.0
 10
778.099609375
 20
-346.70556640625
 30
0.0
 10
781.01953125
 20
-345.2958984375
 30
0.0
 10
783.212890625
 20
-342.75439453125
 30
0.0
 10
789.7509765625
 20
-335.173828125
 30
0.0
 10
795.8359375
 20
-328.755859375
 30
0.0
 10
804.0986328125
 20
-327.0537109375
 30
0.0
 10
809.4443359375
 20
-325.9443359375
 30
0.0
 10
814.6171875
 20
-327.6240234375
 30
0.0
 10
820.2333984375
 20
-332.294921875
 30
0.0
 10
830.0107421875
 20
-349.03759765625
 30
0.0
 10
833.8271484375
 20
-369.97900390625
 30
0.0
 10
830.7080078125
 20
-389.85546875
 30
0.0
 10
825.78515625
 20
-421.1962890625
 30
0.0
 10
807.359375
 20
-448.810546875
 30
0.0
 10
778.8828125
 20
-468.59716796875
 30
0.0
 10
779.0595703125
 20
-468.34228515625
 30
0.0
 10
779.2353515625
 20
-468.080078125
 30
0.0
 10
779.412109375
 20
-467.8251953125
 30
0.0
 10
791.302734375
 20
-450.22021484375
 30
0.0
 10
794.703125
 20
-423.7529296875
 30
0.0
 10
777.58203125
 20
-409.3720703125
 30
0.0
 10
775.404296875
 20
-407.54296875
 30
0.0
 10
772.5849609375
 20
-406.5380859375
 30
0.0
 10
769.6455078125
 20
-406.5380859375
 30
0.0
 10
765.5966796875
 20
-406.5380859375
 30
0.0
 10
761.86328125
 20
-408.34521484375
 30
0.0
 10
759.6435546875
 20
-411.3740234375
 30
0.0
 10
757.6123046875
 20
-414.15576171875
 30
0.0
 10
757.109375
 20
-417.634765625
 30
0.0
 10
758.234375
 20
-421.166015625
 30
0.0
 10
764.326171875
 20
-440.26318359375
 30
0.0
 10
768.7314453125
 20
-454.05908203125
 30
0.0
 10
754.96875
 20
-470.50927734375
 30
0.0
 10
752.27734375
 20
-473.7255859375
 30
0.0
 10
749.068359375
 20
-476.7548828125
 30
0.0
 10
745.240234375
 20
-479.6787109375
 30
0.0
 10
741.513671875
 20
-465.02099609375
 30
0.0
 10
730.58203125
 20
-451.9970703125
 30
0.0
 10
720.7265625
 20
-444.14697265625
 30
0.0
 10
710.173828125
 20
-435.74951171875
 30
0.0
 10
697.5625
 20
-430.005859375
 30
0.0
 10
681.126953125
 20
-426.1298828125
 30
0.0
 10
656.6279296875
 20
-397.8857421875
 30
0.0
 10
621.7744140625
 20
-381.712890625
 30
0.0
 10
585.2900390625
 20
-381.712890625
 30
0.0
 10
570.4560546875
 20
-381.712890625
 30
0.0
 10
555.3515625
 20
-384.314453125
 30
0.0
 10
540.3935546875
 20
-389.435546875
 30
0.0
 10
540.3935546875
 20
-389.435546875
 30
0.0
 10
540.1015625
 20
-389.54052734375
 30
0.0
 10
540.1015625
 20
-389.54052734375
 30
0.0
 10
535.482421875
 20
-386.88623046875
 30
0.0
 10
531.3134765625
 20
-384.2470703125
 30
0.0
 10
527.3994140625
 20
-381.5029296875
 30
0.0
 10
510.248046875
 20
-369.4765625
 30
0.0
 10
499.22314453125
 20
-353.65625
 30
0.0
 10
497.15380859375
 20
-338.10546875
 30
0.0
 10
494.994140625
 20
-321.9404296875
 30
0.0
 10
503.9765625
 20
-307.10986328125
 30
0.0
 10
518.5078125
 20
-302.82861328125
 30
0.0
 10
524.8359375
 20
-300.9619140625
 30
0.0
 10
528.453125
 20
-295.29345703125
 30
0.0
 10
527.5048828125
 20
-288.7255859375
 30
0.0
 10
526.6728515625
 20
-282.95947265625
 30
0.0
 10
522.080078125
 20
-277.11865234375
 30
0.0
 10
514.916015625
 20
-277.11865234375
 30
0.0
 10
513.6337890625
 20
-277.11865234375
 30
0.0
 10
512.322265625
 20
-277.3134765625
 30
0.0
 10
511.013671875
 20
-277.6962890625
 30
0.0
 10
491.1591796875
 20
-283.5517578125
 30
0.0
 10
476.5087890625
 20
-300.08447265625
 30
0.0
 10
472.2158203125
 20
-320.80859375
 30
0.0
 10
471.21875
 20
-320.0283203125
 30
0.0
 10
470.23291015625
 20
-319.27880859375
 30
0.0
 10
469.2919921875
 20
-318.56640625
 30
0.0
 10
469.2919921875
 20
-318.56640625
 30
0.0
 10
468.29833984375
 20
-317.80908203125
 30
0.0
 10
468.29833984375
 20
-317.80908203125
 30
0.0
 10
460.90576171875
 20
-312.1708984375
 30
0.0
 10
451.03466796875
 20
-305.6552734375
 30
0.0
 10
439.8779296875
 20
-305.27294921875
 30
0.0
 10
435.30810546875
 20
-305.27294921875
 30
0.0
 10
431.5927734375
 20
-308.466796875
 30
0.0
 10
430.63330078125
 20
-313.2353515625
 30
0.0
 10
429.5947265625
 20
-318.37890625
 30
0.0
 10
432.04296875
 20
-323.455078125
 30
0.0
 10
436.458984375
 20
-325.30712890625
 30
0.0
 10
440.26416015625
 20
-326.904296875
 30
0.0
 10
444.14453125
 20
-327.8037109375
 30
0.0
 10
447.90087890625
 20
-328.68115234375
 30
0.0
 10
451.9794921875
 20
-329.6259765625
 30
0.0
 10
455.826171875
 20
-330.51806640625
 30
0.0
 10
459.43994140625
 20
-332.2197265625
 30
0.0
 10
462.31884765625
 20
-333.5771484375
 30
0.0
 10
464.92822265625
 20
-335.646484375
 30
0.0
 10
467.69482421875
 20
-337.8359375
 30
0.0
 10
468.90966796875
 20
-338.79541015625
 30
0.0
 10
470.1201171875
 20
-339.75537109375
 30
0.0
 10
471.361328125
 20
-340.66259765625
 30
0.0
 10
471.60107421875
 20
-342.724609375
 30
0.0
 10
471.9462890625
 20
-344.77880859375
 30
0.0
 10
472.388671875
 20
-346.78076171875
 30
0.0
 10
472.86083984375
 20
-348.947265625
 30
0.0
 10
473.4384765625
 20
-351.08447265625
 30
0.0
 10
474.11328125
 20
-353.19140625
 30
0.0
 10
472.201171875
 20
-352.44140625
 30
0.0
 10
470.25927734375
 20
-351.75927734375
 30
0.0
 10
468.33203125
 20
-351.1669921875
 30
0.0
 10
462.8251953125
 20
-349.4873046875
 30
0.0
 10
457.5205078125
 20
-353.68603515625
 30
0.0
 10
457.1455078125
 20
-359.796875
 30
0.0
 10
456.83447265625
 20
-364.8955078125
 30
0.0
 10
460.009765625
 20
-368.869140625
 30
0.0
 10
464.8681640625
 20
-369.46875
 30
0.0
 10
469.99658203125
 20
-370.0986328125
 30
0.0
 10
474.60400390625
 20
-370.7958984375
 30
0.0
 10
479.02783203125
 20
-372.92578125
 30
0.0
 10
480.6962890625
 20
-373.7275390625
 30
0.0
 10
482.33447265625
 20
-374.70263671875
 30
0.0
 10
484.06640625
 20
-375.72216796875
 30
0.0
 10
485.2734375
 20
-376.44189453125
 30
0.0
 10
486.48046875
 20
-377.154296875
 30
0.0
 10
487.70654296875
 20
-377.81396484375
 30
0.0
 10
494.75048828125
 20
-386.37646484375
 30
0.0
 10
503.9619140625
 20
-394.0693359375
 30
0.0
 10
515.15234375
 20
-400.7421875
 30
0.0
 10
515.0849609375
 20
-400.77978515625
 30
0.0
 10
515.0244140625
 20
-400.82470703125
 30
0.0
 10
514.95703125
 20
-400.8662109375
 30
0.0
 10
513.75390625
 20
-400.326171875
 30
0.0
 10
512.583984375
 20
-399.80126953125
 30
0.0
 10
511.369140625
 20
-399.2578125
 30
0.0
 10
439.619140625
 20
-367.11474609375
 30
0.0
 10
390.015625
 20
-338.09814453125
 30
0.0
 10
362.576171875
 20
-312.2158203125
 30
0.0
 10
334.73291015625
 20
-286.73828125
 30
0.0
 10
320.82080078125
 20
-255.5625
 30
0.0
 10
320.82080078125
 20
-218.7109375
 30
0.0
 10
320.82080078125
 20
-188.12744140625
 30
0.0
 10
331.89306640625
 20
-159.99560546875
 30
0.0
 10
354.048828125
 20
-134.31591796875
 30
0.0
  0
SPLINE
  5
65
330
3C
100
AcDbEntity
  8
Layer 1
370
     0
100
AcDbSpline
210
0.0
220
0.0
230
1.0
 70
    11
 71
     3
 72
    38
 73
    34
 74
     0
 42
0.0000000001
 43
0.0000000001
 40
0.0
 40
0.0
 40
0.0
 40
0.0
 40
1.0
 40
1.0
 40
1.0
 40
2.0
 40
2.0
 40
2.0
 40
3.0
 40
3.0
 40
3.0
 40
4.0
 40
4.0
 40
4.0
 40
5.0
 40
5.0
 40
5.0
 40
6.0
 40
6.0
 40
6.0
 40
7.0
 40
7.0
 40
7.0
 40
8.0
 40
8.0
 40
8.0
 40
9.0
 40
9.0
 40
9.0
 40
10.0
 40
10.0
 40
10.0
 40
11.0
 40
11.0
 40
11.0
 40
11.0
 10
158.572265625
 20
-494.7421875
 30
0.0
 10
160.109375
 20
-493.65478515625
 30
0.0
 10
161.62744140625
 20
-492.51513671875
 30
0.0
 10
163.11962890625
 20
-491.337890625
 30
0.0
 10
180.2861328125
 20
-477.72216796875
 30
0.0
 10
192.64990234375
 20
-459.54736328125
 30
0.0
 10
204.6083984375
 20
-441.97265625
 30
0.0
 10
210.2392578125
 20
-433.6953125
 30
0.0
 10
216.0615234375
 20
-425.14013671875
 30
0.0
 10
222.28466796875
 20
-417.22265625
 30
0.0
 10
237.02734375
 20
-398.45556640625
 30
0.0
 10
254.888671875
 20
-386.0693359375
 30
0.0
 10
274.90625
 20
-380.54296875
 30
0.0
 10
277.51904296875
 20
-384.82080078125
 30
0.0
 10
280.25
 20
-389.0009765625
 30
0.0
 10
283.1220703125
 20
-393.05712890625
 30
0.0
 10
281.33349609375
 20
-392.3857421875
 30
0.0
 10
279.50048828125
 20
-391.79736328125
 30
0.0
 10
277.5771484375
 20
-391.39990234375
 30
0.0
 10
274.6904296875
 20
-390.80029296875
 30
0.0
 10
271.736328125
 20
-390.5
 30
0.0
 10
268.79736328125
 20
-390.5
 30
0.0
 10
248.103515625
 20
-390.5
 30
0.0
 10
227.54833984375
 20
-406.2080078125
 30
0.0
 10
219.9189453125
 20
-427.8466796875
 30
0.0
 10
211.69775390625
 20
-451.2021484375
 30
0.0
 10
218.26953125
 20
-477.189453125
 30
0.0
 10
236.27197265625
 20
-492.5078125
 30
0.0
 10
237.17919921875
 20
-493.2802734375
 30
0.0
 10
238.10888671875
 20
-494.0224609375
 30
0.0
 10
239.06103515625
 20
-494.7421875
 30
0.0
 10
239.06103515625
 20
-494.7421875
 30
0.0
 10
158.572265625
 20
-494.7421875
 30
0.0
 10
158.572265625
 20
-494.7421875
 30
0.0
  0
SPLINE
  5
66
330
3C
100
AcDbEntity
  8
Layer 1
370
     0
100
AcDbSpline
210
0.0
220
0.0
230
1.0
 70
    11
 71
     3
 72
    47
 73
    43
 74
     0
 42
0.0000000001
 43
0.0000000001
 40
0.0
 40
0.0
 40
0.0
 40
0.0
 40
1.0
 40
1.0
 40
1.0
 40
2.0
 40
2.0
 40
2.0
 40
3.0
 40
3.0
 40
3.0
 40
4.0
 40
4.0
 40
4.0
 40
5.0
 40
5.0
 40
5.0
 40
6.0
 40
6.0
 40
6.0
 40
7.0
 40
7.0
 40
7.0
 40
8.0
 40
8.0
 40
8.0
 40
9.0
 40
9.0
 40
9.0
 40
10.0
 40
10.0
 40
10.0
 40
11.0
 40
11.0
 40
11.0
 40
12.0
 40
12.0
 40
12.0
 40
13.0
 40
13.0
 40
13.0
 40
14.0
 40
14.0
 40
14.0
 40
14.0
 10
259.41748046875
 20
-479.0341796875
 30
0.0
 10
244.06201171875
 20
-470.5390625
 30
0.0
 10
237.583984375
 20
-452.912109375
 30
0.0
 10
243.66455078125
 20
-436.154296875
 30
0.0
 10
246.92626953125
 20
-427.16455078125
 30
0.0
 10
253.126953125
 20
-420.5966796875
 30
0.0
 10
261.126953125
 20
-417.6796875
 30
0.0
 10
267.04638671875
 20
-415.5126953125
 30
0.0
 10
271.41796875
 20
-415.2578125
 30
0.0
 10
274.72802734375
 20
-416.8701171875
 30
0.0
 10
277.14990234375
 20
-418.046875
 30
0.0
 10
280.08154296875
 20
-421.13623046875
 30
0.0
 10
280.59130859375
 20
-424.0830078125
 30
0.0
 10
280.84619140625
 20
-425.544921875
 30
0.0
 10
280.44873046875
 20
-426.759765625
 30
0.0
 10
279.3388671875
 20
-427.8916015625
 30
0.0
 10
274.9755859375
 20
-432.35302734375
 30
0.0
 10
273.74609375
 20
-437.9462890625
 30
0.0
 10
275.97265625
 20
-443.23974609375
 30
0.0
 10
278.3046875
 20
-448.7880859375
 30
0.0
 10
283.98388671875
 20
-452.66455078125
 30
0.0
 10
289.77978515625
 20
-452.66455078125
 30
0.0
 10
294.30859375
 20
-452.66455078125
 30
0.0
 10
298.22998046875
 20
-450.35498046875
 30
0.0
 10
300.8203125
 20
-446.15625
 30
0.0
 10
305.71435546875
 20
-438.2236328125
 30
0.0
 10
307.3583984375
 20
-428.8662109375
 30
0.0
 10
305.6865234375
 20
-419.966796875
 30
0.0
 10
317.658203125
 20
-432.1015625
 30
0.0
 10
331.0849609375
 20
-442.98095703125
 30
0.0
 10
346.10888671875
 20
-452.484375
 30
0.0
 10
352.056640625
 20
-456.24462890625
 30
0.0
 10
358.5400390625
 20
-460.125
 30
0.0
 10
365.53564453125
 20
-464.1171875
 30
0.0
 10
364.376953125
 20
-464.6533203125
 30
0.0
 10
363.1982421875
 20
-465.2158203125
 30
0.0
 10
362.06982421875
 20
-465.7255859375
 30
0.0
 10
338.462890625
 20
-476.3876953125
 30
0.0
 10
313.3603515625
 20
-486.2470703125
 30
0.0
 10
289.697265625
 20
-486.2470703125
 30
0.0
 10
278.26318359375
 20
-486.2470703125
 30
0.0
 10
268.07763671875
 20
-483.81787109375
 30
0.0
 10
259.41748046875
 20
-479.0341796875
 30
0.0
  0
SPLINE
  5
67
330
3C
100
AcDbEntity
  8
Layer 1
370
     0
100
AcDbSpline
210
0.0
220
0.0
230
1.0
 70
    11
 71
     3
 72
    20
 73
    16
 74
     0
 42
0.0000000001
 43
0.0000000001
 40
0.0
 40
0.0
 40
0.0
 40
0.0
 40
1.0
 40
1.0
 40
1.0
 40
2.0
 40
2.0
 40
2.0
 40
3.0
 40
3.0
 40
3.0
 40
4.0
 40
4.0
 40
4.0
 40
5.0
 40
5.0
 40
5.0
 40
5.0
 10
346.9501953125
 20
-494.7421875
 30
0.0
 10
360.5048828125
 20
-489.1376953125
 30
0.0
 10
373.6162109375
 20
-482.3896484375
 30
0.0
 10
386.4619140625
 20
-475.5703125
 30
0.0
 10
393.49658203125
 20
-479.27783203125
 30
0.0
 10
400.9287109375
 20
-483.07568359375
 30
0.0
 10
408.779296875
 20
-486.966796875
 30
0.0
 10
409.3623046875
 20
-488.9912109375
 30
0.0
 10
409.9599609375
 20
-491.0341796875
 30
0.0
 10
410.53173828125
 20
-493.03271484375
 30
0.0
 10
410.53173828125
 20
-493.03271484375
 30
0.0
 10
411.02294921875
 20
-494.7421875
 30
0.0
 10
411.02294921875
 20
-494.7421875
 30
0.0
 10
411.02294921875
 20
-494.7421875
 30
0.0
 10
346.9501953125
 20
-494.7421875
 30
0.0
 10
346.9501953125
 20
-494.7421875
 30
0.0
  0
HATCH
  5
68
330
3C
100
AcDbEntity
  8
Layer 1
 62
     7
100
AcDbHatch
 10
0.0
 20
0.0
 30
0.0
210
0.0
220
0.0
230
1.0
  2
SOLID
 70
     1
 71
     0
 91
        8
 92
        1
 93
        1
 72
     4
 94
        3
 73
     0
 74
     1
 95
      278
 96
      274
 40
0.0
 40
0.0
 40
0.0
 40
0.0
 40
1.0
 40
1.0
 40
1.0
 40
2.0
 40
2.0
 40
2.0
 40
3.0
 40
3.0
 40
3.0
 40
4.0
 40
4.0
 40
4.0
 40
5.0
 40
5.0
 40
5.0
 40
6.0
 40
6.0
 40
6.0
 40
7.0
 40
7.0
 40
7.0
 40
8.0
 40
8.0
 40
8.0
 40
9.0
 40
9.0
 40
9.0
 40
10.0
 40
10.0
 40
10.0
 40
11.0
 40
11.0
 40
11.0
 40
12.0
 40
12.0
 40
12.0
 40
13.0
 40
13.0
 40
13.0
 40
14.0
 40
14.0
 40
14.0
 40
15.0
 40
15.0
 40
15.0
 40
16.0
 40
16.0
 40
16.0
 40
17.0
 40
17.0
 40
17.0
 40
18.0
 40
18.0
 40
18.0
 40
19.0
 40
19.0
 40
19.0
 40
20.0
 40
20.0
 40
20.0
 40
21.0
 40
21.0
 40
21.0
 40
22.0
 40
22.0
 40
22.0
 40
23.0
 40
23.0
 40
23.0
 40
24.0
 40
24.0
 40
24.0
 40
25.0
 40
25.0
 40
25.0
 40
26.0
 40
26.0
 40
26.0
 40
27.0
 40
27.0
 40
27.0
 40
28.0
 40
28.0
 40
28.0
 40
29.0
 40
29.0
 40
29.0
 40
30.0
 40
30.0
 40
30.0
 40
31.0
 40
31.0
 40
31.0
 40
32.0
 40
32.0
 40
32.0
 40
33.0
 40
33.0
 40
33.0
 40
34.0
 40
34.0
 40
34.0
 40
35.0
 40
35.0
 40
35.0
 40
36.0
 40
36.0
 40
36.0
 40
37.0
 40
37.0
 40
37.0
 40
38.0
 40
38.0
 40
38.0
 40
39.0
 40
39.0
 40
39.0
 40
40.0
 40
40.0
 40
40.0
 40
41.0
 40
41.0
 40
41.0
 40
42.0
 40
42.0
 40
42.0
 40
43.0
 40
43.0
 40
43.0
 40
44.0
 40
44.0
 40
44.0
 40
45.0
 40
45.0
 40
45.0
 40
46.0
 40
46.0
 40
46.0
 40
47.0
 40
47.0
 40
47.0
 40
48.0
 40
48.0
 40
48.0
 40
49.0
 40
49.0
 40
49.0
 40
50.0
 40
50.0
 40
50.0
 40
51.0
 40
51.0
 40
51.0
 40
52.0
 40
52.0
 40
52.0
 40
53.0
 40
53.0
 40
53.0
 40
54.0
 40
54.0
 40
54.0
 40
55.0
 40
55.0
 40
55.0
 40
56.0
 40
56.0
 40
56.0
 40
57.0
 40
57.0
 40
57.0
 40
58.0
 40
58.0
 40
58.0
 40
59.0
 40
59.0
 40
59.0
 40
60.0
 40
60.0
 40
60.0
 40
61.0
 40
61.0
 40
61.0
 40
62.0
 40
62.0
 40
62.0
 40
63.0
 40
63.0
 40
63.0
 40
64.0
 40
64.0
 40
64.0
 40
65.0
 40
65.0
 40
65.0
 40
66.0
 40
66.0
 40
66.0
 40
67.0
 40
67.0
 40
67.0
 40
68.0
 40
68.0
 40
68.0
 40
69.0
 40
69.0
 40
69.0
 40
70.0
 40
70.0
 40
70.0
 40
71.0
 40
71.0
 40
71.0
 40
72.0
 40
72.0
 40
72.0
 40
73.0
 40
73.0
 40
73.0
 40
74.0
 40
74.0
 40
74.0
 40
75.0
 40
75.0
 40
75.0
 40
76.0
 40
76.0
 40
76.0
 40
77.0
 40
77.0
 40
77.0
 40
78.0
 40
78.0
 40
78.0
 40
79.0
 40
79.0
 40
79.0
 40
80.0
 40
80.0
 40
80.0
 40
81.0
 40
81.0
 40
81.0
 40
82.0
 40
82.0
 40
82.0
 40
83.0
 40
83.0
 40
83.0
 40
84.0
 40
84.0
 40
84.0
 40
85.0
 40
85.0
 40
85.0
 40
86.0
 40
86.0
 40
86.0
 40
87.0
 40
87.0
 40
87.0
 40
88.0
 40
88.0
 40
88.0
 40
89.0
 40
89.0
 40
89.0
 40
90.0
 40
90.0
 40
90.0
 40
91.0
 40
91.0
 40
91.0
 40
91.0
 10
903.7958984375
 20
-511.896484375
 10
903.7958984375
 20
-511.896484375
 10
903.7958984375
 20
-494.7421875
 10
903.7958984375
 20
-494.7421875
 10
903.7958984375
 20
-494.7421875
 10
761.1435546875
 20
-494.7421875
 10
761.1435546875
 20
-494.7421875
 10
771.1826171875
 20
-489.77099609375
 10
780.7646484375
 20
-483.802734375
 10
789.7919921875
 20
-476.8896484375
 10
798.396484375
 20
-472.908203125
 10
805.6318359375
 20
-469.88671875
 10
813.380859375
 20
-469.88671875
 10
817.0693359375
 20
-469.88671875
 10
820.6533203125
 20
-470.5693359375
 10
824.345703125
 20
-471.986328125
 10
828.7958984375
 20
-473.6806640625
 10
834.5732421875
 20
-476.02734375
 10
839.7880859375
 20
-479.109375
 10
839.7880859375
 20
-479.109375
 10
841.70703125
 20
-480.263671875
 10
841.70703125
 20
-480.263671875
 10
845.5380859375
 20
-482.60302734375
 10
849.15234375
 20
-484.8076171875
 10
855.166015625
 20
-484.97265625
 10
857.9736328125
 20
-484.97265625
 10
860.609375
 20
-483.67529296875
 10
862.3935546875
 20
-481.41845703125
 10
864.267578125
 20
-479.0419921875
 10
864.98046875
 20
-475.88525390625
 10
864.283203125
 20
-472.96875
 10
859.8818359375
 20
-454.5390625
 10
834.951171875
 20
-453.10693359375
 10
827.416015625
 20
-453.10693359375
 10
824.9423828125
 20
-453.10693359375
 10
822.53515625
 20
-453.234375
 10
820.263671875
 20
-453.4892578125
 10
818.408203125
 20
-453.69140625
 10
816.1806640625
 20
-454.0068359375
 10
813.6953125
 20
-454.494140625
 10
814.7490234375
 20
-453.26416015625
 10
815.787109375
 20
-452.01220703125
 10
816.7998046875
 20
-450.7373046875
 10
817.6201171875
 20
-450.4375
 10
818.33984375
 20
-449.9130859375
 10
818.8837890625
 20
-449.19287109375
 10
821.6728515625
 20
-445.49658203125
 10
824.537109375
 20
-441.49267578125
 10
827.505859375
 20
-437.35400390625
 10
846.078125
 20
-411.4189453125
 10
867.20703125
 20
-381.9228515625
 10
898.9306640625
 20
-384.2470703125
 10
899.2939453125
 20
-384.27734375
 10
899.650390625
 20
-384.2919921875
 10
899.9951171875
 20
-384.2919921875
 10
899.9951171875
 20
-384.2919921875
 10
899.9951171875
 20
-384.2919921875
 10
899.9990234375
 20
-384.2919921875
 10
906.337890625
 20
-384.2919921875
 10
910.9794921875
 20
-379.74853515625
 10
911.279296875
 20
-373.248046875
 10
911.5673828125
 20
-367.0546875
 10
907.5263671875
 20
-360.07421875
 10
899.4697265625
 20
-359.32421875
 10
878.619140625
 20
-357.39013671875
 10
864.0126953125
 20
-370.44384765625
 10
852.6611328125
 20
-383.16015625
 10
850.1044921875
 20
-386.0244140625
 10
847.48828125
 20
-388.970703125
 10
844.8603515625
 20
-392.0
 10
849.951171875
 20
-366.77734375
 10
846.4609375
 20
-342.21435546875
 10
834.583984375
 20
-321.39306640625
 10
831.419921875
 20
-315.8525390625
 10
827.5810546875
 20
-310.59619140625
 10
823.1689453125
 20
-305.76025390625
 10
823.0380859375
 20
-303.11328125
 10
822.7080078125
 20
-300.51171875
 10
822.388671875
 20
-297.9775390625
 10
821.9951171875
 20
-294.84375
 10
821.6201171875
 20
-291.8818359375
 10
821.61328125
 20
-288.9501953125
 10
821.5830078125
 20
-279.7802734375
 10
823.73828125
 20
-271.81787109375
 10
828.59375
 20
-263.1279296875
 10
828.8935546875
 20
-262.595703125
 10
829.32421875
 20
-261.88330078125
 10
829.845703125
 20
-261.02099609375
 10
835.5517578125
 20
-251.5439453125
 10
841.3212890625
 20
-240.859375
 10
837.5009765625
 20
-234.0966796875
 10
836.2109375
 20
-231.82470703125
 10
833.3017578125
 20
-229.08056640625
 10
826.673828125
 20
-229.42529296875
 10
808.6943359375
 20
-230.302734375
 10
805.8671875
 20
-259.74609375
 10
804.802734375
 20
-270.828125
 10
804.3154296875
 20
-275.88916015625
 10
803.6484375
 20
-282.79443359375
 10
803.9072265625
 20
-289.82763671875
 10
790.3662109375
 20
-281.52734375
 10
774.9052734375
 20
-277.021484375
 10
759.591796875
 20
-277.021484375
 10
746.3349609375
 20
-277.021484375
 10
733.4052734375
 20
-280.455078125
 10
722.12890625
 20
-286.9482421875
 10
716.5244140625
 20
-287.33837890625
 10
711.1484375
 20
-286.86572265625
 10
706.2822265625
 20
-285.44873046875
 10
703.177734375
 20
-284.548828125
 10
700.0810546875
 20
-282.08984375
 10
696.8125
 20
-279.48828125
 10
696.16796875
 20
-278.974609375
 10
695.515625
 20
-278.45703125
 10
694.86328125
 20
-277.951171875
 10
694.86328125
 20
-277.951171875
 10
694.86328125
 20
-82.85107421875
 10
694.86328125
 20
-82.85107421875
 10
694.86328125
 20
-82.85107421875
 10
668.984375
 20
-82.85107421875
 10
668.984375
 20
-82.85107421875
 10
666.6337890625
 20
-107.9462890625
 10
656.4326171875
 20
-131.279296875
 10
638.404296875
 20
-152.83544921875
 10
607.0302734375
 20
-118.337890625
 10
576.4501953125
 20
-95.59716796875
 10
546.654296875
 20
-84.62060546875
 10
516.857421875
 20
-73.6435546875
 10
485.09716796875
 20
-68.14794921875
 10
451.3818359375
 20
-68.14794921875
 10
391.0
 20
-68.14794921875
 10
341.10986328125
 20
-87.072265625
 10
301.70703125
 20
-124.90625
 10
262.30224609375
 20
-162.74755859375
 10
242.60205078125
 20
-210.08837890625
 10
242.60205078125
 20
-266.92919921875
 10
242.60205078125
 20
-301.36279296875
 10
250.4892578125
 20
-333.91455078125
 10
266.0625
 20
-364.6552734375
 10
260.763671875
 20
-366.32373046875
 10
255.58984375
 20
-368.3515625
 10
250.6337890625
 20
-370.8037109375
 10
243.1474609375
 20
-374.5078125
 10
236.01708984375
 20
-379.3212890625
 10
229.0439453125
 20
-385.4169921875
 10
230.419921875
 20
-375.205078125
 10
230.8359375
 20
-363.13330078125
 10
225.89111328125
 20
-353.04150390625
 10
224.0732421875
 20
-349.33740234375
 10
220.65380859375
 20
-347.2080078125
 10
216.5
 20
-347.2080078125
 10
212.927734375
 20
-347.2080078125
 10
209.32470703125
 20
-348.82763671875
 10
206.865234375
 20
-351.52685546875
 10
204.69140625
 20
-353.91845703125
 10
203.64892578125
 20
-356.92529296875
 10
203.9375
 20
-359.9765625
 10
204.39501953125
 20
-364.873046875
 10
205.6357421875
 20
-369.48388671875
 10
206.83544921875
 20
-373.9453125
 10
208.1513671875
 20
-378.8486328125
 10
209.39599609375
 20
-383.48974609375
 10
209.6435546875
 20
-388.37109375
 10
209.84228515625
 20
-392.30712890625
 10
209.11474609375
 20
-396.31103515625
 10
208.35009765625
 20
-400.54736328125
 10
207.8330078125
 20
-403.38134765625
 10
207.30029296875
 20
-406.3056640625
 10
207.056640625
 20
-409.26708984375
 10
202.83154296875
 20
-414.68798828125
 10
198.73046875
 20
-420.32666015625
 10
194.74169921875
 20
-425.8671875
 10
194.68896484375
 20
-418.5498046875
 10
193.64306640625
 20
-412.09375
 10
192.99462890625
 20
-408.787109375
 10
192.0947265625
 20
-404.2060546875
 10
188.4169921875
 20
-401.24462890625
 10
183.62255859375
 20
-401.24462890625
 10
179.8095703125
 20
-401.24462890625
 10
176.03466796875
 20
-403.15673828125
 10
174.0029296875
 20
-406.1181640625
 10
172.19580078125
 20
-408.75732421875
 10
171.86572265625
 20
-411.9365234375
 10
173.0732421875
 20
-415.0703125
 10
175.3447265625
 20
-420.94873046875
 10
177.24560546875
 20
-426.30224609375
 10
177.50390625
 20
-432.345703125
 10
177.59423828125
 20
-434.6025390625
 10
177.4931640625
 20
-436.904296875
 10
177.38427734375
 20
-439.3486328125
 10
177.24169921875
 20
-442.580078125
 10
177.091796875
 20
-445.9091796875
 10
177.421875
 20
-449.275390625
 10
174.212890625
 20
-453.31689453125
 10
171.1650390625
 20
-456.90087890625
 10
168.1767578125
 20
-460.15478515625
 10
168.2294921875
 20
-452.22216796875
 10
166.11865234375
 20
-444.39453125
 10
162.0888671875
 20
-438.666015625
 10
160.064453125
 20
-435.77197265625
 10
156.11669921875
 20
-434.4375
 10
152.95263671875
 20
-435.7197265625
 10
151.60693359375
 20
-436.2666015625
 10
150.7373046875
 20
-436.97900390625
 10
150.0849609375
 20
-437.58642578125
 10
147.97021484375
 20
-439.52099609375
 10
147.224609375
 20
-443.0224609375
 10
148.341796875
 20
-445.72900390625
 10
148.341796875
 20
-445.72900390625
 10
148.521484375
 20
-446.1640625
 10
148.521484375
 20
-446.1640625
 10
150.703125
 20
-451.47998046875
 10
152.5888671875
 20
-456.068359375
 10
152.51416015625
 20
-461.5341796875
 10
152.44287109375
 20
-467.2099609375
 10
150.3095703125
 20
-472.5712890625
 10
148.15771484375
 20
-477.81201171875
 10
146.80078125
 20
-478.74169921875
 10
145.4287109375
 20
-479.6416015625
 10
144.01171875
 20
-480.49609375
 10
134.091796875
 20
-486.4794921875
 10
122.01318359375
 20
-489.90625
 10
110.88623046875
 20
-489.90625
 10
99.7373046875
 20
-489.90625
 10
79.98779296875
 20
-486.4794921875
 10
73.0302734375
 20
-463.521484375
 10
68.861328125
 20
-449.78515625
 10
73.8623046875
 20
-434.4150390625
 10
84.9140625
 20
-426.9619140625
 10
91.67333984375
 20
-422.4033203125
 10
99.205078125
 20
-421.9833984375
 10
105.29296875
 20
-425.83740234375
 10
108.49462890625
 20
-427.8994140625
 10
110.93505859375
 20
-430.62109375
 10
112.8017578125
 20
-434.25
 10
112.98583984375
 20
-434.5947265625
 10
113.158203125
 20
-434.93212890625
 10
113.31201171875
 20
-435.26953125
 10
107.8349609375
 20
-435.2548828125
 10
102.455078125
 20
-437.7587890625
 10
99.21240234375
 20
-441.9951171875
 10
95.935546875
 20
-446.29150390625
 10
95.04345703125
 20
-452.01220703125
 10
96.7080078125
 20
-458.115234375
 10
98.79248046875
 20
-465.7705078125
 10
105.248046875
 20
-470.7119140625
 10
113.154296875
 20
-470.7119140625
 10
115.96240234375
 20
-470.7119140625
 10
118.84912109375
 20
-470.07421875
 10
121.4921875
 20
-468.85205078125
 10
133.3798828125
 20
-463.37109375
 10
136.794921875
 20
-449.24560546875
 10
136.10888671875
 20
-438.81591796875
 10
134.744140625
 20
-417.822265625
 10
117.109375
 20
-400.75
 10
96.7978515625
 20
-400.75
 10
94.45849609375
 20
-400.75
 10
92.11572265625
 20
-400.982421875
 10
89.82861328125
 20
-401.439453125
 10
68.35888671875
 20
-405.720703125
 10
51.083984375
 20
-428.0341796875
 10
50.5068359375
 20
-452.2294921875
 10
49.921875
 20
-476.4248046875
 10
65.0673828125
 20
-499.21826171875
 10
87.34326171875
 20
-507.68359375
 10
91.3095703125
 20
-509.1826171875
 10
95.46337890625
 20
-510.27734375
 10
99.7294921875
 20
-510.9453125
 10
99.7294921875
 20
-510.9453125
 10
99.7294921875
 20
-511.896484375
 10
99.7294921875
 20
-511.896484375
 10
99.7294921875
 20
-511.896484375
 10
903.7958984375
 20
-511.896484375
 10
903.7958984375
 20
-511.896484375
 97
        0
 92
        1
 93
        1
 72
     4
 94
        3
 73
     0
 74
     1
 95
       26
 96
       22
 40
0.0
 40
0.0
 40
0.0
 40
0.0
 40
1.0
 40
1.0
 40
1.0
 40
2.0
 40
2.0
 40
2.0
 40
3.0
 40
3.0
 40
3.0
 40
4.0
 40
4.0
 40
4.0
 40
5.0
 40
5.0
 40
5.0
 40
6.0
 40
6.0
 40
6.0
 40
7.0
 40
7.0
 40
7.0
 40
7.0
 10
633.576171875
 20
-432.65283203125
 10
643.4541015625
 20
-433.9501953125
 10
653.669921875
 20
-435.2919921875
 10
663.77734375
 20
-436.86669921875
 10
665.763671875
 20
-437.173828125
 10
667.7431640625
 20
-437.51171875
 10
669.71875
 20
-437.87890625
 10
686.75
 20
-457.470703125
 10
696.0546875
 20
-477.9169921875
 10
695.6953125
 20
-494.7421875
 10
695.6953125
 20
-494.7421875
 10
690.7919921875
 20
-494.7421875
 10
690.7919921875
 20
-494.7421875
 10
681.5810546875
 20
-486.70068359375
 10
671.7021484375
 20
-479.431640625
 10
661.0478515625
 20
-473.06591796875
 10
635.1953125
 20
-457.6279296875
 10
596.4248046875
 20
-438.05126953125
 10
544.8173828125
 20
-414.380859375
 10
574.189453125
 20
-424.81005859375
 10
604.3681640625
 20
-428.81787109375
 10
633.576171875
 20
-432.65283203125
 97
        0
 92
        1
 93
        1
 72
     4
 94
        3
 73
     0
 74
     1
 95
       20
 96
       16
 40
0.0
 40
0.0
 40
0.0
 40
0.0
 40
1.0
 40
1.0
 40
1.0
 40
2.0
 40
2.0
 40
2.0
 40
3.0
 40
3.0
 40
3.0
 40
4.0
 40
4.0
 40
4.0
 40
5.0
 40
5.0
 40
5.0
 40
5.0
 10
560.6484375
 20
-399.80517578125
 10
580.064453125
 20
-395.1865234375
 10
600.6572265625
 20
-395.1416015625
 10
616.85546875
 20
-399.7900390625
 10
627.6826171875
 20
-402.9013671875
 10
640.7587890625
 20
-410.751953125
 10
653.201171875
 20
-421.451171875
 10
650.56640625
 20
-421.12109375
 10
647.94921875
 20
-420.81396484375
 10
645.3701171875
 20
-420.50634765625
 10
641.6884765625
 20
-420.06396484375
 10
638.033203125
 20
-419.62890625
 10
634.416015625
 20
-419.1640625
 10
607.0078125
 20
-415.595703125
 10
582.24609375
 20
-409.0947265625
 10
560.6484375
 20
-399.80517578125
 97
        0
 92
        1
 93
        1
 72
     4
 94
        3
 73
     0
 74
     1
 95
       23
 96
       19
 40
0.0
 40
0.0
 40
0.0
 40
0.0
 40
1.0
 40
1.0
 40
1.0
 40
2.0
 40
2.0
 40
2.0
 40
3.0
 40
3.0
 40
3.0
 40
4.0
 40
4.0
 40
4.0
 40
5.0
 40
5.0
 40
5.0
 40
6.0
 40
6.0
 40
6.0
 40
6.0
 10
720.4228515625
 20
-494.0224609375
 10
719.3134765625
 20
-494.26953125
 10
718.2109375
 20
-494.509765625
 10
717.1015625
 20
-494.7421875
 10
717.1015625
 20
-494.7421875
 10
712.6171875
 20
-494.7421875
 10
712.6171875
 20
-494.7421875
 10
710.1279296875
 20
-477.27978515625
 10
704.0478515625
 20
-460.31982421875
 10
694.8291015625
 20
-445.00927734375
 10
703.2158203125
 20
-448.48046875
 10
710.30078125
 20
-452.87451171875
 10
716.306640625
 20
-458.29541015625
 10
725.154296875
 20
-466.265625
 10
730.439453125
 20
-475.34521484375
 10
733.244140625
 20
-487.4541015625
 10
728.8125
 20
-489.93603515625
 10
724.3515625
 20
-492.1328125
 10
720.4228515625
 20
-494.0224609375
 97
        0
 92
        1
 93
        1
 72
     4
 94
        3
 73
     0
 74
     1
 95
      209
 96
      205
 40
0.0
 40
0.0
 40
0.0
 40
0.0
 40
1.0
 40
1.0
 40
1.0
 40
2.0
 40
2.0
 40
2.0
 40
3.0
 40
3.0
 40
3.0
 40
4.0
 40
4.0
 40
4.0
 40
5.0
 40
5.0
 40
5.0
 40
6.0
 40
6.0
 40
6.0
 40
7.0
 40
7.0
 40
7.0
 40
8.0
 40
8.0
 40
8.0
 40
9.0
 40
9.0
 40
9.0
 40
10.0
 40
10.0
 40
10.0
 40
11.0
 40
11.0
 40
11.0
 40
12.0
 40
12.0
 40
12.0
 40
13.0
 40
13.0
 40
13.0
 40
14.0
 40
14.0
 40
14.0
 40
15.0
 40
15.0
 40
15.0
 40
16.0
 40
16.0
 40
16.0
 40
17.0
 40
17.0
 40
17.0
 40
18.0
 40
18.0
 40
18.0
 40
19.0
 40
19.0
 40
19.0
 40
20.0
 40
20.0
 40
20.0
 40
21.0
 40
21.0
 40
21.0
 40
22.0
 40
22.0
 40
22.0
 40
23.0
 40
23.0
 40
23.0
 40
24.0
 40
24.0
 40
24.0
 40
25.0
 40
25.0
 40
25.0
 40
26.0
 40
26.0
 40
26.0
 40
27.0
 40
27.0
 40
27.0
 40
28.0
 40
28.0
 40
28.0
 40
29.0
 40
29.0
 40
29.0
 40
30.0
 40
30.0
 40
30.0
 40
31.0
 40
31.0
 40
31.0
 40
32.0
 40
32.0
 40
32.0
 40
33.0
 40
33.0
 40
33.0
 40
34.0
 40
34.0
 40
34.0
 40
35.0
 40
35.0
 40
35.0
 40
36.0
 40
36.0
 40
36.0
 40
37.0
 40
37.0
 40
37.0
 40
38.0
 40
38.0
 40
38.0
 40
39.0
 40
39.0
 40
39.0
 40
40.0
 40
40.0
 40
40.0
 40
41.0
 40
41.0
 40
41.0
 40
42.0
 40
42.0
 40
42.0
 40
43.0
 40
43.0
 40
43.0
 40
44.0
 40
44.0
 40
44.0
 40
45.0
 40
45.0
 40
45.0
 40
46.0
 40
46.0
 40
46.0
 40
47.0
 40
47.0
 40
47.0
 40
48.0
 40
48.0
 40
48.0
 40
49.0
 40
49.0
 40
49.0
 40
50.0
 40
50.0
 40
50.0
 40
51.0
 40
51.0
 40
51.0
 40
52.0
 40
52.0
 40
52.0
 40
53.0
 40
53.0
 40
53.0
 40
54.0
 40
54.0
 40
54.0
 40
55.0
 40
55.0
 40
55.0
 40
56.0
 40
56.0
 40
56.0
 40
57.0
 40
57.0
 40
57.0
 40
58.0
 40
58.0
 40
58.0
 40
59.0
 40
59.0
 40
59.0
 40
60.0
 40
60.0
 40
60.0
 40
61.0
 40
61.0
 40
61.0
 40
62.0
 40
62.0
 40
62.0
 40
63.0
 40
63.0
 40
63.0
 40
64.0
 40
64.0
 40
64.0
 40
65.0
 40
65.0
 40
65.0
 40
66.0
 40
66.0
 40
66.0
 40
67.0
 40
67.0
 40
67.0
 40
68.0
 40
68.0
 40
68.0
 40
68.0
 10
354.048828125
 20
-134.31591796875
 10
376.1953125
 20
-108.6357421875
 10
410.99462890625
 20
-95.7919921875
 10
458.43896484375
 20
-95.7919921875
 10
508.2275390625
 20
-95.7919921875
 10
552.041015625
 20
-113.2392578125
 10
589.8828125
 20
-148.13427734375
 10
627.716796875
 20
-183.03662109375
 10
654.08203125
 20
-230.86474609375
 10
668.984375
 20
-291.63427734375
 10
668.984375
 20
-291.63427734375
 10
672.7373046875
 20
-291.63427734375
 10
672.7373046875
 20
-291.63427734375
 10
679.6494140625
 20
-299.5068359375
 10
695.04296875
 20
-300.51171875
 10
703.5380859375
 20
-301.06640625
 10
703.5380859375
 20
-301.06640625
 10
704.34765625
 20
-301.119140625
 10
704.34765625
 20
-301.119140625
 10
690.46875
 20
-316.15966796875
 10
680.609375
 20
-339.05029296875
 10
687.0576171875
 20
-361.3486328125
 10
691.833984375
 20
-377.88134765625
 10
707.796875
 20
-390.3427734375
 10
724.1796875
 20
-390.3427734375
 10
731.0546875
 20
-390.3427734375
 10
737.65234375
 20
-388.1162109375
 10
743.25390625
 20
-383.89453125
 10
748.7197265625
 20
-379.7861328125
 10
750.87109375
 20
-373.4951171875
 10
748.8623046875
 20
-367.48974609375
 10
746.9541015625
 20
-361.78369140625
 10
741.6533203125
 20
-357.9521484375
 10
735.673828125
 20
-357.9521484375
 10
733.4912109375
 20
-357.9521484375
 10
731.279296875
 20
-358.43212890625
 10
729.09765625
 20
-359.39208984375
 10
724.26953125
 20
-361.4990234375
 10
720.580078125
 20
-361.0263671875
 10
717.7236328125
 20
-357.7197265625
 10
713.5478515625
 20
-352.8837890625
 10
712.2724609375
 20
-343.654296875
 10
713.1875
 20
-337.4306640625
 10
714.7841796875
 20
-326.619140625
 10
721.513671875
 20
-318.18408203125
 10
726.87890625
 20
-313.0107421875
 10
736.73828125
 20
-303.49609375
 10
750.5263671875
 20
-298.03759765625
 10
764.705078125
 20
-298.03759765625
 10
769.447265625
 20
-298.03759765625
 10
774.1298828125
 20
-298.65234375
 10
778.61328125
 20
-299.859375
 10
786.4111328125
 20
-301.951171875
 10
793.5673828125
 20
-305.31787109375
 10
800.0009765625
 20
-309.90673828125
 10
783.83203125
 20
-309.3740234375
 10
770.2158203125
 20
-316.609375
 10
764.1123046875
 20
-328.943359375
 10
762.2451171875
 20
-332.71484375
 10
762.4892578125
 20
-336.99609375
 10
764.783203125
 20
-340.68505859375
 10
767.0888671875
 20
-344.396484375
 10
771.0029296875
 20
-346.70556640625
 10
774.9990234375
 20
-346.70556640625
 10
778.099609375
 20
-346.70556640625
 10
781.01953125
 20
-345.2958984375
 10
783.212890625
 20
-342.75439453125
 10
789.7509765625
 20
-335.173828125
 10
795.8359375
 20
-328.755859375
 10
804.0986328125
 20
-327.0537109375
 10
809.4443359375
 20
-325.9443359375
 10
814.6171875
 20
-327.6240234375
 10
820.2333984375
 20
-332.294921875
 10
830.0107421875
 20
-349.03759765625
 10
833.8271484375
 20
-369.97900390625
 10
830.7080078125
 20
-389.85546875
 10
825.78515625
 20
-421.1962890625
 10
807.359375
 20
-448.810546875
 10
778.8828125
 20
-468.59716796875
 10
779.0595703125
 20
-468.34228515625
 10
779.2353515625
 20
-468.080078125
 10
779.412109375
 20
-467.8251953125
 10
791.302734375
 20
-450.22021484375
 10
794.703125
 20
-423.7529296875
 10
777.58203125
 20
-409.3720703125
 10
775.404296875
 20
-407.54296875
 10
772.5849609375
 20
-406.5380859375
 10
769.6455078125
 20
-406.5380859375
 10
765.5966796875
 20
-406.5380859375
 10
761.86328125
 20
-408.34521484375
 10
759.6435546875
 20
-411.3740234375
 10
757.6123046875
 20
-414.15576171875
 10
757.109375
 20
-417.634765625
 10
758.234375
 20
-421.166015625
 10
764.326171875
 20
-440.26318359375
 10
768.7314453125
 20
-454.05908203125
 10
754.96875
 20
-470.50927734375
 10
752.27734375
 20
-473.7255859375
 10
749.068359375
 20
-476.7548828125
 10
745.240234375
 20
-479.6787109375
 10
741.513671875
 20
-465.02099609375
 10
730.58203125
 20
-451.9970703125
 10
720.7265625
 20
-444.14697265625
 10
710.173828125
 20
-435.74951171875
 10
697.5625
 20
-430.005859375
 10
681.126953125
 20
-426.1298828125
 10
656.6279296875
 20
-397.8857421875
 10
621.7744140625
 20
-381.712890625
 10
585.2900390625
 20
-381.712890625
 10
570.4560546875
 20
-381.712890625
 10
555.3515625
 20
-384.314453125
 10
540.3935546875
 20
-389.435546875
 10
540.3935546875
 20
-389.435546875
 10
540.1015625
 20
-389.54052734375
 10
540.1015625
 20
-389.54052734375
 10
535.482421875
 20
-386.88623046875
 10
531.3134765625
 20
-384.2470703125
 10
527.3994140625
 20
-381.5029296875
 10
510.248046875
 20
-369.4765625
 10
499.22314453125
 20
-353.65625
 10
497.15380859375
 20
-338.10546875
 10
494.994140625
 20
-321.9404296875
 10
503.9765625
 20
-307.10986328125
 10
518.5078125
 20
-302.82861328125
 10
524.8359375
 20
-300.9619140625
 10
528.453125
 20
-295.29345703125
 10
527.5048828125
 20
-288.7255859375
 10
526.6728515625
 20
-282.95947265625
 10
522.080078125
 20
-277.11865234375
 10
514.916015625
 20
-277.11865234375
 10
513.6337890625
 20
-277.11865234375
 10
512.322265625
 20
-277.3134765625
 10
511.013671875
 20
-277.6962890625
 10
491.1591796875
 20
-283.5517578125
 10
476.5087890625
 20
-300.08447265625
 10
472.2158203125
 20
-320.80859375
 10
471.21875
 20
-320.0283203125
 10
470.23291015625
 20
-319.27880859375
 10
469.2919921875
 20
-318.56640625
 10
469.2919921875
 20
-318.56640625
 10
468.29833984375
 20
-317.80908203125
 10
468.29833984375
 20
-317.80908203125
 10
460.90576171875
 20
-312.1708984375
 10
451.03466796875
 20
-305.6552734375
 10
439.8779296875
 20
-305.27294921875
 10
435.30810546875
 20
-305.27294921875
 10
431.5927734375
 20
-308.466796875
 10
430.63330078125
 20
-313.2353515625
 10
429.5947265625
 20
-318.37890625
 10
432.04296875
 20
-323.455078125
 10
436.458984375
 20
-325.30712890625
 10
440.26416015625
 20
-326.904296875
 10
444.14453125
 20
-327.8037109375
 10
447.90087890625
 20
-328.68115234375
 10
451.9794921875
 20
-329.6259765625
 10
455.826171875
 20
-330.51806640625
 10
459.43994140625
 20
-332.2197265625
 10
462.31884765625
 20
-333.5771484375
 10
464.92822265625
 20
-335.646484375
 10
467.69482421875
 20
-337.8359375
 10
468.90966796875
 20
-338.79541015625
 10
470.1201171875
 20
-339.75537109375
 10
471.361328125
 20
-340.66259765625
 10
471.60107421875
 20
-342.724609375
 10
471.9462890625
 20
-344.77880859375
 10
472.388671875
 20
-346.78076171875
 10
472.86083984375
 20
-348.947265625
 10
473.4384765625
 20
-351.08447265625
 10
474.11328125
 20
-353.19140625
 10
472.201171875
 20
-352.44140625
 10
470.25927734375
 20
-351.75927734375
 10
468.33203125
 20
-351.1669921875
 10
462.8251953125
 20
-349.4873046875
 10
457.5205078125
 20
-353.68603515625
 10
457.1455078125
 20
-359.796875
 10
456.83447265625
 20
-364.8955078125
 10
460.009765625
 20
-368.869140625
 10
464.8681640625
 20
-369.46875
 10
469.99658203125
 20
-370.0986328125
 10
474.60400390625
 20
-370.7958984375
 10
479.02783203125
 20
-372.92578125
 10
480.6962890625
 20
-373.7275390625
 10
482.33447265625
 20
-374.70263671875
 10
484.06640625
 20
-375.72216796875
 10
485.2734375
 20
-376.44189453125
 10
486.48046875
 20
-377.154296875
 10
487.70654296875
 20
-377.81396484375
 10
494.75048828125
 20
-386.37646484375
 10
503.9619140625
 20
-394.0693359375
 10
515.15234375
 20
-400.7421875
 10
515.0849609375
 20
-400.77978515625
 10
515.0244140625
 20
-400.82470703125
 10
514.95703125
 20
-400.8662109375
 10
513.75390625
 20
-400.326171875
 10
512.583984375
 20
-399.80126953125
 10
511.369140625
 20
-399.2578125
 10
439.619140625
 20
-367.11474609375
 10
390.015625
 20
-338.09814453125
 10
362.576171875
 20
-312.2158203125
 10
334.73291015625
 20
-286.73828125
 10
320.82080078125
 20
-255.5625
 10
320.82080078125
 20
-218.7109375
 10
320.82080078125
 20
-188.12744140625
 10
331.89306640625
 20
-159.99560546875
 10
354.048828125
 20
-134.31591796875
 97
        0
 92
        1
 93
        1
 72
     4
 94
        3
 73
     0
 74
     1
 95
       38
 96
       34
 40
0.0
 40
0.0
 40
0.0
 40
0.0
 40
1.0
 40
1.0
 40
1.0
 40
2.0
 40
2.0
 40
2.0
 40
3.0
 40
3.0
 40
3.0
 40
4.0
 40
4.0
 40
4.0
 40
5.0
 40
5.0
 40
5.0
 40
6.0
 40
6.0
 40
6.0
 40
7.0
 40
7.0
 40
7.0
 40
8.0
 40
8.0
 40
8.0
 40
9.0
 40
9.0
 40
9.0
 40
10.0
 40
10.0
 40
10.0
 40
11.0
 40
11.0
 40
11.0
 40
11.0
 10
158.572265625
 20
-494.7421875
 10
160.109375
 20
-493.65478515625
 10
161.62744140625
 20
-492.51513671875
 10
163.11962890625
 20
-491.337890625
 10
180.2861328125
 20
-477.72216796875
 10
192.64990234375
 20
-459.54736328125
 10
204.6083984375
 20
-441.97265625
 10
210.2392578125
 20
-433.6953125
 10
216.0615234375
 20
-425.14013671875
 10
222.28466796875
 20
-417.22265625
 10
237.02734375
 20
-398.45556640625
 10
254.888671875
 20
-386.0693359375
 10
274.90625
 20
-380.54296875
 10
277.51904296875
 20
-384.82080078125
 10
280.25
 20
-389.0009765625
 10
283.1220703125
 20
-393.05712890625
 10
281.33349609375
 20
-392.3857421875
 10
279.50048828125
 20
-391.79736328125
 10
277.5771484375
 20
-391.39990234375
 10
274.6904296875
 20
-390.80029296875
 10
271.736328125
 20
-390.5
 10
268.79736328125
 20
-390.5
 10
248.103515625
 20
-390.5
 10
227.54833984375
 20
-406.2080078125
 10
219.9189453125
 20
-427.8466796875
 10
211.69775390625
 20
-451.2021484375
 10
218.26953125
 20
-477.189453125
 10
236.27197265625
 20
-492.5078125
 10
237.17919921875
 20
-493.2802734375
 10
238.10888671875
 20
-494.0224609375
 10
239.06103515625
 20
-494.7421875
 10
239.06103515625
 20
-494.7421875
 10
158.572265625
 20
-494.7421875
 10
158.572265625
 20
-494.7421875
 97
        0
 92
        1
 93
        1
 72
     4
 94
        3
 73
     0
 74
     1
 95
       47
 96
       43
 40
0.0
 40
0.0
 40
0.0
 40
0.0
 40
1.0
 40
1.0
 40
1.0
 40
2.0
 40
2.0
 40
2.0
 40
3.0
 40
3.0
 40
3.0
 40
4.0
 40
4.0
 40
4.0
 40
5.0
 40
5.0
 40
5.0
 40
6.0
 40
6.0
 40
6.0
 40
7.0
 40
7.0
 40
7.0
 40
8.0
 40
8.0
 40
8.0
 40
9.0
 40
9.0
 40
9.0
 40
10.0
 40
10.0
 40
10.0
 40
11.0
 40
11.0
 40
11.0
 40
12.0
 40
12.0
 40
12.0
 40
13.0
 40
13.0
 40
13.0
 40
14.0
 40
14.0
 40
14.0
 40
14.0
 10
259.41748046875
 20
-479.0341796875
 10
244.06201171875
 20
-470.5390625
 10
237.583984375
 20
-452.912109375
 10
243.66455078125
 20
-436.154296875
 10
246.92626953125
 20
-427.16455078125
 10
253.126953125
 20
-420.5966796875
 10
261.126953125
 20
-417.6796875
 10
267.04638671875
 20
-415.5126953125
 10
271.41796875
 20
-415.2578125
 10
274.72802734375
 20
-416.8701171875
 10
277.14990234375
 20
-418.046875
 10
280.08154296875
 20
-421.13623046875
 10
280.59130859375
 20
-424.0830078125
 10
280.84619140625
 20
-425.544921875
 10
280.44873046875
 20
-426.759765625
 10
279.3388671875
 20
-427.8916015625
 10
274.9755859375
 20
-432.35302734375
 10
273.74609375
 20
-437.9462890625
 10
275.97265625
 20
-443.23974609375
 10
278.3046875
 20
-448.7880859375
 10
283.98388671875
 20
-452.66455078125
 10
289.77978515625
 20
-452.66455078125
 10
294.30859375
 20
-452.66455078125
 10
298.22998046875
 20
-450.35498046875
 10
300.8203125
 20
-446.15625
 10
305.71435546875
 20
-438.2236328125
 10
307.3583984375
 20
-428.8662109375
 10
305.6865234375
 20
-419.966796875
 10
317.658203125
 20
-432.1015625
 10
331.0849609375
 20
-442.98095703125
 10
346.10888671875
 20
-452.484375
 10
352.056640625
 20
-456.24462890625
 10
358.5400390625
 20
-460.125
 10
365.53564453125
 20
-464.1171875
 10
364.376953125
 20
-464.6533203125
 10
363.1982421875
 20
-465.2158203125
 10
362.06982421875
 20
-465.7255859375
 10
338.462890625
 20
-476.3876953125
 10
313.3603515625
 20
-486.2470703125
 10
289.697265625
 20
-486.2470703125
 10
278.26318359375
 20
-486.2470703125
 10
268.07763671875
 20
-483.81787109375
 10
259.41748046875
 20
-479.0341796875
 97
        0
 92
        1
 93
        1
 72
     4
 94
        3
 73
     0
 74
     1
 95
       20
 96
       16
 40
0.0
 40
0.0
 40
0.0
 40
0.0
 40
1.0
 40
1.0
 40
1.0
 40
2.0
 40
2.0
 40
2.0
 40
3.0
 40
3.0
 40
3.0
 40
4.0
 40
4.0
 40
4.0
 40
5.0
 40
5.0
 40
5.0
 40
5.0
 10
346.9501953125
 20
-494.7421875
 10
360.5048828125
 20
-489.1376953125
 10
373.6162109375
 20
-482.3896484375
 10
386.4619140625
 20
-475.5703125
 10
393.49658203125
 20
-479.27783203125
 10
400.9287109375
 20
-483.07568359375
 10
408.779296875
 20
-486.966796875
 10
409.3623046875
 20
-488.9912109375
 10
409.9599609375
 20
-491.0341796875
 10
410.53173828125
 20
-493.03271484375
 10
410.53173828125
 20
-493.03271484375
 10
411.02294921875
 20
-494.7421875
 10
411.02294921875
 20
-494.7421875
 10
411.02294921875
 20
-494.7421875
 10
346.9501953125
 20
-494.7421875
 10
346.9501953125
 20
-494.7421875
 97
        0
 75
     2
 76
     1
 98
        0
  0
ENDBLK
  5
3F
330
3C
100
AcDbEntity
  8
0
100
AcDbBlockEnd
  0
ENDSEC
  0
SECTION
  2
ENTITIES
  0
INSERT
  5
3D
330
1F
100
AcDbEntity
  8
Layer 1
100
AcDbBlockReference
  2
block 2
 10
0.0
 20
0.0
 30
0.0
  0
ENDSEC
  0
SECTION
  2
OBJECTS
  0
DICTIONARY
  5
C
330
0
100
AcDbDictionary
281
     1
  3
ACAD_GROUP
350
D
  3
ACAD_LAYOUT
350
1A
  3
ACAD_MLINESTYLE
350
17
  3
ACAD_PLOTSETTINGS
350
19
  3
ACAD_PLOTSTYLENAME
350
E
  3
ACAD_TABLESTYLE
350
69
  3
ACAD_VISUALSTYLE
350
2A
  0
DICTIONARY
  5
D
102
{ACAD_REACTORS
330
C
102
}
330
C
100
AcDbDictionary
281
     1
  0
DICTIONARY
  5
1A
102
{ACAD_REACTORS
330
C
102
}
330
C
100
AcDbDictionary
281
     1
  3
Layout1
350
1E
  3
Layout2
350
26
  3
Model
350
22
  0
DICTIONARY
  5
17
102
{ACAD_REACTORS
330
C
102
}
330
C
100
AcDbDictionary
281
     1
  3
Standard
350
18
  0
DICTIONARY
  5
19
102
{ACAD_REACTORS
330
C
102
}
330
C
100
AcDbDictionary
281
     1
  0
ACDBDICTIONARYWDFLT
  5
E
102
{ACAD_REACTORS
330
C
102
}
330
C
100
AcDbDictionary
281
     1
  3
Normal
350
F
100
AcDbDictionaryWithDefault
340
F
  0
DICTIONARY
  5
69
102
{ACAD_REACTORS
330
C
102
}
330
C
100
AcDbDictionary
281
     1
  0
DICTIONARY
  5
2A
102
{ACAD_REACTORS
330
C
102
}
330
C
100
AcDbDictionary
281
     1
  3
2dWireframe
350
2F
  3
3D Hidden
350
31
  3
3dWireframe
350
30
  3
Basic
350
32
  3
Brighten
350
36
  3
ColorChange
350
3A
  3
Conceptual
350
34
  3
Dim
350
35
  3
Facepattern
350
39
  3
Flat
350
2B
  3
FlatWithEdges
350
2C
  3
Gouraud
350
2D
  3
GouraudWithEdges
350
2E
  3
Linepattern
350
38
  3
Realistic
350
33
  3
Thicken
350
37
  0
LAYOUT
  5
1E
102
{ACAD_REACTORS
330
1A
102
}
330
1A
100
AcDbPlotSettings
  1

  2
none_device
  4

  6

 40
0.0
 41
0.0
 42
0.0
 43
0.0
 44
0.0
 45
0.0
 46
0.0
 47
0.0
 48
0.0
 49
0.0
140
0.0
141
0.0
142
1.0
143
1.0
 70
   688
 72
     0
 73
     0
 74
     5
  7

 75
    16
147
1.0
148
0.0
149
0.0
100
AcDbLayout
  1
Layout1
 70
     1
 71
     1
 10
0.0
 20
0.0
 11
12.0
 21
9.0
 12
0.0
 22
0.0
 32
0.0
 14
1.000000000000000E+20
 24
1.000000000000000E+20
 34
1.000000000000000E+20
 15
-1.000000000000000E+20
 25
-1.000000000000000E+20
 35
-1.000000000000000E+20
146
0.0
 13
0.0
 23
0.0
 33
0.0
 16
1.0
 26
0.0
 36
0.0
 17
0.0
 27
1.0
 37
0.0
 76
     0
330
1B
  0
LAYOUT
  5
26
102
{ACAD_REACTORS
330
1A
102
}
330
1A
100
AcDbPlotSettings
  1

  2
none_device
  4

  6

 40
0.0
 41
0.0
 42
0.0
 43
0.0
 44
0.0
 45
0.0
 46
0.0
 47
0.0
 48
0.0
 49
0.0
140
0.0
141
0.0
142
1.0
143
1.0
 70
   688
 72
     0
 73
     0
 74
     5
  7

 75
    16
147
1.0
148
0.0
149
0.0
100
AcDbLayout
  1
Layout2
 70
     1
 71
     2
 10
0.0
 20
0.0
 11
0.0
 21
0.0
 12
0.0
 22
0.0
 32
0.0
 14
0.0
 24
0.0
 34
0.0
 15
0.0
 25
0.0
 35
0.0
146
0.0
 13
0.0
 23
0.0
 33
0.0
 16
1.0
 26
0.0
 36
0.0
 17
0.0
 27
1.0
 37
0.0
 76
     0
330
23
  0
LAYOUT
  5
22
102
{ACAD_REACTORS
330
1A
102
}
330
1A
100
AcDbPlotSettings
  1

  2
none_device
  4

  6

 40
0.0
 41
0.0
 42
0.0
 43
0.0
 44
0.0
 45
0.0
 46
0.0
 47
0.0
 48
0.0
 49
0.0
140
0.0
141
0.0
142
1.0
143
1.0
 70
  1712
 72
     0
 73
     0
 74
     0
  7

 75
     0
147
1.0
148
0.0
149
0.0
100
AcDbLayout
  1
Model
 70
     1
 71
     0
 10
0.0
 20
0.0
 11
12.0
 21
9.0
 12
0.0
 22
0.0
 32
0.0
 14
1.000000000000000E+20
 24
1.000000000000000E+20
 34
1.000000000000000E+20
 15
-1.000000000000000E+20
 25
-1.000000000000000E+20
 35
-1.000000000000000E+20
146
0.0
 13
0.0
 23
0.0
 33
0.0
 16
1.0
 26
0.0
 36
0.0
 17
0.0
 27
1.0
 37
0.0
 76
     0
330
1F
331
29
  0
MLINESTYLE
  5
18
102
{ACAD_REACTORS
330
17
102
}
330
17
100
AcDbMlineStyle
  2
Standard
 70
     0
  3

 62
   256
 51
90.0
 52
90.0
 71
     2
 49
0.5
 62
   256
  6
BYLAYER
 49
-0.5
 62
   256
  6
BYLAYER
  0
ACDBPLACEHOLDER
  5
F
102
{ACAD_REACTORS
330
E
102
}
330
E
  0
VISUALSTYLE
  5
2F
102
{ACAD_REACTORS
330
2A
102
}
330
2A
100
AcDbVisualStyle
  2
2dWireframe
 70
     4
 71
     0
 72
     2
 73
     0
 90
        0
 40
-0.6
 41
-30.0
 62
     5
 63
     7
 74
     1
 91
        4
 64
     7
 65
   257
 75
     1
175
     1
 42
1.0
 92
        0
 66
   257
 43
1.0
 76
     1
 77
     6
 78
     2
 67
     7
 79
     5
170
     0
171
     0
290
     0
174
     0
 93
        1
 44
0.0
173
     0
291
     0
 45
0.0
1001
ACAD
1000
AcDbSavedByObjectVersion
1070
     0
  0
VISUALSTYLE
  5
31
102
{ACAD_REACTORS
330
2A
102
}
330
2A
100
AcDbVisualStyle
  2
3D Hidden
 70
     6
 71
     1
 72
     2
 73
     2
 90
        0
 40
-0.6
 41
-30.0
 62
     5
 63
     7
 74
     2
 91
        2
 64
     7
 65
   257
 75
     2
175
     1
 42
40.0
 92
        0
 66
   257
 43
1.0
 76
     1
 77
     6
 78
     2
 67
     7
 79
     3
170
     0
171
     0
290
     0
174
     0
 93
        1
 44
0.0
173
     0
291
     0
 45
0.0
1001
ACAD
1000
AcDbSavedByObjectVersion
1070
     0
  0
VISUALSTYLE
  5
30
102
{ACAD_REACTORS
330
2A
102
}
330
2A
100
AcDbVisualStyle
  2
3dWireframe
 70
     5
 71
     0
 72
     2
 73
     0
 90
        0
 40
-0.6
 41
-30.0
 62
     5
 63
     7
 74
     1
 91
        4
 64
     7
 65
   257
 75
     1
175
     1
 42
1.0
 92
        0
 66
   257
 43
1.0
 76
     1
 77
     6
 78
     2
 67
     7
 79
     5
170
     0
171
     0
290
     0
174
     0
 93
        1
 44
0.0
173
     0
291
     0
 45
0.0
1001
ACAD
1000
AcDbSavedByObjectVersion
1070
     0
  0
VISUALSTYLE
  5
32
102
{ACAD_REACTORS
330
2A
102
}
330
2A
100
AcDbVisualStyle
  2
Basic
 70
     7
 71
     1
 72
     0
 73
     1
 90
        0
 40
-0.6
 41
-30.0
 62
     5
 63
     7
 74
     0
 91
        4
 64
     7
 65
   257
 75
     1
175
     1
 42
1.0
 92
        8
 66
     7
 43
1.0
 76
     1
 77
     6
 78
     2
 67
     7
 79
     5
170
     0
171
     0
290
     0
174
     0
 93
        1
 44
0.0
173
     0
291
     1
 45
0.0
1001
ACAD
1000
AcDbSavedByObjectVersion
1070
     0
  0
VISUALSTYLE
  5
36
102
{ACAD_REACTORS
330
2A
102
}
330
2A
100
AcDbVisualStyle
  2
Brighten
 70
    12
 71
     2
 72
     2
 73
     0
 90
        0
 40
-0.6
 41
-30.0
 62
     5
 63
     7
 74
     1
 91
        4
 64
     7
 65
   257
 75
     1
175
     1
 42
1.0
 92
        8
 66
     7
 43
1.0
 76
     1
 77
     6
 78
     2
 67
     7
 79
     5
170
     0
171
     0
290
     0
174
     0
 93
        1
 44
50.0
173
     0
291
     1
 45
0.0
1001
ACAD
1000
AcDbSavedByObjectVersion
1070
     0
  0
VISUALSTYLE
  5
3A
102
{ACAD_REACTORS
330
2A
102
}
330
2A
100
AcDbVisualStyle
  2
ColorChange
 70
    16
 71
     2
 72
     2
 73
     3
 90
        0
 40
-0.6
 41
-30.0
 62
     5
 63
     8
 74
     1
 91
        4
 64
     7
 65
   257
 75
     1
175
     1
 42
1.0
 92
        8
 66
     8
 43
1.0
 76
     1
 77
     6
 78
     2
 67
     7
 79
     5
170
     0
171
     0
290
     0
174
     0
 93
        1
 44
0.0
173
     0
291
     1
 45
0.0
1001
ACAD
1000
AcDbSavedByObjectVersion
1070
     0
  0
VISUALSTYLE
  5
34
102
{ACAD_REACTORS
330
2A
102
}
330
2A
100
AcDbVisualStyle
  2
Conceptual
 70
     9
 71
     3
 72
     2
 73
     0
 90
        0
 40
-0.6
 41
-30.0
 62
     5
 63
     7
 74
     2
 91
        2
 64
     7
 65
   257
 75
     1
175
     1
 42
40.0
 92
        8
 66
     7
 43
1.0
 76
     1
 77
     6
 78
     2
 67
     7
 79
     3
170
     0
171
     0
290
     0
174
     0
 93
        1
 44
0.0
173
     0
291
     0
 45
0.0
1001
ACAD
1000
AcDbSavedByObjectVersion
1070
     0
  0
VISUALSTYLE
  5
35
102
{ACAD_REACTORS
330
2A
102
}
330
2A
100
AcDbVisualStyle
  2
Dim
 70
    11
 71
     2
 72
     2
 73
     0
 90
        0
 40
-0.6
 41
-30.0
 62
     5
 63
     7
 74
     1
 91
        4
 64
     7
 65
   257
 75
     1
175
     1
 42
1.0
 92
        8
 66
     7
 43
1.0
 76
     1
 77
     6
 78
     2
 67
     7
 79
     5
170
     0
171
     0
290
     0
174
     0
 93
        1
 44
-50.0
173
     0
291
     1
 45
0.0
1001
ACAD
1000
AcDbSavedByObjectVersion
1070
     0
  0
VISUALSTYLE
  5
39
102
{ACAD_REACTORS
330
2A
102
}
330
2A
100
AcDbVisualStyle
  2
Facepattern
 70
    15
 71
     2
 72
     2
 73
     0
 90
        0
 40
-0.6
 41
-30.0
 62
     5
 63
     7
 74
     1
 91
        4
 64
     7
 65
   257
 75
     1
175
     1
 42
1.0
 92
        8
 66
     7
 43
1.0
 76
     1
 77
     6
 78
     2
 67
     7
 79
     5
170
     0
171
     0
290
     0
174
     0
 93
        1
 44
0.0
173
     0
291
     1
 45
0.0
1001
ACAD
1000
AcDbSavedByObjectVersion
1070
     0
  0
VISUALSTYLE
  5
2B
102
{ACAD_REACTORS
330
2A
102
}
330
2A
100
AcDbVisualStyle
  2
Flat
 70
     0
 71
     2
 72
     1
 73
     1
 90
        2
 40
-0.6
 41
30.0
 62
     5
 63
     7
 74
     0
 91
        4
 64
     7
 65
   257
 75
     1
175
     1
 42
1.0
 92
        8
 66
     7
 43
1.0
 76
     1
 77
     6
 78
     2
 67
     7
 79
     5
170
     0
171
     0
290
     0
174
     0
 93
       13
 44
0.0
173
     0
291
     1
 45
0.0
1001
ACAD
1000
AcDbSavedByObjectVersion
1070
     0
  0
VISUALSTYLE
  5
2C
102
{ACAD_REACTORS
330
2A
102
}
330
2A
100
AcDbVisualStyle
  2
FlatWithEdges
 70
     1
 71
     2
 72
     1
 73
     1
 90
        2
 40
-0.6
 41
30.0
 62
     5
 63
     7
 74
     1
 91
        4
 64
     7
 65
   257
 75
     1
175
     1
 42
1.0
 92
        0
 66
   257
 43
1.0
 76
     1
 77
     6
 78
     2
 67
     7
 79
     5
170
     0
171
     0
290
     0
174
     0
 93
       13
 44
0.0
173
     0
291
     1
 45
0.0
1001
ACAD
1000
AcDbSavedByObjectVersion
1070
     0
  0
VISUALSTYLE
  5
2D
102
{ACAD_REACTORS
330
2A
102
}
330
2A
100
AcDbVisualStyle
  2
Gouraud
 70
     2
 71
     2
 72
     2
 73
     1
 90
        2
 40
-0.6
 41
30.0
 62
     5
 63
     7
 74
     0
 91
        4
 64
     7
 65
   257
 75
     1
175
     1
 42
1.0
 92
        0
 66
     7
 43
1.0
 76
     1
 77
     6
 78
     2
 67
     7
 79
     5
170
     0
171
     0
290
     0
174
     0
 93
       13
 44
0.0
173
     0
291
     1
 45
0.0
1001
ACAD
1000
AcDbSavedByObjectVersion
1070
     0
  0
VISUALSTYLE
  5
2E
102
{ACAD_REACTORS
330
2A
102
}
330
2A
100
AcDbVisualStyle
  2
GouraudWithEdges
 70
     3
 71
     2
 72
     2
 73
     1
 90
        2
 40
-0.6
 41
30.0
 62
     5
 63
     7
 74
     1
 91
        4
 64
     7
 65
   257
 75
     1
175
     1
 42
1.0
 92
        0
 66
   257
 43
1.0
 76
     1
 77
     6
 78
     2
 67
     7
 79
     5
170
     0
171
     0
290
     0
174
     0
 93
       13
 44
0.0
173
     0
291
     1
 45
0.0
1001
ACAD
1000
AcDbSavedByObjectVersion
1070
     0
  0
VISUALSTYLE
  5
38
102
{ACAD_REACTORS
330
2A
102
}
330
2A
100
AcDbVisualStyle
  2
Linepattern
 70
    14
 71
     2
 72
     2
 73
     0
 90
        0
 40
-0.6
 41
-30.0
 62
     5
 63
     7
 74
     1
 91
        4
 64
     7
 65
   257
 75
     7
175
     7
 42
1.0
 92
        8
 66
     7
 43
1.0
 76
     1
 77
     6
 78
     2
 67
     7
 79
     5
170
     0
171
     0
290
     0
174
     0
 93
        1
 44
0.0
173
     0
291
     1
 45
0.0
1001
ACAD
1000
AcDbSavedByObjectVersion
1070
     0
  0
VISUALSTYLE
  5
33
102
{ACAD_REACTORS
330
2A
102
}
330
2A
100
AcDbVisualStyle
  2
Realistic
 70
     8
 71
     2
 72
     2
 73
     0
 90
        0
 40
-0.6
 41
-30.0
 62
     5
 63
     7
 74
     1
 91
        0
 64
     7
 65
   257
 75
     1
175
     1
 42
1.0
 92
        8
 66
     8
 43
1.0
 76
     1
 77
     6
 78
     2
 67
     7
 79
     5
170
     0
171
     0
290
     0
174
     0
 93
       13
 44
0.0
173
     0
291
     0
 45
0.0
1001
ACAD
1000
AcDbSavedByObjectVersion
1070
     0
  0
VISUALSTYLE
  5
37
102
{ACAD_REACTORS
330
2A
102
}
330
2A
100
AcDbVisualStyle
  2
Thicken
 70
    13
 71
     2
 72
     2
 73
     0
 90
        0
 40
-0.6
 41
-30.0
 62
     5
 63
     7
 74
     1
 91
        4
 64
     7
 65
   257
 75
     1
175
     1
 42
1.0
 92
       12
 66
     7
 43
1.0
 76
     1
 77
     6
 78
     2
 67
     7
 79
     5
170
     0
171
     0
290
     0
174
     0
 93
        1
 44
0.0
173
     0
291
     1
 45
0.0
1001
ACAD
1000
AcDbSavedByObjectVersion
1070
     0
  0
ENDSEC
  0
EOF
