  0
SECTION
  2
HEADER
  9
$ACADVER
  1
AC1021
  9
$ACADMAINTVER
 70
    25
  9
$DWGCODEPAGE
  3
ANSI_1251
  9
$INSBASE
 10
0.0
 20
0.0
 30
0.0
  9
$EXTMIN
 10
-181.9322
 20
-14.9111
 30
0.0
  9
$EXTMAX
 10
-18.39615
 20
27.09653
 30
0.0
  9
$LIMMIN
 10
0.0
 20
0.0
  9
$LIMMAX
 10
12.0
 20
9.0
  9
$ORTHOMODE
 70
     0
  9
$REGENMODE
 70
     1
  9
$FILLMODE
 70
     1
  9
$QTEXTMODE
 70
     0
  9
$MIRRTEXT
 70
     1
  9
$LTSCALE
 40
1.0
  9
$ATTMODE
 70
     1
  9
$TEXTSIZE
 40
0.2
  9
$TRACEWID
 40
0.05
  9
$TEXTSTYLE
  7
Standard
  9
$CLAYER
  8
0
  9
$CELTYPE
  6
ByLayer
  9
$CECOLOR
 62
   256
  9
$CELTSCALE
 40
1.0
  9
$DISPSILH
 70
     0
  9
$DIMSCALE
 40
1.0
  9
$DIMASZ
 40
0.18
  9
$DIMEXO
 40
0.0625
  9
$DIMDLI
 40
0.38
  9
$DIMRND
 40
0.0
  9
$DIMDLE
 40
0.0
  9
$DIMEXE
 40
0.18
  9
$DIMTP
 40
0.0
  9
$DIMTM
 40
0.0
  9
$DIMTXT
 40
0.18
  9
$DIMCEN
 40
0.09
  9
$DIMTSZ
 40
0.0
  9
$DIMTOL
 70
     0
  9
$DIMLIM
 70
     0
  9
$DIMTIH
 70
     1
  9
$DIMTOH
 70
     1
  9
$DIMSE1
 70
     0
  9
$DIMSE2
 70
     0
  9
$DIMTAD
 70
     0
  9
$DIMZIN
 70
     0
  9
$DIMBLK
  1

  9
$DIMASO
 70
     1
  9
$DIMSHO
 70
     1
  9
$DIMPOST
  1

  9
$DIMAPOST
  1

  9
$DIMALT
 70
     0
  9
$DIMALTD
 70
     2
  9
$DIMALTF
 40
25.4
  9
$DIMLFAC
 40
1.0
  9
$DIMTOFL
 70
     0
  9
$DIMTVP
 40
0.0
  9
$DIMTIX
 70
     0
  9
$DIMSOXD
 70
     0
  9
$DIMSAH
 70
     0
  9
$DIMBLK1
  1

  9
$DIMBLK2
  1

  9
$DIMSTYLE
  2
Standard
  9
$DIMCLRD
 70
     0
  9
$DIMCLRE
 70
     0
  9
$DIMCLRT
 70
     0
  9
$DIMTFAC
 40
1.0
  9
$DIMGAP
 40
0.09
  9
$DIMJUST
 70
     0
  9
$DIMSD1
 70
     0
  9
$DIMSD2
 70
     0
  9
$DIMTOLJ
 70
     1
  9
$DIMTZIN
 70
     0
  9
$DIMALTZ
 70
     0
  9
$DIMALTTZ
 70
     0
  9
$DIMUPT
 70
     0
  9
$DIMDEC
 70
     4
  9
$DIMTDEC
 70
     4
  9
$DIMALTU
 70
     2
  9
$DIMALTTD
 70
     2
  9
$DIMTXSTY
  7
Standard
  9
$DIMAUNIT
 70
     0
  9
$DIMADEC
 70
     0
  9
$DIMALTRND
 40
0.0
  9
$DIMAZIN
 70
     0
  9
$DIMDSEP
 70
    46
  9
$DIMATFIT
 70
     3
  9
$DIMFRAC
 70
     0
  9
$DIMLDRBLK
  1

  9
$DIMLUNIT
 70
     2
  9
$DIMLWD
 70
    -2
  9
$DIMLWE
 70
    -2
  9
$DIMTMOVE
 70
     0
  9
$DIMFXL
 40
1.0
  9
$DIMFXLON
 70
     0
  9
$DIMJOGANG
 40
0.7853981633974483
  9
$DIMTFILL
 70
     0
  9
$DIMTFILLCLR
 70
     0
  9
$DIMARCSYM
 70
     0
  9
$DIMLTYPE
  6

  9
$DIMLTEX1
  6

  9
$DIMLTEX2
  6

  9
$LUNITS
 70
     2
  9
$LUPREC
 70
     4
  9
$SKETCHINC
 40
0.1
  9
$FILLETRAD
 40
0.5
  9
$AUNITS
 70
     0
  9
$AUPREC
 70
     0
  9
$MENU
  1
.
  9
$ELEVATION
 40
0.0
  9
$PELEVATION
 40
0.0
  9
$THICKNESS
 40
0.0
  9
$LIMCHECK
 70
     0
  9
$CHAMFERA
 40
0.0
  9
$CHAMFERB
 40
0.0
  9
$CHAMFERC
 40
0.0
  9
$CHAMFERD
 40
0.0
  9
$SKPOLY
 70
     0
  9
$TDCREATE
 40
2458232.451008357
  9
$TDUCREATE
 40
2458232.326008357
  9
$TDUPDATE
 40
2458232.451008704
  9
$TDUUPDATE
 40
2458232.326008704
  9
$TDINDWG
 40
0.0000000116
  9
$TDUSRTIMER
 40
0.0000000116
  9
$USRTIMER
 70
     1
  9
$ANGBASE
 50
0.0
  9
$ANGDIR
 70
     0
  9
$PDMODE
 70
     0
  9
$PDSIZE
 40
0.0
  9
$PLINEWID
 40
0.0
  9
$SPLFRAME
 70
     0
  9
$SPLINETYPE
 70
     6
  9
$SPLINESEGS
 70
     8
  9
$HANDSEED
  5
D2
  9
$SURFTAB1
 70
     6
  9
$SURFTAB2
 70
     6
  9
$SURFTYPE
 70
     6
  9
$SURFU
 70
     6
  9
$SURFV
 70
     6
  9
$UCSBASE
  2

  9
$UCSNAME
  2

  9
$UCSORG
 10
0.0
 20
0.0
 30
0.0
  9
$UCSXDIR
 10
1.0
 20
0.0
 30
0.0
  9
$UCSYDIR
 10
0.0
 20
1.0
 30
0.0
  9
$UCSORTHOREF
  2

  9
$UCSORTHOVIEW
 70
     0
  9
$UCSORGTOP
 10
0.0
 20
0.0
 30
0.0
  9
$UCSORGBOTTOM
 10
0.0
 20
0.0
 30
0.0
  9
$UCSORGLEFT
 10
0.0
 20
0.0
 30
0.0
  9
$UCSORGRIGHT
 10
0.0
 20
0.0
 30
0.0
  9
$UCSORGFRONT
 10
0.0
 20
0.0
 30
0.0
  9
$UCSORGBACK
 10
0.0
 20
0.0
 30
0.0
  9
$PUCSBASE
  2

  9
$PUCSNAME
  2

  9
$PUCSORG
 10
0.0
 20
0.0
 30
0.0
  9
$PUCSXDIR
 10
1.0
 20
0.0
 30
0.0
  9
$PUCSYDIR
 10
0.0
 20
1.0
 30
0.0
  9
$PUCSORTHOREF
  2

  9
$PUCSORTHOVIEW
 70
     0
  9
$PUCSORGTOP
 10
0.0
 20
0.0
 30
0.0
  9
$PUCSORGBOTTOM
 10
0.0
 20
0.0
 30
0.0
  9
$PUCSORGLEFT
 10
0.0
 20
0.0
 30
0.0
  9
$PUCSORGRIGHT
 10
0.0
 20
0.0
 30
0.0
  9
$PUCSORGFRONT
 10
0.0
 20
0.0
 30
0.0
  9
$PUCSORGBACK
 10
0.0
 20
0.0
 30
0.0
  9
$USERI1
 70
     0
  9
$USERI2
 70
     0
  9
$USERI3
 70
     0
  9
$USERI4
 70
     0
  9
$USERI5
 70
     0
  9
$USERR1
 40
0.0
  9
$USERR2
 40
0.0
  9
$USERR3
 40
0.0
  9
$USERR4
 40
0.0
  9
$USERR5
 40
0.0
  9
$WORLDVIEW
 70
     1
  9
$SHADEDGE
 70
     3
  9
$SHADEDIF
 70
    70
  9
$TILEMODE
 70
     1
  9
$MAXACTVP
 70
    64
  9
$PINSBASE
 10
0.0
 20
0.0
 30
0.0
  9
$PLIMCHECK
 70
     0
  9
$PEXTMIN
 10
1.000000000000000E+20
 20
1.000000000000000E+20
 30
1.000000000000000E+20
  9
$PEXTMAX
 10
-1.000000000000000E+20
 20
-1.000000000000000E+20
 30
-1.000000000000000E+20
  9
$PLIMMIN
 10
0.0
 20
0.0
  9
$PLIMMAX
 10
12.0
 20
9.0
  9
$UNITMODE
 70
     0
  9
$VISRETAIN
 70
     1
  9
$PLINEGEN
 70
     0
  9
$PSLTSCALE
 70
     1
  9
$TREEDEPTH
 70
  3020
  9
$CMLSTYLE
  2
Standard
  9
$CMLJUST
 70
     0
  9
$CMLSCALE
 40
1.0
  9
$PROXYGRAPHICS
 70
     1
  9
$MEASUREMENT
 70
     0
  9
$CELWEIGHT
370
    -1
  9
$ENDCAPS
280
     0
  9
$JOINSTYLE
280
     0
  9
$LWDISPLAY
290
     0
  9
$INSUNITS
 70
     5
  9
$HYPERLINKBASE
  1

  9
$STYLESHEET
  1

  9
$XEDIT
290
     1
  9
$CEPSNTYPE
380
     0
  9
$PSTYLEMODE
290
     1
  9
$FINGERPRINTGUID
  2
{E8750F5A-705F-44DF-A4F6-8D5669B3587D}
  9
$VERSIONGUID
  2
{FAEB1C32-E019-11D5-929B-00C0DF256EC4}
  9
$EXTNAMES
290
     1
  9
$PSVPSCALE
 40
0.0
  9
$OLESTARTUP
290
     0
  9
$SORTENTS
280
   127
  9
$INDEXCTL
280
     0
  9
$HIDETEXT
280
     1
  9
$XCLIPFRAME
290
     0
  9
$HALOGAP
280
     0
  9
$OBSCOLOR
 70
   257
  9
$OBSLTYPE
280
     0
  9
$INTERSECTIONDISPLAY
280
     0
  9
$INTERSECTIONCOLOR
 70
   257
  9
$DIMASSOC
280
     2
  9
$PROJECTNAME
  1

  9
$CAMERADISPLAY
290
     0
  9
$LENSLENGTH
 40
50.0
  9
$CAMERAHEIGHT
 40
0.0
  9
$STEPSPERSEC
 40
2.0
  9
$STEPSIZE
 40
6.0
  9
$3DDWFPREC
 40
2.0
  9
$PSOLWIDTH
 40
0.25
  9
$PSOLHEIGHT
 40
4.0
  9
$LOFTANG1
 40
1.570796326794897
  9
$LOFTANG2
 40
1.570796326794897
  9
$LOFTMAG1
 40
0.0
  9
$LOFTMAG2
 40
0.0
  9
$LOFTPARAM
 70
     7
  9
$LOFTNORMALS
280
     1
  9
$LATITUDE
 40
37.795
  9
$LONGITUDE
 40
-122.394
  9
$NORTHDIRECTION
 40
0.0
  9
$TIMEZONE
 70
 -8000
  9
$LIGHTGLYPHDISPLAY
280
     1
  9
$TILEMODELIGHTSYNCH
280
     1
  9
$CMATERIAL
347
44
  9
$SOLIDHIST
280
     0
  9
$SHOWHIST
280
     1
  9
$DWFFRAME
280
     2
  9
$DGNFRAME
280
     2
  9
$REALWORLDSCALE
290
     1
  9
$INTERFERECOLOR
 62
   256
  9
$CSHADOW
280
     0
  9
$SHADOWPLANELOCATION
 40
0.0
  0
ENDSEC
  0
SECTION
  2
CLASSES
  0
CLASS
  1
ACDBDICTIONARYWDFLT
  2
AcDbDictionaryWithDefault
  3
ObjectDBX Classes
 90
        0
 91
        4
280
     0
281
     0
  0
CLASS
  1
VISUALSTYLE
  2
AcDbVisualStyle
  3
ObjectDBX Classes
 90
     4095
 91
        4
280
     0
281
     0
  0
CLASS
  1
MATERIAL
  2
AcDbMaterial
  3
ObjectDBX Classes
 90
     1153
 91
        4
280
     0
281
     0
  0
CLASS
  1
SCALE
  2
AcDbScale
  3
ObjectDBX Classes
 90
     1153
 91
        4
280
     0
281
     0
  0
CLASS
  1
TABLESTYLE
  2
AcDbTableStyle
  3
ObjectDBX Classes
 90
     4095
 91
        4
280
     0
281
     0
  0
CLASS
  1
MLEADERSTYLE
  2
AcDbMLeaderStyle
  3
ACDB_MLEADERSTYLE_CLASS
 90
     4095
 91
        4
280
     0
281
     0
  0
CLASS
  1
SUN
  2
AcDbSun
  3
SCENEOE
 90
     1153
 91
        4
280
     0
281
     0
  0
CLASS
  1
DICTIONARYVAR
  2
AcDbDictionaryVar
  3
ObjectDBX Classes
 90
        0
 91
        4
280
     0
281
     0
  0
CLASS
  1
CELLSTYLEMAP
  2
AcDbCellStyleMap
  3
ObjectDBX Classes
 90
     1152
 91
        4
280
     0
281
     0
  0
ENDSEC
  0
SECTION
  2
TABLES
  0
TABLE
  2
VPORT
  5
8
330
0
100
AcDbSymbolTable
 70
     1
  0
VPORT
  5
29
330
8
100
AcDbSymbolTableRecord
100
AcDbViewportTableRecord
  2
*Active
 70
     0
 10
0.0
 20
0.0
 11
1.0
 21
1.0
 12
10.42990654205607
 22
4.5
 13
0.0
 23
0.0
 14
0.5
 24
0.5
 15
0.5
 25
0.5
 16
0.0
 26
0.0
 36
1.0
 17
0.0
 27
0.0
 37
0.0
 40
9.0
 41
1.972972972850329
 42
50.0
 43
0.0
 44
0.0
 50
0.0
 51
0.0
 71
     0
 72
   100
 73
     1
 74
     3
 75
     0
 76
     0
 77
     0
 78
     0
281
     0
 65
     1
110
0.0
120
0.0
130
0.0
111
1.0
121
0.0
131
0.0
112
0.0
122
1.0
132
0.0
 79
     0
146
0.0
348
2F
 60
     3
 61
     5
292
     1
282
     1
141
0.0
142
0.0
 63
   250
361
6D
  0
ENDTAB
  0
TABLE
  2
LTYPE
  5
5
330
0
100
AcDbSymbolTable
 70
     1
  0
LTYPE
  5
14
330
5
100
AcDbSymbolTableRecord
100
AcDbLinetypeTableRecord
  2
ByBlock
 70
     0
  3

 72
    65
 73
     0
 40
0.0
  0
LTYPE
  5
15
330
5
100
AcDbSymbolTableRecord
100
AcDbLinetypeTableRecord
  2
ByLayer
 70
     0
  3

 72
    65
 73
     0
 40
0.0
  0
LTYPE
  5
16
330
5
100
AcDbSymbolTableRecord
100
AcDbLinetypeTableRecord
  2
Continuous
 70
     0
  3
Solid line
 72
    65
 73
     0
 40
0.0
  0
ENDTAB
  0
TABLE
  2
LAYER
  5
2
330
0
100
AcDbSymbolTable
 70
     2
  0
LAYER
  5
10
330
2
100
AcDbSymbolTableRecord
100
AcDbLayerTableRecord
  2
0
 70
     0
 62
     7
  6
Continuous
370
    -3
390
F
347
46
  0
LAYER
  5
6F
330
2
100
AcDbSymbolTableRecord
100
AcDbLayerTableRecord
  2
Capa 1
 70
     0
 62
     7
  6
Continuous
370
    -3
390
F
347
46
  0
ENDTAB
  0
TABLE
  2
STYLE
  5
3
330
0
100
AcDbSymbolTable
 70
     1
  0
STYLE
  5
11
330
3
100
AcDbSymbolTableRecord
100
AcDbTextStyleTableRecord
  2
Standard
 70
     0
 40
0.0
 41
1.0
 50
0.0
 71
     0
 42
0.2
  3
txt
  4

  0
ENDTAB
  0
TABLE
  2
VIEW
  5
6
330
0
100
AcDbSymbolTable
 70
     0
  0
ENDTAB
  0
TABLE
  2
UCS
  5
7
330
0
100
AcDbSymbolTable
 70
     0
  0
ENDTAB
  0
TABLE
  2
APPID
  5
9
330
0
100
AcDbSymbolTable
 70
     3
  0
APPID
  5
12
330
9
100
AcDbSymbolTableRecord
100
AcDbRegAppTableRecord
  2
ACAD
 70
     0
  0
APPID
  5
6E
330
9
100
AcDbSymbolTableRecord
100
AcDbRegAppTableRecord
  2
ODA
 70
     0
  0
APPID
  5
CA
330
9
100
AcDbSymbolTableRecord
100
AcDbRegAppTableRecord
  2
ACAD_MLEADERVER
 70
     0
  0
ENDTAB
  0
TABLE
  2
DIMSTYLE
  5
A
330
0
100
AcDbSymbolTable
 70
     1
100
AcDbDimStyleTable
  0
DIMSTYLE
105
27
330
A
100
AcDbSymbolTableRecord
100
AcDbDimStyleTableRecord
  2
Standard
 70
     0
178
     0
340
11
  0
ENDTAB
  0
TABLE
  2
BLOCK_RECORD
  5
1
330
0
100
AcDbSymbolTable
 70
     1
  0
BLOCK_RECORD
  5
1F
330
1
100
AcDbSymbolTableRecord
100
AcDbBlockTableRecord
  2
*Model_Space
340
22
 70
     0
280
     1
281
     0
  0
BLOCK_RECORD
  5
1B
330
1
100
AcDbSymbolTableRecord
100
AcDbBlockTableRecord
  2
*Paper_Space
340
1E
 70
     0
280
     1
281
     0
  0
BLOCK_RECORD
  5
23
330
1
100
AcDbSymbolTableRecord
100
AcDbBlockTableRecord
  2
*Paper_Space0
340
26
 70
     0
280
     1
281
     0
  0
ENDTAB
  0
ENDSEC
  0
SECTION
  2
BLOCKS
  0
BLOCK
  5
20
330
1F
100
AcDbEntity
  8
0
100
AcDbBlockBegin
  2
*Model_Space
 70
     0
 10
0.0
 20
0.0
 30
0.0
  3
*Model_Space
  1

  0
ENDBLK
  5
21
330
1F
100
AcDbEntity
  8
0
100
AcDbBlockEnd
  0
BLOCK
  5
1C
330
1B
100
AcDbEntity
 67
     1
  8
0
100
AcDbBlockBegin
  2
*Paper_Space
 70
     0
 10
0.0
 20
0.0
 30
0.0
  3
*Paper_Space
  1

  0
ENDBLK
  5
1D
330
1B
100
AcDbEntity
 67
     1
  8
0
100
AcDbBlockEnd
  0
BLOCK
  5
24
330
23
100
AcDbEntity
  8
0
100
AcDbBlockBegin
  2
*Paper_Space0
 70
     0
 10
0.0
 20
0.0
 30
0.0
  3
*Paper_Space0
  1

  0
ENDBLK
  5
25
330
23
100
AcDbEntity
  8
0
100
AcDbBlockEnd
  0
ENDSEC
  0
SECTION
  2
ENTITIES
  0
SPLINE
  5
70
330
1F
100
AcDbEntity
  8
Capa 1
 62
    30
370
     9
100
AcDbSpline
210
0.0
220
0.0
230
1.0
 70
    11
 71
     3
 72
    39
 73
    35
 74
     0
 42
0.000000001
 43
0.0000000001
 40
0.0
 40
0.0
 40
0.0
 40
0.0
 40
0.1111111111111111
 40
0.1111111111111111
 40
0.1111111111111111
 40
0.1111111111111111
 40
0.2222222222222222
 40
0.2222222222222222
 40
0.2222222222222222
 40
0.2222222222222222
 40
0.3333333333333333
 40
0.3333333333333333
 40
0.3333333333333333
 40
0.3333333333333333
 40
0.4444444444444444
 40
0.4444444444444444
 40
0.4444444444444444
 40
0.4444444444444444
 40
0.5555555555555556
 40
0.5555555555555556
 40
0.5555555555555556
 40
0.5555555555555556
 40
0.6666666666666666
 40
0.6666666666666666
 40
0.6666666666666666
 40
0.6666666666666666
 40
0.7777777777777778
 40
0.7777777777777778
 40
0.7777777777777778
 40
0.7777777777777778
 40
1.0
 40
1.0
 40
1.0
 40
1.000014142135626
 40
1.000014142135626
 40
1.000014142135626
 40
1.000014142135626
 10
-178.56844
 20
27.09271
 30
0.0
 10
-178.56844
 20
27.09271
 30
0.0
 10
-127.28834
 20
27.09271
 30
0.0
 10
-127.28834
 20
27.09271
 30
0.0
 10
-127.28834
 20
27.09271
 30
0.0
 10
-125.43299
 20
27.09272
 30
0.0
 10
-123.92839
 20
25.5881
 30
0.0
 10
-123.92839
 20
23.73276
 30
0.0
 10
-123.92839
 20
23.73276
 30
0.0
 10
-123.92839
 20
23.73276
 30
0.0
 10
-123.92839
 20
-11.54734
 30
0.0
 10
-123.92839
 20
-11.54734
 30
0.0
 10
-123.92839
 20
-11.54734
 30
0.0
 10
-123.92839
 20
-13.40267
 30
0.0
 10
-125.43299
 20
-14.90729
 30
0.0
 10
-127.28833
 20
-14.90729
 30
0.0
 10
-127.28833
 20
-14.90729
 30
0.0
 10
-127.28833
 20
-14.90729
 30
0.0
 10
-178.56844
 20
-14.90729
 30
0.0
 10
-178.56844
 20
-14.90729
 30
0.0
 10
-178.56844
 20
-14.90729
 30
0.0
 10
-180.42377
 20
-14.90729
 30
0.0
 10
-181.92839
 20
-13.40267
 30
0.0
 10
-181.92839
 20
-11.54734
 30
0.0
 10
-181.92839
 20
-11.54734
 30
0.0
 10
-181.92839
 20
-11.54734
 30
0.0
 10
-181.92839
 20
23.73276
 30
0.0
 10
-181.92839
 20
23.73276
 30
0.0
 10
-181.92839
 20
23.73276
 30
0.0
 10
-181.92839
 20
25.5881
 30
0.0
 10
-180.42377
 20
27.09272
 30
0.0
 10
-178.56843
 20
27.09272
 30
0.0
 10
-78.3800699999999
 20
27.09272
 30
0.0
 10
-178.56844
 20
27.09271
 30
0.0
 10
-178.56844
 20
27.09271
 30
0.0
  0
SPLINE
  5
71
330
1F
100
AcDbEntity
  8
Capa 1
 62
    32
370
     9
100
AcDbSpline
210
0.0
220
0.0
230
1.0
 70
    11
 71
     3
 72
    36
 73
    32
 74
     0
 42
0.000000001
 43
0.0000000001
 40
0.0
 40
0.0
 40
0.0
 40
0.0
 40
0.1111111111111111
 40
0.1111111111111111
 40
0.1111111111111111
 40
0.1111111111111111
 40
0.2222222222222222
 40
0.2222222222222222
 40
0.2222222222222222
 40
0.2222222222222222
 40
0.3333333333333333
 40
0.3333333333333333
 40
0.3333333333333333
 40
0.3333333333333333
 40
0.4444444444444444
 40
0.4444444444444444
 40
0.4444444444444444
 40
0.4444444444444444
 40
0.5555555555555556
 40
0.5555555555555556
 40
0.5555555555555556
 40
0.5555555555555556
 40
0.6666666666666666
 40
0.6666666666666666
 40
0.6666666666666666
 40
0.6666666666666666
 40
0.7777777777777778
 40
0.7777777777777778
 40
0.7777777777777778
 40
0.7777777777777778
 40
1.0
 40
1.0
 40
1.0
 40
1.0
 10
-128.92819
 20
22.09285
 30
0.0
 10
-128.92819
 20
22.09285
 30
0.0
 10
-133.86955
 20
22.09285
 30
0.0
 10
-133.86955
 20
22.09285
 30
0.0
 10
-133.86955
 20
22.09285
 30
0.0
 10
-133.86955
 20
22.09285
 30
0.0
 10
-133.86955
 20
21.49277
 30
0.0
 10
-133.86955
 20
21.49277
 30
0.0
 10
-133.86955
 20
21.49277
 30
0.0
 10
-133.86955
 20
21.49277
 30
0.0
 10
-131.32823
 20
21.49277
 30
0.0
 10
-131.32823
 20
21.49277
 30
0.0
 10
-131.32823
 20
21.49277
 30
0.0
 10
-131.32823
 20
21.49277
 30
0.0
 10
-129.52827
 20
21.49277
 30
0.0
 10
-129.52827
 20
21.49277
 30
0.0
 10
-129.52827
 20
21.49277
 30
0.0
 10
-129.52827
 20
21.49277
 30
0.0
 10
-129.52827
 20
20.49291
 30
0.0
 10
-129.52827
 20
20.49291
 30
0.0
 10
-129.52827
 20
20.49291
 30
0.0
 10
-129.52827
 20
20.49291
 30
0.0
 10
-129.52827
 20
18.79879
 30
0.0
 10
-129.52827
 20
18.79879
 30
0.0
 10
-129.52827
 20
18.79879
 30
0.0
 10
-129.52827
 20
18.79879
 30
0.0
 10
-128.92819
 20
18.79879
 30
0.0
 10
-128.92819
 20
18.79879
 30
0.0
 10
-128.92819
 20
18.79879
 30
0.0
 10
-128.92819
 20
18.79879
 30
0.0
 10
-128.92819
 20
22.09285
 30
0.0
 10
-128.92819
 20
22.09285
 30
0.0
  0
SPLINE
  5
72
330
1F
100
AcDbEntity
  8
Capa 1
 62
    32
370
     9
100
AcDbSpline
210
0.0
220
0.0
230
1.0
 70
    11
 71
     3
 72
    36
 73
    32
 74
     0
 42
0.000000001
 43
0.0000000001
 40
0.0
 40
0.0
 40
0.0
 40
0.0
 40
0.1111111111111111
 40
0.1111111111111111
 40
0.1111111111111111
 40
0.1111111111111111
 40
0.2222222222222222
 40
0.2222222222222222
 40
0.2222222222222222
 40
0.2222222222222222
 40
0.3333333333333333
 40
0.3333333333333333
 40
0.3333333333333333
 40
0.3333333333333333
 40
0.4444444444444444
 40
0.4444444444444444
 40
0.4444444444444444
 40
0.4444444444444444
 40
0.5555555555555556
 40
0.5555555555555556
 40
0.5555555555555556
 40
0.5555555555555556
 40
0.6666666666666666
 40
0.6666666666666666
 40
0.6666666666666666
 40
0.6666666666666666
 40
0.7777777777777778
 40
0.7777777777777778
 40
0.7777777777777778
 40
0.7777777777777778
 40
1.0
 40
1.0
 40
1.0
 40
1.0
 10
-176.92859
 20
22.09285
 30
0.0
 10
-176.92859
 20
22.09285
 30
0.0
 10
-171.98723
 20
22.09285
 30
0.0
 10
-171.98723
 20
22.09285
 30
0.0
 10
-171.98723
 20
22.09285
 30
0.0
 10
-171.98723
 20
22.09285
 30
0.0
 10
-171.98723
 20
21.49277
 30
0.0
 10
-171.98723
 20
21.49277
 30
0.0
 10
-171.98723
 20
21.49277
 30
0.0
 10
-171.98723
 20
21.49277
 30
0.0
 10
-174.52855
 20
21.49277
 30
0.0
 10
-174.52855
 20
21.49277
 30
0.0
 10
-174.52855
 20
21.49277
 30
0.0
 10
-174.52855
 20
21.49277
 30
0.0
 10
-176.32851
 20
21.49277
 30
0.0
 10
-176.32851
 20
21.49277
 30
0.0
 10
-176.32851
 20
21.49277
 30
0.0
 10
-176.32851
 20
21.49277
 30
0.0
 10
-176.32851
 20
20.49291
 30
0.0
 10
-176.32851
 20
20.49291
 30
0.0
 10
-176.32851
 20
20.49291
 30
0.0
 10
-176.32851
 20
20.49291
 30
0.0
 10
-176.32851
 20
18.79879
 30
0.0
 10
-176.32851
 20
18.79879
 30
0.0
 10
-176.32851
 20
18.79879
 30
0.0
 10
-176.32851
 20
18.79879
 30
0.0
 10
-176.92859
 20
18.79879
 30
0.0
 10
-176.92859
 20
18.79879
 30
0.0
 10
-176.92859
 20
18.79879
 30
0.0
 10
-176.92859
 20
18.79879
 30
0.0
 10
-176.92859
 20
22.09285
 30
0.0
 10
-176.92859
 20
22.09285
 30
0.0
  0
SPLINE
  5
73
330
1F
100
AcDbEntity
  8
Capa 1
 62
    32
370
     9
100
AcDbSpline
210
0.0
220
0.0
230
1.0
 70
    11
 71
     3
 72
    20
 73
    16
 74
     0
 42
0.000000001
 43
0.0000000001
 40
0.0
 40
0.0
 40
0.0
 40
0.0
 40
0.2
 40
0.2
 40
0.2
 40
0.2
 40
0.4
 40
0.4
 40
0.4
 40
0.4
 40
0.6
 40
0.6
 40
0.6
 40
0.6
 40
1.0
 40
1.0
 40
1.0
 40
1.0
 10
-169.44617
 20
22.09285
 30
0.0
 10
-169.44617
 20
22.09285
 30
0.0
 10
-166.90485
 20
22.09285
 30
0.0
 10
-166.90485
 20
22.09285
 30
0.0
 10
-166.90485
 20
22.09285
 30
0.0
 10
-166.90485
 20
22.09285
 30
0.0
 10
-166.90485
 20
21.49277
 30
0.0
 10
-166.90485
 20
21.49277
 30
0.0
 10
-166.90485
 20
21.49277
 30
0.0
 10
-166.90485
 20
21.49277
 30
0.0
 10
-169.44617
 20
21.49277
 30
0.0
 10
-169.44617
 20
21.49277
 30
0.0
 10
-169.44617
 20
21.49277
 30
0.0
 10
-169.44617
 20
21.49277
 30
0.0
 10
-169.44617
 20
22.09285
 30
0.0
 10
-169.44617
 20
22.09285
 30
0.0
  0
SPLINE
  5
74
330
1F
100
AcDbEntity
  8
Capa 1
 62
    32
370
     9
100
AcDbSpline
210
0.0
220
0.0
230
1.0
 70
    11
 71
     3
 72
    20
 73
    16
 74
     0
 42
0.000000001
 43
0.0000000001
 40
0.0
 40
0.0
 40
0.0
 40
0.0
 40
0.2
 40
0.2
 40
0.2
 40
0.2
 40
0.4
 40
0.4
 40
0.4
 40
0.4
 40
0.6
 40
0.6
 40
0.6
 40
0.6
 40
1.0
 40
1.0
 40
1.0
 40
1.0
 10
-164.36379
 20
22.09285
 30
0.0
 10
-164.36379
 20
22.09285
 30
0.0
 10
-161.82247
 20
22.09285
 30
0.0
 10
-161.82247
 20
22.09285
 30
0.0
 10
-161.82247
 20
22.09285
 30
0.0
 10
-161.82247
 20
22.09285
 30
0.0
 10
-161.82247
 20
21.49277
 30
0.0
 10
-161.82247
 20
21.49277
 30
0.0
 10
-161.82247
 20
21.49277
 30
0.0
 10
-161.82247
 20
21.49277
 30
0.0
 10
-164.36379
 20
21.49277
 30
0.0
 10
-164.36379
 20
21.49277
 30
0.0
 10
-164.36379
 20
21.49277
 30
0.0
 10
-164.36379
 20
21.49277
 30
0.0
 10
-164.36379
 20
22.09285
 30
0.0
 10
-164.36379
 20
22.09285
 30
0.0
  0
SPLINE
  5
75
330
1F
100
AcDbEntity
  8
Capa 1
 62
    32
370
     9
100
AcDbSpline
210
0.0
220
0.0
230
1.0
 70
    11
 71
     3
 72
    20
 73
    16
 74
     0
 42
0.000000001
 43
0.0000000001
 40
0.0
 40
0.0
 40
0.0
 40
0.0
 40
0.2
 40
0.2
 40
0.2
 40
0.2
 40
0.4
 40
0.4
 40
0.4
 40
0.4
 40
0.6
 40
0.6
 40
0.6
 40
0.6
 40
1.0
 40
1.0
 40
1.0
 40
1.0
 10
-159.28141
 20
22.09285
 30
0.0
 10
-159.28141
 20
22.09285
 30
0.0
 10
-156.74009
 20
22.09285
 30
0.0
 10
-156.74009
 20
22.09285
 30
0.0
 10
-156.74009
 20
22.09285
 30
0.0
 10
-156.74009
 20
22.09285
 30
0.0
 10
-156.74009
 20
21.49277
 30
0.0
 10
-156.74009
 20
21.49277
 30
0.0
 10
-156.74009
 20
21.49277
 30
0.0
 10
-156.74009
 20
21.49277
 30
0.0
 10
-159.28141
 20
21.49277
 30
0.0
 10
-159.28141
 20
21.49277
 30
0.0
 10
-159.28141
 20
21.49277
 30
0.0
 10
-159.28141
 20
21.49277
 30
0.0
 10
-159.28141
 20
22.09285
 30
0.0
 10
-159.28141
 20
22.09285
 30
0.0
  0
SPLINE
  5
76
330
1F
100
AcDbEntity
  8
Capa 1
 62
    32
370
     9
100
AcDbSpline
210
0.0
220
0.0
230
1.0
 70
    11
 71
     3
 72
    28
 73
    24
 74
     0
 42
0.000000001
 43
0.0000000001
 40
0.0
 40
0.0
 40
0.0
 40
0.0
 40
0.1428571428571428
 40
0.1428571428571428
 40
0.1428571428571428
 40
0.1428571428571428
 40
0.2857142857142857
 40
0.2857142857142857
 40
0.2857142857142857
 40
0.2857142857142857
 40
0.4285714285714285
 40
0.4285714285714285
 40
0.4285714285714285
 40
0.4285714285714285
 40
0.5714285714285714
 40
0.5714285714285714
 40
0.5714285714285714
 40
0.5714285714285714
 40
0.7142857142857143
 40
0.7142857142857143
 40
0.7142857142857143
 40
0.7142857142857143
 40
1.0
 40
1.0
 40
1.0
 40
1.0
 10
-154.19903
 20
22.09285
 30
0.0
 10
-154.19903
 20
22.09285
 30
0.0
 10
-152.92837
 20
22.09285
 30
0.0
 10
-152.92837
 20
22.09285
 30
0.0
 10
-152.92837
 20
22.09285
 30
0.0
 10
-152.92837
 20
22.09285
 30
0.0
 10
-151.65771
 20
22.09285
 30
0.0
 10
-151.65771
 20
22.09285
 30
0.0
 10
-151.65771
 20
22.09285
 30
0.0
 10
-151.65771
 20
22.09285
 30
0.0
 10
-151.65771
 20
21.49277
 30
0.0
 10
-151.65771
 20
21.49277
 30
0.0
 10
-151.65771
 20
21.49277
 30
0.0
 10
-151.65771
 20
21.49277
 30
0.0
 10
-152.92837
 20
21.49277
 30
0.0
 10
-152.92837
 20
21.49277
 30
0.0
 10
-152.92837
 20
21.49277
 30
0.0
 10
-152.92837
 20
21.49277
 30
0.0
 10
-154.19903
 20
21.49277
 30
0.0
 10
-154.19903
 20
21.49277
 30
0.0
 10
-154.19903
 20
21.49277
 30
0.0
 10
-154.19903
 20
21.49277
 30
0.0
 10
-154.19903
 20
22.09285
 30
0.0
 10
-154.19903
 20
22.09285
 30
0.0
  0
SPLINE
  5
77
330
1F
100
AcDbEntity
  8
Capa 1
 62
    32
370
     9
100
AcDbSpline
210
0.0
220
0.0
230
1.0
 70
    11
 71
     3
 72
    28
 73
    24
 74
     0
 42
0.000000001
 43
0.0000000001
 40
0.0
 40
0.0
 40
0.0
 40
0.0
 40
0.1428571428571428
 40
0.1428571428571428
 40
0.1428571428571428
 40
0.1428571428571428
 40
0.2857142857142857
 40
0.2857142857142857
 40
0.2857142857142857
 40
0.2857142857142857
 40
0.4285714285714285
 40
0.4285714285714285
 40
0.4285714285714285
 40
0.4285714285714285
 40
0.5714285714285714
 40
0.5714285714285714
 40
0.5714285714285714
 40
0.5714285714285714
 40
0.7142857142857143
 40
0.7142857142857143
 40
0.7142857142857143
 40
0.7142857142857143
 40
1.0
 40
1.0
 40
1.0
 40
1.0
 10
-152.92837
 20
-9.90745
 30
0.0
 10
-152.92837
 20
-9.90745
 30
0.0
 10
-154.19903
 20
-9.90746
 30
0.0
 10
-154.19903
 20
-9.90746
 30
0.0
 10
-154.19903
 20
-9.90746
 30
0.0
 10
-154.19903
 20
-9.90746
 30
0.0
 10
-154.19903
 20
-9.30738
 30
0.0
 10
-154.19903
 20
-9.30738
 30
0.0
 10
-154.19903
 20
-9.30738
 30
0.0
 10
-154.19903
 20
-9.30738
 30
0.0
 10
-152.92837
 20
-9.30738
 30
0.0
 10
-152.92837
 20
-9.30738
 30
0.0
 10
-152.92837
 20
-9.30738
 30
0.0
 10
-152.92837
 20
-9.30738
 30
0.0
 10
-151.65771
 20
-9.30738
 30
0.0
 10
-151.65771
 20
-9.30738
 30
0.0
 10
-151.65771
 20
-9.30738
 30
0.0
 10
-151.65771
 20
-9.30738
 30
0.0
 10
-151.65771
 20
-9.90746
 30
0.0
 10
-151.65771
 20
-9.90746
 30
0.0
 10
-151.65771
 20
-9.90746
 30
0.0
 10
-151.65771
 20
-9.90746
 30
0.0
 10
-152.92837
 20
-9.90745
 30
0.0
 10
-152.92837
 20
-9.90745
 30
0.0
  0
SPLINE
  5
78
330
1F
100
AcDbEntity
  8
Capa 1
 62
    32
370
     9
100
AcDbSpline
210
0.0
220
0.0
230
1.0
 70
    11
 71
     3
 72
    20
 73
    16
 74
     0
 42
0.000000001
 43
0.0000000001
 40
0.0
 40
0.0
 40
0.0
 40
0.0
 40
0.2
 40
0.2
 40
0.2
 40
0.2
 40
0.4
 40
0.4
 40
0.4
 40
0.4
 40
0.6
 40
0.6
 40
0.6
 40
0.6
 40
1.0
 40
1.0
 40
1.0
 40
1.0
 10
-156.74009
 20
-9.90746
 30
0.0
 10
-156.74009
 20
-9.90746
 30
0.0
 10
-159.28141
 20
-9.90746
 30
0.0
 10
-159.28141
 20
-9.90746
 30
0.0
 10
-159.28141
 20
-9.90746
 30
0.0
 10
-159.28141
 20
-9.90746
 30
0.0
 10
-159.28141
 20
-9.30738
 30
0.0
 10
-159.28141
 20
-9.30738
 30
0.0
 10
-159.28141
 20
-9.30738
 30
0.0
 10
-159.28141
 20
-9.30738
 30
0.0
 10
-156.74009
 20
-9.30738
 30
0.0
 10
-156.74009
 20
-9.30738
 30
0.0
 10
-156.74009
 20
-9.30738
 30
0.0
 10
-156.74009
 20
-9.30738
 30
0.0
 10
-156.74009
 20
-9.90746
 30
0.0
 10
-156.74009
 20
-9.90746
 30
0.0
  0
SPLINE
  5
79
330
1F
100
AcDbEntity
  8
Capa 1
 62
    32
370
     9
100
AcDbSpline
210
0.0
220
0.0
230
1.0
 70
    11
 71
     3
 72
    20
 73
    16
 74
     0
 42
0.000000001
 43
0.0000000001
 40
0.0
 40
0.0
 40
0.0
 40
0.0
 40
0.2
 40
0.2
 40
0.2
 40
0.2
 40
0.4
 40
0.4
 40
0.4
 40
0.4
 40
0.6
 40
0.6
 40
0.6
 40
0.6
 40
1.0
 40
1.0
 40
1.0
 40
1.0
 10
-161.82247
 20
-9.90746
 30
0.0
 10
-161.82247
 20
-9.90746
 30
0.0
 10
-164.36379
 20
-9.90746
 30
0.0
 10
-164.36379
 20
-9.90746
 30
0.0
 10
-164.36379
 20
-9.90746
 30
0.0
 10
-164.36379
 20
-9.90746
 30
0.0
 10
-164.36379
 20
-9.30738
 30
0.0
 10
-164.36379
 20
-9.30738
 30
0.0
 10
-164.36379
 20
-9.30738
 30
0.0
 10
-164.36379
 20
-9.30738
 30
0.0
 10
-161.82247
 20
-9.30738
 30
0.0
 10
-161.82247
 20
-9.30738
 30
0.0
 10
-161.82247
 20
-9.30738
 30
0.0
 10
-161.82247
 20
-9.30738
 30
0.0
 10
-161.82247
 20
-9.90746
 30
0.0
 10
-161.82247
 20
-9.90746
 30
0.0
  0
SPLINE
  5
7A
330
1F
100
AcDbEntity
  8
Capa 1
 62
    32
370
     9
100
AcDbSpline
210
0.0
220
0.0
230
1.0
 70
    11
 71
     3
 72
    20
 73
    16
 74
     0
 42
0.000000001
 43
0.0000000001
 40
0.0
 40
0.0
 40
0.0
 40
0.0
 40
0.2
 40
0.2
 40
0.2
 40
0.2
 40
0.4
 40
0.4
 40
0.4
 40
0.4
 40
0.6
 40
0.6
 40
0.6
 40
0.6
 40
1.0
 40
1.0
 40
1.0
 40
1.0
 10
-166.90485
 20
-9.90746
 30
0.0
 10
-166.90485
 20
-9.90746
 30
0.0
 10
-169.44617
 20
-9.90746
 30
0.0
 10
-169.44617
 20
-9.90746
 30
0.0
 10
-169.44617
 20
-9.90746
 30
0.0
 10
-169.44617
 20
-9.90746
 30
0.0
 10
-169.44617
 20
-9.30738
 30
0.0
 10
-169.44617
 20
-9.30738
 30
0.0
 10
-169.44617
 20
-9.30738
 30
0.0
 10
-169.44617
 20
-9.30738
 30
0.0
 10
-166.90485
 20
-9.30738
 30
0.0
 10
-166.90485
 20
-9.30738
 30
0.0
 10
-166.90485
 20
-9.30738
 30
0.0
 10
-166.90485
 20
-9.30738
 30
0.0
 10
-166.90485
 20
-9.90746
 30
0.0
 10
-166.90485
 20
-9.90746
 30
0.0
  0
SPLINE
  5
7B
330
1F
100
AcDbEntity
  8
Capa 1
 62
    32
370
     9
100
AcDbSpline
210
0.0
220
0.0
230
1.0
 70
    11
 71
     3
 72
    36
 73
    32
 74
     0
 42
0.000000001
 43
0.0000000001
 40
0.0
 40
0.0
 40
0.0
 40
0.0
 40
0.1111111111111111
 40
0.1111111111111111
 40
0.1111111111111111
 40
0.1111111111111111
 40
0.2222222222222222
 40
0.2222222222222222
 40
0.2222222222222222
 40
0.2222222222222222
 40
0.3333333333333333
 40
0.3333333333333333
 40
0.3333333333333333
 40
0.3333333333333333
 40
0.4444444444444444
 40
0.4444444444444444
 40
0.4444444444444444
 40
0.4444444444444444
 40
0.5555555555555556
 40
0.5555555555555556
 40
0.5555555555555556
 40
0.5555555555555556
 40
0.6666666666666666
 40
0.6666666666666666
 40
0.6666666666666666
 40
0.6666666666666666
 40
0.7777777777777778
 40
0.7777777777777778
 40
0.7777777777777778
 40
0.7777777777777778
 40
1.0
 40
1.0
 40
1.0
 40
1.0
 10
-171.98723
 20
-9.90746
 30
0.0
 10
-171.98723
 20
-9.90746
 30
0.0
 10
-176.92859
 20
-9.90746
 30
0.0
 10
-176.92859
 20
-9.90746
 30
0.0
 10
-176.92859
 20
-9.90746
 30
0.0
 10
-176.92859
 20
-9.90746
 30
0.0
 10
-176.92859
 20
-6.61313
 30
0.0
 10
-176.92859
 20
-6.61313
 30
0.0
 10
-176.92859
 20
-6.61313
 30
0.0
 10
-176.92859
 20
-6.61313
 30
0.0
 10
-176.32851
 20
-6.61313
 30
0.0
 10
-176.32851
 20
-6.61313
 30
0.0
 10
-176.32851
 20
-6.61313
 30
0.0
 10
-176.32851
 20
-6.61313
 30
0.0
 10
-176.32851
 20
-8.30726
 30
0.0
 10
-176.32851
 20
-8.30726
 30
0.0
 10
-176.32851
 20
-8.30726
 30
0.0
 10
-176.32851
 20
-8.30726
 30
0.0
 10
-176.32851
 20
-9.30738
 30
0.0
 10
-176.32851
 20
-9.30738
 30
0.0
 10
-176.32851
 20
-9.30738
 30
0.0
 10
-176.32851
 20
-9.30738
 30
0.0
 10
-174.52855
 20
-9.30738
 30
0.0
 10
-174.52855
 20
-9.30738
 30
0.0
 10
-174.52855
 20
-9.30738
 30
0.0
 10
-174.52855
 20
-9.30738
 30
0.0
 10
-171.98723
 20
-9.30738
 30
0.0
 10
-171.98723
 20
-9.30738
 30
0.0
 10
-171.98723
 20
-9.30738
 30
0.0
 10
-171.98723
 20
-9.30738
 30
0.0
 10
-171.98723
 20
-9.90746
 30
0.0
 10
-171.98723
 20
-9.90746
 30
0.0
  0
SPLINE
  5
7C
330
1F
100
AcDbEntity
  8
Capa 1
 62
    32
370
     9
100
AcDbSpline
210
0.0
220
0.0
230
1.0
 70
    11
 71
     3
 72
    20
 73
    16
 74
     0
 42
0.000000001
 43
0.0000000001
 40
0.0
 40
0.0
 40
0.0
 40
0.0
 40
0.2
 40
0.2
 40
0.2
 40
0.2
 40
0.4
 40
0.4
 40
0.4
 40
0.4
 40
0.6
 40
0.6
 40
0.6
 40
0.6
 40
1.0
 40
1.0
 40
1.0
 40
1.0
 10
-176.92859
 20
-4.919
 30
0.0
 10
-176.92859
 20
-4.919
 30
0.0
 10
-176.92859
 20
-3.22487
 30
0.0
 10
-176.92859
 20
-3.22487
 30
0.0
 10
-176.92859
 20
-3.22487
 30
0.0
 10
-176.92859
 20
-3.22487
 30
0.0
 10
-176.32851
 20
-3.22487
 30
0.0
 10
-176.32851
 20
-3.22487
 30
0.0
 10
-176.32851
 20
-3.22487
 30
0.0
 10
-176.32851
 20
-3.22487
 30
0.0
 10
-176.32851
 20
-4.919
 30
0.0
 10
-176.32851
 20
-4.919
 30
0.0
 10
-176.32851
 20
-4.919
 30
0.0
 10
-176.32851
 20
-4.919
 30
0.0
 10
-176.92859
 20
-4.919
 30
0.0
 10
-176.92859
 20
-4.919
 30
0.0
  0
SPLINE
  5
7D
330
1F
100
AcDbEntity
  8
Capa 1
 62
    32
370
     9
100
AcDbSpline
210
0.0
220
0.0
230
1.0
 70
    11
 71
     3
 72
    20
 73
    16
 74
     0
 42
0.000000001
 43
0.0000000001
 40
0.0
 40
0.0
 40
0.0
 40
0.0
 40
0.2
 40
0.2
 40
0.2
 40
0.2
 40
0.4
 40
0.4
 40
0.4
 40
0.4
 40
0.6
 40
0.6
 40
0.6
 40
0.6
 40
1.0
 40
1.0
 40
1.0
 40
1.0
 10
-176.92859
 20
-1.53075
 30
0.0
 10
-176.92859
 20
-1.53075
 30
0.0
 10
-176.92859
 20
0.16338
 30
0.0
 10
-176.92859
 20
0.16338
 30
0.0
 10
-176.92859
 20
0.16338
 30
0.0
 10
-176.92859
 20
0.16338
 30
0.0
 10
-176.32851
 20
0.16338
 30
0.0
 10
-176.32851
 20
0.16338
 30
0.0
 10
-176.32851
 20
0.16338
 30
0.0
 10
-176.32851
 20
0.16338
 30
0.0
 10
-176.32851
 20
-1.53075
 30
0.0
 10
-176.32851
 20
-1.53075
 30
0.0
 10
-176.32851
 20
-1.53075
 30
0.0
 10
-176.32851
 20
-1.53075
 30
0.0
 10
-176.92859
 20
-1.53075
 30
0.0
 10
-176.92859
 20
-1.53075
 30
0.0
  0
SPLINE
  5
7E
330
1F
100
AcDbEntity
  8
Capa 1
 62
    32
370
     9
100
AcDbSpline
210
0.0
220
0.0
230
1.0
 70
    11
 71
     3
 72
    20
 73
    16
 74
     0
 42
0.000000001
 43
0.0000000001
 40
0.0
 40
0.0
 40
0.0
 40
0.0
 40
0.2
 40
0.2
 40
0.2
 40
0.2
 40
0.4
 40
0.4
 40
0.4
 40
0.4
 40
0.6
 40
0.6
 40
0.6
 40
0.6
 40
1.0
 40
1.0
 40
1.0
 40
1.0
 10
-176.92859
 20
1.85751
 30
0.0
 10
-176.92859
 20
1.85751
 30
0.0
 10
-176.92859
 20
3.55163
 30
0.0
 10
-176.92859
 20
3.55163
 30
0.0
 10
-176.92859
 20
3.55163
 30
0.0
 10
-176.92859
 20
3.55163
 30
0.0
 10
-176.32851
 20
3.55163
 30
0.0
 10
-176.32851
 20
3.55163
 30
0.0
 10
-176.32851
 20
3.55163
 30
0.0
 10
-176.32851
 20
3.55163
 30
0.0
 10
-176.32851
 20
1.85751
 30
0.0
 10
-176.32851
 20
1.85751
 30
0.0
 10
-176.32851
 20
1.85751
 30
0.0
 10
-176.32851
 20
1.85751
 30
0.0
 10
-176.92859
 20
1.85751
 30
0.0
 10
-176.92859
 20
1.85751
 30
0.0
  0
SPLINE
  5
7F
330
1F
100
AcDbEntity
  8
Capa 1
 62
    32
370
     9
100
AcDbSpline
210
0.0
220
0.0
230
1.0
 70
    11
 71
     3
 72
    20
 73
    16
 74
     0
 42
0.000000001
 43
0.0000000001
 40
0.0
 40
0.0
 40
0.0
 40
0.0
 40
0.2
 40
0.2
 40
0.2
 40
0.2
 40
0.4
 40
0.4
 40
0.4
 40
0.4
 40
0.6
 40
0.6
 40
0.6
 40
0.6
 40
1.0
 40
1.0
 40
1.0
 40
1.0
 10
-176.92859
 20
5.24576
 30
0.0
 10
-176.92859
 20
5.24576
 30
0.0
 10
-176.92859
 20
6.93989
 30
0.0
 10
-176.92859
 20
6.93989
 30
0.0
 10
-176.92859
 20
6.93989
 30
0.0
 10
-176.92859
 20
6.93989
 30
0.0
 10
-176.32851
 20
6.93989
 30
0.0
 10
-176.32851
 20
6.93989
 30
0.0
 10
-176.32851
 20
6.93989
 30
0.0
 10
-176.32851
 20
6.93989
 30
0.0
 10
-176.32851
 20
5.24576
 30
0.0
 10
-176.32851
 20
5.24576
 30
0.0
 10
-176.32851
 20
5.24576
 30
0.0
 10
-176.32851
 20
5.24576
 30
0.0
 10
-176.92859
 20
5.24576
 30
0.0
 10
-176.92859
 20
5.24576
 30
0.0
  0
SPLINE
  5
80
330
1F
100
AcDbEntity
  8
Capa 1
 62
    32
370
     9
100
AcDbSpline
210
0.0
220
0.0
230
1.0
 70
    11
 71
     3
 72
    20
 73
    16
 74
     0
 42
0.000000001
 43
0.0000000001
 40
0.0
 40
0.0
 40
0.0
 40
0.0
 40
0.2
 40
0.2
 40
0.2
 40
0.2
 40
0.4
 40
0.4
 40
0.4
 40
0.4
 40
0.6
 40
0.6
 40
0.6
 40
0.6
 40
1.0
 40
1.0
 40
1.0
 40
1.0
 10
-176.92859
 20
8.63402
 30
0.0
 10
-176.92859
 20
8.63402
 30
0.0
 10
-176.92859
 20
10.32814
 30
0.0
 10
-176.92859
 20
10.32814
 30
0.0
 10
-176.92859
 20
10.32814
 30
0.0
 10
-176.92859
 20
10.32814
 30
0.0
 10
-176.32851
 20
10.32814
 30
0.0
 10
-176.32851
 20
10.32814
 30
0.0
 10
-176.32851
 20
10.32814
 30
0.0
 10
-176.32851
 20
10.32814
 30
0.0
 10
-176.32851
 20
8.63402
 30
0.0
 10
-176.32851
 20
8.63402
 30
0.0
 10
-176.32851
 20
8.63402
 30
0.0
 10
-176.32851
 20
8.63402
 30
0.0
 10
-176.92859
 20
8.63402
 30
0.0
 10
-176.92859
 20
8.63402
 30
0.0
  0
SPLINE
  5
81
330
1F
100
AcDbEntity
  8
Capa 1
 62
    32
370
     9
100
AcDbSpline
210
0.0
220
0.0
230
1.0
 70
    11
 71
     3
 72
    20
 73
    16
 74
     0
 42
0.000000001
 43
0.0000000001
 40
0.0
 40
0.0
 40
0.0
 40
0.0
 40
0.2
 40
0.2
 40
0.2
 40
0.2
 40
0.4
 40
0.4
 40
0.4
 40
0.4
 40
0.6
 40
0.6
 40
0.6
 40
0.6
 40
1.0
 40
1.0
 40
1.0
 40
1.0
 10
-176.92859
 20
12.02227
 30
0.0
 10
-176.92859
 20
12.02227
 30
0.0
 10
-176.92859
 20
13.7164
 30
0.0
 10
-176.92859
 20
13.7164
 30
0.0
 10
-176.92859
 20
13.7164
 30
0.0
 10
-176.92859
 20
13.7164
 30
0.0
 10
-176.32851
 20
13.7164
 30
0.0
 10
-176.32851
 20
13.7164
 30
0.0
 10
-176.32851
 20
13.7164
 30
0.0
 10
-176.32851
 20
13.7164
 30
0.0
 10
-176.32851
 20
12.02227
 30
0.0
 10
-176.32851
 20
12.02227
 30
0.0
 10
-176.32851
 20
12.02227
 30
0.0
 10
-176.32851
 20
12.02227
 30
0.0
 10
-176.92859
 20
12.02227
 30
0.0
 10
-176.92859
 20
12.02227
 30
0.0
  0
SPLINE
  5
82
330
1F
100
AcDbEntity
  8
Capa 1
 62
    32
370
     9
100
AcDbSpline
210
0.0
220
0.0
230
1.0
 70
    11
 71
     3
 72
    20
 73
    16
 74
     0
 42
0.000000001
 43
0.0000000001
 40
0.0
 40
0.0
 40
0.0
 40
0.0
 40
0.2
 40
0.2
 40
0.2
 40
0.2
 40
0.4
 40
0.4
 40
0.4
 40
0.4
 40
0.6
 40
0.6
 40
0.6
 40
0.6
 40
1.0
 40
1.0
 40
1.0
 40
1.0
 10
-176.92859
 20
15.41052
 30
0.0
 10
-176.92859
 20
15.41052
 30
0.0
 10
-176.92859
 20
17.10465
 30
0.0
 10
-176.92859
 20
17.10465
 30
0.0
 10
-176.92859
 20
17.10465
 30
0.0
 10
-176.92859
 20
17.10465
 30
0.0
 10
-176.32851
 20
17.10465
 30
0.0
 10
-176.32851
 20
17.10465
 30
0.0
 10
-176.32851
 20
17.10465
 30
0.0
 10
-176.32851
 20
17.10465
 30
0.0
 10
-176.32851
 20
15.41052
 30
0.0
 10
-176.32851
 20
15.41052
 30
0.0
 10
-176.32851
 20
15.41052
 30
0.0
 10
-176.32851
 20
15.41052
 30
0.0
 10
-176.92859
 20
15.41052
 30
0.0
 10
-176.92859
 20
15.41052
 30
0.0
  0
SPLINE
  5
83
330
1F
100
AcDbEntity
  8
Capa 1
 62
    32
370
     9
100
AcDbSpline
210
0.0
220
0.0
230
1.0
 70
    11
 71
     3
 72
    20
 73
    16
 74
     0
 42
0.000000001
 43
0.0000000001
 40
0.0
 40
0.0
 40
0.0
 40
0.0
 40
0.2
 40
0.2
 40
0.2
 40
0.2
 40
0.4
 40
0.4
 40
0.4
 40
0.4
 40
0.6
 40
0.6
 40
0.6
 40
0.6
 40
1.0
 40
1.0
 40
1.0
 40
1.0
 10
-136.41059
 20
22.09284
 30
0.0
 10
-136.41059
 20
22.09284
 30
0.0
 10
-138.95191
 20
22.09284
 30
0.0
 10
-138.95191
 20
22.09284
 30
0.0
 10
-138.95191
 20
22.09284
 30
0.0
 10
-138.95191
 20
22.09284
 30
0.0
 10
-138.95191
 20
21.49276
 30
0.0
 10
-138.95191
 20
21.49276
 30
0.0
 10
-138.95191
 20
21.49276
 30
0.0
 10
-138.95191
 20
21.49276
 30
0.0
 10
-136.41059
 20
21.49276
 30
0.0
 10
-136.41059
 20
21.49276
 30
0.0
 10
-136.41059
 20
21.49276
 30
0.0
 10
-136.41059
 20
21.49276
 30
0.0
 10
-136.41059
 20
22.09284
 30
0.0
 10
-136.41059
 20
22.09284
 30
0.0
  0
SPLINE
  5
84
330
1F
100
AcDbEntity
  8
Capa 1
 62
    32
370
     9
100
AcDbSpline
210
0.0
220
0.0
230
1.0
 70
    11
 71
     3
 72
    20
 73
    16
 74
     0
 42
0.000000001
 43
0.0000000001
 40
0.0
 40
0.0
 40
0.0
 40
0.0
 40
0.2
 40
0.2
 40
0.2
 40
0.2
 40
0.4
 40
0.4
 40
0.4
 40
0.4
 40
0.6
 40
0.6
 40
0.6
 40
0.6
 40
1.0
 40
1.0
 40
1.0
 40
1.0
 10
-141.49297
 20
22.09284
 30
0.0
 10
-141.49297
 20
22.09284
 30
0.0
 10
-144.03429
 20
22.09284
 30
0.0
 10
-144.03429
 20
22.09284
 30
0.0
 10
-144.03429
 20
22.09284
 30
0.0
 10
-144.03429
 20
22.09284
 30
0.0
 10
-144.03429
 20
21.49276
 30
0.0
 10
-144.03429
 20
21.49276
 30
0.0
 10
-144.03429
 20
21.49276
 30
0.0
 10
-144.03429
 20
21.49276
 30
0.0
 10
-141.49297
 20
21.49276
 30
0.0
 10
-141.49297
 20
21.49276
 30
0.0
 10
-141.49297
 20
21.49276
 30
0.0
 10
-141.49297
 20
21.49276
 30
0.0
 10
-141.49297
 20
22.09284
 30
0.0
 10
-141.49297
 20
22.09284
 30
0.0
  0
SPLINE
  5
85
330
1F
100
AcDbEntity
  8
Capa 1
 62
    32
370
     9
100
AcDbSpline
210
0.0
220
0.0
230
1.0
 70
    11
 71
     3
 72
    20
 73
    16
 74
     0
 42
0.000000001
 43
0.0000000001
 40
0.0
 40
0.0
 40
0.0
 40
0.0
 40
0.2
 40
0.2
 40
0.2
 40
0.2
 40
0.4
 40
0.4
 40
0.4
 40
0.4
 40
0.6
 40
0.6
 40
0.6
 40
0.6
 40
1.0
 40
1.0
 40
1.0
 40
1.0
 10
-146.57535
 20
22.09284
 30
0.0
 10
-146.57535
 20
22.09284
 30
0.0
 10
-149.11667
 20
22.09284
 30
0.0
 10
-149.11667
 20
22.09284
 30
0.0
 10
-149.11667
 20
22.09284
 30
0.0
 10
-149.11667
 20
22.09284
 30
0.0
 10
-149.11667
 20
21.49276
 30
0.0
 10
-149.11667
 20
21.49276
 30
0.0
 10
-149.11667
 20
21.49276
 30
0.0
 10
-149.11667
 20
21.49276
 30
0.0
 10
-146.57535
 20
21.49276
 30
0.0
 10
-146.57535
 20
21.49276
 30
0.0
 10
-146.57535
 20
21.49276
 30
0.0
 10
-146.57535
 20
21.49276
 30
0.0
 10
-146.57535
 20
22.09284
 30
0.0
 10
-146.57535
 20
22.09284
 30
0.0
  0
SPLINE
  5
86
330
1F
100
AcDbEntity
  8
Capa 1
 62
    32
370
     9
100
AcDbSpline
210
0.0
220
0.0
230
1.0
 70
    11
 71
     3
 72
    20
 73
    16
 74
     0
 42
0.000000001
 43
0.0000000001
 40
0.0
 40
0.0
 40
0.0
 40
0.0
 40
0.2
 40
0.2
 40
0.2
 40
0.2
 40
0.4
 40
0.4
 40
0.4
 40
0.4
 40
0.6
 40
0.6
 40
0.6
 40
0.6
 40
1.0
 40
1.0
 40
1.0
 40
1.0
 10
-149.11667
 20
-9.90746
 30
0.0
 10
-149.11667
 20
-9.90746
 30
0.0
 10
-146.57535
 20
-9.90746
 30
0.0
 10
-146.57535
 20
-9.90746
 30
0.0
 10
-146.57535
 20
-9.90746
 30
0.0
 10
-146.57535
 20
-9.90746
 30
0.0
 10
-146.57535
 20
-9.30738
 30
0.0
 10
-146.57535
 20
-9.30738
 30
0.0
 10
-146.57535
 20
-9.30738
 30
0.0
 10
-146.57535
 20
-9.30738
 30
0.0
 10
-149.11667
 20
-9.30738
 30
0.0
 10
-149.11667
 20
-9.30738
 30
0.0
 10
-149.11667
 20
-9.30738
 30
0.0
 10
-149.11667
 20
-9.30738
 30
0.0
 10
-149.11667
 20
-9.90746
 30
0.0
 10
-149.11667
 20
-9.90746
 30
0.0
  0
SPLINE
  5
87
330
1F
100
AcDbEntity
  8
Capa 1
 62
    32
370
     9
100
AcDbSpline
210
0.0
220
0.0
230
1.0
 70
    11
 71
     3
 72
    20
 73
    16
 74
     0
 42
0.000000001
 43
0.0000000001
 40
0.0
 40
0.0
 40
0.0
 40
0.0
 40
0.2
 40
0.2
 40
0.2
 40
0.2
 40
0.4
 40
0.4
 40
0.4
 40
0.4
 40
0.6
 40
0.6
 40
0.6
 40
0.6
 40
1.0
 40
1.0
 40
1.0
 40
1.0
 10
-144.03429
 20
-9.90746
 30
0.0
 10
-144.03429
 20
-9.90746
 30
0.0
 10
-141.49297
 20
-9.90746
 30
0.0
 10
-141.49297
 20
-9.90746
 30
0.0
 10
-141.49297
 20
-9.90746
 30
0.0
 10
-141.49297
 20
-9.90746
 30
0.0
 10
-141.49297
 20
-9.30738
 30
0.0
 10
-141.49297
 20
-9.30738
 30
0.0
 10
-141.49297
 20
-9.30738
 30
0.0
 10
-141.49297
 20
-9.30738
 30
0.0
 10
-144.03429
 20
-9.30738
 30
0.0
 10
-144.03429
 20
-9.30738
 30
0.0
 10
-144.03429
 20
-9.30738
 30
0.0
 10
-144.03429
 20
-9.30738
 30
0.0
 10
-144.03429
 20
-9.90746
 30
0.0
 10
-144.03429
 20
-9.90746
 30
0.0
  0
SPLINE
  5
88
330
1F
100
AcDbEntity
  8
Capa 1
 62
    32
370
     9
100
AcDbSpline
210
0.0
220
0.0
230
1.0
 70
    11
 71
     3
 72
    20
 73
    16
 74
     0
 42
0.000000001
 43
0.0000000001
 40
0.0
 40
0.0
 40
0.0
 40
0.0
 40
0.2
 40
0.2
 40
0.2
 40
0.2
 40
0.4
 40
0.4
 40
0.4
 40
0.4
 40
0.6
 40
0.6
 40
0.6
 40
0.6
 40
1.0
 40
1.0
 40
1.0
 40
1.0
 10
-138.95191
 20
-9.90746
 30
0.0
 10
-138.95191
 20
-9.90746
 30
0.0
 10
-136.41059
 20
-9.90746
 30
0.0
 10
-136.41059
 20
-9.90746
 30
0.0
 10
-136.41059
 20
-9.90746
 30
0.0
 10
-136.41059
 20
-9.90746
 30
0.0
 10
-136.41059
 20
-9.30738
 30
0.0
 10
-136.41059
 20
-9.30738
 30
0.0
 10
-136.41059
 20
-9.30738
 30
0.0
 10
-136.41059
 20
-9.30738
 30
0.0
 10
-138.95191
 20
-9.30738
 30
0.0
 10
-138.95191
 20
-9.30738
 30
0.0
 10
-138.95191
 20
-9.30738
 30
0.0
 10
-138.95191
 20
-9.30738
 30
0.0
 10
-138.95191
 20
-9.90746
 30
0.0
 10
-138.95191
 20
-9.90746
 30
0.0
  0
SPLINE
  5
89
330
1F
100
AcDbEntity
  8
Capa 1
 62
    32
370
     9
100
AcDbSpline
210
0.0
220
0.0
230
1.0
 70
    11
 71
     3
 72
    36
 73
    32
 74
     0
 42
0.000000001
 43
0.0000000001
 40
0.0
 40
0.0
 40
0.0
 40
0.0
 40
0.1111111111111111
 40
0.1111111111111111
 40
0.1111111111111111
 40
0.1111111111111111
 40
0.2222222222222222
 40
0.2222222222222222
 40
0.2222222222222222
 40
0.2222222222222222
 40
0.3333333333333333
 40
0.3333333333333333
 40
0.3333333333333333
 40
0.3333333333333333
 40
0.4444444444444444
 40
0.4444444444444444
 40
0.4444444444444444
 40
0.4444444444444444
 40
0.5555555555555556
 40
0.5555555555555556
 40
0.5555555555555556
 40
0.5555555555555556
 40
0.6666666666666666
 40
0.6666666666666666
 40
0.6666666666666666
 40
0.6666666666666666
 40
0.7777777777777778
 40
0.7777777777777778
 40
0.7777777777777778
 40
0.7777777777777778
 40
1.0
 40
1.0
 40
1.0
 40
1.0
 10
-133.86953
 20
-9.90746
 30
0.0
 10
-133.86953
 20
-9.90746
 30
0.0
 10
-128.92817
 20
-9.90746
 30
0.0
 10
-128.92817
 20
-9.90746
 30
0.0
 10
-128.92817
 20
-9.90746
 30
0.0
 10
-128.92817
 20
-9.90746
 30
0.0
 10
-128.92817
 20
-6.61313
 30
0.0
 10
-128.92817
 20
-6.61313
 30
0.0
 10
-128.92817
 20
-6.61313
 30
0.0
 10
-128.92817
 20
-6.61313
 30
0.0
 10
-129.52825
 20
-6.61313
 30
0.0
 10
-129.52825
 20
-6.61313
 30
0.0
 10
-129.52825
 20
-6.61313
 30
0.0
 10
-129.52825
 20
-6.61313
 30
0.0
 10
-129.52825
 20
-8.30726
 30
0.0
 10
-129.52825
 20
-8.30726
 30
0.0
 10
-129.52825
 20
-8.30726
 30
0.0
 10
-129.52825
 20
-8.30726
 30
0.0
 10
-129.52825
 20
-9.30738
 30
0.0
 10
-129.52825
 20
-9.30738
 30
0.0
 10
-129.52825
 20
-9.30738
 30
0.0
 10
-129.52825
 20
-9.30738
 30
0.0
 10
-131.32821
 20
-9.30738
 30
0.0
 10
-131.32821
 20
-9.30738
 30
0.0
 10
-131.32821
 20
-9.30738
 30
0.0
 10
-131.32821
 20
-9.30738
 30
0.0
 10
-133.86953
 20
-9.30738
 30
0.0
 10
-133.86953
 20
-9.30738
 30
0.0
 10
-133.86953
 20
-9.30738
 30
0.0
 10
-133.86953
 20
-9.30738
 30
0.0
 10
-133.86953
 20
-9.90746
 30
0.0
 10
-133.86953
 20
-9.90746
 30
0.0
  0
SPLINE
  5
8A
330
1F
100
AcDbEntity
  8
Capa 1
 62
    32
370
     9
100
AcDbSpline
210
0.0
220
0.0
230
1.0
 70
    11
 71
     3
 72
    20
 73
    16
 74
     0
 42
0.000000001
 43
0.0000000001
 40
0.0
 40
0.0
 40
0.0
 40
0.0
 40
0.2
 40
0.2
 40
0.2
 40
0.2
 40
0.4
 40
0.4
 40
0.4
 40
0.4
 40
0.6
 40
0.6
 40
0.6
 40
0.6
 40
1.0
 40
1.0
 40
1.0
 40
1.0
 10
-128.92817
 20
-4.919
 30
0.0
 10
-128.92817
 20
-4.919
 30
0.0
 10
-128.92817
 20
-3.22487
 30
0.0
 10
-128.92817
 20
-3.22487
 30
0.0
 10
-128.92817
 20
-3.22487
 30
0.0
 10
-128.92817
 20
-3.22487
 30
0.0
 10
-129.52825
 20
-3.22487
 30
0.0
 10
-129.52825
 20
-3.22487
 30
0.0
 10
-129.52825
 20
-3.22487
 30
0.0
 10
-129.52825
 20
-3.22487
 30
0.0
 10
-129.52825
 20
-4.919
 30
0.0
 10
-129.52825
 20
-4.919
 30
0.0
 10
-129.52825
 20
-4.919
 30
0.0
 10
-129.52825
 20
-4.919
 30
0.0
 10
-128.92817
 20
-4.919
 30
0.0
 10
-128.92817
 20
-4.919
 30
0.0
  0
SPLINE
  5
8B
330
1F
100
AcDbEntity
  8
Capa 1
 62
    32
370
     9
100
AcDbSpline
210
0.0
220
0.0
230
1.0
 70
    11
 71
     3
 72
    20
 73
    16
 74
     0
 42
0.000000001
 43
0.0000000001
 40
0.0
 40
0.0
 40
0.0
 40
0.0
 40
0.2
 40
0.2
 40
0.2
 40
0.2
 40
0.4
 40
0.4
 40
0.4
 40
0.4
 40
0.6
 40
0.6
 40
0.6
 40
0.6
 40
1.0
 40
1.0
 40
1.0
 40
1.0
 10
-128.92817
 20
-1.53075
 30
0.0
 10
-128.92817
 20
-1.53075
 30
0.0
 10
-128.92817
 20
0.16338
 30
0.0
 10
-128.92817
 20
0.16338
 30
0.0
 10
-128.92817
 20
0.16338
 30
0.0
 10
-128.92817
 20
0.16338
 30
0.0
 10
-129.52825
 20
0.16338
 30
0.0
 10
-129.52825
 20
0.16338
 30
0.0
 10
-129.52825
 20
0.16338
 30
0.0
 10
-129.52825
 20
0.16338
 30
0.0
 10
-129.52825
 20
-1.53075
 30
0.0
 10
-129.52825
 20
-1.53075
 30
0.0
 10
-129.52825
 20
-1.53075
 30
0.0
 10
-129.52825
 20
-1.53075
 30
0.0
 10
-128.92817
 20
-1.53075
 30
0.0
 10
-128.92817
 20
-1.53075
 30
0.0
  0
SPLINE
  5
8C
330
1F
100
AcDbEntity
  8
Capa 1
 62
    32
370
     9
100
AcDbSpline
210
0.0
220
0.0
230
1.0
 70
    11
 71
     3
 72
    20
 73
    16
 74
     0
 42
0.000000001
 43
0.0000000001
 40
0.0
 40
0.0
 40
0.0
 40
0.0
 40
0.2
 40
0.2
 40
0.2
 40
0.2
 40
0.4
 40
0.4
 40
0.4
 40
0.4
 40
0.6
 40
0.6
 40
0.6
 40
0.6
 40
1.0
 40
1.0
 40
1.0
 40
1.0
 10
-128.92817
 20
1.85751
 30
0.0
 10
-128.92817
 20
1.85751
 30
0.0
 10
-128.92817
 20
3.55163
 30
0.0
 10
-128.92817
 20
3.55163
 30
0.0
 10
-128.92817
 20
3.55163
 30
0.0
 10
-128.92817
 20
3.55163
 30
0.0
 10
-129.52825
 20
3.55163
 30
0.0
 10
-129.52825
 20
3.55163
 30
0.0
 10
-129.52825
 20
3.55163
 30
0.0
 10
-129.52825
 20
3.55163
 30
0.0
 10
-129.52825
 20
1.85751
 30
0.0
 10
-129.52825
 20
1.85751
 30
0.0
 10
-129.52825
 20
1.85751
 30
0.0
 10
-129.52825
 20
1.85751
 30
0.0
 10
-128.92817
 20
1.85751
 30
0.0
 10
-128.92817
 20
1.85751
 30
0.0
  0
SPLINE
  5
8D
330
1F
100
AcDbEntity
  8
Capa 1
 62
    32
370
     9
100
AcDbSpline
210
0.0
220
0.0
230
1.0
 70
    11
 71
     3
 72
    20
 73
    16
 74
     0
 42
0.000000001
 43
0.0000000001
 40
0.0
 40
0.0
 40
0.0
 40
0.0
 40
0.2
 40
0.2
 40
0.2
 40
0.2
 40
0.4
 40
0.4
 40
0.4
 40
0.4
 40
0.6
 40
0.6
 40
0.6
 40
0.6
 40
1.0
 40
1.0
 40
1.0
 40
1.0
 10
-128.92817
 20
5.24576
 30
0.0
 10
-128.92817
 20
5.24576
 30
0.0
 10
-128.92817
 20
6.93989
 30
0.0
 10
-128.92817
 20
6.93989
 30
0.0
 10
-128.92817
 20
6.93989
 30
0.0
 10
-128.92817
 20
6.93989
 30
0.0
 10
-129.52825
 20
6.93989
 30
0.0
 10
-129.52825
 20
6.93989
 30
0.0
 10
-129.52825
 20
6.93989
 30
0.0
 10
-129.52825
 20
6.93989
 30
0.0
 10
-129.52825
 20
5.24576
 30
0.0
 10
-129.52825
 20
5.24576
 30
0.0
 10
-129.52825
 20
5.24576
 30
0.0
 10
-129.52825
 20
5.24576
 30
0.0
 10
-128.92817
 20
5.24576
 30
0.0
 10
-128.92817
 20
5.24576
 30
0.0
  0
SPLINE
  5
8E
330
1F
100
AcDbEntity
  8
Capa 1
 62
    32
370
     9
100
AcDbSpline
210
0.0
220
0.0
230
1.0
 70
    11
 71
     3
 72
    20
 73
    16
 74
     0
 42
0.000000001
 43
0.0000000001
 40
0.0
 40
0.0
 40
0.0
 40
0.0
 40
0.2
 40
0.2
 40
0.2
 40
0.2
 40
0.4
 40
0.4
 40
0.4
 40
0.4
 40
0.6
 40
0.6
 40
0.6
 40
0.6
 40
1.0
 40
1.0
 40
1.0
 40
1.0
 10
-128.92817
 20
8.63402
 30
0.0
 10
-128.92817
 20
8.63402
 30
0.0
 10
-128.92817
 20
10.32814
 30
0.0
 10
-128.92817
 20
10.32814
 30
0.0
 10
-128.92817
 20
10.32814
 30
0.0
 10
-128.92817
 20
10.32814
 30
0.0
 10
-129.52825
 20
10.32814
 30
0.0
 10
-129.52825
 20
10.32814
 30
0.0
 10
-129.52825
 20
10.32814
 30
0.0
 10
-129.52825
 20
10.32814
 30
0.0
 10
-129.52825
 20
8.63402
 30
0.0
 10
-129.52825
 20
8.63402
 30
0.0
 10
-129.52825
 20
8.63402
 30
0.0
 10
-129.52825
 20
8.63402
 30
0.0
 10
-128.92817
 20
8.63402
 30
0.0
 10
-128.92817
 20
8.63402
 30
0.0
  0
SPLINE
  5
8F
330
1F
100
AcDbEntity
  8
Capa 1
 62
    32
370
     9
100
AcDbSpline
210
0.0
220
0.0
230
1.0
 70
    11
 71
     3
 72
    20
 73
    16
 74
     0
 42
0.000000001
 43
0.0000000001
 40
0.0
 40
0.0
 40
0.0
 40
0.0
 40
0.2
 40
0.2
 40
0.2
 40
0.2
 40
0.4
 40
0.4
 40
0.4
 40
0.4
 40
0.6
 40
0.6
 40
0.6
 40
0.6
 40
1.0
 40
1.0
 40
1.0
 40
1.0
 10
-128.92817
 20
12.02227
 30
0.0
 10
-128.92817
 20
12.02227
 30
0.0
 10
-128.92817
 20
13.7164
 30
0.0
 10
-128.92817
 20
13.7164
 30
0.0
 10
-128.92817
 20
13.7164
 30
0.0
 10
-128.92817
 20
13.7164
 30
0.0
 10
-129.52825
 20
13.7164
 30
0.0
 10
-129.52825
 20
13.7164
 30
0.0
 10
-129.52825
 20
13.7164
 30
0.0
 10
-129.52825
 20
13.7164
 30
0.0
 10
-129.52825
 20
12.02227
 30
0.0
 10
-129.52825
 20
12.02227
 30
0.0
 10
-129.52825
 20
12.02227
 30
0.0
 10
-129.52825
 20
12.02227
 30
0.0
 10
-128.92817
 20
12.02227
 30
0.0
 10
-128.92817
 20
12.02227
 30
0.0
  0
SPLINE
  5
90
330
1F
100
AcDbEntity
  8
Capa 1
 62
    32
370
     9
100
AcDbSpline
210
0.0
220
0.0
230
1.0
 70
    11
 71
     3
 72
    20
 73
    16
 74
     0
 42
0.000000001
 43
0.0000000001
 40
0.0
 40
0.0
 40
0.0
 40
0.0
 40
0.2
 40
0.2
 40
0.2
 40
0.2
 40
0.4
 40
0.4
 40
0.4
 40
0.4
 40
0.6
 40
0.6
 40
0.6
 40
0.6
 40
1.0
 40
1.0
 40
1.0
 40
1.0
 10
-128.92817
 20
15.41052
 30
0.0
 10
-128.92817
 20
15.41052
 30
0.0
 10
-128.92817
 20
17.10465
 30
0.0
 10
-128.92817
 20
17.10465
 30
0.0
 10
-128.92817
 20
17.10465
 30
0.0
 10
-128.92817
 20
17.10465
 30
0.0
 10
-129.52825
 20
17.10465
 30
0.0
 10
-129.52825
 20
17.10465
 30
0.0
 10
-129.52825
 20
17.10465
 30
0.0
 10
-129.52825
 20
17.10465
 30
0.0
 10
-129.52825
 20
15.41052
 30
0.0
 10
-129.52825
 20
15.41052
 30
0.0
 10
-129.52825
 20
15.41052
 30
0.0
 10
-129.52825
 20
15.41052
 30
0.0
 10
-128.92817
 20
15.41052
 30
0.0
 10
-128.92817
 20
15.41052
 30
0.0
  0
SPLINE
  5
91
330
1F
100
AcDbEntity
  8
Capa 1
 62
     7
370
     9
100
AcDbSpline
210
0.0
220
0.0
230
1.0
 70
    11
 71
     3
 72
   452
 73
   448
 74
     0
 42
0.000000001
 43
0.0000000001
 40
0.0
 40
0.0
 40
0.0
 40
0.0
 40
0.0088495575221239
 40
0.0088495575221239
 40
0.0088495575221239
 40
0.0088495575221239
 40
0.0176991150442478
 40
0.0176991150442478
 40
0.0176991150442478
 40
0.0176991150442478
 40
0.0265486725663717
 40
0.0265486725663717
 40
0.0265486725663717
 40
0.0265486725663717
 40
0.0353982300884956
 40
0.0353982300884956
 40
0.0353982300884956
 40
0.0353982300884956
 40
0.0442477876106195
 40
0.0442477876106195
 40
0.0442477876106195
 40
0.0442477876106195
 40
0.0530973451327434
 40
0.0530973451327434
 40
0.0530973451327434
 40
0.0530973451327434
 40
0.0619469026548673
 40
0.0619469026548673
 40
0.0619469026548673
 40
0.0619469026548673
 40
0.0707964601769911
 40
0.0707964601769911
 40
0.0707964601769911
 40
0.0707964601769911
 40
0.079646017699115
 40
0.079646017699115
 40
0.079646017699115
 40
0.079646017699115
 40
0.0884955752212389
 40
0.0884955752212389
 40
0.0884955752212389
 40
0.0884955752212389
 40
0.0973451327433628
 40
0.0973451327433628
 40
0.0973451327433628
 40
0.0973451327433628
 40
0.1061946902654867
 40
0.1061946902654867
 40
0.1061946902654867
 40
0.1061946902654867
 40
0.1150442477876106
 40
0.1150442477876106
 40
0.1150442477876106
 40
0.1150442477876106
 40
0.1238938053097345
 40
0.1238938053097345
 40
0.1238938053097345
 40
0.1238938053097345
 40
0.1327433628318584
 40
0.1327433628318584
 40
0.1327433628318584
 40
0.1327433628318584
 40
0.1415929203539823
 40
0.1415929203539823
 40
0.1415929203539823
 40
0.1415929203539823
 40
0.1504424778761062
 40
0.1504424778761062
 40
0.1504424778761062
 40
0.1504424778761062
 40
0.1592920353982301
 40
0.1592920353982301
 40
0.1592920353982301
 40
0.1592920353982301
 40
0.168141592920354
 40
0.168141592920354
 40
0.168141592920354
 40
0.168141592920354
 40
0.1769911504424779
 40
0.1769911504424779
 40
0.1769911504424779
 40
0.1769911504424779
 40
0.1858407079646018
 40
0.1858407079646018
 40
0.1858407079646018
 40
0.1858407079646018
 40
0.1946902654867257
 40
0.1946902654867257
 40
0.1946902654867257
 40
0.1946902654867257
 40
0.2035398230088496
 40
0.2035398230088496
 40
0.2035398230088496
 40
0.2035398230088496
 40
0.2123893805309734
 40
0.2123893805309734
 40
0.2123893805309734
 40
0.2123893805309734
 40
0.2212389380530974
 40
0.2212389380530974
 40
0.2212389380530974
 40
0.2212389380530974
 40
0.2300884955752212
 40
0.2300884955752212
 40
0.2300884955752212
 40
0.2300884955752212
 40
0.2389380530973451
 40
0.2389380530973451
 40
0.2389380530973451
 40
0.2389380530973451
 40
0.247787610619469
 40
0.247787610619469
 40
0.247787610619469
 40
0.247787610619469
 40
0.2566371681415929
 40
0.2566371681415929
 40
0.2566371681415929
 40
0.2566371681415929
 40
0.2654867256637168
 40
0.2654867256637168
 40
0.2654867256637168
 40
0.2654867256637168
 40
0.2743362831858407
 40
0.2743362831858407
 40
0.2743362831858407
 40
0.2743362831858407
 40
0.2831858407079646
 40
0.2831858407079646
 40
0.2831858407079646
 40
0.2831858407079646
 40
0.2920353982300885
 40
0.2920353982300885
 40
0.2920353982300885
 40
0.2920353982300885
 40
0.3008849557522124
 40
0.3008849557522124
 40
0.3008849557522124
 40
0.3008849557522124
 40
0.3097345132743363
 40
0.3097345132743363
 40
0.3097345132743363
 40
0.3097345132743363
 40
0.3185840707964602
 40
0.3185840707964602
 40
0.3185840707964602
 40
0.3185840707964602
 40
0.3274336283185841
 40
0.3274336283185841
 40
0.3274336283185841
 40
0.3274336283185841
 40
0.336283185840708
 40
0.336283185840708
 40
0.336283185840708
 40
0.336283185840708
 40
0.3451327433628318
 40
0.3451327433628318
 40
0.3451327433628318
 40
0.3451327433628318
 40
0.3539823008849557
 40
0.3539823008849557
 40
0.3539823008849557
 40
0.3539823008849557
 40
0.3628318584070797
 40
0.3628318584070797
 40
0.3628318584070797
 40
0.3628318584070797
 40
0.3716814159292036
 40
0.3716814159292036
 40
0.3716814159292036
 40
0.3716814159292036
 40
0.3805309734513274
 40
0.3805309734513274
 40
0.3805309734513274
 40
0.3805309734513274
 40
0.3893805309734513
 40
0.3893805309734513
 40
0.3893805309734513
 40
0.3893805309734513
 40
0.3982300884955752
 40
0.3982300884955752
 40
0.3982300884955752
 40
0.3982300884955752
 40
0.4070796460176991
 40
0.4070796460176991
 40
0.4070796460176991
 40
0.4070796460176991
 40
0.415929203539823
 40
0.415929203539823
 40
0.415929203539823
 40
0.415929203539823
 40
0.4247787610619469
 40
0.4247787610619469
 40
0.4247787610619469
 40
0.4247787610619469
 40
0.4336283185840708
 40
0.4336283185840708
 40
0.4336283185840708
 40
0.4336283185840708
 40
0.4424778761061947
 40
0.4424778761061947
 40
0.4424778761061947
 40
0.4424778761061947
 40
0.4513274336283186
 40
0.4513274336283186
 40
0.4513274336283186
 40
0.4513274336283186
 40
0.4601769911504425
 40
0.4601769911504425
 40
0.4601769911504425
 40
0.4601769911504425
 40
0.4690265486725664
 40
0.4690265486725664
 40
0.4690265486725664
 40
0.4690265486725664
 40
0.4778761061946903
 40
0.4778761061946903
 40
0.4778761061946903
 40
0.4778761061946903
 40
0.4867256637168141
 40
0.4867256637168141
 40
0.4867256637168141
 40
0.4867256637168141
 40
0.495575221238938
 40
0.495575221238938
 40
0.495575221238938
 40
0.495575221238938
 40
0.504424778761062
 40
0.504424778761062
 40
0.504424778761062
 40
0.504424778761062
 40
0.5132743362831859
 40
0.5132743362831859
 40
0.5132743362831859
 40
0.5132743362831859
 40
0.5221238938053098
 40
0.5221238938053098
 40
0.5221238938053098
 40
0.5221238938053098
 40
0.5309734513274337
 40
0.5309734513274337
 40
0.5309734513274337
 40
0.5309734513274337
 40
0.5398230088495575
 40
0.5398230088495575
 40
0.5398230088495575
 40
0.5398230088495575
 40
0.5486725663716814
 40
0.5486725663716814
 40
0.5486725663716814
 40
0.5486725663716814
 40
0.5575221238938053
 40
0.5575221238938053
 40
0.5575221238938053
 40
0.5575221238938053
 40
0.5663716814159292
 40
0.5663716814159292
 40
0.5663716814159292
 40
0.5663716814159292
 40
0.5752212389380531
 40
0.5752212389380531
 40
0.5752212389380531
 40
0.5752212389380531
 40
0.584070796460177
 40
0.584070796460177
 40
0.584070796460177
 40
0.584070796460177
 40
0.5929203539823009
 40
0.5929203539823009
 40
0.5929203539823009
 40
0.5929203539823009
 40
0.6017699115044248
 40
0.6017699115044248
 40
0.6017699115044248
 40
0.6017699115044248
 40
0.6106194690265486
 40
0.6106194690265486
 40
0.6106194690265486
 40
0.6106194690265486
 40
0.6194690265486725
 40
0.6194690265486725
 40
0.6194690265486725
 40
0.6194690265486725
 40
0.6283185840707964
 40
0.6283185840707964
 40
0.6283185840707964
 40
0.6283185840707964
 40
0.6371681415929203
 40
0.6371681415929203
 40
0.6371681415929203
 40
0.6371681415929203
 40
0.6460176991150443
 40
0.6460176991150443
 40
0.6460176991150443
 40
0.6460176991150443
 40
0.6548672566371682
 40
0.6548672566371682
 40
0.6548672566371682
 40
0.6548672566371682
 40
0.6637168141592921
 40
0.6637168141592921
 40
0.6637168141592921
 40
0.6637168141592921
 40
0.672566371681416
 40
0.672566371681416
 40
0.672566371681416
 40
0.672566371681416
 40
0.6814159292035398
 40
0.6814159292035398
 40
0.6814159292035398
 40
0.6814159292035398
 40
0.6902654867256637
 40
0.6902654867256637
 40
0.6902654867256637
 40
0.6902654867256637
 40
0.6991150442477876
 40
0.6991150442477876
 40
0.6991150442477876
 40
0.6991150442477876
 40
0.7079646017699115
 40
0.7079646017699115
 40
0.7079646017699115
 40
0.7079646017699115
 40
0.7168141592920354
 40
0.7168141592920354
 40
0.7168141592920354
 40
0.7168141592920354
 40
0.7256637168141593
 40
0.7256637168141593
 40
0.7256637168141593
 40
0.7256637168141593
 40
0.7345132743362832
 40
0.7345132743362832
 40
0.7345132743362832
 40
0.7345132743362832
 40
0.7433628318584071
 40
0.7433628318584071
 40
0.7433628318584071
 40
0.7433628318584071
 40
0.7522123893805309
 40
0.7522123893805309
 40
0.7522123893805309
 40
0.7522123893805309
 40
0.7610619469026548
 40
0.7610619469026548
 40
0.7610619469026548
 40
0.7610619469026548
 40
0.7699115044247787
 40
0.7699115044247787
 40
0.7699115044247787
 40
0.7699115044247787
 40
0.7787610619469026
 40
0.7787610619469026
 40
0.7787610619469026
 40
0.7787610619469026
 40
0.7876106194690266
 40
0.7876106194690266
 40
0.7876106194690266
 40
0.7876106194690266
 40
0.7964601769911505
 40
0.7964601769911505
 40
0.7964601769911505
 40
0.7964601769911505
 40
0.8053097345132744
 40
0.8053097345132744
 40
0.8053097345132744
 40
0.8053097345132744
 40
0.8141592920353983
 40
0.8141592920353983
 40
0.8141592920353983
 40
0.8141592920353983
 40
0.8230088495575221
 40
0.8230088495575221
 40
0.8230088495575221
 40
0.8230088495575221
 40
0.831858407079646
 40
0.831858407079646
 40
0.831858407079646
 40
0.831858407079646
 40
0.8407079646017699
 40
0.8407079646017699
 40
0.8407079646017699
 40
0.8407079646017699
 40
0.8495575221238938
 40
0.8495575221238938
 40
0.8495575221238938
 40
0.8495575221238938
 40
0.8584070796460177
 40
0.8584070796460177
 40
0.8584070796460177
 40
0.8584070796460177
 40
0.8672566371681416
 40
0.8672566371681416
 40
0.8672566371681416
 40
0.8672566371681416
 40
0.8761061946902655
 40
0.8761061946902655
 40
0.8761061946902655
 40
0.8761061946902655
 40
0.8849557522123894
 40
0.8849557522123894
 40
0.8849557522123894
 40
0.8849557522123894
 40
0.8938053097345132
 40
0.8938053097345132
 40
0.8938053097345132
 40
0.8938053097345132
 40
0.9026548672566371
 40
0.9026548672566371
 40
0.9026548672566371
 40
0.9026548672566371
 40
0.911504424778761
 40
0.911504424778761
 40
0.911504424778761
 40
0.911504424778761
 40
0.9203539823008849
 40
0.9203539823008849
 40
0.9203539823008849
 40
0.9203539823008849
 40
0.9292035398230089
 40
0.9292035398230089
 40
0.9292035398230089
 40
0.9292035398230089
 40
0.9380530973451328
 40
0.9380530973451328
 40
0.9380530973451328
 40
0.9380530973451328
 40
0.9469026548672567
 40
0.9469026548672567
 40
0.9469026548672567
 40
0.9469026548672567
 40
0.9557522123893806
 40
0.9557522123893806
 40
0.9557522123893806
 40
0.9557522123893806
 40
0.9646017699115044
 40
0.9646017699115044
 40
0.9646017699115044
 40
0.9646017699115044
 40
0.9734513274336283
 40
0.9734513274336283
 40
0.9734513274336283
 40
0.9734513274336283
 40
0.9823008849557522
 40
0.9823008849557522
 40
0.9823008849557522
 40
0.9823008849557522
 40
1.0
 40
1.0
 40
1.0
 40
1.0
 10
-114.66079
 20
27.09271
 30
0.0
 10
-114.66079
 20
27.09271
 30
0.0
 10
-112.26075
 20
27.09271
 30
0.0
 10
-112.26075
 20
27.09271
 30
0.0
 10
-112.26075
 20
27.09271
 30
0.0
 10
-112.26075
 20
27.09271
 30
0.0
 10
-109.7197
 20
27.09271
 30
0.0
 10
-109.7197
 20
27.09271
 30
0.0
 10
-109.7197
 20
27.09271
 30
0.0
 10
-109.7197
 20
27.09271
 30
0.0
 10
-109.7197
 20
26.49264
 30
0.0
 10
-109.7197
 20
26.49264
 30
0.0
 10
-109.7197
 20
26.49264
 30
0.0
 10
-109.7197
 20
26.49264
 30
0.0
 10
-107.17837
 20
26.49264
 30
0.0
 10
-107.17837
 20
26.49264
 30
0.0
 10
-107.17837
 20
26.49264
 30
0.0
 10
-107.17837
 20
26.49264
 30
0.0
 10
-107.17837
 20
27.09271
 30
0.0
 10
-107.17837
 20
27.09271
 30
0.0
 10
-107.17837
 20
27.09271
 30
0.0
 10
-107.17837
 20
27.09271
 30
0.0
 10
-104.63732
 20
27.09271
 30
0.0
 10
-104.63732
 20
27.09271
 30
0.0
 10
-104.63732
 20
27.09271
 30
0.0
 10
-104.63732
 20
27.09271
 30
0.0
 10
-104.63732
 20
26.49264
 30
0.0
 10
-104.63732
 20
26.49264
 30
0.0
 10
-104.63732
 20
26.49264
 30
0.0
 10
-104.63732
 20
26.49264
 30
0.0
 10
-102.09599
 20
26.49264
 30
0.0
 10
-102.09599
 20
26.49264
 30
0.0
 10
-102.09599
 20
26.49264
 30
0.0
 10
-102.09599
 20
26.49264
 30
0.0
 10
-102.09599
 20
27.09271
 30
0.0
 10
-102.09599
 20
27.09271
 30
0.0
 10
-102.09599
 20
27.09271
 30
0.0
 10
-102.09599
 20
27.09271
 30
0.0
 10
-99.55493
 20
27.09271
 30
0.0
 10
-99.55493
 20
27.09271
 30
0.0
 10
-99.55493
 20
27.09271
 30
0.0
 10
-99.55493
 20
27.09271
 30
0.0
 10
-99.55493
 20
26.49264
 30
0.0
 10
-99.55493
 20
26.49264
 30
0.0
 10
-99.55493
 20
26.49264
 30
0.0
 10
-99.55493
 20
26.49264
 30
0.0
 10
-97.01361
 20
26.49264
 30
0.0
 10
-97.01361
 20
26.49264
 30
0.0
 10
-97.01361
 20
26.49264
 30
0.0
 10
-97.01361
 20
26.49264
 30
0.0
 10
-97.01361
 20
27.09271
 30
0.0
 10
-97.01361
 20
27.09271
 30
0.0
 10
-97.01361
 20
27.09271
 30
0.0
 10
-97.01361
 20
27.09271
 30
0.0
 10
-94.47255
 20
27.09271
 30
0.0
 10
-94.47255
 20
27.09271
 30
0.0
 10
-94.47255
 20
27.09271
 30
0.0
 10
-94.47255
 20
27.09271
 30
0.0
 10
-94.47255
 20
26.49264
 30
0.0
 10
-94.47255
 20
26.49264
 30
0.0
 10
-94.47255
 20
26.49264
 30
0.0
 10
-94.47255
 20
26.49264
 30
0.0
 10
-91.93123
 20
26.49264
 30
0.0
 10
-91.93123
 20
26.49264
 30
0.0
 10
-91.93123
 20
26.49264
 30
0.0
 10
-91.93123
 20
26.49264
 30
0.0
 10
-91.93123
 20
27.09271
 30
0.0
 10
-91.93123
 20
27.09271
 30
0.0
 10
-91.93123
 20
27.09271
 30
0.0
 10
-91.93123
 20
27.09271
 30
0.0
 10
-89.39017
 20
27.09271
 30
0.0
 10
-89.39017
 20
27.09271
 30
0.0
 10
-89.39017
 20
27.09271
 30
0.0
 10
-89.39017
 20
27.09271
 30
0.0
 10
-89.39017
 20
26.49264
 30
0.0
 10
-89.39017
 20
26.49264
 30
0.0
 10
-89.39017
 20
26.49264
 30
0.0
 10
-89.39017
 20
26.49264
 30
0.0
 10
-86.84885
 20
26.49264
 30
0.0
 10
-86.84885
 20
26.49264
 30
0.0
 10
-86.84885
 20
26.49264
 30
0.0
 10
-86.84885
 20
26.49264
 30
0.0
 10
-86.84885
 20
27.09271
 30
0.0
 10
-86.84885
 20
27.09271
 30
0.0
 10
-86.84885
 20
27.09271
 30
0.0
 10
-86.84885
 20
27.09271
 30
0.0
 10
-84.30779
 20
27.09271
 30
0.0
 10
-84.30779
 20
27.09271
 30
0.0
 10
-84.30779
 20
27.09271
 30
0.0
 10
-84.30779
 20
27.09271
 30
0.0
 10
-84.30779
 20
26.49264
 30
0.0
 10
-84.30779
 20
26.49264
 30
0.0
 10
-84.30779
 20
26.49264
 30
0.0
 10
-84.30779
 20
26.49264
 30
0.0
 10
-81.76647
 20
26.49264
 30
0.0
 10
-81.76647
 20
26.49264
 30
0.0
 10
-81.76647
 20
26.49264
 30
0.0
 10
-81.76647
 20
26.49264
 30
0.0
 10
-81.76647
 20
27.09271
 30
0.0
 10
-81.76647
 20
27.09271
 30
0.0
 10
-81.76647
 20
27.09271
 30
0.0
 10
-81.76647
 20
27.09271
 30
0.0
 10
-79.22541
 20
27.09271
 30
0.0
 10
-79.22541
 20
27.09271
 30
0.0
 10
-79.22541
 20
27.09271
 30
0.0
 10
-79.22541
 20
27.09271
 30
0.0
 10
-79.22541
 20
26.49264
 30
0.0
 10
-79.22541
 20
26.49264
 30
0.0
 10
-79.22541
 20
26.49264
 30
0.0
 10
-79.22541
 20
26.49264
 30
0.0
 10
-76.68409
 20
26.49264
 30
0.0
 10
-76.68409
 20
26.49264
 30
0.0
 10
-76.68409
 20
26.49264
 30
0.0
 10
-76.68409
 20
26.49264
 30
0.0
 10
-76.68409
 20
27.09271
 30
0.0
 10
-76.68409
 20
27.09271
 30
0.0
 10
-76.68409
 20
27.09271
 30
0.0
 10
-76.68409
 20
27.09271
 30
0.0
 10
-74.14303
 20
27.09271
 30
0.0
 10
-74.14303
 20
27.09271
 30
0.0
 10
-74.14303
 20
27.09271
 30
0.0
 10
-74.14303
 20
27.09271
 30
0.0
 10
-74.14303
 20
26.49264
 30
0.0
 10
-74.14303
 20
26.49264
 30
0.0
 10
-74.14303
 20
26.49264
 30
0.0
 10
-74.14303
 20
26.49264
 30
0.0
 10
-71.6017
 20
26.49264
 30
0.0
 10
-71.6017
 20
26.49264
 30
0.0
 10
-71.6017
 20
26.49264
 30
0.0
 10
-71.6017
 20
26.49264
 30
0.0
 10
-71.6017
 20
27.09271
 30
0.0
 10
-71.6017
 20
27.09271
 30
0.0
 10
-71.6017
 20
27.09271
 30
0.0
 10
-71.6017
 20
27.09271
 30
0.0
 10
-69.06065
 20
27.09271
 30
0.0
 10
-69.06065
 20
27.09271
 30
0.0
 10
-69.06065
 20
27.09271
 30
0.0
 10
-69.06065
 20
27.09271
 30
0.0
 10
-66.66061
 20
27.09271
 30
0.0
 10
-66.66061
 20
27.09271
 30
0.0
 10
-66.66061
 20
27.09271
 30
0.0
 10
-66.66061
 20
27.09271
 30
0.0
 10
-66.66061
 20
25.84256
 30
0.0
 10
-66.66061
 20
25.84256
 30
0.0
 10
-66.66061
 20
25.84256
 30
0.0
 10
-66.66061
 20
25.84256
 30
0.0
 10
-66.66061
 20
24.51911
 30
0.0
 10
-66.66061
 20
24.51911
 30
0.0
 10
-66.66061
 20
24.51911
 30
0.0
 10
-66.66061
 20
24.51911
 30
0.0
 10
-67.26042
 20
24.51911
 30
0.0
 10
-67.26042
 20
24.51911
 30
0.0
 10
-67.26042
 20
24.51911
 30
0.0
 10
-67.26042
 20
24.51911
 30
0.0
 10
-67.26042
 20
23.19567
 30
0.0
 10
-67.26042
 20
23.19567
 30
0.0
 10
-67.26042
 20
23.19567
 30
0.0
 10
-67.26042
 20
23.19567
 30
0.0
 10
-66.66061
 20
23.19567
 30
0.0
 10
-66.66061
 20
23.19567
 30
0.0
 10
-66.66061
 20
23.19567
 30
0.0
 10
-66.66061
 20
23.19567
 30
0.0
 10
-66.66061
 20
21.87196
 30
0.0
 10
-66.66061
 20
21.87196
 30
0.0
 10
-66.66061
 20
21.87196
 30
0.0
 10
-66.66061
 20
21.87196
 30
0.0
 10
-67.26042
 20
21.87196
 30
0.0
 10
-67.26042
 20
21.87196
 30
0.0
 10
-67.26042
 20
21.87196
 30
0.0
 10
-67.26042
 20
21.87196
 30
0.0
 10
-67.26042
 20
20.54851
 30
0.0
 10
-67.26042
 20
20.54851
 30
0.0
 10
-67.26042
 20
20.54851
 30
0.0
 10
-67.26042
 20
20.54851
 30
0.0
 10
-66.66061
 20
20.54851
 30
0.0
 10
-66.66061
 20
20.54851
 30
0.0
 10
-66.66061
 20
20.54851
 30
0.0
 10
-66.66061
 20
20.54851
 30
0.0
 10
-66.66061
 20
19.22506
 30
0.0
 10
-66.66061
 20
19.22506
 30
0.0
 10
-66.66061
 20
19.22506
 30
0.0
 10
-66.66061
 20
19.22506
 30
0.0
 10
-67.26042
 20
19.22506
 30
0.0
 10
-67.26042
 20
19.22506
 30
0.0
 10
-67.26042
 20
19.22506
 30
0.0
 10
-67.26042
 20
19.22506
 30
0.0
 10
-67.26042
 20
17.90135
 30
0.0
 10
-67.26042
 20
17.90135
 30
0.0
 10
-67.26042
 20
17.90135
 30
0.0
 10
-67.26042
 20
17.90135
 30
0.0
 10
-66.66061
 20
17.90135
 30
0.0
 10
-66.66061
 20
17.90135
 30
0.0
 10
-66.66061
 20
17.90135
 30
0.0
 10
-66.66061
 20
17.90135
 30
0.0
 10
-66.66061
 20
16.57791
 30
0.0
 10
-66.66061
 20
16.57791
 30
0.0
 10
-66.66061
 20
16.57791
 30
0.0
 10
-66.66061
 20
16.57791
 30
0.0
 10
-67.26042
 20
16.57791
 30
0.0
 10
-67.26042
 20
16.57791
 30
0.0
 10
-67.26042
 20
16.57791
 30
0.0
 10
-67.26042
 20
16.57791
 30
0.0
 10
-67.26042
 20
15.2542
 30
0.0
 10
-67.26042
 20
15.2542
 30
0.0
 10
-67.26042
 20
15.2542
 30
0.0
 10
-67.26042
 20
15.2542
 30
0.0
 10
-66.66061
 20
15.2542
 30
0.0
 10
-66.66061
 20
15.2542
 30
0.0
 10
-66.66061
 20
15.2542
 30
0.0
 10
-66.66061
 20
15.2542
 30
0.0
 10
-66.66061
 20
13.93075
 30
0.0
 10
-66.66061
 20
13.93075
 30
0.0
 10
-66.66061
 20
13.93075
 30
0.0
 10
-66.66061
 20
13.93075
 30
0.0
 10
-67.26042
 20
13.93075
 30
0.0
 10
-67.26042
 20
13.93075
 30
0.0
 10
-67.26042
 20
13.93075
 30
0.0
 10
-67.26042
 20
13.93075
 30
0.0
 10
-67.26042
 20
12.60731
 30
0.0
 10
-67.26042
 20
12.60731
 30
0.0
 10
-67.26042
 20
12.60731
 30
0.0
 10
-67.26042
 20
12.60731
 30
0.0
 10
-66.66061
 20
12.60731
 30
0.0
 10
-66.66061
 20
12.60731
 30
0.0
 10
-66.66061
 20
12.60731
 30
0.0
 10
-66.66061
 20
12.60731
 30
0.0
 10
-66.66061
 20
11.28359
 30
0.0
 10
-66.66061
 20
11.28359
 30
0.0
 10
-66.66061
 20
11.28359
 30
0.0
 10
-66.66061
 20
11.28359
 30
0.0
 10
-67.26042
 20
11.28359
 30
0.0
 10
-67.26042
 20
11.28359
 30
0.0
 10
-67.26042
 20
11.28359
 30
0.0
 10
-67.26042
 20
11.28359
 30
0.0
 10
-67.26042
 20
9.96015
 30
0.0
 10
-67.26042
 20
9.96015
 30
0.0
 10
-67.26042
 20
9.96015
 30
0.0
 10
-67.26042
 20
9.96015
 30
0.0
 10
-66.66061
 20
9.96015
 30
0.0
 10
-66.66061
 20
9.96015
 30
0.0
 10
-66.66061
 20
9.96015
 30
0.0
 10
-66.66061
 20
9.96015
 30
0.0
 10
-66.66061
 20
8.6367
 30
0.0
 10
-66.66061
 20
8.6367
 30
0.0
 10
-66.66061
 20
8.6367
 30
0.0
 10
-66.66061
 20
8.6367
 30
0.0
 10
-67.26042
 20
8.6367
 30
0.0
 10
-67.26042
 20
8.6367
 30
0.0
 10
-67.26042
 20
8.6367
 30
0.0
 10
-67.26042
 20
8.6367
 30
0.0
 10
-67.26042
 20
7.31299
 30
0.0
 10
-67.26042
 20
7.31299
 30
0.0
 10
-67.26042
 20
7.31299
 30
0.0
 10
-67.26042
 20
7.31299
 30
0.0
 10
-66.66061
 20
7.31299
 30
0.0
 10
-66.66061
 20
7.31299
 30
0.0
 10
-66.66061
 20
7.31299
 30
0.0
 10
-66.66061
 20
7.31299
 30
0.0
 10
-66.66061
 20
5.98955
 30
0.0
 10
-66.66061
 20
5.98955
 30
0.0
 10
-66.66061
 20
5.98955
 30
0.0
 10
-66.66061
 20
5.98955
 30
0.0
 10
-67.26042
 20
5.98955
 30
0.0
 10
-67.26042
 20
5.98955
 30
0.0
 10
-67.26042
 20
5.98955
 30
0.0
 10
-67.26042
 20
5.98955
 30
0.0
 10
-67.26042
 20
4.6661
 30
0.0
 10
-67.26042
 20
4.6661
 30
0.0
 10
-67.26042
 20
4.6661
 30
0.0
 10
-67.26042
 20
4.6661
 30
0.0
 10
-66.66061
 20
4.6661
 30
0.0
 10
-66.66061
 20
4.6661
 30
0.0
 10
-66.66061
 20
4.6661
 30
0.0
 10
-66.66061
 20
4.6661
 30
0.0
 10
-66.66061
 20
3.34239
 30
0.0
 10
-66.66061
 20
3.34239
 30
0.0
 10
-66.66061
 20
3.34239
 30
0.0
 10
-66.66061
 20
3.34239
 30
0.0
 10
-66.66061
 20
2.0925
 30
0.0
 10
-66.66061
 20
2.0925
 30
0.0
 10
-66.66061
 20
2.0925
 30
0.0
 10
-66.66061
 20
2.0925
 30
0.0
 10
-69.06065
 20
2.0925
 30
0.0
 10
-69.06065
 20
2.0925
 30
0.0
 10
-69.06065
 20
2.0925
 30
0.0
 10
-69.06065
 20
2.0925
 30
0.0
 10
-71.6017
 20
2.0925
 30
0.0
 10
-71.6017
 20
2.0925
 30
0.0
 10
-71.6017
 20
2.0925
 30
0.0
 10
-71.6017
 20
2.0925
 30
0.0
 10
-71.6017
 20
5.27862
 30
0.0
 10
-71.6017
 20
5.27862
 30
0.0
 10
-71.6017
 20
5.27862
 30
0.0
 10
-71.6017
 20
27.10262
 30
0.0
 10
-109.7197
 20
29.32052
 30
0.0
 10
-109.7197
 20
5.27862
 30
0.0
 10
-109.7197
 20
5.27862
 30
0.0
 10
-109.7197
 20
5.27862
 30
0.0
 10
-109.7197
 20
2.0925
 30
0.0
 10
-109.7197
 20
2.0925
 30
0.0
 10
-109.7197
 20
2.0925
 30
0.0
 10
-109.7197
 20
2.0925
 30
0.0
 10
-112.26075
 20
2.0925
 30
0.0
 10
-112.26075
 20
2.0925
 30
0.0
 10
-112.26075
 20
2.0925
 30
0.0
 10
-112.26075
 20
2.0925
 30
0.0
 10
-114.66079
 20
2.0925
 30
0.0
 10
-114.66079
 20
2.0925
 30
0.0
 10
-114.66079
 20
2.0925
 30
0.0
 10
-114.66079
 20
2.0925
 30
0.0
 10
-114.66079
 20
3.34239
 30
0.0
 10
-114.66079
 20
3.34239
 30
0.0
 10
-114.66079
 20
3.34239
 30
0.0
 10
-114.66079
 20
3.34239
 30
0.0
 10
-114.66079
 20
4.6661
 30
0.0
 10
-114.66079
 20
4.6661
 30
0.0
 10
-114.66079
 20
4.6661
 30
0.0
 10
-114.66079
 20
4.6661
 30
0.0
 10
-114.06071
 20
4.6661
 30
0.0
 10
-114.06071
 20
4.6661
 30
0.0
 10
-114.06071
 20
4.6661
 30
0.0
 10
-114.06071
 20
4.6661
 30
0.0
 10
-114.06071
 20
5.98955
 30
0.0
 10
-114.06071
 20
5.98955
 30
0.0
 10
-114.06071
 20
5.98955
 30
0.0
 10
-114.06071
 20
5.98955
 30
0.0
 10
-114.66079
 20
5.98955
 30
0.0
 10
-114.66079
 20
5.98955
 30
0.0
 10
-114.66079
 20
5.98955
 30
0.0
 10
-114.66079
 20
5.98955
 30
0.0
 10
-114.66079
 20
7.31299
 30
0.0
 10
-114.66079
 20
7.31299
 30
0.0
 10
-114.66079
 20
7.31299
 30
0.0
 10
-114.66079
 20
7.31299
 30
0.0
 10
-114.06071
 20
7.31299
 30
0.0
 10
-114.06071
 20
7.31299
 30
0.0
 10
-114.06071
 20
7.31299
 30
0.0
 10
-114.06071
 20
7.31299
 30
0.0
 10
-114.06071
 20
8.6367
 30
0.0
 10
-114.06071
 20
8.6367
 30
0.0
 10
-114.06071
 20
8.6367
 30
0.0
 10
-114.06071
 20
8.6367
 30
0.0
 10
-114.66079
 20
8.6367
 30
0.0
 10
-114.66079
 20
8.6367
 30
0.0
 10
-114.66079
 20
8.6367
 30
0.0
 10
-114.66079
 20
8.6367
 30
0.0
 10
-114.66079
 20
9.96015
 30
0.0
 10
-114.66079
 20
9.96015
 30
0.0
 10
-114.66079
 20
9.96015
 30
0.0
 10
-114.66079
 20
9.96015
 30
0.0
 10
-114.06071
 20
9.96015
 30
0.0
 10
-114.06071
 20
9.96015
 30
0.0
 10
-114.06071
 20
9.96015
 30
0.0
 10
-114.06071
 20
9.96015
 30
0.0
 10
-114.06071
 20
11.28359
 30
0.0
 10
-114.06071
 20
11.28359
 30
0.0
 10
-114.06071
 20
11.28359
 30
0.0
 10
-114.06071
 20
11.28359
 30
0.0
 10
-114.66079
 20
11.28359
 30
0.0
 10
-114.66079
 20
11.28359
 30
0.0
 10
-114.66079
 20
11.28359
 30
0.0
 10
-114.66079
 20
11.28359
 30
0.0
 10
-114.66079
 20
12.60731
 30
0.0
 10
-114.66079
 20
12.60731
 30
0.0
 10
-114.66079
 20
12.60731
 30
0.0
 10
-114.66079
 20
12.60731
 30
0.0
 10
-114.06071
 20
12.60731
 30
0.0
 10
-114.06071
 20
12.60731
 30
0.0
 10
-114.06071
 20
12.60731
 30
0.0
 10
-114.06071
 20
12.60731
 30
0.0
 10
-114.06071
 20
13.93075
 30
0.0
 10
-114.06071
 20
13.93075
 30
0.0
 10
-114.06071
 20
13.93075
 30
0.0
 10
-114.06071
 20
13.93075
 30
0.0
 10
-114.66079
 20
13.93075
 30
0.0
 10
-114.66079
 20
13.93075
 30
0.0
 10
-114.66079
 20
13.93075
 30
0.0
 10
-114.66079
 20
13.93075
 30
0.0
 10
-114.66079
 20
15.2542
 30
0.0
 10
-114.66079
 20
15.2542
 30
0.0
 10
-114.66079
 20
15.2542
 30
0.0
 10
-114.66079
 20
15.2542
 30
0.0
 10
-114.06071
 20
15.2542
 30
0.0
 10
-114.06071
 20
15.2542
 30
0.0
 10
-114.06071
 20
15.2542
 30
0.0
 10
-114.06071
 20
15.2542
 30
0.0
 10
-114.06071
 20
16.57791
 30
0.0
 10
-114.06071
 20
16.57791
 30
0.0
 10
-114.06071
 20
16.57791
 30
0.0
 10
-114.06071
 20
16.57791
 30
0.0
 10
-114.66079
 20
16.57791
 30
0.0
 10
-114.66079
 20
16.57791
 30
0.0
 10
-114.66079
 20
16.57791
 30
0.0
 10
-114.66079
 20
16.57791
 30
0.0
 10
-114.66079
 20
17.90135
 30
0.0
 10
-114.66079
 20
17.90135
 30
0.0
 10
-114.66079
 20
17.90135
 30
0.0
 10
-114.66079
 20
17.90135
 30
0.0
 10
-114.06071
 20
17.90135
 30
0.0
 10
-114.06071
 20
17.90135
 30
0.0
 10
-114.06071
 20
17.90135
 30
0.0
 10
-114.06071
 20
17.90135
 30
0.0
 10
-114.06071
 20
19.22506
 30
0.0
 10
-114.06071
 20
19.22506
 30
0.0
 10
-114.06071
 20
19.22506
 30
0.0
 10
-114.06071
 20
19.22506
 30
0.0
 10
-114.66079
 20
19.22506
 30
0.0
 10
-114.66079
 20
19.22506
 30
0.0
 10
-114.66079
 20
19.22506
 30
0.0
 10
-114.66079
 20
19.22506
 30
0.0
 10
-114.66079
 20
20.54851
 30
0.0
 10
-114.66079
 20
20.54851
 30
0.0
 10
-114.66079
 20
20.54851
 30
0.0
 10
-114.66079
 20
20.54851
 30
0.0
 10
-114.06071
 20
20.54851
 30
0.0
 10
-114.06071
 20
20.54851
 30
0.0
 10
-114.06071
 20
20.54851
 30
0.0
 10
-114.06071
 20
20.54851
 30
0.0
 10
-114.06071
 20
21.87196
 30
0.0
 10
-114.06071
 20
21.87196
 30
0.0
 10
-114.06071
 20
21.87196
 30
0.0
 10
-114.06071
 20
21.87196
 30
0.0
 10
-114.66079
 20
21.87196
 30
0.0
 10
-114.66079
 20
21.87196
 30
0.0
 10
-114.66079
 20
21.87196
 30
0.0
 10
-114.66079
 20
21.87196
 30
0.0
 10
-114.66079
 20
23.19567
 30
0.0
 10
-114.66079
 20
23.19567
 30
0.0
 10
-114.66079
 20
23.19567
 30
0.0
 10
-114.66079
 20
23.19567
 30
0.0
 10
-114.06071
 20
23.19567
 30
0.0
 10
-114.06071
 20
23.19567
 30
0.0
 10
-114.06071
 20
23.19567
 30
0.0
 10
-114.06071
 20
23.19567
 30
0.0
 10
-114.06071
 20
24.51911
 30
0.0
 10
-114.06071
 20
24.51911
 30
0.0
 10
-114.06071
 20
24.51911
 30
0.0
 10
-114.06071
 20
24.51911
 30
0.0
 10
-114.66079
 20
24.51911
 30
0.0
 10
-114.66079
 20
24.51911
 30
0.0
 10
-114.66079
 20
24.51911
 30
0.0
 10
-114.66079
 20
24.51911
 30
0.0
 10
-114.66079
 20
25.84256
 30
0.0
 10
-114.66079
 20
25.84256
 30
0.0
 10
-114.66079
 20
25.84256
 30
0.0
 10
-114.66079
 20
25.84256
 30
0.0
 10
-114.66079
 20
27.09271
 30
0.0
 10
-114.66079
 20
27.09271
 30
0.0
  0
SPLINE
  5
92
330
1F
100
AcDbEntity
  8
Capa 1
 62
     7
370
     9
100
AcDbSpline
210
0.0
220
0.0
230
1.0
 70
    11
 71
     3
 72
   452
 73
   448
 74
     0
 42
0.000000001
 43
0.0000000001
 40
0.0
 40
0.0
 40
0.0
 40
0.0
 40
0.0088495575221239
 40
0.0088495575221239
 40
0.0088495575221239
 40
0.0088495575221239
 40
0.0176991150442478
 40
0.0176991150442478
 40
0.0176991150442478
 40
0.0176991150442478
 40
0.0265486725663717
 40
0.0265486725663717
 40
0.0265486725663717
 40
0.0265486725663717
 40
0.0353982300884956
 40
0.0353982300884956
 40
0.0353982300884956
 40
0.0353982300884956
 40
0.0442477876106195
 40
0.0442477876106195
 40
0.0442477876106195
 40
0.0442477876106195
 40
0.0530973451327434
 40
0.0530973451327434
 40
0.0530973451327434
 40
0.0530973451327434
 40
0.0619469026548673
 40
0.0619469026548673
 40
0.0619469026548673
 40
0.0619469026548673
 40
0.0707964601769911
 40
0.0707964601769911
 40
0.0707964601769911
 40
0.0707964601769911
 40
0.079646017699115
 40
0.079646017699115
 40
0.079646017699115
 40
0.079646017699115
 40
0.0884955752212389
 40
0.0884955752212389
 40
0.0884955752212389
 40
0.0884955752212389
 40
0.0973451327433628
 40
0.0973451327433628
 40
0.0973451327433628
 40
0.0973451327433628
 40
0.1061946902654867
 40
0.1061946902654867
 40
0.1061946902654867
 40
0.1061946902654867
 40
0.1150442477876106
 40
0.1150442477876106
 40
0.1150442477876106
 40
0.1150442477876106
 40
0.1238938053097345
 40
0.1238938053097345
 40
0.1238938053097345
 40
0.1238938053097345
 40
0.1327433628318584
 40
0.1327433628318584
 40
0.1327433628318584
 40
0.1327433628318584
 40
0.1415929203539823
 40
0.1415929203539823
 40
0.1415929203539823
 40
0.1415929203539823
 40
0.1504424778761062
 40
0.1504424778761062
 40
0.1504424778761062
 40
0.1504424778761062
 40
0.1592920353982301
 40
0.1592920353982301
 40
0.1592920353982301
 40
0.1592920353982301
 40
0.168141592920354
 40
0.168141592920354
 40
0.168141592920354
 40
0.168141592920354
 40
0.1769911504424779
 40
0.1769911504424779
 40
0.1769911504424779
 40
0.1769911504424779
 40
0.1858407079646018
 40
0.1858407079646018
 40
0.1858407079646018
 40
0.1858407079646018
 40
0.1946902654867257
 40
0.1946902654867257
 40
0.1946902654867257
 40
0.1946902654867257
 40
0.2035398230088496
 40
0.2035398230088496
 40
0.2035398230088496
 40
0.2035398230088496
 40
0.2123893805309734
 40
0.2123893805309734
 40
0.2123893805309734
 40
0.2123893805309734
 40
0.2212389380530974
 40
0.2212389380530974
 40
0.2212389380530974
 40
0.2212389380530974
 40
0.2300884955752212
 40
0.2300884955752212
 40
0.2300884955752212
 40
0.2300884955752212
 40
0.2389380530973451
 40
0.2389380530973451
 40
0.2389380530973451
 40
0.2389380530973451
 40
0.247787610619469
 40
0.247787610619469
 40
0.247787610619469
 40
0.247787610619469
 40
0.2566371681415929
 40
0.2566371681415929
 40
0.2566371681415929
 40
0.2566371681415929
 40
0.2654867256637168
 40
0.2654867256637168
 40
0.2654867256637168
 40
0.2654867256637168
 40
0.2743362831858407
 40
0.2743362831858407
 40
0.2743362831858407
 40
0.2743362831858407
 40
0.2831858407079646
 40
0.2831858407079646
 40
0.2831858407079646
 40
0.2831858407079646
 40
0.2920353982300885
 40
0.2920353982300885
 40
0.2920353982300885
 40
0.2920353982300885
 40
0.3008849557522124
 40
0.3008849557522124
 40
0.3008849557522124
 40
0.3008849557522124
 40
0.3097345132743363
 40
0.3097345132743363
 40
0.3097345132743363
 40
0.3097345132743363
 40
0.3185840707964602
 40
0.3185840707964602
 40
0.3185840707964602
 40
0.3185840707964602
 40
0.3274336283185841
 40
0.3274336283185841
 40
0.3274336283185841
 40
0.3274336283185841
 40
0.336283185840708
 40
0.336283185840708
 40
0.336283185840708
 40
0.336283185840708
 40
0.3451327433628318
 40
0.3451327433628318
 40
0.3451327433628318
 40
0.3451327433628318
 40
0.3539823008849557
 40
0.3539823008849557
 40
0.3539823008849557
 40
0.3539823008849557
 40
0.3628318584070797
 40
0.3628318584070797
 40
0.3628318584070797
 40
0.3628318584070797
 40
0.3716814159292036
 40
0.3716814159292036
 40
0.3716814159292036
 40
0.3716814159292036
 40
0.3805309734513274
 40
0.3805309734513274
 40
0.3805309734513274
 40
0.3805309734513274
 40
0.3893805309734513
 40
0.3893805309734513
 40
0.3893805309734513
 40
0.3893805309734513
 40
0.3982300884955752
 40
0.3982300884955752
 40
0.3982300884955752
 40
0.3982300884955752
 40
0.4070796460176991
 40
0.4070796460176991
 40
0.4070796460176991
 40
0.4070796460176991
 40
0.415929203539823
 40
0.415929203539823
 40
0.415929203539823
 40
0.415929203539823
 40
0.4247787610619469
 40
0.4247787610619469
 40
0.4247787610619469
 40
0.4247787610619469
 40
0.4336283185840708
 40
0.4336283185840708
 40
0.4336283185840708
 40
0.4336283185840708
 40
0.4424778761061947
 40
0.4424778761061947
 40
0.4424778761061947
 40
0.4424778761061947
 40
0.4513274336283186
 40
0.4513274336283186
 40
0.4513274336283186
 40
0.4513274336283186
 40
0.4601769911504425
 40
0.4601769911504425
 40
0.4601769911504425
 40
0.4601769911504425
 40
0.4690265486725664
 40
0.4690265486725664
 40
0.4690265486725664
 40
0.4690265486725664
 40
0.4778761061946903
 40
0.4778761061946903
 40
0.4778761061946903
 40
0.4778761061946903
 40
0.4867256637168141
 40
0.4867256637168141
 40
0.4867256637168141
 40
0.4867256637168141
 40
0.495575221238938
 40
0.495575221238938
 40
0.495575221238938
 40
0.495575221238938
 40
0.504424778761062
 40
0.504424778761062
 40
0.504424778761062
 40
0.504424778761062
 40
0.5132743362831859
 40
0.5132743362831859
 40
0.5132743362831859
 40
0.5132743362831859
 40
0.5221238938053098
 40
0.5221238938053098
 40
0.5221238938053098
 40
0.5221238938053098
 40
0.5309734513274337
 40
0.5309734513274337
 40
0.5309734513274337
 40
0.5309734513274337
 40
0.5398230088495575
 40
0.5398230088495575
 40
0.5398230088495575
 40
0.5398230088495575
 40
0.5486725663716814
 40
0.5486725663716814
 40
0.5486725663716814
 40
0.5486725663716814
 40
0.5575221238938053
 40
0.5575221238938053
 40
0.5575221238938053
 40
0.5575221238938053
 40
0.5663716814159292
 40
0.5663716814159292
 40
0.5663716814159292
 40
0.5663716814159292
 40
0.5752212389380531
 40
0.5752212389380531
 40
0.5752212389380531
 40
0.5752212389380531
 40
0.584070796460177
 40
0.584070796460177
 40
0.584070796460177
 40
0.584070796460177
 40
0.5929203539823009
 40
0.5929203539823009
 40
0.5929203539823009
 40
0.5929203539823009
 40
0.6017699115044248
 40
0.6017699115044248
 40
0.6017699115044248
 40
0.6017699115044248
 40
0.6106194690265486
 40
0.6106194690265486
 40
0.6106194690265486
 40
0.6106194690265486
 40
0.6194690265486725
 40
0.6194690265486725
 40
0.6194690265486725
 40
0.6194690265486725
 40
0.6283185840707964
 40
0.6283185840707964
 40
0.6283185840707964
 40
0.6283185840707964
 40
0.6371681415929203
 40
0.6371681415929203
 40
0.6371681415929203
 40
0.6371681415929203
 40
0.6460176991150443
 40
0.6460176991150443
 40
0.6460176991150443
 40
0.6460176991150443
 40
0.6548672566371682
 40
0.6548672566371682
 40
0.6548672566371682
 40
0.6548672566371682
 40
0.6637168141592921
 40
0.6637168141592921
 40
0.6637168141592921
 40
0.6637168141592921
 40
0.672566371681416
 40
0.672566371681416
 40
0.672566371681416
 40
0.672566371681416
 40
0.6814159292035398
 40
0.6814159292035398
 40
0.6814159292035398
 40
0.6814159292035398
 40
0.6902654867256637
 40
0.6902654867256637
 40
0.6902654867256637
 40
0.6902654867256637
 40
0.6991150442477876
 40
0.6991150442477876
 40
0.6991150442477876
 40
0.6991150442477876
 40
0.7079646017699115
 40
0.7079646017699115
 40
0.7079646017699115
 40
0.7079646017699115
 40
0.7168141592920354
 40
0.7168141592920354
 40
0.7168141592920354
 40
0.7168141592920354
 40
0.7256637168141593
 40
0.7256637168141593
 40
0.7256637168141593
 40
0.7256637168141593
 40
0.7345132743362832
 40
0.7345132743362832
 40
0.7345132743362832
 40
0.7345132743362832
 40
0.7433628318584071
 40
0.7433628318584071
 40
0.7433628318584071
 40
0.7433628318584071
 40
0.7522123893805309
 40
0.7522123893805309
 40
0.7522123893805309
 40
0.7522123893805309
 40
0.7610619469026548
 40
0.7610619469026548
 40
0.7610619469026548
 40
0.7610619469026548
 40
0.7699115044247787
 40
0.7699115044247787
 40
0.7699115044247787
 40
0.7699115044247787
 40
0.7787610619469026
 40
0.7787610619469026
 40
0.7787610619469026
 40
0.7787610619469026
 40
0.7876106194690266
 40
0.7876106194690266
 40
0.7876106194690266
 40
0.7876106194690266
 40
0.7964601769911505
 40
0.7964601769911505
 40
0.7964601769911505
 40
0.7964601769911505
 40
0.8053097345132744
 40
0.8053097345132744
 40
0.8053097345132744
 40
0.8053097345132744
 40
0.8141592920353983
 40
0.8141592920353983
 40
0.8141592920353983
 40
0.8141592920353983
 40
0.8230088495575221
 40
0.8230088495575221
 40
0.8230088495575221
 40
0.8230088495575221
 40
0.831858407079646
 40
0.831858407079646
 40
0.831858407079646
 40
0.831858407079646
 40
0.8407079646017699
 40
0.8407079646017699
 40
0.8407079646017699
 40
0.8407079646017699
 40
0.8495575221238938
 40
0.8495575221238938
 40
0.8495575221238938
 40
0.8495575221238938
 40
0.8584070796460177
 40
0.8584070796460177
 40
0.8584070796460177
 40
0.8584070796460177
 40
0.8672566371681416
 40
0.8672566371681416
 40
0.8672566371681416
 40
0.8672566371681416
 40
0.8761061946902655
 40
0.8761061946902655
 40
0.8761061946902655
 40
0.8761061946902655
 40
0.8849557522123894
 40
0.8849557522123894
 40
0.8849557522123894
 40
0.8849557522123894
 40
0.8938053097345132
 40
0.8938053097345132
 40
0.8938053097345132
 40
0.8938053097345132
 40
0.9026548672566371
 40
0.9026548672566371
 40
0.9026548672566371
 40
0.9026548672566371
 40
0.911504424778761
 40
0.911504424778761
 40
0.911504424778761
 40
0.911504424778761
 40
0.9203539823008849
 40
0.9203539823008849
 40
0.9203539823008849
 40
0.9203539823008849
 40
0.9292035398230089
 40
0.9292035398230089
 40
0.9292035398230089
 40
0.9292035398230089
 40
0.9380530973451328
 40
0.9380530973451328
 40
0.9380530973451328
 40
0.9380530973451328
 40
0.9469026548672567
 40
0.9469026548672567
 40
0.9469026548672567
 40
0.9469026548672567
 40
0.9557522123893806
 40
0.9557522123893806
 40
0.9557522123893806
 40
0.9557522123893806
 40
0.9646017699115044
 40
0.9646017699115044
 40
0.9646017699115044
 40
0.9646017699115044
 40
0.9734513274336283
 40
0.9734513274336283
 40
0.9734513274336283
 40
0.9734513274336283
 40
0.9823008849557522
 40
0.9823008849557522
 40
0.9823008849557522
 40
0.9823008849557522
 40
1.0
 40
1.0
 40
1.0
 40
1.0
 10
-74.65799
 20
-14.01212
 30
0.0
 10
-74.65799
 20
-14.01212
 30
0.0
 10
-77.05803
 20
-14.01212
 30
0.0
 10
-77.05803
 20
-14.01212
 30
0.0
 10
-77.05803
 20
-14.01212
 30
0.0
 10
-77.05803
 20
-14.01212
 30
0.0
 10
-79.59908
 20
-14.01212
 30
0.0
 10
-79.59908
 20
-14.01212
 30
0.0
 10
-79.59908
 20
-14.01212
 30
0.0
 10
-79.59908
 20
-14.01212
 30
0.0
 10
-79.59908
 20
-13.41205
 30
0.0
 10
-79.59908
 20
-13.41205
 30
0.0
 10
-79.59908
 20
-13.41205
 30
0.0
 10
-79.59908
 20
-13.41205
 30
0.0
 10
-82.14041
 20
-13.41205
 30
0.0
 10
-82.14041
 20
-13.41205
 30
0.0
 10
-82.14041
 20
-13.41205
 30
0.0
 10
-82.14041
 20
-13.41205
 30
0.0
 10
-82.14041
 20
-14.01212
 30
0.0
 10
-82.14041
 20
-14.01212
 30
0.0
 10
-82.14041
 20
-14.01212
 30
0.0
 10
-82.14041
 20
-14.01212
 30
0.0
 10
-84.68146
 20
-14.01212
 30
0.0
 10
-84.68146
 20
-14.01212
 30
0.0
 10
-84.68146
 20
-14.01212
 30
0.0
 10
-84.68146
 20
-14.01212
 30
0.0
 10
-84.68146
 20
-13.41205
 30
0.0
 10
-84.68146
 20
-13.41205
 30
0.0
 10
-84.68146
 20
-13.41205
 30
0.0
 10
-84.68146
 20
-13.41205
 30
0.0
 10
-87.22279
 20
-13.41205
 30
0.0
 10
-87.22279
 20
-13.41205
 30
0.0
 10
-87.22279
 20
-13.41205
 30
0.0
 10
-87.22279
 20
-13.41205
 30
0.0
 10
-87.22279
 20
-14.01212
 30
0.0
 10
-87.22279
 20
-14.01212
 30
0.0
 10
-87.22279
 20
-14.01212
 30
0.0
 10
-87.22279
 20
-14.01212
 30
0.0
 10
-89.76385
 20
-14.01212
 30
0.0
 10
-89.76385
 20
-14.01212
 30
0.0
 10
-89.76385
 20
-14.01212
 30
0.0
 10
-89.76385
 20
-14.01212
 30
0.0
 10
-89.76385
 20
-13.41205
 30
0.0
 10
-89.76385
 20
-13.41205
 30
0.0
 10
-89.76385
 20
-13.41205
 30
0.0
 10
-89.76385
 20
-13.41205
 30
0.0
 10
-92.30517
 20
-13.41205
 30
0.0
 10
-92.30517
 20
-13.41205
 30
0.0
 10
-92.30517
 20
-13.41205
 30
0.0
 10
-92.30517
 20
-13.41205
 30
0.0
 10
-92.30517
 20
-14.01212
 30
0.0
 10
-92.30517
 20
-14.01212
 30
0.0
 10
-92.30517
 20
-14.01212
 30
0.0
 10
-92.30517
 20
-14.01212
 30
0.0
 10
-94.84623
 20
-14.01212
 30
0.0
 10
-94.84623
 20
-14.01212
 30
0.0
 10
-94.84623
 20
-14.01212
 30
0.0
 10
-94.84623
 20
-14.01212
 30
0.0
 10
-94.84623
 20
-13.41205
 30
0.0
 10
-94.84623
 20
-13.41205
 30
0.0
 10
-94.84623
 20
-13.41205
 30
0.0
 10
-94.84623
 20
-13.41205
 30
0.0
 10
-97.38755
 20
-13.41205
 30
0.0
 10
-97.38755
 20
-13.41205
 30
0.0
 10
-97.38755
 20
-13.41205
 30
0.0
 10
-97.38755
 20
-13.41205
 30
0.0
 10
-97.38755
 20
-14.01212
 30
0.0
 10
-97.38755
 20
-14.01212
 30
0.0
 10
-97.38755
 20
-14.01212
 30
0.0
 10
-97.38755
 20
-14.01212
 30
0.0
 10
-99.92861
 20
-14.01212
 30
0.0
 10
-99.92861
 20
-14.01212
 30
0.0
 10
-99.92861
 20
-14.01212
 30
0.0
 10
-99.92861
 20
-14.01212
 30
0.0
 10
-99.92861
 20
-13.41205
 30
0.0
 10
-99.92861
 20
-13.41205
 30
0.0
 10
-99.92861
 20
-13.41205
 30
0.0
 10
-99.92861
 20
-13.41205
 30
0.0
 10
-102.46993
 20
-13.41205
 30
0.0
 10
-102.46993
 20
-13.41205
 30
0.0
 10
-102.46993
 20
-13.41205
 30
0.0
 10
-102.46993
 20
-13.41205
 30
0.0
 10
-102.46993
 20
-14.01212
 30
0.0
 10
-102.46993
 20
-14.01212
 30
0.0
 10
-102.46993
 20
-14.01212
 30
0.0
 10
-102.46993
 20
-14.01212
 30
0.0
 10
-105.01099
 20
-14.01212
 30
0.0
 10
-105.01099
 20
-14.01212
 30
0.0
 10
-105.01099
 20
-14.01212
 30
0.0
 10
-105.01099
 20
-14.01212
 30
0.0
 10
-105.01099
 20
-13.41205
 30
0.0
 10
-105.01099
 20
-13.41205
 30
0.0
 10
-105.01099
 20
-13.41205
 30
0.0
 10
-105.01099
 20
-13.41205
 30
0.0
 10
-107.55231
 20
-13.41205
 30
0.0
 10
-107.55231
 20
-13.41205
 30
0.0
 10
-107.55231
 20
-13.41205
 30
0.0
 10
-107.55231
 20
-13.41205
 30
0.0
 10
-107.55231
 20
-14.01212
 30
0.0
 10
-107.55231
 20
-14.01212
 30
0.0
 10
-107.55231
 20
-14.01212
 30
0.0
 10
-107.55231
 20
-14.01212
 30
0.0
 10
-110.09337
 20
-14.01212
 30
0.0
 10
-110.09337
 20
-14.01212
 30
0.0
 10
-110.09337
 20
-14.01212
 30
0.0
 10
-110.09337
 20
-14.01212
 30
0.0
 10
-110.09337
 20
-13.41205
 30
0.0
 10
-110.09337
 20
-13.41205
 30
0.0
 10
-110.09337
 20
-13.41205
 30
0.0
 10
-110.09337
 20
-13.41205
 30
0.0
 10
-112.63469
 20
-13.41205
 30
0.0
 10
-112.63469
 20
-13.41205
 30
0.0
 10
-112.63469
 20
-13.41205
 30
0.0
 10
-112.63469
 20
-13.41205
 30
0.0
 10
-112.63469
 20
-14.01212
 30
0.0
 10
-112.63469
 20
-14.01212
 30
0.0
 10
-112.63469
 20
-14.01212
 30
0.0
 10
-112.63469
 20
-14.01212
 30
0.0
 10
-115.17575
 20
-14.01212
 30
0.0
 10
-115.17575
 20
-14.01212
 30
0.0
 10
-115.17575
 20
-14.01212
 30
0.0
 10
-115.17575
 20
-14.01212
 30
0.0
 10
-115.17575
 20
-13.41205
 30
0.0
 10
-115.17575
 20
-13.41205
 30
0.0
 10
-115.17575
 20
-13.41205
 30
0.0
 10
-115.17575
 20
-13.41205
 30
0.0
 10
-117.71708
 20
-13.41205
 30
0.0
 10
-117.71708
 20
-13.41205
 30
0.0
 10
-117.71708
 20
-13.41205
 30
0.0
 10
-117.71708
 20
-13.41205
 30
0.0
 10
-117.71708
 20
-14.01212
 30
0.0
 10
-117.71708
 20
-14.01212
 30
0.0
 10
-117.71708
 20
-14.01212
 30
0.0
 10
-117.71708
 20
-14.01212
 30
0.0
 10
-120.25813
 20
-14.01212
 30
0.0
 10
-120.25813
 20
-14.01212
 30
0.0
 10
-120.25813
 20
-14.01212
 30
0.0
 10
-120.25813
 20
-14.01212
 30
0.0
 10
-122.65817
 20
-14.01212
 30
0.0
 10
-122.65817
 20
-14.01212
 30
0.0
 10
-122.65817
 20
-14.01212
 30
0.0
 10
-122.65817
 20
-14.01212
 30
0.0
 10
-122.65817
 20
-12.76197
 30
0.0
 10
-122.65817
 20
-12.76197
 30
0.0
 10
-122.65817
 20
-12.76197
 30
0.0
 10
-122.65817
 20
-12.76197
 30
0.0
 10
-122.65817
 20
-11.43852
 30
0.0
 10
-122.65817
 20
-11.43852
 30
0.0
 10
-122.65817
 20
-11.43852
 30
0.0
 10
-122.65817
 20
-11.43852
 30
0.0
 10
-122.05836
 20
-11.43852
 30
0.0
 10
-122.05836
 20
-11.43852
 30
0.0
 10
-122.05836
 20
-11.43852
 30
0.0
 10
-122.05836
 20
-11.43852
 30
0.0
 10
-122.05836
 20
-10.11508
 30
0.0
 10
-122.05836
 20
-10.11508
 30
0.0
 10
-122.05836
 20
-10.11508
 30
0.0
 10
-122.05836
 20
-10.11508
 30
0.0
 10
-122.65817
 20
-10.11508
 30
0.0
 10
-122.65817
 20
-10.11508
 30
0.0
 10
-122.65817
 20
-10.11508
 30
0.0
 10
-122.65817
 20
-10.11508
 30
0.0
 10
-122.65817
 20
-8.79137
 30
0.0
 10
-122.65817
 20
-8.79137
 30
0.0
 10
-122.65817
 20
-8.79137
 30
0.0
 10
-122.65817
 20
-8.79137
 30
0.0
 10
-122.05836
 20
-8.79137
 30
0.0
 10
-122.05836
 20
-8.79137
 30
0.0
 10
-122.05836
 20
-8.79137
 30
0.0
 10
-122.05836
 20
-8.79137
 30
0.0
 10
-122.05836
 20
-7.46792
 30
0.0
 10
-122.05836
 20
-7.46792
 30
0.0
 10
-122.05836
 20
-7.46792
 30
0.0
 10
-122.05836
 20
-7.46792
 30
0.0
 10
-122.65817
 20
-7.46792
 30
0.0
 10
-122.65817
 20
-7.46792
 30
0.0
 10
-122.65817
 20
-7.46792
 30
0.0
 10
-122.65817
 20
-7.46792
 30
0.0
 10
-122.65817
 20
-6.14447
 30
0.0
 10
-122.65817
 20
-6.14447
 30
0.0
 10
-122.65817
 20
-6.14447
 30
0.0
 10
-122.65817
 20
-6.14447
 30
0.0
 10
-122.05836
 20
-6.14447
 30
0.0
 10
-122.05836
 20
-6.14447
 30
0.0
 10
-122.05836
 20
-6.14447
 30
0.0
 10
-122.05836
 20
-6.14447
 30
0.0
 10
-122.05836
 20
-4.82076
 30
0.0
 10
-122.05836
 20
-4.82076
 30
0.0
 10
-122.05836
 20
-4.82076
 30
0.0
 10
-122.05836
 20
-4.82076
 30
0.0
 10
-122.65817
 20
-4.82076
 30
0.0
 10
-122.65817
 20
-4.82076
 30
0.0
 10
-122.65817
 20
-4.82076
 30
0.0
 10
-122.65817
 20
-4.82076
 30
0.0
 10
-122.65817
 20
-3.49732
 30
0.0
 10
-122.65817
 20
-3.49732
 30
0.0
 10
-122.65817
 20
-3.49732
 30
0.0
 10
-122.65817
 20
-3.49732
 30
0.0
 10
-122.05836
 20
-3.49732
 30
0.0
 10
-122.05836
 20
-3.49732
 30
0.0
 10
-122.05836
 20
-3.49732
 30
0.0
 10
-122.05836
 20
-3.49732
 30
0.0
 10
-122.05836
 20
-2.17361
 30
0.0
 10
-122.05836
 20
-2.17361
 30
0.0
 10
-122.05836
 20
-2.17361
 30
0.0
 10
-122.05836
 20
-2.17361
 30
0.0
 10
-122.65817
 20
-2.17361
 30
0.0
 10
-122.65817
 20
-2.17361
 30
0.0
 10
-122.65817
 20
-2.17361
 30
0.0
 10
-122.65817
 20
-2.17361
 30
0.0
 10
-122.65817
 20
-0.85016
 30
0.0
 10
-122.65817
 20
-0.85016
 30
0.0
 10
-122.65817
 20
-0.85016
 30
0.0
 10
-122.65817
 20
-0.85016
 30
0.0
 10
-122.05836
 20
-0.85016
 30
0.0
 10
-122.05836
 20
-0.85016
 30
0.0
 10
-122.05836
 20
-0.85016
 30
0.0
 10
-122.05836
 20
-0.85016
 30
0.0
 10
-122.05836
 20
0.47328
 30
0.0
 10
-122.05836
 20
0.47328
 30
0.0
 10
-122.05836
 20
0.47328
 30
0.0
 10
-122.05836
 20
0.47328
 30
0.0
 10
-122.65817
 20
0.47328
 30
0.0
 10
-122.65817
 20
0.47328
 30
0.0
 10
-122.65817
 20
0.47328
 30
0.0
 10
-122.65817
 20
0.47328
 30
0.0
 10
-122.65817
 20
1.797
 30
0.0
 10
-122.65817
 20
1.797
 30
0.0
 10
-122.65817
 20
1.797
 30
0.0
 10
-122.65817
 20
1.797
 30
0.0
 10
-122.05836
 20
1.797
 30
0.0
 10
-122.05836
 20
1.797
 30
0.0
 10
-122.05836
 20
1.797
 30
0.0
 10
-122.05836
 20
1.797
 30
0.0
 10
-122.05836
 20
3.12044
 30
0.0
 10
-122.05836
 20
3.12044
 30
0.0
 10
-122.05836
 20
3.12044
 30
0.0
 10
-122.05836
 20
3.12044
 30
0.0
 10
-122.65817
 20
3.12044
 30
0.0
 10
-122.65817
 20
3.12044
 30
0.0
 10
-122.65817
 20
3.12044
 30
0.0
 10
-122.65817
 20
3.12044
 30
0.0
 10
-122.65817
 20
4.44389
 30
0.0
 10
-122.65817
 20
4.44389
 30
0.0
 10
-122.65817
 20
4.44389
 30
0.0
 10
-122.65817
 20
4.44389
 30
0.0
 10
-122.05836
 20
4.44389
 30
0.0
 10
-122.05836
 20
4.44389
 30
0.0
 10
-122.05836
 20
4.44389
 30
0.0
 10
-122.05836
 20
4.44389
 30
0.0
 10
-122.05836
 20
5.7676
 30
0.0
 10
-122.05836
 20
5.7676
 30
0.0
 10
-122.05836
 20
5.7676
 30
0.0
 10
-122.05836
 20
5.7676
 30
0.0
 10
-122.65817
 20
5.7676
 30
0.0
 10
-122.65817
 20
5.7676
 30
0.0
 10
-122.65817
 20
5.7676
 30
0.0
 10
-122.65817
 20
5.7676
 30
0.0
 10
-122.65817
 20
7.09104
 30
0.0
 10
-122.65817
 20
7.09104
 30
0.0
 10
-122.65817
 20
7.09104
 30
0.0
 10
-122.65817
 20
7.09104
 30
0.0
 10
-122.05836
 20
7.09104
 30
0.0
 10
-122.05836
 20
7.09104
 30
0.0
 10
-122.05836
 20
7.09104
 30
0.0
 10
-122.05836
 20
7.09104
 30
0.0
 10
-122.05836
 20
8.41449
 30
0.0
 10
-122.05836
 20
8.41449
 30
0.0
 10
-122.05836
 20
8.41449
 30
0.0
 10
-122.05836
 20
8.41449
 30
0.0
 10
-122.65817
 20
8.41449
 30
0.0
 10
-122.65817
 20
8.41449
 30
0.0
 10
-122.65817
 20
8.41449
 30
0.0
 10
-122.65817
 20
8.41449
 30
0.0
 10
-122.65817
 20
9.7382
 30
0.0
 10
-122.65817
 20
9.7382
 30
0.0
 10
-122.65817
 20
9.7382
 30
0.0
 10
-122.65817
 20
9.7382
 30
0.0
 10
-122.65817
 20
10.98809
 30
0.0
 10
-122.65817
 20
10.98809
 30
0.0
 10
-122.65817
 20
10.98809
 30
0.0
 10
-122.65817
 20
10.98809
 30
0.0
 10
-120.25813
 20
10.98809
 30
0.0
 10
-120.25813
 20
10.98809
 30
0.0
 10
-120.25813
 20
10.98809
 30
0.0
 10
-120.25813
 20
10.98809
 30
0.0
 10
-117.71708
 20
10.98809
 30
0.0
 10
-117.71708
 20
10.98809
 30
0.0
 10
-117.71708
 20
10.98809
 30
0.0
 10
-117.71708
 20
10.98809
 30
0.0
 10
-117.71708
 20
7.80197
 30
0.0
 10
-117.71708
 20
7.80197
 30
0.0
 10
-117.71708
 20
7.80197
 30
0.0
 10
-117.71708
 20
-14.02203
 30
0.0
 10
-79.59908
 20
-16.23993
 30
0.0
 10
-79.59908
 20
7.80197
 30
0.0
 10
-79.59908
 20
7.80197
 30
0.0
 10
-79.59908
 20
7.80197
 30
0.0
 10
-79.59908
 20
10.98809
 30
0.0
 10
-79.59908
 20
10.98809
 30
0.0
 10
-79.59908
 20
10.98809
 30
0.0
 10
-79.59908
 20
10.98809
 30
0.0
 10
-77.05803
 20
10.98809
 30
0.0
 10
-77.05803
 20
10.98809
 30
0.0
 10
-77.05803
 20
10.98809
 30
0.0
 10
-77.05803
 20
10.98809
 30
0.0
 10
-74.65799
 20
10.98809
 30
0.0
 10
-74.65799
 20
10.98809
 30
0.0
 10
-74.65799
 20
10.98809
 30
0.0
 10
-74.65799
 20
10.98809
 30
0.0
 10
-74.65799
 20
9.7382
 30
0.0
 10
-74.65799
 20
9.7382
 30
0.0
 10
-74.65799
 20
9.7382
 30
0.0
 10
-74.65799
 20
9.7382
 30
0.0
 10
-74.65799
 20
8.41449
 30
0.0
 10
-74.65799
 20
8.41449
 30
0.0
 10
-74.65799
 20
8.41449
 30
0.0
 10
-74.65799
 20
8.41449
 30
0.0
 10
-75.25807
 20
8.41449
 30
0.0
 10
-75.25807
 20
8.41449
 30
0.0
 10
-75.25807
 20
8.41449
 30
0.0
 10
-75.25807
 20
8.41449
 30
0.0
 10
-75.25807
 20
7.09104
 30
0.0
 10
-75.25807
 20
7.09104
 30
0.0
 10
-75.25807
 20
7.09104
 30
0.0
 10
-75.25807
 20
7.09104
 30
0.0
 10
-74.65799
 20
7.09104
 30
0.0
 10
-74.65799
 20
7.09104
 30
0.0
 10
-74.65799
 20
7.09104
 30
0.0
 10
-74.65799
 20
7.09104
 30
0.0
 10
-74.65799
 20
5.7676
 30
0.0
 10
-74.65799
 20
5.7676
 30
0.0
 10
-74.65799
 20
5.7676
 30
0.0
 10
-74.65799
 20
5.7676
 30
0.0
 10
-75.25807
 20
5.7676
 30
0.0
 10
-75.25807
 20
5.7676
 30
0.0
 10
-75.25807
 20
5.7676
 30
0.0
 10
-75.25807
 20
5.7676
 30
0.0
 10
-75.25807
 20
4.44389
 30
0.0
 10
-75.25807
 20
4.44389
 30
0.0
 10
-75.25807
 20
4.44389
 30
0.0
 10
-75.25807
 20
4.44389
 30
0.0
 10
-74.65799
 20
4.44389
 30
0.0
 10
-74.65799
 20
4.44389
 30
0.0
 10
-74.65799
 20
4.44389
 30
0.0
 10
-74.65799
 20
4.44389
 30
0.0
 10
-74.65799
 20
3.12044
 30
0.0
 10
-74.65799
 20
3.12044
 30
0.0
 10
-74.65799
 20
3.12044
 30
0.0
 10
-74.65799
 20
3.12044
 30
0.0
 10
-75.25807
 20
3.12044
 30
0.0
 10
-75.25807
 20
3.12044
 30
0.0
 10
-75.25807
 20
3.12044
 30
0.0
 10
-75.25807
 20
3.12044
 30
0.0
 10
-75.25807
 20
1.797
 30
0.0
 10
-75.25807
 20
1.797
 30
0.0
 10
-75.25807
 20
1.797
 30
0.0
 10
-75.25807
 20
1.797
 30
0.0
 10
-74.65799
 20
1.797
 30
0.0
 10
-74.65799
 20
1.797
 30
0.0
 10
-74.65799
 20
1.797
 30
0.0
 10
-74.65799
 20
1.797
 30
0.0
 10
-74.65799
 20
0.47328
 30
0.0
 10
-74.65799
 20
0.47328
 30
0.0
 10
-74.65799
 20
0.47328
 30
0.0
 10
-74.65799
 20
0.47328
 30
0.0
 10
-75.25807
 20
0.47328
 30
0.0
 10
-75.25807
 20
0.47328
 30
0.0
 10
-75.25807
 20
0.47328
 30
0.0
 10
-75.25807
 20
0.47328
 30
0.0
 10
-75.25807
 20
-0.85016
 30
0.0
 10
-75.25807
 20
-0.85016
 30
0.0
 10
-75.25807
 20
-0.85016
 30
0.0
 10
-75.25807
 20
-0.85016
 30
0.0
 10
-74.65799
 20
-0.85016
 30
0.0
 10
-74.65799
 20
-0.85016
 30
0.0
 10
-74.65799
 20
-0.85016
 30
0.0
 10
-74.65799
 20
-0.85016
 30
0.0
 10
-74.65799
 20
-2.17361
 30
0.0
 10
-74.65799
 20
-2.17361
 30
0.0
 10
-74.65799
 20
-2.17361
 30
0.0
 10
-74.65799
 20
-2.17361
 30
0.0
 10
-75.25807
 20
-2.17361
 30
0.0
 10
-75.25807
 20
-2.17361
 30
0.0
 10
-75.25807
 20
-2.17361
 30
0.0
 10
-75.25807
 20
-2.17361
 30
0.0
 10
-75.25807
 20
-3.49732
 30
0.0
 10
-75.25807
 20
-3.49732
 30
0.0
 10
-75.25807
 20
-3.49732
 30
0.0
 10
-75.25807
 20
-3.49732
 30
0.0
 10
-74.65799
 20
-3.49732
 30
0.0
 10
-74.65799
 20
-3.49732
 30
0.0
 10
-74.65799
 20
-3.49732
 30
0.0
 10
-74.65799
 20
-3.49732
 30
0.0
 10
-74.65799
 20
-4.82076
 30
0.0
 10
-74.65799
 20
-4.82076
 30
0.0
 10
-74.65799
 20
-4.82076
 30
0.0
 10
-74.65799
 20
-4.82076
 30
0.0
 10
-75.25807
 20
-4.82076
 30
0.0
 10
-75.25807
 20
-4.82076
 30
0.0
 10
-75.25807
 20
-4.82076
 30
0.0
 10
-75.25807
 20
-4.82076
 30
0.0
 10
-75.25807
 20
-6.14447
 30
0.0
 10
-75.25807
 20
-6.14447
 30
0.0
 10
-75.25807
 20
-6.14447
 30
0.0
 10
-75.25807
 20
-6.14447
 30
0.0
 10
-74.65799
 20
-6.14447
 30
0.0
 10
-74.65799
 20
-6.14447
 30
0.0
 10
-74.65799
 20
-6.14447
 30
0.0
 10
-74.65799
 20
-6.14447
 30
0.0
 10
-74.65799
 20
-7.46792
 30
0.0
 10
-74.65799
 20
-7.46792
 30
0.0
 10
-74.65799
 20
-7.46792
 30
0.0
 10
-74.65799
 20
-7.46792
 30
0.0
 10
-75.25807
 20
-7.46792
 30
0.0
 10
-75.25807
 20
-7.46792
 30
0.0
 10
-75.25807
 20
-7.46792
 30
0.0
 10
-75.25807
 20
-7.46792
 30
0.0
 10
-75.25807
 20
-8.79137
 30
0.0
 10
-75.25807
 20
-8.79137
 30
0.0
 10
-75.25807
 20
-8.79137
 30
0.0
 10
-75.25807
 20
-8.79137
 30
0.0
 10
-74.65799
 20
-8.79137
 30
0.0
 10
-74.65799
 20
-8.79137
 30
0.0
 10
-74.65799
 20
-8.79137
 30
0.0
 10
-74.65799
 20
-8.79137
 30
0.0
 10
-74.65799
 20
-10.11508
 30
0.0
 10
-74.65799
 20
-10.11508
 30
0.0
 10
-74.65799
 20
-10.11508
 30
0.0
 10
-74.65799
 20
-10.11508
 30
0.0
 10
-75.25807
 20
-10.11508
 30
0.0
 10
-75.25807
 20
-10.11508
 30
0.0
 10
-75.25807
 20
-10.11508
 30
0.0
 10
-75.25807
 20
-10.11508
 30
0.0
 10
-75.25807
 20
-11.43852
 30
0.0
 10
-75.25807
 20
-11.43852
 30
0.0
 10
-75.25807
 20
-11.43852
 30
0.0
 10
-75.25807
 20
-11.43852
 30
0.0
 10
-74.65799
 20
-11.43852
 30
0.0
 10
-74.65799
 20
-11.43852
 30
0.0
 10
-74.65799
 20
-11.43852
 30
0.0
 10
-74.65799
 20
-11.43852
 30
0.0
 10
-74.65799
 20
-12.76197
 30
0.0
 10
-74.65799
 20
-12.76197
 30
0.0
 10
-74.65799
 20
-12.76197
 30
0.0
 10
-74.65799
 20
-12.76197
 30
0.0
 10
-74.65799
 20
-14.01212
 30
0.0
 10
-74.65799
 20
-14.01212
 30
0.0
  0
SPLINE
  5
93
330
1F
100
AcDbEntity
  8
Capa 1
 62
     7
370
     9
100
AcDbSpline
210
0.0
220
0.0
230
1.0
 70
    11
 71
     3
 72
   460
 73
   456
 74
     0
 42
0.000000001
 43
0.0000000001
 40
0.0
 40
0.0
 40
0.0
 40
0.0
 40
0.008695652173913
 40
0.008695652173913
 40
0.008695652173913
 40
0.008695652173913
 40
0.0173913043478261
 40
0.0173913043478261
 40
0.0173913043478261
 40
0.0173913043478261
 40
0.0260869565217391
 40
0.0260869565217391
 40
0.0260869565217391
 40
0.0260869565217391
 40
0.0347826086956522
 40
0.0347826086956522
 40
0.0347826086956522
 40
0.0347826086956522
 40
0.0434782608695652
 40
0.0434782608695652
 40
0.0434782608695652
 40
0.0434782608695652
 40
0.0521739130434783
 40
0.0521739130434783
 40
0.0521739130434783
 40
0.0521739130434783
 40
0.0608695652173913
 40
0.0608695652173913
 40
0.0608695652173913
 40
0.0608695652173913
 40
0.0695652173913043
 40
0.0695652173913043
 40
0.0695652173913043
 40
0.0695652173913043
 40
0.0782608695652174
 40
0.0782608695652174
 40
0.0782608695652174
 40
0.0782608695652174
 40
0.0869565217391304
 40
0.0869565217391304
 40
0.0869565217391304
 40
0.0869565217391304
 40
0.0956521739130435
 40
0.0956521739130435
 40
0.0956521739130435
 40
0.0956521739130435
 40
0.1043478260869565
 40
0.1043478260869565
 40
0.1043478260869565
 40
0.1043478260869565
 40
0.1130434782608696
 40
0.1130434782608696
 40
0.1130434782608696
 40
0.1130434782608696
 40
0.1217391304347826
 40
0.1217391304347826
 40
0.1217391304347826
 40
0.1217391304347826
 40
0.1304347826086956
 40
0.1304347826086956
 40
0.1304347826086956
 40
0.1304347826086956
 40
0.1391304347826087
 40
0.1391304347826087
 40
0.1391304347826087
 40
0.1391304347826087
 40
0.1478260869565217
 40
0.1478260869565217
 40
0.1478260869565217
 40
0.1478260869565217
 40
0.1565217391304348
 40
0.1565217391304348
 40
0.1565217391304348
 40
0.1565217391304348
 40
0.1652173913043478
 40
0.1652173913043478
 40
0.1652173913043478
 40
0.1652173913043478
 40
0.1739130434782609
 40
0.1739130434782609
 40
0.1739130434782609
 40
0.1739130434782609
 40
0.1826086956521739
 40
0.1826086956521739
 40
0.1826086956521739
 40
0.1826086956521739
 40
0.191304347826087
 40
0.191304347826087
 40
0.191304347826087
 40
0.191304347826087
 40
0.2
 40
0.2
 40
0.2
 40
0.2
 40
0.208695652173913
 40
0.208695652173913
 40
0.208695652173913
 40
0.208695652173913
 40
0.2173913043478261
 40
0.2173913043478261
 40
0.2173913043478261
 40
0.2173913043478261
 40
0.2260869565217391
 40
0.2260869565217391
 40
0.2260869565217391
 40
0.2260869565217391
 40
0.2347826086956522
 40
0.2347826086956522
 40
0.2347826086956522
 40
0.2347826086956522
 40
0.2434782608695652
 40
0.2434782608695652
 40
0.2434782608695652
 40
0.2434782608695652
 40
0.2521739130434782
 40
0.2521739130434782
 40
0.2521739130434782
 40
0.2521739130434782
 40
0.2608695652173913
 40
0.2608695652173913
 40
0.2608695652173913
 40
0.2608695652173913
 40
0.2695652173913043
 40
0.2695652173913043
 40
0.2695652173913043
 40
0.2695652173913043
 40
0.2782608695652174
 40
0.2782608695652174
 40
0.2782608695652174
 40
0.2782608695652174
 40
0.2869565217391304
 40
0.2869565217391304
 40
0.2869565217391304
 40
0.2869565217391304
 40
0.2956521739130435
 40
0.2956521739130435
 40
0.2956521739130435
 40
0.2956521739130435
 40
0.3043478260869565
 40
0.3043478260869565
 40
0.3043478260869565
 40
0.3043478260869565
 40
0.3130434782608696
 40
0.3130434782608696
 40
0.3130434782608696
 40
0.3130434782608696
 40
0.3217391304347826
 40
0.3217391304347826
 40
0.3217391304347826
 40
0.3217391304347826
 40
0.3304347826086956
 40
0.3304347826086956
 40
0.3304347826086956
 40
0.3304347826086956
 40
0.3391304347826087
 40
0.3391304347826087
 40
0.3391304347826087
 40
0.3391304347826087
 40
0.3478260869565217
 40
0.3478260869565217
 40
0.3478260869565217
 40
0.3478260869565217
 40
0.3565217391304348
 40
0.3565217391304348
 40
0.3565217391304348
 40
0.3565217391304348
 40
0.3652173913043478
 40
0.3652173913043478
 40
0.3652173913043478
 40
0.3652173913043478
 40
0.3739130434782609
 40
0.3739130434782609
 40
0.3739130434782609
 40
0.3739130434782609
 40
0.3826086956521739
 40
0.3826086956521739
 40
0.3826086956521739
 40
0.3826086956521739
 40
0.391304347826087
 40
0.391304347826087
 40
0.391304347826087
 40
0.391304347826087
 40
0.4
 40
0.4
 40
0.4
 40
0.4
 40
0.4086956521739131
 40
0.4086956521739131
 40
0.4086956521739131
 40
0.4086956521739131
 40
0.4173913043478261
 40
0.4173913043478261
 40
0.4173913043478261
 40
0.4173913043478261
 40
0.4260869565217391
 40
0.4260869565217391
 40
0.4260869565217391
 40
0.4260869565217391
 40
0.4347826086956522
 40
0.4347826086956522
 40
0.4347826086956522
 40
0.4347826086956522
 40
0.4434782608695652
 40
0.4434782608695652
 40
0.4434782608695652
 40
0.4434782608695652
 40
0.4521739130434783
 40
0.4521739130434783
 40
0.4521739130434783
 40
0.4521739130434783
 40
0.4608695652173913
 40
0.4608695652173913
 40
0.4608695652173913
 40
0.4608695652173913
 40
0.4695652173913044
 40
0.4695652173913044
 40
0.4695652173913044
 40
0.4695652173913044
 40
0.4782608695652174
 40
0.4782608695652174
 40
0.4782608695652174
 40
0.4782608695652174
 40
0.4869565217391305
 40
0.4869565217391305
 40
0.4869565217391305
 40
0.4869565217391305
 40
0.4956521739130435
 40
0.4956521739130435
 40
0.4956521739130435
 40
0.4956521739130435
 40
0.5043478260869565
 40
0.5043478260869565
 40
0.5043478260869565
 40
0.5043478260869565
 40
0.5130434782608696
 40
0.5130434782608696
 40
0.5130434782608696
 40
0.5130434782608696
 40
0.5217391304347826
 40
0.5217391304347826
 40
0.5217391304347826
 40
0.5217391304347826
 40
0.5304347826086957
 40
0.5304347826086957
 40
0.5304347826086957
 40
0.5304347826086957
 40
0.5391304347826087
 40
0.5391304347826087
 40
0.5391304347826087
 40
0.5391304347826087
 40
0.5478260869565217
 40
0.5478260869565217
 40
0.5478260869565217
 40
0.5478260869565217
 40
0.5565217391304348
 40
0.5565217391304348
 40
0.5565217391304348
 40
0.5565217391304348
 40
0.5652173913043478
 40
0.5652173913043478
 40
0.5652173913043478
 40
0.5652173913043478
 40
0.5739130434782609
 40
0.5739130434782609
 40
0.5739130434782609
 40
0.5739130434782609
 40
0.5826086956521739
 40
0.5826086956521739
 40
0.5826086956521739
 40
0.5826086956521739
 40
0.591304347826087
 40
0.591304347826087
 40
0.591304347826087
 40
0.591304347826087
 40
0.6
 40
0.6
 40
0.6
 40
0.6
 40
0.6086956521739131
 40
0.6086956521739131
 40
0.6086956521739131
 40
0.6086956521739131
 40
0.6173913043478261
 40
0.6173913043478261
 40
0.6173913043478261
 40
0.6173913043478261
 40
0.6260869565217392
 40
0.6260869565217392
 40
0.6260869565217392
 40
0.6260869565217392
 40
0.6347826086956522
 40
0.6347826086956522
 40
0.6347826086956522
 40
0.6347826086956522
 40
0.6434782608695652
 40
0.6434782608695652
 40
0.6434782608695652
 40
0.6434782608695652
 40
0.6521739130434783
 40
0.6521739130434783
 40
0.6521739130434783
 40
0.6521739130434783
 40
0.6608695652173913
 40
0.6608695652173913
 40
0.6608695652173913
 40
0.6608695652173913
 40
0.6695652173913044
 40
0.6695652173913044
 40
0.6695652173913044
 40
0.6695652173913044
 40
0.6782608695652174
 40
0.6782608695652174
 40
0.6782608695652174
 40
0.6782608695652174
 40
0.6869565217391305
 40
0.6869565217391305
 40
0.6869565217391305
 40
0.6869565217391305
 40
0.6956521739130435
 40
0.6956521739130435
 40
0.6956521739130435
 40
0.6956521739130435
 40
0.7043478260869566
 40
0.7043478260869566
 40
0.7043478260869566
 40
0.7043478260869566
 40
0.7130434782608696
 40
0.7130434782608696
 40
0.7130434782608696
 40
0.7130434782608696
 40
0.7217391304347827
 40
0.7217391304347827
 40
0.7217391304347827
 40
0.7217391304347827
 40
0.7304347826086957
 40
0.7304347826086957
 40
0.7304347826086957
 40
0.7304347826086957
 40
0.7391304347826086
 40
0.7391304347826086
 40
0.7391304347826086
 40
0.7391304347826086
 40
0.7478260869565218
 40
0.7478260869565218
 40
0.7478260869565218
 40
0.7478260869565218
 40
0.7565217391304347
 40
0.7565217391304347
 40
0.7565217391304347
 40
0.7565217391304347
 40
0.7652173913043478
 40
0.7652173913043478
 40
0.7652173913043478
 40
0.7652173913043478
 40
0.7739130434782608
 40
0.7739130434782608
 40
0.7739130434782608
 40
0.7739130434782608
 40
0.782608695652174
 40
0.782608695652174
 40
0.782608695652174
 40
0.782608695652174
 40
0.7913043478260869
 40
0.7913043478260869
 40
0.7913043478260869
 40
0.7913043478260869
 40
0.8
 40
0.8
 40
0.8
 40
0.8
 40
0.808695652173913
 40
0.808695652173913
 40
0.808695652173913
 40
0.808695652173913
 40
0.8173913043478261
 40
0.8173913043478261
 40
0.8173913043478261
 40
0.8173913043478261
 40
0.8260869565217391
 40
0.8260869565217391
 40
0.8260869565217391
 40
0.8260869565217391
 40
0.8347826086956521
 40
0.8347826086956521
 40
0.8347826086956521
 40
0.8347826086956521
 40
0.8434782608695652
 40
0.8434782608695652
 40
0.8434782608695652
 40
0.8434782608695652
 40
0.8521739130434782
 40
0.8521739130434782
 40
0.8521739130434782
 40
0.8521739130434782
 40
0.8608695652173913
 40
0.8608695652173913
 40
0.8608695652173913
 40
0.8608695652173913
 40
0.8695652173913043
 40
0.8695652173913043
 40
0.8695652173913043
 40
0.8695652173913043
 40
0.8782608695652174
 40
0.8782608695652174
 40
0.8782608695652174
 40
0.8782608695652174
 40
0.8869565217391304
 40
0.8869565217391304
 40
0.8869565217391304
 40
0.8869565217391304
 40
0.8956521739130435
 40
0.8956521739130435
 40
0.8956521739130435
 40
0.8956521739130435
 40
0.9043478260869565
 40
0.9043478260869565
 40
0.9043478260869565
 40
0.9043478260869565
 40
0.9130434782608695
 40
0.9130434782608695
 40
0.9130434782608695
 40
0.9130434782608695
 40
0.9217391304347826
 40
0.9217391304347826
 40
0.9217391304347826
 40
0.9217391304347826
 40
0.9304347826086956
 40
0.9304347826086956
 40
0.9304347826086956
 40
0.9304347826086956
 40
0.9391304347826087
 40
0.9391304347826087
 40
0.9391304347826087
 40
0.9391304347826087
 40
0.9478260869565217
 40
0.9478260869565217
 40
0.9478260869565217
 40
0.9478260869565217
 40
0.9565217391304348
 40
0.9565217391304348
 40
0.9565217391304348
 40
0.9565217391304348
 40
0.9652173913043478
 40
0.9652173913043478
 40
0.9652173913043478
 40
0.9652173913043478
 40
0.9739130434782609
 40
0.9739130434782609
 40
0.9739130434782609
 40
0.9739130434782609
 40
0.9826086956521739
 40
0.9826086956521739
 40
0.9826086956521739
 40
0.9826086956521739
 40
1.0
 40
1.0
 40
1.0
 40
1.0
 10
-18.99999
 20
-13.86732
 30
0.0
 10
-18.99999
 20
-13.86732
 30
0.0
 10
-19.99985
 20
-13.86732
 30
0.0
 10
-19.99985
 20
-13.86732
 30
0.0
 10
-19.99985
 20
-13.86732
 30
0.0
 10
-19.99985
 20
-13.86732
 30
0.0
 10
-21.69398
 20
-13.86732
 30
0.0
 10
-21.69398
 20
-13.86732
 30
0.0
 10
-21.69398
 20
-13.86732
 30
0.0
 10
-21.69398
 20
-13.86732
 30
0.0
 10
-21.69398
 20
-13.26725
 30
0.0
 10
-21.69398
 20
-13.26725
 30
0.0
 10
-21.69398
 20
-13.26725
 30
0.0
 10
-21.69398
 20
-13.26725
 30
0.0
 10
-23.3881
 20
-13.26725
 30
0.0
 10
-23.3881
 20
-13.26725
 30
0.0
 10
-23.3881
 20
-13.26725
 30
0.0
 10
-23.3881
 20
-13.26725
 30
0.0
 10
-23.3881
 20
-13.86732
 30
0.0
 10
-23.3881
 20
-13.86732
 30
0.0
 10
-23.3881
 20
-13.86732
 30
0.0
 10
-23.3881
 20
-13.86732
 30
0.0
 10
-25.08223
 20
-13.86732
 30
0.0
 10
-25.08223
 20
-13.86732
 30
0.0
 10
-25.08223
 20
-13.86732
 30
0.0
 10
-25.08223
 20
-13.86732
 30
0.0
 10
-25.08223
 20
-13.26725
 30
0.0
 10
-25.08223
 20
-13.26725
 30
0.0
 10
-25.08223
 20
-13.26725
 30
0.0
 10
-25.08223
 20
-13.26725
 30
0.0
 10
-26.77636
 20
-13.26725
 30
0.0
 10
-26.77636
 20
-13.26725
 30
0.0
 10
-26.77636
 20
-13.26725
 30
0.0
 10
-26.77636
 20
-13.26725
 30
0.0
 10
-26.77636
 20
-13.86732
 30
0.0
 10
-26.77636
 20
-13.86732
 30
0.0
 10
-26.77636
 20
-13.86732
 30
0.0
 10
-26.77636
 20
-13.86732
 30
0.0
 10
-28.47049
 20
-13.86732
 30
0.0
 10
-28.47049
 20
-13.86732
 30
0.0
 10
-28.47049
 20
-13.86732
 30
0.0
 10
-28.47049
 20
-13.86732
 30
0.0
 10
-28.47049
 20
-13.26725
 30
0.0
 10
-28.47049
 20
-13.26725
 30
0.0
 10
-28.47049
 20
-13.26725
 30
0.0
 10
-28.47049
 20
-13.26725
 30
0.0
 10
-30.16461
 20
-13.26725
 30
0.0
 10
-30.16461
 20
-13.26725
 30
0.0
 10
-30.16461
 20
-13.26725
 30
0.0
 10
-30.16461
 20
-13.26725
 30
0.0
 10
-30.16461
 20
-13.86732
 30
0.0
 10
-30.16461
 20
-13.86732
 30
0.0
 10
-30.16461
 20
-13.86732
 30
0.0
 10
-30.16461
 20
-13.86732
 30
0.0
 10
-31.85874
 20
-13.86732
 30
0.0
 10
-31.85874
 20
-13.86732
 30
0.0
 10
-31.85874
 20
-13.86732
 30
0.0
 10
-31.85874
 20
-13.86732
 30
0.0
 10
-31.85874
 20
-13.26725
 30
0.0
 10
-31.85874
 20
-13.26725
 30
0.0
 10
-31.85874
 20
-13.26725
 30
0.0
 10
-31.85874
 20
-13.26725
 30
0.0
 10
-33.55287
 20
-13.26725
 30
0.0
 10
-33.55287
 20
-13.26725
 30
0.0
 10
-33.55287
 20
-13.26725
 30
0.0
 10
-33.55287
 20
-13.26725
 30
0.0
 10
-33.55287
 20
-13.86732
 30
0.0
 10
-33.55287
 20
-13.86732
 30
0.0
 10
-33.55287
 20
-13.86732
 30
0.0
 10
-33.55287
 20
-13.86732
 30
0.0
 10
-35.24699
 20
-13.86732
 30
0.0
 10
-35.24699
 20
-13.86732
 30
0.0
 10
-35.24699
 20
-13.86732
 30
0.0
 10
-35.24699
 20
-13.86732
 30
0.0
 10
-35.24699
 20
-13.26725
 30
0.0
 10
-35.24699
 20
-13.26725
 30
0.0
 10
-35.24699
 20
-13.26725
 30
0.0
 10
-35.24699
 20
-13.26725
 30
0.0
 10
-36.94112
 20
-13.26725
 30
0.0
 10
-36.94112
 20
-13.26725
 30
0.0
 10
-36.94112
 20
-13.26725
 30
0.0
 10
-36.94112
 20
-13.26725
 30
0.0
 10
-36.94112
 20
-13.86732
 30
0.0
 10
-36.94112
 20
-13.86732
 30
0.0
 10
-36.94112
 20
-13.86732
 30
0.0
 10
-36.94112
 20
-13.86732
 30
0.0
 10
-38.63525
 20
-13.86732
 30
0.0
 10
-38.63525
 20
-13.86732
 30
0.0
 10
-38.63525
 20
-13.86732
 30
0.0
 10
-38.63525
 20
-13.86732
 30
0.0
 10
-38.63525
 20
-13.26725
 30
0.0
 10
-38.63525
 20
-13.26725
 30
0.0
 10
-38.63525
 20
-13.26725
 30
0.0
 10
-38.63525
 20
-13.26725
 30
0.0
 10
-40.32937
 20
-13.26725
 30
0.0
 10
-40.32937
 20
-13.26725
 30
0.0
 10
-40.32937
 20
-13.26725
 30
0.0
 10
-40.32937
 20
-13.26725
 30
0.0
 10
-40.32937
 20
-13.86732
 30
0.0
 10
-40.32937
 20
-13.86732
 30
0.0
 10
-40.32937
 20
-13.86732
 30
0.0
 10
-40.32937
 20
-13.86732
 30
0.0
 10
-42.0235
 20
-13.86732
 30
0.0
 10
-42.0235
 20
-13.86732
 30
0.0
 10
-42.0235
 20
-13.86732
 30
0.0
 10
-42.0235
 20
-13.86732
 30
0.0
 10
-42.0235
 20
-13.26725
 30
0.0
 10
-42.0235
 20
-13.26725
 30
0.0
 10
-42.0235
 20
-13.26725
 30
0.0
 10
-42.0235
 20
-13.26725
 30
0.0
 10
-43.71763
 20
-13.26725
 30
0.0
 10
-43.71763
 20
-13.26725
 30
0.0
 10
-43.71763
 20
-13.26725
 30
0.0
 10
-43.71763
 20
-13.26725
 30
0.0
 10
-43.71763
 20
-13.86732
 30
0.0
 10
-43.71763
 20
-13.86732
 30
0.0
 10
-43.71763
 20
-13.86732
 30
0.0
 10
-43.71763
 20
-13.86732
 30
0.0
 10
-45.41176
 20
-13.86732
 30
0.0
 10
-45.41176
 20
-13.86732
 30
0.0
 10
-45.41176
 20
-13.86732
 30
0.0
 10
-45.41176
 20
-13.86732
 30
0.0
 10
-45.41176
 20
-13.26725
 30
0.0
 10
-45.41176
 20
-13.26725
 30
0.0
 10
-45.41176
 20
-13.26725
 30
0.0
 10
-45.41176
 20
-13.26725
 30
0.0
 10
-47.10588
 20
-13.26725
 30
0.0
 10
-47.10588
 20
-13.26725
 30
0.0
 10
-47.10588
 20
-13.26725
 30
0.0
 10
-47.10588
 20
-13.26725
 30
0.0
 10
-47.10588
 20
-13.86732
 30
0.0
 10
-47.10588
 20
-13.86732
 30
0.0
 10
-47.10588
 20
-13.86732
 30
0.0
 10
-47.10588
 20
-13.86732
 30
0.0
 10
-48.80001
 20
-13.86732
 30
0.0
 10
-48.80001
 20
-13.86732
 30
0.0
 10
-48.80001
 20
-13.86732
 30
0.0
 10
-48.80001
 20
-13.86732
 30
0.0
 10
-49.80014
 20
-13.86732
 30
0.0
 10
-49.80014
 20
-13.86732
 30
0.0
 10
-49.80014
 20
-13.86732
 30
0.0
 10
-49.80014
 20
-13.86732
 30
0.0
 10
-49.80014
 20
-12.61717
 30
0.0
 10
-49.80014
 20
-12.61717
 30
0.0
 10
-49.80014
 20
-12.61717
 30
0.0
 10
-49.80014
 20
-12.61717
 30
0.0
 10
-49.80014
 20
-11.29372
 30
0.0
 10
-49.80014
 20
-11.29372
 30
0.0
 10
-49.80014
 20
-11.29372
 30
0.0
 10
-49.80014
 20
-11.29372
 30
0.0
 10
-50.40021
 20
-11.29372
 30
0.0
 10
-50.40021
 20
-11.29372
 30
0.0
 10
-50.40021
 20
-11.29372
 30
0.0
 10
-50.40021
 20
-11.29372
 30
0.0
 10
-50.40021
 20
-9.97028
 30
0.0
 10
-50.40021
 20
-9.97028
 30
0.0
 10
-50.40021
 20
-9.97028
 30
0.0
 10
-50.40021
 20
-9.97028
 30
0.0
 10
-49.80014
 20
-9.97028
 30
0.0
 10
-49.80014
 20
-9.97028
 30
0.0
 10
-49.80014
 20
-9.97028
 30
0.0
 10
-49.80014
 20
-9.97028
 30
0.0
 10
-49.80014
 20
-8.64657
 30
0.0
 10
-49.80014
 20
-8.64657
 30
0.0
 10
-49.80014
 20
-8.64657
 30
0.0
 10
-49.80014
 20
-8.64657
 30
0.0
 10
-50.40021
 20
-8.64657
 30
0.0
 10
-50.40021
 20
-8.64657
 30
0.0
 10
-50.40021
 20
-8.64657
 30
0.0
 10
-50.40021
 20
-8.64657
 30
0.0
 10
-50.40021
 20
-7.32312
 30
0.0
 10
-50.40021
 20
-7.32312
 30
0.0
 10
-50.40021
 20
-7.32312
 30
0.0
 10
-50.40021
 20
-7.32312
 30
0.0
 10
-49.80014
 20
-7.32312
 30
0.0
 10
-49.80014
 20
-7.32312
 30
0.0
 10
-49.80014
 20
-7.32312
 30
0.0
 10
-49.80014
 20
-7.32312
 30
0.0
 10
-49.80014
 20
-5.99967
 30
0.0
 10
-49.80014
 20
-5.99967
 30
0.0
 10
-49.80014
 20
-5.99967
 30
0.0
 10
-49.80014
 20
-5.99967
 30
0.0
 10
-50.40021
 20
-5.99967
 30
0.0
 10
-50.40021
 20
-5.99967
 30
0.0
 10
-50.40021
 20
-5.99967
 30
0.0
 10
-50.40021
 20
-5.99967
 30
0.0
 10
-50.40021
 20
-4.67596
 30
0.0
 10
-50.40021
 20
-4.67596
 30
0.0
 10
-50.40021
 20
-4.67596
 30
0.0
 10
-50.40021
 20
-4.67596
 30
0.0
 10
-49.80014
 20
-4.67596
 30
0.0
 10
-49.80014
 20
-4.67596
 30
0.0
 10
-49.80014
 20
-4.67596
 30
0.0
 10
-49.80014
 20
-4.67596
 30
0.0
 10
-49.80014
 20
-3.35252
 30
0.0
 10
-49.80014
 20
-3.35252
 30
0.0
 10
-49.80014
 20
-3.35252
 30
0.0
 10
-49.80014
 20
-3.35252
 30
0.0
 10
-50.40021
 20
-3.35252
 30
0.0
 10
-50.40021
 20
-3.35252
 30
0.0
 10
-50.40021
 20
-3.35252
 30
0.0
 10
-50.40021
 20
-3.35252
 30
0.0
 10
-50.40021
 20
-2.02881
 30
0.0
 10
-50.40021
 20
-2.02881
 30
0.0
 10
-50.40021
 20
-2.02881
 30
0.0
 10
-50.40021
 20
-2.02881
 30
0.0
 10
-49.80014
 20
-2.02881
 30
0.0
 10
-49.80014
 20
-2.02881
 30
0.0
 10
-49.80014
 20
-2.02881
 30
0.0
 10
-49.80014
 20
-2.02881
 30
0.0
 10
-49.80014
 20
-0.70536
 30
0.0
 10
-49.80014
 20
-0.70536
 30
0.0
 10
-49.80014
 20
-0.70536
 30
0.0
 10
-49.80014
 20
-0.70536
 30
0.0
 10
-50.40021
 20
-0.70536
 30
0.0
 10
-50.40021
 20
-0.70536
 30
0.0
 10
-50.40021
 20
-0.70536
 30
0.0
 10
-50.40021
 20
-0.70536
 30
0.0
 10
-50.40021
 20
0.61808
 30
0.0
 10
-50.40021
 20
0.61808
 30
0.0
 10
-50.40021
 20
0.61808
 30
0.0
 10
-50.40021
 20
0.61808
 30
0.0
 10
-49.80014
 20
0.61808
 30
0.0
 10
-49.80014
 20
0.61808
 30
0.0
 10
-49.80014
 20
0.61808
 30
0.0
 10
-49.80014
 20
0.61808
 30
0.0
 10
-49.80014
 20
1.9418
 30
0.0
 10
-49.80014
 20
1.9418
 30
0.0
 10
-49.80014
 20
1.9418
 30
0.0
 10
-49.80014
 20
1.9418
 30
0.0
 10
-50.40021
 20
1.9418
 30
0.0
 10
-50.40021
 20
1.9418
 30
0.0
 10
-50.40021
 20
1.9418
 30
0.0
 10
-50.40021
 20
1.9418
 30
0.0
 10
-50.40021
 20
3.26524
 30
0.0
 10
-50.40021
 20
3.26524
 30
0.0
 10
-50.40021
 20
3.26524
 30
0.0
 10
-50.40021
 20
3.26524
 30
0.0
 10
-49.80014
 20
3.26524
 30
0.0
 10
-49.80014
 20
3.26524
 30
0.0
 10
-49.80014
 20
3.26524
 30
0.0
 10
-49.80014
 20
3.26524
 30
0.0
 10
-49.80014
 20
4.58869
 30
0.0
 10
-49.80014
 20
4.58869
 30
0.0
 10
-49.80014
 20
4.58869
 30
0.0
 10
-49.80014
 20
4.58869
 30
0.0
 10
-50.40021
 20
4.58869
 30
0.0
 10
-50.40021
 20
4.58869
 30
0.0
 10
-50.40021
 20
4.58869
 30
0.0
 10
-50.40021
 20
4.58869
 30
0.0
 10
-50.40021
 20
5.9124
 30
0.0
 10
-50.40021
 20
5.9124
 30
0.0
 10
-50.40021
 20
5.9124
 30
0.0
 10
-50.40021
 20
5.9124
 30
0.0
 10
-49.80014
 20
5.9124
 30
0.0
 10
-49.80014
 20
5.9124
 30
0.0
 10
-49.80014
 20
5.9124
 30
0.0
 10
-49.80014
 20
5.9124
 30
0.0
 10
-49.80014
 20
7.23584
 30
0.0
 10
-49.80014
 20
7.23584
 30
0.0
 10
-49.80014
 20
7.23584
 30
0.0
 10
-49.80014
 20
7.23584
 30
0.0
 10
-50.40021
 20
7.23584
 30
0.0
 10
-50.40021
 20
7.23584
 30
0.0
 10
-50.40021
 20
7.23584
 30
0.0
 10
-50.40021
 20
7.23584
 30
0.0
 10
-50.40021
 20
8.55929
 30
0.0
 10
-50.40021
 20
8.55929
 30
0.0
 10
-50.40021
 20
8.55929
 30
0.0
 10
-50.40021
 20
8.55929
 30
0.0
 10
-49.80014
 20
8.55929
 30
0.0
 10
-49.80014
 20
8.55929
 30
0.0
 10
-49.80014
 20
8.55929
 30
0.0
 10
-49.80014
 20
8.55929
 30
0.0
 10
-49.80014
 20
9.883
 30
0.0
 10
-49.80014
 20
9.883
 30
0.0
 10
-49.80014
 20
9.883
 30
0.0
 10
-49.80014
 20
9.883
 30
0.0
 10
-49.80014
 20
11.13289
 30
0.0
 10
-49.80014
 20
11.13289
 30
0.0
 10
-49.80014
 20
11.13289
 30
0.0
 10
-49.80014
 20
11.13289
 30
0.0
 10
-48.80001
 20
11.13289
 30
0.0
 10
-48.80001
 20
11.13289
 30
0.0
 10
-48.80001
 20
11.13289
 30
0.0
 10
-48.80001
 20
11.13289
 30
0.0
 10
-47.10588
 20
11.13289
 30
0.0
 10
-47.10588
 20
11.13289
 30
0.0
 10
-47.10588
 20
11.13289
 30
0.0
 10
-47.10588
 20
11.13289
 30
0.0
 10
-47.10588
 20
7.94677
 30
0.0
 10
-47.10588
 20
7.94677
 30
0.0
 10
-47.10588
 20
7.94677
 30
0.0
 10
-47.10588
 20
3.45241
 30
0.0
 10
-47.04876
 20
-10.67963
 30
0.0
 10
-34.39998
 20
-10.67963
 30
0.0
 10
-34.39998
 20
-10.67963
 30
0.0
 10
-21.75118
 20
-10.67963
 30
0.0
 10
-21.34918
 20
3.45697
 30
0.0
 10
-21.55088
 20
7.94677
 30
0.0
 10
-21.55088
 20
7.94677
 30
0.0
 10
-21.55088
 20
7.94677
 30
0.0
 10
-21.69403
 20
11.13289
 30
0.0
 10
-21.69403
 20
11.13289
 30
0.0
 10
-21.69403
 20
11.13289
 30
0.0
 10
-21.69403
 20
11.13289
 30
0.0
 10
-19.9999
 20
11.13289
 30
0.0
 10
-19.9999
 20
11.13289
 30
0.0
 10
-19.9999
 20
11.13289
 30
0.0
 10
-19.9999
 20
11.13289
 30
0.0
 10
-19.00004
 20
11.13289
 30
0.0
 10
-19.00004
 20
11.13289
 30
0.0
 10
-19.00004
 20
11.13289
 30
0.0
 10
-19.00004
 20
11.13289
 30
0.0
 10
-19.00004
 20
9.883
 30
0.0
 10
-19.00004
 20
9.883
 30
0.0
 10
-19.00004
 20
9.883
 30
0.0
 10
-19.00004
 20
9.883
 30
0.0
 10
-19.00004
 20
8.55929
 30
0.0
 10
-19.00004
 20
8.55929
 30
0.0
 10
-19.00004
 20
8.55929
 30
0.0
 10
-19.00004
 20
8.55929
 30
0.0
 10
-18.39996
 20
8.55929
 30
0.0
 10
-18.39996
 20
8.55929
 30
0.0
 10
-18.39996
 20
8.55929
 30
0.0
 10
-18.39996
 20
8.55929
 30
0.0
 10
-18.39996
 20
7.23584
 30
0.0
 10
-18.39996
 20
7.23584
 30
0.0
 10
-18.39996
 20
7.23584
 30
0.0
 10
-18.39996
 20
7.23584
 30
0.0
 10
-19.00004
 20
7.23584
 30
0.0
 10
-19.00004
 20
7.23584
 30
0.0
 10
-19.00004
 20
7.23584
 30
0.0
 10
-19.00004
 20
7.23584
 30
0.0
 10
-19.00004
 20
5.9124
 30
0.0
 10
-19.00004
 20
5.9124
 30
0.0
 10
-19.00004
 20
5.9124
 30
0.0
 10
-19.00004
 20
5.9124
 30
0.0
 10
-18.39996
 20
5.9124
 30
0.0
 10
-18.39996
 20
5.9124
 30
0.0
 10
-18.39996
 20
5.9124
 30
0.0
 10
-18.39996
 20
5.9124
 30
0.0
 10
-18.39996
 20
4.58869
 30
0.0
 10
-18.39996
 20
4.58869
 30
0.0
 10
-18.39996
 20
4.58869
 30
0.0
 10
-18.39996
 20
4.58869
 30
0.0
 10
-19.00004
 20
4.58869
 30
0.0
 10
-19.00004
 20
4.58869
 30
0.0
 10
-19.00004
 20
4.58869
 30
0.0
 10
-19.00004
 20
4.58869
 30
0.0
 10
-19.00004
 20
3.26524
 30
0.0
 10
-19.00004
 20
3.26524
 30
0.0
 10
-19.00004
 20
3.26524
 30
0.0
 10
-19.00004
 20
3.26524
 30
0.0
 10
-18.39996
 20
3.26524
 30
0.0
 10
-18.39996
 20
3.26524
 30
0.0
 10
-18.39996
 20
3.26524
 30
0.0
 10
-18.39996
 20
3.26524
 30
0.0
 10
-18.39996
 20
1.9418
 30
0.0
 10
-18.39996
 20
1.9418
 30
0.0
 10
-18.39996
 20
1.9418
 30
0.0
 10
-18.39996
 20
1.9418
 30
0.0
 10
-19.00004
 20
1.9418
 30
0.0
 10
-19.00004
 20
1.9418
 30
0.0
 10
-19.00004
 20
1.9418
 30
0.0
 10
-19.00004
 20
1.9418
 30
0.0
 10
-19.00004
 20
0.61808
 30
0.0
 10
-19.00004
 20
0.61808
 30
0.0
 10
-19.00004
 20
0.61808
 30
0.0
 10
-19.00004
 20
0.61808
 30
0.0
 10
-18.39996
 20
0.61808
 30
0.0
 10
-18.39996
 20
0.61808
 30
0.0
 10
-18.39996
 20
0.61808
 30
0.0
 10
-18.39996
 20
0.61808
 30
0.0
 10
-18.39996
 20
-0.70536
 30
0.0
 10
-18.39996
 20
-0.70536
 30
0.0
 10
-18.39996
 20
-0.70536
 30
0.0
 10
-18.39996
 20
-0.70536
 30
0.0
 10
-19.00004
 20
-0.70536
 30
0.0
 10
-19.00004
 20
-0.70536
 30
0.0
 10
-19.00004
 20
-0.70536
 30
0.0
 10
-19.00004
 20
-0.70536
 30
0.0
 10
-19.00004
 20
-2.02881
 30
0.0
 10
-19.00004
 20
-2.02881
 30
0.0
 10
-19.00004
 20
-2.02881
 30
0.0
 10
-19.00004
 20
-2.02881
 30
0.0
 10
-18.39996
 20
-2.02881
 30
0.0
 10
-18.39996
 20
-2.02881
 30
0.0
 10
-18.39996
 20
-2.02881
 30
0.0
 10
-18.39996
 20
-2.02881
 30
0.0
 10
-18.39996
 20
-3.35252
 30
0.0
 10
-18.39996
 20
-3.35252
 30
0.0
 10
-18.39996
 20
-3.35252
 30
0.0
 10
-18.39996
 20
-3.35252
 30
0.0
 10
-19.00004
 20
-3.35252
 30
0.0
 10
-19.00004
 20
-3.35252
 30
0.0
 10
-19.00004
 20
-3.35252
 30
0.0
 10
-19.00004
 20
-3.35252
 30
0.0
 10
-19.00004
 20
-4.67596
 30
0.0
 10
-19.00004
 20
-4.67596
 30
0.0
 10
-19.00004
 20
-4.67596
 30
0.0
 10
-19.00004
 20
-4.67596
 30
0.0
 10
-18.39996
 20
-4.67596
 30
0.0
 10
-18.39996
 20
-4.67596
 30
0.0
 10
-18.39996
 20
-4.67596
 30
0.0
 10
-18.39996
 20
-4.67596
 30
0.0
 10
-18.39996
 20
-5.99967
 30
0.0
 10
-18.39996
 20
-5.99967
 30
0.0
 10
-18.39996
 20
-5.99967
 30
0.0
 10
-18.39996
 20
-5.99967
 30
0.0
 10
-19.00004
 20
-5.99967
 30
0.0
 10
-19.00004
 20
-5.99967
 30
0.0
 10
-19.00004
 20
-5.99967
 30
0.0
 10
-19.00004
 20
-5.99967
 30
0.0
 10
-19.00004
 20
-7.32312
 30
0.0
 10
-19.00004
 20
-7.32312
 30
0.0
 10
-19.00004
 20
-7.32312
 30
0.0
 10
-19.00004
 20
-7.32312
 30
0.0
 10
-18.39996
 20
-7.32312
 30
0.0
 10
-18.39996
 20
-7.32312
 30
0.0
 10
-18.39996
 20
-7.32312
 30
0.0
 10
-18.39996
 20
-7.32312
 30
0.0
 10
-18.39996
 20
-8.64657
 30
0.0
 10
-18.39996
 20
-8.64657
 30
0.0
 10
-18.39996
 20
-8.64657
 30
0.0
 10
-18.39996
 20
-8.64657
 30
0.0
 10
-19.00004
 20
-8.64657
 30
0.0
 10
-19.00004
 20
-8.64657
 30
0.0
 10
-19.00004
 20
-8.64657
 30
0.0
 10
-19.00004
 20
-8.64657
 30
0.0
 10
-19.00004
 20
-9.97028
 30
0.0
 10
-19.00004
 20
-9.97028
 30
0.0
 10
-19.00004
 20
-9.97028
 30
0.0
 10
-19.00004
 20
-9.97028
 30
0.0
 10
-18.39996
 20
-9.97028
 30
0.0
 10
-18.39996
 20
-9.97028
 30
0.0
 10
-18.39996
 20
-9.97028
 30
0.0
 10
-18.39996
 20
-9.97028
 30
0.0
 10
-18.39996
 20
-11.29372
 30
0.0
 10
-18.39996
 20
-11.29372
 30
0.0
 10
-18.39996
 20
-11.29372
 30
0.0
 10
-18.39996
 20
-11.29372
 30
0.0
 10
-19.00004
 20
-11.29372
 30
0.0
 10
-19.00004
 20
-11.29372
 30
0.0
 10
-19.00004
 20
-11.29372
 30
0.0
 10
-19.00004
 20
-11.29372
 30
0.0
 10
-19.00004
 20
-12.61717
 30
0.0
 10
-19.00004
 20
-12.61717
 30
0.0
 10
-19.00004
 20
-12.61717
 30
0.0
 10
-19.00004
 20
-12.61717
 30
0.0
 10
-19.00004
 20
-13.86732
 30
0.0
 10
-19.00004
 20
-13.86732
 30
0.0
 10
-19.00004
 20
-13.86732
 30
0.0
 10
-19.00004
 20
-13.86732
 30
0.0
 10
-18.99999
 20
-13.86732
 30
0.0
 10
-18.99999
 20
-13.86732
 30
0.0
  0
SPLINE
  5
94
330
1F
100
AcDbEntity
  8
Capa 1
 62
     7
370
     9
100
AcDbSpline
210
0.0
220
0.0
230
1.0
 70
    11
 71
     3
 72
   460
 73
   456
 74
     0
 42
0.000000001
 43
0.0000000001
 40
0.0
 40
0.0
 40
0.0
 40
0.0
 40
0.008695652173913
 40
0.008695652173913
 40
0.008695652173913
 40
0.008695652173913
 40
0.0173913043478261
 40
0.0173913043478261
 40
0.0173913043478261
 40
0.0173913043478261
 40
0.0260869565217391
 40
0.0260869565217391
 40
0.0260869565217391
 40
0.0260869565217391
 40
0.0347826086956522
 40
0.0347826086956522
 40
0.0347826086956522
 40
0.0347826086956522
 40
0.0434782608695652
 40
0.0434782608695652
 40
0.0434782608695652
 40
0.0434782608695652
 40
0.0521739130434783
 40
0.0521739130434783
 40
0.0521739130434783
 40
0.0521739130434783
 40
0.0608695652173913
 40
0.0608695652173913
 40
0.0608695652173913
 40
0.0608695652173913
 40
0.0695652173913043
 40
0.0695652173913043
 40
0.0695652173913043
 40
0.0695652173913043
 40
0.0782608695652174
 40
0.0782608695652174
 40
0.0782608695652174
 40
0.0782608695652174
 40
0.0869565217391304
 40
0.0869565217391304
 40
0.0869565217391304
 40
0.0869565217391304
 40
0.0956521739130435
 40
0.0956521739130435
 40
0.0956521739130435
 40
0.0956521739130435
 40
0.1043478260869565
 40
0.1043478260869565
 40
0.1043478260869565
 40
0.1043478260869565
 40
0.1130434782608696
 40
0.1130434782608696
 40
0.1130434782608696
 40
0.1130434782608696
 40
0.1217391304347826
 40
0.1217391304347826
 40
0.1217391304347826
 40
0.1217391304347826
 40
0.1304347826086956
 40
0.1304347826086956
 40
0.1304347826086956
 40
0.1304347826086956
 40
0.1391304347826087
 40
0.1391304347826087
 40
0.1391304347826087
 40
0.1391304347826087
 40
0.1478260869565217
 40
0.1478260869565217
 40
0.1478260869565217
 40
0.1478260869565217
 40
0.1565217391304348
 40
0.1565217391304348
 40
0.1565217391304348
 40
0.1565217391304348
 40
0.1652173913043478
 40
0.1652173913043478
 40
0.1652173913043478
 40
0.1652173913043478
 40
0.1739130434782609
 40
0.1739130434782609
 40
0.1739130434782609
 40
0.1739130434782609
 40
0.1826086956521739
 40
0.1826086956521739
 40
0.1826086956521739
 40
0.1826086956521739
 40
0.191304347826087
 40
0.191304347826087
 40
0.191304347826087
 40
0.191304347826087
 40
0.2
 40
0.2
 40
0.2
 40
0.2
 40
0.208695652173913
 40
0.208695652173913
 40
0.208695652173913
 40
0.208695652173913
 40
0.2173913043478261
 40
0.2173913043478261
 40
0.2173913043478261
 40
0.2173913043478261
 40
0.2260869565217391
 40
0.2260869565217391
 40
0.2260869565217391
 40
0.2260869565217391
 40
0.2347826086956522
 40
0.2347826086956522
 40
0.2347826086956522
 40
0.2347826086956522
 40
0.2434782608695652
 40
0.2434782608695652
 40
0.2434782608695652
 40
0.2434782608695652
 40
0.2521739130434782
 40
0.2521739130434782
 40
0.2521739130434782
 40
0.2521739130434782
 40
0.2608695652173913
 40
0.2608695652173913
 40
0.2608695652173913
 40
0.2608695652173913
 40
0.2695652173913043
 40
0.2695652173913043
 40
0.2695652173913043
 40
0.2695652173913043
 40
0.2782608695652174
 40
0.2782608695652174
 40
0.2782608695652174
 40
0.2782608695652174
 40
0.2869565217391304
 40
0.2869565217391304
 40
0.2869565217391304
 40
0.2869565217391304
 40
0.2956521739130435
 40
0.2956521739130435
 40
0.2956521739130435
 40
0.2956521739130435
 40
0.3043478260869565
 40
0.3043478260869565
 40
0.3043478260869565
 40
0.3043478260869565
 40
0.3130434782608696
 40
0.3130434782608696
 40
0.3130434782608696
 40
0.3130434782608696
 40
0.3217391304347826
 40
0.3217391304347826
 40
0.3217391304347826
 40
0.3217391304347826
 40
0.3304347826086956
 40
0.3304347826086956
 40
0.3304347826086956
 40
0.3304347826086956
 40
0.3391304347826087
 40
0.3391304347826087
 40
0.3391304347826087
 40
0.3391304347826087
 40
0.3478260869565217
 40
0.3478260869565217
 40
0.3478260869565217
 40
0.3478260869565217
 40
0.3565217391304348
 40
0.3565217391304348
 40
0.3565217391304348
 40
0.3565217391304348
 40
0.3652173913043478
 40
0.3652173913043478
 40
0.3652173913043478
 40
0.3652173913043478
 40
0.3739130434782609
 40
0.3739130434782609
 40
0.3739130434782609
 40
0.3739130434782609
 40
0.3826086956521739
 40
0.3826086956521739
 40
0.3826086956521739
 40
0.3826086956521739
 40
0.391304347826087
 40
0.391304347826087
 40
0.391304347826087
 40
0.391304347826087
 40
0.4
 40
0.4
 40
0.4
 40
0.4
 40
0.4086956521739131
 40
0.4086956521739131
 40
0.4086956521739131
 40
0.4086956521739131
 40
0.4173913043478261
 40
0.4173913043478261
 40
0.4173913043478261
 40
0.4173913043478261
 40
0.4260869565217391
 40
0.4260869565217391
 40
0.4260869565217391
 40
0.4260869565217391
 40
0.4347826086956522
 40
0.4347826086956522
 40
0.4347826086956522
 40
0.4347826086956522
 40
0.4434782608695652
 40
0.4434782608695652
 40
0.4434782608695652
 40
0.4434782608695652
 40
0.4521739130434783
 40
0.4521739130434783
 40
0.4521739130434783
 40
0.4521739130434783
 40
0.4608695652173913
 40
0.4608695652173913
 40
0.4608695652173913
 40
0.4608695652173913
 40
0.4695652173913044
 40
0.4695652173913044
 40
0.4695652173913044
 40
0.4695652173913044
 40
0.4782608695652174
 40
0.4782608695652174
 40
0.4782608695652174
 40
0.4782608695652174
 40
0.4869565217391305
 40
0.4869565217391305
 40
0.4869565217391305
 40
0.4869565217391305
 40
0.4956521739130435
 40
0.4956521739130435
 40
0.4956521739130435
 40
0.4956521739130435
 40
0.5043478260869565
 40
0.5043478260869565
 40
0.5043478260869565
 40
0.5043478260869565
 40
0.5130434782608696
 40
0.5130434782608696
 40
0.5130434782608696
 40
0.5130434782608696
 40
0.5217391304347826
 40
0.5217391304347826
 40
0.5217391304347826
 40
0.5217391304347826
 40
0.5304347826086957
 40
0.5304347826086957
 40
0.5304347826086957
 40
0.5304347826086957
 40
0.5391304347826087
 40
0.5391304347826087
 40
0.5391304347826087
 40
0.5391304347826087
 40
0.5478260869565217
 40
0.5478260869565217
 40
0.5478260869565217
 40
0.5478260869565217
 40
0.5565217391304348
 40
0.5565217391304348
 40
0.5565217391304348
 40
0.5565217391304348
 40
0.5652173913043478
 40
0.5652173913043478
 40
0.5652173913043478
 40
0.5652173913043478
 40
0.5739130434782609
 40
0.5739130434782609
 40
0.5739130434782609
 40
0.5739130434782609
 40
0.5826086956521739
 40
0.5826086956521739
 40
0.5826086956521739
 40
0.5826086956521739
 40
0.591304347826087
 40
0.591304347826087
 40
0.591304347826087
 40
0.591304347826087
 40
0.6
 40
0.6
 40
0.6
 40
0.6
 40
0.6086956521739131
 40
0.6086956521739131
 40
0.6086956521739131
 40
0.6086956521739131
 40
0.6173913043478261
 40
0.6173913043478261
 40
0.6173913043478261
 40
0.6173913043478261
 40
0.6260869565217392
 40
0.6260869565217392
 40
0.6260869565217392
 40
0.6260869565217392
 40
0.6347826086956522
 40
0.6347826086956522
 40
0.6347826086956522
 40
0.6347826086956522
 40
0.6434782608695652
 40
0.6434782608695652
 40
0.6434782608695652
 40
0.6434782608695652
 40
0.6521739130434783
 40
0.6521739130434783
 40
0.6521739130434783
 40
0.6521739130434783
 40
0.6608695652173913
 40
0.6608695652173913
 40
0.6608695652173913
 40
0.6608695652173913
 40
0.6695652173913044
 40
0.6695652173913044
 40
0.6695652173913044
 40
0.6695652173913044
 40
0.6782608695652174
 40
0.6782608695652174
 40
0.6782608695652174
 40
0.6782608695652174
 40
0.6869565217391305
 40
0.6869565217391305
 40
0.6869565217391305
 40
0.6869565217391305
 40
0.6956521739130435
 40
0.6956521739130435
 40
0.6956521739130435
 40
0.6956521739130435
 40
0.7043478260869566
 40
0.7043478260869566
 40
0.7043478260869566
 40
0.7043478260869566
 40
0.7130434782608696
 40
0.7130434782608696
 40
0.7130434782608696
 40
0.7130434782608696
 40
0.7217391304347827
 40
0.7217391304347827
 40
0.7217391304347827
 40
0.7217391304347827
 40
0.7304347826086957
 40
0.7304347826086957
 40
0.7304347826086957
 40
0.7304347826086957
 40
0.7391304347826086
 40
0.7391304347826086
 40
0.7391304347826086
 40
0.7391304347826086
 40
0.7478260869565218
 40
0.7478260869565218
 40
0.7478260869565218
 40
0.7478260869565218
 40
0.7565217391304347
 40
0.7565217391304347
 40
0.7565217391304347
 40
0.7565217391304347
 40
0.7652173913043478
 40
0.7652173913043478
 40
0.7652173913043478
 40
0.7652173913043478
 40
0.7739130434782608
 40
0.7739130434782608
 40
0.7739130434782608
 40
0.7739130434782608
 40
0.782608695652174
 40
0.782608695652174
 40
0.782608695652174
 40
0.782608695652174
 40
0.7913043478260869
 40
0.7913043478260869
 40
0.7913043478260869
 40
0.7913043478260869
 40
0.8
 40
0.8
 40
0.8
 40
0.8
 40
0.808695652173913
 40
0.808695652173913
 40
0.808695652173913
 40
0.808695652173913
 40
0.8173913043478261
 40
0.8173913043478261
 40
0.8173913043478261
 40
0.8173913043478261
 40
0.8260869565217391
 40
0.8260869565217391
 40
0.8260869565217391
 40
0.8260869565217391
 40
0.8347826086956521
 40
0.8347826086956521
 40
0.8347826086956521
 40
0.8347826086956521
 40
0.8434782608695652
 40
0.8434782608695652
 40
0.8434782608695652
 40
0.8434782608695652
 40
0.8521739130434782
 40
0.8521739130434782
 40
0.8521739130434782
 40
0.8521739130434782
 40
0.8608695652173913
 40
0.8608695652173913
 40
0.8608695652173913
 40
0.8608695652173913
 40
0.8695652173913043
 40
0.8695652173913043
 40
0.8695652173913043
 40
0.8695652173913043
 40
0.8782608695652174
 40
0.8782608695652174
 40
0.8782608695652174
 40
0.8782608695652174
 40
0.8869565217391304
 40
0.8869565217391304
 40
0.8869565217391304
 40
0.8869565217391304
 40
0.8956521739130435
 40
0.8956521739130435
 40
0.8956521739130435
 40
0.8956521739130435
 40
0.9043478260869565
 40
0.9043478260869565
 40
0.9043478260869565
 40
0.9043478260869565
 40
0.9130434782608695
 40
0.9130434782608695
 40
0.9130434782608695
 40
0.9130434782608695
 40
0.9217391304347826
 40
0.9217391304347826
 40
0.9217391304347826
 40
0.9217391304347826
 40
0.9304347826086956
 40
0.9304347826086956
 40
0.9304347826086956
 40
0.9304347826086956
 40
0.9391304347826087
 40
0.9391304347826087
 40
0.9391304347826087
 40
0.9391304347826087
 40
0.9478260869565217
 40
0.9478260869565217
 40
0.9478260869565217
 40
0.9478260869565217
 40
0.9565217391304348
 40
0.9565217391304348
 40
0.9565217391304348
 40
0.9565217391304348
 40
0.9652173913043478
 40
0.9652173913043478
 40
0.9652173913043478
 40
0.9652173913043478
 40
0.9739130434782609
 40
0.9739130434782609
 40
0.9739130434782609
 40
0.9739130434782609
 40
0.9826086956521739
 40
0.9826086956521739
 40
0.9826086956521739
 40
0.9826086956521739
 40
1.0
 40
1.0
 40
1.0
 40
1.0
 10
-62.85699
 20
27.09271
 30
0.0
 10
-62.85699
 20
27.09271
 30
0.0
 10
-61.85713
 20
27.09271
 30
0.0
 10
-61.85713
 20
27.09271
 30
0.0
 10
-61.85713
 20
27.09271
 30
0.0
 10
-61.85713
 20
27.09271
 30
0.0
 10
-60.163
 20
27.09271
 30
0.0
 10
-60.163
 20
27.09271
 30
0.0
 10
-60.163
 20
27.09271
 30
0.0
 10
-60.163
 20
27.09271
 30
0.0
 10
-60.163
 20
26.49264
 30
0.0
 10
-60.163
 20
26.49264
 30
0.0
 10
-60.163
 20
26.49264
 30
0.0
 10
-60.163
 20
26.49264
 30
0.0
 10
-58.46888
 20
26.49264
 30
0.0
 10
-58.46888
 20
26.49264
 30
0.0
 10
-58.46888
 20
26.49264
 30
0.0
 10
-58.46888
 20
26.49264
 30
0.0
 10
-58.46888
 20
27.09271
 30
0.0
 10
-58.46888
 20
27.09271
 30
0.0
 10
-58.46888
 20
27.09271
 30
0.0
 10
-58.46888
 20
27.09271
 30
0.0
 10
-56.77475
 20
27.09271
 30
0.0
 10
-56.77475
 20
27.09271
 30
0.0
 10
-56.77475
 20
27.09271
 30
0.0
 10
-56.77475
 20
27.09271
 30
0.0
 10
-56.77475
 20
26.49264
 30
0.0
 10
-56.77475
 20
26.49264
 30
0.0
 10
-56.77475
 20
26.49264
 30
0.0
 10
-56.77475
 20
26.49264
 30
0.0
 10
-55.08062
 20
26.49264
 30
0.0
 10
-55.08062
 20
26.49264
 30
0.0
 10
-55.08062
 20
26.49264
 30
0.0
 10
-55.08062
 20
26.49264
 30
0.0
 10
-55.08062
 20
27.09271
 30
0.0
 10
-55.08062
 20
27.09271
 30
0.0
 10
-55.08062
 20
27.09271
 30
0.0
 10
-55.08062
 20
27.09271
 30
0.0
 10
-53.38649
 20
27.09271
 30
0.0
 10
-53.38649
 20
27.09271
 30
0.0
 10
-53.38649
 20
27.09271
 30
0.0
 10
-53.38649
 20
27.09271
 30
0.0
 10
-53.38649
 20
26.49264
 30
0.0
 10
-53.38649
 20
26.49264
 30
0.0
 10
-53.38649
 20
26.49264
 30
0.0
 10
-53.38649
 20
26.49264
 30
0.0
 10
-51.69237
 20
26.49264
 30
0.0
 10
-51.69237
 20
26.49264
 30
0.0
 10
-51.69237
 20
26.49264
 30
0.0
 10
-51.69237
 20
26.49264
 30
0.0
 10
-51.69237
 20
27.09271
 30
0.0
 10
-51.69237
 20
27.09271
 30
0.0
 10
-51.69237
 20
27.09271
 30
0.0
 10
-51.69237
 20
27.09271
 30
0.0
 10
-49.99824
 20
27.09271
 30
0.0
 10
-49.99824
 20
27.09271
 30
0.0
 10
-49.99824
 20
27.09271
 30
0.0
 10
-49.99824
 20
27.09271
 30
0.0
 10
-49.99824
 20
26.49264
 30
0.0
 10
-49.99824
 20
26.49264
 30
0.0
 10
-49.99824
 20
26.49264
 30
0.0
 10
-49.99824
 20
26.49264
 30
0.0
 10
-48.30411
 20
26.49264
 30
0.0
 10
-48.30411
 20
26.49264
 30
0.0
 10
-48.30411
 20
26.49264
 30
0.0
 10
-48.30411
 20
26.49264
 30
0.0
 10
-48.30411
 20
27.09271
 30
0.0
 10
-48.30411
 20
27.09271
 30
0.0
 10
-48.30411
 20
27.09271
 30
0.0
 10
-48.30411
 20
27.09271
 30
0.0
 10
-46.60999
 20
27.09271
 30
0.0
 10
-46.60999
 20
27.09271
 30
0.0
 10
-46.60999
 20
27.09271
 30
0.0
 10
-46.60999
 20
27.09271
 30
0.0
 10
-46.60999
 20
26.49264
 30
0.0
 10
-46.60999
 20
26.49264
 30
0.0
 10
-46.60999
 20
26.49264
 30
0.0
 10
-46.60999
 20
26.49264
 30
0.0
 10
-44.91586
 20
26.49264
 30
0.0
 10
-44.91586
 20
26.49264
 30
0.0
 10
-44.91586
 20
26.49264
 30
0.0
 10
-44.91586
 20
26.49264
 30
0.0
 10
-44.91586
 20
27.09271
 30
0.0
 10
-44.91586
 20
27.09271
 30
0.0
 10
-44.91586
 20
27.09271
 30
0.0
 10
-44.91586
 20
27.09271
 30
0.0
 10
-43.22173
 20
27.09271
 30
0.0
 10
-43.22173
 20
27.09271
 30
0.0
 10
-43.22173
 20
27.09271
 30
0.0
 10
-43.22173
 20
27.09271
 30
0.0
 10
-43.22173
 20
26.49264
 30
0.0
 10
-43.22173
 20
26.49264
 30
0.0
 10
-43.22173
 20
26.49264
 30
0.0
 10
-43.22173
 20
26.49264
 30
0.0
 10
-41.52761
 20
26.49264
 30
0.0
 10
-41.52761
 20
26.49264
 30
0.0
 10
-41.52761
 20
26.49264
 30
0.0
 10
-41.52761
 20
26.49264
 30
0.0
 10
-41.52761
 20
27.09271
 30
0.0
 10
-41.52761
 20
27.09271
 30
0.0
 10
-41.52761
 20
27.09271
 30
0.0
 10
-41.52761
 20
27.09271
 30
0.0
 10
-39.83348
 20
27.09271
 30
0.0
 10
-39.83348
 20
27.09271
 30
0.0
 10
-39.83348
 20
27.09271
 30
0.0
 10
-39.83348
 20
27.09271
 30
0.0
 10
-39.83348
 20
26.49264
 30
0.0
 10
-39.83348
 20
26.49264
 30
0.0
 10
-39.83348
 20
26.49264
 30
0.0
 10
-39.83348
 20
26.49264
 30
0.0
 10
-38.13935
 20
26.49264
 30
0.0
 10
-38.13935
 20
26.49264
 30
0.0
 10
-38.13935
 20
26.49264
 30
0.0
 10
-38.13935
 20
26.49264
 30
0.0
 10
-38.13935
 20
27.09271
 30
0.0
 10
-38.13935
 20
27.09271
 30
0.0
 10
-38.13935
 20
27.09271
 30
0.0
 10
-38.13935
 20
27.09271
 30
0.0
 10
-36.44522
 20
27.09271
 30
0.0
 10
-36.44522
 20
27.09271
 30
0.0
 10
-36.44522
 20
27.09271
 30
0.0
 10
-36.44522
 20
27.09271
 30
0.0
 10
-36.44522
 20
26.49264
 30
0.0
 10
-36.44522
 20
26.49264
 30
0.0
 10
-36.44522
 20
26.49264
 30
0.0
 10
-36.44522
 20
26.49264
 30
0.0
 10
-34.7511
 20
26.49264
 30
0.0
 10
-34.7511
 20
26.49264
 30
0.0
 10
-34.7511
 20
26.49264
 30
0.0
 10
-34.7511
 20
26.49264
 30
0.0
 10
-34.7511
 20
27.09271
 30
0.0
 10
-34.7511
 20
27.09271
 30
0.0
 10
-34.7511
 20
27.09271
 30
0.0
 10
-34.7511
 20
27.09271
 30
0.0
 10
-33.05697
 20
27.09271
 30
0.0
 10
-33.05697
 20
27.09271
 30
0.0
 10
-33.05697
 20
27.09271
 30
0.0
 10
-33.05697
 20
27.09271
 30
0.0
 10
-32.05684
 20
27.09271
 30
0.0
 10
-32.05684
 20
27.09271
 30
0.0
 10
-32.05684
 20
27.09271
 30
0.0
 10
-32.05684
 20
27.09271
 30
0.0
 10
-32.05684
 20
25.84256
 30
0.0
 10
-32.05684
 20
25.84256
 30
0.0
 10
-32.05684
 20
25.84256
 30
0.0
 10
-32.05684
 20
25.84256
 30
0.0
 10
-32.05684
 20
24.51911
 30
0.0
 10
-32.05684
 20
24.51911
 30
0.0
 10
-32.05684
 20
24.51911
 30
0.0
 10
-32.05684
 20
24.51911
 30
0.0
 10
-31.45677
 20
24.51911
 30
0.0
 10
-31.45677
 20
24.51911
 30
0.0
 10
-31.45677
 20
24.51911
 30
0.0
 10
-31.45677
 20
24.51911
 30
0.0
 10
-31.45677
 20
23.19567
 30
0.0
 10
-31.45677
 20
23.19567
 30
0.0
 10
-31.45677
 20
23.19567
 30
0.0
 10
-31.45677
 20
23.19567
 30
0.0
 10
-32.05684
 20
23.19567
 30
0.0
 10
-32.05684
 20
23.19567
 30
0.0
 10
-32.05684
 20
23.19567
 30
0.0
 10
-32.05684
 20
23.19567
 30
0.0
 10
-32.05684
 20
21.87196
 30
0.0
 10
-32.05684
 20
21.87196
 30
0.0
 10
-32.05684
 20
21.87196
 30
0.0
 10
-32.05684
 20
21.87196
 30
0.0
 10
-31.45677
 20
21.87196
 30
0.0
 10
-31.45677
 20
21.87196
 30
0.0
 10
-31.45677
 20
21.87196
 30
0.0
 10
-31.45677
 20
21.87196
 30
0.0
 10
-31.45677
 20
20.54851
 30
0.0
 10
-31.45677
 20
20.54851
 30
0.0
 10
-31.45677
 20
20.54851
 30
0.0
 10
-31.45677
 20
20.54851
 30
0.0
 10
-32.05684
 20
20.54851
 30
0.0
 10
-32.05684
 20
20.54851
 30
0.0
 10
-32.05684
 20
20.54851
 30
0.0
 10
-32.05684
 20
20.54851
 30
0.0
 10
-32.05684
 20
19.22506
 30
0.0
 10
-32.05684
 20
19.22506
 30
0.0
 10
-32.05684
 20
19.22506
 30
0.0
 10
-32.05684
 20
19.22506
 30
0.0
 10
-31.45677
 20
19.22506
 30
0.0
 10
-31.45677
 20
19.22506
 30
0.0
 10
-31.45677
 20
19.22506
 30
0.0
 10
-31.45677
 20
19.22506
 30
0.0
 10
-31.45677
 20
17.90135
 30
0.0
 10
-31.45677
 20
17.90135
 30
0.0
 10
-31.45677
 20
17.90135
 30
0.0
 10
-31.45677
 20
17.90135
 30
0.0
 10
-32.05684
 20
17.90135
 30
0.0
 10
-32.05684
 20
17.90135
 30
0.0
 10
-32.05684
 20
17.90135
 30
0.0
 10
-32.05684
 20
17.90135
 30
0.0
 10
-32.05684
 20
16.57791
 30
0.0
 10
-32.05684
 20
16.57791
 30
0.0
 10
-32.05684
 20
16.57791
 30
0.0
 10
-32.05684
 20
16.57791
 30
0.0
 10
-31.45677
 20
16.57791
 30
0.0
 10
-31.45677
 20
16.57791
 30
0.0
 10
-31.45677
 20
16.57791
 30
0.0
 10
-31.45677
 20
16.57791
 30
0.0
 10
-31.45677
 20
15.2542
 30
0.0
 10
-31.45677
 20
15.2542
 30
0.0
 10
-31.45677
 20
15.2542
 30
0.0
 10
-31.45677
 20
15.2542
 30
0.0
 10
-32.05684
 20
15.2542
 30
0.0
 10
-32.05684
 20
15.2542
 30
0.0
 10
-32.05684
 20
15.2542
 30
0.0
 10
-32.05684
 20
15.2542
 30
0.0
 10
-32.05684
 20
13.93075
 30
0.0
 10
-32.05684
 20
13.93075
 30
0.0
 10
-32.05684
 20
13.93075
 30
0.0
 10
-32.05684
 20
13.93075
 30
0.0
 10
-31.45677
 20
13.93075
 30
0.0
 10
-31.45677
 20
13.93075
 30
0.0
 10
-31.45677
 20
13.93075
 30
0.0
 10
-31.45677
 20
13.93075
 30
0.0
 10
-31.45677
 20
12.60731
 30
0.0
 10
-31.45677
 20
12.60731
 30
0.0
 10
-31.45677
 20
12.60731
 30
0.0
 10
-31.45677
 20
12.60731
 30
0.0
 10
-32.05684
 20
12.60731
 30
0.0
 10
-32.05684
 20
12.60731
 30
0.0
 10
-32.05684
 20
12.60731
 30
0.0
 10
-32.05684
 20
12.60731
 30
0.0
 10
-32.05684
 20
11.28359
 30
0.0
 10
-32.05684
 20
11.28359
 30
0.0
 10
-32.05684
 20
11.28359
 30
0.0
 10
-32.05684
 20
11.28359
 30
0.0
 10
-31.45677
 20
11.28359
 30
0.0
 10
-31.45677
 20
11.28359
 30
0.0
 10
-31.45677
 20
11.28359
 30
0.0
 10
-31.45677
 20
11.28359
 30
0.0
 10
-31.45677
 20
9.96015
 30
0.0
 10
-31.45677
 20
9.96015
 30
0.0
 10
-31.45677
 20
9.96015
 30
0.0
 10
-31.45677
 20
9.96015
 30
0.0
 10
-32.05684
 20
9.96015
 30
0.0
 10
-32.05684
 20
9.96015
 30
0.0
 10
-32.05684
 20
9.96015
 30
0.0
 10
-32.05684
 20
9.96015
 30
0.0
 10
-32.05684
 20
8.6367
 30
0.0
 10
-32.05684
 20
8.6367
 30
0.0
 10
-32.05684
 20
8.6367
 30
0.0
 10
-32.05684
 20
8.6367
 30
0.0
 10
-31.45677
 20
8.6367
 30
0.0
 10
-31.45677
 20
8.6367
 30
0.0
 10
-31.45677
 20
8.6367
 30
0.0
 10
-31.45677
 20
8.6367
 30
0.0
 10
-31.45677
 20
7.31299
 30
0.0
 10
-31.45677
 20
7.31299
 30
0.0
 10
-31.45677
 20
7.31299
 30
0.0
 10
-31.45677
 20
7.31299
 30
0.0
 10
-32.05684
 20
7.31299
 30
0.0
 10
-32.05684
 20
7.31299
 30
0.0
 10
-32.05684
 20
7.31299
 30
0.0
 10
-32.05684
 20
7.31299
 30
0.0
 10
-32.05684
 20
5.98955
 30
0.0
 10
-32.05684
 20
5.98955
 30
0.0
 10
-32.05684
 20
5.98955
 30
0.0
 10
-32.05684
 20
5.98955
 30
0.0
 10
-31.45677
 20
5.98955
 30
0.0
 10
-31.45677
 20
5.98955
 30
0.0
 10
-31.45677
 20
5.98955
 30
0.0
 10
-31.45677
 20
5.98955
 30
0.0
 10
-31.45677
 20
4.6661
 30
0.0
 10
-31.45677
 20
4.6661
 30
0.0
 10
-31.45677
 20
4.6661
 30
0.0
 10
-31.45677
 20
4.6661
 30
0.0
 10
-32.05684
 20
4.6661
 30
0.0
 10
-32.05684
 20
4.6661
 30
0.0
 10
-32.05684
 20
4.6661
 30
0.0
 10
-32.05684
 20
4.6661
 30
0.0
 10
-32.05684
 20
3.34239
 30
0.0
 10
-32.05684
 20
3.34239
 30
0.0
 10
-32.05684
 20
3.34239
 30
0.0
 10
-32.05684
 20
3.34239
 30
0.0
 10
-32.05684
 20
2.0925
 30
0.0
 10
-32.05684
 20
2.0925
 30
0.0
 10
-32.05684
 20
2.0925
 30
0.0
 10
-32.05684
 20
2.0925
 30
0.0
 10
-33.05697
 20
2.0925
 30
0.0
 10
-33.05697
 20
2.0925
 30
0.0
 10
-33.05697
 20
2.0925
 30
0.0
 10
-33.05697
 20
2.0925
 30
0.0
 10
-34.7511
 20
2.0925
 30
0.0
 10
-34.7511
 20
2.0925
 30
0.0
 10
-34.7511
 20
2.0925
 30
0.0
 10
-34.7511
 20
2.0925
 30
0.0
 10
-34.7511
 20
5.27862
 30
0.0
 10
-34.7511
 20
5.27862
 30
0.0
 10
-34.7511
 20
5.27862
 30
0.0
 10
-34.7511
 20
9.77298
 30
0.0
 10
-34.80822
 20
23.90502
 30
0.0
 10
-47.4571
 20
23.90502
 30
0.0
 10
-47.4571
 20
23.90502
 30
0.0
 10
-60.1059
 20
23.90502
 30
0.0
 10
-60.5079
 20
9.76842
 30
0.0
 10
-60.3062
 20
5.27862
 30
0.0
 10
-60.3062
 20
5.27862
 30
0.0
 10
-60.3062
 20
5.27862
 30
0.0
 10
-60.16305
 20
2.0925
 30
0.0
 10
-60.16305
 20
2.0925
 30
0.0
 10
-60.16305
 20
2.0925
 30
0.0
 10
-60.16305
 20
2.0925
 30
0.0
 10
-61.85718
 20
2.0925
 30
0.0
 10
-61.85718
 20
2.0925
 30
0.0
 10
-61.85718
 20
2.0925
 30
0.0
 10
-61.85718
 20
2.0925
 30
0.0
 10
-62.85704
 20
2.0925
 30
0.0
 10
-62.85704
 20
2.0925
 30
0.0
 10
-62.85704
 20
2.0925
 30
0.0
 10
-62.85704
 20
2.0925
 30
0.0
 10
-62.85704
 20
3.34239
 30
0.0
 10
-62.85704
 20
3.34239
 30
0.0
 10
-62.85704
 20
3.34239
 30
0.0
 10
-62.85704
 20
3.34239
 30
0.0
 10
-62.85704
 20
4.6661
 30
0.0
 10
-62.85704
 20
4.6661
 30
0.0
 10
-62.85704
 20
4.6661
 30
0.0
 10
-62.85704
 20
4.6661
 30
0.0
 10
-63.45712
 20
4.6661
 30
0.0
 10
-63.45712
 20
4.6661
 30
0.0
 10
-63.45712
 20
4.6661
 30
0.0
 10
-63.45712
 20
4.6661
 30
0.0
 10
-63.45712
 20
5.98955
 30
0.0
 10
-63.45712
 20
5.98955
 30
0.0
 10
-63.45712
 20
5.98955
 30
0.0
 10
-63.45712
 20
5.98955
 30
0.0
 10
-62.85704
 20
5.98955
 30
0.0
 10
-62.85704
 20
5.98955
 30
0.0
 10
-62.85704
 20
5.98955
 30
0.0
 10
-62.85704
 20
5.98955
 30
0.0
 10
-62.85704
 20
7.31299
 30
0.0
 10
-62.85704
 20
7.31299
 30
0.0
 10
-62.85704
 20
7.31299
 30
0.0
 10
-62.85704
 20
7.31299
 30
0.0
 10
-63.45712
 20
7.31299
 30
0.0
 10
-63.45712
 20
7.31299
 30
0.0
 10
-63.45712
 20
7.31299
 30
0.0
 10
-63.45712
 20
7.31299
 30
0.0
 10
-63.45712
 20
8.6367
 30
0.0
 10
-63.45712
 20
8.6367
 30
0.0
 10
-63.45712
 20
8.6367
 30
0.0
 10
-63.45712
 20
8.6367
 30
0.0
 10
-62.85704
 20
8.6367
 30
0.0
 10
-62.85704
 20
8.6367
 30
0.0
 10
-62.85704
 20
8.6367
 30
0.0
 10
-62.85704
 20
8.6367
 30
0.0
 10
-62.85704
 20
9.96015
 30
0.0
 10
-62.85704
 20
9.96015
 30
0.0
 10
-62.85704
 20
9.96015
 30
0.0
 10
-62.85704
 20
9.96015
 30
0.0
 10
-63.45712
 20
9.96015
 30
0.0
 10
-63.45712
 20
9.96015
 30
0.0
 10
-63.45712
 20
9.96015
 30
0.0
 10
-63.45712
 20
9.96015
 30
0.0
 10
-63.45712
 20
11.28359
 30
0.0
 10
-63.45712
 20
11.28359
 30
0.0
 10
-63.45712
 20
11.28359
 30
0.0
 10
-63.45712
 20
11.28359
 30
0.0
 10
-62.85704
 20
11.28359
 30
0.0
 10
-62.85704
 20
11.28359
 30
0.0
 10
-62.85704
 20
11.28359
 30
0.0
 10
-62.85704
 20
11.28359
 30
0.0
 10
-62.85704
 20
12.60731
 30
0.0
 10
-62.85704
 20
12.60731
 30
0.0
 10
-62.85704
 20
12.60731
 30
0.0
 10
-62.85704
 20
12.60731
 30
0.0
 10
-63.45712
 20
12.60731
 30
0.0
 10
-63.45712
 20
12.60731
 30
0.0
 10
-63.45712
 20
12.60731
 30
0.0
 10
-63.45712
 20
12.60731
 30
0.0
 10
-63.45712
 20
13.93075
 30
0.0
 10
-63.45712
 20
13.93075
 30
0.0
 10
-63.45712
 20
13.93075
 30
0.0
 10
-63.45712
 20
13.93075
 30
0.0
 10
-62.85704
 20
13.93075
 30
0.0
 10
-62.85704
 20
13.93075
 30
0.0
 10
-62.85704
 20
13.93075
 30
0.0
 10
-62.85704
 20
13.93075
 30
0.0
 10
-62.85704
 20
15.2542
 30
0.0
 10
-62.85704
 20
15.2542
 30
0.0
 10
-62.85704
 20
15.2542
 30
0.0
 10
-62.85704
 20
15.2542
 30
0.0
 10
-63.45712
 20
15.2542
 30
0.0
 10
-63.45712
 20
15.2542
 30
0.0
 10
-63.45712
 20
15.2542
 30
0.0
 10
-63.45712
 20
15.2542
 30
0.0
 10
-63.45712
 20
16.57791
 30
0.0
 10
-63.45712
 20
16.57791
 30
0.0
 10
-63.45712
 20
16.57791
 30
0.0
 10
-63.45712
 20
16.57791
 30
0.0
 10
-62.85704
 20
16.57791
 30
0.0
 10
-62.85704
 20
16.57791
 30
0.0
 10
-62.85704
 20
16.57791
 30
0.0
 10
-62.85704
 20
16.57791
 30
0.0
 10
-62.85704
 20
17.90135
 30
0.0
 10
-62.85704
 20
17.90135
 30
0.0
 10
-62.85704
 20
17.90135
 30
0.0
 10
-62.85704
 20
17.90135
 30
0.0
 10
-63.45712
 20
17.90135
 30
0.0
 10
-63.45712
 20
17.90135
 30
0.0
 10
-63.45712
 20
17.90135
 30
0.0
 10
-63.45712
 20
17.90135
 30
0.0
 10
-63.45712
 20
19.22506
 30
0.0
 10
-63.45712
 20
19.22506
 30
0.0
 10
-63.45712
 20
19.22506
 30
0.0
 10
-63.45712
 20
19.22506
 30
0.0
 10
-62.85704
 20
19.22506
 30
0.0
 10
-62.85704
 20
19.22506
 30
0.0
 10
-62.85704
 20
19.22506
 30
0.0
 10
-62.85704
 20
19.22506
 30
0.0
 10
-62.85704
 20
20.54851
 30
0.0
 10
-62.85704
 20
20.54851
 30
0.0
 10
-62.85704
 20
20.54851
 30
0.0
 10
-62.85704
 20
20.54851
 30
0.0
 10
-63.45712
 20
20.54851
 30
0.0
 10
-63.45712
 20
20.54851
 30
0.0
 10
-63.45712
 20
20.54851
 30
0.0
 10
-63.45712
 20
20.54851
 30
0.0
 10
-63.45712
 20
21.87196
 30
0.0
 10
-63.45712
 20
21.87196
 30
0.0
 10
-63.45712
 20
21.87196
 30
0.0
 10
-63.45712
 20
21.87196
 30
0.0
 10
-62.85704
 20
21.87196
 30
0.0
 10
-62.85704
 20
21.87196
 30
0.0
 10
-62.85704
 20
21.87196
 30
0.0
 10
-62.85704
 20
21.87196
 30
0.0
 10
-62.85704
 20
23.19567
 30
0.0
 10
-62.85704
 20
23.19567
 30
0.0
 10
-62.85704
 20
23.19567
 30
0.0
 10
-62.85704
 20
23.19567
 30
0.0
 10
-63.45712
 20
23.19567
 30
0.0
 10
-63.45712
 20
23.19567
 30
0.0
 10
-63.45712
 20
23.19567
 30
0.0
 10
-63.45712
 20
23.19567
 30
0.0
 10
-63.45712
 20
24.51911
 30
0.0
 10
-63.45712
 20
24.51911
 30
0.0
 10
-63.45712
 20
24.51911
 30
0.0
 10
-63.45712
 20
24.51911
 30
0.0
 10
-62.85704
 20
24.51911
 30
0.0
 10
-62.85704
 20
24.51911
 30
0.0
 10
-62.85704
 20
24.51911
 30
0.0
 10
-62.85704
 20
24.51911
 30
0.0
 10
-62.85704
 20
25.84256
 30
0.0
 10
-62.85704
 20
25.84256
 30
0.0
 10
-62.85704
 20
25.84256
 30
0.0
 10
-62.85704
 20
25.84256
 30
0.0
 10
-62.85704
 20
27.09271
 30
0.0
 10
-62.85704
 20
27.09271
 30
0.0
 10
-62.85704
 20
27.09271
 30
0.0
 10
-62.85704
 20
27.09271
 30
0.0
 10
-62.85699
 20
27.09271
 30
0.0
 10
-62.85699
 20
27.09271
 30
0.0
  0
ENDSEC
  0
SECTION
  2
OBJECTS
  0
DICTIONARY
  5
C
330
0
100
AcDbDictionary
281
     1
  3
ACAD_DETAILVIEWSTYLE
350
D0
  3
ACAD_GROUP
350
D
  3
ACAD_LAYOUT
350
1A
  3
ACAD_MATERIAL
350
43
  3
ACAD_MLEADERSTYLE
350
6B
  3
ACAD_MLINESTYLE
350
17
  3
ACAD_PLOTSETTINGS
350
19
  3
ACAD_PLOTSTYLENAME
350
E
  3
ACAD_SCALELIST
350
47
  3
ACAD_SECTIONVIEWSTYLE
350
D1
  3
ACAD_TABLESTYLE
350
69
  3
ACAD_VISUALSTYLE
350
2A
  3
ACDB_RECOMPOSE_DATA
350
CD
  3
AcDbVariableDictionary
350
95
  0
SUN
  5
6D
330
29
100
AcDbSun
 90
        1
290
     0
 63
     7
421
 16777215
 40
1.0
291
     1
 91
  2455826
 92
 54000000
292
     0
 70
     2
 71
   256
280
     1
  0
DICTIONARY
  5
D0
102
{ACAD_REACTORS
330
C
102
}
330
C
100
AcDbDictionary
281
     1
  0
DICTIONARY
  5
D
102
{ACAD_REACTORS
330
C
102
}
330
C
100
AcDbDictionary
281
     1
  0
DICTIONARY
  5
1A
102
{ACAD_REACTORS
330
C
102
}
330
C
100
AcDbDictionary
281
     1
  3
Layout1
350
1E
  3
Layout2
350
26
  3
Model
350
22
  0
DICTIONARY
  5
43
102
{ACAD_REACTORS
330
C
102
}
330
C
100
AcDbDictionary
281
     1
  3
ByBlock
350
45
  3
ByLayer
350
44
  3
Global
350
46
  0
DICTIONARY
  5
6B
102
{ACAD_REACTORS
330
C
102
}
330
C
100
AcDbDictionary
281
     1
  3
Standard
350
6C
  0
DICTIONARY
  5
17
102
{ACAD_REACTORS
330
C
102
}
330
C
100
AcDbDictionary
281
     1
  3
Standard
350
18
  0
DICTIONARY
  5
19
102
{ACAD_REACTORS
330
C
102
}
330
C
100
AcDbDictionary
281
     1
  0
ACDBDICTIONARYWDFLT
  5
E
102
{ACAD_REACTORS
330
C
102
}
330
C
100
AcDbDictionary
281
     1
  3
Normal
350
F
100
AcDbDictionaryWithDefault
340
F
  0
DICTIONARY
  5
47
102
{ACAD_REACTORS
330
C
102
}
330
C
100
AcDbDictionary
281
     1
  3
A0
350
48
  3
A1
350
49
  3
A2
350
4A
  3
A3
350
4B
  3
A4
350
4C
  3
A5
350
4D
  3
A6
350
4E
  3
A7
350
4F
  3
A8
350
50
  3
A9
350
51
  3
B0
350
52
  3
B1
350
53
  3
B2
350
54
  3
B3
350
55
  3
B4
350
56
  3
B5
350
57
  3
B6
350
58
  3
B7
350
59
  3
B8
350
5A
  3
B9
350
5B
  3
C0
350
5C
  3
C1
350
5D
  3
C2
350
5E
  3
C3
350
5F
  3
C4
350
60
  3
C5
350
61
  3
C6
350
62
  3
C7
350
63
  3
C8
350
64
  3
C9
350
65
  3
D0
350
66
  3
D1
350
67
  3
D2
350
68
  0
DICTIONARY
  5
D1
102
{ACAD_REACTORS
330
C
102
}
330
C
100
AcDbDictionary
281
     1
  0
DICTIONARY
  5
69
102
{ACAD_REACTORS
330
C
102
}
330
C
100
AcDbDictionary
281
     1
  3
Standard
350
6A
  0
DICTIONARY
  5
2A
102
{ACAD_REACTORS
330
C
102
}
330
C
100
AcDbDictionary
281
     1
  3
2dWireframe
350
2F
  3
Basic
350
32
  3
Brighten
350
36
  3
ColorChange
350
3A
  3
Conceptual
350
34
  3
Dim
350
35
  3
EdgeColorOff
350
3D
  3
Facepattern
350
39
  3
Flat
350
2B
  3
FlatWithEdges
350
2C
  3
Gouraud
350
2D
  3
GouraudWithEdges
350
2E
  3
Hidden
350
31
  3
JitterOff
350
3B
  3
Linepattern
350
38
  3
OverhangOff
350
3C
  3
Realistic
350
33
  3
Shaded
350
42
  3
Shaded with edges
350
41
  3
Shades of Gray
350
3E
  3
Sketchy
350
3F
  3
Thicken
350
37
  3
Wireframe
350
30
  3
X-Ray
350
40
  0
XRECORD
  5
CD
102
{ACAD_REACTORS
330
C
102
}
330
C
100
AcDbXrecord
280
     1
 90
        1
330
6A
  0
DICTIONARY
  5
95
102
{ACAD_REACTORS
330
C
102
}
330
C
100
AcDbDictionary
281
     1
  3
CANNOSCALE
350
96
  3
CMLEADERSTYLE
350
CF
  3
CTABLESTYLE
350
CE
  3
XCLIPFRAME
350
97
  0
LAYOUT
  5
1E
102
{ACAD_REACTORS
330
1A
102
}
330
1A
100
AcDbPlotSettings
  1

  2
none_device
  4

  6

 40
0.0
 41
0.0
 42
0.0
 43
0.0
 44
0.0
 45
0.0
 46
0.0
 47
0.0
 48
0.0
 49
0.0
140
0.0
141
0.0
142
1.0
143
1.0
 70
   688
 72
     0
 73
     0
 74
     5
  7

 75
    16
 76
     0
 77
     2
 78
   300
147
1.0
148
0.0
149
0.0
100
AcDbLayout
  1
Layout1
 70
     1
 71
     1
 10
0.0
 20
0.0
 11
12.0
 21
9.0
 12
0.0
 22
0.0
 32
0.0
 14
1.000000000000000E+20
 24
1.000000000000000E+20
 34
1.000000000000000E+20
 15
-1.000000000000000E+20
 25
-1.000000000000000E+20
 35
-1.000000000000000E+20
146
0.0
 13
0.0
 23
0.0
 33
0.0
 16
1.0
 26
0.0
 36
0.0
 17
0.0
 27
1.0
 37
0.0
 76
     0
330
1B
  0
LAYOUT
  5
26
102
{ACAD_REACTORS
330
1A
102
}
330
1A
100
AcDbPlotSettings
  1

  2
none_device
  4

  6

 40
0.0
 41
0.0
 42
0.0
 43
0.0
 44
0.0
 45
0.0
 46
0.0
 47
0.0
 48
0.0
 49
0.0
140
0.0
141
0.0
142
1.0
143
1.0
 70
   688
 72
     0
 73
     0
 74
     5
  7

 75
    16
 76
     0
 77
     2
 78
   300
147
1.0
148
0.0
149
0.0
100
AcDbLayout
  1
Layout2
 70
     1
 71
     2
 10
0.0
 20
0.0
 11
0.0
 21
0.0
 12
0.0
 22
0.0
 32
0.0
 14
0.0
 24
0.0
 34
0.0
 15
0.0
 25
0.0
 35
0.0
146
0.0
 13
0.0
 23
0.0
 33
0.0
 16
1.0
 26
0.0
 36
0.0
 17
0.0
 27
1.0
 37
0.0
 76
     0
330
23
  0
LAYOUT
  5
22
102
{ACAD_REACTORS
330
1A
102
}
330
1A
100
AcDbPlotSettings
  1

  2
none_device
  4
Letter_(8.50_x_11.00_Inches)
  6

 40
6.35
 41
6.35
 42
6.35000508
 43
6.35000508
 44
215.9
 45
279.4
 46
0.0
 47
0.0
 48
0.0
 49
0.0
140
0.0
141
0.0
142
1.0
143
1.0
 70
  1712
 72
     0
 73
     0
 74
     0
  7

 75
     0
 76
     0
 77
     2
 78
   300
147
1.0
148
0.0
149
0.0
100
AcDbLayout
  1
Model
 70
     1
 71
     0
 10
0.0
 20
0.0
 11
12.0
 21
9.0
 12
0.0
 22
0.0
 32
0.0
 14
-181.9322
 24
-14.9111
 34
0.0
 15
-18.39615
 25
27.09653
 35
0.0
146
0.0
 13
0.0
 23
0.0
 33
0.0
 16
1.0
 26
0.0
 36
0.0
 17
0.0
 27
1.0
 37
0.0
 76
     0
330
1F
331
29
  0
MATERIAL
  5
45
102
{ACAD_REACTORS
330
43
102
}
330
43
100
AcDbMaterial
  1
ByBlock
 72
     1
 94
      127
  0
MATERIAL
  5
44
102
{ACAD_REACTORS
330
43
102
}
330
43
100
AcDbMaterial
  1
ByLayer
 72
     1
 94
      127
  0
MATERIAL
  5
46
102
{ACAD_REACTORS
330
43
102
}
330
43
100
AcDbMaterial
  1
Global
 72
     1
 94
      127
  0
MLEADERSTYLE
  5
6C
102
{ACAD_REACTORS
330
6B
102
}
102
{ACAD_XDICTIONARY
360
CB
102
}
330
6B
100
AcDbMLeaderStyle
170
     2
171
     1
172
     0
 90
        2
 40
0.0
 41
0.0
173
     1
 91
-1056964608
340
14
 92
       -2
290
     1
 42
0.09
291
     1
 43
0.36
  3
Standard
341
0
 44
0.18
300

342
11
174
     1
178
     6
175
     1
176
     0
 93
-1056964608
 45
0.18
292
     0
297
     0
 46
0.18
343
0
 94
-1056964608
 47
1.0
 49
1.0
140
1.0
293
     1
141
0.0
294
     1
177
     0
142
1.0
295
     0
296
     0
143
0.125
1001
ACAD_MLEADERVER
1070
     2
  0
MLINESTYLE
  5
18
102
{ACAD_REACTORS
330
17
102
}
330
17
100
AcDbMlineStyle
  2
Standard
 70
     0
  3

 62
   256
 51
90.0
 52
90.0
 71
     2
 49
0.5
 62
   256
  6
BYLAYER
 49
-0.5
 62
   256
  6
BYLAYER
  0
ACDBPLACEHOLDER
  5
F
102
{ACAD_REACTORS
330
E
102
}
330
E
  0
SCALE
  5
48
102
{ACAD_REACTORS
330
47
102
}
330
47
100
AcDbScale
 70
     0
300
1:1
140
1.0
141
1.0
290
     1
  0
SCALE
  5
49
102
{ACAD_REACTORS
330
47
102
}
330
47
100
AcDbScale
 70
     0
300
1:2
140
1.0
141
2.0
290
     0
  0
SCALE
  5
4A
102
{ACAD_REACTORS
330
47
102
}
330
47
100
AcDbScale
 70
     0
300
1:4
140
1.0
141
4.0
290
     0
  0
SCALE
  5
4B
102
{ACAD_REACTORS
330
47
102
}
330
47
100
AcDbScale
 70
     0
300
1:5
140
1.0
141
5.0
290
     0
  0
SCALE
  5
4C
102
{ACAD_REACTORS
330
47
102
}
330
47
100
AcDbScale
 70
     0
300
1:8
140
1.0
141
8.0
290
     0
  0
SCALE
  5
4D
102
{ACAD_REACTORS
330
47
102
}
330
47
100
AcDbScale
 70
     0
300
1:10
140
1.0
141
10.0
290
     0
  0
SCALE
  5
4E
102
{ACAD_REACTORS
330
47
102
}
330
47
100
AcDbScale
 70
     0
300
1:16
140
1.0
141
16.0
290
     0
  0
SCALE
  5
4F
102
{ACAD_REACTORS
330
47
102
}
330
47
100
AcDbScale
 70
     0
300
1:20
140
1.0
141
20.0
290
     0
  0
SCALE
  5
50
102
{ACAD_REACTORS
330
47
102
}
330
47
100
AcDbScale
 70
     0
300
1:30
140
1.0
141
30.0
290
     0
  0
SCALE
  5
51
102
{ACAD_REACTORS
330
47
102
}
330
47
100
AcDbScale
 70
     0
300
1:40
140
1.0
141
40.0
290
     0
  0
SCALE
  5
52
102
{ACAD_REACTORS
330
47
102
}
330
47
100
AcDbScale
 70
     0
300
1:50
140
1.0
141
50.0
290
     0
  0
SCALE
  5
53
102
{ACAD_REACTORS
330
47
102
}
330
47
100
AcDbScale
 70
     0
300
1:100
140
1.0
141
100.0
290
     0
  0
SCALE
  5
54
102
{ACAD_REACTORS
330
47
102
}
330
47
100
AcDbScale
 70
     0
300
2:1
140
2.0
141
1.0
290
     0
  0
SCALE
  5
55
102
{ACAD_REACTORS
330
47
102
}
330
47
100
AcDbScale
 70
     0
300
4:1
140
4.0
141
1.0
290
     0
  0
SCALE
  5
56
102
{ACAD_REACTORS
330
47
102
}
330
47
100
AcDbScale
 70
     0
300
8:1
140
8.0
141
1.0
290
     0
  0
SCALE
  5
57
102
{ACAD_REACTORS
330
47
102
}
330
47
100
AcDbScale
 70
     0
300
10:1
140
10.0
141
1.0
290
     0
  0
SCALE
  5
58
102
{ACAD_REACTORS
330
47
102
}
330
47
100
AcDbScale
 70
     0
300
100:1
140
100.0
141
1.0
290
     0
  0
SCALE
  5
59
102
{ACAD_REACTORS
330
47
102
}
330
47
100
AcDbScale
 70
     0
300
1/128" = 1'-0"
140
0.0078125
141
12.0
290
     0
  0
SCALE
  5
5A
102
{ACAD_REACTORS
330
47
102
}
330
47
100
AcDbScale
 70
     0
300
1/64" = 1'-0"
140
0.015625
141
12.0
290
     0
  0
SCALE
  5
5B
102
{ACAD_REACTORS
330
47
102
}
330
47
100
AcDbScale
 70
     0
300
1/32" = 1'-0"
140
0.03125
141
12.0
290
     0
  0
SCALE
  5
5C
102
{ACAD_REACTORS
330
47
102
}
330
47
100
AcDbScale
 70
     0
300
1/16" = 1'-0"
140
0.0625
141
12.0
290
     0
  0
SCALE
  5
5D
102
{ACAD_REACTORS
330
47
102
}
330
47
100
AcDbScale
 70
     0
300
3/32" = 1'-0"
140
0.09375
141
12.0
290
     0
  0
SCALE
  5
5E
102
{ACAD_REACTORS
330
47
102
}
330
47
100
AcDbScale
 70
     0
300
1/8" = 1'-0"
140
0.125
141
12.0
290
     0
  0
SCALE
  5
5F
102
{ACAD_REACTORS
330
47
102
}
330
47
100
AcDbScale
 70
     0
300
3/16" = 1'-0"
140
0.1875
141
12.0
290
     0
  0
SCALE
  5
60
102
{ACAD_REACTORS
330
47
102
}
330
47
100
AcDbScale
 70
     0
300
1/4" = 1'-0"
140
0.25
141
12.0
290
     0
  0
SCALE
  5
61
102
{ACAD_REACTORS
330
47
102
}
330
47
100
AcDbScale
 70
     0
300
3/8" = 1'-0"
140
0.375
141
12.0
290
     0
  0
SCALE
  5
62
102
{ACAD_REACTORS
330
47
102
}
330
47
100
AcDbScale
 70
     0
300
1/2" = 1'-0"
140
0.5
141
12.0
290
     0
  0
SCALE
  5
63
102
{ACAD_REACTORS
330
47
102
}
330
47
100
AcDbScale
 70
     0
300
3/4" = 1'-0"
140
0.75
141
12.0
290
     0
  0
SCALE
  5
64
102
{ACAD_REACTORS
330
47
102
}
330
47
100
AcDbScale
 70
     0
300
1" = 1'-0"
140
1.0
141
12.0
290
     0
  0
SCALE
  5
65
102
{ACAD_REACTORS
330
47
102
}
330
47
100
AcDbScale
 70
     0
300
1-1/2" = 1'-0"
140
1.5
141
12.0
290
     0
  0
SCALE
  5
66
102
{ACAD_REACTORS
330
47
102
}
330
47
100
AcDbScale
 70
     0
300
3" = 1'-0"
140
3.0
141
12.0
290
     0
  0
SCALE
  5
67
102
{ACAD_REACTORS
330
47
102
}
330
47
100
AcDbScale
 70
     0
300
6" = 1'-0"
140
6.0
141
12.0
290
     0
  0
SCALE
  5
68
102
{ACAD_REACTORS
330
47
102
}
330
47
100
AcDbScale
 70
     0
300
1'-0" = 1'-0"
140
12.0
141
12.0
290
     0
  0
TABLESTYLE
  5
6A
102
{ACAD_REACTORS
330
69
102
}
102
{ACAD_XDICTIONARY
360
C8
102
}
330
69
100
AcDbTableStyle
  3
Standard
 70
     0
 71
     0
 40
0.06
 41
0.06
280
     0
281
     0
  7
Standard
140
0.18
170
     2
 62
     0
 63
   257
283
     0
 90
        4
 91
        0
  1

274
    -2
284
     1
 64
     0
275
    -2
285
     1
 65
     0
276
    -2
286
     1
 66
     0
277
    -2
287
     1
 67
     0
278
    -2
288
     1
 68
     0
279
    -2
289
     1
 69
     0
  7
Standard
140
0.25
170
     5
 62
     0
 63
   257
283
     0
 90
        4
 91
        0
  1

274
    -2
284
     1
 64
     0
275
    -2
285
     1
 65
     0
276
    -2
286
     1
 66
     0
277
    -2
287
     1
 67
     0
278
    -2
288
     1
 68
     0
279
    -2
289
     1
 69
     0
  7
Standard
140
0.18
170
     5
 62
     0
 63
   257
283
     0
 90
        4
 91
        0
  1

274
    -2
284
     1
 64
     0
275
    -2
285
     1
 65
     0
276
    -2
286
     1
 66
     0
277
    -2
287
     1
 67
     0
278
    -2
288
     1
 68
     0
279
    -2
289
     1
 69
     0
  0
VISUALSTYLE
  5
2F
102
{ACAD_REACTORS
330
2A
102
}
102
{ACAD_XDICTIONARY
360
A0
102
}
330
2A
100
AcDbVisualStyle
  2
2dWireframe
 70
     4
 71
     0
 72
     2
 73
     0
 90
        0
 40
0.6
 41
30.0
 62
     5
 63
     7
421
 16777215
 74
     1
 91
        4
 64
     7
 65
   257
 75
     1
175
     1
 42
1.0
 92
        0
 66
   257
 43
1.0
 76
     1
 77
     6
 78
     2
 67
     7
 79
     5
170
     0
171
     0
290
     0
174
     0
 93
        1
 44
0.0
173
     0
291
     0
 45
0.0
  0
VISUALSTYLE
  5
32
102
{ACAD_REACTORS
330
2A
102
}
102
{ACAD_XDICTIONARY
360
A6
102
}
330
2A
100
AcDbVisualStyle
  2
Basic
 70
     7
 71
     1
 72
     0
 73
     1
 90
        0
 40
0.6
 41
30.0
 62
     5
 63
     7
421
 16777215
 74
     0
 91
        4
 64
     7
 65
   257
 75
     1
175
     1
 42
1.0
 92
        8
 66
     7
 43
1.0
 76
     1
 77
     6
 78
     2
 67
     7
 79
     5
170
     0
171
     0
290
     0
174
     0
 93
        1
 44
0.0
173
     0
291
     1
 45
0.0
  0
VISUALSTYLE
  5
36
102
{ACAD_REACTORS
330
2A
102
}
102
{ACAD_XDICTIONARY
360
AE
102
}
330
2A
100
AcDbVisualStyle
  2
Brighten
 70
    12
 71
     2
 72
     2
 73
     0
 90
        0
 40
0.6
 41
30.0
 62
     5
 63
     7
421
 16777215
 74
     1
 91
        4
 64
     7
 65
   257
 75
     1
175
     1
 42
1.0
 92
        8
 66
     7
 43
1.0
 76
     1
 77
     6
 78
     2
 67
     7
 79
     5
170
     0
171
     0
290
     0
174
     0
 93
        1
 44
50.0
173
     0
291
     1
 45
0.0
  0
VISUALSTYLE
  5
3A
102
{ACAD_REACTORS
330
2A
102
}
102
{ACAD_XDICTIONARY
360
B6
102
}
330
2A
100
AcDbVisualStyle
  2
ColorChange
 70
    16
 71
     2
 72
     2
 73
     3
 90
        0
 40
0.6
 41
30.0
 62
     5
 63
     8
421
  8421504
 74
     1
 91
        4
 64
     7
 65
   257
 75
     1
175
     1
 42
1.0
 92
        8
 66
     8
424
  8421504
 43
1.0
 76
     1
 77
     6
 78
     2
 67
     7
 79
     5
170
     0
171
     0
290
     0
174
     0
 93
        1
 44
0.0
173
     0
291
     1
 45
0.0
  0
VISUALSTYLE
  5
34
102
{ACAD_REACTORS
330
2A
102
}
102
{ACAD_XDICTIONARY
360
AA
102
}
330
2A
100
AcDbVisualStyle
  2
Conceptual
 70
     9
 71
     3
 72
     2
 73
     0
 90
        0
 40
0.6
 41
30.0
 62
     5
 63
     7
421
 16777215
 74
     2
 91
        2
 64
     7
 65
   257
 75
     1
175
     1
 42
179.0
 92
        8
 66
     7
 43
1.0
 76
     1
 77
     6
 78
     2
 67
     7
 79
     3
170
     0
171
     0
290
     0
174
     0
 93
        1
 44
0.0
173
     0
291
     0
 45
0.0
  0
VISUALSTYLE
  5
35
102
{ACAD_REACTORS
330
2A
102
}
102
{ACAD_XDICTIONARY
360
AC
102
}
330
2A
100
AcDbVisualStyle
  2
Dim
 70
    11
 71
     2
 72
     2
 73
     0
 90
        0
 40
0.6
 41
30.0
 62
     5
 63
     7
421
 16777215
 74
     1
 91
        4
 64
     7
 65
   257
 75
     1
175
     1
 42
1.0
 92
        8
 66
     7
 43
1.0
 76
     1
 77
     6
 78
     2
 67
     7
 79
     5
170
     0
171
     0
290
     0
174
     0
 93
        1
 44
-50.0
173
     0
291
     1
 45
0.0
  0
VISUALSTYLE
  5
3D
102
{ACAD_REACTORS
330
2A
102
}
102
{ACAD_XDICTIONARY
360
BC
102
}
330
2A
100
AcDbVisualStyle
  2
EdgeColorOff
 70
    22
 71
     2
 72
     2
 73
     0
 90
        0
 40
0.6
 41
30.0
 62
     5
 63
     7
421
 16777215
 74
     1
 91
        4
 64
     7
 65
   257
 75
     1
175
     1
 42
1.0
 92
        8
 66
     7
 43
1.0
 76
     1
 77
     6
 78
     2
 67
     7
 79
     5
170
     0
171
     0
290
     0
174
     0
 93
        1
 44
0.0
173
     0
291
     1
 45
0.0
  0
VISUALSTYLE
  5
39
102
{ACAD_REACTORS
330
2A
102
}
102
{ACAD_XDICTIONARY
360
B4
102
}
330
2A
100
AcDbVisualStyle
  2
Facepattern
 70
    15
 71
     2
 72
     2
 73
     0
 90
        0
 40
0.6
 41
30.0
 62
     5
 63
     7
421
 16777215
 74
     1
 91
        4
 64
     7
 65
   257
 75
     1
175
     1
 42
1.0
 92
        8
 66
     7
 43
1.0
 76
     1
 77
     6
 78
     2
 67
     7
 79
     5
170
     0
171
     0
290
     0
174
     0
 93
        1
 44
0.0
173
     0
291
     1
 45
0.0
  0
VISUALSTYLE
  5
2B
102
{ACAD_REACTORS
330
2A
102
}
102
{ACAD_XDICTIONARY
360
98
102
}
330
2A
100
AcDbVisualStyle
  2
Flat
 70
     0
 71
     2
 72
     1
 73
     1
 90
        2
 40
0.6
 41
30.0
 62
     5
 63
     7
421
 16777215
 74
     0
 91
        0
 64
     7
 65
   257
 75
     1
175
     1
 42
1.0
 92
        8
 66
     7
 43
1.0
 76
     1
 77
     6
 78
     2
 67
     7
 79
     5
170
     0
171
     0
290
     0
174
     0
 93
       13
 44
0.0
173
     0
291
     1
 45
0.0
  0
VISUALSTYLE
  5
2C
102
{ACAD_REACTORS
330
2A
102
}
102
{ACAD_XDICTIONARY
360
9A
102
}
330
2A
100
AcDbVisualStyle
  2
FlatWithEdges
 70
     1
 71
     2
 72
     1
 73
     1
 90
        2
 40
0.6
 41
30.0
 62
     5
 63
     7
421
 16777215
 74
     1
 91
        0
 64
     7
 65
   257
 75
     1
175
     1
 42
1.0
 92
        0
 66
   257
 43
1.0
 76
     1
 77
     6
 78
     2
 67
     7
 79
     5
170
     0
171
     0
290
     0
174
     0
 93
       13
 44
0.0
173
     0
291
     1
 45
0.0
  0
VISUALSTYLE
  5
2D
102
{ACAD_REACTORS
330
2A
102
}
102
{ACAD_XDICTIONARY
360
9C
102
}
330
2A
100
AcDbVisualStyle
  2
Gouraud
 70
     2
 71
     2
 72
     2
 73
     1
 90
        2
 40
0.6
 41
30.0
 62
     5
 63
     7
421
 16777215
 74
     0
 91
        0
 64
     7
 65
   257
 75
     1
175
     1
 42
1.0
 92
        0
 66
     7
 43
1.0
 76
     1
 77
     6
 78
     2
 67
     7
 79
     5
170
     0
171
     0
290
     0
174
     0
 93
       13
 44
0.0
173
     0
291
     1
 45
0.0
  0
VISUALSTYLE
  5
2E
102
{ACAD_REACTORS
330
2A
102
}
102
{ACAD_XDICTIONARY
360
9E
102
}
330
2A
100
AcDbVisualStyle
  2
GouraudWithEdges
 70
     3
 71
     2
 72
     2
 73
     1
 90
        2
 40
0.6
 41
30.0
 62
     5
 63
     7
421
 16777215
 74
     1
 91
        0
 64
     7
 65
   257
 75
     1
175
     1
 42
1.0
 92
        0
 66
   257
 43
1.0
 76
     1
 77
     6
 78
     2
 67
     7
 79
     5
170
     0
171
     0
290
     0
174
     0
 93
       13
 44
0.0
173
     0
291
     1
 45
0.0
  0
VISUALSTYLE
  5
31
102
{ACAD_REACTORS
330
2A
102
}
102
{ACAD_XDICTIONARY
360
A4
102
}
330
2A
100
AcDbVisualStyle
  2
Hidden
 70
     6
 71
     1
 72
     2
 73
     2
 90
        0
 40
0.6
 41
30.0
 62
     5
 63
     7
421
 16777215
 74
     2
 91
        2
 64
     7
 65
   257
 75
     2
175
     1
 42
40.0
 92
        0
 66
   257
 43
1.0
 76
     1
 77
     6
 78
     2
 67
     7
 79
     3
170
     0
171
     0
290
     0
174
     0
 93
        1
 44
0.0
173
     0
291
     0
 45
0.0
  0
VISUALSTYLE
  5
3B
102
{ACAD_REACTORS
330
2A
102
}
102
{ACAD_XDICTIONARY
360
B8
102
}
330
2A
100
AcDbVisualStyle
  2
JitterOff
 70
    20
 71
     2
 72
     2
 73
     0
 90
        0
 40
0.6
 41
30.0
 62
     5
 63
     7
421
 16777215
 74
     1
 91
        4
 64
     7
 65
   257
 75
     1
175
     1
 42
1.0
 92
       10
 66
     7
 43
1.0
 76
     1
 77
     6
 78
     2
 67
     7
 79
     5
170
     0
171
     0
290
     0
174
     0
 93
        1
 44
0.0
173
     0
291
     1
 45
0.0
  0
VISUALSTYLE
  5
38
102
{ACAD_REACTORS
330
2A
102
}
102
{ACAD_XDICTIONARY
360
B2
102
}
330
2A
100
AcDbVisualStyle
  2
Linepattern
 70
    14
 71
     2
 72
     2
 73
     0
 90
        0
 40
0.6
 41
30.0
 62
     5
 63
     7
421
 16777215
 74
     1
 91
        4
 64
     7
 65
   257
 75
     7
175
     7
 42
1.0
 92
        8
 66
     7
 43
1.0
 76
     1
 77
     6
 78
     2
 67
     7
 79
     5
170
     0
171
     0
290
     0
174
     0
 93
        1
 44
0.0
173
     0
291
     1
 45
0.0
  0
VISUALSTYLE
  5
3C
102
{ACAD_REACTORS
330
2A
102
}
102
{ACAD_XDICTIONARY
360
BA
102
}
330
2A
100
AcDbVisualStyle
  2
OverhangOff
 70
    21
 71
     2
 72
     2
 73
     0
 90
        0
 40
0.6
 41
30.0
 62
     5
 63
     7
421
 16777215
 74
     1
 91
        4
 64
     7
 65
   257
 75
     1
175
     1
 42
1.0
 92
        9
 66
     7
 43
1.0
 76
     1
 77
     6
 78
     2
 67
     7
 79
     5
170
     0
171
     0
290
     0
174
     0
 93
        1
 44
0.0
173
     0
291
     1
 45
0.0
  0
VISUALSTYLE
  5
33
102
{ACAD_REACTORS
330
2A
102
}
102
{ACAD_XDICTIONARY
360
A8
102
}
330
2A
100
AcDbVisualStyle
  2
Realistic
 70
     8
 71
     2
 72
     3
 73
     0
 90
        2
 40
0.6
 41
30.0
 62
     5
 63
     7
421
 16777215
 74
     0
 91
        0
 64
     7
 65
   257
 75
     1
175
     1
 42
1.0
 92
        8
 66
   257
 43
1.0
 76
     1
 77
     6
 78
     2
 67
     7
 79
     3
170
     0
171
     0
290
     0
174
     0
 93
       13
 44
0.0
173
     0
291
     0
 45
0.0
  0
VISUALSTYLE
  5
42
102
{ACAD_REACTORS
330
2A
102
}
102
{ACAD_XDICTIONARY
360
C6
102
}
330
2A
100
AcDbVisualStyle
  2
Shaded
 70
    27
 71
     2
 72
     2
 73
     1
 90
        2
 40
0.6
 41
30.0
 62
     5
 63
     7
421
 16777215
 74
     0
 91
        4
 64
     7
 65
   257
 75
     1
175
     1
 42
1.0
 92
        8
 66
   257
 43
1.0
 76
     1
 77
     6
 78
     2
 67
     8
425
  7895160
 79
     3
170
     0
171
     0
290
     0
174
     0
 93
        5
 44
0.0
173
     0
291
     0
 45
0.0
  0
VISUALSTYLE
  5
41
102
{ACAD_REACTORS
330
2A
102
}
102
{ACAD_XDICTIONARY
360
C4
102
}
330
2A
100
AcDbVisualStyle
  2
Shaded with edges
 70
    26
 71
     2
 72
     2
 73
     1
 90
        2
 40
0.6
 41
30.0
 62
     5
 63
     7
421
 16777215
 74
     1
 91
       10
 64
     7
 65
   257
 75
     2
175
     1
 42
1.0
 92
        8
 66
   257
 43
1.0
 76
     1
 77
     6
 78
     2
 67
     7
 79
     3
170
     0
171
     0
290
     0
174
     0
 93
        5
 44
0.0
173
     0
291
     0
 45
0.0
  0
VISUALSTYLE
  5
3E
102
{ACAD_REACTORS
330
2A
102
}
102
{ACAD_XDICTIONARY
360
BE
102
}
330
2A
100
AcDbVisualStyle
  2
Shades of Gray
 70
    23
 71
     2
 72
     2
 73
     3
 90
        0
 40
0.6
 41
30.0
 62
     5
 63
     7
421
 16777215
 74
     2
 91
        2
 64
     7
 65
     7
 75
     1
175
     1
 42
40.0
 92
        8
 66
     7
 43
1.0
 76
     1
 77
     6
 78
     2
 67
     7
 79
     3
170
     0
171
     0
290
     0
174
     0
 93
        1
 44
0.0
173
     0
291
     0
 45
0.0
  0
VISUALSTYLE
  5
3F
102
{ACAD_REACTORS
330
2A
102
}
102
{ACAD_XDICTIONARY
360
C0
102
}
330
2A
100
AcDbVisualStyle
  2
Sketchy
 70
    24
 71
     1
 72
     2
 73
     2
 90
        0
 40
0.6
 41
30.0
 62
     5
 63
     7
421
 16777215
 74
     2
 91
        2
 64
     7
 65
     7
 75
     1
175
     1
 42
40.0
 92
       11
 66
     7
 43
1.0
 76
     1
 77
     6
 78
     2
 67
     7
 79
     6
170
     0
171
     0
290
     0
174
     0
 93
        1
 44
0.0
173
     0
291
     0
 45
0.0
  0
VISUALSTYLE
  5
37
102
{ACAD_REACTORS
330
2A
102
}
102
{ACAD_XDICTIONARY
360
B0
102
}
330
2A
100
AcDbVisualStyle
  2
Thicken
 70
    13
 71
     2
 72
     2
 73
     0
 90
        0
 40
0.6
 41
30.0
 62
     5
 63
     7
421
 16777215
 74
     1
 91
        4
 64
     7
 65
   257
 75
     1
175
     1
 42
1.0
 92
       12
 66
     7
 43
1.0
 76
     1
 77
     6
 78
     2
 67
     7
 79
     5
170
     0
171
     0
290
     0
174
     0
 93
        1
 44
0.0
173
     0
291
     1
 45
0.0
  0
VISUALSTYLE
  5
30
102
{ACAD_REACTORS
330
2A
102
}
102
{ACAD_XDICTIONARY
360
A2
102
}
330
2A
100
AcDbVisualStyle
  2
Wireframe
 70
     5
 71
     0
 72
     2
 73
     0
 90
        0
 40
0.6
 41
30.0
 62
     5
 63
     7
421
 16777215
 74
     1
 91
        4
 64
     7
 65
   257
 75
     1
175
     1
 42
1.0
 92
        0
 66
   257
 43
1.0
 76
     1
 77
     6
 78
     2
 67
     7
 79
     3
170
     0
171
     0
290
     0
174
     0
 93
        1
 44
0.0
173
     0
291
     0
 45
0.0
  0
VISUALSTYLE
  5
40
102
{ACAD_REACTORS
330
2A
102
}
102
{ACAD_XDICTIONARY
360
C2
102
}
330
2A
100
AcDbVisualStyle
  2
X-Ray
 70
    25
 71
     2
 72
     2
 73
     1
 90
        1
 40
0.5
 41
30.0
 62
     5
 63
     7
421
 16777215
 74
     1
 91
        0
 64
     7
 65
   257
 75
     1
175
     1
 42
1.0
 92
        8
 66
     7
 43
1.0
 76
     1
 77
     6
 78
     2
 67
     7
 79
     3
170
     0
171
     0
290
     0
174
     0
 93
       13
 44
0.0
173
     0
291
     0
 45
0.0
  0
DICTIONARYVAR
  5
96
102
{ACAD_REACTORS
330
95
102
}
330
95
100
DictionaryVariables
280
     0
  1
1:1
  0
DICTIONARYVAR
  5
CF
102
{ACAD_REACTORS
330
95
102
}
330
95
100
DictionaryVariables
280
     0
  1
Standard
  0
DICTIONARYVAR
  5
CE
102
{ACAD_REACTORS
330
95
102
}
330
95
100
DictionaryVariables
280
     0
  1
Standard
  0
DICTIONARYVAR
  5
97
102
{ACAD_REACTORS
330
95
102
}
330
95
100
DictionaryVariables
280
     0
  1
2
  0
DICTIONARY
  5
CB
330
6C
100
AcDbDictionary
280
     1
281
     1
  3
ACAD_XREC_ROUNDTRIP
360
CC
  0
DICTIONARY
  5
C8
330
6A
100
AcDbDictionary
280
     1
281
     1
  3
ACAD_ROUNDTRIP_2008_TABLESTYLE_CELLSTYLEMAP
360
C9
  0
DICTIONARY
  5
A0
330
2F
100
AcDbDictionary
280
     1
281
     1
  3
ACAD_XREC_ROUNDTRIP
360
A1
  0
DICTIONARY
  5
A6
330
32
100
AcDbDictionary
280
     1
281
     1
  3
ACAD_XREC_ROUNDTRIP
360
A7
  0
DICTIONARY
  5
AE
330
36
100
AcDbDictionary
280
     1
281
     1
  3
ACAD_XREC_ROUNDTRIP
360
AF
  0
DICTIONARY
  5
B6
330
3A
100
AcDbDictionary
280
     1
281
     1
  3
ACAD_XREC_ROUNDTRIP
360
B7
  0
DICTIONARY
  5
AA
330
34
100
AcDbDictionary
280
     1
281
     1
  3
ACAD_XREC_ROUNDTRIP
360
AB
  0
DICTIONARY
  5
AC
330
35
100
AcDbDictionary
280
     1
281
     1
  3
ACAD_XREC_ROUNDTRIP
360
AD
  0
DICTIONARY
  5
BC
330
3D
100
AcDbDictionary
280
     1
281
     1
  3
ACAD_XREC_ROUNDTRIP
360
BD
  0
DICTIONARY
  5
B4
330
39
100
AcDbDictionary
280
     1
281
     1
  3
ACAD_XREC_ROUNDTRIP
360
B5
  0
DICTIONARY
  5
98
330
2B
100
AcDbDictionary
280
     1
281
     1
  3
ACAD_XREC_ROUNDTRIP
360
99
  0
DICTIONARY
  5
9A
330
2C
100
AcDbDictionary
280
     1
281
     1
  3
ACAD_XREC_ROUNDTRIP
360
9B
  0
DICTIONARY
  5
9C
330
2D
100
AcDbDictionary
280
     1
281
     1
  3
ACAD_XREC_ROUNDTRIP
360
9D
  0
DICTIONARY
  5
9E
330
2E
100
AcDbDictionary
280
     1
281
     1
  3
ACAD_XREC_ROUNDTRIP
360
9F
  0
DICTIONARY
  5
A4
330
31
100
AcDbDictionary
280
     1
281
     1
  3
ACAD_XREC_ROUNDTRIP
360
A5
  0
DICTIONARY
  5
B8
330
3B
100
AcDbDictionary
280
     1
281
     1
  3
ACAD_XREC_ROUNDTRIP
360
B9
  0
DICTIONARY
  5
B2
330
38
100
AcDbDictionary
280
     1
281
     1
  3
ACAD_XREC_ROUNDTRIP
360
B3
  0
DICTIONARY
  5
BA
330
3C
100
AcDbDictionary
280
     1
281
     1
  3
ACAD_XREC_ROUNDTRIP
360
BB
  0
DICTIONARY
  5
A8
330
33
100
AcDbDictionary
280
     1
281
     1
  3
ACAD_XREC_ROUNDTRIP
360
A9
  0
DICTIONARY
  5
C6
330
42
100
AcDbDictionary
280
     1
281
     1
  3
ACAD_XREC_ROUNDTRIP
360
C7
  0
DICTIONARY
  5
C4
330
41
100
AcDbDictionary
280
     1
281
     1
  3
ACAD_XREC_ROUNDTRIP
360
C5
  0
DICTIONARY
  5
BE
330
3E
100
AcDbDictionary
280
     1
281
     1
  3
ACAD_XREC_ROUNDTRIP
360
BF
  0
DICTIONARY
  5
C0
330
3F
100
AcDbDictionary
280
     1
281
     1
  3
ACAD_XREC_ROUNDTRIP
360
C1
  0
DICTIONARY
  5
B0
330
37
100
AcDbDictionary
280
     1
281
     1
  3
ACAD_XREC_ROUNDTRIP
360
B1
  0
DICTIONARY
  5
A2
330
30
100
AcDbDictionary
280
     1
281
     1
  3
ACAD_XREC_ROUNDTRIP
360
A3
  0
DICTIONARY
  5
C2
330
40
100
AcDbDictionary
280
     1
281
     1
  3
ACAD_XREC_ROUNDTRIP
360
C3
  0
XRECORD
  5
CC
102
{ACAD_REACTORS
330
CB
102
}
330
CB
100
AcDbXrecord
280
     1
102
ACAD_ROUNDTRIP_2010_MLEADER_STYLE
  0
CELLSTYLEMAP
  5
C9
102
{ACAD_REACTORS
330
C8
102
}
330
C8
100
AcDbCellStyleMap
 90
        3
300
CELLSTYLE
  1
TABLEFORMAT_BEGIN
 90
        5
170
     1
 91
        0
 92
    32768
 62
   257
 93
        1
300
CONTENTFORMAT
  1
CONTENTFORMAT_BEGIN
 90
        0
 91
        0
 92
        4
 93
        0
300

 40
0.0
140
1.0
 94
        5
 62
     0
340
11
144
0.25
309
CONTENTFORMAT_END
171
     1
301
MARGIN
  1
CELLMARGIN_BEGIN
 40
0.06
 40
0.06
 40
0.06
 40
0.06
 40
0.06
 40
0.06
309
CELLMARGIN_END
 94
        6
 95
        1
302
GRIDFORMAT
  1
GRIDFORMAT_BEGIN
 90
        0
 91
        1
 62
     0
 92
       -2
340
14
 93
        0
 40
0.045
309
GRIDFORMAT_END
 95
        2
302
GRIDFORMAT
  1
GRIDFORMAT_BEGIN
 90
        0
 91
        1
 62
     0
 92
       -2
340
14
 93
        0
 40
0.045
309
GRIDFORMAT_END
 95
        4
302
GRIDFORMAT
  1
GRIDFORMAT_BEGIN
 90
        0
 91
        1
 62
     0
 92
       -2
340
14
 93
        0
 40
0.045
309
GRIDFORMAT_END
 95
        8
302
GRIDFORMAT
  1
GRIDFORMAT_BEGIN
 90
        0
 91
        1
 62
     0
 92
       -2
340
14
 93
        0
 40
0.045
309
GRIDFORMAT_END
 95
       16
302
GRIDFORMAT
  1
GRIDFORMAT_BEGIN
 90
        0
 91
        1
 62
     0
 92
       -2
340
14
 93
        0
 40
0.045
309
GRIDFORMAT_END
 95
       32
302
GRIDFORMAT
  1
GRIDFORMAT_BEGIN
 90
        0
 91
        1
 62
     0
 92
       -2
340
14
 93
        0
 40
0.045
309
GRIDFORMAT_END
309
TABLEFORMAT_END
  1
CELLSTYLE_BEGIN
 90
        1
 91
        1
300
_TITLE
309
CELLSTYLE_END
300
CELLSTYLE
  1
TABLEFORMAT_BEGIN
 90
        5
170
     1
 91
        0
 92
        0
 62
   257
 93
        1
300
CONTENTFORMAT
  1
CONTENTFORMAT_BEGIN
 90
        0
 91
        0
 92
        4
 93
        0
300

 40
0.0
140
1.0
 94
        5
 62
     0
340
11
144
0.18
309
CONTENTFORMAT_END
171
     1
301
MARGIN
  1
CELLMARGIN_BEGIN
 40
0.06
 40
0.06
 40
0.06
 40
0.06
 40
0.06
 40
0.06
309
CELLMARGIN_END
 94
        6
 95
        1
302
GRIDFORMAT
  1
GRIDFORMAT_BEGIN
 90
        0
 91
        1
 62
     0
 92
       -2
340
14
 93
        0
 40
0.045
309
GRIDFORMAT_END
 95
        2
302
GRIDFORMAT
  1
GRIDFORMAT_BEGIN
 90
        0
 91
        1
 62
     0
 92
       -2
340
14
 93
        0
 40
0.045
309
GRIDFORMAT_END
 95
        4
302
GRIDFORMAT
  1
GRIDFORMAT_BEGIN
 90
        0
 91
        1
 62
     0
 92
       -2
340
14
 93
        0
 40
0.045
309
GRIDFORMAT_END
 95
        8
302
GRIDFORMAT
  1
GRIDFORMAT_BEGIN
 90
        0
 91
        1
 62
     0
 92
       -2
340
14
 93
        0
 40
0.045
309
GRIDFORMAT_END
 95
       16
302
GRIDFORMAT
  1
GRIDFORMAT_BEGIN
 90
        0
 91
        1
 62
     0
 92
       -2
340
14
 93
        0
 40
0.045
309
GRIDFORMAT_END
 95
       32
302
GRIDFORMAT
  1
GRIDFORMAT_BEGIN
 90
        0
 91
        1
 62
     0
 92
       -2
340
14
 93
        0
 40
0.045
309
GRIDFORMAT_END
309
TABLEFORMAT_END
  1
CELLSTYLE_BEGIN
 90
        2
 91
        1
300
_HEADER
309
CELLSTYLE_END
300
CELLSTYLE
  1
TABLEFORMAT_BEGIN
 90
        5
170
     1
 91
        0
 92
        0
 62
   257
 93
        1
300
CONTENTFORMAT
  1
CONTENTFORMAT_BEGIN
 90
        0
 91
        0
 92
        4
 93
        0
300

 40
0.0
140
1.0
 94
        2
 62
     0
340
11
144
0.18
309
CONTENTFORMAT_END
171
     1
301
MARGIN
  1
CELLMARGIN_BEGIN
 40
0.06
 40
0.06
 40
0.06
 40
0.06
 40
0.06
 40
0.06
309
CELLMARGIN_END
 94
        6
 95
        1
302
GRIDFORMAT
  1
GRIDFORMAT_BEGIN
 90
        0
 91
        1
 62
     0
 92
       -2
340
14
 93
        0
 40
0.045
309
GRIDFORMAT_END
 95
        2
302
GRIDFORMAT
  1
GRIDFORMAT_BEGIN
 90
        0
 91
        1
 62
     0
 92
       -2
340
14
 93
        0
 40
0.045
309
GRIDFORMAT_END
 95
        4
302
GRIDFORMAT
  1
GRIDFORMAT_BEGIN
 90
        0
 91
        1
 62
     0
 92
       -2
340
14
 93
        0
 40
0.045
309
GRIDFORMAT_END
 95
        8
302
GRIDFORMAT
  1
GRIDFORMAT_BEGIN
 90
        0
 91
        1
 62
     0
 92
       -2
340
14
 93
        0
 40
0.045
309
GRIDFORMAT_END
 95
       16
302
GRIDFORMAT
  1
GRIDFORMAT_BEGIN
 90
        0
 91
        1
 62
     0
 92
       -2
340
14
 93
        0
 40
0.045
309
GRIDFORMAT_END
 95
       32
302
GRIDFORMAT
  1
GRIDFORMAT_BEGIN
 90
        0
 91
        1
 62
     0
 92
       -2
340
14
 93
        0
 40
0.045
309
GRIDFORMAT_END
309
TABLEFORMAT_END
  1
CELLSTYLE_BEGIN
 90
        3
 91
        2
300
_DATA
309
CELLSTYLE_END
  0
XRECORD
  5
A1
102
{ACAD_REACTORS
330
A0
102
}
330
A0
100
AcDbXrecord
280
     1
102
RTVSPropertyOp0
 70
     1
102
RTVSPropertyOp1
 70
     1
102
RTVSPropertyOp2
 70
     1
102
RTVSPropertyOp3
 70
     1
102
RTVSPropertyOp4
 70
     1
102
RTVSPropertyOp5
 70
     1
102
RTVSPropertyOp6
 70
     1
102
RTVSPropertyOp7
 70
     1
102
RTVSPropertyOp8
 70
     1
102
RTVSPropertyOp9
 70
     1
102
RTVSPropertyOp10
 70
     1
102
RTVSPropertyOp11
 70
     1
102
RTVSPropertyOp12
 70
     1
102
RTVSPropertyOp13
 70
     1
102
RTVSPropertyOp14
 70
     1
102
RTVSPropertyOp15
 70
     1
102
RTVSPropertyOp16
 70
     1
102
RTVSPropertyOp17
 70
     1
102
RTVSPropertyOp18
 70
     1
102
RTVSPropertyOp19
 70
     1
102
RTVSPropertyOp20
 70
     1
102
RTVSPropertyOp21
 70
     1
102
RTVSPropertyOp22
 70
     1
102
RTVSPropertyOp23
 70
     1
102
RTVSPropertyOp24
 70
     1
102
RTVSPropertyOp25
 70
     1
102
RTVSPropertyOp26
 70
     1
102
RTVSPropertyOp27
 70
     1
102
RTVSPropertyOp28
 70
     1
102
RTVSPropertyOp29
 70
     1
102
RTVSPropertyOp30
 70
     1
102
RTVSPropertyOp31
 70
     1
102
RTVSPropertyOp32
 70
     1
102
RTVSPropertyOp33
 70
     1
102
RTVSPropertyOp34
 70
     1
102
RTVSPropertyOp35
 70
     1
102
RTVSPropertyOp36
 70
     1
102
RTVSPropertyOp37
 70
     1
102
RTVSPropertyOp38
 70
     1
102
RTVSPropertyOp39
 70
     1
102
RTVSPropertyOp40
 70
     1
102
RTVSPropertyOp41
 70
     1
102
RTVSPropertyOp42
 70
     1
102
RTVSPropertyOp43
 70
     1
102
RTVSPropertyOp44
 70
     1
102
RTVSPropertyOp45
 70
     1
102
RTVSPropertyOp46
 70
     1
102
RTVSPropertyOp47
 70
     1
102
RTVSPropertyOp48
 70
     1
102
RTVSPropertyOp49
 70
     1
102
RTVSPropertyOp50
 70
     1
102
RTVSPropertyOp51
 70
     0
102
RTVSPropertyOp52
 70
     0
102
RTVSPropertyOp53
 70
     1
102
RTVSPropertyOp54
 70
     1
102
RTVSPropertyOp55
 70
     1
102
RTVSPropertyOp56
 70
     1
102
RTVSPropertyOp57
 70
     1
102
RTVSPost2010Prop28
280
     1
102
RTVSPost2010PropOp28
 70
     1
102
RTVSPost2010Prop29
280
     1
102
RTVSPost2010PropOp29
 70
     1
102
RTVSPost2010Prop30
280
     0
102
RTVSPost2010PropOp30
 70
     1
102
RTVSPost2010Prop31
280
     0
102
RTVSPost2010PropOp31
 70
     1
102
RTVSPost2010Prop32
280
     0
102
RTVSPost2010PropOp32
 70
     1
102
RTVSPost2010Prop33
280
     0
102
RTVSPost2010PropOp33
 70
     1
102
RTVSPost2010Prop34
280
     0
102
RTVSPost2010PropOp34
 70
     1
102
RTVSPost2010Prop35
280
     0
102
RTVSPost2010PropOp35
 70
     1
102
RTVSPost2010Prop36
280
     0
102
RTVSPost2010PropOp36
 70
     1
102
RTVSPost2010Prop37
 90
       50
102
RTVSPost2010PropOp37
 70
     1
102
RTVSPost2010Prop38
140
0.0
102
RTVSPost2010PropOp38
 70
     1
102
RTVSPost2010Prop39
140
1.0
102
RTVSPost2010PropOp39
 70
     1
102
RTVSPost2010Prop40
 90
        0
102
RTVSPost2010PropOp40
 70
     1
102
RTVSPost2010Prop41ColorIndex
 90
       18
102
RTVSPost2010Prop41ColorRGB
 90
        0
102
RTVSPost2010PropOp41
 70
     1
102
RTVSPost2010Prop42
 90
       50
102
RTVSPost2010PropOp42
 70
     1
102
RTVSPost2010Prop43
 90
        3
102
RTVSPost2010PropOp43
 70
     1
102
RTVSPost2010Prop44ColorIndex
 90
        5
102
RTVSPost2010Prop44ColorRGB
 90
      255
102
RTVSPost2010PropOp44
 70
     1
102
RTVSPost2010Prop45
280
     0
102
RTVSPost2010PropOp45
 70
     1
102
RTVSPost2010Prop46
 90
       50
102
RTVSPost2010PropOp46
 70
     1
102
RTVSPost2010Prop47
 90
       50
102
RTVSPost2010PropOp47
 70
     1
102
RTVSPost2010Prop48
 90
       50
102
RTVSPost2010PropOp48
 70
     1
102
RTVSPost2010Prop49
280
     0
102
RTVSPost2010PropOp49
 70
     1
102
RTVSPost2010Prop50
 90
       50
102
RTVSPost2010PropOp50
 70
     1
102
RTVSPost2010Prop51ColorIndex
 90
      256
102
RTVSPost2010Prop51ColorRGB
 90
-16777216
102
RTVSPost2010PropOp51
 70
     0
102
RTVSPost2010Prop52
140
1.0
102
RTVSPost2010PropOp52
 70
     0
102
RTVSPost2010Prop53
 90
        2
102
RTVSPost2010PropOp53
 70
     1
102
RTVSPost2010Prop54
  1
strokes_ogs.tif
102
RTVSPost2010PropOp54
 70
     1
102
RTVSPost2010Prop55
280
     0
102
RTVSPost2010PropOp55
 70
     1
102
RTVSPost2010Prop56
140
1.0
102
RTVSPost2010PropOp56
 70
     1
102
RTVSPost2010Prop57
140
1.0
102
RTVSPost2010PropOp57
 70
     1
  0
XRECORD
  5
A7
102
{ACAD_REACTORS
330
A6
102
}
330
A6
100
AcDbXrecord
280
     1
102
RTVSPropertyOp0
 70
     1
102
RTVSPropertyOp1
 70
     1
102
RTVSPropertyOp2
 70
     1
102
RTVSPropertyOp3
 70
     1
102
RTVSPropertyOp4
 70
     1
102
RTVSPropertyOp5
 70
     1
102
RTVSPropertyOp6
 70
     1
102
RTVSPropertyOp7
 70
     1
102
RTVSPropertyOp8
 70
     1
102
RTVSPropertyOp9
 70
     1
102
RTVSPropertyOp10
 70
     1
102
RTVSPropertyOp11
 70
     1
102
RTVSPropertyOp12
 70
     1
102
RTVSPropertyOp13
 70
     1
102
RTVSPropertyOp14
 70
     1
102
RTVSPropertyOp15
 70
     1
102
RTVSPropertyOp16
 70
     1
102
RTVSPropertyOp17
 70
     1
102
RTVSPropertyOp18
 70
     1
102
RTVSPropertyOp19
 70
     1
102
RTVSPropertyOp20
 70
     1
102
RTVSPropertyOp21
 70
     1
102
RTVSPropertyOp22
 70
     1
102
RTVSPropertyOp23
 70
     1
102
RTVSPropertyOp24
 70
     1
102
RTVSPropertyOp25
 70
     1
102
RTVSPropertyOp26
 70
     1
102
RTVSPropertyOp27
 70
     1
102
RTVSPropertyOp28
 70
     1
102
RTVSPropertyOp29
 70
     1
102
RTVSPropertyOp30
 70
     1
102
RTVSPropertyOp31
 70
     1
102
RTVSPropertyOp32
 70
     1
102
RTVSPropertyOp33
 70
     1
102
RTVSPropertyOp34
 70
     1
102
RTVSPropertyOp35
 70
     1
102
RTVSPropertyOp36
 70
     1
102
RTVSPropertyOp37
 70
     1
102
RTVSPropertyOp38
 70
     1
102
RTVSPropertyOp39
 70
     1
102
RTVSPropertyOp40
 70
     1
102
RTVSPropertyOp41
 70
     1
102
RTVSPropertyOp42
 70
     1
102
RTVSPropertyOp43
 70
     1
102
RTVSPropertyOp44
 70
     1
102
RTVSPropertyOp45
 70
     1
102
RTVSPropertyOp46
 70
     1
102
RTVSPropertyOp47
 70
     1
102
RTVSPropertyOp48
 70
     1
102
RTVSPropertyOp49
 70
     1
102
RTVSPropertyOp50
 70
     1
102
RTVSPropertyOp51
 70
     0
102
RTVSPropertyOp52
 70
     0
102
RTVSPropertyOp53
 70
     1
102
RTVSPropertyOp54
 70
     1
102
RTVSPropertyOp55
 70
     1
102
RTVSPropertyOp56
 70
     1
102
RTVSPropertyOp57
 70
     1
102
RTVSPost2010Prop28
280
     0
102
RTVSPost2010PropOp28
 70
     1
102
RTVSPost2010Prop29
280
     1
102
RTVSPost2010PropOp29
 70
     1
102
RTVSPost2010Prop30
280
     1
102
RTVSPost2010PropOp30
 70
     1
102
RTVSPost2010Prop31
280
     0
102
RTVSPost2010PropOp31
 70
     1
102
RTVSPost2010Prop32
280
     0
102
RTVSPost2010PropOp32
 70
     1
102
RTVSPost2010Prop33
280
     0
102
RTVSPost2010PropOp33
 70
     1
102
RTVSPost2010Prop34
280
     0
102
RTVSPost2010PropOp34
 70
     1
102
RTVSPost2010Prop35
280
     0
102
RTVSPost2010PropOp35
 70
     1
102
RTVSPost2010Prop36
280
     0
102
RTVSPost2010PropOp36
 70
     1
102
RTVSPost2010Prop37
 90
       50
102
RTVSPost2010PropOp37
 70
     1
102
RTVSPost2010Prop38
140
0.0
102
RTVSPost2010PropOp38
 70
     1
102
RTVSPost2010Prop39
140
1.0
102
RTVSPost2010PropOp39
 70
     1
102
RTVSPost2010Prop40
 90
        0
102
RTVSPost2010PropOp40
 70
     1
102
RTVSPost2010Prop41ColorIndex
 90
       18
102
RTVSPost2010Prop41ColorRGB
 90
        0
102
RTVSPost2010PropOp41
 70
     1
102
RTVSPost2010Prop42
 90
       50
102
RTVSPost2010PropOp42
 70
     1
102
RTVSPost2010Prop43
 90
        3
102
RTVSPost2010PropOp43
 70
     1
102
RTVSPost2010Prop44ColorIndex
 90
        5
102
RTVSPost2010Prop44ColorRGB
 90
      255
102
RTVSPost2010PropOp44
 70
     1
102
RTVSPost2010Prop45
280
     0
102
RTVSPost2010PropOp45
 70
     1
102
RTVSPost2010Prop46
 90
       50
102
RTVSPost2010PropOp46
 70
     1
102
RTVSPost2010Prop47
 90
       50
102
RTVSPost2010PropOp47
 70
     1
102
RTVSPost2010Prop48
 90
       50
102
RTVSPost2010PropOp48
 70
     1
102
RTVSPost2010Prop49
280
     0
102
RTVSPost2010PropOp49
 70
     1
102
RTVSPost2010Prop50
 90
       50
102
RTVSPost2010PropOp50
 70
     1
102
RTVSPost2010Prop51ColorIndex
 90
      256
102
RTVSPost2010Prop51ColorRGB
 90
-16777216
102
RTVSPost2010PropOp51
 70
     0
102
RTVSPost2010Prop52
140
1.0
102
RTVSPost2010PropOp52
 70
     0
102
RTVSPost2010Prop53
 90
        2
102
RTVSPost2010PropOp53
 70
     1
102
RTVSPost2010Prop54
  1
strokes_ogs.tif
102
RTVSPost2010PropOp54
 70
     1
102
RTVSPost2010Prop55
280
     0
102
RTVSPost2010PropOp55
 70
     1
102
RTVSPost2010Prop56
140
1.0
102
RTVSPost2010PropOp56
 70
     1
102
RTVSPost2010Prop57
140
1.0
102
RTVSPost2010PropOp57
 70
     1
  0
XRECORD
  5
AF
102
{ACAD_REACTORS
330
AE
102
}
330
AE
100
AcDbXrecord
280
     1
102
RTVSPropertyOp0
 70
     1
102
RTVSPropertyOp1
 70
     1
102
RTVSPropertyOp2
 70
     1
102
RTVSPropertyOp3
 70
     1
102
RTVSPropertyOp4
 70
     1
102
RTVSPropertyOp5
 70
     1
102
RTVSPropertyOp6
 70
     1
102
RTVSPropertyOp7
 70
     1
102
RTVSPropertyOp8
 70
     1
102
RTVSPropertyOp9
 70
     1
102
RTVSPropertyOp10
 70
     1
102
RTVSPropertyOp11
 70
     1
102
RTVSPropertyOp12
 70
     1
102
RTVSPropertyOp13
 70
     1
102
RTVSPropertyOp14
 70
     1
102
RTVSPropertyOp15
 70
     1
102
RTVSPropertyOp16
 70
     1
102
RTVSPropertyOp17
 70
     1
102
RTVSPropertyOp18
 70
     1
102
RTVSPropertyOp19
 70
     1
102
RTVSPropertyOp20
 70
     1
102
RTVSPropertyOp21
 70
     1
102
RTVSPropertyOp22
 70
     1
102
RTVSPropertyOp23
 70
     1
102
RTVSPropertyOp24
 70
     1
102
RTVSPropertyOp25
 70
     1
102
RTVSPropertyOp26
 70
     1
102
RTVSPropertyOp27
 70
     1
102
RTVSPropertyOp28
 70
     1
102
RTVSPropertyOp29
 70
     1
102
RTVSPropertyOp30
 70
     1
102
RTVSPropertyOp31
 70
     1
102
RTVSPropertyOp32
 70
     1
102
RTVSPropertyOp33
 70
     1
102
RTVSPropertyOp34
 70
     1
102
RTVSPropertyOp35
 70
     1
102
RTVSPropertyOp36
 70
     1
102
RTVSPropertyOp37
 70
     1
102
RTVSPropertyOp38
 70
     1
102
RTVSPropertyOp39
 70
     1
102
RTVSPropertyOp40
 70
     1
102
RTVSPropertyOp41
 70
     1
102
RTVSPropertyOp42
 70
     1
102
RTVSPropertyOp43
 70
     1
102
RTVSPropertyOp44
 70
     1
102
RTVSPropertyOp45
 70
     1
102
RTVSPropertyOp46
 70
     1
102
RTVSPropertyOp47
 70
     1
102
RTVSPropertyOp48
 70
     1
102
RTVSPropertyOp49
 70
     1
102
RTVSPropertyOp50
 70
     1
102
RTVSPropertyOp51
 70
     0
102
RTVSPropertyOp52
 70
     0
102
RTVSPropertyOp53
 70
     1
102
RTVSPropertyOp54
 70
     1
102
RTVSPropertyOp55
 70
     1
102
RTVSPropertyOp56
 70
     1
102
RTVSPropertyOp57
 70
     1
102
RTVSPost2010Prop28
280
     0
102
RTVSPost2010PropOp28
 70
     1
102
RTVSPost2010Prop29
280
     1
102
RTVSPost2010PropOp29
 70
     1
102
RTVSPost2010Prop30
280
     1
102
RTVSPost2010PropOp30
 70
     1
102
RTVSPost2010Prop31
280
     0
102
RTVSPost2010PropOp31
 70
     1
102
RTVSPost2010Prop32
280
     0
102
RTVSPost2010PropOp32
 70
     1
102
RTVSPost2010Prop33
280
     0
102
RTVSPost2010PropOp33
 70
     1
102
RTVSPost2010Prop34
280
     0
102
RTVSPost2010PropOp34
 70
     1
102
RTVSPost2010Prop35
280
     0
102
RTVSPost2010PropOp35
 70
     1
102
RTVSPost2010Prop36
280
     0
102
RTVSPost2010PropOp36
 70
     1
102
RTVSPost2010Prop37
 90
       50
102
RTVSPost2010PropOp37
 70
     1
102
RTVSPost2010Prop38
140
0.0
102
RTVSPost2010PropOp38
 70
     1
102
RTVSPost2010Prop39
140
1.0
102
RTVSPost2010PropOp39
 70
     1
102
RTVSPost2010Prop40
 90
        0
102
RTVSPost2010PropOp40
 70
     1
102
RTVSPost2010Prop41ColorIndex
 90
       18
102
RTVSPost2010Prop41ColorRGB
 90
        0
102
RTVSPost2010PropOp41
 70
     1
102
RTVSPost2010Prop42
 90
       50
102
RTVSPost2010PropOp42
 70
     1
102
RTVSPost2010Prop43
 90
        3
102
RTVSPost2010PropOp43
 70
     1
102
RTVSPost2010Prop44ColorIndex
 90
        5
102
RTVSPost2010Prop44ColorRGB
 90
      255
102
RTVSPost2010PropOp44
 70
     1
102
RTVSPost2010Prop45
280
     0
102
RTVSPost2010PropOp45
 70
     1
102
RTVSPost2010Prop46
 90
       50
102
RTVSPost2010PropOp46
 70
     1
102
RTVSPost2010Prop47
 90
       50
102
RTVSPost2010PropOp47
 70
     1
102
RTVSPost2010Prop48
 90
       50
102
RTVSPost2010PropOp48
 70
     1
102
RTVSPost2010Prop49
280
     0
102
RTVSPost2010PropOp49
 70
     1
102
RTVSPost2010Prop50
 90
       50
102
RTVSPost2010PropOp50
 70
     1
102
RTVSPost2010Prop51ColorIndex
 90
      256
102
RTVSPost2010Prop51ColorRGB
 90
-16777216
102
RTVSPost2010PropOp51
 70
     0
102
RTVSPost2010Prop52
140
1.0
102
RTVSPost2010PropOp52
 70
     0
102
RTVSPost2010Prop53
 90
        2
102
RTVSPost2010PropOp53
 70
     1
102
RTVSPost2010Prop54
  1
strokes_ogs.tif
102
RTVSPost2010PropOp54
 70
     1
102
RTVSPost2010Prop55
280
     0
102
RTVSPost2010PropOp55
 70
     1
102
RTVSPost2010Prop56
140
1.0
102
RTVSPost2010PropOp56
 70
     1
102
RTVSPost2010Prop57
140
1.0
102
RTVSPost2010PropOp57
 70
     1
  0
XRECORD
  5
B7
102
{ACAD_REACTORS
330
B6
102
}
330
B6
100
AcDbXrecord
280
     1
102
RTVSPropertyOp0
 70
     1
102
RTVSPropertyOp1
 70
     1
102
RTVSPropertyOp2
 70
     1
102
RTVSPropertyOp3
 70
     1
102
RTVSPropertyOp4
 70
     1
102
RTVSPropertyOp5
 70
     1
102
RTVSPropertyOp6
 70
     1
102
RTVSPropertyOp7
 70
     1
102
RTVSPropertyOp8
 70
     1
102
RTVSPropertyOp9
 70
     1
102
RTVSPropertyOp10
 70
     1
102
RTVSPropertyOp11
 70
     1
102
RTVSPropertyOp12
 70
     1
102
RTVSPropertyOp13
 70
     1
102
RTVSPropertyOp14
 70
     1
102
RTVSPropertyOp15
 70
     1
102
RTVSPropertyOp16
 70
     1
102
RTVSPropertyOp17
 70
     1
102
RTVSPropertyOp18
 70
     1
102
RTVSPropertyOp19
 70
     1
102
RTVSPropertyOp20
 70
     1
102
RTVSPropertyOp21
 70
     1
102
RTVSPropertyOp22
 70
     1
102
RTVSPropertyOp23
 70
     1
102
RTVSPropertyOp24
 70
     1
102
RTVSPropertyOp25
 70
     1
102
RTVSPropertyOp26
 70
     1
102
RTVSPropertyOp27
 70
     1
102
RTVSPropertyOp28
 70
     1
102
RTVSPropertyOp29
 70
     1
102
RTVSPropertyOp30
 70
     1
102
RTVSPropertyOp31
 70
     1
102
RTVSPropertyOp32
 70
     1
102
RTVSPropertyOp33
 70
     1
102
RTVSPropertyOp34
 70
     1
102
RTVSPropertyOp35
 70
     1
102
RTVSPropertyOp36
 70
     1
102
RTVSPropertyOp37
 70
     1
102
RTVSPropertyOp38
 70
     1
102
RTVSPropertyOp39
 70
     1
102
RTVSPropertyOp40
 70
     1
102
RTVSPropertyOp41
 70
     1
102
RTVSPropertyOp42
 70
     1
102
RTVSPropertyOp43
 70
     1
102
RTVSPropertyOp44
 70
     1
102
RTVSPropertyOp45
 70
     1
102
RTVSPropertyOp46
 70
     1
102
RTVSPropertyOp47
 70
     1
102
RTVSPropertyOp48
 70
     1
102
RTVSPropertyOp49
 70
     1
102
RTVSPropertyOp50
 70
     1
102
RTVSPropertyOp51
 70
     0
102
RTVSPropertyOp52
 70
     0
102
RTVSPropertyOp53
 70
     1
102
RTVSPropertyOp54
 70
     1
102
RTVSPropertyOp55
 70
     1
102
RTVSPropertyOp56
 70
     1
102
RTVSPropertyOp57
 70
     1
102
RTVSPost2010Prop28
280
     0
102
RTVSPost2010PropOp28
 70
     1
102
RTVSPost2010Prop29
280
     1
102
RTVSPost2010PropOp29
 70
     1
102
RTVSPost2010Prop30
280
     1
102
RTVSPost2010PropOp30
 70
     1
102
RTVSPost2010Prop31
280
     0
102
RTVSPost2010PropOp31
 70
     1
102
RTVSPost2010Prop32
280
     0
102
RTVSPost2010PropOp32
 70
     1
102
RTVSPost2010Prop33
280
     0
102
RTVSPost2010PropOp33
 70
     1
102
RTVSPost2010Prop34
280
     0
102
RTVSPost2010PropOp34
 70
     1
102
RTVSPost2010Prop35
280
     0
102
RTVSPost2010PropOp35
 70
     1
102
RTVSPost2010Prop36
280
     0
102
RTVSPost2010PropOp36
 70
     1
102
RTVSPost2010Prop37
 90
       50
102
RTVSPost2010PropOp37
 70
     1
102
RTVSPost2010Prop38
140
0.0
102
RTVSPost2010PropOp38
 70
     1
102
RTVSPost2010Prop39
140
1.0
102
RTVSPost2010PropOp39
 70
     1
102
RTVSPost2010Prop40
 90
        0
102
RTVSPost2010PropOp40
 70
     1
102
RTVSPost2010Prop41ColorIndex
 90
       18
102
RTVSPost2010Prop41ColorRGB
 90
        0
102
RTVSPost2010PropOp41
 70
     1
102
RTVSPost2010Prop42
 90
       50
102
RTVSPost2010PropOp42
 70
     1
102
RTVSPost2010Prop43
 90
        3
102
RTVSPost2010PropOp43
 70
     1
102
RTVSPost2010Prop44ColorIndex
 90
        5
102
RTVSPost2010Prop44ColorRGB
 90
      255
102
RTVSPost2010PropOp44
 70
     1
102
RTVSPost2010Prop45
280
     0
102
RTVSPost2010PropOp45
 70
     1
102
RTVSPost2010Prop46
 90
       50
102
RTVSPost2010PropOp46
 70
     1
102
RTVSPost2010Prop47
 90
       50
102
RTVSPost2010PropOp47
 70
     1
102
RTVSPost2010Prop48
 90
       50
102
RTVSPost2010PropOp48
 70
     1
102
RTVSPost2010Prop49
280
     0
102
RTVSPost2010PropOp49
 70
     1
102
RTVSPost2010Prop50
 90
       50
102
RTVSPost2010PropOp50
 70
     1
102
RTVSPost2010Prop51ColorIndex
 90
      256
102
RTVSPost2010Prop51ColorRGB
 90
-16777216
102
RTVSPost2010PropOp51
 70
     0
102
RTVSPost2010Prop52
140
1.0
102
RTVSPost2010PropOp52
 70
     0
102
RTVSPost2010Prop53
 90
        2
102
RTVSPost2010PropOp53
 70
     1
102
RTVSPost2010Prop54
  1
strokes_ogs.tif
102
RTVSPost2010PropOp54
 70
     1
102
RTVSPost2010Prop55
280
     0
102
RTVSPost2010PropOp55
 70
     1
102
RTVSPost2010Prop56
140
1.0
102
RTVSPost2010PropOp56
 70
     1
102
RTVSPost2010Prop57
140
1.0
102
RTVSPost2010PropOp57
 70
     1
  0
XRECORD
  5
AB
102
{ACAD_REACTORS
330
AA
102
}
330
AA
100
AcDbXrecord
280
     1
102
RTVSPropertyOp0
 70
     1
102
RTVSPropertyOp1
 70
     1
102
RTVSPropertyOp2
 70
     1
102
RTVSPropertyOp3
 70
     1
102
RTVSPropertyOp4
 70
     1
102
RTVSPropertyOp5
 70
     1
102
RTVSPropertyOp6
 70
     1
102
RTVSPropertyOp7
 70
     1
102
RTVSPropertyOp8
 70
     1
102
RTVSPropertyOp9
 70
     1
102
RTVSPropertyOp10
 70
     1
102
RTVSPropertyOp11
 70
     1
102
RTVSPropertyOp12
 70
     1
102
RTVSPropertyOp13
 70
     1
102
RTVSPropertyOp14
 70
     1
102
RTVSPropertyOp15
 70
     1
102
RTVSPropertyOp16
 70
     1
102
RTVSPropertyOp17
 70
     1
102
RTVSPropertyOp18
 70
     1
102
RTVSPropertyOp19
 70
     1
102
RTVSPropertyOp20
 70
     1
102
RTVSPropertyOp21
 70
     1
102
RTVSPropertyOp22
 70
     1
102
RTVSPropertyOp23
 70
     1
102
RTVSPropertyOp24
 70
     1
102
RTVSPropertyOp25
 70
     1
102
RTVSPropertyOp26
 70
     1
102
RTVSPropertyOp27
 70
     1
102
RTVSPropertyOp28
 70
     1
102
RTVSPropertyOp29
 70
     1
102
RTVSPropertyOp30
 70
     1
102
RTVSPropertyOp31
 70
     1
102
RTVSPropertyOp32
 70
     1
102
RTVSPropertyOp33
 70
     1
102
RTVSPropertyOp34
 70
     1
102
RTVSPropertyOp35
 70
     1
102
RTVSPropertyOp36
 70
     1
102
RTVSPropertyOp37
 70
     1
102
RTVSPropertyOp38
 70
     1
102
RTVSPropertyOp39
 70
     1
102
RTVSPropertyOp40
 70
     1
102
RTVSPropertyOp41
 70
     1
102
RTVSPropertyOp42
 70
     1
102
RTVSPropertyOp43
 70
     1
102
RTVSPropertyOp44
 70
     1
102
RTVSPropertyOp45
 70
     1
102
RTVSPropertyOp46
 70
     1
102
RTVSPropertyOp47
 70
     1
102
RTVSPropertyOp48
 70
     1
102
RTVSPropertyOp49
 70
     1
102
RTVSPropertyOp50
 70
     1
102
RTVSPropertyOp51
 70
     0
102
RTVSPropertyOp52
 70
     0
102
RTVSPropertyOp53
 70
     1
102
RTVSPropertyOp54
 70
     1
102
RTVSPropertyOp55
 70
     1
102
RTVSPropertyOp56
 70
     1
102
RTVSPropertyOp57
 70
     1
102
RTVSPost2010Prop28
280
     0
102
RTVSPost2010PropOp28
 70
     1
102
RTVSPost2010Prop29
280
     1
102
RTVSPost2010PropOp29
 70
     1
102
RTVSPost2010Prop30
280
     1
102
RTVSPost2010PropOp30
 70
     1
102
RTVSPost2010Prop31
280
     0
102
RTVSPost2010PropOp31
 70
     1
102
RTVSPost2010Prop32
280
     0
102
RTVSPost2010PropOp32
 70
     1
102
RTVSPost2010Prop33
280
     0
102
RTVSPost2010PropOp33
 70
     1
102
RTVSPost2010Prop34
280
     0
102
RTVSPost2010PropOp34
 70
     1
102
RTVSPost2010Prop35
280
     0
102
RTVSPost2010PropOp35
 70
     1
102
RTVSPost2010Prop36
280
     0
102
RTVSPost2010PropOp36
 70
     1
102
RTVSPost2010Prop37
 90
       50
102
RTVSPost2010PropOp37
 70
     1
102
RTVSPost2010Prop38
140
0.0
102
RTVSPost2010PropOp38
 70
     1
102
RTVSPost2010Prop39
140
1.0
102
RTVSPost2010PropOp39
 70
     1
102
RTVSPost2010Prop40
 90
        0
102
RTVSPost2010PropOp40
 70
     1
102
RTVSPost2010Prop41ColorIndex
 90
       18
102
RTVSPost2010Prop41ColorRGB
 90
        0
102
RTVSPost2010PropOp41
 70
     1
102
RTVSPost2010Prop42
 90
       50
102
RTVSPost2010PropOp42
 70
     1
102
RTVSPost2010Prop43
 90
        3
102
RTVSPost2010PropOp43
 70
     1
102
RTVSPost2010Prop44ColorIndex
 90
        5
102
RTVSPost2010Prop44ColorRGB
 90
      255
102
RTVSPost2010PropOp44
 70
     1
102
RTVSPost2010Prop45
280
     0
102
RTVSPost2010PropOp45
 70
     1
102
RTVSPost2010Prop46
 90
       50
102
RTVSPost2010PropOp46
 70
     1
102
RTVSPost2010Prop47
 90
       50
102
RTVSPost2010PropOp47
 70
     1
102
RTVSPost2010Prop48
 90
       50
102
RTVSPost2010PropOp48
 70
     1
102
RTVSPost2010Prop49
280
     0
102
RTVSPost2010PropOp49
 70
     1
102
RTVSPost2010Prop50
 90
       50
102
RTVSPost2010PropOp50
 70
     1
102
RTVSPost2010Prop51ColorIndex
 90
      256
102
RTVSPost2010Prop51ColorRGB
 90
-16777216
102
RTVSPost2010PropOp51
 70
     0
102
RTVSPost2010Prop52
140
1.0
102
RTVSPost2010PropOp52
 70
     0
102
RTVSPost2010Prop53
 90
        2
102
RTVSPost2010PropOp53
 70
     1
102
RTVSPost2010Prop54
  1
strokes_ogs.tif
102
RTVSPost2010PropOp54
 70
     1
102
RTVSPost2010Prop55
280
     0
102
RTVSPost2010PropOp55
 70
     1
102
RTVSPost2010Prop56
140
1.0
102
RTVSPost2010PropOp56
 70
     1
102
RTVSPost2010Prop57
140
1.0
102
RTVSPost2010PropOp57
 70
     1
  0
XRECORD
  5
AD
102
{ACAD_REACTORS
330
AC
102
}
330
AC
100
AcDbXrecord
280
     1
102
RTVSPropertyOp0
 70
     1
102
RTVSPropertyOp1
 70
     1
102
RTVSPropertyOp2
 70
     1
102
RTVSPropertyOp3
 70
     1
102
RTVSPropertyOp4
 70
     1
102
RTVSPropertyOp5
 70
     1
102
RTVSPropertyOp6
 70
     1
102
RTVSPropertyOp7
 70
     1
102
RTVSPropertyOp8
 70
     1
102
RTVSPropertyOp9
 70
     1
102
RTVSPropertyOp10
 70
     1
102
RTVSPropertyOp11
 70
     1
102
RTVSPropertyOp12
 70
     1
102
RTVSPropertyOp13
 70
     1
102
RTVSPropertyOp14
 70
     1
102
RTVSPropertyOp15
 70
     1
102
RTVSPropertyOp16
 70
     1
102
RTVSPropertyOp17
 70
     1
102
RTVSPropertyOp18
 70
     1
102
RTVSPropertyOp19
 70
     1
102
RTVSPropertyOp20
 70
     1
102
RTVSPropertyOp21
 70
     1
102
RTVSPropertyOp22
 70
     1
102
RTVSPropertyOp23
 70
     1
102
RTVSPropertyOp24
 70
     1
102
RTVSPropertyOp25
 70
     1
102
RTVSPropertyOp26
 70
     1
102
RTVSPropertyOp27
 70
     1
102
RTVSPropertyOp28
 70
     1
102
RTVSPropertyOp29
 70
     1
102
RTVSPropertyOp30
 70
     1
102
RTVSPropertyOp31
 70
     1
102
RTVSPropertyOp32
 70
     1
102
RTVSPropertyOp33
 70
     1
102
RTVSPropertyOp34
 70
     1
102
RTVSPropertyOp35
 70
     1
102
RTVSPropertyOp36
 70
     1
102
RTVSPropertyOp37
 70
     1
102
RTVSPropertyOp38
 70
     1
102
RTVSPropertyOp39
 70
     1
102
RTVSPropertyOp40
 70
     1
102
RTVSPropertyOp41
 70
     1
102
RTVSPropertyOp42
 70
     1
102
RTVSPropertyOp43
 70
     1
102
RTVSPropertyOp44
 70
     1
102
RTVSPropertyOp45
 70
     1
102
RTVSPropertyOp46
 70
     1
102
RTVSPropertyOp47
 70
     1
102
RTVSPropertyOp48
 70
     1
102
RTVSPropertyOp49
 70
     1
102
RTVSPropertyOp50
 70
     1
102
RTVSPropertyOp51
 70
     0
102
RTVSPropertyOp52
 70
     0
102
RTVSPropertyOp53
 70
     1
102
RTVSPropertyOp54
 70
     1
102
RTVSPropertyOp55
 70
     1
102
RTVSPropertyOp56
 70
     1
102
RTVSPropertyOp57
 70
     1
102
RTVSPost2010Prop28
280
     0
102
RTVSPost2010PropOp28
 70
     1
102
RTVSPost2010Prop29
280
     1
102
RTVSPost2010PropOp29
 70
     1
102
RTVSPost2010Prop30
280
     1
102
RTVSPost2010PropOp30
 70
     1
102
RTVSPost2010Prop31
280
     0
102
RTVSPost2010PropOp31
 70
     1
102
RTVSPost2010Prop32
280
     0
102
RTVSPost2010PropOp32
 70
     1
102
RTVSPost2010Prop33
280
     0
102
RTVSPost2010PropOp33
 70
     1
102
RTVSPost2010Prop34
280
     0
102
RTVSPost2010PropOp34
 70
     1
102
RTVSPost2010Prop35
280
     0
102
RTVSPost2010PropOp35
 70
     1
102
RTVSPost2010Prop36
280
     0
102
RTVSPost2010PropOp36
 70
     1
102
RTVSPost2010Prop37
 90
       50
102
RTVSPost2010PropOp37
 70
     1
102
RTVSPost2010Prop38
140
0.0
102
RTVSPost2010PropOp38
 70
     1
102
RTVSPost2010Prop39
140
1.0
102
RTVSPost2010PropOp39
 70
     1
102
RTVSPost2010Prop40
 90
        0
102
RTVSPost2010PropOp40
 70
     1
102
RTVSPost2010Prop41ColorIndex
 90
       18
102
RTVSPost2010Prop41ColorRGB
 90
        0
102
RTVSPost2010PropOp41
 70
     1
102
RTVSPost2010Prop42
 90
       50
102
RTVSPost2010PropOp42
 70
     1
102
RTVSPost2010Prop43
 90
        3
102
RTVSPost2010PropOp43
 70
     1
102
RTVSPost2010Prop44ColorIndex
 90
        5
102
RTVSPost2010Prop44ColorRGB
 90
      255
102
RTVSPost2010PropOp44
 70
     1
102
RTVSPost2010Prop45
280
     0
102
RTVSPost2010PropOp45
 70
     1
102
RTVSPost2010Prop46
 90
       50
102
RTVSPost2010PropOp46
 70
     1
102
RTVSPost2010Prop47
 90
       50
102
RTVSPost2010PropOp47
 70
     1
102
RTVSPost2010Prop48
 90
       50
102
RTVSPost2010PropOp48
 70
     1
102
RTVSPost2010Prop49
280
     0
102
RTVSPost2010PropOp49
 70
     1
102
RTVSPost2010Prop50
 90
       50
102
RTVSPost2010PropOp50
 70
     1
102
RTVSPost2010Prop51ColorIndex
 90
      256
102
RTVSPost2010Prop51ColorRGB
 90
-16777216
102
RTVSPost2010PropOp51
 70
     0
102
RTVSPost2010Prop52
140
1.0
102
RTVSPost2010PropOp52
 70
     0
102
RTVSPost2010Prop53
 90
        2
102
RTVSPost2010PropOp53
 70
     1
102
RTVSPost2010Prop54
  1
strokes_ogs.tif
102
RTVSPost2010PropOp54
 70
     1
102
RTVSPost2010Prop55
280
     0
102
RTVSPost2010PropOp55
 70
     1
102
RTVSPost2010Prop56
140
1.0
102
RTVSPost2010PropOp56
 70
     1
102
RTVSPost2010Prop57
140
1.0
102
RTVSPost2010PropOp57
 70
     1
  0
XRECORD
  5
BD
102
{ACAD_REACTORS
330
BC
102
}
330
BC
100
AcDbXrecord
280
     1
102
RTVSPropertyOp0
 70
     0
102
RTVSPropertyOp1
 70
     0
102
RTVSPropertyOp2
 70
     0
102
RTVSPropertyOp3
 70
     0
102
RTVSPropertyOp4
 70
     0
102
RTVSPropertyOp5
 70
     0
102
RTVSPropertyOp6
 70
     0
102
RTVSPropertyOp7
 70
     0
102
RTVSPropertyOp8
 70
     0
102
RTVSPropertyOp9
 70
     0
102
RTVSPropertyOp10
 70
     0
102
RTVSPropertyOp11
 70
     0
102
RTVSPropertyOp12
 70
     0
102
RTVSPropertyOp13
 70
     0
102
RTVSPropertyOp14
 70
     2
102
RTVSPropertyOp15
 70
     0
102
RTVSPropertyOp16
 70
     0
102
RTVSPropertyOp17
 70
     0
102
RTVSPropertyOp18
 70
     0
102
RTVSPropertyOp19
 70
     0
102
RTVSPropertyOp20
 70
     0
102
RTVSPropertyOp21
 70
     0
102
RTVSPropertyOp22
 70
     0
102
RTVSPropertyOp23
 70
     0
102
RTVSPropertyOp24
 70
     0
102
RTVSPropertyOp25
 70
     0
102
RTVSPropertyOp26
 70
     0
102
RTVSPropertyOp27
 70
     0
102
RTVSPropertyOp28
 70
     0
102
RTVSPropertyOp29
 70
     0
102
RTVSPropertyOp30
 70
     0
102
RTVSPropertyOp31
 70
     0
102
RTVSPropertyOp32
 70
     0
102
RTVSPropertyOp33
 70
     0
102
RTVSPropertyOp34
 70
     0
102
RTVSPropertyOp35
 70
     0
102
RTVSPropertyOp36
 70
     0
102
RTVSPropertyOp37
 70
     0
102
RTVSPropertyOp38
 70
     0
102
RTVSPropertyOp39
 70
     0
102
RTVSPropertyOp40
 70
     0
102
RTVSPropertyOp41
 70
     0
102
RTVSPropertyOp42
 70
     0
102
RTVSPropertyOp43
 70
     0
102
RTVSPropertyOp44
 70
     0
102
RTVSPropertyOp45
 70
     0
102
RTVSPropertyOp46
 70
     0
102
RTVSPropertyOp47
 70
     0
102
RTVSPropertyOp48
 70
     0
102
RTVSPropertyOp49
 70
     0
102
RTVSPropertyOp50
 70
     0
102
RTVSPropertyOp51
 70
     0
102
RTVSPropertyOp52
 70
     0
102
RTVSPropertyOp53
 70
     0
102
RTVSPropertyOp54
 70
     0
102
RTVSPropertyOp55
 70
     0
102
RTVSPropertyOp56
 70
     0
102
RTVSPropertyOp57
 70
     0
102
RTVSPost2010Prop28
280
     0
102
RTVSPost2010PropOp28
 70
     0
102
RTVSPost2010Prop29
280
     1
102
RTVSPost2010PropOp29
 70
     0
102
RTVSPost2010Prop30
280
     1
102
RTVSPost2010PropOp30
 70
     0
102
RTVSPost2010Prop31
280
     0
102
RTVSPost2010PropOp31
 70
     0
102
RTVSPost2010Prop32
280
     0
102
RTVSPost2010PropOp32
 70
     0
102
RTVSPost2010Prop33
280
     0
102
RTVSPost2010PropOp33
 70
     0
102
RTVSPost2010Prop34
280
     0
102
RTVSPost2010PropOp34
 70
     0
102
RTVSPost2010Prop35
280
     0
102
RTVSPost2010PropOp35
 70
     0
102
RTVSPost2010Prop36
280
     0
102
RTVSPost2010PropOp36
 70
     0
102
RTVSPost2010Prop37
 90
       50
102
RTVSPost2010PropOp37
 70
     0
102
RTVSPost2010Prop38
140
0.0
102
RTVSPost2010PropOp38
 70
     0
102
RTVSPost2010Prop39
140
1.0
102
RTVSPost2010PropOp39
 70
     0
102
RTVSPost2010Prop40
 90
        0
102
RTVSPost2010PropOp40
 70
     0
102
RTVSPost2010Prop41ColorIndex
 90
       18
102
RTVSPost2010Prop41ColorRGB
 90
        0
102
RTVSPost2010PropOp41
 70
     0
102
RTVSPost2010Prop42
 90
       50
102
RTVSPost2010PropOp42
 70
     0
102
RTVSPost2010Prop43
 90
        3
102
RTVSPost2010PropOp43
 70
     0
102
RTVSPost2010Prop44ColorIndex
 90
        5
102
RTVSPost2010Prop44ColorRGB
 90
      255
102
RTVSPost2010PropOp44
 70
     0
102
RTVSPost2010Prop45
280
     0
102
RTVSPost2010PropOp45
 70
     0
102
RTVSPost2010Prop46
 90
       50
102
RTVSPost2010PropOp46
 70
     0
102
RTVSPost2010Prop47
 90
       50
102
RTVSPost2010PropOp47
 70
     0
102
RTVSPost2010Prop48
 90
       50
102
RTVSPost2010PropOp48
 70
     0
102
RTVSPost2010Prop49
280
     0
102
RTVSPost2010PropOp49
 70
     0
102
RTVSPost2010Prop50
 90
       50
102
RTVSPost2010PropOp50
 70
     0
102
RTVSPost2010Prop51ColorIndex
 90
      256
102
RTVSPost2010Prop51ColorRGB
 90
-16777216
102
RTVSPost2010PropOp51
 70
     0
102
RTVSPost2010Prop52
140
1.0
102
RTVSPost2010PropOp52
 70
     0
102
RTVSPost2010Prop53
 90
        2
102
RTVSPost2010PropOp53
 70
     0
102
RTVSPost2010Prop54
  1
strokes_ogs.tif
102
RTVSPost2010PropOp54
 70
     0
102
RTVSPost2010Prop55
280
     0
102
RTVSPost2010PropOp55
 70
     0
102
RTVSPost2010Prop56
140
1.0
102
RTVSPost2010PropOp56
 70
     0
102
RTVSPost2010Prop57
140
1.0
102
RTVSPost2010PropOp57
 70
     0
  0
XRECORD
  5
B5
102
{ACAD_REACTORS
330
B4
102
}
330
B4
100
AcDbXrecord
280
     1
102
RTVSPropertyOp0
 70
     1
102
RTVSPropertyOp1
 70
     1
102
RTVSPropertyOp2
 70
     1
102
RTVSPropertyOp3
 70
     1
102
RTVSPropertyOp4
 70
     1
102
RTVSPropertyOp5
 70
     1
102
RTVSPropertyOp6
 70
     1
102
RTVSPropertyOp7
 70
     1
102
RTVSPropertyOp8
 70
     1
102
RTVSPropertyOp9
 70
     1
102
RTVSPropertyOp10
 70
     1
102
RTVSPropertyOp11
 70
     1
102
RTVSPropertyOp12
 70
     1
102
RTVSPropertyOp13
 70
     1
102
RTVSPropertyOp14
 70
     1
102
RTVSPropertyOp15
 70
     1
102
RTVSPropertyOp16
 70
     1
102
RTVSPropertyOp17
 70
     1
102
RTVSPropertyOp18
 70
     1
102
RTVSPropertyOp19
 70
     1
102
RTVSPropertyOp20
 70
     1
102
RTVSPropertyOp21
 70
     1
102
RTVSPropertyOp22
 70
     1
102
RTVSPropertyOp23
 70
     1
102
RTVSPropertyOp24
 70
     1
102
RTVSPropertyOp25
 70
     1
102
RTVSPropertyOp26
 70
     1
102
RTVSPropertyOp27
 70
     1
102
RTVSPropertyOp28
 70
     1
102
RTVSPropertyOp29
 70
     1
102
RTVSPropertyOp30
 70
     1
102
RTVSPropertyOp31
 70
     1
102
RTVSPropertyOp32
 70
     1
102
RTVSPropertyOp33
 70
     1
102
RTVSPropertyOp34
 70
     1
102
RTVSPropertyOp35
 70
     1
102
RTVSPropertyOp36
 70
     1
102
RTVSPropertyOp37
 70
     1
102
RTVSPropertyOp38
 70
     1
102
RTVSPropertyOp39
 70
     1
102
RTVSPropertyOp40
 70
     1
102
RTVSPropertyOp41
 70
     1
102
RTVSPropertyOp42
 70
     1
102
RTVSPropertyOp43
 70
     1
102
RTVSPropertyOp44
 70
     1
102
RTVSPropertyOp45
 70
     1
102
RTVSPropertyOp46
 70
     1
102
RTVSPropertyOp47
 70
     1
102
RTVSPropertyOp48
 70
     1
102
RTVSPropertyOp49
 70
     1
102
RTVSPropertyOp50
 70
     1
102
RTVSPropertyOp51
 70
     0
102
RTVSPropertyOp52
 70
     0
102
RTVSPropertyOp53
 70
     1
102
RTVSPropertyOp54
 70
     1
102
RTVSPropertyOp55
 70
     1
102
RTVSPropertyOp56
 70
     1
102
RTVSPropertyOp57
 70
     1
102
RTVSPost2010Prop28
280
     0
102
RTVSPost2010PropOp28
 70
     1
102
RTVSPost2010Prop29
280
     1
102
RTVSPost2010PropOp29
 70
     1
102
RTVSPost2010Prop30
280
     1
102
RTVSPost2010PropOp30
 70
     1
102
RTVSPost2010Prop31
280
     0
102
RTVSPost2010PropOp31
 70
     1
102
RTVSPost2010Prop32
280
     0
102
RTVSPost2010PropOp32
 70
     1
102
RTVSPost2010Prop33
280
     0
102
RTVSPost2010PropOp33
 70
     1
102
RTVSPost2010Prop34
280
     0
102
RTVSPost2010PropOp34
 70
     1
102
RTVSPost2010Prop35
280
     0
102
RTVSPost2010PropOp35
 70
     1
102
RTVSPost2010Prop36
280
     0
102
RTVSPost2010PropOp36
 70
     1
102
RTVSPost2010Prop37
 90
       50
102
RTVSPost2010PropOp37
 70
     1
102
RTVSPost2010Prop38
140
0.0
102
RTVSPost2010PropOp38
 70
     1
102
RTVSPost2010Prop39
140
1.0
102
RTVSPost2010PropOp39
 70
     1
102
RTVSPost2010Prop40
 90
        0
102
RTVSPost2010PropOp40
 70
     1
102
RTVSPost2010Prop41ColorIndex
 90
       18
102
RTVSPost2010Prop41ColorRGB
 90
        0
102
RTVSPost2010PropOp41
 70
     1
102
RTVSPost2010Prop42
 90
       50
102
RTVSPost2010PropOp42
 70
     1
102
RTVSPost2010Prop43
 90
        3
102
RTVSPost2010PropOp43
 70
     1
102
RTVSPost2010Prop44ColorIndex
 90
        5
102
RTVSPost2010Prop44ColorRGB
 90
      255
102
RTVSPost2010PropOp44
 70
     1
102
RTVSPost2010Prop45
280
     0
102
RTVSPost2010PropOp45
 70
     1
102
RTVSPost2010Prop46
 90
       50
102
RTVSPost2010PropOp46
 70
     1
102
RTVSPost2010Prop47
 90
       50
102
RTVSPost2010PropOp47
 70
     1
102
RTVSPost2010Prop48
 90
       50
102
RTVSPost2010PropOp48
 70
     1
102
RTVSPost2010Prop49
280
     0
102
RTVSPost2010PropOp49
 70
     1
102
RTVSPost2010Prop50
 90
       50
102
RTVSPost2010PropOp50
 70
     1
102
RTVSPost2010Prop51ColorIndex
 90
      256
102
RTVSPost2010Prop51ColorRGB
 90
-16777216
102
RTVSPost2010PropOp51
 70
     0
102
RTVSPost2010Prop52
140
1.0
102
RTVSPost2010PropOp52
 70
     0
102
RTVSPost2010Prop53
 90
        2
102
RTVSPost2010PropOp53
 70
     1
102
RTVSPost2010Prop54
  1
strokes_ogs.tif
102
RTVSPost2010PropOp54
 70
     1
102
RTVSPost2010Prop55
280
     0
102
RTVSPost2010PropOp55
 70
     1
102
RTVSPost2010Prop56
140
1.0
102
RTVSPost2010PropOp56
 70
     1
102
RTVSPost2010Prop57
140
1.0
102
RTVSPost2010PropOp57
 70
     1
  0
XRECORD
  5
99
102
{ACAD_REACTORS
330
98
102
}
330
98
100
AcDbXrecord
280
     1
102
RTVSPropertyOp0
 70
     1
102
RTVSPropertyOp1
 70
     1
102
RTVSPropertyOp2
 70
     1
102
RTVSPropertyOp3
 70
     1
102
RTVSPropertyOp4
 70
     1
102
RTVSPropertyOp5
 70
     1
102
RTVSPropertyOp6
 70
     1
102
RTVSPropertyOp7
 70
     1
102
RTVSPropertyOp8
 70
     1
102
RTVSPropertyOp9
 70
     1
102
RTVSPropertyOp10
 70
     1
102
RTVSPropertyOp11
 70
     1
102
RTVSPropertyOp12
 70
     1
102
RTVSPropertyOp13
 70
     1
102
RTVSPropertyOp14
 70
     1
102
RTVSPropertyOp15
 70
     1
102
RTVSPropertyOp16
 70
     1
102
RTVSPropertyOp17
 70
     1
102
RTVSPropertyOp18
 70
     1
102
RTVSPropertyOp19
 70
     1
102
RTVSPropertyOp20
 70
     1
102
RTVSPropertyOp21
 70
     1
102
RTVSPropertyOp22
 70
     1
102
RTVSPropertyOp23
 70
     1
102
RTVSPropertyOp24
 70
     1
102
RTVSPropertyOp25
 70
     1
102
RTVSPropertyOp26
 70
     1
102
RTVSPropertyOp27
 70
     1
102
RTVSPropertyOp28
 70
     1
102
RTVSPropertyOp29
 70
     1
102
RTVSPropertyOp30
 70
     1
102
RTVSPropertyOp31
 70
     1
102
RTVSPropertyOp32
 70
     1
102
RTVSPropertyOp33
 70
     1
102
RTVSPropertyOp34
 70
     1
102
RTVSPropertyOp35
 70
     1
102
RTVSPropertyOp36
 70
     1
102
RTVSPropertyOp37
 70
     1
102
RTVSPropertyOp38
 70
     1
102
RTVSPropertyOp39
 70
     1
102
RTVSPropertyOp40
 70
     1
102
RTVSPropertyOp41
 70
     1
102
RTVSPropertyOp42
 70
     1
102
RTVSPropertyOp43
 70
     1
102
RTVSPropertyOp44
 70
     1
102
RTVSPropertyOp45
 70
     1
102
RTVSPropertyOp46
 70
     1
102
RTVSPropertyOp47
 70
     1
102
RTVSPropertyOp48
 70
     1
102
RTVSPropertyOp49
 70
     1
102
RTVSPropertyOp50
 70
     1
102
RTVSPropertyOp51
 70
     0
102
RTVSPropertyOp52
 70
     0
102
RTVSPropertyOp53
 70
     1
102
RTVSPropertyOp54
 70
     1
102
RTVSPropertyOp55
 70
     1
102
RTVSPropertyOp56
 70
     1
102
RTVSPropertyOp57
 70
     1
102
RTVSPost2010Prop28
280
     0
102
RTVSPost2010PropOp28
 70
     1
102
RTVSPost2010Prop29
280
     1
102
RTVSPost2010PropOp29
 70
     1
102
RTVSPost2010Prop30
280
     1
102
RTVSPost2010PropOp30
 70
     1
102
RTVSPost2010Prop31
280
     0
102
RTVSPost2010PropOp31
 70
     1
102
RTVSPost2010Prop32
280
     0
102
RTVSPost2010PropOp32
 70
     1
102
RTVSPost2010Prop33
280
     0
102
RTVSPost2010PropOp33
 70
     1
102
RTVSPost2010Prop34
280
     0
102
RTVSPost2010PropOp34
 70
     1
102
RTVSPost2010Prop35
280
     0
102
RTVSPost2010PropOp35
 70
     1
102
RTVSPost2010Prop36
280
     0
102
RTVSPost2010PropOp36
 70
     1
102
RTVSPost2010Prop37
 90
       50
102
RTVSPost2010PropOp37
 70
     1
102
RTVSPost2010Prop38
140
0.0
102
RTVSPost2010PropOp38
 70
     1
102
RTVSPost2010Prop39
140
1.0
102
RTVSPost2010PropOp39
 70
     1
102
RTVSPost2010Prop40
 90
        0
102
RTVSPost2010PropOp40
 70
     1
102
RTVSPost2010Prop41ColorIndex
 90
       18
102
RTVSPost2010Prop41ColorRGB
 90
        0
102
RTVSPost2010PropOp41
 70
     1
102
RTVSPost2010Prop42
 90
       50
102
RTVSPost2010PropOp42
 70
     1
102
RTVSPost2010Prop43
 90
        3
102
RTVSPost2010PropOp43
 70
     1
102
RTVSPost2010Prop44ColorIndex
 90
        5
102
RTVSPost2010Prop44ColorRGB
 90
      255
102
RTVSPost2010PropOp44
 70
     1
102
RTVSPost2010Prop45
280
     0
102
RTVSPost2010PropOp45
 70
     1
102
RTVSPost2010Prop46
 90
       50
102
RTVSPost2010PropOp46
 70
     1
102
RTVSPost2010Prop47
 90
       50
102
RTVSPost2010PropOp47
 70
     1
102
RTVSPost2010Prop48
 90
       50
102
RTVSPost2010PropOp48
 70
     1
102
RTVSPost2010Prop49
280
     0
102
RTVSPost2010PropOp49
 70
     1
102
RTVSPost2010Prop50
 90
       50
102
RTVSPost2010PropOp50
 70
     1
102
RTVSPost2010Prop51ColorIndex
 90
      256
102
RTVSPost2010Prop51ColorRGB
 90
-16777216
102
RTVSPost2010PropOp51
 70
     0
102
RTVSPost2010Prop52
140
1.0
102
RTVSPost2010PropOp52
 70
     0
102
RTVSPost2010Prop53
 90
        2
102
RTVSPost2010PropOp53
 70
     1
102
RTVSPost2010Prop54
  1
strokes_ogs.tif
102
RTVSPost2010PropOp54
 70
     1
102
RTVSPost2010Prop55
280
     0
102
RTVSPost2010PropOp55
 70
     1
102
RTVSPost2010Prop56
140
1.0
102
RTVSPost2010PropOp56
 70
     1
102
RTVSPost2010Prop57
140
1.0
102
RTVSPost2010PropOp57
 70
     1
  0
XRECORD
  5
9B
102
{ACAD_REACTORS
330
9A
102
}
330
9A
100
AcDbXrecord
280
     1
102
RTVSPropertyOp0
 70
     1
102
RTVSPropertyOp1
 70
     1
102
RTVSPropertyOp2
 70
     1
102
RTVSPropertyOp3
 70
     1
102
RTVSPropertyOp4
 70
     1
102
RTVSPropertyOp5
 70
     1
102
RTVSPropertyOp6
 70
     1
102
RTVSPropertyOp7
 70
     1
102
RTVSPropertyOp8
 70
     1
102
RTVSPropertyOp9
 70
     1
102
RTVSPropertyOp10
 70
     1
102
RTVSPropertyOp11
 70
     1
102
RTVSPropertyOp12
 70
     1
102
RTVSPropertyOp13
 70
     1
102
RTVSPropertyOp14
 70
     1
102
RTVSPropertyOp15
 70
     1
102
RTVSPropertyOp16
 70
     1
102
RTVSPropertyOp17
 70
     1
102
RTVSPropertyOp18
 70
     1
102
RTVSPropertyOp19
 70
     1
102
RTVSPropertyOp20
 70
     1
102
RTVSPropertyOp21
 70
     1
102
RTVSPropertyOp22
 70
     1
102
RTVSPropertyOp23
 70
     1
102
RTVSPropertyOp24
 70
     1
102
RTVSPropertyOp25
 70
     1
102
RTVSPropertyOp26
 70
     1
102
RTVSPropertyOp27
 70
     1
102
RTVSPropertyOp28
 70
     1
102
RTVSPropertyOp29
 70
     1
102
RTVSPropertyOp30
 70
     1
102
RTVSPropertyOp31
 70
     1
102
RTVSPropertyOp32
 70
     1
102
RTVSPropertyOp33
 70
     1
102
RTVSPropertyOp34
 70
     1
102
RTVSPropertyOp35
 70
     1
102
RTVSPropertyOp36
 70
     1
102
RTVSPropertyOp37
 70
     1
102
RTVSPropertyOp38
 70
     1
102
RTVSPropertyOp39
 70
     1
102
RTVSPropertyOp40
 70
     1
102
RTVSPropertyOp41
 70
     1
102
RTVSPropertyOp42
 70
     1
102
RTVSPropertyOp43
 70
     1
102
RTVSPropertyOp44
 70
     1
102
RTVSPropertyOp45
 70
     1
102
RTVSPropertyOp46
 70
     1
102
RTVSPropertyOp47
 70
     1
102
RTVSPropertyOp48
 70
     1
102
RTVSPropertyOp49
 70
     1
102
RTVSPropertyOp50
 70
     1
102
RTVSPropertyOp51
 70
     0
102
RTVSPropertyOp52
 70
     0
102
RTVSPropertyOp53
 70
     1
102
RTVSPropertyOp54
 70
     1
102
RTVSPropertyOp55
 70
     1
102
RTVSPropertyOp56
 70
     1
102
RTVSPropertyOp57
 70
     1
102
RTVSPost2010Prop28
280
     0
102
RTVSPost2010PropOp28
 70
     1
102
RTVSPost2010Prop29
280
     1
102
RTVSPost2010PropOp29
 70
     1
102
RTVSPost2010Prop30
280
     1
102
RTVSPost2010PropOp30
 70
     1
102
RTVSPost2010Prop31
280
     0
102
RTVSPost2010PropOp31
 70
     1
102
RTVSPost2010Prop32
280
     0
102
RTVSPost2010PropOp32
 70
     1
102
RTVSPost2010Prop33
280
     0
102
RTVSPost2010PropOp33
 70
     1
102
RTVSPost2010Prop34
280
     0
102
RTVSPost2010PropOp34
 70
     1
102
RTVSPost2010Prop35
280
     0
102
RTVSPost2010PropOp35
 70
     1
102
RTVSPost2010Prop36
280
     0
102
RTVSPost2010PropOp36
 70
     1
102
RTVSPost2010Prop37
 90
       50
102
RTVSPost2010PropOp37
 70
     1
102
RTVSPost2010Prop38
140
0.0
102
RTVSPost2010PropOp38
 70
     1
102
RTVSPost2010Prop39
140
1.0
102
RTVSPost2010PropOp39
 70
     1
102
RTVSPost2010Prop40
 90
        0
102
RTVSPost2010PropOp40
 70
     1
102
RTVSPost2010Prop41ColorIndex
 90
       18
102
RTVSPost2010Prop41ColorRGB
 90
        0
102
RTVSPost2010PropOp41
 70
     1
102
RTVSPost2010Prop42
 90
       50
102
RTVSPost2010PropOp42
 70
     1
102
RTVSPost2010Prop43
 90
        3
102
RTVSPost2010PropOp43
 70
     1
102
RTVSPost2010Prop44ColorIndex
 90
        5
102
RTVSPost2010Prop44ColorRGB
 90
      255
102
RTVSPost2010PropOp44
 70
     1
102
RTVSPost2010Prop45
280
     0
102
RTVSPost2010PropOp45
 70
     1
102
RTVSPost2010Prop46
 90
       50
102
RTVSPost2010PropOp46
 70
     1
102
RTVSPost2010Prop47
 90
       50
102
RTVSPost2010PropOp47
 70
     1
102
RTVSPost2010Prop48
 90
       50
102
RTVSPost2010PropOp48
 70
     1
102
RTVSPost2010Prop49
280
     0
102
RTVSPost2010PropOp49
 70
     1
102
RTVSPost2010Prop50
 90
       50
102
RTVSPost2010PropOp50
 70
     1
102
RTVSPost2010Prop51ColorIndex
 90
      256
102
RTVSPost2010Prop51ColorRGB
 90
-16777216
102
RTVSPost2010PropOp51
 70
     0
102
RTVSPost2010Prop52
140
1.0
102
RTVSPost2010PropOp52
 70
     0
102
RTVSPost2010Prop53
 90
        2
102
RTVSPost2010PropOp53
 70
     1
102
RTVSPost2010Prop54
  1
strokes_ogs.tif
102
RTVSPost2010PropOp54
 70
     1
102
RTVSPost2010Prop55
280
     0
102
RTVSPost2010PropOp55
 70
     1
102
RTVSPost2010Prop56
140
1.0
102
RTVSPost2010PropOp56
 70
     1
102
RTVSPost2010Prop57
140
1.0
102
RTVSPost2010PropOp57
 70
     1
  0
XRECORD
  5
9D
102
{ACAD_REACTORS
330
9C
102
}
330
9C
100
AcDbXrecord
280
     1
102
RTVSPropertyOp0
 70
     1
102
RTVSPropertyOp1
 70
     1
102
RTVSPropertyOp2
 70
     1
102
RTVSPropertyOp3
 70
     1
102
RTVSPropertyOp4
 70
     1
102
RTVSPropertyOp5
 70
     1
102
RTVSPropertyOp6
 70
     1
102
RTVSPropertyOp7
 70
     1
102
RTVSPropertyOp8
 70
     1
102
RTVSPropertyOp9
 70
     1
102
RTVSPropertyOp10
 70
     1
102
RTVSPropertyOp11
 70
     1
102
RTVSPropertyOp12
 70
     1
102
RTVSPropertyOp13
 70
     1
102
RTVSPropertyOp14
 70
     1
102
RTVSPropertyOp15
 70
     1
102
RTVSPropertyOp16
 70
     1
102
RTVSPropertyOp17
 70
     1
102
RTVSPropertyOp18
 70
     1
102
RTVSPropertyOp19
 70
     1
102
RTVSPropertyOp20
 70
     1
102
RTVSPropertyOp21
 70
     1
102
RTVSPropertyOp22
 70
     1
102
RTVSPropertyOp23
 70
     1
102
RTVSPropertyOp24
 70
     1
102
RTVSPropertyOp25
 70
     1
102
RTVSPropertyOp26
 70
     1
102
RTVSPropertyOp27
 70
     1
102
RTVSPropertyOp28
 70
     1
102
RTVSPropertyOp29
 70
     1
102
RTVSPropertyOp30
 70
     1
102
RTVSPropertyOp31
 70
     1
102
RTVSPropertyOp32
 70
     1
102
RTVSPropertyOp33
 70
     1
102
RTVSPropertyOp34
 70
     1
102
RTVSPropertyOp35
 70
     1
102
RTVSPropertyOp36
 70
     1
102
RTVSPropertyOp37
 70
     1
102
RTVSPropertyOp38
 70
     1
102
RTVSPropertyOp39
 70
     1
102
RTVSPropertyOp40
 70
     1
102
RTVSPropertyOp41
 70
     1
102
RTVSPropertyOp42
 70
     1
102
RTVSPropertyOp43
 70
     1
102
RTVSPropertyOp44
 70
     1
102
RTVSPropertyOp45
 70
     1
102
RTVSPropertyOp46
 70
     1
102
RTVSPropertyOp47
 70
     1
102
RTVSPropertyOp48
 70
     1
102
RTVSPropertyOp49
 70
     1
102
RTVSPropertyOp50
 70
     1
102
RTVSPropertyOp51
 70
     0
102
RTVSPropertyOp52
 70
     0
102
RTVSPropertyOp53
 70
     1
102
RTVSPropertyOp54
 70
     1
102
RTVSPropertyOp55
 70
     1
102
RTVSPropertyOp56
 70
     1
102
RTVSPropertyOp57
 70
     1
102
RTVSPost2010Prop28
280
     0
102
RTVSPost2010PropOp28
 70
     1
102
RTVSPost2010Prop29
280
     1
102
RTVSPost2010PropOp29
 70
     1
102
RTVSPost2010Prop30
280
     1
102
RTVSPost2010PropOp30
 70
     1
102
RTVSPost2010Prop31
280
     0
102
RTVSPost2010PropOp31
 70
     1
102
RTVSPost2010Prop32
280
     0
102
RTVSPost2010PropOp32
 70
     1
102
RTVSPost2010Prop33
280
     0
102
RTVSPost2010PropOp33
 70
     1
102
RTVSPost2010Prop34
280
     0
102
RTVSPost2010PropOp34
 70
     1
102
RTVSPost2010Prop35
280
     0
102
RTVSPost2010PropOp35
 70
     1
102
RTVSPost2010Prop36
280
     0
102
RTVSPost2010PropOp36
 70
     1
102
RTVSPost2010Prop37
 90
       50
102
RTVSPost2010PropOp37
 70
     1
102
RTVSPost2010Prop38
140
0.0
102
RTVSPost2010PropOp38
 70
     1
102
RTVSPost2010Prop39
140
1.0
102
RTVSPost2010PropOp39
 70
     1
102
RTVSPost2010Prop40
 90
        0
102
RTVSPost2010PropOp40
 70
     1
102
RTVSPost2010Prop41ColorIndex
 90
       18
102
RTVSPost2010Prop41ColorRGB
 90
        0
102
RTVSPost2010PropOp41
 70
     1
102
RTVSPost2010Prop42
 90
       50
102
RTVSPost2010PropOp42
 70
     1
102
RTVSPost2010Prop43
 90
        3
102
RTVSPost2010PropOp43
 70
     1
102
RTVSPost2010Prop44ColorIndex
 90
        5
102
RTVSPost2010Prop44ColorRGB
 90
      255
102
RTVSPost2010PropOp44
 70
     1
102
RTVSPost2010Prop45
280
     0
102
RTVSPost2010PropOp45
 70
     1
102
RTVSPost2010Prop46
 90
       50
102
RTVSPost2010PropOp46
 70
     1
102
RTVSPost2010Prop47
 90
       50
102
RTVSPost2010PropOp47
 70
     1
102
RTVSPost2010Prop48
 90
       50
102
RTVSPost2010PropOp48
 70
     1
102
RTVSPost2010Prop49
280
     0
102
RTVSPost2010PropOp49
 70
     1
102
RTVSPost2010Prop50
 90
       50
102
RTVSPost2010PropOp50
 70
     1
102
RTVSPost2010Prop51ColorIndex
 90
      256
102
RTVSPost2010Prop51ColorRGB
 90
-16777216
102
RTVSPost2010PropOp51
 70
     0
102
RTVSPost2010Prop52
140
1.0
102
RTVSPost2010PropOp52
 70
     0
102
RTVSPost2010Prop53
 90
        2
102
RTVSPost2010PropOp53
 70
     1
102
RTVSPost2010Prop54
  1
strokes_ogs.tif
102
RTVSPost2010PropOp54
 70
     1
102
RTVSPost2010Prop55
280
     0
102
RTVSPost2010PropOp55
 70
     1
102
RTVSPost2010Prop56
140
1.0
102
RTVSPost2010PropOp56
 70
     1
102
RTVSPost2010Prop57
140
1.0
102
RTVSPost2010PropOp57
 70
     1
  0
XRECORD
  5
9F
102
{ACAD_REACTORS
330
9E
102
}
330
9E
100
AcDbXrecord
280
     1
102
RTVSPropertyOp0
 70
     1
102
RTVSPropertyOp1
 70
     1
102
RTVSPropertyOp2
 70
     1
102
RTVSPropertyOp3
 70
     1
102
RTVSPropertyOp4
 70
     1
102
RTVSPropertyOp5
 70
     1
102
RTVSPropertyOp6
 70
     1
102
RTVSPropertyOp7
 70
     1
102
RTVSPropertyOp8
 70
     1
102
RTVSPropertyOp9
 70
     1
102
RTVSPropertyOp10
 70
     1
102
RTVSPropertyOp11
 70
     1
102
RTVSPropertyOp12
 70
     1
102
RTVSPropertyOp13
 70
     1
102
RTVSPropertyOp14
 70
     1
102
RTVSPropertyOp15
 70
     1
102
RTVSPropertyOp16
 70
     1
102
RTVSPropertyOp17
 70
     1
102
RTVSPropertyOp18
 70
     1
102
RTVSPropertyOp19
 70
     1
102
RTVSPropertyOp20
 70
     1
102
RTVSPropertyOp21
 70
     1
102
RTVSPropertyOp22
 70
     1
102
RTVSPropertyOp23
 70
     1
102
RTVSPropertyOp24
 70
     1
102
RTVSPropertyOp25
 70
     1
102
RTVSPropertyOp26
 70
     1
102
RTVSPropertyOp27
 70
     1
102
RTVSPropertyOp28
 70
     1
102
RTVSPropertyOp29
 70
     1
102
RTVSPropertyOp30
 70
     1
102
RTVSPropertyOp31
 70
     1
102
RTVSPropertyOp32
 70
     1
102
RTVSPropertyOp33
 70
     1
102
RTVSPropertyOp34
 70
     1
102
RTVSPropertyOp35
 70
     1
102
RTVSPropertyOp36
 70
     1
102
RTVSPropertyOp37
 70
     1
102
RTVSPropertyOp38
 70
     1
102
RTVSPropertyOp39
 70
     1
102
RTVSPropertyOp40
 70
     1
102
RTVSPropertyOp41
 70
     1
102
RTVSPropertyOp42
 70
     1
102
RTVSPropertyOp43
 70
     1
102
RTVSPropertyOp44
 70
     1
102
RTVSPropertyOp45
 70
     1
102
RTVSPropertyOp46
 70
     1
102
RTVSPropertyOp47
 70
     1
102
RTVSPropertyOp48
 70
     1
102
RTVSPropertyOp49
 70
     1
102
RTVSPropertyOp50
 70
     1
102
RTVSPropertyOp51
 70
     0
102
RTVSPropertyOp52
 70
     0
102
RTVSPropertyOp53
 70
     1
102
RTVSPropertyOp54
 70
     1
102
RTVSPropertyOp55
 70
     1
102
RTVSPropertyOp56
 70
     1
102
RTVSPropertyOp57
 70
     1
102
RTVSPost2010Prop28
280
     0
102
RTVSPost2010PropOp28
 70
     1
102
RTVSPost2010Prop29
280
     1
102
RTVSPost2010PropOp29
 70
     1
102
RTVSPost2010Prop30
280
     1
102
RTVSPost2010PropOp30
 70
     1
102
RTVSPost2010Prop31
280
     0
102
RTVSPost2010PropOp31
 70
     1
102
RTVSPost2010Prop32
280
     0
102
RTVSPost2010PropOp32
 70
     1
102
RTVSPost2010Prop33
280
     0
102
RTVSPost2010PropOp33
 70
     1
102
RTVSPost2010Prop34
280
     0
102
RTVSPost2010PropOp34
 70
     1
102
RTVSPost2010Prop35
280
     0
102
RTVSPost2010PropOp35
 70
     1
102
RTVSPost2010Prop36
280
     0
102
RTVSPost2010PropOp36
 70
     1
102
RTVSPost2010Prop37
 90
       50
102
RTVSPost2010PropOp37
 70
     1
102
RTVSPost2010Prop38
140
0.0
102
RTVSPost2010PropOp38
 70
     1
102
RTVSPost2010Prop39
140
1.0
102
RTVSPost2010PropOp39
 70
     1
102
RTVSPost2010Prop40
 90
        0
102
RTVSPost2010PropOp40
 70
     1
102
RTVSPost2010Prop41ColorIndex
 90
       18
102
RTVSPost2010Prop41ColorRGB
 90
        0
102
RTVSPost2010PropOp41
 70
     1
102
RTVSPost2010Prop42
 90
       50
102
RTVSPost2010PropOp42
 70
     1
102
RTVSPost2010Prop43
 90
        3
102
RTVSPost2010PropOp43
 70
     1
102
RTVSPost2010Prop44ColorIndex
 90
        5
102
RTVSPost2010Prop44ColorRGB
 90
      255
102
RTVSPost2010PropOp44
 70
     1
102
RTVSPost2010Prop45
280
     0
102
RTVSPost2010PropOp45
 70
     1
102
RTVSPost2010Prop46
 90
       50
102
RTVSPost2010PropOp46
 70
     1
102
RTVSPost2010Prop47
 90
       50
102
RTVSPost2010PropOp47
 70
     1
102
RTVSPost2010Prop48
 90
       50
102
RTVSPost2010PropOp48
 70
     1
102
RTVSPost2010Prop49
280
     0
102
RTVSPost2010PropOp49
 70
     1
102
RTVSPost2010Prop50
 90
       50
102
RTVSPost2010PropOp50
 70
     1
102
RTVSPost2010Prop51ColorIndex
 90
      256
102
RTVSPost2010Prop51ColorRGB
 90
-16777216
102
RTVSPost2010PropOp51
 70
     0
102
RTVSPost2010Prop52
140
1.0
102
RTVSPost2010PropOp52
 70
     0
102
RTVSPost2010Prop53
 90
        2
102
RTVSPost2010PropOp53
 70
     1
102
RTVSPost2010Prop54
  1
strokes_ogs.tif
102
RTVSPost2010PropOp54
 70
     1
102
RTVSPost2010Prop55
280
     0
102
RTVSPost2010PropOp55
 70
     1
102
RTVSPost2010Prop56
140
1.0
102
RTVSPost2010PropOp56
 70
     1
102
RTVSPost2010Prop57
140
1.0
102
RTVSPost2010PropOp57
 70
     1
  0
XRECORD
  5
A5
102
{ACAD_REACTORS
330
A4
102
}
330
A4
100
AcDbXrecord
280
     1
102
RTVSPropertyOp0
 70
     1
102
RTVSPropertyOp1
 70
     1
102
RTVSPropertyOp2
 70
     1
102
RTVSPropertyOp3
 70
     1
102
RTVSPropertyOp4
 70
     1
102
RTVSPropertyOp5
 70
     1
102
RTVSPropertyOp6
 70
     1
102
RTVSPropertyOp7
 70
     1
102
RTVSPropertyOp8
 70
     1
102
RTVSPropertyOp9
 70
     1
102
RTVSPropertyOp10
 70
     1
102
RTVSPropertyOp11
 70
     1
102
RTVSPropertyOp12
 70
     1
102
RTVSPropertyOp13
 70
     1
102
RTVSPropertyOp14
 70
     1
102
RTVSPropertyOp15
 70
     1
102
RTVSPropertyOp16
 70
     1
102
RTVSPropertyOp17
 70
     1
102
RTVSPropertyOp18
 70
     1
102
RTVSPropertyOp19
 70
     1
102
RTVSPropertyOp20
 70
     1
102
RTVSPropertyOp21
 70
     1
102
RTVSPropertyOp22
 70
     1
102
RTVSPropertyOp23
 70
     1
102
RTVSPropertyOp24
 70
     1
102
RTVSPropertyOp25
 70
     1
102
RTVSPropertyOp26
 70
     1
102
RTVSPropertyOp27
 70
     1
102
RTVSPropertyOp28
 70
     1
102
RTVSPropertyOp29
 70
     1
102
RTVSPropertyOp30
 70
     1
102
RTVSPropertyOp31
 70
     1
102
RTVSPropertyOp32
 70
     1
102
RTVSPropertyOp33
 70
     1
102
RTVSPropertyOp34
 70
     1
102
RTVSPropertyOp35
 70
     1
102
RTVSPropertyOp36
 70
     1
102
RTVSPropertyOp37
 70
     1
102
RTVSPropertyOp38
 70
     1
102
RTVSPropertyOp39
 70
     1
102
RTVSPropertyOp40
 70
     1
102
RTVSPropertyOp41
 70
     1
102
RTVSPropertyOp42
 70
     1
102
RTVSPropertyOp43
 70
     1
102
RTVSPropertyOp44
 70
     1
102
RTVSPropertyOp45
 70
     1
102
RTVSPropertyOp46
 70
     1
102
RTVSPropertyOp47
 70
     1
102
RTVSPropertyOp48
 70
     1
102
RTVSPropertyOp49
 70
     1
102
RTVSPropertyOp50
 70
     1
102
RTVSPropertyOp51
 70
     0
102
RTVSPropertyOp52
 70
     0
102
RTVSPropertyOp53
 70
     1
102
RTVSPropertyOp54
 70
     1
102
RTVSPropertyOp55
 70
     1
102
RTVSPropertyOp56
 70
     1
102
RTVSPropertyOp57
 70
     1
102
RTVSPost2010Prop28
280
     0
102
RTVSPost2010PropOp28
 70
     1
102
RTVSPost2010Prop29
280
     1
102
RTVSPost2010PropOp29
 70
     1
102
RTVSPost2010Prop30
280
     1
102
RTVSPost2010PropOp30
 70
     1
102
RTVSPost2010Prop31
280
     0
102
RTVSPost2010PropOp31
 70
     1
102
RTVSPost2010Prop32
280
     0
102
RTVSPost2010PropOp32
 70
     1
102
RTVSPost2010Prop33
280
     0
102
RTVSPost2010PropOp33
 70
     1
102
RTVSPost2010Prop34
280
     0
102
RTVSPost2010PropOp34
 70
     1
102
RTVSPost2010Prop35
280
     0
102
RTVSPost2010PropOp35
 70
     1
102
RTVSPost2010Prop36
280
     0
102
RTVSPost2010PropOp36
 70
     1
102
RTVSPost2010Prop37
 90
       50
102
RTVSPost2010PropOp37
 70
     1
102
RTVSPost2010Prop38
140
0.0
102
RTVSPost2010PropOp38
 70
     1
102
RTVSPost2010Prop39
140
1.0
102
RTVSPost2010PropOp39
 70
     1
102
RTVSPost2010Prop40
 90
        0
102
RTVSPost2010PropOp40
 70
     1
102
RTVSPost2010Prop41ColorIndex
 90
       18
102
RTVSPost2010Prop41ColorRGB
 90
        0
102
RTVSPost2010PropOp41
 70
     1
102
RTVSPost2010Prop42
 90
       50
102
RTVSPost2010PropOp42
 70
     1
102
RTVSPost2010Prop43
 90
        3
102
RTVSPost2010PropOp43
 70
     1
102
RTVSPost2010Prop44ColorIndex
 90
        5
102
RTVSPost2010Prop44ColorRGB
 90
      255
102
RTVSPost2010PropOp44
 70
     1
102
RTVSPost2010Prop45
280
     0
102
RTVSPost2010PropOp45
 70
     1
102
RTVSPost2010Prop46
 90
       50
102
RTVSPost2010PropOp46
 70
     1
102
RTVSPost2010Prop47
 90
       50
102
RTVSPost2010PropOp47
 70
     1
102
RTVSPost2010Prop48
 90
       50
102
RTVSPost2010PropOp48
 70
     1
102
RTVSPost2010Prop49
280
     0
102
RTVSPost2010PropOp49
 70
     1
102
RTVSPost2010Prop50
 90
       50
102
RTVSPost2010PropOp50
 70
     1
102
RTVSPost2010Prop51ColorIndex
 90
      256
102
RTVSPost2010Prop51ColorRGB
 90
-16777216
102
RTVSPost2010PropOp51
 70
     0
102
RTVSPost2010Prop52
140
1.0
102
RTVSPost2010PropOp52
 70
     0
102
RTVSPost2010Prop53
 90
        2
102
RTVSPost2010PropOp53
 70
     1
102
RTVSPost2010Prop54
  1
strokes_ogs.tif
102
RTVSPost2010PropOp54
 70
     1
102
RTVSPost2010Prop55
280
     0
102
RTVSPost2010PropOp55
 70
     1
102
RTVSPost2010Prop56
140
1.0
102
RTVSPost2010PropOp56
 70
     1
102
RTVSPost2010Prop57
140
1.0
102
RTVSPost2010PropOp57
 70
     1
  0
XRECORD
  5
B9
102
{ACAD_REACTORS
330
B8
102
}
330
B8
100
AcDbXrecord
280
     1
102
RTVSPropertyOp0
 70
     0
102
RTVSPropertyOp1
 70
     0
102
RTVSPropertyOp2
 70
     0
102
RTVSPropertyOp3
 70
     0
102
RTVSPropertyOp4
 70
     0
102
RTVSPropertyOp5
 70
     0
102
RTVSPropertyOp6
 70
     0
102
RTVSPropertyOp7
 70
     0
102
RTVSPropertyOp8
 70
     0
102
RTVSPropertyOp9
 70
     0
102
RTVSPropertyOp10
 70
     0
102
RTVSPropertyOp11
 70
     0
102
RTVSPropertyOp12
 70
     0
102
RTVSPropertyOp13
 70
     0
102
RTVSPropertyOp14
 70
     2
102
RTVSPropertyOp15
 70
     0
102
RTVSPropertyOp16
 70
     0
102
RTVSPropertyOp17
 70
     0
102
RTVSPropertyOp18
 70
     0
102
RTVSPropertyOp19
 70
     0
102
RTVSPropertyOp20
 70
     0
102
RTVSPropertyOp21
 70
     0
102
RTVSPropertyOp22
 70
     0
102
RTVSPropertyOp23
 70
     0
102
RTVSPropertyOp24
 70
     0
102
RTVSPropertyOp25
 70
     0
102
RTVSPropertyOp26
 70
     0
102
RTVSPropertyOp27
 70
     0
102
RTVSPropertyOp28
 70
     0
102
RTVSPropertyOp29
 70
     0
102
RTVSPropertyOp30
 70
     0
102
RTVSPropertyOp31
 70
     0
102
RTVSPropertyOp32
 70
     0
102
RTVSPropertyOp33
 70
     0
102
RTVSPropertyOp34
 70
     0
102
RTVSPropertyOp35
 70
     0
102
RTVSPropertyOp36
 70
     0
102
RTVSPropertyOp37
 70
     0
102
RTVSPropertyOp38
 70
     0
102
RTVSPropertyOp39
 70
     0
102
RTVSPropertyOp40
 70
     0
102
RTVSPropertyOp41
 70
     0
102
RTVSPropertyOp42
 70
     0
102
RTVSPropertyOp43
 70
     0
102
RTVSPropertyOp44
 70
     0
102
RTVSPropertyOp45
 70
     0
102
RTVSPropertyOp46
 70
     0
102
RTVSPropertyOp47
 70
     0
102
RTVSPropertyOp48
 70
     0
102
RTVSPropertyOp49
 70
     0
102
RTVSPropertyOp50
 70
     0
102
RTVSPropertyOp51
 70
     0
102
RTVSPropertyOp52
 70
     0
102
RTVSPropertyOp53
 70
     0
102
RTVSPropertyOp54
 70
     0
102
RTVSPropertyOp55
 70
     0
102
RTVSPropertyOp56
 70
     0
102
RTVSPropertyOp57
 70
     0
102
RTVSPost2010Prop28
280
     0
102
RTVSPost2010PropOp28
 70
     0
102
RTVSPost2010Prop29
280
     1
102
RTVSPost2010PropOp29
 70
     0
102
RTVSPost2010Prop30
280
     1
102
RTVSPost2010PropOp30
 70
     0
102
RTVSPost2010Prop31
280
     0
102
RTVSPost2010PropOp31
 70
     0
102
RTVSPost2010Prop32
280
     0
102
RTVSPost2010PropOp32
 70
     0
102
RTVSPost2010Prop33
280
     0
102
RTVSPost2010PropOp33
 70
     0
102
RTVSPost2010Prop34
280
     0
102
RTVSPost2010PropOp34
 70
     0
102
RTVSPost2010Prop35
280
     0
102
RTVSPost2010PropOp35
 70
     0
102
RTVSPost2010Prop36
280
     0
102
RTVSPost2010PropOp36
 70
     0
102
RTVSPost2010Prop37
 90
       50
102
RTVSPost2010PropOp37
 70
     0
102
RTVSPost2010Prop38
140
0.0
102
RTVSPost2010PropOp38
 70
     0
102
RTVSPost2010Prop39
140
1.0
102
RTVSPost2010PropOp39
 70
     0
102
RTVSPost2010Prop40
 90
        0
102
RTVSPost2010PropOp40
 70
     0
102
RTVSPost2010Prop41ColorIndex
 90
       18
102
RTVSPost2010Prop41ColorRGB
 90
        0
102
RTVSPost2010PropOp41
 70
     0
102
RTVSPost2010Prop42
 90
       50
102
RTVSPost2010PropOp42
 70
     0
102
RTVSPost2010Prop43
 90
        3
102
RTVSPost2010PropOp43
 70
     0
102
RTVSPost2010Prop44ColorIndex
 90
        5
102
RTVSPost2010Prop44ColorRGB
 90
      255
102
RTVSPost2010PropOp44
 70
     0
102
RTVSPost2010Prop45
280
     0
102
RTVSPost2010PropOp45
 70
     0
102
RTVSPost2010Prop46
 90
       50
102
RTVSPost2010PropOp46
 70
     0
102
RTVSPost2010Prop47
 90
       50
102
RTVSPost2010PropOp47
 70
     0
102
RTVSPost2010Prop48
 90
       50
102
RTVSPost2010PropOp48
 70
     0
102
RTVSPost2010Prop49
280
     0
102
RTVSPost2010PropOp49
 70
     0
102
RTVSPost2010Prop50
 90
       50
102
RTVSPost2010PropOp50
 70
     0
102
RTVSPost2010Prop51ColorIndex
 90
      256
102
RTVSPost2010Prop51ColorRGB
 90
-16777216
102
RTVSPost2010PropOp51
 70
     0
102
RTVSPost2010Prop52
140
1.0
102
RTVSPost2010PropOp52
 70
     0
102
RTVSPost2010Prop53
 90
        2
102
RTVSPost2010PropOp53
 70
     0
102
RTVSPost2010Prop54
  1
strokes_ogs.tif
102
RTVSPost2010PropOp54
 70
     0
102
RTVSPost2010Prop55
280
     0
102
RTVSPost2010PropOp55
 70
     0
102
RTVSPost2010Prop56
140
1.0
102
RTVSPost2010PropOp56
 70
     0
102
RTVSPost2010Prop57
140
1.0
102
RTVSPost2010PropOp57
 70
     0
  0
XRECORD
  5
B3
102
{ACAD_REACTORS
330
B2
102
}
330
B2
100
AcDbXrecord
280
     1
102
RTVSPropertyOp0
 70
     1
102
RTVSPropertyOp1
 70
     1
102
RTVSPropertyOp2
 70
     1
102
RTVSPropertyOp3
 70
     1
102
RTVSPropertyOp4
 70
     1
102
RTVSPropertyOp5
 70
     1
102
RTVSPropertyOp6
 70
     1
102
RTVSPropertyOp7
 70
     1
102
RTVSPropertyOp8
 70
     1
102
RTVSPropertyOp9
 70
     1
102
RTVSPropertyOp10
 70
     1
102
RTVSPropertyOp11
 70
     1
102
RTVSPropertyOp12
 70
     1
102
RTVSPropertyOp13
 70
     1
102
RTVSPropertyOp14
 70
     1
102
RTVSPropertyOp15
 70
     1
102
RTVSPropertyOp16
 70
     1
102
RTVSPropertyOp17
 70
     1
102
RTVSPropertyOp18
 70
     1
102
RTVSPropertyOp19
 70
     1
102
RTVSPropertyOp20
 70
     1
102
RTVSPropertyOp21
 70
     1
102
RTVSPropertyOp22
 70
     1
102
RTVSPropertyOp23
 70
     1
102
RTVSPropertyOp24
 70
     1
102
RTVSPropertyOp25
 70
     1
102
RTVSPropertyOp26
 70
     1
102
RTVSPropertyOp27
 70
     1
102
RTVSPropertyOp28
 70
     1
102
RTVSPropertyOp29
 70
     1
102
RTVSPropertyOp30
 70
     1
102
RTVSPropertyOp31
 70
     1
102
RTVSPropertyOp32
 70
     1
102
RTVSPropertyOp33
 70
     1
102
RTVSPropertyOp34
 70
     1
102
RTVSPropertyOp35
 70
     1
102
RTVSPropertyOp36
 70
     1
102
RTVSPropertyOp37
 70
     1
102
RTVSPropertyOp38
 70
     1
102
RTVSPropertyOp39
 70
     1
102
RTVSPropertyOp40
 70
     1
102
RTVSPropertyOp41
 70
     1
102
RTVSPropertyOp42
 70
     1
102
RTVSPropertyOp43
 70
     1
102
RTVSPropertyOp44
 70
     1
102
RTVSPropertyOp45
 70
     1
102
RTVSPropertyOp46
 70
     1
102
RTVSPropertyOp47
 70
     1
102
RTVSPropertyOp48
 70
     1
102
RTVSPropertyOp49
 70
     1
102
RTVSPropertyOp50
 70
     1
102
RTVSPropertyOp51
 70
     0
102
RTVSPropertyOp52
 70
     0
102
RTVSPropertyOp53
 70
     1
102
RTVSPropertyOp54
 70
     1
102
RTVSPropertyOp55
 70
     1
102
RTVSPropertyOp56
 70
     1
102
RTVSPropertyOp57
 70
     1
102
RTVSPost2010Prop28
280
     0
102
RTVSPost2010PropOp28
 70
     1
102
RTVSPost2010Prop29
280
     1
102
RTVSPost2010PropOp29
 70
     1
102
RTVSPost2010Prop30
280
     1
102
RTVSPost2010PropOp30
 70
     1
102
RTVSPost2010Prop31
280
     0
102
RTVSPost2010PropOp31
 70
     1
102
RTVSPost2010Prop32
280
     0
102
RTVSPost2010PropOp32
 70
     1
102
RTVSPost2010Prop33
280
     0
102
RTVSPost2010PropOp33
 70
     1
102
RTVSPost2010Prop34
280
     0
102
RTVSPost2010PropOp34
 70
     1
102
RTVSPost2010Prop35
280
     0
102
RTVSPost2010PropOp35
 70
     1
102
RTVSPost2010Prop36
280
     0
102
RTVSPost2010PropOp36
 70
     1
102
RTVSPost2010Prop37
 90
       50
102
RTVSPost2010PropOp37
 70
     1
102
RTVSPost2010Prop38
140
0.0
102
RTVSPost2010PropOp38
 70
     1
102
RTVSPost2010Prop39
140
1.0
102
RTVSPost2010PropOp39
 70
     1
102
RTVSPost2010Prop40
 90
        0
102
RTVSPost2010PropOp40
 70
     1
102
RTVSPost2010Prop41ColorIndex
 90
       18
102
RTVSPost2010Prop41ColorRGB
 90
        0
102
RTVSPost2010PropOp41
 70
     1
102
RTVSPost2010Prop42
 90
       50
102
RTVSPost2010PropOp42
 70
     1
102
RTVSPost2010Prop43
 90
        3
102
RTVSPost2010PropOp43
 70
     1
102
RTVSPost2010Prop44ColorIndex
 90
        5
102
RTVSPost2010Prop44ColorRGB
 90
      255
102
RTVSPost2010PropOp44
 70
     1
102
RTVSPost2010Prop45
280
     0
102
RTVSPost2010PropOp45
 70
     1
102
RTVSPost2010Prop46
 90
       50
102
RTVSPost2010PropOp46
 70
     1
102
RTVSPost2010Prop47
 90
       50
102
RTVSPost2010PropOp47
 70
     1
102
RTVSPost2010Prop48
 90
       50
102
RTVSPost2010PropOp48
 70
     1
102
RTVSPost2010Prop49
280
     0
102
RTVSPost2010PropOp49
 70
     1
102
RTVSPost2010Prop50
 90
       50
102
RTVSPost2010PropOp50
 70
     1
102
RTVSPost2010Prop51ColorIndex
 90
      256
102
RTVSPost2010Prop51ColorRGB
 90
-16777216
102
RTVSPost2010PropOp51
 70
     0
102
RTVSPost2010Prop52
140
1.0
102
RTVSPost2010PropOp52
 70
     0
102
RTVSPost2010Prop53
 90
        2
102
RTVSPost2010PropOp53
 70
     1
102
RTVSPost2010Prop54
  1
strokes_ogs.tif
102
RTVSPost2010PropOp54
 70
     1
102
RTVSPost2010Prop55
280
     0
102
RTVSPost2010PropOp55
 70
     1
102
RTVSPost2010Prop56
140
1.0
102
RTVSPost2010PropOp56
 70
     1
102
RTVSPost2010Prop57
140
1.0
102
RTVSPost2010PropOp57
 70
     1
  0
XRECORD
  5
BB
102
{ACAD_REACTORS
330
BA
102
}
330
BA
100
AcDbXrecord
280
     1
102
RTVSPropertyOp0
 70
     0
102
RTVSPropertyOp1
 70
     0
102
RTVSPropertyOp2
 70
     0
102
RTVSPropertyOp3
 70
     0
102
RTVSPropertyOp4
 70
     0
102
RTVSPropertyOp5
 70
     0
102
RTVSPropertyOp6
 70
     0
102
RTVSPropertyOp7
 70
     0
102
RTVSPropertyOp8
 70
     0
102
RTVSPropertyOp9
 70
     0
102
RTVSPropertyOp10
 70
     0
102
RTVSPropertyOp11
 70
     0
102
RTVSPropertyOp12
 70
     0
102
RTVSPropertyOp13
 70
     0
102
RTVSPropertyOp14
 70
     2
102
RTVSPropertyOp15
 70
     0
102
RTVSPropertyOp16
 70
     0
102
RTVSPropertyOp17
 70
     0
102
RTVSPropertyOp18
 70
     0
102
RTVSPropertyOp19
 70
     0
102
RTVSPropertyOp20
 70
     0
102
RTVSPropertyOp21
 70
     0
102
RTVSPropertyOp22
 70
     0
102
RTVSPropertyOp23
 70
     0
102
RTVSPropertyOp24
 70
     0
102
RTVSPropertyOp25
 70
     0
102
RTVSPropertyOp26
 70
     0
102
RTVSPropertyOp27
 70
     0
102
RTVSPropertyOp28
 70
     0
102
RTVSPropertyOp29
 70
     0
102
RTVSPropertyOp30
 70
     0
102
RTVSPropertyOp31
 70
     0
102
RTVSPropertyOp32
 70
     0
102
RTVSPropertyOp33
 70
     0
102
RTVSPropertyOp34
 70
     0
102
RTVSPropertyOp35
 70
     0
102
RTVSPropertyOp36
 70
     0
102
RTVSPropertyOp37
 70
     0
102
RTVSPropertyOp38
 70
     0
102
RTVSPropertyOp39
 70
     0
102
RTVSPropertyOp40
 70
     0
102
RTVSPropertyOp41
 70
     0
102
RTVSPropertyOp42
 70
     0
102
RTVSPropertyOp43
 70
     0
102
RTVSPropertyOp44
 70
     0
102
RTVSPropertyOp45
 70
     0
102
RTVSPropertyOp46
 70
     0
102
RTVSPropertyOp47
 70
     0
102
RTVSPropertyOp48
 70
     0
102
RTVSPropertyOp49
 70
     0
102
RTVSPropertyOp50
 70
     0
102
RTVSPropertyOp51
 70
     0
102
RTVSPropertyOp52
 70
     0
102
RTVSPropertyOp53
 70
     0
102
RTVSPropertyOp54
 70
     0
102
RTVSPropertyOp55
 70
     0
102
RTVSPropertyOp56
 70
     0
102
RTVSPropertyOp57
 70
     0
102
RTVSPost2010Prop28
280
     0
102
RTVSPost2010PropOp28
 70
     0
102
RTVSPost2010Prop29
280
     1
102
RTVSPost2010PropOp29
 70
     0
102
RTVSPost2010Prop30
280
     1
102
RTVSPost2010PropOp30
 70
     0
102
RTVSPost2010Prop31
280
     0
102
RTVSPost2010PropOp31
 70
     0
102
RTVSPost2010Prop32
280
     0
102
RTVSPost2010PropOp32
 70
     0
102
RTVSPost2010Prop33
280
     0
102
RTVSPost2010PropOp33
 70
     0
102
RTVSPost2010Prop34
280
     0
102
RTVSPost2010PropOp34
 70
     0
102
RTVSPost2010Prop35
280
     0
102
RTVSPost2010PropOp35
 70
     0
102
RTVSPost2010Prop36
280
     0
102
RTVSPost2010PropOp36
 70
     0
102
RTVSPost2010Prop37
 90
       50
102
RTVSPost2010PropOp37
 70
     0
102
RTVSPost2010Prop38
140
0.0
102
RTVSPost2010PropOp38
 70
     0
102
RTVSPost2010Prop39
140
1.0
102
RTVSPost2010PropOp39
 70
     0
102
RTVSPost2010Prop40
 90
        0
102
RTVSPost2010PropOp40
 70
     0
102
RTVSPost2010Prop41ColorIndex
 90
       18
102
RTVSPost2010Prop41ColorRGB
 90
        0
102
RTVSPost2010PropOp41
 70
     0
102
RTVSPost2010Prop42
 90
       50
102
RTVSPost2010PropOp42
 70
     0
102
RTVSPost2010Prop43
 90
        3
102
RTVSPost2010PropOp43
 70
     0
102
RTVSPost2010Prop44ColorIndex
 90
        5
102
RTVSPost2010Prop44ColorRGB
 90
      255
102
RTVSPost2010PropOp44
 70
     0
102
RTVSPost2010Prop45
280
     0
102
RTVSPost2010PropOp45
 70
     0
102
RTVSPost2010Prop46
 90
       50
102
RTVSPost2010PropOp46
 70
     0
102
RTVSPost2010Prop47
 90
       50
102
RTVSPost2010PropOp47
 70
     0
102
RTVSPost2010Prop48
 90
       50
102
RTVSPost2010PropOp48
 70
     0
102
RTVSPost2010Prop49
280
     0
102
RTVSPost2010PropOp49
 70
     0
102
RTVSPost2010Prop50
 90
       50
102
RTVSPost2010PropOp50
 70
     0
102
RTVSPost2010Prop51ColorIndex
 90
      256
102
RTVSPost2010Prop51ColorRGB
 90
-16777216
102
RTVSPost2010PropOp51
 70
     0
102
RTVSPost2010Prop52
140
1.0
102
RTVSPost2010PropOp52
 70
     0
102
RTVSPost2010Prop53
 90
        2
102
RTVSPost2010PropOp53
 70
     0
102
RTVSPost2010Prop54
  1
strokes_ogs.tif
102
RTVSPost2010PropOp54
 70
     0
102
RTVSPost2010Prop55
280
     0
102
RTVSPost2010PropOp55
 70
     0
102
RTVSPost2010Prop56
140
1.0
102
RTVSPost2010PropOp56
 70
     0
102
RTVSPost2010Prop57
140
1.0
102
RTVSPost2010PropOp57
 70
     0
  0
XRECORD
  5
A9
102
{ACAD_REACTORS
330
A8
102
}
330
A8
100
AcDbXrecord
280
     1
102
RTVSPropertyOp0
 70
     1
102
RTVSPropertyOp1
 70
     1
102
RTVSPropertyOp2
 70
     1
102
RTVSPropertyOp3
 70
     1
102
RTVSPropertyOp4
 70
     1
102
RTVSPropertyOp5
 70
     1
102
RTVSPropertyOp6
 70
     1
102
RTVSPropertyOp7
 70
     1
102
RTVSPropertyOp8
 70
     1
102
RTVSPropertyOp9
 70
     1
102
RTVSPropertyOp10
 70
     1
102
RTVSPropertyOp11
 70
     1
102
RTVSPropertyOp12
 70
     1
102
RTVSPropertyOp13
 70
     1
102
RTVSPropertyOp14
 70
     1
102
RTVSPropertyOp15
 70
     1
102
RTVSPropertyOp16
 70
     1
102
RTVSPropertyOp17
 70
     1
102
RTVSPropertyOp18
 70
     1
102
RTVSPropertyOp19
 70
     1
102
RTVSPropertyOp20
 70
     1
102
RTVSPropertyOp21
 70
     1
102
RTVSPropertyOp22
 70
     1
102
RTVSPropertyOp23
 70
     1
102
RTVSPropertyOp24
 70
     1
102
RTVSPropertyOp25
 70
     1
102
RTVSPropertyOp26
 70
     1
102
RTVSPropertyOp27
 70
     1
102
RTVSPropertyOp28
 70
     1
102
RTVSPropertyOp29
 70
     1
102
RTVSPropertyOp30
 70
     1
102
RTVSPropertyOp31
 70
     1
102
RTVSPropertyOp32
 70
     1
102
RTVSPropertyOp33
 70
     1
102
RTVSPropertyOp34
 70
     1
102
RTVSPropertyOp35
 70
     1
102
RTVSPropertyOp36
 70
     1
102
RTVSPropertyOp37
 70
     1
102
RTVSPropertyOp38
 70
     1
102
RTVSPropertyOp39
 70
     1
102
RTVSPropertyOp40
 70
     1
102
RTVSPropertyOp41
 70
     1
102
RTVSPropertyOp42
 70
     1
102
RTVSPropertyOp43
 70
     1
102
RTVSPropertyOp44
 70
     1
102
RTVSPropertyOp45
 70
     1
102
RTVSPropertyOp46
 70
     1
102
RTVSPropertyOp47
 70
     1
102
RTVSPropertyOp48
 70
     1
102
RTVSPropertyOp49
 70
     1
102
RTVSPropertyOp50
 70
     1
102
RTVSPropertyOp51
 70
     0
102
RTVSPropertyOp52
 70
     0
102
RTVSPropertyOp53
 70
     1
102
RTVSPropertyOp54
 70
     1
102
RTVSPropertyOp55
 70
     1
102
RTVSPropertyOp56
 70
     1
102
RTVSPropertyOp57
 70
     1
102
RTVSPost2010Prop28
280
     0
102
RTVSPost2010PropOp28
 70
     1
102
RTVSPost2010Prop29
280
     1
102
RTVSPost2010PropOp29
 70
     1
102
RTVSPost2010Prop30
280
     1
102
RTVSPost2010PropOp30
 70
     1
102
RTVSPost2010Prop31
280
     0
102
RTVSPost2010PropOp31
 70
     1
102
RTVSPost2010Prop32
280
     0
102
RTVSPost2010PropOp32
 70
     1
102
RTVSPost2010Prop33
280
     0
102
RTVSPost2010PropOp33
 70
     1
102
RTVSPost2010Prop34
280
     0
102
RTVSPost2010PropOp34
 70
     1
102
RTVSPost2010Prop35
280
     0
102
RTVSPost2010PropOp35
 70
     1
102
RTVSPost2010Prop36
280
     0
102
RTVSPost2010PropOp36
 70
     1
102
RTVSPost2010Prop37
 90
       50
102
RTVSPost2010PropOp37
 70
     1
102
RTVSPost2010Prop38
140
0.0
102
RTVSPost2010PropOp38
 70
     1
102
RTVSPost2010Prop39
140
1.0
102
RTVSPost2010PropOp39
 70
     1
102
RTVSPost2010Prop40
 90
        0
102
RTVSPost2010PropOp40
 70
     1
102
RTVSPost2010Prop41ColorIndex
 90
       18
102
RTVSPost2010Prop41ColorRGB
 90
        0
102
RTVSPost2010PropOp41
 70
     1
102
RTVSPost2010Prop42
 90
       50
102
RTVSPost2010PropOp42
 70
     1
102
RTVSPost2010Prop43
 90
        3
102
RTVSPost2010PropOp43
 70
     1
102
RTVSPost2010Prop44ColorIndex
 90
        5
102
RTVSPost2010Prop44ColorRGB
 90
      255
102
RTVSPost2010PropOp44
 70
     1
102
RTVSPost2010Prop45
280
     0
102
RTVSPost2010PropOp45
 70
     1
102
RTVSPost2010Prop46
 90
       50
102
RTVSPost2010PropOp46
 70
     1
102
RTVSPost2010Prop47
 90
       50
102
RTVSPost2010PropOp47
 70
     1
102
RTVSPost2010Prop48
 90
       50
102
RTVSPost2010PropOp48
 70
     1
102
RTVSPost2010Prop49
280
     0
102
RTVSPost2010PropOp49
 70
     1
102
RTVSPost2010Prop50
 90
       50
102
RTVSPost2010PropOp50
 70
     1
102
RTVSPost2010Prop51ColorIndex
 90
      256
102
RTVSPost2010Prop51ColorRGB
 90
-16777216
102
RTVSPost2010PropOp51
 70
     0
102
RTVSPost2010Prop52
140
1.0
102
RTVSPost2010PropOp52
 70
     0
102
RTVSPost2010Prop53
 90
        2
102
RTVSPost2010PropOp53
 70
     1
102
RTVSPost2010Prop54
  1
strokes_ogs.tif
102
RTVSPost2010PropOp54
 70
     1
102
RTVSPost2010Prop55
280
     0
102
RTVSPost2010PropOp55
 70
     1
102
RTVSPost2010Prop56
140
1.0
102
RTVSPost2010PropOp56
 70
     1
102
RTVSPost2010Prop57
140
1.0
102
RTVSPost2010PropOp57
 70
     1
  0
XRECORD
  5
C7
102
{ACAD_REACTORS
330
C6
102
}
330
C6
100
AcDbXrecord
280
     1
102
RTVSPropertyOp0
 70
     1
102
RTVSPropertyOp1
 70
     1
102
RTVSPropertyOp2
 70
     1
102
RTVSPropertyOp3
 70
     1
102
RTVSPropertyOp4
 70
     1
102
RTVSPropertyOp5
 70
     1
102
RTVSPropertyOp6
 70
     1
102
RTVSPropertyOp7
 70
     1
102
RTVSPropertyOp8
 70
     1
102
RTVSPropertyOp9
 70
     1
102
RTVSPropertyOp10
 70
     1
102
RTVSPropertyOp11
 70
     1
102
RTVSPropertyOp12
 70
     1
102
RTVSPropertyOp13
 70
     1
102
RTVSPropertyOp14
 70
     1
102
RTVSPropertyOp15
 70
     1
102
RTVSPropertyOp16
 70
     1
102
RTVSPropertyOp17
 70
     1
102
RTVSPropertyOp18
 70
     1
102
RTVSPropertyOp19
 70
     1
102
RTVSPropertyOp20
 70
     1
102
RTVSPropertyOp21
 70
     1
102
RTVSPropertyOp22
 70
     1
102
RTVSPropertyOp23
 70
     1
102
RTVSPropertyOp24
 70
     1
102
RTVSPropertyOp25
 70
     1
102
RTVSPropertyOp26
 70
     1
102
RTVSPropertyOp27
 70
     1
102
RTVSPropertyOp28
 70
     1
102
RTVSPropertyOp29
 70
     1
102
RTVSPropertyOp30
 70
     1
102
RTVSPropertyOp31
 70
     1
102
RTVSPropertyOp32
 70
     1
102
RTVSPropertyOp33
 70
     1
102
RTVSPropertyOp34
 70
     1
102
RTVSPropertyOp35
 70
     1
102
RTVSPropertyOp36
 70
     1
102
RTVSPropertyOp37
 70
     1
102
RTVSPropertyOp38
 70
     1
102
RTVSPropertyOp39
 70
     1
102
RTVSPropertyOp40
 70
     1
102
RTVSPropertyOp41
 70
     1
102
RTVSPropertyOp42
 70
     1
102
RTVSPropertyOp43
 70
     1
102
RTVSPropertyOp44
 70
     1
102
RTVSPropertyOp45
 70
     1
102
RTVSPropertyOp46
 70
     1
102
RTVSPropertyOp47
 70
     1
102
RTVSPropertyOp48
 70
     1
102
RTVSPropertyOp49
 70
     1
102
RTVSPropertyOp50
 70
     1
102
RTVSPropertyOp51
 70
     0
102
RTVSPropertyOp52
 70
     0
102
RTVSPropertyOp53
 70
     1
102
RTVSPropertyOp54
 70
     1
102
RTVSPropertyOp55
 70
     1
102
RTVSPropertyOp56
 70
     1
102
RTVSPropertyOp57
 70
     1
102
RTVSPost2010Prop28
280
     0
102
RTVSPost2010PropOp28
 70
     1
102
RTVSPost2010Prop29
280
     1
102
RTVSPost2010PropOp29
 70
     1
102
RTVSPost2010Prop30
280
     1
102
RTVSPost2010PropOp30
 70
     1
102
RTVSPost2010Prop31
280
     0
102
RTVSPost2010PropOp31
 70
     1
102
RTVSPost2010Prop32
280
     0
102
RTVSPost2010PropOp32
 70
     1
102
RTVSPost2010Prop33
280
     0
102
RTVSPost2010PropOp33
 70
     1
102
RTVSPost2010Prop34
280
     0
102
RTVSPost2010PropOp34
 70
     1
102
RTVSPost2010Prop35
280
     0
102
RTVSPost2010PropOp35
 70
     1
102
RTVSPost2010Prop36
280
     0
102
RTVSPost2010PropOp36
 70
     1
102
RTVSPost2010Prop37
 90
       50
102
RTVSPost2010PropOp37
 70
     1
102
RTVSPost2010Prop38
140
0.0
102
RTVSPost2010PropOp38
 70
     1
102
RTVSPost2010Prop39
140
1.0
102
RTVSPost2010PropOp39
 70
     1
102
RTVSPost2010Prop40
 90
        0
102
RTVSPost2010PropOp40
 70
     1
102
RTVSPost2010Prop41ColorIndex
 90
       18
102
RTVSPost2010Prop41ColorRGB
 90
        0
102
RTVSPost2010PropOp41
 70
     1
102
RTVSPost2010Prop42
 90
       50
102
RTVSPost2010PropOp42
 70
     1
102
RTVSPost2010Prop43
 90
        3
102
RTVSPost2010PropOp43
 70
     1
102
RTVSPost2010Prop44ColorIndex
 90
        5
102
RTVSPost2010Prop44ColorRGB
 90
      255
102
RTVSPost2010PropOp44
 70
     1
102
RTVSPost2010Prop45
280
     0
102
RTVSPost2010PropOp45
 70
     1
102
RTVSPost2010Prop46
 90
       50
102
RTVSPost2010PropOp46
 70
     1
102
RTVSPost2010Prop47
 90
       50
102
RTVSPost2010PropOp47
 70
     1
102
RTVSPost2010Prop48
 90
       50
102
RTVSPost2010PropOp48
 70
     1
102
RTVSPost2010Prop49
280
     0
102
RTVSPost2010PropOp49
 70
     1
102
RTVSPost2010Prop50
 90
       50
102
RTVSPost2010PropOp50
 70
     1
102
RTVSPost2010Prop51ColorIndex
 90
      256
102
RTVSPost2010Prop51ColorRGB
 90
-16777216
102
RTVSPost2010PropOp51
 70
     0
102
RTVSPost2010Prop52
140
1.0
102
RTVSPost2010PropOp52
 70
     0
102
RTVSPost2010Prop53
 90
        2
102
RTVSPost2010PropOp53
 70
     1
102
RTVSPost2010Prop54
  1
strokes_ogs.tif
102
RTVSPost2010PropOp54
 70
     1
102
RTVSPost2010Prop55
280
     0
102
RTVSPost2010PropOp55
 70
     1
102
RTVSPost2010Prop56
140
1.0
102
RTVSPost2010PropOp56
 70
     1
102
RTVSPost2010Prop57
140
1.0
102
RTVSPost2010PropOp57
 70
     1
  0
XRECORD
  5
C5
102
{ACAD_REACTORS
330
C4
102
}
330
C4
100
AcDbXrecord
280
     1
102
RTVSPropertyOp0
 70
     1
102
RTVSPropertyOp1
 70
     1
102
RTVSPropertyOp2
 70
     1
102
RTVSPropertyOp3
 70
     1
102
RTVSPropertyOp4
 70
     1
102
RTVSPropertyOp5
 70
     1
102
RTVSPropertyOp6
 70
     1
102
RTVSPropertyOp7
 70
     1
102
RTVSPropertyOp8
 70
     1
102
RTVSPropertyOp9
 70
     1
102
RTVSPropertyOp10
 70
     1
102
RTVSPropertyOp11
 70
     1
102
RTVSPropertyOp12
 70
     1
102
RTVSPropertyOp13
 70
     1
102
RTVSPropertyOp14
 70
     1
102
RTVSPropertyOp15
 70
     1
102
RTVSPropertyOp16
 70
     1
102
RTVSPropertyOp17
 70
     1
102
RTVSPropertyOp18
 70
     1
102
RTVSPropertyOp19
 70
     1
102
RTVSPropertyOp20
 70
     1
102
RTVSPropertyOp21
 70
     1
102
RTVSPropertyOp22
 70
     1
102
RTVSPropertyOp23
 70
     1
102
RTVSPropertyOp24
 70
     1
102
RTVSPropertyOp25
 70
     1
102
RTVSPropertyOp26
 70
     1
102
RTVSPropertyOp27
 70
     1
102
RTVSPropertyOp28
 70
     1
102
RTVSPropertyOp29
 70
     1
102
RTVSPropertyOp30
 70
     1
102
RTVSPropertyOp31
 70
     1
102
RTVSPropertyOp32
 70
     1
102
RTVSPropertyOp33
 70
     1
102
RTVSPropertyOp34
 70
     1
102
RTVSPropertyOp35
 70
     1
102
RTVSPropertyOp36
 70
     1
102
RTVSPropertyOp37
 70
     1
102
RTVSPropertyOp38
 70
     1
102
RTVSPropertyOp39
 70
     1
102
RTVSPropertyOp40
 70
     1
102
RTVSPropertyOp41
 70
     1
102
RTVSPropertyOp42
 70
     1
102
RTVSPropertyOp43
 70
     1
102
RTVSPropertyOp44
 70
     1
102
RTVSPropertyOp45
 70
     1
102
RTVSPropertyOp46
 70
     1
102
RTVSPropertyOp47
 70
     1
102
RTVSPropertyOp48
 70
     1
102
RTVSPropertyOp49
 70
     1
102
RTVSPropertyOp50
 70
     1
102
RTVSPropertyOp51
 70
     0
102
RTVSPropertyOp52
 70
     0
102
RTVSPropertyOp53
 70
     1
102
RTVSPropertyOp54
 70
     1
102
RTVSPropertyOp55
 70
     1
102
RTVSPropertyOp56
 70
     1
102
RTVSPropertyOp57
 70
     1
102
RTVSPost2010Prop28
280
     0
102
RTVSPost2010PropOp28
 70
     1
102
RTVSPost2010Prop29
280
     1
102
RTVSPost2010PropOp29
 70
     1
102
RTVSPost2010Prop30
280
     1
102
RTVSPost2010PropOp30
 70
     1
102
RTVSPost2010Prop31
280
     0
102
RTVSPost2010PropOp31
 70
     1
102
RTVSPost2010Prop32
280
     0
102
RTVSPost2010PropOp32
 70
     1
102
RTVSPost2010Prop33
280
     0
102
RTVSPost2010PropOp33
 70
     1
102
RTVSPost2010Prop34
280
     0
102
RTVSPost2010PropOp34
 70
     1
102
RTVSPost2010Prop35
280
     0
102
RTVSPost2010PropOp35
 70
     1
102
RTVSPost2010Prop36
280
     0
102
RTVSPost2010PropOp36
 70
     1
102
RTVSPost2010Prop37
 90
       50
102
RTVSPost2010PropOp37
 70
     1
102
RTVSPost2010Prop38
140
0.0
102
RTVSPost2010PropOp38
 70
     1
102
RTVSPost2010Prop39
140
1.0
102
RTVSPost2010PropOp39
 70
     1
102
RTVSPost2010Prop40
 90
        0
102
RTVSPost2010PropOp40
 70
     1
102
RTVSPost2010Prop41ColorIndex
 90
       18
102
RTVSPost2010Prop41ColorRGB
 90
        0
102
RTVSPost2010PropOp41
 70
     1
102
RTVSPost2010Prop42
 90
       50
102
RTVSPost2010PropOp42
 70
     1
102
RTVSPost2010Prop43
 90
        3
102
RTVSPost2010PropOp43
 70
     1
102
RTVSPost2010Prop44ColorIndex
 90
        5
102
RTVSPost2010Prop44ColorRGB
 90
      255
102
RTVSPost2010PropOp44
 70
     1
102
RTVSPost2010Prop45
280
     0
102
RTVSPost2010PropOp45
 70
     1
102
RTVSPost2010Prop46
 90
       50
102
RTVSPost2010PropOp46
 70
     1
102
RTVSPost2010Prop47
 90
       50
102
RTVSPost2010PropOp47
 70
     1
102
RTVSPost2010Prop48
 90
       50
102
RTVSPost2010PropOp48
 70
     1
102
RTVSPost2010Prop49
280
     0
102
RTVSPost2010PropOp49
 70
     1
102
RTVSPost2010Prop50
 90
       50
102
RTVSPost2010PropOp50
 70
     1
102
RTVSPost2010Prop51ColorIndex
 90
      256
102
RTVSPost2010Prop51ColorRGB
 90
-16777216
102
RTVSPost2010PropOp51
 70
     0
102
RTVSPost2010Prop52
140
1.0
102
RTVSPost2010PropOp52
 70
     0
102
RTVSPost2010Prop53
 90
        2
102
RTVSPost2010PropOp53
 70
     1
102
RTVSPost2010Prop54
  1
strokes_ogs.tif
102
RTVSPost2010PropOp54
 70
     1
102
RTVSPost2010Prop55
280
     0
102
RTVSPost2010PropOp55
 70
     1
102
RTVSPost2010Prop56
140
1.0
102
RTVSPost2010PropOp56
 70
     1
102
RTVSPost2010Prop57
140
1.0
102
RTVSPost2010PropOp57
 70
     1
  0
XRECORD
  5
BF
102
{ACAD_REACTORS
330
BE
102
}
330
BE
100
AcDbXrecord
280
     1
102
RTVSPropertyOp0
 70
     1
102
RTVSPropertyOp1
 70
     1
102
RTVSPropertyOp2
 70
     1
102
RTVSPropertyOp3
 70
     1
102
RTVSPropertyOp4
 70
     1
102
RTVSPropertyOp5
 70
     1
102
RTVSPropertyOp6
 70
     1
102
RTVSPropertyOp7
 70
     1
102
RTVSPropertyOp8
 70
     1
102
RTVSPropertyOp9
 70
     1
102
RTVSPropertyOp10
 70
     1
102
RTVSPropertyOp11
 70
     1
102
RTVSPropertyOp12
 70
     1
102
RTVSPropertyOp13
 70
     1
102
RTVSPropertyOp14
 70
     1
102
RTVSPropertyOp15
 70
     1
102
RTVSPropertyOp16
 70
     1
102
RTVSPropertyOp17
 70
     1
102
RTVSPropertyOp18
 70
     1
102
RTVSPropertyOp19
 70
     1
102
RTVSPropertyOp20
 70
     1
102
RTVSPropertyOp21
 70
     1
102
RTVSPropertyOp22
 70
     1
102
RTVSPropertyOp23
 70
     1
102
RTVSPropertyOp24
 70
     1
102
RTVSPropertyOp25
 70
     1
102
RTVSPropertyOp26
 70
     1
102
RTVSPropertyOp27
 70
     1
102
RTVSPropertyOp28
 70
     1
102
RTVSPropertyOp29
 70
     1
102
RTVSPropertyOp30
 70
     1
102
RTVSPropertyOp31
 70
     1
102
RTVSPropertyOp32
 70
     1
102
RTVSPropertyOp33
 70
     1
102
RTVSPropertyOp34
 70
     1
102
RTVSPropertyOp35
 70
     1
102
RTVSPropertyOp36
 70
     1
102
RTVSPropertyOp37
 70
     1
102
RTVSPropertyOp38
 70
     1
102
RTVSPropertyOp39
 70
     1
102
RTVSPropertyOp40
 70
     1
102
RTVSPropertyOp41
 70
     1
102
RTVSPropertyOp42
 70
     1
102
RTVSPropertyOp43
 70
     1
102
RTVSPropertyOp44
 70
     1
102
RTVSPropertyOp45
 70
     1
102
RTVSPropertyOp46
 70
     1
102
RTVSPropertyOp47
 70
     1
102
RTVSPropertyOp48
 70
     1
102
RTVSPropertyOp49
 70
     1
102
RTVSPropertyOp50
 70
     1
102
RTVSPropertyOp51
 70
     0
102
RTVSPropertyOp52
 70
     0
102
RTVSPropertyOp53
 70
     1
102
RTVSPropertyOp54
 70
     1
102
RTVSPropertyOp55
 70
     1
102
RTVSPropertyOp56
 70
     1
102
RTVSPropertyOp57
 70
     1
102
RTVSPost2010Prop28
280
     0
102
RTVSPost2010PropOp28
 70
     1
102
RTVSPost2010Prop29
280
     1
102
RTVSPost2010PropOp29
 70
     1
102
RTVSPost2010Prop30
280
     1
102
RTVSPost2010PropOp30
 70
     1
102
RTVSPost2010Prop31
280
     0
102
RTVSPost2010PropOp31
 70
     1
102
RTVSPost2010Prop32
280
     0
102
RTVSPost2010PropOp32
 70
     1
102
RTVSPost2010Prop33
280
     0
102
RTVSPost2010PropOp33
 70
     1
102
RTVSPost2010Prop34
280
     0
102
RTVSPost2010PropOp34
 70
     1
102
RTVSPost2010Prop35
280
     0
102
RTVSPost2010PropOp35
 70
     1
102
RTVSPost2010Prop36
280
     0
102
RTVSPost2010PropOp36
 70
     1
102
RTVSPost2010Prop37
 90
       50
102
RTVSPost2010PropOp37
 70
     1
102
RTVSPost2010Prop38
140
0.0
102
RTVSPost2010PropOp38
 70
     1
102
RTVSPost2010Prop39
140
1.0
102
RTVSPost2010PropOp39
 70
     1
102
RTVSPost2010Prop40
 90
        0
102
RTVSPost2010PropOp40
 70
     1
102
RTVSPost2010Prop41ColorIndex
 90
       18
102
RTVSPost2010Prop41ColorRGB
 90
        0
102
RTVSPost2010PropOp41
 70
     1
102
RTVSPost2010Prop42
 90
       50
102
RTVSPost2010PropOp42
 70
     1
102
RTVSPost2010Prop43
 90
        3
102
RTVSPost2010PropOp43
 70
     1
102
RTVSPost2010Prop44ColorIndex
 90
        5
102
RTVSPost2010Prop44ColorRGB
 90
      255
102
RTVSPost2010PropOp44
 70
     1
102
RTVSPost2010Prop45
280
     0
102
RTVSPost2010PropOp45
 70
     1
102
RTVSPost2010Prop46
 90
       50
102
RTVSPost2010PropOp46
 70
     1
102
RTVSPost2010Prop47
 90
       50
102
RTVSPost2010PropOp47
 70
     1
102
RTVSPost2010Prop48
 90
       50
102
RTVSPost2010PropOp48
 70
     1
102
RTVSPost2010Prop49
280
     0
102
RTVSPost2010PropOp49
 70
     1
102
RTVSPost2010Prop50
 90
       50
102
RTVSPost2010PropOp50
 70
     1
102
RTVSPost2010Prop51ColorIndex
 90
      256
102
RTVSPost2010Prop51ColorRGB
 90
-16777216
102
RTVSPost2010PropOp51
 70
     0
102
RTVSPost2010Prop52
140
1.0
102
RTVSPost2010PropOp52
 70
     0
102
RTVSPost2010Prop53
 90
        2
102
RTVSPost2010PropOp53
 70
     1
102
RTVSPost2010Prop54
  1
strokes_ogs.tif
102
RTVSPost2010PropOp54
 70
     1
102
RTVSPost2010Prop55
280
     0
102
RTVSPost2010PropOp55
 70
     1
102
RTVSPost2010Prop56
140
1.0
102
RTVSPost2010PropOp56
 70
     1
102
RTVSPost2010Prop57
140
1.0
102
RTVSPost2010PropOp57
 70
     1
  0
XRECORD
  5
C1
102
{ACAD_REACTORS
330
C0
102
}
330
C0
100
AcDbXrecord
280
     1
102
RTVSPropertyOp0
 70
     1
102
RTVSPropertyOp1
 70
     1
102
RTVSPropertyOp2
 70
     1
102
RTVSPropertyOp3
 70
     1
102
RTVSPropertyOp4
 70
     1
102
RTVSPropertyOp5
 70
     1
102
RTVSPropertyOp6
 70
     1
102
RTVSPropertyOp7
 70
     1
102
RTVSPropertyOp8
 70
     1
102
RTVSPropertyOp9
 70
     1
102
RTVSPropertyOp10
 70
     1
102
RTVSPropertyOp11
 70
     1
102
RTVSPropertyOp12
 70
     1
102
RTVSPropertyOp13
 70
     1
102
RTVSPropertyOp14
 70
     1
102
RTVSPropertyOp15
 70
     1
102
RTVSPropertyOp16
 70
     1
102
RTVSPropertyOp17
 70
     1
102
RTVSPropertyOp18
 70
     1
102
RTVSPropertyOp19
 70
     1
102
RTVSPropertyOp20
 70
     1
102
RTVSPropertyOp21
 70
     1
102
RTVSPropertyOp22
 70
     1
102
RTVSPropertyOp23
 70
     1
102
RTVSPropertyOp24
 70
     1
102
RTVSPropertyOp25
 70
     1
102
RTVSPropertyOp26
 70
     1
102
RTVSPropertyOp27
 70
     1
102
RTVSPropertyOp28
 70
     1
102
RTVSPropertyOp29
 70
     1
102
RTVSPropertyOp30
 70
     1
102
RTVSPropertyOp31
 70
     1
102
RTVSPropertyOp32
 70
     1
102
RTVSPropertyOp33
 70
     1
102
RTVSPropertyOp34
 70
     1
102
RTVSPropertyOp35
 70
     1
102
RTVSPropertyOp36
 70
     1
102
RTVSPropertyOp37
 70
     1
102
RTVSPropertyOp38
 70
     1
102
RTVSPropertyOp39
 70
     1
102
RTVSPropertyOp40
 70
     1
102
RTVSPropertyOp41
 70
     1
102
RTVSPropertyOp42
 70
     1
102
RTVSPropertyOp43
 70
     1
102
RTVSPropertyOp44
 70
     1
102
RTVSPropertyOp45
 70
     1
102
RTVSPropertyOp46
 70
     1
102
RTVSPropertyOp47
 70
     1
102
RTVSPropertyOp48
 70
     1
102
RTVSPropertyOp49
 70
     1
102
RTVSPropertyOp50
 70
     1
102
RTVSPropertyOp51
 70
     0
102
RTVSPropertyOp52
 70
     0
102
RTVSPropertyOp53
 70
     1
102
RTVSPropertyOp54
 70
     1
102
RTVSPropertyOp55
 70
     1
102
RTVSPropertyOp56
 70
     1
102
RTVSPropertyOp57
 70
     1
102
RTVSPost2010Prop28
280
     0
102
RTVSPost2010PropOp28
 70
     1
102
RTVSPost2010Prop29
280
     1
102
RTVSPost2010PropOp29
 70
     1
102
RTVSPost2010Prop30
280
     1
102
RTVSPost2010PropOp30
 70
     1
102
RTVSPost2010Prop31
280
     0
102
RTVSPost2010PropOp31
 70
     1
102
RTVSPost2010Prop32
280
     0
102
RTVSPost2010PropOp32
 70
     1
102
RTVSPost2010Prop33
280
     0
102
RTVSPost2010PropOp33
 70
     1
102
RTVSPost2010Prop34
280
     0
102
RTVSPost2010PropOp34
 70
     1
102
RTVSPost2010Prop35
280
     0
102
RTVSPost2010PropOp35
 70
     1
102
RTVSPost2010Prop36
280
     0
102
RTVSPost2010PropOp36
 70
     1
102
RTVSPost2010Prop37
 90
       50
102
RTVSPost2010PropOp37
 70
     1
102
RTVSPost2010Prop38
140
0.0
102
RTVSPost2010PropOp38
 70
     1
102
RTVSPost2010Prop39
140
1.0
102
RTVSPost2010PropOp39
 70
     1
102
RTVSPost2010Prop40
 90
        0
102
RTVSPost2010PropOp40
 70
     1
102
RTVSPost2010Prop41ColorIndex
 90
       18
102
RTVSPost2010Prop41ColorRGB
 90
        0
102
RTVSPost2010PropOp41
 70
     1
102
RTVSPost2010Prop42
 90
       50
102
RTVSPost2010PropOp42
 70
     1
102
RTVSPost2010Prop43
 90
        3
102
RTVSPost2010PropOp43
 70
     1
102
RTVSPost2010Prop44ColorIndex
 90
        5
102
RTVSPost2010Prop44ColorRGB
 90
      255
102
RTVSPost2010PropOp44
 70
     1
102
RTVSPost2010Prop45
280
     0
102
RTVSPost2010PropOp45
 70
     1
102
RTVSPost2010Prop46
 90
       50
102
RTVSPost2010PropOp46
 70
     1
102
RTVSPost2010Prop47
 90
       50
102
RTVSPost2010PropOp47
 70
     1
102
RTVSPost2010Prop48
 90
       50
102
RTVSPost2010PropOp48
 70
     1
102
RTVSPost2010Prop49
280
     0
102
RTVSPost2010PropOp49
 70
     1
102
RTVSPost2010Prop50
 90
       50
102
RTVSPost2010PropOp50
 70
     1
102
RTVSPost2010Prop51ColorIndex
 90
      256
102
RTVSPost2010Prop51ColorRGB
 90
-16777216
102
RTVSPost2010PropOp51
 70
     0
102
RTVSPost2010Prop52
140
1.0
102
RTVSPost2010PropOp52
 70
     0
102
RTVSPost2010Prop53
 90
        2
102
RTVSPost2010PropOp53
 70
     1
102
RTVSPost2010Prop54
  1
strokes_ogs.tif
102
RTVSPost2010PropOp54
 70
     1
102
RTVSPost2010Prop55
280
     0
102
RTVSPost2010PropOp55
 70
     1
102
RTVSPost2010Prop56
140
1.0
102
RTVSPost2010PropOp56
 70
     1
102
RTVSPost2010Prop57
140
1.0
102
RTVSPost2010PropOp57
 70
     1
  0
XRECORD
  5
B1
102
{ACAD_REACTORS
330
B0
102
}
330
B0
100
AcDbXrecord
280
     1
102
RTVSPropertyOp0
 70
     1
102
RTVSPropertyOp1
 70
     1
102
RTVSPropertyOp2
 70
     1
102
RTVSPropertyOp3
 70
     1
102
RTVSPropertyOp4
 70
     1
102
RTVSPropertyOp5
 70
     1
102
RTVSPropertyOp6
 70
     1
102
RTVSPropertyOp7
 70
     1
102
RTVSPropertyOp8
 70
     1
102
RTVSPropertyOp9
 70
     1
102
RTVSPropertyOp10
 70
     1
102
RTVSPropertyOp11
 70
     1
102
RTVSPropertyOp12
 70
     1
102
RTVSPropertyOp13
 70
     1
102
RTVSPropertyOp14
 70
     1
102
RTVSPropertyOp15
 70
     1
102
RTVSPropertyOp16
 70
     1
102
RTVSPropertyOp17
 70
     1
102
RTVSPropertyOp18
 70
     1
102
RTVSPropertyOp19
 70
     1
102
RTVSPropertyOp20
 70
     1
102
RTVSPropertyOp21
 70
     1
102
RTVSPropertyOp22
 70
     1
102
RTVSPropertyOp23
 70
     1
102
RTVSPropertyOp24
 70
     1
102
RTVSPropertyOp25
 70
     1
102
RTVSPropertyOp26
 70
     1
102
RTVSPropertyOp27
 70
     1
102
RTVSPropertyOp28
 70
     1
102
RTVSPropertyOp29
 70
     1
102
RTVSPropertyOp30
 70
     1
102
RTVSPropertyOp31
 70
     1
102
RTVSPropertyOp32
 70
     1
102
RTVSPropertyOp33
 70
     1
102
RTVSPropertyOp34
 70
     1
102
RTVSPropertyOp35
 70
     1
102
RTVSPropertyOp36
 70
     1
102
RTVSPropertyOp37
 70
     1
102
RTVSPropertyOp38
 70
     1
102
RTVSPropertyOp39
 70
     1
102
RTVSPropertyOp40
 70
     1
102
RTVSPropertyOp41
 70
     1
102
RTVSPropertyOp42
 70
     1
102
RTVSPropertyOp43
 70
     1
102
RTVSPropertyOp44
 70
     1
102
RTVSPropertyOp45
 70
     1
102
RTVSPropertyOp46
 70
     1
102
RTVSPropertyOp47
 70
     1
102
RTVSPropertyOp48
 70
     1
102
RTVSPropertyOp49
 70
     1
102
RTVSPropertyOp50
 70
     1
102
RTVSPropertyOp51
 70
     0
102
RTVSPropertyOp52
 70
     0
102
RTVSPropertyOp53
 70
     1
102
RTVSPropertyOp54
 70
     1
102
RTVSPropertyOp55
 70
     1
102
RTVSPropertyOp56
 70
     1
102
RTVSPropertyOp57
 70
     1
102
RTVSPost2010Prop28
280
     0
102
RTVSPost2010PropOp28
 70
     1
102
RTVSPost2010Prop29
280
     1
102
RTVSPost2010PropOp29
 70
     1
102
RTVSPost2010Prop30
280
     1
102
RTVSPost2010PropOp30
 70
     1
102
RTVSPost2010Prop31
280
     0
102
RTVSPost2010PropOp31
 70
     1
102
RTVSPost2010Prop32
280
     0
102
RTVSPost2010PropOp32
 70
     1
102
RTVSPost2010Prop33
280
     0
102
RTVSPost2010PropOp33
 70
     1
102
RTVSPost2010Prop34
280
     0
102
RTVSPost2010PropOp34
 70
     1
102
RTVSPost2010Prop35
280
     0
102
RTVSPost2010PropOp35
 70
     1
102
RTVSPost2010Prop36
280
     0
102
RTVSPost2010PropOp36
 70
     1
102
RTVSPost2010Prop37
 90
       50
102
RTVSPost2010PropOp37
 70
     1
102
RTVSPost2010Prop38
140
0.0
102
RTVSPost2010PropOp38
 70
     1
102
RTVSPost2010Prop39
140
1.0
102
RTVSPost2010PropOp39
 70
     1
102
RTVSPost2010Prop40
 90
        0
102
RTVSPost2010PropOp40
 70
     1
102
RTVSPost2010Prop41ColorIndex
 90
       18
102
RTVSPost2010Prop41ColorRGB
 90
        0
102
RTVSPost2010PropOp41
 70
     1
102
RTVSPost2010Prop42
 90
       50
102
RTVSPost2010PropOp42
 70
     1
102
RTVSPost2010Prop43
 90
        3
102
RTVSPost2010PropOp43
 70
     1
102
RTVSPost2010Prop44ColorIndex
 90
        5
102
RTVSPost2010Prop44ColorRGB
 90
      255
102
RTVSPost2010PropOp44
 70
     1
102
RTVSPost2010Prop45
280
     0
102
RTVSPost2010PropOp45
 70
     1
102
RTVSPost2010Prop46
 90
       50
102
RTVSPost2010PropOp46
 70
     1
102
RTVSPost2010Prop47
 90
       50
102
RTVSPost2010PropOp47
 70
     1
102
RTVSPost2010Prop48
 90
       50
102
RTVSPost2010PropOp48
 70
     1
102
RTVSPost2010Prop49
280
     0
102
RTVSPost2010PropOp49
 70
     1
102
RTVSPost2010Prop50
 90
       50
102
RTVSPost2010PropOp50
 70
     1
102
RTVSPost2010Prop51ColorIndex
 90
      256
102
RTVSPost2010Prop51ColorRGB
 90
-16777216
102
RTVSPost2010PropOp51
 70
     0
102
RTVSPost2010Prop52
140
1.0
102
RTVSPost2010PropOp52
 70
     0
102
RTVSPost2010Prop53
 90
        2
102
RTVSPost2010PropOp53
 70
     1
102
RTVSPost2010Prop54
  1
strokes_ogs.tif
102
RTVSPost2010PropOp54
 70
     1
102
RTVSPost2010Prop55
280
     0
102
RTVSPost2010PropOp55
 70
     1
102
RTVSPost2010Prop56
140
1.0
102
RTVSPost2010PropOp56
 70
     1
102
RTVSPost2010Prop57
140
1.0
102
RTVSPost2010PropOp57
 70
     1
  0
XRECORD
  5
A3
102
{ACAD_REACTORS
330
A2
102
}
330
A2
100
AcDbXrecord
280
     1
102
RTVSPropertyOp0
 70
     1
102
RTVSPropertyOp1
 70
     1
102
RTVSPropertyOp2
 70
     1
102
RTVSPropertyOp3
 70
     1
102
RTVSPropertyOp4
 70
     1
102
RTVSPropertyOp5
 70
     1
102
RTVSPropertyOp6
 70
     1
102
RTVSPropertyOp7
 70
     1
102
RTVSPropertyOp8
 70
     1
102
RTVSPropertyOp9
 70
     1
102
RTVSPropertyOp10
 70
     1
102
RTVSPropertyOp11
 70
     1
102
RTVSPropertyOp12
 70
     1
102
RTVSPropertyOp13
 70
     1
102
RTVSPropertyOp14
 70
     1
102
RTVSPropertyOp15
 70
     1
102
RTVSPropertyOp16
 70
     1
102
RTVSPropertyOp17
 70
     1
102
RTVSPropertyOp18
 70
     1
102
RTVSPropertyOp19
 70
     1
102
RTVSPropertyOp20
 70
     1
102
RTVSPropertyOp21
 70
     1
102
RTVSPropertyOp22
 70
     1
102
RTVSPropertyOp23
 70
     1
102
RTVSPropertyOp24
 70
     1
102
RTVSPropertyOp25
 70
     1
102
RTVSPropertyOp26
 70
     1
102
RTVSPropertyOp27
 70
     1
102
RTVSPropertyOp28
 70
     1
102
RTVSPropertyOp29
 70
     1
102
RTVSPropertyOp30
 70
     1
102
RTVSPropertyOp31
 70
     1
102
RTVSPropertyOp32
 70
     1
102
RTVSPropertyOp33
 70
     1
102
RTVSPropertyOp34
 70
     1
102
RTVSPropertyOp35
 70
     1
102
RTVSPropertyOp36
 70
     1
102
RTVSPropertyOp37
 70
     1
102
RTVSPropertyOp38
 70
     1
102
RTVSPropertyOp39
 70
     1
102
RTVSPropertyOp40
 70
     1
102
RTVSPropertyOp41
 70
     1
102
RTVSPropertyOp42
 70
     1
102
RTVSPropertyOp43
 70
     1
102
RTVSPropertyOp44
 70
     1
102
RTVSPropertyOp45
 70
     1
102
RTVSPropertyOp46
 70
     1
102
RTVSPropertyOp47
 70
     1
102
RTVSPropertyOp48
 70
     1
102
RTVSPropertyOp49
 70
     1
102
RTVSPropertyOp50
 70
     1
102
RTVSPropertyOp51
 70
     0
102
RTVSPropertyOp52
 70
     0
102
RTVSPropertyOp53
 70
     1
102
RTVSPropertyOp54
 70
     1
102
RTVSPropertyOp55
 70
     1
102
RTVSPropertyOp56
 70
     1
102
RTVSPropertyOp57
 70
     1
102
RTVSPost2010Prop28
280
     0
102
RTVSPost2010PropOp28
 70
     1
102
RTVSPost2010Prop29
280
     1
102
RTVSPost2010PropOp29
 70
     1
102
RTVSPost2010Prop30
280
     1
102
RTVSPost2010PropOp30
 70
     1
102
RTVSPost2010Prop31
280
     0
102
RTVSPost2010PropOp31
 70
     1
102
RTVSPost2010Prop32
280
     0
102
RTVSPost2010PropOp32
 70
     1
102
RTVSPost2010Prop33
280
     0
102
RTVSPost2010PropOp33
 70
     1
102
RTVSPost2010Prop34
280
     0
102
RTVSPost2010PropOp34
 70
     1
102
RTVSPost2010Prop35
280
     0
102
RTVSPost2010PropOp35
 70
     1
102
RTVSPost2010Prop36
280
     0
102
RTVSPost2010PropOp36
 70
     1
102
RTVSPost2010Prop37
 90
       50
102
RTVSPost2010PropOp37
 70
     1
102
RTVSPost2010Prop38
140
0.0
102
RTVSPost2010PropOp38
 70
     1
102
RTVSPost2010Prop39
140
1.0
102
RTVSPost2010PropOp39
 70
     1
102
RTVSPost2010Prop40
 90
        0
102
RTVSPost2010PropOp40
 70
     1
102
RTVSPost2010Prop41ColorIndex
 90
       18
102
RTVSPost2010Prop41ColorRGB
 90
        0
102
RTVSPost2010PropOp41
 70
     1
102
RTVSPost2010Prop42
 90
       50
102
RTVSPost2010PropOp42
 70
     1
102
RTVSPost2010Prop43
 90
        3
102
RTVSPost2010PropOp43
 70
     1
102
RTVSPost2010Prop44ColorIndex
 90
        5
102
RTVSPost2010Prop44ColorRGB
 90
      255
102
RTVSPost2010PropOp44
 70
     1
102
RTVSPost2010Prop45
280
     0
102
RTVSPost2010PropOp45
 70
     1
102
RTVSPost2010Prop46
 90
       50
102
RTVSPost2010PropOp46
 70
     1
102
RTVSPost2010Prop47
 90
       50
102
RTVSPost2010PropOp47
 70
     1
102
RTVSPost2010Prop48
 90
       50
102
RTVSPost2010PropOp48
 70
     1
102
RTVSPost2010Prop49
280
     0
102
RTVSPost2010PropOp49
 70
     1
102
RTVSPost2010Prop50
 90
       50
102
RTVSPost2010PropOp50
 70
     1
102
RTVSPost2010Prop51ColorIndex
 90
      256
102
RTVSPost2010Prop51ColorRGB
 90
-16777216
102
RTVSPost2010PropOp51
 70
     0
102
RTVSPost2010Prop52
140
1.0
102
RTVSPost2010PropOp52
 70
     0
102
RTVSPost2010Prop53
 90
        2
102
RTVSPost2010PropOp53
 70
     1
102
RTVSPost2010Prop54
  1
strokes_ogs.tif
102
RTVSPost2010PropOp54
 70
     1
102
RTVSPost2010Prop55
280
     0
102
RTVSPost2010PropOp55
 70
     1
102
RTVSPost2010Prop56
140
1.0
102
RTVSPost2010PropOp56
 70
     1
102
RTVSPost2010Prop57
140
1.0
102
RTVSPost2010PropOp57
 70
     1
  0
XRECORD
  5
C3
102
{ACAD_REACTORS
330
C2
102
}
330
C2
100
AcDbXrecord
280
     1
102
RTVSPropertyOp0
 70
     1
102
RTVSPropertyOp1
 70
     1
102
RTVSPropertyOp2
 70
     1
102
RTVSPropertyOp3
 70
     1
102
RTVSPropertyOp4
 70
     1
102
RTVSPropertyOp5
 70
     1
102
RTVSPropertyOp6
 70
     1
102
RTVSPropertyOp7
 70
     1
102
RTVSPropertyOp8
 70
     1
102
RTVSPropertyOp9
 70
     1
102
RTVSPropertyOp10
 70
     1
102
RTVSPropertyOp11
 70
     1
102
RTVSPropertyOp12
 70
     1
102
RTVSPropertyOp13
 70
     1
102
RTVSPropertyOp14
 70
     1
102
RTVSPropertyOp15
 70
     1
102
RTVSPropertyOp16
 70
     1
102
RTVSPropertyOp17
 70
     1
102
RTVSPropertyOp18
 70
     1
102
RTVSPropertyOp19
 70
     1
102
RTVSPropertyOp20
 70
     1
102
RTVSPropertyOp21
 70
     1
102
RTVSPropertyOp22
 70
     1
102
RTVSPropertyOp23
 70
     1
102
RTVSPropertyOp24
 70
     1
102
RTVSPropertyOp25
 70
     1
102
RTVSPropertyOp26
 70
     1
102
RTVSPropertyOp27
 70
     1
102
RTVSPropertyOp28
 70
     1
102
RTVSPropertyOp29
 70
     1
102
RTVSPropertyOp30
 70
     1
102
RTVSPropertyOp31
 70
     1
102
RTVSPropertyOp32
 70
     1
102
RTVSPropertyOp33
 70
     1
102
RTVSPropertyOp34
 70
     1
102
RTVSPropertyOp35
 70
     1
102
RTVSPropertyOp36
 70
     1
102
RTVSPropertyOp37
 70
     1
102
RTVSPropertyOp38
 70
     1
102
RTVSPropertyOp39
 70
     1
102
RTVSPropertyOp40
 70
     1
102
RTVSPropertyOp41
 70
     1
102
RTVSPropertyOp42
 70
     1
102
RTVSPropertyOp43
 70
     1
102
RTVSPropertyOp44
 70
     1
102
RTVSPropertyOp45
 70
     1
102
RTVSPropertyOp46
 70
     1
102
RTVSPropertyOp47
 70
     1
102
RTVSPropertyOp48
 70
     1
102
RTVSPropertyOp49
 70
     1
102
RTVSPropertyOp50
 70
     1
102
RTVSPropertyOp51
 70
     0
102
RTVSPropertyOp52
 70
     0
102
RTVSPropertyOp53
 70
     1
102
RTVSPropertyOp54
 70
     1
102
RTVSPropertyOp55
 70
     1
102
RTVSPropertyOp56
 70
     1
102
RTVSPropertyOp57
 70
     1
102
RTVSPost2010Prop28
280
     0
102
RTVSPost2010PropOp28
 70
     1
102
RTVSPost2010Prop29
280
     1
102
RTVSPost2010PropOp29
 70
     1
102
RTVSPost2010Prop30
280
     1
102
RTVSPost2010PropOp30
 70
     1
102
RTVSPost2010Prop31
280
     0
102
RTVSPost2010PropOp31
 70
     1
102
RTVSPost2010Prop32
280
     0
102
RTVSPost2010PropOp32
 70
     1
102
RTVSPost2010Prop33
280
     0
102
RTVSPost2010PropOp33
 70
     1
102
RTVSPost2010Prop34
280
     0
102
RTVSPost2010PropOp34
 70
     1
102
RTVSPost2010Prop35
280
     0
102
RTVSPost2010PropOp35
 70
     1
102
RTVSPost2010Prop36
280
     0
102
RTVSPost2010PropOp36
 70
     1
102
RTVSPost2010Prop37
 90
       50
102
RTVSPost2010PropOp37
 70
     1
102
RTVSPost2010Prop38
140
0.0
102
RTVSPost2010PropOp38
 70
     1
102
RTVSPost2010Prop39
140
1.0
102
RTVSPost2010PropOp39
 70
     1
102
RTVSPost2010Prop40
 90
        0
102
RTVSPost2010PropOp40
 70
     1
102
RTVSPost2010Prop41ColorIndex
 90
       18
102
RTVSPost2010Prop41ColorRGB
 90
        0
102
RTVSPost2010PropOp41
 70
     1
102
RTVSPost2010Prop42
 90
       50
102
RTVSPost2010PropOp42
 70
     1
102
RTVSPost2010Prop43
 90
        3
102
RTVSPost2010PropOp43
 70
     1
102
RTVSPost2010Prop44ColorIndex
 90
        5
102
RTVSPost2010Prop44ColorRGB
 90
      255
102
RTVSPost2010PropOp44
 70
     1
102
RTVSPost2010Prop45
280
     0
102
RTVSPost2010PropOp45
 70
     1
102
RTVSPost2010Prop46
 90
       50
102
RTVSPost2010PropOp46
 70
     1
102
RTVSPost2010Prop47
 90
       50
102
RTVSPost2010PropOp47
 70
     1
102
RTVSPost2010Prop48
 90
       50
102
RTVSPost2010PropOp48
 70
     1
102
RTVSPost2010Prop49
280
     0
102
RTVSPost2010PropOp49
 70
     1
102
RTVSPost2010Prop50
 90
       50
102
RTVSPost2010PropOp50
 70
     1
102
RTVSPost2010Prop51ColorIndex
 90
      256
102
RTVSPost2010Prop51ColorRGB
 90
-16777216
102
RTVSPost2010PropOp51
 70
     0
102
RTVSPost2010Prop52
140
1.0
102
RTVSPost2010PropOp52
 70
     0
102
RTVSPost2010Prop53
 90
        2
102
RTVSPost2010PropOp53
 70
     1
102
RTVSPost2010Prop54
  1
strokes_ogs.tif
102
RTVSPost2010PropOp54
 70
     1
102
RTVSPost2010Prop55
280
     0
102
RTVSPost2010PropOp55
 70
     1
102
RTVSPost2010Prop56
140
1.0
102
RTVSPost2010PropOp56
 70
     1
102
RTVSPost2010Prop57
140
1.0
102
RTVSPost2010PropOp57
 70
     1
  0
ENDSEC
  0
EOF
