  0
SECTION
  2
HEADER
  9
$ACADVER
  1
AC1009
  9
$INSBASE
 10
0.0
 20
0.0
 30
0.0
  9
$EXTMIN
 10
7.9293737519045209
 20
17.000000063499929
 30
-0.000000127
  9
$EXTMAX
 10
1164.9999999999991
 20
236.51549328726119
 30
0.000000254
  9
$LIMMIN
 10
0.0
 20
0.0
  9
$LIMMAX
 10
46.811023622047237
 20
33.11023622047243
  9
$ORTHOMODE
 70
     0
  9
$REGENMODE
 70
     1
  9
$FILLMODE
 70
     1
  9
$QTEXTMODE
 70
     0
  9
$MIRRTEXT
 70
     1
  9
$DRAGMODE
 70
     2
  9
$LTSCALE
 40
1.0
  9
$OSMODE
 70
    37
  9
$ATTMODE
 70
     1
  9
$TEXTSIZE
 40
4.9999999999999991
  9
$TRACEWID
 40
0.05
  9
$TEXTSTYLE
  7
STANDARD
  9
$CLAYER
  8
0
  9
$CELTYPE
  6
BYLAYER
  9
$CECOLOR
 62
   256
  9
$DIMSCALE
 40
1.0
  9
$DIMASZ
 40
0.18
  9
$DIMEXO
 40
0.0625
  9
$DIMDLI
 40
0.38
  9
$DIMRND
 40
0.0
  9
$DIMDLE
 40
0.0
  9
$DIMEXE
 40
0.18
  9
$DIMTP
 40
0.0
  9
$DIMTM
 40
0.0
  9
$DIMTXT
 40
0.1574803149606299
  9
$DIMCEN
 40
0.09
  9
$DIMTSZ
 40
0.0
  9
$DIMTOL
 70
     0
  9
$DIMLIM
 70
     0
  9
$DIMTIH
 70
     1
  9
$DIMTOH
 70
     1
  9
$DIMSE1
 70
     0
  9
$DIMSE2
 70
     0
  9
$DIMTAD
 70
     0
  9
$DIMZIN
 70
     0
  9
$DIMBLK
  1

  9
$DIMASO
 70
     1
  9
$DIMSHO
 70
     1
  9
$DIMPOST
  1

  9
$DIMAPOST
  1

  9
$DIMALT
 70
     0
  9
$DIMALTD
 70
     2
  9
$DIMALTF
 40
25.399999999999999
  9
$DIMLFAC
 40
1.0
  9
$DIMTOFL
 70
     0
  9
$DIMTVP
 40
0.0
  9
$DIMTIX
 70
     0
  9
$DIMSOXD
 70
     0
  9
$DIMSAH
 70
     0
  9
$DIMBLK1
  1

  9
$DIMBLK2
  1

  9
$DIMSTYLE
  2
STANDARD
  9
$DIMCLRD
 70
     0
  9
$DIMCLRE
 70
     0
  9
$DIMCLRT
 70
     0
  9
$DIMTFAC
 40
1.0
  9
$DIMGAP
 40
0.09
  9
$LUNITS
 70
     2
  9
$LUPREC
 70
     2
  9
$SKETCHINC
 40
0.1
  9
$FILLETRAD
 40
3.0
  9
$AUNITS
 70
     0
  9
$AUPREC
 70
     2
  9
$MENU
  1
.
  9
$ELEVATION
 40
0.0
  9
$PELEVATION
 40
0.0
  9
$THICKNESS
 40
0.0
  9
$LIMCHECK
 70
     0
  9
$BLIPMODE
 70
     0
  9
$CHAMFERA
 40
4.9999999999999991
  9
$CHAMFERB
 40
4.9999999999999991
  9
$SKPOLY
 70
     0
  9
$TDCREATE
 40
2455567.6667019208
  9
$TDUPDATE
 40
2455579.4688543398
  9
$TDINDWG
 40
0.000256088
  9
$TDUSRTIMER
 40
0.0002559028
  9
$USRTIMER
 70
     1
  9
$ANGBASE
 50
0.0
  9
$ANGDIR
 70
     0
  9
$PDMODE
 70
     0
  9
$PDSIZE
 40
0.0
  9
$PLINEWID
 40
0.0
  9
$COORDS
 70
     1
  9
$SPLFRAME
 70
     0
  9
$SPLINETYPE
 70
     6
  9
$SPLINESEGS
 70
     8
  9
$ATTDIA
 70
     0
  9
$ATTREQ
 70
     1
  9
$HANDLING
 70
     1
  9
$HANDSEED
  5
C07
  9
$SURFTAB1
 70
     6
  9
$SURFTAB2
 70
     6
  9
$SURFTYPE
 70
     6
  9
$SURFU
 70
     6
  9
$SURFV
 70
     6
  9
$UCSNAME
  2

  9
$UCSORG
 10
0.0
 20
0.0
 30
0.0
  9
$UCSXDIR
 10
1.0
 20
0.0
 30
0.0
  9
$UCSYDIR
 10
0.0
 20
1.0
 30
0.0
  9
$PUCSNAME
  2

  9
$PUCSORG
 10
0.0
 20
0.0
 30
0.0
  9
$PUCSXDIR
 10
1.0
 20
0.0
 30
0.0
  9
$PUCSYDIR
 10
0.0
 20
1.0
 30
0.0
  9
$USERI1
 70
     0
  9
$USERI2
 70
     0
  9
$USERI3
 70
     0
  9
$USERI4
 70
     0
  9
$USERI5
 70
     0
  9
$USERR1
 40
0.0
  9
$USERR2
 40
0.0
  9
$USERR3
 40
0.0
  9
$USERR4
 40
0.0
  9
$USERR5
 40
0.0
  9
$WORLDVIEW
 70
     1
  9
$SHADEDGE
 70
     3
  9
$SHADEDIF
 70
    70
  9
$TILEMODE
 70
     1
  9
$MAXACTVP
 70
    64
  9
$PLIMCHECK
 70
     0
  9
$PEXTMIN
 10
1.0000000000000000E+020
 20
1.0000000000000000E+020
 30
1.0000000000000000E+020
  9
$PEXTMAX
 10
-1.0000000000000000E+020
 20
-1.0000000000000000E+020
 30
-1.0000000000000000E+020
  9
$PLIMMIN
 10
0.0
 20
0.0
  9
$PLIMMAX
 10
12.0
 20
9.0
  9
$UNITMODE
 70
     0
  9
$VISRETAIN
 70
     1
  9
$PLINEGEN
 70
     0
  9
$PSLTSCALE
 70
     1
  0
ENDSEC
  0
SECTION
  2
TABLES
  0
TABLE
  2
VPORT
 70
     1
  0
VPORT
  2
*ACTIVE
 70
     0
 10
0.0
 20
0.0
 11
1.0
 21
1.0
 12
644.01849827637761
 22
252.35754675946009
 13
0.0
 23
0.0
 14
1.0
 24
1.0
 15
0.0
 25
0.0
 16
0.0
 26
0.0
 36
1.0
 17
0.0
 27
0.0
 37
0.0
 40
760.05026231774866
 41
1.9262672811059911
 42
50.0
 43
0.0
 44
0.0
 50
0.0
 51
0.0
 71
     0
 72
   100
 73
     1
 74
     1
 75
     0
 76
     0
 77
     0
 78
     0
  0
ENDTAB
  0
TABLE
  2
LTYPE
 70
    47
  0
LTYPE
  2
CONTINUOUS
 70
     0
  3
Solid line
 72
    65
 73
     0
 40
0.0
  0
LTYPE
  2
HIDDEN
 70
     0
  3
_ _ _ _ _ _ _ _ _ _ _ _ _ _ 
 72
    65
 73
     2
 40
9.5249999999999968
 49
6.3499999999999979
 49
-3.174999999999998
  0
LTYPE
  2
DASHED
 70
     0
  3
__ __ __ __ __ __ __ __ __ 
 72
    65
 73
     2
 40
19.04999999999999
 49
12.699999999999999
 49
-6.3499999999999979
  0
LTYPE
  2
CENTER
 70
     0
  3
____ _ ____ _ ____ _ ____ _ 
 72
    65
 73
     4
 40
50.799999999999997
 49
31.75
 49
-6.3499999999999979
 49
6.3499999999999979
 49
-6.3499999999999979
  0
LTYPE
  2
PHANTOM
 70
     0
  3
_____ _ _ _____ _ _ _____ _ _ 
 72
    65
 73
     6
 40
63.500000000000007
 49
31.75
 49
-6.3499999999999979
 49
6.3499999999999979
 49
-6.3499999999999979
 49
6.3499999999999979
 49
-6.3499999999999979
  0
LTYPE
  2
DOT
 70
     0
  3
...........................
 72
    65
 73
     2
 40
6.3499999999999979
 49
0.0
 49
-6.3499999999999979
  0
LTYPE
  2
DASHDOT
 70
     0
  3
__ . __ . __ . __ . __ . __ . 
 72
    65
 73
     4
 40
25.399999999999999
 49
12.699999999999999
 49
-6.3499999999999979
 49
0.0
 49
-6.3499999999999979
  0
LTYPE
  2
DIVIDE
 70
     0
  3
__ . . __ . . __ . . __ . . 
 72
    65
 73
     6
 40
31.75
 49
12.699999999999999
 49
-6.3499999999999979
 49
0.0
 49
-6.3499999999999979
 49
0.0
 49
-6.3499999999999979
  0
LTYPE
  2
BORDER
 70
     0
  3
__ __ . __ __ . __ __ . __ __ .
 72
    65
 73
     6
 40
44.449999999999989
 49
12.699999999999999
 49
-6.3499999999999979
 49
12.699999999999999
 49
-6.3499999999999979
 49
0.0
 49
-6.3499999999999979
  0
LTYPE
  2
RAND
 70
     0
  3
Rand __ __ . __ __ . __ __ . __
 72
    65
 73
     6
 40
1.75
 49
0.5
 49
-0.25
 49
0.5
 49
-0.25
 49
0.0
 49
-0.25
  0
LTYPE
  2
RAND2
 70
     0
  3
Rand (.5x) __.__.__.__.__.__.__
 72
    65
 73
     6
 40
0.875
 49
0.25
 49
-0.125
 49
0.25
 49
-0.125
 49
0.0
 49
-0.125
  0
LTYPE
  2
RANDX2
 70
     0
  3
Rand (2x) ____  ____  .  ____  
 72
    65
 73
     6
 40
3.5
 49
1.0
 49
-0.5
 49
1.0
 49
-0.5
 49
0.0
 49
-0.5
  0
LTYPE
  2
MITTE
 70
     0
  3
Mitte ____ _ ____ _ ____ _ ____
 72
    65
 73
     4
 40
2.0
 49
1.25
 49
-0.25
 49
0.25
 49
-0.25
  0
LTYPE
  2
MITTE2
 70
     0
  3
Mitte (.5x) ___ _ ___ _ ___ _ _
 72
    65
 73
     4
 40
1.125
 49
0.7500000000000001
 49
-0.125
 49
0.125
 49
-0.125
  0
LTYPE
  2
MITTEX2
 70
     0
  3
Mitte (2x) ________  __  ______
 72
    65
 73
     4
 40
4.0
 49
2.5
 49
-0.5
 49
0.5
 49
-0.5
  0
LTYPE
  2
STRICHPUNKT
 70
     0
  3
Strichpunkt __ . __ . __ . __ .
 72
    65
 73
     4
 40
1.0
 49
0.5
 49
-0.25
 49
0.0
 49
-0.25
  0
LTYPE
  2
STRICHPUNKT2
 70
     0
  3
Strichpunkt (.5x) _._._._._._._
 72
    65
 73
     4
 40
0.5
 49
0.25
 49
-0.125
 49
0.0
 49
-0.125
  0
LTYPE
  2
STRICHPUNKTX2
 70
     0
  3
Strichpunkt (2x) ____  .  ____ 
 72
    65
 73
     4
 40
2.0
 49
1.0
 49
-0.5
 49
0.0
 49
-0.5
  0
LTYPE
  2
STRICHLINIE
 70
     0
  3
Strichlinie __ __ __ __ __ __ _
 72
    65
 73
     2
 40
0.75
 49
0.5
 49
-0.25
  0
LTYPE
  2
STRICHLINIE2
 70
     0
  3
Strichlinie (.5x) _ _ _ _ _ _ _
 72
    65
 73
     2
 40
0.375
 49
0.25
 49
-0.125
  0
LTYPE
  2
STRICHLINIEX2
 70
     0
  3
Strichlinie (2x) ____  ____  __
 72
    65
 73
     2
 40
1.5
 49
1.0
 49
-0.5
  0
LTYPE
  2
GETRENNT
 70
     0
  3
Getrennt ____ . . ____ . . ____
 72
    65
 73
     6
 40
1.25
 49
0.5
 49
-0.25
 49
0.0
 49
-0.25
 49
0.0
 49
-0.25
  0
LTYPE
  2
GETRENNT2
 70
     0
  3
Getrennt (.5x) __..__..__..__..
 72
    65
 73
     6
 40
0.625
 49
0.25
 49
-0.125
 49
0.0
 49
-0.125
 49
0.0
 49
-0.125
  0
LTYPE
  2
GETRENNTX2
 70
     0
  3
Getrennt (2x) ________  .  .  _
 72
    65
 73
     6
 40
2.5
 49
1.0
 49
-0.5
 49
0.0
 49
-0.5
 49
0.0
 49
-0.5
  0
LTYPE
  2
PUNKT
 70
     0
  3
Punkt . . . . . . . . . . . . .
 72
    65
 73
     2
 40
0.25
 49
0.0
 49
-0.25
  0
LTYPE
  2
PUNKT2
 70
     0
  3
Punkt (.5x) ...................
 72
    65
 73
     2
 40
0.125
 49
0.0
 49
-0.125
  0
LTYPE
  2
PUNKTX2
 70
     0
  3
Punkt (2x) .  .  .  .  .  .  . 
 72
    65
 73
     2
 40
0.5
 49
0.0
 49
-0.5
  0
LTYPE
  2
VERDECKT
 70
     0
  3
Verdeckt __ __ __ __ __ __ __ _
 72
    65
 73
     2
 40
0.375
 49
0.25
 49
-0.125
  0
LTYPE
  2
VERDECKT2
 70
     0
  3
Verdeckt (.5x) _ _ _ _ _ _ _ _ 
 72
    65
 73
     2
 40
0.1875
 49
0.125
 49
-0.0625
  0
LTYPE
  2
VERDECKTX2
 70
     0
  3
Verdeckt (2x) ____ ____ ____ __
 72
    65
 73
     2
 40
0.75
 49
0.5
 49
-0.25
  0
LTYPE
  2
PHANTOM2
 70
     0
  3
Phantom (.5x) ___ _ _ ___ _ _ _
 72
    65
 73
     6
 40
1.25
 49
0.6250000000000001
 49
-0.125
 49
0.125
 49
-0.125
 49
0.125
 49
-0.125
  0
LTYPE
  2
PHANTOMX2
 70
     0
  3
Phantom (2x) ____________    __
 72
    65
 73
     6
 40
5.0
 49
2.5
 49
-0.5
 49
0.5
 49
-0.5
 49
0.5
 49
-0.5
  0
LTYPE
  2
PUNKTE
 70
     0
  3
Punkte - - - - - - - - - - - - 
 72
    65
 73
     2
 40
0.1
 49
0.05
 49
-0.05
  0
LTYPE
  2
ACAD_ISO02W100
 70
     0
  3
__ __ __ __ __ __ __ __ __ __ _
 72
    65
 73
     2
 40
15.0
 49
12.0
 49
-3.0
  0
LTYPE
  2
ACAD_ISO03W100
 70
     0
  3
__    __    __    __    __    _
 72
    65
 73
     2
 40
30.0
 49
12.0
 49
-18.0
  0
LTYPE
  2
ACAD_ISO04W100
 70
     0
  3
____ . ____ . ____ . ____ . ___
 72
    65
 73
     4
 40
30.5
 49
24.0
 49
-3.0
 49
0.5
 49
-3.0
  0
LTYPE
  2
ACAD_ISO05W100
 70
     0
  3
____ .. ____ .. ____ .. ____ ..
 72
    65
 73
     6
 40
34.0
 49
24.0
 49
-3.0
 49
0.5
 49
-3.0
 49
0.5
 49
-3.0
  0
LTYPE
  2
ACAD_ISO06W100
 70
     0
  3
____ ... ____ ... ____ ... ____
 72
    65
 73
     6
 40
34.0
 49
24.0
 49
-3.0
 49
0.5
 49
-3.0
 49
0.5
 49
-3.0
  0
LTYPE
  2
ACAD_ISO07W100
 70
     0
  3
. . . . . . . . . . . . . . . .
 72
    65
 73
     2
 40
3.5
 49
0.5
 49
-3.0
  0
LTYPE
  2
ACAD_ISO08W100
 70
     0
  3
____ __ ____ __ ____ __ ____ __
 72
    65
 73
     4
 40
36.0
 49
24.0
 49
-3.0
 49
6.0
 49
-3.0
  0
LTYPE
  2
ACAD_ISO09W100
 70
     0
  3
____ __ __ ____ __ __ ____ __ _
 72
    65
 73
     6
 40
45.0
 49
24.0
 49
-3.0
 49
6.0
 49
-3.0
 49
6.0
 49
-3.0
  0
LTYPE
  2
ACAD_ISO10W100
 70
     0
  3
__ . __ . __ . __ . __ . __ . _
 72
    65
 73
     4
 40
18.5
 49
12.0
 49
-3.0
 49
0.5
 49
-3.0
  0
LTYPE
  2
ACAD_ISO11W100
 70
     0
  3
__ __ . __ __ . __ __ . __ __ .
 72
    65
 73
     6
 40
33.5
 49
12.0
 49
-3.0
 49
12.0
 49
-3.0
 49
0.5
 49
-3.0
  0
LTYPE
  2
ACAD_ISO12W100
 70
     0
  3
__ . . __ . . __ . . __ . . __ 
 72
    65
 73
     6
 40
22.0
 49
12.0
 49
-3.0
 49
0.5
 49
-3.0
 49
0.5
 49
-3.0
  0
LTYPE
  2
ACAD_ISO13W100
 70
     0
  3
__ __ . . __ __ . . __ __ . . _
 72
    65
 73
     6
 40
33.5
 49
12.0
 49
-3.0
 49
12.0
 49
-3.0
 49
0.5
 49
-3.0
  0
LTYPE
  2
ACAD_ISO14W100
 70
     0
  3
__ . . . __ . . . __ . . . __ .
 72
    65
 73
     6
 40
22.0
 49
12.0
 49
-3.0
 49
0.5
 49
-3.0
 49
0.5
 49
-3.0
  0
LTYPE
  2
ACAD_ISO15W100
 70
     0
  3
__ __ . . . __ __ . . . __ __ .
 72
    65
 73
     6
 40
33.5
 49
12.0
 49
-3.0
 49
12.0
 49
-3.0
 49
0.5
 49
-3.0
  0
ENDTAB
  0
TABLE
  2
LAYER
 70
     4
  0
LAYER
  2
0
 70
     0
 62
     7
  6
CONTINUOUS
  0
LAYER
  2
1
 70
     0
 62
     7
  6
CONTINUOUS
  0
LAYER
  2
2
 70
     0
 62
     1
  6
CONTINUOUS
  0
LAYER
  2
3
 70
     0
 62
     5
  6
CONTINUOUS
  0
ENDTAB
  0
TABLE
  2
STYLE
 70
     5
  0
STYLE
  2
STANDARD
 70
     0
 40
0.0
 41
1.0
 50
0.0
 71
     0
 42
4.9999999999999991
  3
txt
  4

  0
STYLE
  2
ITALIC
 70
     0
 40
0.0
 41
1.0
 50
0.0
 71
     0
 42
4.9999999999999991
  3
ITALIC
  4

  0
STYLE
  2
SIMPLEX
 70
     0
 40
0.0
 41
1.0
 50
0.0
 71
     0
 42
4.9999999999999991
  3
SIMPLEX
  4

  0
STYLE
  2
COMPLEX
 70
     0
 40
0.0
 41
1.0
 50
0.0
 71
     0
 42
4.9999999999999991
  3
COMPLEX
  4

  0
STYLE
  2
ISOCP
 70
     0
 40
0.0
 41
1.0
 50
0.0
 71
     0
 42
4.9999999999999991
  3
txt
  4

  0
ENDTAB
  0
TABLE
  2
VIEW
 70
     0
  0
ENDTAB
  0
TABLE
  2
UCS
 70
     0
  0
ENDTAB
  0
TABLE
  2
APPID
 70
     2
  0
APPID
  2
ACAD
 70
     0
  0
APPID
  2
ACAD_MLEADERVER
 70
     0
  0
ENDTAB
  0
TABLE
  2
DIMSTYLE
 70
     1
  0
DIMSTYLE
  2
STANDARD
 70
     0
  3

  4

  5

  6

  7

 40
1.0
 41
0.18
 42
0.0625
 43
0.38
 44
0.18
 45
0.0
 46
0.0
 47
0.0
 48
0.0
140
0.18
141
0.09
142
0.0
143
25.399999999999999
144
1.0
145
0.0
146
1.0
147
0.09
 71
     0
 72
     0
 73
     1
 74
     1
 75
     0
 76
     0
 77
     0
 78
     0
170
     0
171
     2
172
     0
173
     0
174
     0
175
     0
176
     0
177
     0
178
     0
  0
ENDTAB
  0
ENDSEC
  0
SECTION
  2
BLOCKS
  0
BLOCK
  8
0
  2
$MODEL_SPACE
 70
     0
 10
0.0
 20
0.0
 30
0.0
  3
$MODEL_SPACE
  1

  0
ENDBLK
  5
21
  8
0
  0
BLOCK
 67
     1
  8
0
  2
$PAPER_SPACE
 70
     0
 10
0.0
 20
0.0
 30
0.0
  3
$PAPER_SPACE
  1

  0
ENDBLK
  5
1D
 67
     1
  8
0
  0
BLOCK
  8
0
  2
*U1
 70
     1
 10
0.0
 20
0.0
 30
0.0
  3
*U1
  1

  0
TEXT
  5
9AA
  8
3
 10
1023.427353910023
 20
99.871831820290083
 30
0.0
 40
12.0
  1
Murkelcopter
  7
ISOCP
  0
ENDBLK
  5
9AC
  8
0
  0
ENDSEC
  0
SECTION
  2
ENTITIES
  0
LINE
  5
5D
  8
1
 10
369.0
 20
227.9999999999998
 30
0.0
 11
381.0
 21
227.9999999999998
 31
0.0
  0
LINE
  5
5E
  8
1
 10
381.0
 20
227.9999999999998
 30
0.0
 11
381.0
 21
229.9999999999998
 31
0.0
  0
LINE
  5
5F
  8
1
 10
381.0
 20
229.9999999999998
 30
0.0
 11
390.99999999999977
 21
229.9999999999998
 31
0.0
  0
LINE
  5
60
  8
1
 10
390.99999999999977
 20
229.9999999999998
 30
0.0
 11
390.99999999999977
 21
227.9999999999998
 31
0.0
  0
LINE
  5
61
  8
1
 10
390.99999999999977
 20
227.9999999999998
 30
0.0
 11
420.99999999999977
 21
227.9999999999998
 31
0.0
  0
LINE
  5
62
  8
1
 10
420.99999999999977
 20
227.9999999999998
 30
0.0
 11
420.99999999999977
 21
229.9999999999998
 31
0.0
  0
LINE
  5
63
  8
1
 10
420.99999999999977
 20
229.9999999999998
 30
0.0
 11
431.0
 21
229.9999999999998
 31
0.0
  0
LINE
  5
64
  8
1
 10
431.0
 20
229.9999999999998
 30
0.0
 11
431.0
 21
227.9999999999998
 31
0.0
  0
LINE
  5
65
  8
1
 10
431.0
 20
227.9999999999998
 30
0.0
 11
442.99999999999977
 21
227.9999999999998
 31
0.0
  0
LINE
  5
66
  8
1
 10
369.0
 20
227.9999999999998
 30
0.0
 11
369.0
 21
197.99999999999989
 31
0.0
  0
LINE
  5
67
  8
1
 10
369.0
 20
197.99999999999989
 30
0.0
 11
381.0
 21
197.99999999999989
 31
0.0
  0
LINE
  5
68
  8
1
 10
381.0
 20
197.99999999999989
 30
0.0
 11
381.0
 21
196.0
 31
0.0
  0
LINE
  5
69
  8
1
 10
381.0
 20
196.0
 30
0.0
 11
390.99999999999977
 21
196.0
 31
0.0
  0
LINE
  5
6A
  8
1
 10
390.99999999999977
 20
196.0
 30
0.0
 11
390.99999999999977
 21
197.99999999999989
 31
0.0
  0
LINE
  5
6B
  8
1
 10
390.99999999999977
 20
197.99999999999989
 30
0.0
 11
420.99999999999977
 21
197.99999999999989
 31
0.0
  0
LINE
  5
6C
  8
1
 10
420.99999999999977
 20
196.0
 30
0.0
 11
431.0
 21
196.0
 31
0.0
  0
LINE
  5
6D
  8
1
 10
431.0
 20
196.0
 30
0.0
 11
431.0
 21
197.99999999999989
 31
0.0
  0
LINE
  5
6E
  8
1
 10
431.0
 20
197.99999999999989
 30
0.0
 11
442.99999999999977
 21
197.99999999999989
 31
0.0
  0
LINE
  5
6F
  8
1
 10
442.99999999999977
 20
227.9999999999998
 30
0.0
 11
442.99999999999977
 21
197.99999999999989
 31
0.0
  0
LINE
  5
70
  8
2
 10
373.99999999999977
 20
220.0
 30
0.0
 11
373.99999999999977
 21
205.99999999999989
 31
0.0
  0
LINE
  5
71
  8
2
 10
438.0
 20
220.0
 30
0.0
 11
438.0
 21
205.99999999999989
 31
0.0
  0
LINE
  5
72
  8
2
 10
390.99999999999977
 20
220.0
 30
0.0
 11
390.99999999999977
 21
205.99999999999989
 31
0.0
  0
LINE
  5
73
  8
2
 10
396.0
 20
220.0
 30
0.0
 11
396.0
 21
205.99999999999989
 31
0.0
  0
LINE
  5
74
  8
2
 10
415.99999999999977
 20
220.0
 30
0.0
 11
415.99999999999977
 21
205.99999999999989
 31
0.0
  0
LINE
  5
75
  8
2
 10
420.99999999999977
 20
220.0
 30
0.0
 11
420.99999999999977
 21
205.99999999999989
 31
0.0
  0
LINE
  5
76
  8
2
 10
377.0
 20
223.0
 30
0.0
 11
388.0
 21
223.0
 31
0.0
  0
LINE
  5
77
  8
2
 10
377.0
 20
203.0
 30
0.0
 11
388.0
 21
203.0
 31
0.0
  0
LINE
  5
78
  8
2
 10
423.99999999999977
 20
223.0
 30
0.0
 11
434.99999999999977
 21
223.0
 31
0.0
  0
LINE
  5
79
  8
2
 10
398.99999999999977
 20
223.0
 30
0.0
 11
412.99999999999977
 21
223.0
 31
0.0
  0
LINE
  5
7A
  8
2
 10
423.99999999999977
 20
203.0
 30
0.0
 11
434.99999999999977
 21
203.0
 31
0.0
  0
LINE
  5
7B
  8
2
 10
398.99999999999977
 20
203.0
 30
0.0
 11
412.99999999999977
 21
203.0
 31
0.0
  0
ARC
  5
7C
  8
2
 10
377.0
 20
220.0
 30
0.0
 40
3.0
 50
90.000000000000057
 51
180.0
  0
ARC
  5
7D
  8
2
 10
377.0
 20
205.99999999999989
 30
0.0
 40
3.0
 50
180.0
 51
270.0
  0
ARC
  5
7E
  8
2
 10
388.0
 20
220.0
 30
0.0
 40
3.0
 50
0.0
 51
90.000000000000057
  0
ARC
  5
7F
  8
2
 10
388.0
 20
205.99999999999989
 30
0.0
 40
3.0
 50
270.0
 51
0.0
  0
ARC
  5
80
  8
2
 10
398.99999999999977
 20
220.0
 30
0.0
 40
3.0
 50
90.000000000000057
 51
180.0
  0
ARC
  5
81
  8
2
 10
398.99999999999977
 20
205.99999999999989
 30
0.0
 40
3.0
 50
180.0
 51
270.0
  0
ARC
  5
82
  8
2
 10
412.99999999999977
 20
205.99999999999989
 30
0.0
 40
3.0
 50
270.0
 51
0.0000000000002398
  0
ARC
  5
83
  8
2
 10
412.99999999999977
 20
220.0
 30
0.0
 40
3.0
 50
0.0
 51
90.000000000000057
  0
ARC
  5
84
  8
2
 10
423.99999999999977
 20
220.0
 30
0.0
 40
3.0
 50
90.000000000000057
 51
180.0
  0
ARC
  5
85
  8
2
 10
423.99999999999977
 20
205.99999999999989
 30
0.0
 40
3.0
 50
180.0
 51
270.0
  0
ARC
  5
86
  8
2
 10
434.99999999999977
 20
205.99999999999989
 30
0.0
 40
3.0
 50
270.0
 51
0.0
  0
ARC
  5
87
  8
2
 10
434.99999999999977
 20
220.0
 30
0.0
 40
3.0
 50
0.0
 51
90.000000000000057
  0
LINE
  5
88
  8
1
 10
420.99999999999977
 20
197.99999999999989
 30
0.0
 11
420.99999999999977
 21
196.0
 31
0.0
  0
LINE
  5
8A
  8
2
 10
760.41199588374332
 20
226.8866788786919
 30
0.0
 11
784.91199601074345
 21
226.8866788786919
 31
0.0
  0
LINE
  5
8B
  8
2
 10
760.41199588374332
 20
216.8866788786919
 30
0.0
 11
784.91199601074345
 21
216.8866788786919
 31
0.0
  0
ARC
  5
8C
  8
2
 10
760.41199588374332
 20
221.8866788786919
 30
0.0
 40
4.9999999999999911
 50
90.0
 51
180.0
  0
ARC
  5
8D
  8
2
 10
760.41199588374332
 20
221.8866788786919
 30
0.0
 40
4.9999999999999911
 50
180.0
 51
270.0
  0
ARC
  5
8E
  8
2
 10
784.91199601074345
 20
221.88667887869201
 30
0.0
 40
5.0000000000000124
 50
0.0
 51
90.0
  0
ARC
  5
8F
  8
2
 10
784.91199601074345
 20
221.88667887869201
 30
0.0
 40
5.0000000000000124
 50
270.0
 51
0.0
  0
LINE
  5
90
  8
2
 10
720.4119958837432
 20
226.8866788786919
 30
0.0
 11
740.41199588374332
 21
226.8866788786919
 31
0.0
  0
LINE
  5
91
  8
2
 10
720.4119958837432
 20
216.8866788786919
 30
0.0
 11
740.41199588374332
 21
216.8866788786919
 31
0.0
  0
ARC
  5
92
  8
2
 10
720.4119958837432
 20
221.8866788786919
 30
0.0
 40
4.9999999999999911
 50
90.0
 51
180.0
  0
ARC
  5
93
  8
2
 10
720.4119958837432
 20
221.8866788786919
 30
0.0
 40
4.9999999999999911
 50
180.0
 51
270.0
  0
ARC
  5
94
  8
2
 10
740.41199588374332
 20
221.8866788786919
 30
0.0
 40
4.9999999999999911
 50
0.0
 51
90.0
  0
ARC
  5
95
  8
2
 10
740.41199588374332
 20
221.8866788786919
 30
0.0
 40
4.9999999999999911
 50
270.0
 51
0.0
  0
LINE
  5
96
  8
2
 10
805.41199588374479
 20
226.8866788786919
 30
0.0
 11
815.41199588374548
 21
226.8866788786919
 31
0.0
  0
LINE
  5
97
  8
2
 10
805.41199588374479
 20
216.8866788786919
 30
0.0
 11
815.41199588374548
 21
216.8866788786919
 31
0.0
  0
ARC
  5
98
  8
2
 10
805.41199588374479
 20
221.8866788786919
 30
0.0
 40
4.9999999999999911
 50
90.0
 51
180.0
  0
ARC
  5
99
  8
2
 10
805.41199588374479
 20
221.8866788786919
 30
0.0
 40
4.9999999999999911
 50
180.0
 51
270.0
  0
ARC
  5
9A
  8
2
 10
815.41199588374548
 20
221.8866788786919
 30
0.0
 40
4.9999999999999911
 50
0.0
 51
90.0
  0
ARC
  5
9B
  8
2
 10
815.41199588374548
 20
221.8866788786919
 30
0.0
 40
4.9999999999999911
 50
270.0
 51
0.0
  0
CIRCLE
  5
9C
  8
2
 10
661.41199588374332
 20
221.8866788786919
 30
0.0
 40
4.4721359549995814
  0
CIRCLE
  5
9D
  8
2
 10
655.51706642037675
 20
227.5979180874692
 30
0.0
 40
1.552901623107285
  0
CIRCLE
  5
9E
  8
2
 10
667.03560619325958
 20
216.1967749175777
 30
0.0
 40
1.552901623107285
  0
LINE
  5
9F
  8
1
 62
     7
 10
640.41199588374332
 20
231.88667887869201
 30
0.0
 11
640.41199588374332
 21
211.8866788786919
 31
0.0
  0
LINE
  5
A0
  8
1
 62
     7
 10
830.41199601074345
 20
233.88667887869201
 30
0.0
 11
830.41199601074345
 21
209.8866788786919
 31
0.0
  0
LINE
  5
A1
  8
1
 62
     7
 10
643.41199588374332
 20
231.88667887869201
 30
0.0
 11
643.41199588374332
 21
233.88667887869201
 31
0.0
  0
LINE
  5
A2
  8
1
 62
     7
 10
648.41199588374332
 20
233.88667887869201
 30
0.0
 11
643.41199588374332
 21
233.88667887869201
 31
0.0
  0
LINE
  5
A3
  8
1
 62
     7
 10
648.41199588374332
 20
233.88667887869201
 30
0.0
 11
648.41199588374332
 21
231.88667887869201
 31
0.0
  0
LINE
  5
A4
  8
1
 62
     7
 10
705.41199588374332
 20
231.88667887869201
 30
0.0
 11
705.41199588374332
 21
233.88667887869201
 31
0.0
  0
LINE
  5
A5
  8
1
 62
     7
 10
705.41199588374332
 20
233.88667887869201
 30
0.0
 11
715.41199588374332
 21
233.88667887869201
 31
0.0
  0
LINE
  5
A6
  8
1
 62
     7
 10
715.41199588374332
 20
233.88667887869201
 30
0.0
 11
715.41199588374332
 21
231.88667887869201
 31
0.0
  0
POLYLINE
  5
A7
  8
1
 62
     7
 66
     1
 10
0.0
 20
0.0
 30
0.0
  0
VERTEX
  5
887
  8
1
 62
     7
 10
648.41199588374332
 20
231.88667887869201
 30
0.0
  0
VERTEX
  5
888
  8
1
 62
     7
 10
705.41199588374332
 20
231.88667887869201
 30
0.0
  0
SEQEND
  5
889
  8
1
 62
     7
  0
LINE
  5
A8
  8
1
 62
     7
 10
745.4119958837432
 20
231.88667887869201
 30
0.0
 11
745.4119958837432
 21
233.88667887869201
 31
0.0
  0
LINE
  5
A9
  8
1
 62
     7
 10
745.4119958837432
 20
233.88667887869201
 30
0.0
 11
755.41199588374332
 21
233.88667887869201
 31
0.0
  0
LINE
  5
AA
  8
1
 62
     7
 10
755.41199588374332
 20
233.88667887869201
 30
0.0
 11
755.41199588374332
 21
231.88667887869201
 31
0.0
  0
LINE
  5
AB
  8
1
 62
     7
 10
790.41199601074345
 20
231.8866788786919
 30
0.0
 11
790.41199601074345
 21
233.8866788786919
 31
0.0
  0
LINE
  5
AC
  8
1
 62
     7
 10
790.41199588374423
 20
233.88667887869201
 30
0.0
 11
800.41199588374457
 21
233.88667887869201
 31
0.0
  0
LINE
  5
AD
  8
1
 62
     7
 10
800.41199601074345
 20
233.8866788786919
 30
0.0
 11
800.41199601074345
 21
231.8866788786919
 31
0.0
  0
POLYLINE
  5
AE
  8
1
 62
     7
 66
     1
 10
0.0
 20
0.0
 30
0.0
  0
VERTEX
  5
88A
  8
1
 62
     7
 10
755.41199588374332
 20
231.88667887869201
 30
0.0
  0
VERTEX
  5
88B
  8
1
 62
     7
 10
790.41199601074345
 20
231.8866788786919
 30
0.0
  0
SEQEND
  5
88C
  8
1
 62
     7
  0
POLYLINE
  5
AF
  8
1
 62
     7
 66
     1
 10
0.0
 20
0.0
 30
0.0
  0
VERTEX
  5
88D
  8
1
 62
     7
 10
715.41199588374332
 20
231.88667887869201
 30
0.0
  0
VERTEX
  5
88E
  8
1
 62
     7
 10
745.4119958837432
 20
231.88667887869201
 30
0.0
  0
SEQEND
  5
88F
  8
1
 62
     7
  0
LINE
  5
B0
  8
1
 62
     7
 10
800.41199601074345
 20
231.88667887869201
 30
0.0
 11
825.41199588374559
 21
231.88667887869201
 31
0.0
  0
LINE
  5
B1
  8
1
 62
     7
 10
825.41199588374559
 20
231.88667887869201
 30
0.0
 11
825.41199588374559
 21
233.88667887869201
 31
0.0
  0
LINE
  5
B2
  8
1
 62
     7
 10
825.41199588374559
 20
233.88667887869201
 30
0.0
 11
830.41199601074345
 21
233.88667887869201
 31
0.0
  0
LINE
  5
B3
  8
1
 62
     7
 10
643.41199588374332
 20
211.8866788786919
 30
0.0
 11
643.41199588374332
 21
209.8866788786919
 31
0.0
  0
LINE
  5
B4
  8
1
 62
     7
 10
648.41199588374332
 20
209.8866788786919
 30
0.0
 11
643.41199588374332
 21
209.8866788786919
 31
0.0
  0
LINE
  5
B5
  8
1
 62
     7
 10
648.41199588374332
 20
209.8866788786919
 30
0.0
 11
648.41199588374332
 21
211.8866788786919
 31
0.0
  0
LINE
  5
B6
  8
1
 62
     7
 10
705.41199588374332
 20
211.8866788786919
 30
0.0
 11
705.41199588374332
 21
209.8866788786919
 31
0.0
  0
LINE
  5
B7
  8
1
 62
     7
 10
705.41199588374332
 20
209.8866788786919
 30
0.0
 11
715.41199588374332
 21
209.8866788786919
 31
0.0
  0
LINE
  5
B8
  8
1
 62
     7
 10
715.41199588374332
 20
209.8866788786919
 30
0.0
 11
715.41199588374332
 21
211.8866788786919
 31
0.0
  0
POLYLINE
  5
B9
  8
1
 62
     7
 66
     1
 10
0.0
 20
0.0
 30
0.0
  0
VERTEX
  5
890
  8
1
 62
     7
 10
648.41199588374332
 20
211.8866788786919
 30
0.0
  0
VERTEX
  5
891
  8
1
 62
     7
 10
705.41199588374332
 20
211.8866788786919
 30
0.0
  0
SEQEND
  5
892
  8
1
 62
     7
  0
LINE
  5
BA
  8
1
 62
     7
 10
745.4119958837432
 20
211.8866788786919
 30
0.0
 11
745.4119958837432
 21
209.8866788786919
 31
0.0
  0
LINE
  5
BB
  8
1
 62
     7
 10
745.4119958837432
 20
209.8866788786919
 30
0.0
 11
755.41199588374332
 21
209.8866788786919
 31
0.0
  0
LINE
  5
BC
  8
1
 62
     7
 10
755.41199588374332
 20
209.8866788786919
 30
0.0
 11
755.41199588374332
 21
211.8866788786919
 31
0.0
  0
LINE
  5
BD
  8
1
 62
     7
 10
790.41199601074345
 20
211.8866788786919
 30
0.0
 11
790.41199601074345
 21
209.8866788786919
 31
0.0
  0
LINE
  5
BE
  8
1
 62
     7
 10
790.41199588374423
 20
209.8866788786919
 30
0.0
 11
800.41199588374457
 21
209.8866788786919
 31
0.0
  0
LINE
  5
BF
  8
1
 62
     7
 10
800.41199601074345
 20
209.8866788786919
 30
0.0
 11
800.41199601074345
 21
211.8866788786919
 31
0.0
  0
POLYLINE
  5
C0
  8
1
 62
     7
 66
     1
 10
0.0
 20
0.0
 30
0.0
  0
VERTEX
  5
893
  8
1
 62
     7
 10
755.41199588374332
 20
211.8866788786919
 30
0.0
  0
VERTEX
  5
894
  8
1
 62
     7
 10
790.41199601074345
 20
211.8866788786919
 30
0.0
  0
SEQEND
  5
895
  8
1
 62
     7
  0
POLYLINE
  5
C1
  8
1
 62
     7
 66
     1
 10
0.0
 20
0.0
 30
0.0
  0
VERTEX
  5
896
  8
1
 62
     7
 10
715.41199588374332
 20
211.8866788786919
 30
0.0
  0
VERTEX
  5
897
  8
1
 62
     7
 10
745.4119958837432
 20
211.8866788786919
 30
0.0
  0
SEQEND
  5
898
  8
1
 62
     7
  0
LINE
  5
C2
  8
1
 62
     7
 10
800.41199601074345
 20
211.8866788786919
 30
0.0
 11
825.41199588374559
 21
211.8866788786919
 31
0.0
  0
LINE
  5
C3
  8
1
 62
     7
 10
825.41199588374559
 20
211.8866788786919
 30
0.0
 11
825.41199588374559
 21
209.8866788786919
 31
0.0
  0
LINE
  5
C4
  8
1
 62
     7
 10
825.41199588374559
 20
209.8866788786919
 30
0.0
 11
830.41199601074345
 21
209.8866788786919
 31
0.0
  0
LINE
  5
C5
  8
1
 10
643.41199588374332
 20
231.88667887869201
 30
0.0
 11
640.41199588374332
 21
231.88667887869201
 31
0.0
  0
LINE
  5
C6
  8
1
 10
640.41199588374332
 20
211.8866788786919
 30
0.0
 11
643.41199588374332
 21
211.8866788786919
 31
0.0
  0
LINE
  5
C7
  8
2
 10
680.41199613774313
 20
226.886679132692
 30
0.0
 11
700.41199613774324
 21
226.886679132692
 31
0.0
  0
LINE
  5
C8
  8
2
 10
680.41199613774313
 20
216.886679132692
 30
0.0
 11
700.41199613774324
 21
216.886679132692
 31
0.0
  0
ARC
  5
C9
  8
2
 10
680.41199613774313
 20
221.886679132692
 30
0.0
 40
4.9999999999999911
 50
90.0
 51
180.0
  0
ARC
  5
CA
  8
2
 10
680.41199613774313
 20
221.886679132692
 30
0.0
 40
4.9999999999999911
 50
180.0
 51
270.0
  0
ARC
  5
CB
  8
2
 10
700.41199613774324
 20
221.886679132692
 30
0.0
 40
4.9999999999999911
 50
0.0
 51
90.0
  0
ARC
  5
CC
  8
2
 10
700.41199613774324
 20
221.886679132692
 30
0.0
 40
4.9999999999999911
 50
270.0
 51
0.0
  0
CIRCLE
  5
CD
  8
2
 10
655.8059421769176
 20
216.28062517186589
 30
0.0
 40
1.552901623107285
  0
CIRCLE
  5
CE
  8
2
 10
667.04796894353399
 20
227.52265193848231
 30
0.0
 40
1.552901623107285
  0
POLYLINE
  5
D0
  8
2
 66
     1
 10
0.0
 20
0.0
 30
0.0
 70
     1
  0
VERTEX
  5
899
  8
2
 10
883.10000000000014
 20
154.90000025399979
 30
0.0
  0
VERTEX
  5
89A
  8
2
 10
883.10000000000014
 20
165.10000025399981
 30
0.0
  0
VERTEX
  5
89B
  8
2
 10
880.89999999999986
 20
165.10000025399981
 30
0.0
  0
VERTEX
  5
89C
  8
2
 10
880.89999999999986
 20
154.90000025399979
 30
0.0
  0
SEQEND
  5
89D
  8
2
  0
POLYLINE
  5
D1
  8
2
 66
     1
 10
0.0
 20
0.0
 30
0.0
 70
     1
  0
VERTEX
  5
89E
  8
2
 10
883.10000000000014
 20
194.90000025399979
 30
0.0
  0
VERTEX
  5
89F
  8
2
 10
883.10000000000014
 20
205.10000025399989
 30
0.0
  0
VERTEX
  5
8A0
  8
2
 10
880.89999999999986
 20
205.10000025399989
 30
0.0
  0
VERTEX
  5
8A1
  8
2
 10
880.89999999999986
 20
194.90000025399979
 30
0.0
  0
SEQEND
  5
8A2
  8
2
  0
LINE
  5
D2
  8
1
 10
839.0
 20
143.0
 30
0.0
 11
839.0
 21
216.9999999999998
 31
0.0
  0
LINE
  5
D3
  8
1
 10
885.0
 20
216.9999999999998
 30
0.0
 11
885.0
 21
143.0
 31
0.0
  0
POLYLINE
  5
D4
  8
2
 66
     1
 10
0.0
 20
0.0
 30
0.0
 70
     1
  0
VERTEX
  5
8A3
  8
2
 10
843.09999999999968
 20
154.90000025399959
 30
0.0
  0
VERTEX
  5
8A4
  8
2
 10
843.09999999999968
 20
165.10000025399981
 30
0.0
  0
VERTEX
  5
8A5
  8
2
 10
840.89999999999998
 20
165.10000025399981
 30
0.0
  0
VERTEX
  5
8A6
  8
2
 10
840.89999999999998
 20
154.90000025399959
 30
0.0
  0
SEQEND
  5
8A7
  8
2
  0
POLYLINE
  5
D5
  8
2
 66
     1
 10
0.0
 20
0.0
 30
0.0
 70
     1
  0
VERTEX
  5
8A8
  8
2
 10
843.09999999999968
 20
194.90000025399979
 30
0.0
  0
VERTEX
  5
8A9
  8
2
 10
843.09999999999968
 20
205.10000025399989
 30
0.0
  0
VERTEX
  5
8AA
  8
2
 10
840.89999999999998
 20
205.10000025399989
 30
0.0
  0
VERTEX
  5
8AB
  8
2
 10
840.89999999999998
 20
194.90000025399979
 30
0.0
  0
SEQEND
  5
8AC
  8
2
  0
POLYLINE
  5
D6
  8
2
 66
     1
 10
0.0
 20
0.0
 30
0.0
 70
     1
  0
VERTEX
  5
8AD
  8
2
 10
854.0
 20
147.0000002539993
 30
0.0
 42
-0.4142135623730949
  0
VERTEX
  5
8AE
  8
2
 10
849.0
 20
152.00000025399919
 30
0.0
  0
VERTEX
  5
8AF
  8
2
 10
849.0
 20
157.00000025399919
 30
0.0
 42
-0.4142135623731057
  0
VERTEX
  5
8B0
  8
2
 10
854.0
 20
162.0000002539991
 30
0.0
  0
VERTEX
  5
8B1
  8
2
 10
869.0
 20
162.0000002539991
 30
0.0
 42
-0.4142135623731057
  0
VERTEX
  5
8B2
  8
2
 10
874.00000000000011
 20
157.00000025399919
 30
0.0
  0
VERTEX
  5
8B3
  8
2
 10
874.00000000000011
 20
152.00000025399919
 30
0.0
 42
-0.4142135623731057
  0
VERTEX
  5
8B4
  8
2
 10
869.0
 20
147.0000002539993
 30
0.0
  0
SEQEND
  5
8B5
  8
2
  0
POLYLINE
  5
D7
  8
2
 66
     1
 10
0.0
 20
0.0
 30
0.0
 70
     1
  0
VERTEX
  5
8B6
  8
2
 10
854.0
 20
172.00000025399939
 30
0.0
 42
-0.4142135623730949
  0
VERTEX
  5
8B7
  8
2
 10
849.0
 20
177.0000002539993
 30
0.0
  0
VERTEX
  5
8B8
  8
2
 10
849.0
 20
182.0000002539993
 30
0.0
 42
-0.4142135623731057
  0
VERTEX
  5
8B9
  8
2
 10
854.0
 20
187.00000025399919
 30
0.0
  0
VERTEX
  5
8BA
  8
2
 10
869.0
 20
187.00000025399919
 30
0.0
 42
-0.4142135623731057
  0
VERTEX
  5
8BB
  8
2
 10
874.00000000000011
 20
182.0000002539993
 30
0.0
  0
VERTEX
  5
8BC
  8
2
 10
874.00000000000011
 20
177.0000002539993
 30
0.0
 42
-0.4142135623731057
  0
VERTEX
  5
8BD
  8
2
 10
869.0
 20
172.00000025399939
 30
0.0
  0
SEQEND
  5
8BE
  8
2
  0
POLYLINE
  5
D8
  8
2
 66
     1
 10
0.0
 20
0.0
 30
0.0
 70
     1
  0
VERTEX
  5
8BF
  8
2
 10
854.0
 20
197.0000002539993
 30
0.0
 42
-0.4142135623730949
  0
VERTEX
  5
8C0
  8
2
 10
849.0
 20
202.00000025399919
 30
0.0
  0
VERTEX
  5
8C1
  8
2
 10
849.0
 20
207.00000025399939
 30
0.0
 42
-0.4142135623731057
  0
VERTEX
  5
8C2
  8
2
 10
854.0
 20
212.0000002539993
 30
0.0
  0
VERTEX
  5
8C3
  8
2
 10
869.0
 20
212.0000002539993
 30
0.0
 42
-0.4142135623731057
  0
VERTEX
  5
8C4
  8
2
 10
874.00000000000011
 20
207.00000025399939
 30
0.0
  0
VERTEX
  5
8C5
  8
2
 10
874.00000000000011
 20
202.00000025399919
 30
0.0
 42
-0.4142135623731057
  0
VERTEX
  5
8C6
  8
2
 10
869.0
 20
197.0000002539993
 30
0.0
  0
SEQEND
  5
8C7
  8
2
  0
LINE
  5
D9
  8
1
 10
842.0
 20
140.0
 30
0.0
 11
881.99999999999955
 21
140.0
 31
0.0
  0
LINE
  5
DA
  8
1
 10
842.0
 20
219.9999999999998
 30
0.0
 11
881.99999999999955
 21
219.9999999999998
 31
0.0
  0
ARC
  5
DB
  8
1
 10
842.0
 20
143.0
 30
0.0
 40
3.0
 50
180.0
 51
270.0
  0
ARC
  5
DC
  8
1
 10
881.99999999999955
 20
143.0
 30
0.0
 40
3.0
 50
270.0
 51
0.0000000000000799
  0
ARC
  5
DD
  8
1
 10
881.99999999999955
 20
216.9999999999998
 30
0.0
 40
3.0
 50
0.0000000000000509
 51
90.0
  0
ARC
  5
DE
  8
1
 10
842.0
 20
216.9999999999998
 30
0.0
 40
3.0
 50
90.0
 51
180.0
  0
LINE
  5
E0
  8
1
 10
756.0
 20
90.999999999999957
 30
0.000000127
 11
756.0
 21
50.99999999999995
 31
0.000000127
  0
LINE
  5
E1
  8
1
 10
786.0
 20
21.0
 30
0.000000127
 11
825.99999999999989
 21
21.0
 31
0.000000127
  0
LINE
  5
E2
  8
1
 10
855.99999999999955
 20
51.000000000000043
 30
0.000000127
 11
855.99999999999955
 21
90.999999999999957
 31
0.000000127
  0
LINE
  5
E3
  8
1
 10
825.99999999999989
 20
121.0
 30
0.000000127
 11
786.0
 21
121.0
 31
0.000000127
  0
LINE
  5
E4
  8
1
 10
756.0
 20
90.999999999999957
 30
0.000000127
 11
756.0
 21
50.99999999999995
 31
0.000000127
  0
CIRCLE
  5
E5
  8
2
 10
783.52219758558215
 20
48.500000000000057
 30
0.000000127
 40
1.643686795134486
  0
CIRCLE
  5
E6
  8
2
 10
783.52219758558215
 20
93.500000000000043
 30
0.000000127
 40
1.643686795134486
  0
CIRCLE
  5
E7
  8
2
 10
828.52219758558215
 20
93.500000000000043
 30
0.000000127
 40
1.643686795134486
  0
CIRCLE
  5
E8
  8
2
 10
828.52219758558215
 20
48.500000000000057
 30
0.000000127
 40
1.643686795134486
  0
CIRCLE
  5
E9
  8
2
 10
849.66588463471658
 20
56.643687049134464
 30
0.000000127
 40
1.643686795134486
  0
CIRCLE
  5
EA
  8
2
 10
849.66588463471658
 20
85.643687049134456
 30
0.000000127
 40
1.643686795134486
  0
CIRCLE
  5
EB
  8
2
 10
820.37851053644772
 20
114.6436870491344
 30
0.000000127
 40
1.643686795134486
  0
CIRCLE
  5
EC
  8
2
 10
791.37851053644761
 20
114.6436870491344
 30
0.000000127
 40
1.643686795134486
  0
CIRCLE
  5
ED
  8
2
 10
762.37851053644761
 20
85.356312950865444
 30
0.000000127
 40
1.643686795134486
  0
CIRCLE
  5
EE
  8
2
 10
762.37851053644761
 20
56.356312950865359
 30
0.000000127
 40
1.643686795134486
  0
CIRCLE
  5
EF
  8
2
 10
791.6658846347168
 20
27.356312950865458
 30
0.000000127
 40
1.643686795134486
  0
CIRCLE
  5
F0
  8
2
 10
820.66588463471669
 20
27.356312950865458
 30
0.000000127
 40
1.643686795134486
  0
LINE
  5
F1
  8
1
 10
840.29289321881333
 20
35.292893218813433
 30
0.000000127
 11
825.99999999999989
 21
21.0
 31
0.000000127
  0
LINE
  5
F2
  8
1
 10
855.99999999999955
 20
51.000000000000043
 30
0.000000127
 11
841.70710678118621
 21
36.707106781186532
 31
0.000000127
  0
LINE
  5
F3
  8
1
 10
771.72930436676882
 20
106.7293043667689
 30
0.000000127
 11
786.0
 21
121.0
 31
0.000000127
  0
LINE
  5
F4
  8
1
 10
756.0
 20
90.999999999999957
 30
0.000000127
 11
770.31509080439571
 21
105.31509080439579
 31
0.000000127
  0
POLYLINE
  5
F5
  8
1
 66
     1
 10
0.0
 20
0.0
 30
0.0
  0
VERTEX
  5
8C8
  8
1
 10
771.72930436676882
 20
106.7293043667689
 30
0.0
  0
VERTEX
  5
8C9
  8
1
 10
773.51926890531774
 20
104.9393398282201
 30
0.0
  0
VERTEX
  5
8CA
  8
1
 10
772.1050553429443
 20
103.52512626584701
 30
0.0
  0
VERTEX
  5
8CB
  8
1
 10
770.31509080439571
 20
105.31509080439579
 30
0.0
  0
SEQEND
  5
8CC
  8
1
  0
POLYLINE
  5
F6
  8
1
 66
     1
 10
0.0
 20
0.0
 30
0.0
  0
VERTEX
  5
8CD
  8
1
 10
840.29289321881333
 20
35.292893218813433
 30
0.0
  0
VERTEX
  5
8CE
  8
1
 10
838.52512626584689
 20
37.060660171779823
 30
0.0
  0
VERTEX
  5
8CF
  8
1
 10
839.93933982821977
 20
38.474873734152922
 30
0.0
  0
VERTEX
  5
8D0
  8
1
 10
841.70710678118621
 20
36.707106781186532
 30
0.0
  0
SEQEND
  5
8D1
  8
1
  0
LINE
  5
F7
  8
1
 10
770.29289321881333
 20
36.70710678118661
 30
0.000000127
 11
756.0
 21
50.99999999999995
 31
0.000000127
  0
LINE
  5
F8
  8
1
 10
786.0
 20
21.0
 30
0.000000127
 11
771.70710678118633
 21
35.292893218813433
 31
0.000000127
  0
LINE
  5
F9
  8
1
 10
841.72930436676882
 20
105.2706956332311
 30
0.000000127
 11
855.99999999999955
 21
90.999999999999957
 31
0.000000127
  0
LINE
  5
FA
  8
1
 10
825.99999999999989
 20
121.0
 30
0.000000127
 11
840.3150908043956
 21
106.68490919560421
 31
0.000000127
  0
POLYLINE
  5
FB
  8
1
 66
     1
 10
0.0
 20
0.0
 30
0.0
  0
VERTEX
  5
8D2
  8
1
 10
841.72930436676882
 20
105.2706956332311
 30
0.0
  0
VERTEX
  5
8D3
  8
1
 10
839.96153741380203
 20
103.5029286802645
 30
0.0
  0
VERTEX
  5
8D4
  8
1
 10
838.54732385142916
 20
104.91714224263769
 30
0.0
  0
VERTEX
  5
8D5
  8
1
 10
840.3150908043956
 20
106.68490919560421
 30
0.0
  0
SEQEND
  5
8D6
  8
1
  0
POLYLINE
  5
FC
  8
1
 66
     1
 10
0.0
 20
0.0
 30
0.0
  0
VERTEX
  5
8D7
  8
1
 10
770.29289321881333
 20
36.70710678118661
 30
0.0
  0
VERTEX
  5
8D8
  8
1
 10
772.08285775736204
 20
38.497071319735262
 30
0.0
  0
VERTEX
  5
8D9
  8
1
 10
773.49707131973526
 20
37.082857757362071
 30
0.0
  0
VERTEX
  5
8DA
  8
1
 10
771.70710678118633
 20
35.292893218813433
 30
0.0
  0
SEQEND
  5
8DB
  8
1
  0
POLYLINE
  5
FD
  8
2
 66
     1
 10
0.0
 20
0.0
 30
0.0
 70
     1
  0
VERTEX
  5
8DC
  8
2
 10
760.92219758558224
 20
61.099999999999902
 30
0.0
  0
VERTEX
  5
8DD
  8
2
 10
771.12219758558217
 20
61.099999999999902
 30
0.0
  0
VERTEX
  5
8DE
  8
2
 10
771.12219758558217
 20
58.89999999999997
 30
0.0
  0
VERTEX
  5
8DF
  8
2
 10
760.92219758558224
 20
58.89999999999997
 30
0.0
  0
SEQEND
  5
8E0
  8
2
  0
POLYLINE
  5
FE
  8
2
 66
     1
 10
0.0
 20
0.0
 30
0.0
 70
     1
  0
VERTEX
  5
8E1
  8
2
 10
780.92219758558224
 20
61.099999999999902
 30
0.0
  0
VERTEX
  5
8E2
  8
2
 10
791.12219758558228
 20
61.099999999999902
 30
0.0
  0
VERTEX
  5
8E3
  8
2
 10
791.12219758558228
 20
58.89999999999997
 30
0.0
  0
VERTEX
  5
8E4
  8
2
 10
780.92219758558224
 20
58.89999999999997
 30
0.0
  0
SEQEND
  5
8E5
  8
2
  0
POLYLINE
  5
FF
  8
2
 66
     1
 10
0.0
 20
0.0
 30
0.0
 70
     1
  0
VERTEX
  5
8E6
  8
2
 10
760.92219758558224
 20
83.099999999999952
 30
0.0
  0
VERTEX
  5
8E7
  8
2
 10
771.12219758558217
 20
83.099999999999952
 30
0.0
  0
VERTEX
  5
8E8
  8
2
 10
771.12219758558217
 20
80.900000000000006
 30
0.0
  0
VERTEX
  5
8E9
  8
2
 10
760.92219758558224
 20
80.900000000000006
 30
0.0
  0
SEQEND
  5
8EA
  8
2
  0
POLYLINE
  5
100
  8
2
 66
     1
 10
0.0
 20
0.0
 30
0.0
 70
     1
  0
VERTEX
  5
8EB
  8
2
 10
780.92219758558224
 20
83.099999999999952
 30
0.0
  0
VERTEX
  5
8EC
  8
2
 10
791.12219758558228
 20
83.099999999999952
 30
0.0
  0
VERTEX
  5
8ED
  8
2
 10
791.12219758558228
 20
80.900000000000006
 30
0.0
  0
VERTEX
  5
8EE
  8
2
 10
780.92219758558224
 20
80.900000000000006
 30
0.0
  0
SEQEND
  5
8EF
  8
2
  0
POLYLINE
  5
101
  8
2
 66
     1
 10
0.0
 20
0.0
 30
0.0
 70
     1
  0
VERTEX
  5
8F0
  8
2
 10
815.92219758558235
 20
25.89999999999997
 30
0.0
  0
VERTEX
  5
8F1
  8
2
 10
815.92219758558235
 20
36.100000000000001
 30
0.0
  0
VERTEX
  5
8F2
  8
2
 10
818.12219758558228
 20
36.100000000000001
 30
0.0
  0
VERTEX
  5
8F3
  8
2
 10
818.12219758558228
 20
25.89999999999997
 30
0.0
  0
SEQEND
  5
8F4
  8
2
  0
POLYLINE
  5
102
  8
2
 66
     1
 10
0.0
 20
0.0
 30
0.0
 70
     1
  0
VERTEX
  5
8F5
  8
2
 10
815.92219758558235
 20
45.899999999999928
 30
0.0
  0
VERTEX
  5
8F6
  8
2
 10
815.92219758558235
 20
56.099999999999952
 30
0.0
  0
VERTEX
  5
8F7
  8
2
 10
818.12219758558228
 20
56.099999999999952
 30
0.0
  0
VERTEX
  5
8F8
  8
2
 10
818.12219758558228
 20
45.899999999999928
 30
0.0
  0
SEQEND
  5
8F9
  8
2
  0
POLYLINE
  5
103
  8
2
 66
     1
 10
0.0
 20
0.0
 30
0.0
 70
     1
  0
VERTEX
  5
8FA
  8
2
 10
793.92219758558224
 20
25.89999999999997
 30
0.0
  0
VERTEX
  5
8FB
  8
2
 10
793.92219758558224
 20
36.100000000000001
 30
0.0
  0
VERTEX
  5
8FC
  8
2
 10
796.12219758558217
 20
36.100000000000001
 30
0.0
  0
VERTEX
  5
8FD
  8
2
 10
796.12219758558217
 20
25.89999999999997
 30
0.0
  0
SEQEND
  5
8FE
  8
2
  0
POLYLINE
  5
104
  8
2
 66
     1
 10
0.0
 20
0.0
 30
0.0
 70
     1
  0
VERTEX
  5
8FF
  8
2
 10
793.92219758558224
 20
45.899999999999928
 30
0.0
  0
VERTEX
  5
900
  8
2
 10
793.92219758558224
 20
56.099999999999952
 30
0.0
  0
VERTEX
  5
901
  8
2
 10
796.12219758558217
 20
56.099999999999952
 30
0.0
  0
VERTEX
  5
902
  8
2
 10
796.12219758558217
 20
45.899999999999928
 30
0.0
  0
SEQEND
  5
903
  8
2
  0
POLYLINE
  5
105
  8
2
 66
     1
 10
0.0
 20
0.0
 30
0.0
 70
     1
  0
VERTEX
  5
904
  8
2
 10
851.12219758558206
 20
80.89999999999992
 30
0.0
  0
VERTEX
  5
905
  8
2
 10
840.92219758558235
 20
80.89999999999992
 30
0.0
  0
VERTEX
  5
906
  8
2
 10
840.92219758558235
 20
83.099999999999952
 30
0.0
  0
VERTEX
  5
907
  8
2
 10
851.12219758558206
 20
83.099999999999952
 30
0.0
  0
SEQEND
  5
908
  8
2
  0
POLYLINE
  5
106
  8
2
 66
     1
 10
0.0
 20
0.0
 30
0.0
 70
     1
  0
VERTEX
  5
909
  8
2
 10
831.12219758558217
 20
80.89999999999992
 30
0.0
  0
VERTEX
  5
90A
  8
2
 10
820.92219758558224
 20
80.89999999999992
 30
0.0
  0
VERTEX
  5
90B
  8
2
 10
820.92219758558224
 20
83.099999999999952
 30
0.0
  0
VERTEX
  5
90C
  8
2
 10
831.12219758558217
 20
83.099999999999952
 30
0.0
  0
SEQEND
  5
90D
  8
2
  0
POLYLINE
  5
107
  8
2
 66
     1
 10
0.0
 20
0.0
 30
0.0
 70
     1
  0
VERTEX
  5
90E
  8
2
 10
851.12219758558206
 20
58.899999999999856
 30
0.0
  0
VERTEX
  5
90F
  8
2
 10
840.92219758558235
 20
58.899999999999856
 30
0.0
  0
VERTEX
  5
910
  8
2
 10
840.92219758558235
 20
61.099999999999902
 30
0.0
  0
VERTEX
  5
911
  8
2
 10
851.12219758558206
 20
61.099999999999902
 30
0.0
  0
SEQEND
  5
912
  8
2
  0
POLYLINE
  5
108
  8
2
 66
     1
 10
0.0
 20
0.0
 30
0.0
 70
     1
  0
VERTEX
  5
913
  8
2
 10
831.12219758558217
 20
58.899999999999856
 30
0.0
  0
VERTEX
  5
914
  8
2
 10
820.92219758558224
 20
58.899999999999856
 30
0.0
  0
VERTEX
  5
915
  8
2
 10
820.92219758558224
 20
61.099999999999902
 30
0.0
  0
VERTEX
  5
916
  8
2
 10
831.12219758558217
 20
61.099999999999902
 30
0.0
  0
SEQEND
  5
917
  8
2
  0
POLYLINE
  5
109
  8
2
 66
     1
 10
0.0
 20
0.0
 30
0.0
 70
     1
  0
VERTEX
  5
918
  8
2
 10
796.12219758558217
 20
116.09999999999989
 30
0.0
  0
VERTEX
  5
919
  8
2
 10
796.12219758558217
 20
105.90000000000001
 30
0.0
  0
VERTEX
  5
91A
  8
2
 10
793.92219758558224
 20
105.90000000000001
 30
0.0
  0
VERTEX
  5
91B
  8
2
 10
793.92219758558224
 20
116.09999999999989
 30
0.0
  0
SEQEND
  5
91C
  8
2
  0
POLYLINE
  5
10A
  8
2
 66
     1
 10
0.0
 20
0.0
 30
0.0
 70
     1
  0
VERTEX
  5
91D
  8
2
 10
796.12219758558217
 20
96.099999999999994
 30
0.0
  0
VERTEX
  5
91E
  8
2
 10
796.12219758558217
 20
85.899999999999935
 30
0.0
  0
VERTEX
  5
91F
  8
2
 10
793.92219758558224
 20
85.899999999999935
 30
0.0
  0
VERTEX
  5
920
  8
2
 10
793.92219758558224
 20
96.099999999999994
 30
0.0
  0
SEQEND
  5
921
  8
2
  0
POLYLINE
  5
10B
  8
2
 66
     1
 10
0.0
 20
0.0
 30
0.0
 70
     1
  0
VERTEX
  5
922
  8
2
 10
818.12219758558228
 20
116.09999999999989
 30
0.0
  0
VERTEX
  5
923
  8
2
 10
818.12219758558228
 20
105.90000000000001
 30
0.0
  0
VERTEX
  5
924
  8
2
 10
815.92219758558235
 20
105.90000000000001
 30
0.0
  0
VERTEX
  5
925
  8
2
 10
815.92219758558235
 20
116.09999999999989
 30
0.0
  0
SEQEND
  5
926
  8
2
  0
POLYLINE
  5
10C
  8
2
 66
     1
 10
0.0
 20
0.0
 30
0.0
 70
     1
  0
VERTEX
  5
927
  8
2
 10
818.12219758558228
 20
96.099999999999994
 30
0.0
  0
VERTEX
  5
928
  8
2
 10
818.12219758558228
 20
85.899999999999935
 30
0.0
  0
VERTEX
  5
929
  8
2
 10
815.92219758558235
 20
85.899999999999935
 30
0.0
  0
VERTEX
  5
92A
  8
2
 10
815.92219758558235
 20
96.099999999999994
 30
0.0
  0
SEQEND
  5
92B
  8
2
  0
CIRCLE
  5
10D
  8
2
 10
774.20240894551534
 20
71.032417610479882
 30
0.000000127
 40
1.643686795134486
  0
CIRCLE
  5
10E
  8
2
 10
805.98977997510224
 20
39.18021135993299
 30
0.000000127
 40
1.643686795134486
  0
CIRCLE
  5
10F
  8
2
 10
837.84198622564907
 20
70.967582389519947
 30
0.000000127
 40
1.643686795134486
  0
CIRCLE
  5
110
  8
2
 10
806.05461519606217
 20
102.8197886400669
 30
0.000000127
 40
1.643686795134486
  0
CIRCLE
  5
111
  8
2
 10
805.91603532137742
 20
71.20057243300667
 30
-0.000000127
 40
14.142135623730949
  0
POLYLINE
  5
113
  8
2
 66
     1
 10
0.0
 20
0.0
 30
0.0
 70
     1
  0
VERTEX
  5
92C
  8
2
 10
662.08084714717222
 20
72.089990176200175
 30
0.0
  0
VERTEX
  5
92D
  8
2
 10
669.29333631527516
 20
64.87750100809734
 30
0.0
  0
VERTEX
  5
92E
  8
2
 10
670.84897123388555
 20
66.433135926707692
 30
0.0
  0
VERTEX
  5
92F
  8
2
 10
663.63648206578273
 20
73.645625094810526
 30
0.0
  0
SEQEND
  5
930
  8
2
  0
POLYLINE
  5
114
  8
2
 66
     1
 10
0.0
 20
0.0
 30
0.0
 70
     1
  0
VERTEX
  5
931
  8
2
 10
690.36511839463424
 20
43.805718928738109
 30
0.0
  0
VERTEX
  5
932
  8
2
 10
697.57760756273694
 20
36.59322976063546
 30
0.0
  0
VERTEX
  5
933
  8
2
 10
699.13324248134745
 20
38.148864679245811
 30
0.0
  0
VERTEX
  5
934
  8
2
 10
691.92075331324475
 20
45.361353847348539
 30
0.0
  0
SEQEND
  5
935
  8
2
  0
POLYLINE
  5
115
  8
2
 66
     1
 10
0.0
 20
0.0
 30
0.0
 70
     1
  0
VERTEX
  5
936
  8
2
 10
690.36511839463412
 20
100.37426142366201
 30
0.0
  0
VERTEX
  5
937
  8
2
 10
697.57760756273694
 20
93.161772255559228
 30
0.0
  0
VERTEX
  5
938
  8
2
 10
699.13324248134745
 20
94.717407174169679
 30
0.0
  0
VERTEX
  5
939
  8
2
 10
691.92075331324463
 20
101.9298963422724
 30
0.0
  0
SEQEND
  5
93A
  8
2
  0
POLYLINE
  5
116
  8
2
 66
     1
 10
0.0
 20
0.0
 30
0.0
 70
     1
  0
VERTEX
  5
93B
  8
2
 10
718.64938964209625
 20
72.089990176200075
 30
0.0
  0
VERTEX
  5
93C
  8
2
 10
725.86187881019896
 20
64.877501008097255
 30
0.0
  0
VERTEX
  5
93D
  8
2
 10
727.41751372880924
 20
66.433135926707692
 30
0.0
  0
VERTEX
  5
93E
  8
2
 10
720.20502456070665
 20
73.645625094810526
 30
0.0
  0
SEQEND
  5
93F
  8
2
  0
CIRCLE
  5
117
  8
2
 10
682.50046497376036
 20
81.257729104940154
 30
0.000000254
 40
1.1000000000000001
  0
CIRCLE
  5
118
  8
2
 10
706.72560818198258
 20
57.511391796344213
 30
0.000000254
 40
1.1000000000000001
  0
LINE
  5
119
  8
1
 10
714.74918043799084
 20
119.2615630514539
 30
0.000000254
 11
674.74918043799073
 21
119.2615630514539
 31
0.000000254
  0
LINE
  5
11A
  8
1
 10
644.74918043799073
 20
89.261563051454004
 30
0.000000254
 11
644.74918043799073
 21
49.26156305145394
 31
0.000000254
  0
LINE
  5
11B
  8
1
 10
674.74918043799073
 20
19.261563051453969
 30
0.000000254
 11
714.74918043799084
 21
19.261563051453891
 31
0.000000254
  0
LINE
  5
11C
  8
1
 10
744.74918043799073
 20
49.26156305145394
 30
0.000000254
 11
744.74918043799073
 21
89.261563051453834
 31
0.000000254
  0
LINE
  5
11D
  8
1
 10
714.74918043799084
 20
119.2615630514539
 30
0.000000254
 11
674.74918043799073
 21
119.2615630514539
 31
0.000000254
  0
CIRCLE
  5
11E
  8
2
 10
717.24918043799084
 20
91.739365465871586
 30
0.000000254
 40
1.643686795134486
  0
CIRCLE
  5
11F
  8
2
 10
672.24918043799096
 20
46.739365465871522
 30
0.000000254
 40
1.643686795134486
  0
CIRCLE
  5
120
  8
2
 10
680.39286748712527
 20
25.595678416737108
 30
0.000000254
 40
1.643686795134486
  0
CIRCLE
  5
121
  8
2
 10
709.39286748712539
 20
25.595678416737108
 30
0.000000254
 40
1.643686795134486
  0
CIRCLE
  5
122
  8
2
 10
738.39286748712539
 20
54.883052515006192
 30
0.000000254
 40
1.643686795134486
  0
CIRCLE
  5
123
  8
2
 10
738.39286748712539
 20
83.883052515006085
 30
0.000000254
 40
1.643686795134486
  0
CIRCLE
  5
124
  8
2
 10
709.1054933888563
 20
112.883052515006
 30
0.000000254
 40
1.643686795134486
  0
CIRCLE
  5
125
  8
2
 10
680.1054933888563
 20
112.883052515006
 30
0.000000254
 40
1.643686795134486
  0
CIRCLE
  5
126
  8
2
 10
651.1054933888563
 20
83.595678416737186
 30
0.000000254
 40
1.643686795134486
  0
CIRCLE
  5
127
  8
2
 10
651.1054933888563
 20
54.595678416737186
 30
0.000000254
 40
1.643686795134486
  0
LINE
  5
128
  8
1
 10
659.04207365680418
 20
34.968669832640678
 30
0.000000254
 11
644.74918043799073
 21
49.26156305145394
 31
0.000000254
  0
LINE
  5
129
  8
1
 10
674.74918043799073
 20
19.261563051453969
 30
0.000000254
 11
660.4562872191774
 21
33.554456270267487
 31
0.000000254
  0
LINE
  5
12A
  8
1
 10
730.47848480475955
 20
103.53225868468481
 30
0.000000254
 11
744.74918043799073
 21
89.261563051453834
 31
0.000000254
  0
LINE
  5
12B
  8
1
 10
714.74918043799084
 20
119.2615630514539
 30
0.000000254
 11
729.06427124238655
 21
104.946472247058
 31
0.000000254
  0
POLYLINE
  5
12C
  8
1
 66
     1
 10
0.0
 20
0.0
 30
0.0
  0
VERTEX
  5
940
  8
1
 10
730.47848480475955
 20
103.53225868468481
 30
0.0
  0
VERTEX
  5
941
  8
1
 10
728.68852026621096
 20
101.7422941461362
 30
0.0
  0
VERTEX
  5
942
  8
1
 10
727.27430670383785
 20
103.1565077085093
 30
0.0
  0
VERTEX
  5
943
  8
1
 10
729.06427124238655
 20
104.946472247058
 30
0.0
  0
SEQEND
  5
944
  8
1
  0
POLYLINE
  5
12D
  8
1
 66
     1
 10
0.0
 20
0.0
 30
0.0
  0
VERTEX
  5
945
  8
1
 10
659.04207365680418
 20
34.968669832640678
 30
0.0
  0
VERTEX
  5
946
  8
1
 10
660.80984060977073
 20
36.736436785607069
 30
0.0
  0
VERTEX
  5
947
  8
1
 10
662.22405417214384
 20
35.322223223233792
 30
0.0
  0
VERTEX
  5
948
  8
1
 10
660.4562872191774
 20
33.554456270267487
 30
0.0
  0
SEQEND
  5
949
  8
1
  0
LINE
  5
12E
  8
1
 10
660.45628721917751
 20
104.9686698326404
 30
0.000000254
 11
674.74918043799073
 21
119.2615630514539
 31
0.000000254
  0
LINE
  5
12F
  8
1
 10
644.74918043799073
 20
89.261563051454004
 30
0.000000254
 11
659.04207365680418
 21
103.55445627026739
 31
0.000000254
  0
LINE
  5
130
  8
1
 10
729.01987607122203
 20
33.532258684684891
 30
0.000000254
 11
714.74918043799084
 21
19.261563051453891
 31
0.000000254
  0
LINE
  5
131
  8
1
 10
744.74918043799073
 20
49.26156305145394
 30
0.000000254
 11
730.43408963359514
 21
34.946472247058082
 31
0.000000254
  0
POLYLINE
  5
132
  8
1
 66
     1
 10
0.0
 20
0.0
 30
0.0
  0
VERTEX
  5
94A
  8
1
 10
729.01987607122203
 20
33.532258684684891
 30
0.0
  0
VERTEX
  5
94B
  8
1
 10
727.25210911825548
 20
35.300025637651551
 30
0.0
  0
VERTEX
  5
94C
  8
1
 10
728.66632268062881
 20
36.71423920002465
 30
0.0
  0
VERTEX
  5
94D
  8
1
 10
730.43408963359514
 20
34.946472247058082
 30
0.0
  0
SEQEND
  5
94E
  8
1
  0
POLYLINE
  5
133
  8
1
 66
     1
 10
0.0
 20
0.0
 30
0.0
  0
VERTEX
  5
94F
  8
1
 10
660.45628721917751
 20
104.9686698326404
 30
0.0
  0
VERTEX
  5
950
  8
1
 10
662.24625175772633
 20
103.1787052940918
 30
0.0
  0
VERTEX
  5
951
  8
1
 10
660.83203819535299
 20
101.76449173171871
 30
0.0
  0
VERTEX
  5
952
  8
1
 10
659.04207365680418
 20
103.55445627026739
 30
0.0
  0
SEQEND
  5
953
  8
1
  0
POLYLINE
  5
134
  8
2
 66
     1
 10
0.0
 20
0.0
 30
0.0
 70
     1
  0
VERTEX
  5
954
  8
2
 10
684.84918043799075
 20
114.3393654658714
 30
0.0
  0
VERTEX
  5
955
  8
2
 10
684.84918043799075
 20
104.13936546587161
 30
0.0
  0
VERTEX
  5
956
  8
2
 10
682.64918043799071
 20
104.13936546587161
 30
0.0
  0
VERTEX
  5
957
  8
2
 10
682.64918043799071
 20
114.33936546587159
 30
0.0
  0
SEQEND
  5
958
  8
2
  0
POLYLINE
  5
135
  8
2
 66
     1
 10
0.0
 20
0.0
 30
0.0
 70
     1
  0
VERTEX
  5
959
  8
2
 10
684.84918043799075
 20
94.339365465871722
 30
0.0
  0
VERTEX
  5
95A
  8
2
 10
684.84918043799075
 20
84.139365465871592
 30
0.0
  0
VERTEX
  5
95B
  8
2
 10
682.64918043799071
 20
84.139365465871691
 30
0.0
  0
VERTEX
  5
95C
  8
2
 10
682.64918043799071
 20
94.339365465871722
 30
0.0
  0
SEQEND
  5
95D
  8
2
  0
POLYLINE
  5
136
  8
2
 66
     1
 10
0.0
 20
0.0
 30
0.0
 70
     1
  0
VERTEX
  5
95E
  8
2
 10
706.84918043799098
 20
114.3393654658714
 30
0.0
  0
VERTEX
  5
95F
  8
2
 10
706.84918043799098
 20
104.13936546587161
 30
0.0
  0
VERTEX
  5
960
  8
2
 10
704.64918043799082
 20
104.13936546587161
 30
0.0
  0
VERTEX
  5
961
  8
2
 10
704.64918043799082
 20
114.3393654658714
 30
0.0
  0
SEQEND
  5
962
  8
2
  0
POLYLINE
  5
137
  8
2
 66
     1
 10
0.0
 20
0.0
 30
0.0
 70
     1
  0
VERTEX
  5
963
  8
2
 10
706.84918043799098
 20
94.339365465871623
 30
0.0
  0
VERTEX
  5
964
  8
2
 10
706.84918043799098
 20
84.139365465871592
 30
0.0
  0
VERTEX
  5
965
  8
2
 10
704.64918043799082
 20
84.139365465871506
 30
0.0
  0
VERTEX
  5
966
  8
2
 10
704.64918043799082
 20
94.339365465871623
 30
0.0
  0
SEQEND
  5
967
  8
2
  0
POLYLINE
  5
138
  8
2
 66
     1
 10
0.0
 20
0.0
 30
0.0
 70
     1
  0
VERTEX
  5
968
  8
2
 10
649.64918043799071
 20
59.339365465871552
 30
0.0
  0
VERTEX
  5
969
  8
2
 10
659.84918043799075
 20
59.339365465871552
 30
0.0
  0
VERTEX
  5
96A
  8
2
 10
659.84918043799075
 20
57.139365465871677
 30
0.0
  0
VERTEX
  5
96B
  8
2
 10
649.64918043799082
 20
57.139365465871677
 30
0.0
  0
SEQEND
  5
96C
  8
2
  0
POLYLINE
  5
139
  8
2
 66
     1
 10
0.0
 20
0.0
 30
0.0
 70
     1
  0
VERTEX
  5
96D
  8
2
 10
669.64918043799071
 20
59.339365465871552
 30
0.0
  0
VERTEX
  5
96E
  8
2
 10
679.84918043799075
 20
59.339365465871552
 30
0.0
  0
VERTEX
  5
96F
  8
2
 10
679.84918043799075
 20
57.139365465871677
 30
0.0
  0
VERTEX
  5
970
  8
2
 10
669.64918043799071
 20
57.139365465871677
 30
0.0
  0
SEQEND
  5
971
  8
2
  0
POLYLINE
  5
13A
  8
2
 66
     1
 10
0.0
 20
0.0
 30
0.0
 70
     1
  0
VERTEX
  5
972
  8
2
 10
649.64918043799082
 20
81.339365465871595
 30
0.0
  0
VERTEX
  5
973
  8
2
 10
659.84918043799075
 20
81.339365465871595
 30
0.0
  0
VERTEX
  5
974
  8
2
 10
659.84918043799098
 20
79.139365465871734
 30
0.0
  0
VERTEX
  5
975
  8
2
 10
649.64918043799082
 20
79.139365465871734
 30
0.0
  0
SEQEND
  5
976
  8
2
  0
POLYLINE
  5
13B
  8
2
 66
     1
 10
0.0
 20
0.0
 30
0.0
 70
     1
  0
VERTEX
  5
977
  8
2
 10
669.64918043799071
 20
81.339365465871595
 30
0.0
  0
VERTEX
  5
978
  8
2
 10
679.84918043799075
 20
81.339365465871595
 30
0.0
  0
VERTEX
  5
979
  8
2
 10
679.84918043799075
 20
79.139365465871734
 30
0.0
  0
VERTEX
  5
97A
  8
2
 10
669.64918043799071
 20
79.139365465871734
 30
0.0
  0
SEQEND
  5
97B
  8
2
  0
POLYLINE
  5
13C
  8
2
 66
     1
 10
0.0
 20
0.0
 30
0.0
 70
     1
  0
VERTEX
  5
97C
  8
2
 10
704.64918043799071
 20
24.139365465871698
 30
0.0
  0
VERTEX
  5
97D
  8
2
 10
704.64918043799071
 20
34.339365465871637
 30
0.0
  0
VERTEX
  5
97E
  8
2
 10
706.84918043799087
 20
34.339365465871637
 30
0.0
  0
VERTEX
  5
97F
  8
2
 10
706.84918043799087
 20
24.139365465871698
 30
0.0
  0
SEQEND
  5
980
  8
2
  0
POLYLINE
  5
13D
  8
2
 66
     1
 10
0.0
 20
0.0
 30
0.0
 70
     1
  0
VERTEX
  5
981
  8
2
 10
704.64918043799071
 20
44.139365465871577
 30
0.0
  0
VERTEX
  5
982
  8
2
 10
704.64918043799071
 20
54.339365465871602
 30
0.0
  0
VERTEX
  5
983
  8
2
 10
706.84918043799075
 20
54.339365465871602
 30
0.0
  0
VERTEX
  5
984
  8
2
 10
706.84918043799087
 20
44.139365465871577
 30
0.0
  0
SEQEND
  5
985
  8
2
  0
POLYLINE
  5
13E
  8
2
 66
     1
 10
0.0
 20
0.0
 30
0.0
 70
     1
  0
VERTEX
  5
986
  8
2
 10
682.64918043799071
 20
24.139365465871791
 30
0.0
  0
VERTEX
  5
987
  8
2
 10
682.64918043799071
 20
34.339365465871637
 30
0.0
  0
VERTEX
  5
988
  8
2
 10
684.84918043799075
 20
34.339365465871637
 30
0.0
  0
VERTEX
  5
989
  8
2
 10
684.84918043799075
 20
24.139365465871791
 30
0.0
  0
SEQEND
  5
98A
  8
2
  0
POLYLINE
  5
13F
  8
2
 66
     1
 10
0.0
 20
0.0
 30
0.0
 70
     1
  0
VERTEX
  5
98B
  8
2
 10
682.64918043799071
 20
44.139365465871577
 30
0.0
  0
VERTEX
  5
98C
  8
2
 10
682.64918043799071
 20
54.339365465871602
 30
0.0
  0
VERTEX
  5
98D
  8
2
 10
684.84918043799075
 20
54.339365465871602
 30
0.0
  0
VERTEX
  5
98E
  8
2
 10
684.84918043799075
 20
44.139365465871577
 30
0.0
  0
SEQEND
  5
98F
  8
2
  0
POLYLINE
  5
140
  8
2
 66
     1
 10
0.0
 20
0.0
 30
0.0
 70
     1
  0
VERTEX
  5
990
  8
2
 10
739.84918043799075
 20
79.139365465871563
 30
0.0
  0
VERTEX
  5
991
  8
2
 10
729.64918043799082
 20
79.139365465871563
 30
0.0
  0
VERTEX
  5
992
  8
2
 10
729.64918043799082
 20
81.339365465871595
 30
0.0
  0
VERTEX
  5
993
  8
2
 10
739.84918043799075
 20
81.339365465871595
 30
0.0
  0
SEQEND
  5
994
  8
2
  0
POLYLINE
  5
141
  8
2
 66
     1
 10
0.0
 20
0.0
 30
0.0
 70
     1
  0
VERTEX
  5
995
  8
2
 10
719.84918043799087
 20
79.139365465871663
 30
0.0
  0
VERTEX
  5
996
  8
2
 10
709.64918043799071
 20
79.139365465871563
 30
0.0
  0
VERTEX
  5
997
  8
2
 10
709.64918043799071
 20
81.339365465871595
 30
0.0
  0
VERTEX
  5
998
  8
2
 10
719.84918043799087
 20
81.339365465871595
 30
0.0
  0
SEQEND
  5
999
  8
2
  0
POLYLINE
  5
142
  8
2
 66
     1
 10
0.0
 20
0.0
 30
0.0
 70
     1
  0
VERTEX
  5
99A
  8
2
 10
739.84918043799075
 20
57.139365465871499
 30
0.0
  0
VERTEX
  5
99B
  8
2
 10
729.64918043799082
 20
57.139365465871499
 30
0.0
  0
VERTEX
  5
99C
  8
2
 10
729.64918043799082
 20
59.339365465871552
 30
0.0
  0
VERTEX
  5
99D
  8
2
 10
739.84918043799075
 20
59.339365465871552
 30
0.0
  0
SEQEND
  5
99E
  8
2
  0
POLYLINE
  5
143
  8
2
 66
     1
 10
0.0
 20
0.0
 30
0.0
 70
     1
  0
VERTEX
  5
99F
  8
2
 10
719.84918043799087
 20
57.139365465871499
 30
0.0
  0
VERTEX
  5
9A0
  8
2
 10
709.64918043799071
 20
57.139365465871499
 30
0.0
  0
VERTEX
  5
9A1
  8
2
 10
709.64918043799071
 20
59.339365465871552
 30
0.0
  0
VERTEX
  5
9A2
  8
2
 10
719.84918043799087
 20
59.339365465871552
 30
0.0
  0
SEQEND
  5
9A3
  8
2
  0
CIRCLE
  5
144
  8
2
 10
694.74918043799073
 20
69.261563051453891
 30
0.0
 40
14.142135623730971
  0
POLYLINE
  5
146
  8
3
 66
     1
 10
0.0
 20
0.0
 30
0.0
 70
     1
  0
VERTEX
  5
9A4
  8
3
 10
1015.0
 20
112.0
 30
0.0
  0
VERTEX
  5
9A5
  8
3
 10
1164.9999999999991
 20
112.0
 30
0.0
  0
VERTEX
  5
9A6
  8
3
 10
1164.9999999999991
 20
22.0
 30
0.0
  0
VERTEX
  5
9A7
  8
3
 10
1015.0
 20
22.0
 30
0.0
  0
SEQEND
  5
9A8
  8
3
  0
LINE
  5
147
  8
3
 10
1015.0
 20
92.0
 30
0.0
 11
1164.9999999999991
 21
92.0
 31
0.0
  0
LINE
  5
148
  8
3
 10
1015.0
 20
32.999999999999979
 30
0.0
 11
1164.9999999999991
 21
32.999999999999979
 31
0.0
  0
TEXT
  5
14A
  8
3
 10
1017.952539416415
 20
25.00760793035132
 30
0.0
 40
4.9999999999999991
  1
Masstab: 1:1
 41
0.9677419354838708
  7
ISOCP
  0
TEXT
  5
14B
  8
3
 10
1068.791799062966
 20
24.623147639207119
 30
0.0
 40
4.9999999999999991
  1
Stand: 5.1.2011    Version7K-4
 41
0.9677419354838708
  7
ISOCP
  0
LINE
  5
14C
  8
3
 10
1064.9999999999991
 20
32.999999999999979
 30
0.0
 11
1064.9999999999991
 21
22.0
 31
0.0
  0
LINE
  5
14D
  8
3
 10
1134.9999999999991
 20
112.0
 30
0.0
 11
1134.9999999999991
 21
92.0
 31
0.0
  0
INSERT
  5
14E
  8
0
  2
*U1
 10
0.0
 20
0.0
 30
0.0
  0
TEXT
  5
14F
  8
3
 10
1020.600996617657
 20
82.014550450748558
 30
0.0
 40
4.9999999999999991
  1
Design by Wolfram Herzog 
 41
0.9677419354838708
  7
ISOCP
  0
TEXT
  5
150
  8
3
 10
1020.600996617657
 20
74.514550450748573
 30
0.0
 40
4.9999999999999991
  1
Passgenau für 2mm Birken-Sperrholz
 41
0.9677419354838708
  7
ISOCP
  0
TEXT
  5
151
  8
3
 10
1020.600996617657
 20
67.014550450748573
 30
0.0
 40
4.9999999999999991
  1

 41
0.9677419354838708
  7
ISOCP
  0
TEXT
  5
152
  8
3
 10
1020.600996617657
 20
59.514550450748587
 30
0.0
 40
4.9999999999999991
  1
Keine Kommerzielle Nutzung erlaubt!
 41
0.9677419354838708
  7
ISOCP
  0
TEXT
  5
153
  8
3
 10
1020.600996617657
 20
52.014550450748587
 30
0.0
 40
4.9999999999999991
  1
No commercial use allowed!
 41
0.9677419354838708
  7
ISOCP
  0
TEXT
  5
154
  8
3
 10
1020.649802740248
 20
37.872809937914511
 30
0.0
 40
4.9999999999999991
  1
www.flugwiese.de
 41
0.9677419354838708
  7
ISOCP
  0
LINE
  5
156
  8
1
 10
31.92937375190461
 20
225.4827026233277
 30
0.000000254
 11
31.92937375190461
 21
235.4827026233277
 31
0.000000254
  0
ARC
  5
157
  8
2
 10
20.92937375190446
 20
163.4827027185776
 30
0.000000254
 40
3.0
 50
90.0
 51
180.0
  0
POLYLINE
  5
158
  8
2
 66
     1
 10
0.0
 20
0.0
 30
0.0
 70
     1
  0
VERTEX
  5
9AD
  8
2
 10
11.82937375190453
 20
85.382702718577804
 30
0.0
  0
VERTEX
  5
9AE
  8
2
 10
11.82937375190453
 20
95.582702718577735
 30
0.0
  0
VERTEX
  5
9AF
  8
2
 10
14.02937375190457
 20
95.582702718577735
 30
0.0
  0
VERTEX
  5
9B0
  8
2
 10
14.02937375190457
 20
85.382702718577804
 30
0.0
  0
SEQEND
  5
9B1
  8
2
  0
POLYLINE
  5
159
  8
2
 66
     1
 10
0.0
 20
0.0
 30
0.0
 70
     1
  0
VERTEX
  5
9B2
  8
2
 10
11.82937375190453
 20
125.3827027185778
 30
0.0
  0
VERTEX
  5
9B3
  8
2
 10
11.82937375190453
 20
135.58270271857771
 30
0.0
  0
VERTEX
  5
9B4
  8
2
 10
14.02937375190457
 20
135.58270271857771
 30
0.0
  0
VERTEX
  5
9B5
  8
2
 10
14.02937375190457
 20
125.3827027185778
 30
0.0
  0
SEQEND
  5
9B6
  8
2
  0
POLYLINE
  5
15A
  8
2
 66
     1
 10
0.0
 20
0.0
 30
0.0
 70
     1
  0
VERTEX
  5
9B7
  8
2
 10
11.82937375190453
 20
170.38270271857769
 30
0.0
  0
VERTEX
  5
9B8
  8
2
 10
11.82937375190453
 20
180.58270271857779
 30
0.0
  0
VERTEX
  5
9B9
  8
2
 10
14.02937375190457
 20
180.58270271857779
 30
0.0
  0
VERTEX
  5
9BA
  8
2
 10
14.02937375190457
 20
170.38270271857769
 30
0.0
  0
SEQEND
  5
9BB
  8
2
  0
POLYLINE
  5
15B
  8
2
 66
     1
 10
0.0
 20
0.0
 30
0.0
 70
     1
  0
VERTEX
  5
9BC
  8
2
 10
11.82937375190453
 20
205.38270271857769
 30
0.0
  0
VERTEX
  5
9BD
  8
2
 10
11.82937375190453
 20
210.58270271857771
 30
0.0
  0
VERTEX
  5
9BE
  8
2
 10
14.02937375190457
 20
210.58270271857771
 30
0.0
  0
VERTEX
  5
9BF
  8
2
 10
14.02937375190457
 20
205.38270271857769
 30
0.0
  0
SEQEND
  5
9C0
  8
2
  0
POLYLINE
  5
15C
  8
2
 66
     1
 10
0.0
 20
0.0
 30
0.0
 70
     1
  0
VERTEX
  5
9C1
  8
2
 10
11.82937375190448
 20
23.3827027185778
 30
0.0
  0
VERTEX
  5
9C2
  8
2
 10
11.82937375190448
 20
28.582702718577789
 30
0.0
  0
VERTEX
  5
9C3
  8
2
 10
14.029373751904529
 20
28.582702718577789
 30
0.0
  0
VERTEX
  5
9C4
  8
2
 10
14.029373751904529
 20
23.3827027185778
 30
0.0
  0
SEQEND
  5
9C5
  8
2
  0
ARC
  5
15D
  8
1
  6
CONTINUOUS
 62
     7
 10
9.9321043728093485
 20
40.48270297257784
 30
0.000000254
 40
20.0
 50
270.0
 51
352.17193299328801
  0
POLYLINE
  5
15E
  8
1
  6
CONTINUOUS
 62
     7
 66
     1
 10
0.0
 20
0.0
 30
0.0
  0
VERTEX
  5
9C6
  8
1
  6
CONTINUOUS
 62
     7
 10
39.238767353905963
 20
128.85552648600881
 30
0.0
  0
VERTEX
  5
9C7
  8
1
  6
CONTINUOUS
 62
     7
 10
29.745729167686999
 20
37.758685261950887
 30
0.0
  0
SEQEND
  5
9C8
  8
1
  6
CONTINUOUS
 62
     7
  0
LINE
  5
15F
  8
1
  6
CONTINUOUS
 62
     7
 10
29.932104626809409
 20
225.4827026233277
 30
0.000000254
 11
29.932104626809409
 21
215.48270262332761
 31
0.000000254
  0
LINE
  5
160
  8
1
 62
     7
 10
29.929373497904479
 20
199.50490043115991
 30
0.000000254
 11
29.929373497904582
 21
205.4827027185778
 31
0.000000254
  0
LINE
  5
161
  8
1
 62
     7
 10
11.928008060452029
 20
31.482702845577819
 30
0.000000254
 11
11.92937349790466
 21
80.482702845577847
 31
0.000000254
  0
LINE
  5
162
  8
1
 62
     7
 10
11.928008060452029
 20
31.482702845577819
 30
0.000000254
 11
9.9307389353567643
 21
31.482702845577851
 31
0.000000254
  0
LINE
  5
163
  8
1
 62
     7
 10
11.92937349790466
 20
80.482702845577847
 30
0.000000254
 11
9.9321043728093912
 21
80.482702845577847
 31
0.000000254
  0
LINE
  5
164
  8
1
 10
29.929373751904599
 20
205.4827026233277
 30
0.000000254
 11
31.92937375190461
 21
205.4827026233277
 31
0.000000254
  0
LINE
  5
165
  8
1
 10
31.92937375190461
 20
205.4827026233277
 30
0.000000254
 11
31.92937375190461
 21
215.4827026233277
 31
0.000000254
  0
LINE
  5
166
  8
1
 10
31.92937375190461
 20
215.4827026233277
 30
0.000000254
 11
29.932104626809409
 21
215.4827026233277
 31
0.000000254
  0
LINE
  5
167
  8
1
 10
29.932104626809409
 20
225.4827026233277
 30
0.000000254
 11
31.92937375190461
 21
225.4827026233277
 31
0.000000254
  0
LINE
  5
168
  8
1
 10
9.9293737519046061
 20
205.4827026233277
 30
0.000000254
 11
7.9293737519045209
 21
205.4827026233277
 31
0.000000254
  0
LINE
  5
169
  8
1
 10
7.9293737519045209
 20
205.4827026233277
 30
0.000000254
 11
7.9293737519045209
 21
215.4827026233277
 31
0.000000254
  0
LINE
  5
16A
  8
1
 10
7.9293737519045209
 20
215.4827026233277
 30
0.000000254
 11
9.9293737519046061
 21
215.4827026233277
 31
0.000000254
  0
LINE
  5
16B
  8
1
 10
9.9293737519046061
 20
215.4827026233277
 30
0.000000254
 11
9.9293737519046061
 21
225.4827026233277
 31
0.000000254
  0
LINE
  5
16C
  8
1
 10
9.9293737519046061
 20
225.4827026233277
 30
0.000000254
 11
7.9293737519045209
 21
225.4827026233277
 31
0.000000254
  0
LINE
  5
16D
  8
1
 10
7.9293737519045209
 20
225.4827026233277
 30
0.000000254
 11
7.9293737519045209
 21
235.4827026233277
 31
0.000000254
  0
LINE
  5
16E
  8
1
 10
9.9321043728093485
 20
20.48270297257783
 30
0.000000254
 11
9.9307389353567643
 21
31.482702845577851
 31
0.000000254
  0
LINE
  5
16F
  8
1
 10
46.311430005993181
 20
137.3973197980045
 30
0.000000254
 11
102.60905022022079
 21
153.05593023977599
 31
0.000000254
  0
LINE
  5
170
  8
1
 10
39.264183392666773
 20
189.52704885259371
 30
0.000000254
 11
100.59456360314221
 21
185.4383568385619
 31
0.000000254
  0
ARC
  5
171
  8
1
  6
CONTINUOUS
 62
     7
 10
49.18490886165678
 20
127.81905694579299
 30
0.000000254
 40
9.9999999999999982
 50
106.6992442339938
 51
174.05078260603949
  0
LINE
  5
172
  8
1
 10
109.92937349790451
 20
162.69020928202289
 30
0.000000254
 11
109.92937349790451
 21
175.46050525999581
 31
0.000000254
  0
ARC
  5
173
  8
1
 10
39.929373497904471
 20
199.5049004311598
 30
0.000000254
 40
9.9999999999999982
 50
180.00000000000011
 51
266.18592516570982
  0
ARC
  5
174
  8
1
 10
99.929373497904564
 20
162.69020928202289
 30
0.000000254
 40
9.9999999999999982
 50
285.5433672280314
 51
0.0000000000000799
  0
ARC
  5
175
  8
1
 10
99.929373497904564
 20
175.46050525999581
 30
0.000000254
 40
9.9999999999999982
 50
0.0000000000000509
 51
86.185925165709577
  0
LINE
  5
176
  8
2
 10
20.929373497904528
 20
65.482702845577833
 30
0.000000254
 11
22.739734048656079
 21
65.482702845577833
 31
0.000000254
  0
LINE
  5
177
  8
2
 10
23.886406997194481
 20
70.482702845577862
 30
0.000000254
 11
20.929373497904528
 21
70.482702845577862
 31
0.000000254
  0
LINE
  5
178
  8
2
 10
20.929373497904528
 20
95.482702845577847
 30
0.000000254
 11
25.867023908306241
 21
95.482702845577847
 31
0.000000254
  0
LINE
  5
179
  8
2
 10
20.929373497904528
 20
100.4827028455778
 30
0.000000254
 11
27.01369685684455
 21
100.4827028455778
 31
0.000000254
  0
LINE
  5
17A
  8
2
 10
17.929373497904528
 20
43.61101177043836
 30
0.000000254
 11
17.929373497904582
 21
62.482702845577869
 31
0.000000254
  0
LINE
  5
17B
  8
2
 10
23.755636087846391
 20
43.293367240069593
 30
0.000000254
 11
25.723565797329901
 21
62.171659286560171
 31
0.000000254
  0
LINE
  5
17C
  8
2
 10
17.929373497904489
 20
103.4827028455778
 30
0.000000254
 11
17.929373497904489
 21
132.48270271857771
 31
0.000000254
  0
LINE
  5
17D
  8
2
 10
17.929373497904582
 20
73.482702845577819
 30
0.000000254
 11
17.929373497904582
 21
92.482702845577791
 31
0.000000254
  0
LINE
  5
17E
  8
2
 10
26.870238745868299
 20
73.1716592865602
 30
0.000000254
 11
28.85085565697997
 21
92.171659286560214
 31
0.000000254
  0
ARC
  5
17F
  8
2
 10
20.929373497904528
 20
62.482702845577869
 30
0.000000254
 40
3.0
 50
90.0
 51
180.0
  0
ARC
  5
180
  8
2
 10
20.929373497904528
 20
73.482702845577819
 30
0.000000254
 40
3.0
 50
180.0
 51
270.0
  0
ARC
  5
181
  8
2
 10
22.739734048656079
 20
62.482702845577869
 30
0.000000254
 40
3.0
 50
354.04881061434833
 51
90.000000000000881
  0
ARC
  5
182
  8
2
 10
20.771804339172661
 20
43.604410799087248
 30
0.000000254
 40
3.0
 50
273.15188160280297
 51
354.04881061434838
  0
ARC
  5
183
  8
2
 10
20.929373497904489
 20
43.61101177043836
 30
0.000000254
 40
3.0
 50
180.0
 51
271.64584385605821
  0
ARC
  5
184
  8
2
 10
23.886406997194481
 20
73.482702845577819
 30
0.000000254
 40
3.0
 50
270.0
 51
354.04881061434833
  0
ARC
  5
185
  8
2
 10
25.867023908306241
 20
92.482702845577791
 30
0.000000254
 40
3.0
 50
354.04881061434838
 51
90.0
  0
ARC
  5
186
  8
2
 10
20.929373497904528
 20
92.482702845577791
 30
0.000000254
 40
3.0
 50
90.0
 51
180.0
  0
ARC
  5
187
  8
2
 10
20.929373497904528
 20
103.4827028455778
 30
0.000000254
 40
3.0
 50
180.0
 51
270.00000000000171
  0
ARC
  5
188
  8
2
 10
27.01369685684455
 20
103.4827028455778
 30
0.000000254
 40
3.0
 50
270.0
 51
354.04881061434821
  0
ARC
  5
189
  8
2
 10
21.101702161744559
 20
37.613487045052139
 30
0.000000254
 40
3.0
 50
91.645843856058718
 51
93.151881602803073
  0
POLYLINE
  5
18A
  8
2
 66
     1
 10
0.0
 20
0.0
 30
0.0
 70
     1
  0
VERTEX
  5
9C9
  8
2
 10
97.817016319791051
 20
158.2827028455776
 30
0.0
  0
VERTEX
  5
9CA
  8
2
 10
97.817016319791051
 20
163.68489330203909
 30
0.0
  0
VERTEX
  5
9CB
  8
2
 10
100.1293737519045
 20
163.68489330203909
 30
0.0
  0
VERTEX
  5
9CC
  8
2
 10
100.1293737519045
 20
158.2827028455776
 30
0.0
  0
SEQEND
  5
9CD
  8
2
  0
POLYLINE
  5
18B
  8
2
 66
     1
 10
0.0
 20
0.0
 30
0.0
 70
     1
  0
VERTEX
  5
9CE
  8
2
 10
97.817016319791051
 20
174.28270284557749
 30
0.0
  0
VERTEX
  5
9CF
  8
2
 10
97.817016319791051
 20
179.68489330203909
 30
0.0
  0
VERTEX
  5
9D0
  8
2
 10
100.1293737519045
 20
179.68489330203909
 30
0.0
  0
VERTEX
  5
9D1
  8
2
 10
100.1293737519045
 20
174.28270284557749
 30
0.0
  0
SEQEND
  5
9D2
  8
2
  0
POLYLINE
  5
18C
  8
2
 66
     1
 10
0.0
 20
0.0
 30
0.0
 70
     1
  0
VERTEX
  5
9D3
  8
2
 10
48.817016319791058
 20
145.2827028455776
 30
0.0
  0
VERTEX
  5
9D4
  8
2
 10
48.817016319791058
 20
150.6827028455775
 30
0.0
  0
VERTEX
  5
9D5
  8
2
 10
51.129373751904652
 20
150.6827028455775
 30
0.0
  0
VERTEX
  5
9D6
  8
2
 10
51.129373751904652
 20
145.2827028455776
 30
0.0
  0
SEQEND
  5
9D7
  8
2
  0
POLYLINE
  5
18D
  8
2
 66
     1
 10
0.0
 20
0.0
 30
0.0
 70
     1
  0
VERTEX
  5
9D8
  8
2
 10
48.817016319791058
 20
175.28270284557749
 30
0.0
  0
VERTEX
  5
9D9
  8
2
 10
48.817016319791058
 20
180.684893302039
 30
0.0
  0
VERTEX
  5
9DA
  8
2
 10
51.129373751904652
 20
180.684893302039
 30
0.0
  0
VERTEX
  5
9DB
  8
2
 10
51.129373751904652
 20
175.28270284557749
 30
0.0
  0
SEQEND
  5
9DC
  8
2
  0
LINE
  5
18E
  8
2
 10
33.304293303720542
 20
140.4827027185778
 30
0.000000254
 11
20.92937375190446
 21
140.4827027185778
 31
0.000000254
  0
LINE
  5
18F
  8
2
 10
17.92937375190451
 20
174.4827027185778
 30
0.000000254
 11
17.92937375190451
 21
181.0666467543233
 31
0.000000254
  0
LINE
  5
190
  8
2
 10
17.92937375190451
 20
143.48270271857771
 30
0.000000254
 11
17.92937375190451
 21
163.4827027185776
 31
0.000000254
  0
LINE
  5
191
  8
2
 10
44.92937375190462
 20
174.48270271857771
 30
0.000000254
 11
44.92937375190462
 21
179.63482857250511
 31
0.000000254
  0
LINE
  5
192
  8
2
 10
44.92937375190462
 20
145.93493147345359
 30
0.000000254
 11
44.92937375190462
 21
163.4827027185776
 31
0.000000254
  0
LINE
  5
193
  8
2
 10
54.9293737519045
 20
174.48270271857771
 30
0.000000254
 11
54.9293737519045
 21
178.54391948159591
 31
0.000000254
  0
LINE
  5
194
  8
2
 10
54.9293737519045
 20
150.48395108129679
 30
0.000000254
 11
54.9293737519045
 21
163.4827027185776
 31
0.000000254
  0
LINE
  5
195
  8
2
 10
74.929373751904564
 20
174.48270271857771
 30
0.000000254
 11
74.929373751904564
 21
177.5893740270505
 31
0.000000254
  0
LINE
  5
196
  8
2
 10
74.929373751904564
 20
154.4643432381595
 30
0.000000254
 11
74.929373751904564
 21
163.4827027185776
 31
0.000000254
  0
LINE
  5
197
  8
2
 10
79.929373751904606
 20
174.48270271857771
 30
0.000000254
 11
79.929373751904606
 21
176.83937402705061
 31
0.000000254
  0
LINE
  5
198
  8
2
 10
79.929373751904606
 20
157.5917942185516
 30
0.000000254
 11
79.929373751904606
 21
163.4827027185776
 31
0.000000254
  0
LINE
  5
199
  8
2
 10
94.929373751904549
 20
174.48270271857771
 30
0.000000254
 11
94.929373751904549
 21
176.22573766341421
 31
0.000000254
  0
LINE
  5
19A
  8
2
 10
94.929373751904549
 20
160.15061774796331
 30
0.000000254
 11
94.929373751904549
 21
163.4827027185776
 31
0.000000254
  0
LINE
  5
19B
  8
2
 10
34.124719507092983
 20
140.59706572740581
 30
0.000000254
 11
42.749799955276927
 21
143.0492944822816
 31
0.000000254
  0
LINE
  5
19C
  8
2
 10
41.929373751904571
 20
166.48270271857771
 30
0.000000254
 11
20.92937375190446
 21
166.48270271857771
 31
0.000000254
  0
LINE
  5
19D
  8
2
 10
41.929373751904571
 20
171.48270271857771
 30
0.000000254
 11
20.92937375190446
 21
171.48270271857771
 31
0.000000254
  0
LINE
  5
19E
  8
2
 10
42.133445416316732
 20
182.6278796505496
 30
0.000000254
 11
21.133445416316611
 21
184.0596978323679
 31
0.000000254
  0
LINE
  5
19F
  8
2
 10
83.749799955276998
 20
154.70615722737969
 30
0.000000254
 11
92.749799955276941
 21
157.26498075679129
 31
0.000000254
  0
LINE
  5
1A0
  8
2
 10
58.749799955276913
 20
147.59831409012469
 30
0.000000254
 11
72.74979995527697
 21
151.57870624698751
 31
0.000000254
  0
LINE
  5
1A1
  8
2
 10
71.92937375190462
 20
166.48270271857771
 30
0.000000254
 11
57.929373751904542
 21
166.48270271857771
 31
0.000000254
  0
LINE
  5
1A2
  8
2
 10
91.929373751904578
 20
166.48270271857771
 30
0.000000254
 11
82.929373751904535
 21
166.48270271857771
 31
0.000000254
  0
LINE
  5
1A3
  8
2
 10
71.92937375190462
 20
171.48270271857771
 30
0.000000254
 11
57.929373751904542
 21
171.48270271857771
 31
0.000000254
  0
LINE
  5
1A4
  8
2
 10
91.929373751904578
 20
171.48270271857771
 30
0.000000254
 11
82.929373751904535
 21
171.48270271857771
 31
0.000000254
  0
LINE
  5
1A5
  8
2
 10
72.133445416316675
 20
180.5824251050951
 30
0.000000254
 11
58.133445416316697
 21
181.53697055964051
 31
0.000000254
  0
LINE
  5
1A6
  8
2
 10
92.133445416316647
 20
179.2187887414587
 30
0.000000254
 11
83.133445416316704
 21
179.8324251050951
 31
0.000000254
  0
ARC
  5
1A7
  8
2
 10
57.929373751904542
 20
150.48395108129679
 30
0.000000254
 40
3.0
 50
180.0
 51
285.87117861145663
  0
ARC
  5
1A8
  8
2
 10
57.929373751904542
 20
163.4827027185776
 30
0.000000254
 40
3.0
 50
90.0
 51
180.0
  0
ARC
  5
1A9
  8
2
 10
71.92937375190462
 20
154.4643432381595
 30
0.000000254
 40
3.0
 50
285.87117861145617
 51
0.0000000000000799
  0
ARC
  5
1AA
  8
2
 10
71.92937375190462
 20
163.4827027185776
 30
0.000000254
 40
3.0
 50
0.0000000000000509
 51
90.0
  0
ARC
  5
1AB
  8
2
 10
82.929373751904535
 20
157.5917942185516
 30
0.000000254
 40
3.0
 50
180.00000000000011
 51
285.8711786114568
  0
ARC
  5
1AC
  8
2
 10
82.929373751904535
 20
163.4827027185776
 30
0.000000254
 40
3.0
 50
90.000000000000881
 51
180.0
  0
ARC
  5
1AD
  8
2
 10
91.929373751904578
 20
160.15061774796331
 30
0.000000254
 40
3.0
 50
285.87117861145771
 51
0.0000000000000799
  0
ARC
  5
1AE
  8
2
 10
91.929373751904578
 20
163.4827027185776
 30
0.000000254
 40
3.0
 50
0.0000000000000509
 51
90.0
  0
ARC
  5
1AF
  8
2
 10
91.929373751904578
 20
174.48270271857771
 30
0.000000254
 40
3.0
 50
270.0
 51
0.0000000000000799
  0
ARC
  5
1B0
  8
2
 10
91.929373751904578
 20
176.22573766341421
 30
0.000000254
 40
3.0
 50
0.0000000000000509
 51
86.099506257618486
  0
ARC
  5
1B1
  8
2
 10
82.929373751904535
 20
176.83937402705061
 30
0.000000254
 40
3.0
 50
86.099506257618955
 51
180.00000000000011
  0
ARC
  5
1B2
  8
2
 10
82.929373751904535
 20
174.48270271857771
 30
0.000000254
 40
3.0
 50
180.0
 51
270.0000000000008
  0
ARC
  5
1B3
  8
2
 10
71.92937375190462
 20
174.48270271857771
 30
0.000000254
 40
3.0
 50
269.99999999999909
 51
0.0000000000000799
  0
ARC
  5
1B4
  8
2
 10
71.92937375190462
 20
177.5893740270505
 30
0.000000254
 40
3.0
 50
0.0000000000000509
 51
86.099506257618586
  0
ARC
  5
1B5
  8
2
 10
57.929373751904542
 20
178.54391948159591
 30
0.000000254
 40
3.0
 50
86.099506257617804
 51
180.0
  0
ARC
  5
1B6
  8
2
 10
57.929373751904542
 20
174.48270271857771
 30
0.000000254
 40
3.0
 50
180.0
 51
269.99999999999909
  0
ARC
  5
1B7
  8
2
 10
41.929373751904571
 20
163.4827027185776
 30
0.000000254
 40
3.0
 50
0.0000000000000509
 51
90.0
  0
ARC
  5
1B8
  8
2
 10
41.929373751904571
 20
174.48270271857771
 30
0.000000254
 40
3.0
 50
270.0
 51
0.0000000000000799
  0
ARC
  5
1B9
  8
2
 10
41.929373751904571
 20
179.63482857250511
 30
0.000000254
 40
3.0
 50
0.0000000000000509
 51
86.099506257617378
  0
ARC
  5
1BA
  8
2
 10
20.92937375190446
 20
174.4827027185778
 30
0.000000254
 40
3.0
 50
180.0
 51
270.0
  0
ARC
  5
1BB
  8
2
 10
20.92937375190446
 20
181.0666467543233
 30
0.000000254
 40
3.0
 50
86.099506257617975
 51
180.0
  0
ARC
  5
1BC
  8
2
 10
20.92937375190446
 20
143.48270271857771
 30
0.000000254
 40
3.0
 50
180.0
 51
270.0000000000008
  0
ARC
  5
1BD
  8
2
 10
33.304293303720542
 20
143.48270271857771
 30
0.000000254
 40
3.0
 50
269.9999999999992
 51
285.8711786114568
  0
LINE
  5
1BE
  8
2
 10
20.929373497904439
 20
135.48270271857771
 30
0.000000254
 11
30.170147970450731
 21
135.48270271857771
 31
0.000000254
  0
ARC
  5
1BF
  8
2
 10
30.170147970450731
 20
132.48270271857771
 30
0.000000254
 40
3.0
 50
353.78813936133929
 51
90.0
  0
ARC
  5
1C0
  8
2
 10
20.929373497904439
 20
132.48270271857771
 30
0.000000254
 40
3.0
 50
90.0
 51
180.0
  0
ARC
  5
1C1
  8
2
 10
41.929373751904571
 20
145.93493147345359
 30
0.000000254
 40
3.0
 50
285.8711786114568
 51
0.0000000000000799
  0
LINE
  5
1C2
  8
2
 10
29.997528605518269
 20
103.1716592865601
 30
0.000000254
 11
33.15253372853465
 21
132.15808726919559
 31
0.000000254
  0
LINE
  5
1C3
  8
1
  6
CONTINUOUS
 62
     7
 10
9.9321043728093912
 20
80.482702845577847
 30
0.000000254
 11
9.9293737519044232
 21
205.48270271857771
 31
0.000000254
  0
LINE
  5
1C4
  8
1
  6
CONTINUOUS
 62
     7
 10
9.9321043728093912
 20
80.482702845577847
 30
0.000000254
 11
9.9293737519044232
 21
205.48270271857771
 31
0.000000254
  0
CIRCLE
  5
1C5
  8
2
 10
20.92937375190451
 20
35.482702845577613
 30
0.000000254
 40
2.549999999999998
  0
POLYLINE
  5
1C6
  8
2
 66
     1
 10
0.0
 20
0.0
 30
0.0
 70
     1
  0
VERTEX
  5
9DD
  8
2
 10
37.323483923989933
 20
127.7788836328597
 30
0.0
  0
VERTEX
  5
9DE
  8
2
 10
36.779706949950352
 20
122.6051913200329
 30
0.0
  0
VERTEX
  5
9DF
  8
2
 10
34.589821656932919
 20
122.83535753907501
 30
0.0
  0
VERTEX
  5
9E0
  8
2
 10
35.133598630972593
 20
128.00904985190169
 30
0.0
  0
SEQEND
  5
9E1
  8
2
  0
POLYLINE
  5
1C7
  8
2
 66
     1
 10
0.0
 20
0.0
 30
0.0
 70
     1
  0
VERTEX
  5
9E2
  8
2
 10
34.710272342298722
 20
102.91583624865279
 30
0.0
  0
VERTEX
  5
9E3
  8
2
 10
34.166495368259028
 20
97.742143935826391
 30
0.0
  0
VERTEX
  5
9E4
  8
2
 10
31.976610075241599
 20
97.972310154868495
 30
0.0
  0
VERTEX
  5
9E5
  8
2
 10
32.52038704928156
 20
103.1460024676949
 30
0.0
  0
SEQEND
  5
9E6
  8
2
  0
POLYLINE
  5
1C8
  8
2
 66
     1
 10
0.0
 20
0.0
 30
0.0
 70
     1
  0
VERTEX
  5
9E7
  8
2
 10
32.097060760607398
 20
78.052788864446057
 30
0.0
  0
VERTEX
  5
9E8
  8
2
 10
31.553283786567722
 20
72.879096551619256
 30
0.0
  0
VERTEX
  5
9E9
  8
2
 10
29.363398493550211
 20
73.109262770661317
 30
0.0
  0
VERTEX
  5
9EA
  8
2
 10
29.907175467590069
 20
78.282955083488119
 30
0.0
  0
SEQEND
  5
9EB
  8
2
  0
POLYLINE
  5
1C9
  8
2
 66
     1
 10
0.0
 20
0.0
 30
0.0
 70
     1
  0
VERTEX
  5
9EC
  8
2
 10
29.48384917891596
 20
53.189741480239107
 30
0.0
  0
VERTEX
  5
9ED
  8
2
 10
28.94007220487655
 20
48.01604916741244
 30
0.0
  0
VERTEX
  5
9EE
  8
2
 10
26.75018691185894
 20
48.246215386454388
 30
0.0
  0
VERTEX
  5
9EF
  8
2
 10
27.293963885898801
 20
53.419907699281339
 30
0.0
  0
SEQEND
  5
9F0
  8
2
  0
ARC
  5
1CA
  8
1
 10
19.92937375190451
 20
240.48270284557759
 30
0.000000254
 40
7.9999999999999831
 50
218.68219124033229
 51
321.31780875966751
  0
LINE
  5
1CB
  8
1
 10
26.174371419838511
 20
235.48270243282769
 30
0.000000254
 11
31.929373751904869
 21
235.48270243282769
 31
0.000000254
  0
LINE
  5
1CC
  8
1
 10
7.9293737519045209
 20
235.48270243282769
 30
0.000000254
 11
13.684376083970511
 21
235.48270243282769
 31
0.000000254
  0
LINE
  5
1CD
  8
1
 10
139.4751645080986
 20
29.597698921077651
 30
0.000000254
 11
139.4751645080986
 21
19.597698921077569
 31
0.000000254
  0
ARC
  5
1CE
  8
2
 10
150.4751645080988
 20
91.597698825827706
 30
0.000000254
 40
3.0
 50
270.0
 51
0.0000000000000799
  0
POLYLINE
  5
1CF
  8
2
 66
     1
 10
0.0
 20
0.0
 30
0.0
 70
     1
  0
VERTEX
  5
9F1
  8
2
 10
159.5751645080986
 20
169.69769882582759
 30
0.0
  0
VERTEX
  5
9F2
  8
2
 10
159.5751645080986
 20
159.4976988258276
 30
0.0
  0
VERTEX
  5
9F3
  8
2
 10
157.37516450809861
 20
159.4976988258276
 30
0.0
  0
VERTEX
  5
9F4
  8
2
 10
157.37516450809861
 20
169.69769882582759
 30
0.0
  0
SEQEND
  5
9F5
  8
2
  0
POLYLINE
  5
1D0
  8
2
 66
     1
 10
0.0
 20
0.0
 30
0.0
 70
     1
  0
VERTEX
  5
9F6
  8
2
 10
159.5751645080986
 20
129.6976988258275
 30
0.0
  0
VERTEX
  5
9F7
  8
2
 10
159.5751645080986
 20
119.4976988258276
 30
0.0
  0
VERTEX
  5
9F8
  8
2
 10
157.37516450809861
 20
119.4976988258276
 30
0.0
  0
VERTEX
  5
9F9
  8
2
 10
157.37516450809861
 20
129.6976988258275
 30
0.0
  0
SEQEND
  5
9FA
  8
2
  0
POLYLINE
  5
1D1
  8
2
 66
     1
 10
0.0
 20
0.0
 30
0.0
 70
     1
  0
VERTEX
  5
9FB
  8
2
 10
159.5751645080986
 20
84.697698825827629
 30
0.0
  0
VERTEX
  5
9FC
  8
2
 10
159.5751645080986
 20
74.497698825827584
 30
0.0
  0
VERTEX
  5
9FD
  8
2
 10
157.37516450809861
 20
74.497698825827584
 30
0.0
  0
VERTEX
  5
9FE
  8
2
 10
157.37516450809861
 20
84.697698825827629
 30
0.0
  0
SEQEND
  5
9FF
  8
2
  0
POLYLINE
  5
1D2
  8
2
 66
     1
 10
0.0
 20
0.0
 30
0.0
 70
     1
  0
VERTEX
  5
A00
  8
2
 10
159.5751645080986
 20
49.697698825827644
 30
0.0
  0
VERTEX
  5
A01
  8
2
 10
159.5751645080986
 20
44.497698825827641
 30
0.0
  0
VERTEX
  5
A02
  8
2
 10
157.37516450809861
 20
44.497698825827641
 30
0.0
  0
VERTEX
  5
A03
  8
2
 10
157.37516450809861
 20
49.697698825827644
 30
0.0
  0
SEQEND
  5
A04
  8
2
  0
POLYLINE
  5
1D3
  8
2
 66
     1
 10
0.0
 20
0.0
 30
0.0
 70
     1
  0
VERTEX
  5
A05
  8
2
 10
159.5751645080986
 20
231.69769882582759
 30
0.0
  0
VERTEX
  5
A06
  8
2
 10
159.5751645080986
 20
226.49769882582751
 30
0.0
  0
VERTEX
  5
A07
  8
2
 10
157.37516450809869
 20
226.49769882582751
 30
0.0
  0
VERTEX
  5
A08
  8
2
 10
157.37516450809869
 20
231.69769882582759
 30
0.0
  0
SEQEND
  5
A09
  8
2
  0
ARC
  5
1D4
  8
1
  6
CONTINUOUS
 62
     7
 10
161.47243388719389
 20
214.59769857182749
 30
0.000000254
 40
20.0
 50
89.999999999999986
 51
172.17193299328801
  0
POLYLINE
  5
1D5
  8
1
  6
CONTINUOUS
 62
     7
 66
     1
 10
0.0
 20
0.0
 30
0.0
  0
VERTEX
  5
A0A
  8
1
  6
CONTINUOUS
 62
     7
 10
132.16577090609729
 20
126.22487505839651
 30
0.0
  0
VERTEX
  5
A0B
  8
1
  6
CONTINUOUS
 62
     7
 10
141.6588090923162
 20
217.3217162824545
 30
0.0
  0
SEQEND
  5
A0C
  8
1
  6
CONTINUOUS
 62
     7
  0
LINE
  5
1D6
  8
1
  6
CONTINUOUS
 62
     7
 10
141.47243363319379
 20
29.597698921077651
 30
0.000000254
 11
141.47243363319379
 21
39.597698921077722
 31
0.000000254
  0
LINE
  5
1D7
  8
1
 62
     7
 10
141.4751647620987
 20
55.575501113245487
 30
0.000000254
 11
141.47516476209859
 21
49.597698825827578
 31
0.000000254
  0
LINE
  5
1D8
  8
1
 62
     7
 10
159.47653019955121
 20
223.59769869882749
 30
0.000000254
 11
159.4751647620985
 21
174.59769869882749
 31
0.000000254
  0
LINE
  5
1D9
  8
1
 62
     7
 10
159.47653019955121
 20
223.59769869882749
 30
0.000000254
 11
161.47379932464639
 21
223.59769869882749
 31
0.000000254
  0
LINE
  5
1DA
  8
1
 62
     7
 10
159.4751647620985
 20
174.59769869882749
 30
0.000000254
 11
161.4724338871938
 21
174.59769869882749
 31
0.000000254
  0
LINE
  5
1DB
  8
1
 10
141.4751645080986
 20
49.597698921077651
 30
0.000000254
 11
139.4751645080986
 21
49.597698921077651
 31
0.000000254
  0
LINE
  5
1DC
  8
1
 10
139.4751645080986
 20
49.597698921077651
 30
0.000000254
 11
139.4751645080986
 21
39.59769892107763
 31
0.000000254
  0
LINE
  5
1DD
  8
1
 10
139.4751645080986
 20
39.59769892107763
 30
0.000000254
 11
141.47243363319379
 21
39.59769892107763
 31
0.000000254
  0
LINE
  5
1DE
  8
1
 10
141.47243363319379
 20
29.597698921077651
 30
0.000000254
 11
139.4751645080986
 21
29.597698921077651
 31
0.000000254
  0
LINE
  5
1DF
  8
1
 10
161.4751645080986
 20
49.597698921077651
 30
0.000000254
 11
163.4751645080986
 21
49.597698921077651
 31
0.000000254
  0
LINE
  5
1E0
  8
1
 10
163.4751645080986
 20
49.597698921077651
 30
0.000000254
 11
163.4751645080986
 21
39.59769892107763
 31
0.000000254
  0
LINE
  5
1E1
  8
1
 10
163.4751645080986
 20
39.59769892107763
 30
0.000000254
 11
161.4751645080986
 21
39.59769892107763
 31
0.000000254
  0
LINE
  5
1E2
  8
1
 10
161.4751645080986
 20
39.59769892107763
 30
0.000000254
 11
161.4751645080986
 21
29.597698921077651
 31
0.000000254
  0
LINE
  5
1E3
  8
1
 10
161.4751645080986
 20
29.597698921077651
 30
0.000000254
 11
163.4751645080986
 21
29.597698921077651
 31
0.000000254
  0
LINE
  5
1E4
  8
1
 10
163.4751645080986
 20
29.597698921077651
 30
0.000000254
 11
163.4751645080986
 21
19.597698921077569
 31
0.000000254
  0
LINE
  5
1E5
  8
1
 10
161.47243388719389
 20
234.59769857182749
 30
0.000000254
 11
161.47379932464639
 21
223.59769869882749
 31
0.000000254
  0
LINE
  5
1E6
  8
1
 10
125.09310825401
 20
117.6830817464008
 30
0.000000254
 11
68.795488039782441
 21
102.0244713046293
 31
0.000000254
  0
LINE
  5
1E7
  8
1
 10
132.14035486733641
 20
65.553352691811625
 30
0.000000254
 11
70.809974656861016
 21
69.642044705843475
 31
0.000000254
  0
ARC
  5
1E8
  8
1
  6
CONTINUOUS
 62
     7
 10
122.2196293983464
 20
127.2613445986124
 30
0.000000254
 40
9.9999999999999982
 50
286.6992442339938
 51
354.05078260603949
  0
LINE
  5
1E9
  8
1
 10
61.47516476209875
 20
92.390192262382513
 30
0.000000254
 11
61.47516476209875
 21
79.619896284409535
 31
0.000000254
  0
ARC
  5
1EA
  8
1
 10
131.4751647620987
 20
55.575501113245593
 30
0.000000254
 40
9.9999999999999982
 50
0.0000000000000891
 51
86.185925165709861
  0
ARC
  5
1EB
  8
1
 10
71.475164762098714
 20
92.390192262382513
 30
0.000000254
 40
9.9999999999999982
 50
105.5433672280315
 51
180.0
  0
ARC
  5
1EC
  8
1
 10
71.475164762098714
 20
79.619896284409535
 30
0.000000254
 40
9.9999999999999982
 50
180.0
 51
266.18592516570948
  0
LINE
  5
1ED
  8
2
 10
150.4751647620987
 20
189.59769869882749
 30
0.000000254
 11
148.66480421134719
 21
189.59769869882749
 31
0.000000254
  0
LINE
  5
1EE
  8
2
 10
147.51813126280879
 20
184.59769869882749
 30
0.000000254
 11
150.4751647620987
 21
184.59769869882749
 31
0.000000254
  0
LINE
  5
1EF
  8
2
 10
150.4751647620987
 20
159.59769869882749
 30
0.000000254
 11
145.53751435169701
 21
159.59769869882749
 31
0.000000254
  0
LINE
  5
1F0
  8
2
 10
150.4751647620987
 20
154.59769869882749
 30
0.000000254
 11
144.3908414031587
 21
154.59769869882749
 31
0.000000254
  0
LINE
  5
1F1
  8
2
 10
153.4751647620987
 20
211.46938977396701
 30
0.000000254
 11
153.4751647620987
 21
192.59769869882749
 31
0.000000254
  0
LINE
  5
1F2
  8
2
 10
147.6489021721568
 20
211.7870343043358
 30
0.000000254
 11
145.6809724626734
 21
192.9087422578452
 31
0.000000254
  0
LINE
  5
1F3
  8
2
 10
153.4751647620987
 20
151.59769869882749
 30
0.000000254
 11
153.4751647620987
 21
122.59769882582761
 31
0.000000254
  0
LINE
  5
1F4
  8
2
 10
153.4751647620987
 20
181.59769869882749
 30
0.000000254
 11
153.47516476209859
 21
162.59769869882749
 31
0.000000254
  0
LINE
  5
1F5
  8
2
 10
144.534299514135
 20
181.9087422578452
 30
0.000000254
 11
142.55368260302319
 21
162.9087422578452
 31
0.000000254
  0
ARC
  5
1F6
  8
2
 10
150.4751647620987
 20
192.59769869882749
 30
0.000000254
 40
3.0
 50
270.0
 51
0.0000000000000799
  0
ARC
  5
1F7
  8
2
 10
150.4751647620987
 20
181.59769869882749
 30
0.000000254
 40
3.0
 50
0.0000000000000509
 51
89.999999999999986
  0
ARC
  5
1F8
  8
2
 10
148.66480421134719
 20
192.59769869882749
 30
0.000000254
 40
3.0
 50
174.0488106143483
 51
270.0000000000008
  0
ARC
  5
1F9
  8
2
 10
150.6327339208305
 20
211.47599074531809
 30
0.000000254
 40
3.0
 50
93.151881602803044
 51
174.04881061434841
  0
ARC
  5
1FA
  8
2
 10
150.4751647620987
 20
211.46938977396701
 30
0.000000254
 40
3.0
 50
0.0000000000000382
 51
91.645843856058306
  0
ARC
  5
1FB
  8
2
 10
147.51813126280879
 20
181.59769869882749
 30
0.000000254
 40
3.0
 50
89.999999999999986
 51
174.0488106143483
  0
ARC
  5
1FC
  8
2
 10
145.53751435169701
 20
162.59769869882749
 30
0.000000254
 40
3.0
 50
174.04881061434841
 51
270.0
  0
ARC
  5
1FD
  8
2
 10
150.4751647620987
 20
162.59769869882749
 30
0.000000254
 40
3.0
 50
270.0
 51
0.0000000000000799
  0
ARC
  5
1FE
  8
2
 10
150.4751647620987
 20
151.59769869882749
 30
0.000000254
 40
3.0
 50
0.0000000000000509
 51
90.000000000001677
  0
ARC
  5
1FF
  8
2
 10
144.3908414031587
 20
151.59769869882749
 30
0.000000254
 40
3.0
 50
89.999999999999986
 51
174.0488106143481
  0
ARC
  5
200
  8
2
 10
150.30283609825861
 20
217.46691449935321
 30
0.000000254
 40
3.0
 50
271.64584385605872
 51
273.15188160280297
  0
POLYLINE
  5
201
  8
2
 66
     1
 10
0.0
 20
0.0
 30
0.0
 70
     1
  0
VERTEX
  5
A0D
  8
2
 10
73.587521940212255
 20
96.797698698827745
 30
0.0
  0
VERTEX
  5
A0E
  8
2
 10
73.587521940212255
 20
91.395508242366205
 30
0.0
  0
VERTEX
  5
A0F
  8
2
 10
71.27516450809874
 20
91.395508242366276
 30
0.0
  0
VERTEX
  5
A10
  8
2
 10
71.27516450809874
 20
96.797698698827816
 30
0.0
  0
SEQEND
  5
A11
  8
2
  0
POLYLINE
  5
202
  8
2
 66
     1
 10
0.0
 20
0.0
 30
0.0
 70
     1
  0
VERTEX
  5
A12
  8
2
 10
73.587521940212255
 20
80.797698698827787
 30
0.0
  0
VERTEX
  5
A13
  8
2
 10
73.587521940212255
 20
75.395508242366233
 30
0.0
  0
VERTEX
  5
A14
  8
2
 10
71.27516450809874
 20
75.395508242366319
 30
0.0
  0
VERTEX
  5
A15
  8
2
 10
71.27516450809874
 20
80.79769869882783
 30
0.0
  0
SEQEND
  5
A16
  8
2
  0
POLYLINE
  5
203
  8
2
 66
     1
 10
0.0
 20
0.0
 30
0.0
 70
     1
  0
VERTEX
  5
A17
  8
2
 10
122.5875219402122
 20
109.7976986988277
 30
0.0
  0
VERTEX
  5
A18
  8
2
 10
122.5875219402122
 20
104.3976986988277
 30
0.0
  0
VERTEX
  5
A19
  8
2
 10
120.2751645080986
 20
104.3976986988277
 30
0.0
  0
VERTEX
  5
A1A
  8
2
 10
120.2751645080986
 20
109.7976986988277
 30
0.0
  0
SEQEND
  5
A1B
  8
2
  0
POLYLINE
  5
204
  8
2
 66
     1
 10
0.0
 20
0.0
 30
0.0
 70
     1
  0
VERTEX
  5
A1C
  8
2
 10
122.5875219402122
 20
79.797698698827801
 30
0.0
  0
VERTEX
  5
A1D
  8
2
 10
122.5875219402121
 20
74.39550824236629
 30
0.0
  0
VERTEX
  5
A1E
  8
2
 10
120.2751645080985
 20
74.39550824236629
 30
0.0
  0
VERTEX
  5
A1F
  8
2
 10
120.2751645080986
 20
79.797698698827801
 30
0.0
  0
SEQEND
  5
A20
  8
2
  0
LINE
  5
205
  8
2
 10
138.10024495628269
 20
114.59769882582749
 30
0.000000254
 11
150.4751645080988
 21
114.59769882582749
 31
0.000000254
  0
LINE
  5
206
  8
2
 10
153.47516450809869
 20
80.597698825827564
 30
0.000000254
 11
153.4751645080986
 21
74.013754790082046
 31
0.000000254
  0
LINE
  5
207
  8
2
 10
153.47516450809869
 20
111.59769882582761
 30
0.000000254
 11
153.47516450809869
 21
91.597698825827706
 31
0.000000254
  0
LINE
  5
208
  8
2
 10
126.4751645080986
 20
80.597698825827564
 30
0.000000254
 11
126.4751645080986
 21
75.445572971900233
 31
0.000000254
  0
LINE
  5
209
  8
2
 10
126.4751645080986
 20
109.1454700709517
 30
0.000000254
 11
126.4751645080986
 21
91.597698825827706
 31
0.000000254
  0
LINE
  5
20A
  8
2
 10
116.4751645080987
 20
80.597698825827564
 30
0.000000254
 11
116.4751645080987
 21
76.536482062809412
 31
0.000000254
  0
LINE
  5
20B
  8
2
 10
116.4751645080987
 20
104.5964504631085
 30
0.000000254
 11
116.4751645080987
 21
91.597698825827706
 31
0.000000254
  0
LINE
  5
20C
  8
2
 10
96.475164508098715
 20
80.597698825827564
 30
0.000000254
 11
96.475164508098715
 21
77.491027517354837
 31
0.000000254
  0
LINE
  5
20D
  8
2
 10
96.475164508098715
 20
100.6160583062459
 30
0.000000254
 11
96.475164508098715
 21
91.597698825827706
 31
0.000000254
  0
LINE
  5
20E
  8
2
 10
91.475164508098672
 20
80.597698825827564
 30
0.000000254
 11
91.475164508098672
 21
78.241027517354766
 31
0.000000254
  0
LINE
  5
20F
  8
2
 10
91.475164508098672
 20
97.488607325853764
 30
0.000000254
 11
91.475164508098672
 21
91.597698825827706
 31
0.000000254
  0
LINE
  5
210
  8
2
 10
76.475164508098729
 20
80.597698825827564
 30
0.000000254
 11
76.475164508098729
 21
78.854663880991154
 31
0.000000254
  0
LINE
  5
211
  8
2
 10
76.475164508098729
 20
94.929783796442038
 30
0.000000254
 11
76.475164508098729
 21
91.597698825827706
 31
0.000000254
  0
LINE
  5
212
  8
2
 10
137.2798187529103
 20
114.4833358169995
 30
0.000000254
 11
128.65473830472629
 21
112.0311070621236
 31
0.000000254
  0
LINE
  5
213
  8
2
 10
129.4751645080986
 20
88.597698825827649
 30
0.000000254
 11
150.4751645080988
 21
88.597698825827649
 31
0.000000254
  0
LINE
  5
214
  8
2
 10
129.4751645080986
 20
83.597698825827578
 30
0.000000254
 11
150.4751645080988
 21
83.597698825827578
 31
0.000000254
  0
LINE
  5
215
  8
2
 10
129.2710928436864
 20
72.452521893855661
 30
0.000000254
 11
150.2710928436866
 21
71.020703712037445
 31
0.000000254
  0
LINE
  5
216
  8
2
 10
87.654738304726251
 20
100.3742443170257
 30
0.000000254
 11
78.654738304726337
 21
97.815420787614002
 31
0.000000254
  0
LINE
  5
217
  8
2
 10
112.65473830472629
 20
107.4820874542806
 30
0.000000254
 11
98.654738304726294
 21
103.5016952974178
 31
0.000000254
  0
LINE
  5
218
  8
2
 10
99.475164508098658
 20
88.597698825827649
 30
0.000000254
 11
113.4751645080987
 21
88.597698825827649
 31
0.000000254
  0
LINE
  5
219
  8
2
 10
79.4751645080987
 20
88.597698825827649
 30
0.000000254
 11
88.475164508098729
 21
88.597698825827649
 31
0.000000254
  0
LINE
  5
21A
  8
2
 10
99.475164508098658
 20
83.597698825827578
 30
0.000000254
 11
113.4751645080987
 21
83.597698825827578
 31
0.000000254
  0
LINE
  5
21B
  8
2
 10
79.4751645080987
 20
83.597698825827578
 30
0.000000254
 11
88.475164508098729
 21
83.597698825827578
 31
0.000000254
  0
LINE
  5
21C
  8
2
 10
99.271092843686617
 20
74.497976439310264
 30
0.000000254
 11
113.2710928436865
 21
73.54343098476474
 31
0.000000254
  0
LINE
  5
21D
  8
2
 10
79.271092843686631
 20
75.861612802946581
 30
0.000000254
 11
88.271092843686574
 21
75.247976439310193
 31
0.000000254
  0
ARC
  5
21E
  8
2
 10
113.4751645080987
 20
104.5964504631085
 30
0.000000254
 40
3.0
 50
0.0000000000000382
 51
105.8711786114566
  0
ARC
  5
21F
  8
2
 10
113.4751645080987
 20
91.597698825827706
 30
0.000000254
 40
3.0
 50
270.0
 51
0.0000000000000799
  0
ARC
  5
220
  8
2
 10
99.475164508098658
 20
100.6160583062459
 30
0.000000254
 40
3.0
 50
105.8711786114563
 51
180.0
  0
ARC
  5
221
  8
2
 10
99.475164508098658
 20
91.597698825827706
 30
0.000000254
 40
3.0
 50
180.0
 51
270.0
  0
ARC
  5
222
  8
2
 10
88.475164508098729
 20
97.488607325853764
 30
0.000000254
 40
3.0
 50
0.0000000000000891
 51
105.8711786114568
  0
ARC
  5
223
  8
2
 10
88.475164508098729
 20
91.597698825827706
 30
0.000000254
 40
3.0
 50
270.0000000000008
 51
0.0000000000000799
  0
ARC
  5
224
  8
2
 10
79.4751645080987
 20
94.929783796442038
 30
0.000000254
 40
3.0
 50
105.87117861145769
 51
180.0
  0
ARC
  5
225
  8
2
 10
79.4751645080987
 20
91.597698825827706
 30
0.000000254
 40
3.0
 50
180.0
 51
270.0
  0
ARC
  5
226
  8
2
 10
79.4751645080987
 20
80.597698825827564
 30
0.000000254
 40
3.0
 50
89.999999999999986
 51
180.0
  0
ARC
  5
227
  8
2
 10
79.4751645080987
 20
78.854663880991154
 30
0.000000254
 40
3.0
 50
180.0
 51
266.09950625761837
  0
ARC
  5
228
  8
2
 10
88.475164508098729
 20
78.241027517354766
 30
0.000000254
 40
3.0
 50
266.09950625761888
 51
0.0000000000000799
  0
ARC
  5
229
  8
2
 10
88.475164508098729
 20
80.597698825827564
 30
0.000000254
 40
3.0
 50
0.0000000000000509
 51
90.000000000000881
  0
ARC
  5
22A
  8
2
 10
99.475164508098658
 20
80.597698825827564
 30
0.000000254
 40
3.0
 50
89.999999999999119
 51
180.0
  0
ARC
  5
22B
  8
2
 10
99.475164508098658
 20
77.491027517354837
 30
0.000000254
 40
3.0
 50
180.0
 51
266.0995062576186
  0
ARC
  5
22C
  8
2
 10
113.4751645080987
 20
76.536482062809412
 30
0.000000254
 40
3.0
 50
266.0995062576178
 51
0.0000000000000799
  0
ARC
  5
22D
  8
2
 10
113.4751645080987
 20
80.597698825827564
 30
0.000000254
 40
3.0
 50
0.0000000000000382
 51
89.999999999999119
  0
ARC
  5
22E
  8
2
 10
129.4751645080986
 20
91.597698825827706
 30
0.000000254
 40
3.0
 50
180.0
 51
270.0
  0
ARC
  5
22F
  8
2
 10
129.4751645080986
 20
80.597698825827564
 30
0.000000254
 40
3.0
 50
89.999999999999986
 51
180.0
  0
ARC
  5
230
  8
2
 10
129.4751645080986
 20
75.445572971900233
 30
0.000000254
 40
3.0
 50
180.0
 51
266.09950625761729
  0
ARC
  5
231
  8
2
 10
150.4751645080988
 20
80.597698825827564
 30
0.000000254
 40
3.0
 50
0.0000000000000382
 51
89.999999999999986
  0
ARC
  5
232
  8
2
 10
150.47516450809869
 20
74.013754790082046
 30
0.000000254
 40
3.0
 50
266.09950625761797
 51
0.0000000000000799
  0
ARC
  5
233
  8
2
 10
150.4751645080988
 20
111.59769882582761
 30
0.000000254
 40
3.0
 50
0.0000000000000382
 51
90.000000000000881
  0
ARC
  5
234
  8
2
 10
138.10024495628269
 20
111.59769882582761
 30
0.000000254
 40
3.0
 50
89.999999999999176
 51
105.8711786114568
  0
LINE
  5
235
  8
2
 10
150.47516476209881
 20
119.59769882582761
 30
0.000000254
 11
141.23439028955249
 21
119.59769882582761
 31
0.000000254
  0
ARC
  5
236
  8
2
 10
141.23439028955249
 20
122.59769882582761
 30
0.000000254
 40
3.0
 50
173.78813936133929
 51
270.0
  0
ARC
  5
237
  8
2
 10
150.47516476209881
 20
122.59769882582761
 30
0.000000254
 40
3.0
 50
270.0
 51
0.0000000000000799
  0
ARC
  5
238
  8
2
 10
129.4751645080986
 20
109.1454700709517
 30
0.000000254
 40
3.0
 50
105.8711786114568
 51
180.0
  0
LINE
  5
239
  8
2
 10
141.40700965448499
 20
151.9087422578452
 30
0.000000254
 11
138.2520045314686
 21
122.9223142752097
 31
0.000000254
  0
LINE
  5
23A
  8
1
  6
CONTINUOUS
 62
     7
 10
161.4724338871938
 20
174.59769869882749
 30
0.000000254
 11
161.47516450809869
 21
49.597698825827678
 31
0.000000254
  0
LINE
  5
23B
  8
1
  6
CONTINUOUS
 62
     7
 10
161.4724338871938
 20
174.59769869882749
 30
0.000000254
 11
161.47516450809869
 21
49.597698825827678
 31
0.000000254
  0
CIRCLE
  5
23C
  8
2
 10
150.47516450809869
 20
219.59769869882771
 30
0.000000254
 40
2.549999999999998
  0
POLYLINE
  5
23D
  8
2
 66
     1
 10
0.0
 20
0.0
 30
0.0
 70
     1
  0
VERTEX
  5
A21
  8
2
 10
134.0810543360133
 20
127.3015179115456
 30
0.0
  0
VERTEX
  5
A22
  8
2
 10
134.62483131005291
 20
132.4752102243724
 30
0.0
  0
VERTEX
  5
A23
  8
2
 10
136.81471660307031
 20
132.2450440053303
 30
0.0
  0
VERTEX
  5
A24
  8
2
 10
136.27093962903061
 20
127.0713516925036
 30
0.0
  0
SEQEND
  5
A25
  8
2
  0
POLYLINE
  5
23E
  8
2
 66
     1
 10
0.0
 20
0.0
 30
0.0
 70
     1
  0
VERTEX
  5
A26
  8
2
 10
136.69426591770451
 20
152.16456529575251
 30
0.0
  0
VERTEX
  5
A27
  8
2
 10
137.23804289174419
 20
157.338257608579
 30
0.0
  0
VERTEX
  5
A28
  8
2
 10
139.42792818476161
 20
157.1080913895369
 30
0.0
  0
VERTEX
  5
A29
  8
2
 10
138.88415121072171
 20
151.93439907671041
 30
0.0
  0
SEQEND
  5
A2A
  8
2
  0
POLYLINE
  5
23F
  8
2
 66
     1
 10
0.0
 20
0.0
 30
0.0
 70
     1
  0
VERTEX
  5
A2B
  8
2
 10
139.30747749939579
 20
177.0276126799593
 30
0.0
  0
VERTEX
  5
A2C
  8
2
 10
139.8512544734356
 20
182.20130499278611
 30
0.0
  0
VERTEX
  5
A2D
  8
2
 10
142.04113976645311
 20
181.971138773744
 30
0.0
  0
VERTEX
  5
A2E
  8
2
 10
141.49736279241321
 20
176.7974464609172
 30
0.0
  0
SEQEND
  5
A2F
  8
2
  0
POLYLINE
  5
240
  8
2
 66
     1
 10
0.0
 20
0.0
 30
0.0
 70
     1
  0
VERTEX
  5
A30
  8
2
 10
141.92068908108729
 20
201.89066006416621
 30
0.0
  0
VERTEX
  5
A31
  8
2
 10
142.46446605512659
 20
207.0643523769929
 30
0.0
  0
VERTEX
  5
A32
  8
2
 10
144.6543513481443
 20
206.83418615795091
 30
0.0
  0
VERTEX
  5
A33
  8
2
 10
144.1105743741044
 20
201.66049384512399
 30
0.0
  0
SEQEND
  5
A34
  8
2
  0
ARC
  5
241
  8
1
 10
151.47516450809869
 20
14.59769869882776
 30
0.000000254
 40
7.9999999999999831
 50
38.682191240332379
 51
141.31780875966751
  0
LINE
  5
242
  8
1
 10
145.23016684016471
 20
19.597699111577629
 30
0.000000254
 11
139.47516450809829
 21
19.597699111577629
 31
0.000000254
  0
LINE
  5
243
  8
1
 10
163.4751645080986
 20
19.597699111577629
 30
0.000000254
 11
157.7201621760326
 21
19.597699111577629
 31
0.000000254
  0
LINE
  5
244
  8
1
 10
41.211025462356659
 20
56.238656781682472
 30
0.0
 11
46.211025462356687
 21
56.238656781682472
 31
0.0
  0
LINE
  5
245
  8
1
 10
46.211025462356687
 20
56.238656781682472
 30
0.0
 11
46.211025462356687
 21
54.238656781682472
 31
0.0
  0
LINE
  5
246
  8
1
 10
46.211025462356687
 20
54.238656781682472
 30
0.0
 11
66.211025462356659
 21
54.238656781682472
 31
0.0
  0
LINE
  5
247
  8
1
 10
66.211025462356659
 20
54.238656781682472
 30
0.0
 11
66.211025462356659
 21
56.238656781682472
 31
0.0
  0
LINE
  5
248
  8
1
 10
66.211025462356659
 20
56.238656781682472
 30
0.0
 11
71.211025462356673
 21
56.238656781682472
 31
0.0
  0
LINE
  5
249
  8
1
 10
71.211025462356673
 20
56.238656781682472
 30
0.0
 11
71.211025462356673
 21
54.238656781682472
 31
0.0
  0
LINE
  5
24A
  8
1
 10
71.211025462356673
 20
54.238656781682472
 30
0.0
 11
91.211025462356645
 21
54.238656781682472
 31
0.0
  0
LINE
  5
24B
  8
1
 10
91.211025462356645
 20
54.238656781682472
 30
0.0
 11
91.211025462356645
 21
56.238656781682472
 31
0.0
  0
LINE
  5
24C
  8
1
 10
91.211025462356645
 20
56.238656781682472
 30
0.0
 11
96.211025462356673
 21
56.238656781682472
 31
0.0
  0
LINE
  5
24D
  8
1
 10
96.211025462356673
 20
56.238656781682472
 30
0.0
 11
96.211025462356673
 21
54.238656781682472
 31
0.0
  0
LINE
  5
24E
  8
1
 10
96.211025462356673
 20
54.238656781682472
 30
0.0
 11
116.2110254623566
 21
54.238656781682472
 31
0.0
  0
LINE
  5
24F
  8
1
 10
116.2110254623566
 20
54.238656781682472
 30
0.0
 11
116.2110254623566
 21
56.238656781682472
 31
0.0
  0
LINE
  5
250
  8
1
 10
116.2110254623566
 20
56.238656781682472
 30
0.0
 11
121.2110254623566
 21
56.238656781682472
 31
0.0
  0
LINE
  5
251
  8
1
 10
121.2110254623566
 20
56.238656781682472
 30
0.0
 11
121.2110254623566
 21
54.238656781682472
 31
0.0
  0
LINE
  5
252
  8
1
 10
121.2110254623566
 20
54.238656781682472
 30
0.0
 11
126.2110254623566
 21
54.238656781682472
 31
0.0
  0
LINE
  5
253
  8
1
 10
126.2110254623566
 20
54.238656781682472
 30
0.0
 11
126.2110254623566
 21
34.238656781682408
 31
0.0
  0
LINE
  5
254
  8
1
 10
126.2110254623566
 20
34.238656781682408
 30
0.0
 11
121.2110254623566
 21
34.238656781682408
 31
0.0
  0
LINE
  5
255
  8
1
 10
121.2110254623566
 20
34.238656781682408
 30
0.0
 11
121.2110254623566
 21
32.238656781682423
 31
0.0
  0
LINE
  5
256
  8
1
 10
121.2110254623566
 20
32.238656781682423
 30
0.0
 11
116.2110254623566
 21
32.238656781682423
 31
0.0
  0
LINE
  5
257
  8
1
 10
116.2110254623566
 20
32.238656781682423
 30
0.0
 11
116.2110254623566
 21
34.238656781682408
 31
0.0
  0
LINE
  5
258
  8
1
 10
116.2110254623566
 20
34.238656781682408
 30
0.0
 11
96.211025462356673
 21
34.238656781682408
 31
0.0
  0
LINE
  5
259
  8
1
 10
96.211025462356673
 20
34.238656781682408
 30
0.0
 11
96.211025462356673
 21
32.238656781682423
 31
0.0
  0
LINE
  5
25A
  8
1
 10
96.211025462356673
 20
32.238656781682423
 30
0.0
 11
91.211025462356645
 21
32.238656781682423
 31
0.0
  0
LINE
  5
25B
  8
1
 10
91.211025462356645
 20
32.238656781682423
 30
0.0
 11
91.211025462356645
 21
34.238656781682408
 31
0.0
  0
LINE
  5
25C
  8
1
 10
91.211025462356645
 20
34.238656781682408
 30
0.0
 11
71.211025462356673
 21
34.238656781682408
 31
0.0
  0
LINE
  5
25D
  8
1
 10
71.211025462356673
 20
34.238656781682408
 30
0.0
 11
71.211025462356673
 21
32.238656781682423
 31
0.0
  0
LINE
  5
25E
  8
1
 10
71.211025462356673
 20
32.238656781682423
 30
0.0
 11
66.211025462356659
 21
32.238656781682423
 31
0.0
  0
LINE
  5
25F
  8
1
 10
66.211025462356659
 20
32.238656781682423
 30
0.0
 11
66.211025462356659
 21
34.238656781682408
 31
0.0
  0
LINE
  5
260
  8
1
 10
66.211025462356659
 20
34.238656781682408
 30
0.0
 11
46.211025462356687
 21
34.238656781682408
 31
0.0
  0
LINE
  5
261
  8
1
 10
46.211025462356687
 20
34.238656781682408
 30
0.0
 11
46.211025462356687
 21
32.238656781682423
 31
0.0
  0
LINE
  5
262
  8
1
 10
46.211025462356687
 20
32.238656781682423
 30
0.0
 11
41.211025462356659
 21
32.238656781682423
 31
0.0
  0
LINE
  5
263
  8
1
 10
41.211025462356673
 20
32.238656781682423
 30
0.0
 11
41.211025462356673
 21
56.238656781682472
 31
0.0
  0
LINE
  5
264
  8
2
 10
96.211025462356673
 20
49.238656781682437
 30
0.0
 11
116.2110254623566
 21
49.238656781682437
 31
0.0
  0
LINE
  5
265
  8
2
 10
96.211025462356673
 20
39.238656781682451
 30
0.0
 11
116.2110254623566
 21
39.238656781682451
 31
0.0
  0
ARC
  5
266
  8
2
 10
96.211025462356673
 20
44.238656781682472
 30
0.0
 40
4.9999999999999911
 50
90.0
 51
180.0
  0
ARC
  5
267
  8
2
 10
96.211025462356673
 20
44.238656781682472
 30
0.0
 40
4.9999999999999911
 50
180.0
 51
270.0
  0
ARC
  5
268
  8
2
 10
116.2110254623566
 20
44.238656781682472
 30
0.0
 40
4.9999999999999911
 50
0.0
 51
90.0
  0
ARC
  5
269
  8
2
 10
116.2110254623566
 20
44.238656781682472
 30
0.0
 40
4.9999999999999911
 50
270.0
 51
0.0
  0
CIRCLE
  5
26A
  8
2
 10
77.003444158423505
 20
44.138757043256597
 30
0.0
 40
2.4999999999999991
  0
CIRCLE
  5
26B
  8
2
 10
85.211025462356446
 20
44.238656527682373
 30
0.0
 40
2.4999999999999991
  0
LINE
  5
26C
  8
2
 10
51.21102546235668
 20
49.238656781682437
 30
0.0
 11
66.211025462356659
 21
49.238656781682437
 31
0.0
  0
LINE
  5
26D
  8
2
 10
51.21102546235668
 20
39.238656781682451
 30
0.0
 11
66.211025462356659
 21
39.238656781682451
 31
0.0
  0
ARC
  5
26E
  8
2
 10
51.21102546235668
 20
44.238656781682472
 30
0.0
 40
4.9999999999999911
 50
90.0
 51
180.0
  0
ARC
  5
26F
  8
2
 10
51.21102546235668
 20
44.238656781682472
 30
0.0
 40
4.9999999999999911
 50
180.0
 51
270.0
  0
ARC
  5
270
  8
2
 10
66.211025462356659
 20
44.238656781682472
 30
0.0
 40
4.9999999999999911
 50
0.0
 51
90.0
  0
ARC
  5
271
  8
2
 10
66.211025462356659
 20
44.238656781682472
 30
0.0
 40
4.9999999999999911
 50
270.0
 51
0.0
  0
LINE
  5
272
  8
1
 10
51.0
 20
110.9999999999999
 30
0.000000254
 11
51.0
 21
134.99999999999989
 31
0.000000254
  0
LINE
  5
273
  8
1
 10
51.0
 20
134.99999999999989
 30
0.000000254
 11
55.999999999999943
 21
134.99999999999989
 31
0.000000254
  0
LINE
  5
274
  8
1
 10
55.999999999999943
 20
134.99999999999989
 30
0.000000254
 11
55.999999999999943
 21
132.99999999999989
 31
0.000000254
  0
LINE
  5
275
  8
1
 10
55.999999999999943
 20
132.99999999999989
 30
0.000000254
 11
81.000000000000028
 21
132.99999999999989
 31
0.000000254
  0
LINE
  5
276
  8
1
 10
81.000000000000028
 20
132.99999999999989
 30
0.000000254
 11
81.000000000000028
 21
134.99999999999989
 31
0.000000254
  0
LINE
  5
277
  8
1
 10
81.000000000000028
 20
134.99999999999989
 30
0.000000254
 11
85.999999999999957
 21
134.99999999999989
 31
0.000000254
  0
LINE
  5
278
  8
1
 10
85.999999999999957
 20
134.99999999999989
 30
0.000000254
 11
85.999999999999957
 21
110.9999999999999
 31
0.000000254
  0
LINE
  5
279
  8
1
 10
85.999999999999957
 20
110.9999999999999
 30
0.000000254
 11
81.000000000000028
 21
110.9999999999999
 31
0.000000254
  0
LINE
  5
27A
  8
1
 10
81.000000000000028
 20
110.9999999999999
 30
0.000000254
 11
81.000000000000028
 21
112.9999999999999
 31
0.000000254
  0
LINE
  5
27B
  8
1
 10
81.000000000000028
 20
112.9999999999999
 30
0.000000254
 11
55.999999999999943
 21
112.9999999999999
 31
0.000000254
  0
LINE
  5
27C
  8
1
 10
55.999999999999943
 20
112.9999999999999
 30
0.000000254
 11
55.999999999999943
 21
110.9999999999999
 31
0.000000254
  0
LINE
  5
27D
  8
1
 10
55.999999999999943
 20
110.9999999999999
 30
0.000000254
 11
51.0
 21
110.9999999999999
 31
0.000000254
  0
LINE
  5
27E
  8
2
 10
75.906731710903429
 20
117.9999999999999
 30
0.000000254
 11
61.219417450439472
 21
117.9999999999999
 31
0.000000254
  0
LINE
  5
27F
  8
2
 10
75.906731710903429
 20
127.9999999999999
 30
0.000000254
 11
61.219417450439472
 21
127.9999999999999
 31
0.000000254
  0
ARC
  5
280
  8
2
 10
75.906731710903429
 20
122.9999999999999
 30
0.000000254
 40
4.9999999999999911
 50
270.0
 51
0.0
  0
ARC
  5
281
  8
2
 10
75.906731710903429
 20
122.9999999999999
 30
0.000000254
 40
4.9999999999999911
 50
0.0
 51
90.0
  0
ARC
  5
282
  8
2
 10
61.219417450439472
 20
122.9999999999999
 30
0.000000254
 40
4.9999999999999911
 50
180.0
 51
270.0
  0
ARC
  5
283
  8
2
 10
61.219417450439472
 20
122.9999999999999
 30
0.000000254
 40
4.9999999999999911
 50
90.0
 51
180.0
  0
LINE
  5
284
  8
1
 10
104.0
 20
142.99999999999989
 30
0.000000254
 11
115.00000012700011
 21
142.99999999999989
 31
0.000000254
  0
LINE
  5
285
  8
1
 10
115.00000012700011
 20
144.99999987299941
 30
0.000000254
 11
120.0
 21
144.99999987299941
 31
0.000000254
  0
LINE
  5
286
  8
1
 10
120.0
 20
144.99999987299941
 30
0.000000254
 11
120.0
 21
142.99999999999989
 31
0.000000254
  0
LINE
  5
287
  8
1
 10
120.0
 20
142.99999999999989
 30
0.000000254
 11
124.0
 21
142.99999999999989
 31
0.000000254
  0
LINE
  5
288
  8
1
 10
124.0
 20
142.99999999999989
 30
0.000000254
 11
124.0
 21
123.0
 31
0.000000254
  0
LINE
  5
289
  8
1
 10
104.0
 20
144.99999999999989
 30
0.000000254
 11
99.000000000000057
 21
144.99999999999989
 31
0.000000254
  0
LINE
  5
28A
  8
1
 10
95.000000000000057
 20
142.99999999999989
 30
0.000000254
 11
99.000000127000035
 21
142.99999999999989
 31
0.000000254
  0
LINE
  5
28B
  8
1
 10
99.000000127000035
 20
142.99999999999989
 30
0.000000254
 11
99.000000127000035
 21
144.99999999999989
 31
0.000000254
  0
LINE
  5
28C
  8
1
 10
104.0
 20
144.99999999999989
 30
0.000000254
 11
104.0
 21
142.99999999999989
 31
0.000000254
  0
LINE
  5
28D
  8
1
 10
95.000000000000057
 20
142.99999999999989
 30
0.000000254
 11
95.000000000000057
 21
123.0
 31
0.000000254
  0
LINE
  5
28E
  8
1
 10
95.000000000000057
 20
123.0
 30
0.000000254
 11
99.000000127000035
 21
123.0
 31
0.000000254
  0
LINE
  5
28F
  8
1
 10
99.000000127000035
 20
123.0
 30
0.000000254
 11
99.000000127000035
 21
121.0
 31
0.000000254
  0
LINE
  5
290
  8
1
 10
99.000000127000035
 20
121.0
 30
0.000000254
 11
104.0
 21
121.0
 31
0.000000254
  0
LINE
  5
291
  8
1
 10
104.0
 20
121.0
 30
0.000000254
 11
104.0
 21
123.0
 31
0.000000254
  0
LINE
  5
292
  8
1
 10
104.0
 20
123.0
 30
0.000000254
 11
115.00000012700011
 21
123.0
 31
0.000000254
  0
LINE
  5
293
  8
1
 10
115.00000012700011
 20
123.0
 30
0.000000254
 11
115.00000012700011
 21
121.0
 31
0.000000254
  0
LINE
  5
294
  8
1
 10
115.0
 20
121.0
 30
0.000000254
 11
120.0
 21
121.0
 31
0.000000254
  0
LINE
  5
295
  8
1
 10
120.0
 20
121.0
 30
0.000000254
 11
120.0
 21
123.0
 31
0.000000254
  0
LINE
  5
296
  8
1
 10
120.0
 20
123.0
 30
0.000000254
 11
124.0
 21
123.0
 31
0.000000254
  0
LINE
  5
297
  8
2
 10
106.0
 20
138.0
 30
0.000000254
 11
113.0
 21
138.0
 31
0.000000254
  0
LINE
  5
298
  8
2
 10
106.0
 20
128.0
 30
0.000000254
 11
113.0
 21
128.0
 31
0.000000254
  0
ARC
  5
299
  8
2
 10
113.0
 20
132.99999999999989
 30
0.000000254
 40
5.0000000000000346
 50
270.0
 51
90.0
  0
ARC
  5
29A
  8
2
 10
106.0
 20
132.99999999999989
 30
0.000000254
 40
5.0000000000000346
 50
90.0
 51
270.0
  0
LINE
  5
29B
  8
1
 10
115.00000012700011
 20
144.99999987299941
 30
0.000000254
 11
115.00000012700011
 21
142.99999999999989
 31
0.000000254
  0
LINE
  5
29D
  8
1
 10
190.0
 20
225.88500376575001
 30
0.000000254
 11
190.0
 21
235.8850037657501
 31
0.000000254
  0
ARC
  5
29E
  8
2
 10
178.99999999999989
 20
163.885003861
 30
0.000000254
 40
3.0
 50
90.0
 51
180.0
  0
POLYLINE
  5
29F
  8
2
 66
     1
 10
0.0
 20
0.0
 30
0.0
 70
     1
  0
VERTEX
  5
A35
  8
2
 10
169.90000000000001
 20
85.785003861000163
 30
0.0
  0
VERTEX
  5
A36
  8
2
 10
169.90000000000001
 20
95.985003861000109
 30
0.0
  0
VERTEX
  5
A37
  8
2
 10
172.09999999999999
 20
95.985003861000109
 30
0.0
  0
VERTEX
  5
A38
  8
2
 10
172.09999999999999
 20
85.785003861000163
 30
0.0
  0
SEQEND
  5
A39
  8
2
  0
POLYLINE
  5
2A0
  8
2
 66
     1
 10
0.0
 20
0.0
 30
0.0
 70
     1
  0
VERTEX
  5
A3A
  8
2
 10
169.90000000000001
 20
125.78500386100011
 30
0.0
  0
VERTEX
  5
A3B
  8
2
 10
169.90000000000001
 20
135.98500386100011
 30
0.0
  0
VERTEX
  5
A3C
  8
2
 10
172.09999999999999
 20
135.98500386100011
 30
0.0
  0
VERTEX
  5
A3D
  8
2
 10
172.09999999999999
 20
125.78500386100011
 30
0.0
  0
SEQEND
  5
A3E
  8
2
  0
POLYLINE
  5
2A1
  8
2
 66
     1
 10
0.0
 20
0.0
 30
0.0
 70
     1
  0
VERTEX
  5
A3F
  8
2
 10
169.90000000000001
 20
170.78500386100009
 30
0.0
  0
VERTEX
  5
A40
  8
2
 10
169.90000000000001
 20
180.98500386100011
 30
0.0
  0
VERTEX
  5
A41
  8
2
 10
172.09999999999999
 20
180.98500386100011
 30
0.0
  0
VERTEX
  5
A42
  8
2
 10
172.09999999999999
 20
170.78500386100009
 30
0.0
  0
SEQEND
  5
A43
  8
2
  0
POLYLINE
  5
2A2
  8
2
 66
     1
 10
0.0
 20
0.0
 30
0.0
 70
     1
  0
VERTEX
  5
A44
  8
2
 10
169.90000000000001
 20
205.78500386100009
 30
0.0
  0
VERTEX
  5
A45
  8
2
 10
169.90000000000001
 20
210.98500386100011
 30
0.0
  0
VERTEX
  5
A46
  8
2
 10
172.09999999999999
 20
210.98500386100011
 30
0.0
  0
VERTEX
  5
A47
  8
2
 10
172.09999999999999
 20
205.78500386100009
 30
0.0
  0
SEQEND
  5
A48
  8
2
  0
POLYLINE
  5
2A3
  8
2
 66
     1
 10
0.0
 20
0.0
 30
0.0
 70
     1
  0
VERTEX
  5
A49
  8
2
 10
169.89999999999989
 20
23.78500386100017
 30
0.0
  0
VERTEX
  5
A4A
  8
2
 10
169.89999999999989
 20
28.985003861000159
 30
0.0
  0
VERTEX
  5
A4B
  8
2
 10
172.09999999999999
 20
28.985003861000159
 30
0.0
  0
VERTEX
  5
A4C
  8
2
 10
172.09999999999999
 20
23.78500386100017
 30
0.0
  0
SEQEND
  5
A4D
  8
2
  0
ARC
  5
2A4
  8
1
  6
CONTINUOUS
 62
     7
 10
168.0027306209048
 20
40.8850041150002
 30
0.000000254
 40
20.0
 50
270.0
 51
352.17193299328801
  0
POLYLINE
  5
2A5
  8
1
  6
CONTINUOUS
 62
     7
 66
     1
 10
0.0
 20
0.0
 30
0.0
  0
VERTEX
  5
A4E
  8
1
  6
CONTINUOUS
 62
     7
 10
197.30939360200139
 20
129.25782762843119
 30
0.0
  0
VERTEX
  5
A4F
  8
1
  6
CONTINUOUS
 62
     7
 10
187.8163554157824
 20
38.160986404373261
 30
0.0
  0
SEQEND
  5
A50
  8
1
  6
CONTINUOUS
 62
     7
  0
LINE
  5
2A6
  8
1
  6
CONTINUOUS
 62
     7
 10
188.00273087490481
 20
225.88500376575001
 30
0.000000254
 11
188.00273087490481
 21
215.8850037657499
 31
0.000000254
  0
LINE
  5
2A7
  8
1
 62
     7
 10
187.9999997459999
 20
199.9072015735822
 30
0.000000254
 11
187.99999974599999
 21
205.88500386100009
 31
0.000000254
  0
LINE
  5
2A8
  8
1
 62
     7
 10
169.99863430854751
 20
31.8850039880002
 30
0.000000254
 11
169.9999997460001
 21
80.885003988000221
 31
0.000000254
  0
LINE
  5
2A9
  8
1
 62
     7
 10
169.99863430854751
 20
31.8850039880002
 30
0.000000254
 11
168.00136518345221
 21
31.885003988000211
 31
0.000000254
  0
LINE
  5
2AA
  8
1
 62
     7
 10
169.9999997460001
 20
80.885003988000221
 30
0.000000254
 11
168.0027306209048
 21
80.885003988000221
 31
0.000000254
  0
LINE
  5
2AB
  8
1
 10
188.0
 20
205.8850037657501
 30
0.000000254
 11
190.0
 21
205.8850037657501
 31
0.000000254
  0
LINE
  5
2AC
  8
1
 10
190.0
 20
205.8850037657501
 30
0.000000254
 11
190.0
 21
215.88500376575001
 31
0.000000254
  0
LINE
  5
2AD
  8
1
 10
190.0
 20
215.88500376575001
 30
0.000000254
 11
188.00273087490481
 21
215.88500376575001
 31
0.000000254
  0
LINE
  5
2AE
  8
1
 10
188.00273087490481
 20
225.88500376575001
 30
0.000000254
 11
190.0
 21
225.88500376575001
 31
0.000000254
  0
LINE
  5
2AF
  8
1
 10
168.0
 20
205.8850037657501
 30
0.000000254
 11
166.0
 21
205.8850037657501
 31
0.000000254
  0
LINE
  5
2B0
  8
1
 10
166.0
 20
205.8850037657501
 30
0.000000254
 11
166.0
 21
215.88500376575001
 31
0.000000254
  0
LINE
  5
2B1
  8
1
 10
166.0
 20
215.88500376575001
 30
0.000000254
 11
168.0
 21
215.88500376575001
 31
0.000000254
  0
LINE
  5
2B2
  8
1
 10
168.0
 20
215.88500376575001
 30
0.000000254
 11
168.0
 21
225.88500376575001
 31
0.000000254
  0
LINE
  5
2B3
  8
1
 10
168.0
 20
225.88500376575001
 30
0.000000254
 11
166.0
 21
225.88500376575001
 31
0.000000254
  0
LINE
  5
2B4
  8
1
 10
166.0
 20
225.88500376575001
 30
0.000000254
 11
166.0
 21
235.8850037657501
 31
0.000000254
  0
LINE
  5
2B5
  8
1
 10
168.0027306209048
 20
20.8850041150002
 30
0.000000254
 11
168.00136518345221
 21
31.885003988000211
 31
0.000000254
  0
LINE
  5
2B6
  8
1
 10
204.38205625408861
 20
137.79962094042679
 30
0.000000254
 11
260.6796764683163
 21
153.45823138219839
 31
0.000000254
  0
LINE
  5
2B7
  8
1
 10
197.33480964076219
 20
189.92934999501611
 30
0.000000254
 11
258.6651898512377
 21
185.8406579809843
 31
0.000000254
  0
ARC
  5
2B8
  8
1
  6
CONTINUOUS
 62
     7
 10
207.2555351097522
 20
128.22135808821531
 30
0.000000254
 40
9.9999999999999982
 50
106.6992442339938
 51
174.05078260603949
  0
LINE
  5
2B9
  8
1
 10
267.9999997459999
 20
163.09251042444521
 30
0.000000254
 11
267.9999997459999
 21
175.86280640241819
 31
0.000000254
  0
ARC
  5
2BA
  8
1
 10
197.9999997459999
 20
199.90720157358211
 30
0.000000254
 40
9.9999999999999982
 50
180.00000000000011
 51
266.18592516570982
  0
ARC
  5
2BB
  8
1
 10
257.9999997459999
 20
163.09251042444521
 30
0.000000254
 40
9.9999999999999982
 50
285.5433672280314
 51
0.0000000000000799
  0
ARC
  5
2BC
  8
1
 10
257.9999997459999
 20
175.86280640241819
 30
0.000000254
 40
9.9999999999999982
 50
0.0000000000000509
 51
86.185925165709577
  0
LINE
  5
2BD
  8
2
 10
178.99999974599999
 20
65.885003988000207
 30
0.000000254
 11
180.8103602967515
 21
65.885003988000207
 31
0.000000254
  0
LINE
  5
2BE
  8
2
 10
181.95703324528989
 20
70.885003988000236
 30
0.000000254
 11
178.99999974599999
 21
70.885003988000236
 31
0.000000254
  0
LINE
  5
2BF
  8
2
 10
178.99999974599999
 20
95.885003988000236
 30
0.000000254
 11
183.93765015640159
 21
95.885003988000236
 31
0.000000254
  0
LINE
  5
2C0
  8
2
 10
178.99999974599999
 20
100.88500398800009
 30
0.000000254
 11
185.08432310494001
 21
100.88500398800009
 31
0.000000254
  0
LINE
  5
2C1
  8
2
 10
175.9999997459999
 20
44.013312912860719
 30
0.000000254
 11
175.99999974599999
 21
62.885003988000243
 31
0.000000254
  0
LINE
  5
2C2
  8
2
 10
181.82626233594181
 20
43.695668382491966
 30
0.000000254
 11
183.79419204542529
 21
62.573960428982531
 31
0.000000254
  0
LINE
  5
2C3
  8
2
 10
175.9999997459999
 20
103.88500398800019
 30
0.000000254
 11
175.9999997459999
 21
132.88500386100009
 31
0.000000254
  0
LINE
  5
2C4
  8
2
 10
175.99999974599999
 20
73.885003988000179
 30
0.000000254
 11
175.99999974599999
 21
92.885003988000207
 31
0.000000254
  0
LINE
  5
2C5
  8
2
 10
184.94086499396369
 20
73.573960428982559
 30
0.000000254
 11
186.9214819050753
 21
92.573960428982545
 31
0.000000254
  0
ARC
  5
2C6
  8
2
 10
178.99999974599999
 20
62.885003988000243
 30
0.000000254
 40
3.0
 50
90.0
 51
180.0
  0
ARC
  5
2C7
  8
2
 10
178.99999974599999
 20
73.885003988000179
 30
0.000000254
 40
3.0
 50
180.0
 51
270.0
  0
ARC
  5
2C8
  8
2
 10
180.8103602967515
 20
62.885003988000243
 30
0.000000254
 40
3.0
 50
354.04881061434833
 51
90.000000000000881
  0
ARC
  5
2C9
  8
2
 10
178.8424305872681
 20
44.006711941509607
 30
0.000000254
 40
3.0
 50
273.15188160280297
 51
354.04881061434838
  0
ARC
  5
2CA
  8
2
 10
178.9999997459999
 20
44.013312912860719
 30
0.000000254
 40
3.0
 50
180.0
 51
271.64584385605821
  0
ARC
  5
2CB
  8
2
 10
181.95703324528989
 20
73.885003988000179
 30
0.000000254
 40
3.0
 50
270.0
 51
354.04881061434833
  0
ARC
  5
2CC
  8
2
 10
183.93765015640159
 20
92.885003988000207
 30
0.000000254
 40
3.0
 50
354.04881061434838
 51
90.0
  0
ARC
  5
2CD
  8
2
 10
178.99999974599999
 20
92.885003988000207
 30
0.000000254
 40
3.0
 50
90.0
 51
180.0
  0
ARC
  5
2CE
  8
2
 10
178.99999974599999
 20
103.88500398800019
 30
0.000000254
 40
3.0
 50
180.0
 51
270.00000000000171
  0
ARC
  5
2CF
  8
2
 10
185.08432310494001
 20
103.88500398800019
 30
0.000000254
 40
3.0
 50
270.0
 51
354.04881061434821
  0
ARC
  5
2D0
  8
2
 10
179.17232840983991
 20
38.015788187474499
 30
0.000000254
 40
3.0
 50
91.645843856058718
 51
93.151881602803073
  0
POLYLINE
  5
2D1
  8
2
 66
     1
 10
0.0
 20
0.0
 30
0.0
 70
     1
  0
VERTEX
  5
A51
  8
2
 10
255.88764256788639
 20
158.68500398799989
 30
0.0
  0
VERTEX
  5
A52
  8
2
 10
255.88764256788639
 20
164.08719444446149
 30
0.0
  0
VERTEX
  5
A53
  8
2
 10
258.19999999999987
 20
164.08719444446149
 30
0.0
  0
VERTEX
  5
A54
  8
2
 10
258.19999999999987
 20
158.68500398799989
 30
0.0
  0
SEQEND
  5
A55
  8
2
  0
POLYLINE
  5
2D2
  8
2
 66
     1
 10
0.0
 20
0.0
 30
0.0
 70
     1
  0
VERTEX
  5
A56
  8
2
 10
255.88764256788639
 20
174.68500398799989
 30
0.0
  0
VERTEX
  5
A57
  8
2
 10
255.88764256788639
 20
180.0871944444614
 30
0.0
  0
VERTEX
  5
A58
  8
2
 10
258.19999999999987
 20
180.0871944444614
 30
0.0
  0
VERTEX
  5
A59
  8
2
 10
258.19999999999987
 20
174.68500398799989
 30
0.0
  0
SEQEND
  5
A5A
  8
2
  0
POLYLINE
  5
2D3
  8
2
 66
     1
 10
0.0
 20
0.0
 30
0.0
 70
     1
  0
VERTEX
  5
A5B
  8
2
 10
206.8876425678865
 20
145.68500398800001
 30
0.0
  0
VERTEX
  5
A5C
  8
2
 10
206.8876425678865
 20
151.0850039879999
 30
0.0
  0
VERTEX
  5
A5D
  8
2
 10
209.19999999999999
 20
151.0850039879999
 30
0.0
  0
VERTEX
  5
A5E
  8
2
 10
209.19999999999999
 20
145.68500398800001
 30
0.0
  0
SEQEND
  5
A5F
  8
2
  0
POLYLINE
  5
2D4
  8
2
 66
     1
 10
0.0
 20
0.0
 30
0.0
 70
     1
  0
VERTEX
  5
A60
  8
2
 10
206.8876425678865
 20
175.68500398799989
 30
0.0
  0
VERTEX
  5
A61
  8
2
 10
206.8876425678865
 20
181.0871944444614
 30
0.0
  0
VERTEX
  5
A62
  8
2
 10
209.19999999999999
 20
181.0871944444614
 30
0.0
  0
VERTEX
  5
A63
  8
2
 10
209.19999999999999
 20
175.68500398799989
 30
0.0
  0
SEQEND
  5
A64
  8
2
  0
LINE
  5
2D5
  8
2
 10
191.37491955181599
 20
140.8850038610002
 30
0.000000254
 11
178.99999999999989
 21
140.8850038610002
 31
0.000000254
  0
LINE
  5
2D6
  8
2
 10
175.99999999999989
 20
174.88500386100009
 30
0.000000254
 11
175.99999999999989
 21
181.4689478967457
 31
0.000000254
  0
LINE
  5
2D7
  8
2
 10
175.99999999999989
 20
143.88500386100009
 30
0.000000254
 11
175.99999999999989
 21
163.885003861
 31
0.000000254
  0
LINE
  5
2D8
  8
2
 10
203.0
 20
174.88500386100009
 30
0.000000254
 11
203.0
 21
180.0371297149274
 31
0.000000254
  0
LINE
  5
2D9
  8
2
 10
203.0
 20
146.33723261587591
 30
0.000000254
 11
203.0
 21
163.885003861
 31
0.000000254
  0
LINE
  5
2DA
  8
2
 10
212.99999999999989
 20
174.88500386100009
 30
0.000000254
 11
212.99999999999989
 21
178.94622062401831
 31
0.000000254
  0
LINE
  5
2DB
  8
2
 10
212.99999999999989
 20
150.8862522237192
 30
0.000000254
 11
212.99999999999989
 21
163.885003861
 31
0.000000254
  0
LINE
  5
2DC
  8
2
 10
233.0
 20
174.88500386100009
 30
0.000000254
 11
233.0
 21
177.99167516947281
 31
0.000000254
  0
LINE
  5
2DD
  8
2
 10
233.0
 20
154.86664438058179
 30
0.000000254
 11
233.0
 21
163.885003861
 31
0.000000254
  0
LINE
  5
2DE
  8
2
 10
238.0
 20
174.88500386100009
 30
0.000000254
 11
238.0
 21
177.2416751694729
 31
0.000000254
  0
LINE
  5
2DF
  8
2
 10
238.0
 20
157.99409536097389
 30
0.000000254
 11
238.0
 21
163.885003861
 31
0.000000254
  0
LINE
  5
2E0
  8
2
 10
253.0
 20
174.88500386100009
 30
0.000000254
 11
253.0
 21
176.6280388058365
 31
0.000000254
  0
LINE
  5
2E1
  8
2
 10
253.0
 20
160.5529188903856
 30
0.000000254
 11
253.0
 21
163.885003861
 31
0.000000254
  0
LINE
  5
2E2
  8
2
 10
192.19534575518841
 20
140.99936686982821
 30
0.000000254
 11
200.82042620337239
 21
143.451595624704
 31
0.000000254
  0
LINE
  5
2E3
  8
2
 10
200.0
 20
166.885003861
 30
0.000000254
 11
178.99999999999989
 21
166.88500386100009
 31
0.000000254
  0
LINE
  5
2E4
  8
2
 10
200.0
 20
171.88500386100009
 30
0.000000254
 11
178.99999999999989
 21
171.88500386100009
 31
0.000000254
  0
LINE
  5
2E5
  8
2
 10
200.20407166441211
 20
183.030180792972
 30
0.000000254
 11
179.204071664412
 21
184.4619989747903
 31
0.000000254
  0
LINE
  5
2E6
  8
2
 10
241.82042620337239
 20
155.10845836980201
 30
0.000000254
 11
250.82042620337239
 21
157.66728189921369
 31
0.000000254
  0
LINE
  5
2E7
  8
2
 10
216.82042620337231
 20
148.00061523254709
 30
0.000000254
 11
230.82042620337239
 21
151.98100738940991
 31
0.000000254
  0
LINE
  5
2E8
  8
2
 10
230.0
 20
166.885003861
 30
0.000000254
 11
216.0
 21
166.885003861
 31
0.000000254
  0
LINE
  5
2E9
  8
2
 10
250.0
 20
166.885003861
 30
0.000000254
 11
241.0
 21
166.885003861
 31
0.000000254
  0
LINE
  5
2EA
  8
2
 10
230.0
 20
171.88500386100009
 30
0.000000254
 11
216.0
 21
171.88500386100009
 31
0.000000254
  0
LINE
  5
2EB
  8
2
 10
250.0
 20
171.88500386100009
 30
0.000000254
 11
241.0
 21
171.88500386100009
 31
0.000000254
  0
LINE
  5
2EC
  8
2
 10
230.20407166441211
 20
180.9847262475173
 30
0.000000254
 11
216.20407166441211
 21
181.939271702063
 31
0.000000254
  0
LINE
  5
2ED
  8
2
 10
250.204071664412
 20
179.6210898838811
 30
0.000000254
 11
241.20407166441211
 21
180.2347262475175
 31
0.000000254
  0
ARC
  5
2EE
  8
2
 10
216.0
 20
150.8862522237192
 30
0.000000254
 40
3.0
 50
180.0
 51
285.87117861145663
  0
ARC
  5
2EF
  8
2
 10
216.0
 20
163.885003861
 30
0.000000254
 40
3.0
 50
90.0
 51
180.0
  0
ARC
  5
2F0
  8
2
 10
230.0
 20
154.86664438058179
 30
0.000000254
 40
3.0
 50
285.87117861145617
 51
0.0000000000000799
  0
ARC
  5
2F1
  8
2
 10
230.0
 20
163.885003861
 30
0.000000254
 40
3.0
 50
0.0000000000000509
 51
90.0
  0
ARC
  5
2F2
  8
2
 10
241.0
 20
157.99409536097389
 30
0.000000254
 40
3.0
 50
180.00000000000011
 51
285.8711786114568
  0
ARC
  5
2F3
  8
2
 10
241.0
 20
163.885003861
 30
0.000000254
 40
3.0
 50
90.000000000000881
 51
180.0
  0
ARC
  5
2F4
  8
2
 10
250.0
 20
160.5529188903856
 30
0.000000254
 40
3.0
 50
285.87117861145771
 51
0.0000000000000799
  0
ARC
  5
2F5
  8
2
 10
250.0
 20
163.885003861
 30
0.000000254
 40
3.0
 50
0.0000000000000509
 51
90.0
  0
ARC
  5
2F6
  8
2
 10
250.0
 20
174.88500386100009
 30
0.000000254
 40
3.0
 50
270.0
 51
0.0000000000000799
  0
ARC
  5
2F7
  8
2
 10
250.0
 20
176.6280388058365
 30
0.000000254
 40
3.0
 50
0.0000000000000509
 51
86.099506257618486
  0
ARC
  5
2F8
  8
2
 10
241.0
 20
177.2416751694729
 30
0.000000254
 40
3.0
 50
86.099506257618955
 51
180.00000000000011
  0
ARC
  5
2F9
  8
2
 10
241.0
 20
174.88500386100009
 30
0.000000254
 40
3.0
 50
180.0
 51
270.0000000000008
  0
ARC
  5
2FA
  8
2
 10
230.0
 20
174.88500386100009
 30
0.000000254
 40
3.0
 50
269.99999999999909
 51
0.0000000000000799
  0
ARC
  5
2FB
  8
2
 10
230.0
 20
177.99167516947281
 30
0.000000254
 40
3.0
 50
0.0000000000000509
 51
86.099506257618586
  0
ARC
  5
2FC
  8
2
 10
216.0
 20
178.94622062401831
 30
0.000000254
 40
3.0
 50
86.099506257617804
 51
180.0
  0
ARC
  5
2FD
  8
2
 10
216.0
 20
174.88500386100009
 30
0.000000254
 40
3.0
 50
180.0
 51
269.99999999999909
  0
ARC
  5
2FE
  8
2
 10
200.0
 20
163.885003861
 30
0.000000254
 40
3.0
 50
0.0000000000000509
 51
90.0
  0
ARC
  5
2FF
  8
2
 10
200.0
 20
174.88500386100009
 30
0.000000254
 40
3.0
 50
270.0
 51
0.0000000000000799
  0
ARC
  5
300
  8
2
 10
200.0
 20
180.0371297149274
 30
0.000000254
 40
3.0
 50
0.0000000000000509
 51
86.099506257617378
  0
ARC
  5
301
  8
2
 10
178.99999999999989
 20
174.88500386100009
 30
0.000000254
 40
3.0
 50
180.0
 51
270.0
  0
ARC
  5
302
  8
2
 10
178.99999999999989
 20
181.4689478967457
 30
0.000000254
 40
3.0
 50
86.099506257617975
 51
180.0
  0
ARC
  5
303
  8
2
 10
178.99999999999989
 20
143.88500386100009
 30
0.000000254
 40
3.0
 50
180.0
 51
270.0000000000008
  0
ARC
  5
304
  8
2
 10
191.37491955181599
 20
143.88500386100009
 30
0.000000254
 40
3.0
 50
269.9999999999992
 51
285.8711786114568
  0
LINE
  5
305
  8
2
 10
178.9999997459999
 20
135.88500386100009
 30
0.000000254
 11
188.24077421854611
 21
135.88500386100009
 31
0.000000254
  0
ARC
  5
306
  8
2
 10
188.24077421854611
 20
132.88500386100009
 30
0.000000254
 40
3.0
 50
353.78813936133929
 51
90.0
  0
ARC
  5
307
  8
2
 10
178.9999997459999
 20
132.88500386100009
 30
0.000000254
 40
3.0
 50
90.0
 51
180.0
  0
ARC
  5
308
  8
2
 10
200.0
 20
146.33723261587591
 30
0.000000254
 40
3.0
 50
285.8711786114568
 51
0.0000000000000799
  0
LINE
  5
309
  8
2
 10
188.06815485361369
 20
103.5739604289825
 30
0.000000254
 11
191.22315997663009
 21
132.56038841161799
 31
0.000000254
  0
LINE
  5
30A
  8
1
  6
CONTINUOUS
 62
     7
 10
168.0027306209048
 20
80.885003988000221
 30
0.000000254
 11
167.9999999999998
 21
205.88500386100009
 31
0.000000254
  0
LINE
  5
30B
  8
1
  6
CONTINUOUS
 62
     7
 10
168.0027306209048
 20
80.885003988000221
 30
0.000000254
 11
167.9999999999998
 21
205.88500386100009
 31
0.000000254
  0
CIRCLE
  5
30C
  8
2
 10
179.0
 20
35.885003987999987
 30
0.000000254
 40
2.549999999999998
  0
POLYLINE
  5
30D
  8
2
 66
     1
 10
0.0
 20
0.0
 30
0.0
 70
     1
  0
VERTEX
  5
A65
  8
2
 10
195.39411017208531
 20
128.18118477528211
 30
0.0
  0
VERTEX
  5
A66
  8
2
 10
194.8503331980458
 20
123.0074924624552
 30
0.0
  0
VERTEX
  5
A67
  8
2
 10
192.66044790502829
 20
123.23765868149729
 30
0.0
  0
VERTEX
  5
A68
  8
2
 10
193.20422487906799
 20
128.4113509943241
 30
0.0
  0
SEQEND
  5
A69
  8
2
  0
POLYLINE
  5
30E
  8
2
 66
     1
 10
0.0
 20
0.0
 30
0.0
 70
     1
  0
VERTEX
  5
A6A
  8
2
 10
192.78089859039409
 20
103.3181373910752
 30
0.0
  0
VERTEX
  5
A6B
  8
2
 10
192.23712161635439
 20
98.144445078248793
 30
0.0
  0
VERTEX
  5
A6C
  8
2
 10
190.04723632333699
 20
98.374611297290855
 30
0.0
  0
VERTEX
  5
A6D
  8
2
 10
190.591013297377
 20
103.5483036101172
 30
0.0
  0
SEQEND
  5
A6E
  8
2
  0
POLYLINE
  5
30F
  8
2
 66
     1
 10
0.0
 20
0.0
 30
0.0
 70
     1
  0
VERTEX
  5
A6F
  8
2
 10
190.16768700870281
 20
78.455090006868446
 30
0.0
  0
VERTEX
  5
A70
  8
2
 10
189.62391003466311
 20
73.28139769404163
 30
0.0
  0
VERTEX
  5
A71
  8
2
 10
187.43402474164549
 20
73.511563913083691
 30
0.0
  0
VERTEX
  5
A72
  8
2
 10
187.9778017156855
 20
78.685256225910479
 30
0.0
  0
SEQEND
  5
A73
  8
2
  0
POLYLINE
  5
310
  8
2
 66
     1
 10
0.0
 20
0.0
 30
0.0
 70
     1
  0
VERTEX
  5
A74
  8
2
 10
187.5544754270114
 20
53.592042622661459
 30
0.0
  0
VERTEX
  5
A75
  8
2
 10
187.01069845297189
 20
48.418350309834793
 30
0.0
  0
VERTEX
  5
A76
  8
2
 10
184.82081315995441
 20
48.648516528876762
 30
0.0
  0
VERTEX
  5
A77
  8
2
 10
185.36459013399411
 20
53.822208841703713
 30
0.0
  0
SEQEND
  5
A78
  8
2
  0
ARC
  5
311
  8
1
 10
178.0
 20
240.88500398799991
 30
0.000000254
 40
7.9999999999999831
 50
218.68219124033229
 51
321.31780875966751
  0
LINE
  5
312
  8
1
 10
184.24499766793389
 20
235.88500357525001
 30
0.000000254
 11
190.00000000000031
 21
235.88500357525001
 31
0.000000254
  0
LINE
  5
313
  8
1
 10
166.0
 20
235.88500357525001
 30
0.000000254
 11
171.755002332066
 21
235.88500357525001
 31
0.000000254
  0
LINE
  5
314
  8
1
 10
297.54579075619409
 20
30.000000063500011
 30
0.000000254
 11
297.54579075619409
 21
20.000000063499929
 31
0.000000254
  0
ARC
  5
315
  8
2
 10
308.54579075619421
 20
91.999999968250037
 30
0.000000254
 40
3.0
 50
270.0
 51
0.0000000000000799
  0
POLYLINE
  5
316
  8
2
 66
     1
 10
0.0
 20
0.0
 30
0.0
 70
     1
  0
VERTEX
  5
A79
  8
2
 10
317.64579075619412
 20
170.0999999682499
 30
0.0
  0
VERTEX
  5
A7A
  8
2
 10
317.64579075619412
 20
159.89999996824989
 30
0.0
  0
VERTEX
  5
A7B
  8
2
 10
315.44579075619413
 20
159.89999996824989
 30
0.0
  0
VERTEX
  5
A7C
  8
2
 10
315.44579075619413
 20
170.0999999682499
 30
0.0
  0
SEQEND
  5
A7D
  8
2
  0
POLYLINE
  5
317
  8
2
 66
     1
 10
0.0
 20
0.0
 30
0.0
 70
     1
  0
VERTEX
  5
A7E
  8
2
 10
317.64579075619412
 20
130.0999999682499
 30
0.0
  0
VERTEX
  5
A7F
  8
2
 10
317.64579075619412
 20
119.8999999682499
 30
0.0
  0
VERTEX
  5
A80
  8
2
 10
315.44579075619413
 20
119.8999999682499
 30
0.0
  0
VERTEX
  5
A81
  8
2
 10
315.44579075619413
 20
130.0999999682499
 30
0.0
  0
SEQEND
  5
A82
  8
2
  0
POLYLINE
  5
318
  8
2
 66
     1
 10
0.0
 20
0.0
 30
0.0
 70
     1
  0
VERTEX
  5
A83
  8
2
 10
317.64579075619412
 20
85.099999968249989
 30
0.0
  0
VERTEX
  5
A84
  8
2
 10
317.64579075619412
 20
74.899999968249972
 30
0.0
  0
VERTEX
  5
A85
  8
2
 10
315.44579075619401
 20
74.899999968249972
 30
0.0
  0
VERTEX
  5
A86
  8
2
 10
315.44579075619413
 20
85.099999968249989
 30
0.0
  0
SEQEND
  5
A87
  8
2
  0
POLYLINE
  5
319
  8
2
 66
     1
 10
0.0
 20
0.0
 30
0.0
 70
     1
  0
VERTEX
  5
A88
  8
2
 10
317.64579075619412
 20
50.09999996825001
 30
0.0
  0
VERTEX
  5
A89
  8
2
 10
317.64579075619412
 20
44.899999968250029
 30
0.0
  0
VERTEX
  5
A8A
  8
2
 10
315.44579075619401
 20
44.899999968250029
 30
0.0
  0
VERTEX
  5
A8B
  8
2
 10
315.44579075619401
 20
50.09999996825001
 30
0.0
  0
SEQEND
  5
A8C
  8
2
  0
POLYLINE
  5
31A
  8
2
 66
     1
 10
0.0
 20
0.0
 30
0.0
 70
     1
  0
VERTEX
  5
A8D
  8
2
 10
317.64579075619412
 20
232.0999999682499
 30
0.0
  0
VERTEX
  5
A8E
  8
2
 10
317.64579075619412
 20
226.89999996824989
 30
0.0
  0
VERTEX
  5
A8F
  8
2
 10
315.44579075619413
 20
226.89999996824989
 30
0.0
  0
VERTEX
  5
A90
  8
2
 10
315.44579075619413
 20
232.0999999682499
 30
0.0
  0
SEQEND
  5
A91
  8
2
  0
ARC
  5
31B
  8
1
  6
CONTINUOUS
 62
     7
 10
319.54306013528929
 20
214.9999997142499
 30
0.000000254
 40
20.0
 50
89.999999999999986
 51
172.17193299328801
  0
POLYLINE
  5
31C
  8
1
  6
CONTINUOUS
 62
     7
 66
     1
 10
0.0
 20
0.0
 30
0.0
  0
VERTEX
  5
A92
  8
1
  6
CONTINUOUS
 62
     7
 10
290.23639715419279
 20
126.62717620081889
 30
0.0
  0
VERTEX
  5
A93
  8
1
  6
CONTINUOUS
 62
     7
 10
299.72943534041173
 20
217.72401742487679
 30
0.0
  0
SEQEND
  5
A94
  8
1
  6
CONTINUOUS
 62
     7
  0
LINE
  5
31D
  8
1
  6
CONTINUOUS
 62
     7
 10
299.5430598812892
 20
30.000000063500011
 30
0.000000254
 11
299.5430598812892
 21
40.000000063500089
 31
0.000000254
  0
LINE
  5
31E
  8
1
 62
     7
 10
299.54579101019408
 20
55.977802255667861
 30
0.000000254
 11
299.54579101019402
 21
49.999999968249952
 31
0.000000254
  0
LINE
  5
31F
  8
1
 62
     7
 10
317.54715644764661
 20
223.99999984124989
 30
0.000000254
 11
317.54579101019402
 21
174.99999984124989
 31
0.000000254
  0
LINE
  5
320
  8
1
 62
     7
 10
317.54715644764661
 20
223.99999984124989
 30
0.000000254
 11
319.54442557274189
 21
223.99999984124989
 31
0.000000254
  0
LINE
  5
321
  8
1
 62
     7
 10
317.54579101019402
 20
174.99999984124989
 30
0.000000254
 11
319.54306013528929
 21
174.99999984124989
 31
0.000000254
  0
LINE
  5
322
  8
1
 10
299.54579075619409
 20
50.000000063500032
 30
0.000000254
 11
297.54579075619409
 21
50.000000063500032
 31
0.000000254
  0
LINE
  5
323
  8
1
 10
297.54579075619409
 20
50.000000063500032
 30
0.000000254
 11
297.54579075619409
 21
40.000000063499989
 31
0.000000254
  0
LINE
  5
324
  8
1
 10
297.54579075619409
 20
40.000000063499989
 30
0.000000254
 11
299.5430598812892
 21
40.000000063499989
 31
0.000000254
  0
LINE
  5
325
  8
1
 10
299.5430598812892
 20
30.000000063500011
 30
0.000000254
 11
297.54579075619409
 21
30.000000063500011
 31
0.000000254
  0
LINE
  5
326
  8
1
 10
319.54579075619398
 20
50.000000063500032
 30
0.000000254
 11
321.54579075619398
 21
50.000000063500032
 31
0.000000254
  0
LINE
  5
327
  8
1
 10
321.54579075619398
 20
50.000000063500032
 30
0.000000254
 11
321.54579075619398
 21
40.000000063499989
 31
0.000000254
  0
LINE
  5
328
  8
1
 10
321.54579075619398
 20
40.000000063499989
 30
0.000000254
 11
319.54579075619398
 21
40.000000063499989
 31
0.000000254
  0
LINE
  5
329
  8
1
 10
319.54579075619398
 20
40.000000063499989
 30
0.000000254
 11
319.54579075619398
 21
30.000000063500011
 31
0.000000254
  0
LINE
  5
32A
  8
1
 10
319.54579075619398
 20
30.000000063500011
 30
0.000000254
 11
321.54579075619398
 21
30.000000063500011
 31
0.000000254
  0
LINE
  5
32B
  8
1
 10
321.54579075619398
 20
30.000000063500011
 30
0.000000254
 11
321.54579075619398
 21
20.000000063499929
 31
0.000000254
  0
LINE
  5
32C
  8
1
 10
319.54306013528929
 20
234.9999997142499
 30
0.000000254
 11
319.54442557274189
 21
223.99999984124989
 31
0.000000254
  0
LINE
  5
32D
  8
1
 10
283.16373450210551
 20
118.0853828888232
 30
0.000000254
 11
226.86611428787791
 21
102.4267724470516
 31
0.000000254
  0
LINE
  5
32E
  8
1
 10
290.21098111543182
 20
65.955653834234013
 30
0.000000254
 11
228.88060090495651
 21
70.044345848265849
 31
0.000000254
  0
ARC
  5
32F
  8
1
  6
CONTINUOUS
 62
     7
 10
280.29025564644189
 20
127.6636457410347
 30
0.000000254
 40
9.9999999999999982
 50
286.6992442339938
 51
354.05078260603949
  0
LINE
  5
330
  8
1
 10
219.54579101019419
 20
92.792493404804887
 30
0.000000254
 11
219.54579101019419
 21
80.022197426831909
 31
0.000000254
  0
ARC
  5
331
  8
1
 10
289.54579101019419
 20
55.977802255667953
 30
0.000000254
 40
9.9999999999999982
 50
0.0000000000000891
 51
86.185925165709861
  0
ARC
  5
332
  8
1
 10
229.54579101019419
 20
92.792493404804887
 30
0.000000254
 40
9.9999999999999982
 50
105.5433672280315
 51
180.0
  0
ARC
  5
333
  8
1
 10
229.54579101019419
 20
80.022197426831909
 30
0.000000254
 40
9.9999999999999982
 50
180.0
 51
266.18592516570948
  0
LINE
  5
334
  8
2
 10
308.54579101019419
 20
189.99999984124989
 30
0.000000254
 11
306.73543045944263
 21
189.99999984124989
 31
0.000000254
  0
LINE
  5
335
  8
2
 10
305.5887575109042
 20
184.99999984124989
 30
0.000000254
 11
308.54579101019419
 21
184.99999984124989
 31
0.000000254
  0
LINE
  5
336
  8
2
 10
308.54579101019419
 20
159.99999984124989
 30
0.000000254
 11
303.60814059979248
 21
159.99999984124989
 31
0.000000254
  0
LINE
  5
337
  8
2
 10
308.54579101019419
 20
154.99999984124989
 30
0.000000254
 11
302.46146765125422
 21
154.99999984124989
 31
0.000000254
  0
LINE
  5
338
  8
2
 10
311.54579101019408
 20
211.8716909163893
 30
0.000000254
 11
311.54579101019408
 21
192.99999984124989
 31
0.000000254
  0
LINE
  5
339
  8
2
 10
305.71952842025217
 20
212.18933544675809
 30
0.000000254
 11
303.7515987107688
 21
193.31104340026749
 31
0.000000254
  0
LINE
  5
33A
  8
2
 10
311.54579101019419
 20
151.9999998412498
 30
0.000000254
 11
311.54579101019419
 21
122.9999999682499
 31
0.000000254
  0
LINE
  5
33B
  8
2
 10
311.54579101019408
 20
181.99999984124989
 30
0.000000254
 11
311.54579101019408
 21
162.99999984124989
 31
0.000000254
  0
LINE
  5
33C
  8
2
 10
302.60492576223038
 20
182.31104340026749
 30
0.000000254
 11
300.62430885111883
 21
163.31104340026749
 31
0.000000254
  0
ARC
  5
33D
  8
2
 10
308.54579101019419
 20
192.99999984124989
 30
0.000000254
 40
3.0
 50
270.0
 51
0.0000000000000799
  0
ARC
  5
33E
  8
2
 10
308.54579101019419
 20
181.99999984124989
 30
0.000000254
 40
3.0
 50
0.0000000000000509
 51
89.999999999999986
  0
ARC
  5
33F
  8
2
 10
306.73543045944263
 20
192.99999984124989
 30
0.000000254
 40
3.0
 50
174.0488106143483
 51
270.0000000000008
  0
ARC
  5
340
  8
2
 10
308.703360168926
 20
211.8782918877404
 30
0.000000254
 40
3.0
 50
93.151881602803044
 51
174.04881061434841
  0
ARC
  5
341
  8
2
 10
308.54579101019419
 20
211.8716909163893
 30
0.000000254
 40
3.0
 50
0.0000000000000382
 51
91.645843856058306
  0
ARC
  5
342
  8
2
 10
305.5887575109042
 20
181.99999984124989
 30
0.000000254
 40
3.0
 50
89.999999999999986
 51
174.0488106143483
  0
ARC
  5
343
  8
2
 10
303.60814059979248
 20
162.99999984124989
 30
0.000000254
 40
3.0
 50
174.04881061434841
 51
270.0
  0
ARC
  5
344
  8
2
 10
308.54579101019419
 20
162.99999984124989
 30
0.000000254
 40
3.0
 50
270.0
 51
0.0000000000000799
  0
ARC
  5
345
  8
2
 10
308.54579101019419
 20
151.99999984124989
 30
0.000000254
 40
3.0
 50
0.0000000000000509
 51
90.000000000001677
  0
ARC
  5
346
  8
2
 10
302.46146765125422
 20
151.99999984124989
 30
0.000000254
 40
3.0
 50
89.999999999999986
 51
174.0488106143481
  0
ARC
  5
347
  8
2
 10
308.37346234635407
 20
217.86921564177561
 30
0.000000254
 40
3.0
 50
271.64584385605872
 51
273.15188160280297
  0
POLYLINE
  5
348
  8
2
 66
     1
 10
0.0
 20
0.0
 30
0.0
 70
     1
  0
VERTEX
  5
A95
  8
2
 10
231.65814818830771
 20
97.199999841250133
 30
0.0
  0
VERTEX
  5
A96
  8
2
 10
231.65814818830771
 20
91.797809384788593
 30
0.0
  0
VERTEX
  5
A97
  8
2
 10
229.34579075619419
 20
91.79780938478865
 30
0.0
  0
VERTEX
  5
A98
  8
2
 10
229.34579075619419
 20
97.199999841250147
 30
0.0
  0
SEQEND
  5
A99
  8
2
  0
POLYLINE
  5
349
  8
2
 66
     1
 10
0.0
 20
0.0
 30
0.0
 70
     1
  0
VERTEX
  5
A9A
  8
2
 10
231.65814818830771
 20
81.199999841250147
 30
0.0
  0
VERTEX
  5
A9B
  8
2
 10
231.65814818830771
 20
75.797809384788621
 30
0.0
  0
VERTEX
  5
A9C
  8
2
 10
229.34579075619419
 20
75.79780938478865
 30
0.0
  0
VERTEX
  5
A9D
  8
2
 10
229.34579075619419
 20
81.199999841250204
 30
0.0
  0
SEQEND
  5
A9E
  8
2
  0
POLYLINE
  5
34A
  8
2
 66
     1
 10
0.0
 20
0.0
 30
0.0
 70
     1
  0
VERTEX
  5
A9F
  8
2
 10
280.65814818830762
 20
110.1999998412501
 30
0.0
  0
VERTEX
  5
AA0
  8
2
 10
280.65814818830762
 20
104.7999998412501
 30
0.0
  0
VERTEX
  5
AA1
  8
2
 10
278.34579075619411
 20
104.7999998412501
 30
0.0
  0
VERTEX
  5
AA2
  8
2
 10
278.34579075619411
 20
110.1999998412501
 30
0.0
  0
SEQEND
  5
AA3
  8
2
  0
POLYLINE
  5
34B
  8
2
 66
     1
 10
0.0
 20
0.0
 30
0.0
 70
     1
  0
VERTEX
  5
AA4
  8
2
 10
280.65814818830762
 20
80.199999841250147
 30
0.0
  0
VERTEX
  5
AA5
  8
2
 10
280.65814818830762
 20
74.79780938478865
 30
0.0
  0
VERTEX
  5
AA6
  8
2
 10
278.34579075619399
 20
74.79780938478865
 30
0.0
  0
VERTEX
  5
AA7
  8
2
 10
278.34579075619411
 20
80.199999841250147
 30
0.0
  0
SEQEND
  5
AA8
  8
2
  0
LINE
  5
34C
  8
2
 10
296.17087120437822
 20
114.9999999682499
 30
0.000000254
 11
308.54579075619421
 21
114.9999999682499
 31
0.000000254
  0
LINE
  5
34D
  8
2
 10
311.54579075619421
 20
80.999999968249938
 30
0.000000254
 11
311.54579075619409
 21
74.41605593250442
 31
0.000000254
  0
LINE
  5
34E
  8
2
 10
311.54579075619421
 20
111.9999999682499
 30
0.000000254
 11
311.54579075619421
 21
91.999999968250037
 31
0.000000254
  0
LINE
  5
34F
  8
2
 10
284.54579075619409
 20
80.999999968249938
 30
0.000000254
 11
284.54579075619398
 21
75.847874114322622
 31
0.000000254
  0
LINE
  5
350
  8
2
 10
284.54579075619409
 20
109.54777121337411
 30
0.000000254
 11
284.54579075619409
 21
91.999999968250037
 31
0.000000254
  0
LINE
  5
351
  8
2
 10
274.54579075619421
 20
80.999999968249938
 30
0.000000254
 11
274.54579075619421
 21
76.938783205231744
 31
0.000000254
  0
LINE
  5
352
  8
2
 10
274.54579075619421
 20
104.9987516055309
 30
0.000000254
 11
274.54579075619421
 21
91.999999968250037
 31
0.000000254
  0
LINE
  5
353
  8
2
 10
254.54579075619421
 20
80.999999968249938
 30
0.000000254
 11
254.54579075619421
 21
77.893328659777225
 31
0.000000254
  0
LINE
  5
354
  8
2
 10
254.54579075619421
 20
101.01835944866831
 30
0.000000254
 11
254.54579075619421
 21
91.999999968250037
 31
0.000000254
  0
LINE
  5
355
  8
2
 10
249.54579075619409
 20
80.999999968249938
 30
0.000000254
 11
249.54579075619409
 21
78.64332865977714
 31
0.000000254
  0
LINE
  5
356
  8
2
 10
249.54579075619409
 20
97.890908468276152
 30
0.000000254
 11
249.54579075619409
 21
91.999999968250037
 31
0.000000254
  0
LINE
  5
357
  8
2
 10
234.54579075619421
 20
80.999999968249938
 30
0.000000254
 11
234.54579075619421
 21
79.256965023413514
 31
0.000000254
  0
LINE
  5
358
  8
2
 10
234.54579075619421
 20
95.332084938864426
 30
0.000000254
 11
234.54579075619421
 21
91.999999968250037
 31
0.000000254
  0
LINE
  5
359
  8
2
 10
295.3504450010056
 20
114.8856369594219
 30
0.000000254
 11
286.72536455282182
 21
112.433408204546
 31
0.000000254
  0
LINE
  5
35A
  8
2
 10
287.54579075619409
 20
88.999999968249995
 30
0.000000254
 11
308.54579075619421
 21
88.999999968249995
 31
0.000000254
  0
LINE
  5
35B
  8
2
 10
287.54579075619409
 20
83.999999968249995
 30
0.000000254
 11
308.54579075619421
 21
83.999999968249995
 31
0.000000254
  0
LINE
  5
35C
  8
2
 10
287.3417190917819
 20
72.854823036278049
 30
0.000000254
 11
308.34171909178201
 21
71.423004854459833
 31
0.000000254
  0
LINE
  5
35D
  8
2
 10
245.7253645528217
 20
100.776545459448
 30
0.000000254
 11
236.72536455282179
 21
98.217721930036404
 31
0.000000254
  0
LINE
  5
35E
  8
2
 10
270.72536455282182
 20
107.884388596703
 30
0.000000254
 11
256.7253645528217
 21
103.9039964398402
 31
0.000000254
  0
LINE
  5
35F
  8
2
 10
257.54579075619409
 20
88.999999968249995
 30
0.000000254
 11
271.54579075619421
 21
88.999999968249995
 31
0.000000254
  0
LINE
  5
360
  8
2
 10
237.54579075619409
 20
88.999999968249995
 30
0.000000254
 11
246.54579075619421
 21
88.999999968249995
 31
0.000000254
  0
LINE
  5
361
  8
2
 10
257.54579075619409
 20
83.999999968249995
 30
0.000000254
 11
271.54579075619421
 21
83.999999968249995
 31
0.000000254
  0
LINE
  5
362
  8
2
 10
237.54579075619409
 20
83.999999968249995
 30
0.000000254
 11
246.54579075619421
 21
83.999999968249995
 31
0.000000254
  0
LINE
  5
363
  8
2
 10
257.34171909178201
 20
74.900277581732638
 30
0.000000254
 11
271.3417190917819
 21
73.945732127187114
 31
0.000000254
  0
LINE
  5
364
  8
2
 10
237.3417190917821
 20
76.263913945368955
 30
0.000000254
 11
246.34171909178201
 21
75.650277581732553
 31
0.000000254
  0
ARC
  5
365
  8
2
 10
271.54579075619421
 20
104.9987516055309
 30
0.000000254
 40
3.0
 50
0.0000000000000382
 51
105.8711786114566
  0
ARC
  5
366
  8
2
 10
271.54579075619421
 20
91.999999968250037
 30
0.000000254
 40
3.0
 50
270.0
 51
0.0000000000000799
  0
ARC
  5
367
  8
2
 10
257.54579075619409
 20
101.01835944866831
 30
0.000000254
 40
3.0
 50
105.8711786114563
 51
180.0
  0
ARC
  5
368
  8
2
 10
257.54579075619409
 20
91.999999968250037
 30
0.000000254
 40
3.0
 50
180.0
 51
270.0
  0
ARC
  5
369
  8
2
 10
246.54579075619421
 20
97.890908468276152
 30
0.000000254
 40
3.0
 50
0.0000000000000891
 51
105.8711786114568
  0
ARC
  5
36A
  8
2
 10
246.54579075619421
 20
91.999999968250037
 30
0.000000254
 40
3.0
 50
270.0000000000008
 51
0.0000000000000799
  0
ARC
  5
36B
  8
2
 10
237.54579075619409
 20
95.332084938864426
 30
0.000000254
 40
3.0
 50
105.87117861145769
 51
180.0
  0
ARC
  5
36C
  8
2
 10
237.54579075619409
 20
91.999999968250037
 30
0.000000254
 40
3.0
 50
180.0
 51
270.0
  0
ARC
  5
36D
  8
2
 10
237.54579075619409
 20
80.999999968249938
 30
0.000000254
 40
3.0
 50
89.999999999999986
 51
180.0
  0
ARC
  5
36E
  8
2
 10
237.54579075619409
 20
79.256965023413514
 30
0.000000254
 40
3.0
 50
180.0
 51
266.09950625761837
  0
ARC
  5
36F
  8
2
 10
246.54579075619421
 20
78.64332865977714
 30
0.000000254
 40
3.0
 50
266.09950625761888
 51
0.0000000000000799
  0
ARC
  5
370
  8
2
 10
246.54579075619421
 20
80.999999968249938
 30
0.000000254
 40
3.0
 50
0.0000000000000509
 51
90.000000000000881
  0
ARC
  5
371
  8
2
 10
257.54579075619409
 20
80.999999968249938
 30
0.000000254
 40
3.0
 50
89.999999999999119
 51
180.0
  0
ARC
  5
372
  8
2
 10
257.54579075619409
 20
77.893328659777225
 30
0.000000254
 40
3.0
 50
180.0
 51
266.0995062576186
  0
ARC
  5
373
  8
2
 10
271.54579075619421
 20
76.938783205231744
 30
0.000000254
 40
3.0
 50
266.0995062576178
 51
0.0000000000000799
  0
ARC
  5
374
  8
2
 10
271.54579075619421
 20
80.999999968249938
 30
0.000000254
 40
3.0
 50
0.0000000000000382
 51
89.999999999999119
  0
ARC
  5
375
  8
2
 10
287.54579075619409
 20
91.999999968250037
 30
0.000000254
 40
3.0
 50
180.0
 51
270.0
  0
ARC
  5
376
  8
2
 10
287.54579075619409
 20
80.999999968249938
 30
0.000000254
 40
3.0
 50
89.999999999999986
 51
180.0
  0
ARC
  5
377
  8
2
 10
287.54579075619409
 20
75.847874114322622
 30
0.000000254
 40
3.0
 50
180.0
 51
266.09950625761729
  0
ARC
  5
378
  8
2
 10
308.54579075619421
 20
80.999999968249938
 30
0.000000254
 40
3.0
 50
0.0000000000000382
 51
89.999999999999986
  0
ARC
  5
379
  8
2
 10
308.54579075619409
 20
74.41605593250442
 30
0.000000254
 40
3.0
 50
266.09950625761797
 51
0.0000000000000799
  0
ARC
  5
37A
  8
2
 10
308.54579075619421
 20
111.9999999682499
 30
0.000000254
 40
3.0
 50
0.0000000000000382
 51
90.000000000000881
  0
ARC
  5
37B
  8
2
 10
296.17087120437822
 20
111.9999999682499
 30
0.000000254
 40
3.0
 50
89.999999999999176
 51
105.8711786114568
  0
LINE
  5
37C
  8
2
 10
308.54579101019431
 20
119.99999996824999
 30
0.000000254
 11
299.30501653764799
 21
119.99999996824999
 31
0.000000254
  0
ARC
  5
37D
  8
2
 10
299.30501653764799
 20
122.9999999682499
 30
0.000000254
 40
3.0
 50
173.78813936133929
 51
270.0
  0
ARC
  5
37E
  8
2
 10
308.54579101019431
 20
122.9999999682499
 30
0.000000254
 40
3.0
 50
270.0
 51
0.0000000000000799
  0
ARC
  5
37F
  8
2
 10
287.54579075619409
 20
109.54777121337411
 30
0.000000254
 40
3.0
 50
105.8711786114568
 51
180.0
  0
LINE
  5
380
  8
2
 10
299.47763590258052
 20
152.31104340026761
 30
0.000000254
 11
296.32263077956412
 21
123.3246154176321
 31
0.000000254
  0
LINE
  5
381
  8
1
  6
CONTINUOUS
 62
     7
 10
319.54306013528929
 20
174.99999984124989
 30
0.000000254
 11
319.54579075619421
 21
49.99999996825003
 31
0.000000254
  0
LINE
  5
382
  8
1
  6
CONTINUOUS
 62
     7
 10
319.54306013528929
 20
174.99999984124989
 30
0.000000254
 11
319.54579075619421
 21
49.99999996825003
 31
0.000000254
  0
CIRCLE
  5
383
  8
2
 10
308.54579075619409
 20
219.99999984125009
 30
0.000000254
 40
2.549999999999998
  0
POLYLINE
  5
384
  8
2
 66
     1
 10
0.0
 20
0.0
 30
0.0
 70
     1
  0
VERTEX
  5
AA9
  8
2
 10
292.15168058410882
 20
127.703819053968
 30
0.0
  0
VERTEX
  5
AAA
  8
2
 10
292.69545755814841
 20
132.87751136679469
 30
0.0
  0
VERTEX
  5
AAB
  8
2
 10
294.88534285116577
 20
132.6473451477527
 30
0.0
  0
VERTEX
  5
AAC
  8
2
 10
294.34156587712607
 20
127.4736528349259
 30
0.0
  0
SEQEND
  5
AAD
  8
2
  0
POLYLINE
  5
385
  8
2
 66
     1
 10
0.0
 20
0.0
 30
0.0
 70
     1
  0
VERTEX
  5
AAE
  8
2
 10
294.76489216580001
 20
152.56686643817491
 30
0.0
  0
VERTEX
  5
AAF
  8
2
 10
295.30866913983971
 20
157.74055875100129
 30
0.0
  0
VERTEX
  5
AB0
  8
2
 10
297.49855443285708
 20
157.5103925319593
 30
0.0
  0
VERTEX
  5
AB1
  8
2
 10
296.9547774588172
 20
152.33670021913281
 30
0.0
  0
SEQEND
  5
AB2
  8
2
  0
POLYLINE
  5
386
  8
2
 66
     1
 10
0.0
 20
0.0
 30
0.0
 70
     1
  0
VERTEX
  5
AB3
  8
2
 10
297.37810374749131
 20
177.42991382238159
 30
0.0
  0
VERTEX
  5
AB4
  8
2
 10
297.92188072153101
 20
182.60360613520839
 30
0.0
  0
VERTEX
  5
AB5
  8
2
 10
300.11176601454849
 20
182.3734399161664
 30
0.0
  0
VERTEX
  5
AB6
  8
2
 10
299.56798904050868
 20
177.1997476033396
 30
0.0
  0
SEQEND
  5
AB7
  8
2
  0
POLYLINE
  5
387
  8
2
 66
     1
 10
0.0
 20
0.0
 30
0.0
 70
     1
  0
VERTEX
  5
AB8
  8
2
 10
299.99131532918278
 20
202.29296120658859
 30
0.0
  0
VERTEX
  5
AB9
  8
2
 10
300.53509230322209
 20
207.46665351941519
 30
0.0
  0
VERTEX
  5
ABA
  8
2
 10
302.72497759623968
 20
207.23648730037331
 30
0.0
  0
VERTEX
  5
ABB
  8
2
 10
302.18120062219992
 20
202.06279498754631
 30
0.0
  0
SEQEND
  5
ABC
  8
2
  0
ARC
  5
388
  8
1
 10
309.54579075619409
 20
14.999999841250119
 30
0.000000254
 40
7.9999999999999831
 50
38.682191240332379
 51
141.31780875966751
  0
LINE
  5
389
  8
1
 10
303.30079308826009
 20
20.000000253999989
 30
0.000000254
 11
297.54579075619381
 21
20.000000253999989
 31
0.000000254
  0
LINE
  5
38A
  8
1
 10
321.54579075619398
 20
20.000000253999989
 30
0.000000254
 11
315.79078842412798
 21
20.000000253999989
 31
0.000000254
  0
LINE
  5
38B
  8
1
 10
199.28165171045211
 20
56.640957924104853
 30
0.000000254
 11
204.28165171045211
 21
56.640957924104853
 31
0.000000254
  0
LINE
  5
38C
  8
1
 10
204.28165171045211
 20
56.640957924104853
 30
0.000000254
 11
204.28165171045211
 21
54.640957924104853
 31
0.000000254
  0
LINE
  5
38D
  8
1
 10
204.28165171045211
 20
54.640957924104853
 30
0.000000254
 11
224.28165171045211
 21
54.640957924104853
 31
0.000000254
  0
LINE
  5
38E
  8
1
 10
224.28165171045211
 20
54.640957924104853
 30
0.000000254
 11
224.28165171045211
 21
56.640957924104853
 31
0.000000254
  0
LINE
  5
38F
  8
1
 10
224.28165171045211
 20
56.640957924104853
 30
0.000000254
 11
229.28165171045211
 21
56.640957924104853
 31
0.000000254
  0
LINE
  5
390
  8
1
 10
229.28165171045211
 20
56.640957924104853
 30
0.000000254
 11
229.28165171045211
 21
54.640957924104853
 31
0.000000254
  0
LINE
  5
391
  8
1
 10
229.28165171045211
 20
54.640957924104853
 30
0.000000254
 11
249.28165171045211
 21
54.640957924104853
 31
0.000000254
  0
LINE
  5
392
  8
1
 10
249.28165171045211
 20
54.640957924104853
 30
0.000000254
 11
249.28165171045211
 21
56.640957924104853
 31
0.000000254
  0
LINE
  5
393
  8
1
 10
249.28165171045211
 20
56.640957924104853
 30
0.000000254
 11
254.28165171045211
 21
56.640957924104853
 31
0.000000254
  0
LINE
  5
394
  8
1
 10
254.28165171045211
 20
56.640957924104853
 30
0.000000254
 11
254.28165171045211
 21
54.640957924104853
 31
0.000000254
  0
LINE
  5
395
  8
1
 10
254.28165171045211
 20
54.640957924104853
 30
0.000000254
 11
274.28165171045208
 21
54.640957924104853
 31
0.000000254
  0
LINE
  5
396
  8
1
 10
274.28165171045208
 20
54.640957924104853
 30
0.000000254
 11
274.28165171045208
 21
56.640957924104853
 31
0.000000254
  0
LINE
  5
397
  8
1
 10
274.28165171045208
 20
56.640957924104853
 30
0.000000254
 11
279.28165171045208
 21
56.640957924104853
 31
0.000000254
  0
LINE
  5
398
  8
1
 10
279.28165171045208
 20
56.640957924104853
 30
0.000000254
 11
279.28165171045208
 21
54.640957924104853
 31
0.000000254
  0
LINE
  5
399
  8
1
 10
279.28165171045208
 20
54.640957924104853
 30
0.000000254
 11
284.28165171045202
 21
54.640957924104853
 31
0.000000254
  0
LINE
  5
39A
  8
1
 10
284.28165171045202
 20
54.640957924104853
 30
0.000000254
 11
284.28165171045202
 21
34.640957924104782
 31
0.000000254
  0
LINE
  5
39B
  8
1
 10
284.28165171045202
 20
34.640957924104782
 30
0.000000254
 11
279.28165171045208
 21
34.640957924104782
 31
0.000000254
  0
LINE
  5
39C
  8
1
 10
279.28165171045208
 20
34.640957924104782
 30
0.000000254
 11
279.28165171045208
 21
32.640957924104789
 31
0.000000254
  0
LINE
  5
39D
  8
1
 10
279.28165171045208
 20
32.640957924104789
 30
0.000000254
 11
274.28165171045208
 21
32.640957924104789
 31
0.000000254
  0
LINE
  5
39E
  8
1
 10
274.28165171045208
 20
32.640957924104789
 30
0.000000254
 11
274.28165171045208
 21
34.640957924104782
 31
0.000000254
  0
LINE
  5
39F
  8
1
 10
274.28165171045208
 20
34.640957924104782
 30
0.000000254
 11
254.28165171045211
 21
34.640957924104782
 31
0.000000254
  0
LINE
  5
3A0
  8
1
 10
254.28165171045211
 20
34.640957924104782
 30
0.000000254
 11
254.28165171045211
 21
32.640957924104789
 31
0.000000254
  0
LINE
  5
3A1
  8
1
 10
254.28165171045211
 20
32.640957924104789
 30
0.000000254
 11
249.28165171045211
 21
32.640957924104789
 31
0.000000254
  0
LINE
  5
3A2
  8
1
 10
249.28165171045211
 20
32.640957924104789
 30
0.000000254
 11
249.28165171045211
 21
34.640957924104782
 31
0.000000254
  0
LINE
  5
3A3
  8
1
 10
249.28165171045211
 20
34.640957924104782
 30
0.000000254
 11
229.28165171045211
 21
34.640957924104782
 31
0.000000254
  0
LINE
  5
3A4
  8
1
 10
229.28165171045211
 20
34.640957924104782
 30
0.000000254
 11
229.28165171045211
 21
32.640957924104789
 31
0.000000254
  0
LINE
  5
3A5
  8
1
 10
229.28165171045211
 20
32.640957924104789
 30
0.000000254
 11
224.28165171045211
 21
32.640957924104789
 31
0.000000254
  0
LINE
  5
3A6
  8
1
 10
224.28165171045211
 20
32.640957924104789
 30
0.000000254
 11
224.28165171045211
 21
34.640957924104782
 31
0.000000254
  0
LINE
  5
3A7
  8
1
 10
224.28165171045211
 20
34.640957924104782
 30
0.000000254
 11
204.28165171045211
 21
34.640957924104782
 31
0.000000254
  0
LINE
  5
3A8
  8
1
 10
204.28165171045211
 20
34.640957924104782
 30
0.000000254
 11
204.28165171045211
 21
32.640957924104789
 31
0.000000254
  0
LINE
  5
3A9
  8
1
 10
204.28165171045211
 20
32.640957924104789
 30
0.000000254
 11
199.28165171045211
 21
32.640957924104789
 31
0.000000254
  0
LINE
  5
3AA
  8
1
 10
199.28165171045211
 20
32.640957924104789
 30
0.000000254
 11
199.28165171045211
 21
56.640957924104853
 31
0.000000254
  0
LINE
  5
3AB
  8
2
 10
254.28165171045211
 20
49.640957924104789
 30
0.000000254
 11
274.28165171045208
 21
49.640957924104789
 31
0.000000254
  0
LINE
  5
3AC
  8
2
 10
254.28165171045211
 20
39.640957924104818
 30
0.000000254
 11
274.28165171045208
 21
39.640957924104818
 31
0.000000254
  0
ARC
  5
3AD
  8
2
 10
254.28165171045211
 20
44.64095792410486
 30
0.000000254
 40
4.9999999999999911
 50
90.0
 51
180.0
  0
ARC
  5
3AE
  8
2
 10
254.28165171045211
 20
44.64095792410486
 30
0.000000254
 40
4.9999999999999911
 50
180.0
 51
270.0
  0
ARC
  5
3AF
  8
2
 10
274.28165171045208
 20
44.64095792410486
 30
0.000000254
 40
4.9999999999999911
 50
0.0
 51
90.0
  0
ARC
  5
3B0
  8
2
 10
274.28165171045208
 20
44.64095792410486
 30
0.000000254
 40
4.9999999999999911
 50
270.0
 51
0.0
  0
CIRCLE
  5
3B1
  8
2
 10
235.0740704065189
 20
44.541058185678949
 30
0.000000254
 40
2.4999999999999991
  0
CIRCLE
  5
3B2
  8
2
 10
243.28165171045191
 20
44.640957670104747
 30
0.000000254
 40
2.4999999999999991
  0
LINE
  5
3B3
  8
2
 10
209.28165171045211
 20
49.640957924104789
 30
0.000000254
 11
224.28165171045211
 21
49.640957924104789
 31
0.000000254
  0
LINE
  5
3B4
  8
2
 10
209.28165171045211
 20
39.640957924104818
 30
0.000000254
 11
224.28165171045211
 21
39.640957924104818
 31
0.000000254
  0
ARC
  5
3B5
  8
2
 10
209.28165171045211
 20
44.64095792410486
 30
0.000000254
 40
4.9999999999999911
 50
90.0
 51
180.0
  0
ARC
  5
3B6
  8
2
 10
209.28165171045211
 20
44.64095792410486
 30
0.000000254
 40
4.9999999999999911
 50
180.0
 51
270.0
  0
ARC
  5
3B7
  8
2
 10
224.28165171045211
 20
44.64095792410486
 30
0.000000254
 40
4.9999999999999911
 50
0.0
 51
90.0
  0
ARC
  5
3B8
  8
2
 10
224.28165171045211
 20
44.64095792410486
 30
0.000000254
 40
4.9999999999999911
 50
270.0
 51
0.0
  0
LINE
  5
3B9
  8
1
 10
209.07062624809541
 20
111.4023011424223
 30
0.000000254
 11
209.07062624809541
 21
135.40230114242229
 31
0.000000254
  0
LINE
  5
3BA
  8
1
 10
209.07062624809541
 20
135.40230114242229
 30
0.000000254
 11
214.07062624809529
 21
135.40230114242229
 31
0.000000254
  0
LINE
  5
3BB
  8
1
 10
214.07062624809529
 20
135.40230114242229
 30
0.000000254
 11
214.07062624809529
 21
133.40230114242229
 31
0.000000254
  0
LINE
  5
3BC
  8
1
 10
214.07062624809529
 20
133.40230114242229
 30
0.000000254
 11
239.07062624809541
 21
133.40230114242229
 31
0.000000254
  0
LINE
  5
3BD
  8
1
 10
239.07062624809541
 20
133.40230114242229
 30
0.000000254
 11
239.07062624809541
 21
135.40230114242229
 31
0.000000254
  0
LINE
  5
3BE
  8
1
 10
239.07062624809541
 20
135.40230114242229
 30
0.000000254
 11
244.07062624809541
 21
135.40230114242229
 31
0.000000254
  0
LINE
  5
3BF
  8
1
 10
244.07062624809541
 20
135.40230114242229
 30
0.000000254
 11
244.07062624809541
 21
111.4023011424223
 31
0.000000254
  0
LINE
  5
3C0
  8
1
 10
244.07062624809541
 20
111.4023011424223
 30
0.000000254
 11
239.07062624809541
 21
111.4023011424223
 31
0.000000254
  0
LINE
  5
3C1
  8
1
 10
239.07062624809541
 20
111.4023011424223
 30
0.000000254
 11
239.07062624809541
 21
113.4023011424223
 31
0.000000254
  0
LINE
  5
3C2
  8
1
 10
239.07062624809541
 20
113.4023011424223
 30
0.000000254
 11
214.07062624809529
 21
113.4023011424223
 31
0.000000254
  0
LINE
  5
3C3
  8
1
 10
214.07062624809529
 20
113.4023011424223
 30
0.000000254
 11
214.07062624809529
 21
111.4023011424223
 31
0.000000254
  0
LINE
  5
3C4
  8
1
 10
214.07062624809529
 20
111.4023011424223
 30
0.000000254
 11
209.07062624809541
 21
111.4023011424223
 31
0.000000254
  0
LINE
  5
3C5
  8
2
 10
233.97735795899879
 20
118.4023011424222
 30
0.000000254
 11
219.2900436985349
 21
118.4023011424222
 31
0.000000254
  0
LINE
  5
3C6
  8
2
 10
233.97735795899879
 20
128.40230114242229
 30
0.000000254
 11
219.2900436985349
 21
128.40230114242229
 31
0.000000254
  0
ARC
  5
3C7
  8
2
 10
233.97735795899879
 20
123.4023011424223
 30
0.000000254
 40
4.9999999999999911
 50
270.0
 51
0.0
  0
ARC
  5
3C8
  8
2
 10
233.97735795899879
 20
123.4023011424223
 30
0.000000254
 40
4.9999999999999911
 50
0.0
 51
90.0
  0
ARC
  5
3C9
  8
2
 10
219.2900436985349
 20
123.4023011424223
 30
0.000000254
 40
4.9999999999999911
 50
180.0
 51
270.0
  0
ARC
  5
3CA
  8
2
 10
219.2900436985349
 20
123.4023011424223
 30
0.000000254
 40
4.9999999999999911
 50
90.0
 51
180.0
  0
LINE
  5
3CB
  8
1
 10
262.07062624809549
 20
143.40230114242229
 30
0.000000254
 11
273.0706263750954
 21
143.40230114242229
 31
0.000000254
  0
LINE
  5
3CC
  8
1
 10
273.0706263750954
 20
145.40230101542181
 30
0.000000254
 11
278.07062624809549
 21
145.40230101542181
 31
0.000000254
  0
LINE
  5
3CD
  8
1
 10
278.07062624809549
 20
145.40230101542181
 30
0.000000254
 11
278.07062624809549
 21
143.40230114242229
 31
0.000000254
  0
LINE
  5
3CE
  8
1
 10
278.07062624809549
 20
143.40230114242229
 30
0.000000254
 11
282.07062624809549
 21
143.40230114242229
 31
0.000000254
  0
LINE
  5
3CF
  8
1
 10
282.07062624809549
 20
143.40230114242229
 30
0.000000254
 11
282.07062624809549
 21
123.4023011424223
 31
0.000000254
  0
LINE
  5
3D0
  8
1
 10
262.07062624809549
 20
145.40230114242229
 30
0.000000254
 11
257.07062624809549
 21
145.40230114242229
 31
0.000000254
  0
LINE
  5
3D1
  8
1
 10
253.07062624809549
 20
143.40230114242229
 30
0.000000254
 11
257.07062637509551
 21
143.40230114242229
 31
0.000000254
  0
LINE
  5
3D2
  8
1
 10
257.07062637509551
 20
143.40230114242229
 30
0.000000254
 11
257.07062637509551
 21
145.40230114242229
 31
0.000000254
  0
LINE
  5
3D3
  8
1
 10
262.07062624809549
 20
145.40230114242229
 30
0.000000254
 11
262.07062624809549
 21
143.40230114242229
 31
0.000000254
  0
LINE
  5
3D4
  8
1
 10
253.07062624809549
 20
143.40230114242229
 30
0.000000254
 11
253.07062624809549
 21
123.4023011424223
 31
0.000000254
  0
LINE
  5
3D5
  8
1
 10
253.07062624809549
 20
123.4023011424223
 30
0.000000254
 11
257.07062637509551
 21
123.4023011424223
 31
0.000000254
  0
LINE
  5
3D6
  8
1
 10
257.07062637509551
 20
123.4023011424223
 30
0.000000254
 11
257.07062637509551
 21
121.4023011424223
 31
0.000000254
  0
LINE
  5
3D7
  8
1
 10
257.07062637509551
 20
121.4023011424223
 30
0.000000254
 11
262.07062624809549
 21
121.4023011424223
 31
0.000000254
  0
LINE
  5
3D8
  8
1
 10
262.07062624809549
 20
121.4023011424223
 30
0.000000254
 11
262.07062624809549
 21
123.4023011424223
 31
0.000000254
  0
LINE
  5
3D9
  8
1
 10
262.07062624809549
 20
123.4023011424223
 30
0.000000254
 11
273.0706263750954
 21
123.4023011424223
 31
0.000000254
  0
LINE
  5
3DA
  8
1
 10
273.0706263750954
 20
123.4023011424223
 30
0.000000254
 11
273.0706263750954
 21
121.4023011424223
 31
0.000000254
  0
LINE
  5
3DB
  8
1
 10
273.07062624809538
 20
121.4023011424223
 30
0.000000254
 11
278.07062624809549
 21
121.4023011424223
 31
0.000000254
  0
LINE
  5
3DC
  8
1
 10
278.07062624809549
 20
121.4023011424223
 30
0.000000254
 11
278.07062624809549
 21
123.4023011424223
 31
0.000000254
  0
LINE
  5
3DD
  8
1
 10
278.07062624809549
 20
123.4023011424223
 30
0.000000254
 11
282.07062624809549
 21
123.4023011424223
 31
0.000000254
  0
LINE
  5
3DE
  8
2
 10
264.07062624809549
 20
138.40230114242229
 30
0.000000254
 11
271.07062624809538
 21
138.40230114242229
 31
0.000000254
  0
LINE
  5
3DF
  8
2
 10
264.07062624809549
 20
128.4023011424224
 30
0.000000254
 11
271.07062624809538
 21
128.4023011424224
 31
0.000000254
  0
ARC
  5
3E0
  8
2
 10
271.07062624809538
 20
133.40230114242229
 30
0.000000254
 40
5.0000000000000346
 50
270.0
 51
90.0
  0
ARC
  5
3E1
  8
2
 10
264.07062624809549
 20
133.40230114242229
 30
0.000000254
 40
5.0000000000000346
 50
90.0
 51
270.0
  0
LINE
  5
3E2
  8
1
 10
273.0706263750954
 20
145.40230101542181
 30
0.000000254
 11
273.0706263750954
 21
143.40230114242229
 31
0.000000254
  0
LINE
  5
3E4
  8
1
 10
348.0
 20
225.88500376575001
 30
0.000000254
 11
348.0
 21
235.8850037657501
 31
0.000000254
  0
ARC
  5
3E5
  8
2
 10
336.99999999999989
 20
163.885003861
 30
0.000000254
 40
3.0
 50
90.0
 51
180.0
  0
POLYLINE
  5
3E6
  8
2
 66
     1
 10
0.0
 20
0.0
 30
0.0
 70
     1
  0
VERTEX
  5
ABD
  8
2
 10
327.89999999999998
 20
85.785003861000163
 30
0.0
  0
VERTEX
  5
ABE
  8
2
 10
327.89999999999998
 20
95.985003861000109
 30
0.0
  0
VERTEX
  5
ABF
  8
2
 10
330.10000000000002
 20
95.985003861000109
 30
0.0
  0
VERTEX
  5
AC0
  8
2
 10
330.10000000000002
 20
85.785003861000163
 30
0.0
  0
SEQEND
  5
AC1
  8
2
  0
POLYLINE
  5
3E7
  8
2
 66
     1
 10
0.0
 20
0.0
 30
0.0
 70
     1
  0
VERTEX
  5
AC2
  8
2
 10
327.89999999999998
 20
125.78500386100011
 30
0.0
  0
VERTEX
  5
AC3
  8
2
 10
327.89999999999998
 20
135.98500386100011
 30
0.0
  0
VERTEX
  5
AC4
  8
2
 10
330.10000000000002
 20
135.98500386100011
 30
0.0
  0
VERTEX
  5
AC5
  8
2
 10
330.10000000000002
 20
125.78500386100011
 30
0.0
  0
SEQEND
  5
AC6
  8
2
  0
POLYLINE
  5
3E8
  8
2
 66
     1
 10
0.0
 20
0.0
 30
0.0
 70
     1
  0
VERTEX
  5
AC7
  8
2
 10
327.89999999999998
 20
170.78500386100009
 30
0.0
  0
VERTEX
  5
AC8
  8
2
 10
327.89999999999998
 20
180.98500386100011
 30
0.0
  0
VERTEX
  5
AC9
  8
2
 10
330.10000000000002
 20
180.98500386100011
 30
0.0
  0
VERTEX
  5
ACA
  8
2
 10
330.10000000000002
 20
170.78500386100009
 30
0.0
  0
SEQEND
  5
ACB
  8
2
  0
POLYLINE
  5
3E9
  8
2
 66
     1
 10
0.0
 20
0.0
 30
0.0
 70
     1
  0
VERTEX
  5
ACC
  8
2
 10
327.89999999999998
 20
205.78500386100009
 30
0.0
  0
VERTEX
  5
ACD
  8
2
 10
327.89999999999998
 20
210.98500386100011
 30
0.0
  0
VERTEX
  5
ACE
  8
2
 10
330.10000000000002
 20
210.98500386100011
 30
0.0
  0
VERTEX
  5
ACF
  8
2
 10
330.10000000000002
 20
205.78500386100009
 30
0.0
  0
SEQEND
  5
AD0
  8
2
  0
POLYLINE
  5
3EA
  8
2
 66
     1
 10
0.0
 20
0.0
 30
0.0
 70
     1
  0
VERTEX
  5
AD1
  8
2
 10
327.89999999999992
 20
23.785003861000181
 30
0.0
  0
VERTEX
  5
AD2
  8
2
 10
327.89999999999992
 20
28.985003861000159
 30
0.0
  0
VERTEX
  5
AD3
  8
2
 10
330.10000000000002
 20
28.985003861000159
 30
0.0
  0
VERTEX
  5
AD4
  8
2
 10
330.10000000000002
 20
23.785003861000181
 30
0.0
  0
SEQEND
  5
AD5
  8
2
  0
ARC
  5
3EB
  8
1
  6
CONTINUOUS
 62
     7
 10
326.00273062090469
 20
40.8850041150002
 30
0.000000254
 40
20.0
 50
270.0
 51
352.17193299328801
  0
POLYLINE
  5
3EC
  8
1
  6
CONTINUOUS
 62
     7
 66
     1
 10
0.0
 20
0.0
 30
0.0
  0
VERTEX
  5
AD6
  8
1
  6
CONTINUOUS
 62
     7
 10
355.30939360200131
 20
129.25782762843119
 30
0.0
  0
VERTEX
  5
AD7
  8
1
  6
CONTINUOUS
 62
     7
 10
345.81635541578243
 20
38.160986404373261
 30
0.0
  0
SEQEND
  5
AD8
  8
1
  6
CONTINUOUS
 62
     7
  0
LINE
  5
3ED
  8
1
  6
CONTINUOUS
 62
     7
 10
346.00273087490478
 20
225.88500376575001
 30
0.000000254
 11
346.00273087490478
 21
215.8850037657499
 31
0.000000254
  0
LINE
  5
3EE
  8
1
 62
     7
 10
345.9999997459999
 20
199.9072015735822
 30
0.000000254
 11
345.99999974600001
 21
205.88500386100009
 31
0.000000254
  0
LINE
  5
3EF
  8
1
 62
     7
 10
327.99863430854759
 20
31.8850039880002
 30
0.000000254
 11
327.99999974600013
 21
80.885003988000221
 31
0.000000254
  0
LINE
  5
3F0
  8
1
 62
     7
 10
327.99863430854759
 20
31.8850039880002
 30
0.000000254
 11
326.00136518345221
 21
31.885003988000211
 31
0.000000254
  0
LINE
  5
3F1
  8
1
 62
     7
 10
327.99999974600013
 20
80.885003988000221
 30
0.000000254
 11
326.0027306209048
 21
80.885003988000221
 31
0.000000254
  0
LINE
  5
3F2
  8
1
 10
346.0
 20
205.8850037657501
 30
0.000000254
 11
348.0
 21
205.8850037657501
 31
0.000000254
  0
LINE
  5
3F3
  8
1
 10
348.0
 20
205.8850037657501
 30
0.000000254
 11
348.0
 21
215.88500376575001
 31
0.000000254
  0
LINE
  5
3F4
  8
1
 10
348.0
 20
215.88500376575001
 30
0.000000254
 11
346.00273087490478
 21
215.88500376575001
 31
0.000000254
  0
LINE
  5
3F5
  8
1
 10
346.00273087490478
 20
225.88500376575001
 30
0.000000254
 11
348.0
 21
225.88500376575001
 31
0.000000254
  0
LINE
  5
3F6
  8
1
 10
326.0
 20
205.8850037657501
 30
0.000000254
 11
324.0
 21
205.8850037657501
 31
0.000000254
  0
LINE
  5
3F7
  8
1
 10
324.0
 20
205.8850037657501
 30
0.000000254
 11
324.0
 21
215.88500376575001
 31
0.000000254
  0
LINE
  5
3F8
  8
1
 10
324.0
 20
215.88500376575001
 30
0.000000254
 11
326.0
 21
215.88500376575001
 31
0.000000254
  0
LINE
  5
3F9
  8
1
 10
326.0
 20
215.88500376575001
 30
0.000000254
 11
326.0
 21
225.88500376575001
 31
0.000000254
  0
LINE
  5
3FA
  8
1
 10
326.0
 20
225.88500376575001
 30
0.000000254
 11
324.0
 21
225.88500376575001
 31
0.000000254
  0
LINE
  5
3FB
  8
1
 10
324.0
 20
225.88500376575001
 30
0.000000254
 11
324.0
 21
235.8850037657501
 31
0.000000254
  0
LINE
  5
3FC
  8
1
 10
326.00273062090469
 20
20.8850041150002
 30
0.000000254
 11
326.00136518345221
 21
31.885003988000211
 31
0.000000254
  0
LINE
  5
3FD
  8
1
 10
362.38205625408858
 20
137.79962094042679
 30
0.000000254
 11
418.67967646831579
 21
153.45823138219839
 31
0.000000254
  0
LINE
  5
3FE
  8
1
 10
355.33480964076222
 20
189.92934999501611
 30
0.000000254
 11
416.6651898512373
 21
185.8406579809843
 31
0.000000254
  0
ARC
  5
3FF
  8
1
  6
CONTINUOUS
 62
     7
 10
365.2555351097522
 20
128.22135808821531
 30
0.000000254
 40
9.9999999999999982
 50
106.6992442339938
 51
174.05078260603949
  0
LINE
  5
400
  8
1
 10
425.99999974599962
 20
163.09251042444521
 30
0.000000254
 11
425.99999974599962
 21
175.86280640241819
 31
0.000000254
  0
ARC
  5
401
  8
1
 10
355.99999974599979
 20
199.90720157358211
 30
0.000000254
 40
9.9999999999999982
 50
180.00000000000011
 51
266.18592516570982
  0
ARC
  5
402
  8
1
 10
415.99999974599962
 20
163.09251042444521
 30
0.000000254
 40
9.9999999999999982
 50
285.5433672280314
 51
0.0000000000000799
  0
ARC
  5
403
  8
1
 10
415.99999974599962
 20
175.86280640241819
 30
0.000000254
 40
9.9999999999999982
 50
0.0000000000000509
 51
86.185925165709577
  0
LINE
  5
404
  8
2
 10
336.9999997459999
 20
65.885003988000207
 30
0.000000254
 11
338.81036029675153
 21
65.885003988000207
 31
0.000000254
  0
LINE
  5
405
  8
2
 10
339.95703324528989
 20
70.885003988000236
 30
0.000000254
 11
336.9999997459999
 21
70.885003988000236
 31
0.000000254
  0
LINE
  5
406
  8
2
 10
336.9999997459999
 20
95.885003988000236
 30
0.000000254
 11
341.93765015640162
 21
95.885003988000236
 31
0.000000254
  0
LINE
  5
407
  8
2
 10
336.9999997459999
 20
100.88500398800009
 30
0.000000254
 11
343.08432310493993
 21
100.88500398800009
 31
0.000000254
  0
LINE
  5
408
  8
2
 10
333.99999974600001
 20
44.013312912860719
 30
0.000000254
 11
333.99999974600001
 21
62.885003988000243
 31
0.000000254
  0
LINE
  5
409
  8
2
 10
339.82626233594181
 20
43.695668382491966
 30
0.000000254
 11
341.79419204542529
 21
62.573960428982531
 31
0.000000254
  0
LINE
  5
40A
  8
2
 10
333.99999974599979
 20
103.88500398800019
 30
0.000000254
 11
333.99999974599979
 21
132.88500386100009
 31
0.000000254
  0
LINE
  5
40B
  8
2
 10
333.99999974600001
 20
73.885003988000179
 30
0.000000254
 11
333.99999974600001
 21
92.885003988000207
 31
0.000000254
  0
LINE
  5
40C
  8
2
 10
342.94086499396371
 20
73.573960428982559
 30
0.000000254
 11
344.92148190507532
 21
92.573960428982545
 31
0.000000254
  0
ARC
  5
40D
  8
2
 10
336.9999997459999
 20
62.885003988000243
 30
0.000000254
 40
3.0
 50
90.0
 51
180.0
  0
ARC
  5
40E
  8
2
 10
336.9999997459999
 20
73.885003988000179
 30
0.000000254
 40
3.0
 50
180.0
 51
270.0
  0
ARC
  5
40F
  8
2
 10
338.81036029675153
 20
62.885003988000243
 30
0.000000254
 40
3.0
 50
354.04881061434833
 51
90.000000000000881
  0
ARC
  5
410
  8
2
 10
336.8424305872681
 20
44.006711941509607
 30
0.000000254
 40
3.0
 50
273.15188160280297
 51
354.04881061434838
  0
ARC
  5
411
  8
2
 10
336.9999997459999
 20
44.013312912860719
 30
0.000000254
 40
3.0
 50
180.0
 51
271.64584385605821
  0
ARC
  5
412
  8
2
 10
339.95703324528989
 20
73.885003988000179
 30
0.000000254
 40
3.0
 50
270.0
 51
354.04881061434833
  0
ARC
  5
413
  8
2
 10
341.93765015640162
 20
92.885003988000207
 30
0.000000254
 40
3.0
 50
354.04881061434838
 51
90.0
  0
ARC
  5
414
  8
2
 10
336.9999997459999
 20
92.885003988000207
 30
0.000000254
 40
3.0
 50
90.0
 51
180.0
  0
ARC
  5
415
  8
2
 10
336.9999997459999
 20
103.88500398800019
 30
0.000000254
 40
3.0
 50
180.0
 51
270.00000000000171
  0
ARC
  5
416
  8
2
 10
343.08432310493993
 20
103.88500398800019
 30
0.000000254
 40
3.0
 50
270.0
 51
354.04881061434821
  0
ARC
  5
417
  8
2
 10
337.17232840984002
 20
38.015788187474499
 30
0.000000254
 40
3.0
 50
91.645843856058718
 51
93.151881602803073
  0
POLYLINE
  5
418
  8
2
 66
     1
 10
0.0
 20
0.0
 30
0.0
 70
     1
  0
VERTEX
  5
AD9
  8
2
 10
413.88764256788608
 20
158.68500398799989
 30
0.0
  0
VERTEX
  5
ADA
  8
2
 10
413.88764256788608
 20
164.08719444446149
 30
0.0
  0
VERTEX
  5
ADB
  8
2
 10
416.19999999999959
 20
164.08719444446149
 30
0.0
  0
VERTEX
  5
ADC
  8
2
 10
416.19999999999959
 20
158.68500398799989
 30
0.0
  0
SEQEND
  5
ADD
  8
2
  0
POLYLINE
  5
419
  8
2
 66
     1
 10
0.0
 20
0.0
 30
0.0
 70
     1
  0
VERTEX
  5
ADE
  8
2
 10
413.88764256788608
 20
174.68500398799989
 30
0.0
  0
VERTEX
  5
ADF
  8
2
 10
413.88764256788608
 20
180.0871944444614
 30
0.0
  0
VERTEX
  5
AE0
  8
2
 10
416.19999999999959
 20
180.0871944444614
 30
0.0
  0
VERTEX
  5
AE1
  8
2
 10
416.19999999999959
 20
174.68500398799989
 30
0.0
  0
SEQEND
  5
AE2
  8
2
  0
POLYLINE
  5
41A
  8
2
 66
     1
 10
0.0
 20
0.0
 30
0.0
 70
     1
  0
VERTEX
  5
AE3
  8
2
 10
364.88764256788647
 20
145.68500398800001
 30
0.0
  0
VERTEX
  5
AE4
  8
2
 10
364.88764256788647
 20
151.0850039879999
 30
0.0
  0
VERTEX
  5
AE5
  8
2
 10
367.2000000000001
 20
151.0850039879999
 30
0.0
  0
VERTEX
  5
AE6
  8
2
 10
367.2000000000001
 20
145.68500398800001
 30
0.0
  0
SEQEND
  5
AE7
  8
2
  0
POLYLINE
  5
41B
  8
2
 66
     1
 10
0.0
 20
0.0
 30
0.0
 70
     1
  0
VERTEX
  5
AE8
  8
2
 10
364.88764256788647
 20
175.68500398799989
 30
0.0
  0
VERTEX
  5
AE9
  8
2
 10
364.88764256788647
 20
181.0871944444614
 30
0.0
  0
VERTEX
  5
AEA
  8
2
 10
367.2000000000001
 20
181.0871944444614
 30
0.0
  0
VERTEX
  5
AEB
  8
2
 10
367.2000000000001
 20
175.68500398799989
 30
0.0
  0
SEQEND
  5
AEC
  8
2
  0
LINE
  5
41C
  8
2
 10
349.37491955181599
 20
140.8850038610002
 30
0.000000254
 11
336.99999999999989
 21
140.8850038610002
 31
0.000000254
  0
LINE
  5
41D
  8
2
 10
334.0
 20
174.88500386100009
 30
0.000000254
 11
334.0
 21
181.4689478967457
 31
0.000000254
  0
LINE
  5
41E
  8
2
 10
334.0
 20
143.88500386100009
 30
0.000000254
 11
334.0
 21
163.885003861
 31
0.000000254
  0
LINE
  5
41F
  8
2
 10
361.0
 20
174.88500386100009
 30
0.000000254
 11
361.0
 21
180.0371297149274
 31
0.000000254
  0
LINE
  5
420
  8
2
 10
361.0
 20
146.33723261587591
 30
0.000000254
 11
361.0
 21
163.885003861
 31
0.000000254
  0
LINE
  5
421
  8
2
 10
370.99999999999977
 20
174.88500386100009
 30
0.000000254
 11
370.99999999999977
 21
178.94622062401831
 31
0.000000254
  0
LINE
  5
422
  8
2
 10
370.99999999999977
 20
150.8862522237192
 30
0.000000254
 11
370.99999999999977
 21
163.885003861
 31
0.000000254
  0
LINE
  5
423
  8
2
 10
391.0
 20
174.88500386100009
 30
0.000000254
 11
391.0
 21
177.99167516947281
 31
0.000000254
  0
LINE
  5
424
  8
2
 10
391.0
 20
154.86664438058179
 30
0.000000254
 11
391.0
 21
163.885003861
 31
0.000000254
  0
LINE
  5
425
  8
2
 10
396.0
 20
174.88500386100009
 30
0.000000254
 11
396.0
 21
177.2416751694729
 31
0.000000254
  0
LINE
  5
426
  8
2
 10
396.0
 20
157.99409536097389
 30
0.000000254
 11
396.0
 21
163.885003861
 31
0.000000254
  0
LINE
  5
427
  8
2
 10
410.99999999999949
 20
174.88500386100009
 30
0.000000254
 11
410.99999999999949
 21
176.6280388058365
 31
0.000000254
  0
LINE
  5
428
  8
2
 10
410.99999999999949
 20
160.5529188903856
 30
0.000000254
 11
410.99999999999949
 21
163.885003861
 31
0.000000254
  0
LINE
  5
429
  8
2
 10
350.19534575518838
 20
140.99936686982821
 30
0.000000254
 11
358.82042620337228
 21
143.451595624704
 31
0.000000254
  0
LINE
  5
42A
  8
2
 10
358.0
 20
166.885003861
 30
0.000000254
 11
336.99999999999989
 21
166.88500386100009
 31
0.000000254
  0
LINE
  5
42B
  8
2
 10
358.0
 20
171.88500386100009
 30
0.000000254
 11
336.99999999999989
 21
171.88500386100009
 31
0.000000254
  0
LINE
  5
42C
  8
2
 10
358.20407166441208
 20
183.030180792972
 30
0.000000254
 11
337.20407166441208
 21
184.4619989747903
 31
0.000000254
  0
LINE
  5
42D
  8
2
 10
399.82042620337228
 20
155.10845836980201
 30
0.000000254
 11
408.82042620337188
 21
157.66728189921369
 31
0.000000254
  0
LINE
  5
42E
  8
2
 10
374.82042620337228
 20
148.00061523254709
 30
0.000000254
 11
388.82042620337239
 21
151.98100738940991
 31
0.000000254
  0
LINE
  5
42F
  8
2
 10
388.0
 20
166.885003861
 30
0.000000254
 11
374.0
 21
166.885003861
 31
0.000000254
  0
LINE
  5
430
  8
2
 10
407.99999999999972
 20
166.885003861
 30
0.000000254
 11
399.0
 21
166.885003861
 31
0.000000254
  0
LINE
  5
431
  8
2
 10
388.0
 20
171.88500386100009
 30
0.000000254
 11
374.0
 21
171.88500386100009
 31
0.000000254
  0
LINE
  5
432
  8
2
 10
407.99999999999972
 20
171.88500386100009
 30
0.000000254
 11
399.0
 21
171.88500386100009
 31
0.000000254
  0
LINE
  5
433
  8
2
 10
388.20407166441208
 20
180.9847262475173
 30
0.000000254
 11
374.2040716644122
 21
181.939271702063
 31
0.000000254
  0
LINE
  5
434
  8
2
 10
408.20407166441157
 20
179.6210898838811
 30
0.000000254
 11
399.2040716644122
 21
180.2347262475175
 31
0.000000254
  0
ARC
  5
435
  8
2
 10
374.0
 20
150.8862522237192
 30
0.000000254
 40
3.0
 50
180.0
 51
285.87117861145663
  0
ARC
  5
436
  8
2
 10
374.0
 20
163.885003861
 30
0.000000254
 40
3.0
 50
90.0
 51
180.0
  0
ARC
  5
437
  8
2
 10
388.0
 20
154.86664438058179
 30
0.000000254
 40
3.0
 50
285.87117861145617
 51
0.0000000000000799
  0
ARC
  5
438
  8
2
 10
388.0
 20
163.885003861
 30
0.000000254
 40
3.0
 50
0.0000000000000509
 51
90.0
  0
ARC
  5
439
  8
2
 10
399.0
 20
157.99409536097389
 30
0.000000254
 40
3.0
 50
180.00000000000011
 51
285.8711786114568
  0
ARC
  5
43A
  8
2
 10
399.0
 20
163.885003861
 30
0.000000254
 40
3.0
 50
90.000000000000881
 51
180.0
  0
ARC
  5
43B
  8
2
 10
407.99999999999972
 20
160.5529188903856
 30
0.000000254
 40
3.0
 50
285.87117861145771
 51
0.0000000000000799
  0
ARC
  5
43C
  8
2
 10
407.99999999999972
 20
163.885003861
 30
0.000000254
 40
3.0
 50
0.0000000000000509
 51
90.0
  0
ARC
  5
43D
  8
2
 10
407.99999999999972
 20
174.88500386100009
 30
0.000000254
 40
3.0
 50
270.0
 51
0.0000000000000799
  0
ARC
  5
43E
  8
2
 10
407.99999999999972
 20
176.6280388058365
 30
0.000000254
 40
3.0
 50
0.0000000000000509
 51
86.099506257618486
  0
ARC
  5
43F
  8
2
 10
399.0
 20
177.2416751694729
 30
0.000000254
 40
3.0
 50
86.099506257618955
 51
180.00000000000011
  0
ARC
  5
440
  8
2
 10
399.0
 20
174.88500386100009
 30
0.000000254
 40
3.0
 50
180.0
 51
270.0000000000008
  0
ARC
  5
441
  8
2
 10
388.0
 20
174.88500386100009
 30
0.000000254
 40
3.0
 50
269.99999999999909
 51
0.0000000000000799
  0
ARC
  5
442
  8
2
 10
388.0
 20
177.99167516947281
 30
0.000000254
 40
3.0
 50
0.0000000000000509
 51
86.099506257618586
  0
ARC
  5
443
  8
2
 10
374.0
 20
178.94622062401831
 30
0.000000254
 40
3.0
 50
86.099506257617804
 51
180.0
  0
ARC
  5
444
  8
2
 10
374.0
 20
174.88500386100009
 30
0.000000254
 40
3.0
 50
180.0
 51
269.99999999999909
  0
ARC
  5
445
  8
2
 10
358.0
 20
163.885003861
 30
0.000000254
 40
3.0
 50
0.0000000000000509
 51
90.0
  0
ARC
  5
446
  8
2
 10
358.0
 20
174.88500386100009
 30
0.000000254
 40
3.0
 50
270.0
 51
0.0000000000000799
  0
ARC
  5
447
  8
2
 10
358.0
 20
180.0371297149274
 30
0.000000254
 40
3.0
 50
0.0000000000000509
 51
86.099506257617378
  0
ARC
  5
448
  8
2
 10
336.99999999999989
 20
174.88500386100009
 30
0.000000254
 40
3.0
 50
180.0
 51
270.0
  0
ARC
  5
449
  8
2
 10
336.99999999999989
 20
181.4689478967457
 30
0.000000254
 40
3.0
 50
86.099506257617975
 51
180.0
  0
ARC
  5
44A
  8
2
 10
336.99999999999989
 20
143.88500386100009
 30
0.000000254
 40
3.0
 50
180.0
 51
270.0000000000008
  0
ARC
  5
44B
  8
2
 10
349.37491955181599
 20
143.88500386100009
 30
0.000000254
 40
3.0
 50
269.9999999999992
 51
285.8711786114568
  0
LINE
  5
44C
  8
2
 10
336.9999997459999
 20
135.88500386100009
 30
0.000000254
 11
346.24077421854622
 21
135.88500386100009
 31
0.000000254
  0
ARC
  5
44D
  8
2
 10
346.24077421854622
 20
132.88500386100009
 30
0.000000254
 40
3.0
 50
353.78813936133929
 51
90.0
  0
ARC
  5
44E
  8
2
 10
336.9999997459999
 20
132.88500386100009
 30
0.000000254
 40
3.0
 50
90.0
 51
180.0
  0
ARC
  5
44F
  8
2
 10
358.0
 20
146.33723261587591
 30
0.000000254
 40
3.0
 50
285.8711786114568
 51
0.0000000000000799
  0
LINE
  5
450
  8
2
 10
346.06815485361369
 20
103.5739604289825
 30
0.000000254
 11
349.22315997662992
 21
132.56038841161799
 31
0.000000254
  0
LINE
  5
451
  8
1
  6
CONTINUOUS
 62
     7
 10
326.0027306209048
 20
80.885003988000221
 30
0.000000254
 11
325.99999999999977
 21
205.88500386100009
 31
0.000000254
  0
LINE
  5
452
  8
1
  6
CONTINUOUS
 62
     7
 10
326.0027306209048
 20
80.885003988000221
 30
0.000000254
 11
325.99999999999977
 21
205.88500386100009
 31
0.000000254
  0
CIRCLE
  5
453
  8
2
 10
336.99999999999989
 20
35.885003987999987
 30
0.000000254
 40
2.549999999999998
  0
POLYLINE
  5
454
  8
2
 66
     1
 10
0.0
 20
0.0
 30
0.0
 70
     1
  0
VERTEX
  5
AED
  8
2
 10
353.39411017208528
 20
128.18118477528211
 30
0.0
  0
VERTEX
  5
AEE
  8
2
 10
352.85033319804558
 20
123.0074924624552
 30
0.0
  0
VERTEX
  5
AEF
  8
2
 10
350.66044790502832
 20
123.23765868149729
 30
0.0
  0
VERTEX
  5
AF0
  8
2
 10
351.20422487906802
 20
128.4113509943241
 30
0.0
  0
SEQEND
  5
AF1
  8
2
  0
POLYLINE
  5
455
  8
2
 66
     1
 10
0.0
 20
0.0
 30
0.0
 70
     1
  0
VERTEX
  5
AF2
  8
2
 10
350.78089859039409
 20
103.3181373910752
 30
0.0
  0
VERTEX
  5
AF3
  8
2
 10
350.23712161635439
 20
98.144445078248793
 30
0.0
  0
VERTEX
  5
AF4
  8
2
 10
348.04723632333702
 20
98.374611297290855
 30
0.0
  0
VERTEX
  5
AF5
  8
2
 10
348.591013297377
 20
103.5483036101172
 30
0.0
  0
SEQEND
  5
AF6
  8
2
  0
POLYLINE
  5
456
  8
2
 66
     1
 10
0.0
 20
0.0
 30
0.0
 70
     1
  0
VERTEX
  5
AF7
  8
2
 10
348.16768700870279
 20
78.455090006868446
 30
0.0
  0
VERTEX
  5
AF8
  8
2
 10
347.62391003466308
 20
73.28139769404163
 30
0.0
  0
VERTEX
  5
AF9
  8
2
 10
345.43402474164571
 20
73.511563913083691
 30
0.0
  0
VERTEX
  5
AFA
  8
2
 10
345.97780171568547
 20
78.685256225910479
 30
0.0
  0
SEQEND
  5
AFB
  8
2
  0
POLYLINE
  5
457
  8
2
 66
     1
 10
0.0
 20
0.0
 30
0.0
 70
     1
  0
VERTEX
  5
AFC
  8
2
 10
345.55447542701131
 20
53.592042622661459
 30
0.0
  0
VERTEX
  5
AFD
  8
2
 10
345.01069845297201
 20
48.418350309834793
 30
0.0
  0
VERTEX
  5
AFE
  8
2
 10
342.8208131599543
 20
48.648516528876762
 30
0.0
  0
VERTEX
  5
AFF
  8
2
 10
343.36459013399423
 20
53.822208841703713
 30
0.0
  0
SEQEND
  5
B00
  8
2
  0
ARC
  5
458
  8
1
 10
335.99999999999989
 20
240.88500398799991
 30
0.000000254
 40
7.9999999999999831
 50
218.68219124033229
 51
321.31780875966751
  0
LINE
  5
459
  8
1
 10
342.24499766793389
 20
235.88500357525001
 30
0.000000254
 11
348.00000000000028
 21
235.88500357525001
 31
0.000000254
  0
LINE
  5
45A
  8
1
 10
324.0
 20
235.88500357525001
 30
0.000000254
 11
329.755002332066
 21
235.88500357525001
 31
0.000000254
  0
LINE
  5
45B
  8
1
 10
455.5457907561937
 20
30.000000063500011
 30
0.000000254
 11
455.5457907561937
 21
20.000000063499929
 31
0.000000254
  0
ARC
  5
45C
  8
2
 10
466.54579075619381
 20
91.999999968250037
 30
0.000000254
 40
3.0
 50
270.0
 51
0.0000000000000799
  0
POLYLINE
  5
45D
  8
2
 66
     1
 10
0.0
 20
0.0
 30
0.0
 70
     1
  0
VERTEX
  5
B01
  8
2
 10
475.64579075619378
 20
170.0999999682499
 30
0.0
  0
VERTEX
  5
B02
  8
2
 10
475.64579075619378
 20
159.89999996824989
 30
0.0
  0
VERTEX
  5
B03
  8
2
 10
473.44579075619379
 20
159.89999996824989
 30
0.0
  0
VERTEX
  5
B04
  8
2
 10
473.44579075619379
 20
170.0999999682499
 30
0.0
  0
SEQEND
  5
B05
  8
2
  0
POLYLINE
  5
45E
  8
2
 66
     1
 10
0.0
 20
0.0
 30
0.0
 70
     1
  0
VERTEX
  5
B06
  8
2
 10
475.64579075619378
 20
130.0999999682499
 30
0.0
  0
VERTEX
  5
B07
  8
2
 10
475.64579075619378
 20
119.8999999682499
 30
0.0
  0
VERTEX
  5
B08
  8
2
 10
473.44579075619379
 20
119.8999999682499
 30
0.0
  0
VERTEX
  5
B09
  8
2
 10
473.44579075619379
 20
130.0999999682499
 30
0.0
  0
SEQEND
  5
B0A
  8
2
  0
POLYLINE
  5
45F
  8
2
 66
     1
 10
0.0
 20
0.0
 30
0.0
 70
     1
  0
VERTEX
  5
B0B
  8
2
 10
475.64579075619378
 20
85.099999968249989
 30
0.0
  0
VERTEX
  5
B0C
  8
2
 10
475.64579075619378
 20
74.899999968249972
 30
0.0
  0
VERTEX
  5
B0D
  8
2
 10
473.44579075619379
 20
74.899999968249972
 30
0.0
  0
VERTEX
  5
B0E
  8
2
 10
473.44579075619379
 20
85.099999968249989
 30
0.0
  0
SEQEND
  5
B0F
  8
2
  0
POLYLINE
  5
460
  8
2
 66
     1
 10
0.0
 20
0.0
 30
0.0
 70
     1
  0
VERTEX
  5
B10
  8
2
 10
475.64579075619378
 20
50.09999996825001
 30
0.0
  0
VERTEX
  5
B11
  8
2
 10
475.64579075619378
 20
44.899999968250029
 30
0.0
  0
VERTEX
  5
B12
  8
2
 10
473.44579075619379
 20
44.899999968250029
 30
0.0
  0
VERTEX
  5
B13
  8
2
 10
473.44579075619379
 20
50.09999996825001
 30
0.0
  0
SEQEND
  5
B14
  8
2
  0
POLYLINE
  5
461
  8
2
 66
     1
 10
0.0
 20
0.0
 30
0.0
 70
     1
  0
VERTEX
  5
B15
  8
2
 10
475.64579075619378
 20
232.0999999682499
 30
0.0
  0
VERTEX
  5
B16
  8
2
 10
475.64579075619378
 20
226.89999996824989
 30
0.0
  0
VERTEX
  5
B17
  8
2
 10
473.44579075619379
 20
226.89999996824989
 30
0.0
  0
VERTEX
  5
B18
  8
2
 10
473.44579075619379
 20
232.0999999682499
 30
0.0
  0
SEQEND
  5
B19
  8
2
  0
ARC
  5
462
  8
1
  6
CONTINUOUS
 62
     7
 10
477.54306013528901
 20
214.9999997142499
 30
0.000000254
 40
20.0
 50
89.999999999999986
 51
172.17193299328801
  0
POLYLINE
  5
463
  8
1
  6
CONTINUOUS
 62
     7
 66
     1
 10
0.0
 20
0.0
 30
0.0
  0
VERTEX
  5
B1A
  8
1
  6
CONTINUOUS
 62
     7
 10
448.23639715419228
 20
126.62717620081889
 30
0.0
  0
VERTEX
  5
B1B
  8
1
  6
CONTINUOUS
 62
     7
 10
457.72943534041138
 20
217.72401742487679
 30
0.0
  0
SEQEND
  5
B1C
  8
1
  6
CONTINUOUS
 62
     7
  0
LINE
  5
464
  8
1
  6
CONTINUOUS
 62
     7
 10
457.54305988128891
 20
30.000000063500011
 30
0.000000254
 11
457.54305988128891
 21
40.000000063500089
 31
0.000000254
  0
LINE
  5
465
  8
1
 62
     7
 10
457.54579101019368
 20
55.977802255667861
 30
0.000000254
 11
457.54579101019368
 21
49.999999968249952
 31
0.000000254
  0
LINE
  5
466
  8
1
 62
     7
 10
475.54715644764627
 20
223.99999984124989
 30
0.000000254
 11
475.54579101019368
 21
174.99999984124989
 31
0.000000254
  0
LINE
  5
467
  8
1
 62
     7
 10
475.54715644764627
 20
223.99999984124989
 30
0.000000254
 11
477.5444255727416
 21
223.99999984124989
 31
0.000000254
  0
LINE
  5
468
  8
1
 62
     7
 10
475.54579101019368
 20
174.99999984124989
 30
0.000000254
 11
477.54306013528901
 21
174.99999984124989
 31
0.000000254
  0
LINE
  5
469
  8
1
 10
457.54579075619381
 20
50.000000063500032
 30
0.000000254
 11
455.5457907561937
 21
50.000000063500032
 31
0.000000254
  0
LINE
  5
46A
  8
1
 10
455.5457907561937
 20
50.000000063500032
 30
0.000000254
 11
455.5457907561937
 21
40.000000063499989
 31
0.000000254
  0
LINE
  5
46B
  8
1
 10
455.5457907561937
 20
40.000000063499989
 30
0.000000254
 11
457.54305988128891
 21
40.000000063499989
 31
0.000000254
  0
LINE
  5
46C
  8
1
 10
457.54305988128891
 20
30.000000063500011
 30
0.000000254
 11
455.5457907561937
 21
30.000000063500011
 31
0.000000254
  0
LINE
  5
46D
  8
1
 10
477.54579075619358
 20
50.000000063500032
 30
0.000000254
 11
479.54579075619381
 21
50.000000063500032
 31
0.000000254
  0
LINE
  5
46E
  8
1
 10
479.54579075619381
 20
50.000000063500032
 30
0.000000254
 11
479.54579075619381
 21
40.000000063499989
 31
0.000000254
  0
LINE
  5
46F
  8
1
 10
479.54579075619381
 20
40.000000063499989
 30
0.000000254
 11
477.54579075619358
 21
40.000000063499989
 31
0.000000254
  0
LINE
  5
470
  8
1
 10
477.54579075619358
 20
40.000000063499989
 30
0.000000254
 11
477.54579075619358
 21
30.000000063500011
 31
0.000000254
  0
LINE
  5
471
  8
1
 10
477.54579075619358
 20
30.000000063500011
 30
0.000000254
 11
479.54579075619381
 21
30.000000063500011
 31
0.000000254
  0
LINE
  5
472
  8
1
 10
479.54579075619381
 20
30.000000063500011
 30
0.000000254
 11
479.54579075619381
 21
20.000000063499929
 31
0.000000254
  0
LINE
  5
473
  8
1
 10
477.54306013528901
 20
234.9999997142499
 30
0.000000254
 11
477.5444255727416
 21
223.99999984124989
 31
0.000000254
  0
LINE
  5
474
  8
1
 10
441.16373450210511
 20
118.0853828888232
 30
0.000000254
 11
384.86611428787791
 21
102.4267724470516
 31
0.000000254
  0
LINE
  5
475
  8
1
 10
448.21098111543148
 20
65.955653834234013
 30
0.000000254
 11
386.88060090495651
 21
70.044345848265849
 31
0.000000254
  0
ARC
  5
476
  8
1
  6
CONTINUOUS
 62
     7
 10
438.29025564644161
 20
127.6636457410347
 30
0.000000254
 40
9.9999999999999982
 50
286.6992442339938
 51
354.05078260603949
  0
LINE
  5
477
  8
1
 10
377.54579101019419
 20
92.792493404804887
 30
0.000000254
 11
377.54579101019419
 21
80.022197426831909
 31
0.000000254
  0
ARC
  5
478
  8
1
 10
447.54579101019402
 20
55.977802255667953
 30
0.000000254
 40
9.9999999999999982
 50
0.0000000000000891
 51
86.185925165709861
  0
ARC
  5
479
  8
1
 10
387.54579101019419
 20
92.792493404804887
 30
0.000000254
 40
9.9999999999999982
 50
105.5433672280315
 51
180.0
  0
ARC
  5
47A
  8
1
 10
387.54579101019419
 20
80.022197426831909
 30
0.000000254
 40
9.9999999999999982
 50
180.0
 51
266.18592516570948
  0
LINE
  5
47B
  8
2
 10
466.5457910101938
 20
189.99999984124989
 30
0.000000254
 11
464.73543045944223
 21
189.99999984124989
 31
0.000000254
  0
LINE
  5
47C
  8
2
 10
463.58875751090397
 20
184.99999984124989
 30
0.000000254
 11
466.5457910101938
 21
184.99999984124989
 31
0.000000254
  0
LINE
  5
47D
  8
2
 10
466.54579101019368
 20
159.99999984124989
 30
0.000000254
 11
461.60814059979202
 21
159.99999984124989
 31
0.000000254
  0
LINE
  5
47E
  8
2
 10
466.54579101019368
 20
154.99999984124989
 30
0.000000254
 11
460.46146765125388
 21
154.99999984124989
 31
0.000000254
  0
LINE
  5
47F
  8
2
 10
469.5457910101938
 20
211.8716909163893
 30
0.000000254
 11
469.5457910101938
 21
192.99999984124989
 31
0.000000254
  0
LINE
  5
480
  8
2
 10
463.719528420252
 20
212.18933544675809
 30
0.000000254
 11
461.75159871076869
 21
193.31104340026749
 31
0.000000254
  0
LINE
  5
481
  8
2
 10
469.5457910101938
 20
151.9999998412498
 30
0.000000254
 11
469.5457910101938
 21
122.9999999682499
 31
0.000000254
  0
LINE
  5
482
  8
2
 10
469.5457910101938
 20
181.99999984124989
 30
0.000000254
 11
469.5457910101938
 21
162.99999984124989
 31
0.000000254
  0
LINE
  5
483
  8
2
 10
460.6049257622301
 20
182.31104340026749
 30
0.000000254
 11
458.62430885111831
 21
163.31104340026749
 31
0.000000254
  0
ARC
  5
484
  8
2
 10
466.5457910101938
 20
192.99999984124989
 30
0.000000254
 40
3.0
 50
270.0
 51
0.0000000000000799
  0
ARC
  5
485
  8
2
 10
466.5457910101938
 20
181.99999984124989
 30
0.000000254
 40
3.0
 50
0.0000000000000509
 51
89.999999999999986
  0
ARC
  5
486
  8
2
 10
464.73543045944223
 20
192.99999984124989
 30
0.000000254
 40
3.0
 50
174.0488106143483
 51
270.0000000000008
  0
ARC
  5
487
  8
2
 10
466.70336016892571
 20
211.8782918877404
 30
0.000000254
 40
3.0
 50
93.151881602803044
 51
174.04881061434841
  0
ARC
  5
488
  8
2
 10
466.5457910101938
 20
211.8716909163893
 30
0.000000254
 40
3.0
 50
0.0000000000000382
 51
91.645843856058306
  0
ARC
  5
489
  8
2
 10
463.58875751090397
 20
181.99999984124989
 30
0.000000254
 40
3.0
 50
89.999999999999986
 51
174.0488106143483
  0
ARC
  5
48A
  8
2
 10
461.60814059979202
 20
162.99999984124989
 30
0.000000254
 40
3.0
 50
174.04881061434841
 51
270.0
  0
ARC
  5
48B
  8
2
 10
466.54579101019368
 20
162.99999984124989
 30
0.000000254
 40
3.0
 50
270.0
 51
0.0000000000000799
  0
ARC
  5
48C
  8
2
 10
466.54579101019368
 20
151.99999984124989
 30
0.000000254
 40
3.0
 50
0.0000000000000509
 51
90.000000000001677
  0
ARC
  5
48D
  8
2
 10
460.46146765125388
 20
151.99999984124989
 30
0.000000254
 40
3.0
 50
89.999999999999986
 51
174.0488106143481
  0
ARC
  5
48E
  8
2
 10
466.37346234635379
 20
217.86921564177561
 30
0.000000254
 40
3.0
 50
271.64584385605872
 51
273.15188160280297
  0
POLYLINE
  5
48F
  8
2
 66
     1
 10
0.0
 20
0.0
 30
0.0
 70
     1
  0
VERTEX
  5
B1D
  8
2
 10
389.65814818830768
 20
97.199999841250133
 30
0.0
  0
VERTEX
  5
B1E
  8
2
 10
389.65814818830768
 20
91.797809384788593
 30
0.0
  0
VERTEX
  5
B1F
  8
2
 10
387.34579075619422
 20
91.79780938478865
 30
0.0
  0
VERTEX
  5
B20
  8
2
 10
387.34579075619422
 20
97.199999841250147
 30
0.0
  0
SEQEND
  5
B21
  8
2
  0
POLYLINE
  5
490
  8
2
 66
     1
 10
0.0
 20
0.0
 30
0.0
 70
     1
  0
VERTEX
  5
B22
  8
2
 10
389.65814818830768
 20
81.199999841250147
 30
0.0
  0
VERTEX
  5
B23
  8
2
 10
389.65814818830768
 20
75.797809384788621
 30
0.0
  0
VERTEX
  5
B24
  8
2
 10
387.34579075619422
 20
75.79780938478865
 30
0.0
  0
VERTEX
  5
B25
  8
2
 10
387.34579075619422
 20
81.199999841250204
 30
0.0
  0
SEQEND
  5
B26
  8
2
  0
POLYLINE
  5
491
  8
2
 66
     1
 10
0.0
 20
0.0
 30
0.0
 70
     1
  0
VERTEX
  5
B27
  8
2
 10
438.65814818830728
 20
110.1999998412501
 30
0.0
  0
VERTEX
  5
B28
  8
2
 10
438.65814818830728
 20
104.7999998412501
 30
0.0
  0
VERTEX
  5
B29
  8
2
 10
436.34579075619371
 20
104.7999998412501
 30
0.0
  0
VERTEX
  5
B2A
  8
2
 10
436.34579075619371
 20
110.1999998412501
 30
0.0
  0
SEQEND
  5
B2B
  8
2
  0
POLYLINE
  5
492
  8
2
 66
     1
 10
0.0
 20
0.0
 30
0.0
 70
     1
  0
VERTEX
  5
B2C
  8
2
 10
438.65814818830728
 20
80.199999841250147
 30
0.0
  0
VERTEX
  5
B2D
  8
2
 10
438.65814818830728
 20
74.79780938478865
 30
0.0
  0
VERTEX
  5
B2E
  8
2
 10
436.34579075619371
 20
74.79780938478865
 30
0.0
  0
VERTEX
  5
B2F
  8
2
 10
436.34579075619371
 20
80.199999841250147
 30
0.0
  0
SEQEND
  5
B30
  8
2
  0
LINE
  5
493
  8
2
 10
454.17087120437782
 20
114.9999999682499
 30
0.000000254
 11
466.54579075619381
 21
114.9999999682499
 31
0.000000254
  0
LINE
  5
494
  8
2
 10
469.54579075619381
 20
80.999999968249938
 30
0.000000254
 11
469.54579075619358
 21
74.41605593250442
 31
0.000000254
  0
LINE
  5
495
  8
2
 10
469.54579075619381
 20
111.9999999682499
 30
0.000000254
 11
469.54579075619381
 21
91.999999968250037
 31
0.000000254
  0
LINE
  5
496
  8
2
 10
442.54579075619392
 20
80.999999968249938
 30
0.000000254
 11
442.54579075619392
 21
75.847874114322622
 31
0.000000254
  0
LINE
  5
497
  8
2
 10
442.54579075619392
 20
109.54777121337411
 30
0.000000254
 11
442.54579075619392
 21
91.999999968250037
 31
0.000000254
  0
LINE
  5
498
  8
2
 10
432.54579075619381
 20
80.999999968249938
 30
0.000000254
 11
432.54579075619381
 21
76.938783205231744
 31
0.000000254
  0
LINE
  5
499
  8
2
 10
432.54579075619381
 20
104.9987516055309
 30
0.000000254
 11
432.54579075619381
 21
91.999999968250037
 31
0.000000254
  0
LINE
  5
49A
  8
2
 10
412.54579075619381
 20
80.999999968249938
 30
0.000000254
 11
412.54579075619381
 21
77.893328659777225
 31
0.000000254
  0
LINE
  5
49B
  8
2
 10
412.54579075619381
 20
101.01835944866831
 30
0.000000254
 11
412.54579075619381
 21
91.999999968250037
 31
0.000000254
  0
LINE
  5
49C
  8
2
 10
407.54579075619381
 20
80.999999968249938
 30
0.000000254
 11
407.54579075619381
 21
78.64332865977714
 31
0.000000254
  0
LINE
  5
49D
  8
2
 10
407.54579075619381
 20
97.890908468276152
 30
0.000000254
 11
407.54579075619381
 21
91.999999968250037
 31
0.000000254
  0
LINE
  5
49E
  8
2
 10
392.54579075619421
 20
80.999999968249938
 30
0.000000254
 11
392.54579075619421
 21
79.256965023413514
 31
0.000000254
  0
LINE
  5
49F
  8
2
 10
392.54579075619421
 20
95.332084938864426
 30
0.000000254
 11
392.54579075619421
 21
91.999999968250037
 31
0.000000254
  0
LINE
  5
4A0
  8
2
 10
453.35044500100543
 20
114.8856369594219
 30
0.000000254
 11
444.7253645528213
 21
112.433408204546
 31
0.000000254
  0
LINE
  5
4A1
  8
2
 10
445.54579075619381
 20
88.999999968249995
 30
0.000000254
 11
466.54579075619381
 21
88.999999968249995
 31
0.000000254
  0
LINE
  5
4A2
  8
2
 10
445.54579075619381
 20
83.999999968249995
 30
0.000000254
 11
466.54579075619381
 21
83.999999968249995
 31
0.000000254
  0
LINE
  5
4A3
  8
2
 10
445.34171909178161
 20
72.854823036278049
 30
0.000000254
 11
466.34171909178161
 21
71.423004854459833
 31
0.000000254
  0
LINE
  5
4A4
  8
2
 10
403.72536455282142
 20
100.776545459448
 30
0.000000254
 11
394.72536455282182
 21
98.217721930036404
 31
0.000000254
  0
LINE
  5
4A5
  8
2
 10
428.72536455282142
 20
107.884388596703
 30
0.000000254
 11
414.72536455282142
 21
103.9039964398402
 31
0.000000254
  0
LINE
  5
4A6
  8
2
 10
415.54579075619358
 20
88.999999968249995
 30
0.000000254
 11
429.54579075619381
 21
88.999999968249995
 31
0.000000254
  0
LINE
  5
4A7
  8
2
 10
395.54579075619421
 20
88.999999968249995
 30
0.000000254
 11
404.54579075619398
 21
88.999999968249995
 31
0.000000254
  0
LINE
  5
4A8
  8
2
 10
415.54579075619358
 20
83.999999968249995
 30
0.000000254
 11
429.54579075619381
 21
83.999999968249995
 31
0.000000254
  0
LINE
  5
4A9
  8
2
 10
395.54579075619421
 20
83.999999968249995
 30
0.000000254
 11
404.54579075619398
 21
83.999999968249995
 31
0.000000254
  0
LINE
  5
4AA
  8
2
 10
415.34171909178161
 20
74.900277581732638
 30
0.000000254
 11
429.34171909178161
 21
73.945732127187114
 31
0.000000254
  0
LINE
  5
4AB
  8
2
 10
395.34171909178212
 20
76.263913945368955
 30
0.000000254
 11
404.34171909178178
 21
75.650277581732553
 31
0.000000254
  0
ARC
  5
4AC
  8
2
 10
429.54579075619381
 20
104.9987516055309
 30
0.000000254
 40
3.0
 50
0.0000000000000382
 51
105.8711786114566
  0
ARC
  5
4AD
  8
2
 10
429.54579075619381
 20
91.999999968250037
 30
0.000000254
 40
3.0
 50
270.0
 51
0.0000000000000799
  0
ARC
  5
4AE
  8
2
 10
415.54579075619358
 20
101.01835944866831
 30
0.000000254
 40
3.0
 50
105.8711786114563
 51
180.0
  0
ARC
  5
4AF
  8
2
 10
415.54579075619358
 20
91.999999968250037
 30
0.000000254
 40
3.0
 50
180.0
 51
270.0
  0
ARC
  5
4B0
  8
2
 10
404.54579075619398
 20
97.890908468276152
 30
0.000000254
 40
3.0
 50
0.0000000000000891
 51
105.8711786114568
  0
ARC
  5
4B1
  8
2
 10
404.54579075619398
 20
91.999999968250037
 30
0.000000254
 40
3.0
 50
270.0000000000008
 51
0.0000000000000799
  0
ARC
  5
4B2
  8
2
 10
395.54579075619421
 20
95.332084938864426
 30
0.000000254
 40
3.0
 50
105.87117861145769
 51
180.0
  0
ARC
  5
4B3
  8
2
 10
395.54579075619421
 20
91.999999968250037
 30
0.000000254
 40
3.0
 50
180.0
 51
270.0
  0
ARC
  5
4B4
  8
2
 10
395.54579075619421
 20
80.999999968249938
 30
0.000000254
 40
3.0
 50
89.999999999999986
 51
180.0
  0
ARC
  5
4B5
  8
2
 10
395.54579075619421
 20
79.256965023413514
 30
0.000000254
 40
3.0
 50
180.0
 51
266.09950625761837
  0
ARC
  5
4B6
  8
2
 10
404.54579075619398
 20
78.64332865977714
 30
0.000000254
 40
3.0
 50
266.09950625761888
 51
0.0000000000000799
  0
ARC
  5
4B7
  8
2
 10
404.54579075619398
 20
80.999999968249938
 30
0.000000254
 40
3.0
 50
0.0000000000000509
 51
90.000000000000881
  0
ARC
  5
4B8
  8
2
 10
415.54579075619358
 20
80.999999968249938
 30
0.000000254
 40
3.0
 50
89.999999999999119
 51
180.0
  0
ARC
  5
4B9
  8
2
 10
415.54579075619358
 20
77.893328659777225
 30
0.000000254
 40
3.0
 50
180.0
 51
266.0995062576186
  0
ARC
  5
4BA
  8
2
 10
429.54579075619381
 20
76.938783205231744
 30
0.000000254
 40
3.0
 50
266.0995062576178
 51
0.0000000000000799
  0
ARC
  5
4BB
  8
2
 10
429.54579075619381
 20
80.999999968249938
 30
0.000000254
 40
3.0
 50
0.0000000000000382
 51
89.999999999999119
  0
ARC
  5
4BC
  8
2
 10
445.54579075619381
 20
91.999999968250037
 30
0.000000254
 40
3.0
 50
180.0
 51
270.0
  0
ARC
  5
4BD
  8
2
 10
445.54579075619381
 20
80.999999968249938
 30
0.000000254
 40
3.0
 50
89.999999999999986
 51
180.0
  0
ARC
  5
4BE
  8
2
 10
445.54579075619381
 20
75.847874114322622
 30
0.000000254
 40
3.0
 50
180.0
 51
266.09950625761729
  0
ARC
  5
4BF
  8
2
 10
466.54579075619381
 20
80.999999968249938
 30
0.000000254
 40
3.0
 50
0.0000000000000382
 51
89.999999999999986
  0
ARC
  5
4C0
  8
2
 10
466.54579075619381
 20
74.41605593250442
 30
0.000000254
 40
3.0
 50
266.09950625761797
 51
0.0000000000000799
  0
ARC
  5
4C1
  8
2
 10
466.54579075619381
 20
111.9999999682499
 30
0.000000254
 40
3.0
 50
0.0000000000000382
 51
90.000000000000881
  0
ARC
  5
4C2
  8
2
 10
454.17087120437782
 20
111.9999999682499
 30
0.000000254
 40
3.0
 50
89.999999999999176
 51
105.8711786114568
  0
LINE
  5
4C3
  8
2
 10
466.5457910101938
 20
119.99999996824999
 30
0.000000254
 11
457.3050165376477
 21
119.99999996824999
 31
0.000000254
  0
ARC
  5
4C4
  8
2
 10
457.3050165376477
 20
122.9999999682499
 30
0.000000254
 40
3.0
 50
173.78813936133929
 51
270.0
  0
ARC
  5
4C5
  8
2
 10
466.5457910101938
 20
122.9999999682499
 30
0.000000254
 40
3.0
 50
270.0
 51
0.0000000000000799
  0
ARC
  5
4C6
  8
2
 10
445.54579075619381
 20
109.54777121337411
 30
0.000000254
 40
3.0
 50
105.8711786114568
 51
180.0
  0
LINE
  5
4C7
  8
2
 10
457.47763590258012
 20
152.31104340026761
 30
0.000000254
 11
454.32263077956361
 21
123.3246154176321
 31
0.000000254
  0
LINE
  5
4C8
  8
1
  6
CONTINUOUS
 62
     7
 10
477.54306013528901
 20
174.99999984124989
 30
0.000000254
 11
477.54579075619381
 21
49.99999996825003
 31
0.000000254
  0
LINE
  5
4C9
  8
1
  6
CONTINUOUS
 62
     7
 10
477.54306013528901
 20
174.99999984124989
 30
0.000000254
 11
477.54579075619381
 21
49.99999996825003
 31
0.000000254
  0
CIRCLE
  5
4CA
  8
2
 10
466.54579075619381
 20
219.99999984125009
 30
0.000000254
 40
2.549999999999998
  0
POLYLINE
  5
4CB
  8
2
 66
     1
 10
0.0
 20
0.0
 30
0.0
 70
     1
  0
VERTEX
  5
B31
  8
2
 10
450.15168058410848
 20
127.703819053968
 30
0.0
  0
VERTEX
  5
B32
  8
2
 10
450.69545755814789
 20
132.87751136679469
 30
0.0
  0
VERTEX
  5
B33
  8
2
 10
452.88534285116549
 20
132.6473451477527
 30
0.0
  0
VERTEX
  5
B34
  8
2
 10
452.34156587712567
 20
127.4736528349259
 30
0.0
  0
SEQEND
  5
B35
  8
2
  0
POLYLINE
  5
4CC
  8
2
 66
     1
 10
0.0
 20
0.0
 30
0.0
 70
     1
  0
VERTEX
  5
B36
  8
2
 10
452.76489216579972
 20
152.56686643817491
 30
0.0
  0
VERTEX
  5
B37
  8
2
 10
453.30866913983931
 20
157.74055875100129
 30
0.0
  0
VERTEX
  5
B38
  8
2
 10
455.49855443285679
 20
157.5103925319593
 30
0.0
  0
VERTEX
  5
B39
  8
2
 10
454.95477745881692
 20
152.33670021913281
 30
0.0
  0
SEQEND
  5
B3A
  8
2
  0
POLYLINE
  5
4CD
  8
2
 66
     1
 10
0.0
 20
0.0
 30
0.0
 70
     1
  0
VERTEX
  5
B3B
  8
2
 10
455.37810374749102
 20
177.42991382238159
 30
0.0
  0
VERTEX
  5
B3C
  8
2
 10
455.92188072153061
 20
182.60360613520839
 30
0.0
  0
VERTEX
  5
B3D
  8
2
 10
458.11176601454832
 20
182.3734399161664
 30
0.0
  0
VERTEX
  5
B3E
  8
2
 10
457.56798904050828
 20
177.1997476033396
 30
0.0
  0
SEQEND
  5
B3F
  8
2
  0
POLYLINE
  5
4CE
  8
2
 66
     1
 10
0.0
 20
0.0
 30
0.0
 70
     1
  0
VERTEX
  5
B40
  8
2
 10
457.99131532918238
 20
202.29296120658859
 30
0.0
  0
VERTEX
  5
B41
  8
2
 10
458.53509230322157
 20
207.46665351941519
 30
0.0
  0
VERTEX
  5
B42
  8
2
 10
460.7249775962394
 20
207.23648730037331
 30
0.0
  0
VERTEX
  5
B43
  8
2
 10
460.18120062219958
 20
202.06279498754631
 30
0.0
  0
SEQEND
  5
B44
  8
2
  0
ARC
  5
4CF
  8
1
 10
467.54579075619392
 20
14.99999984125013
 30
0.000000254
 40
7.9999999999999831
 50
38.682191240332379
 51
141.31780875966751
  0
LINE
  5
4D0
  8
1
 10
461.30079308825992
 20
20.000000253999989
 30
0.000000254
 11
455.54579075619358
 21
20.000000253999989
 31
0.000000254
  0
LINE
  5
4D1
  8
1
 10
479.54579075619381
 20
20.000000253999989
 30
0.000000254
 11
473.79078842412792
 21
20.000000253999989
 31
0.000000254
  0
LINE
  5
4D2
  8
1
 10
357.28165171045202
 20
56.640957924104853
 30
0.000000254
 11
362.28165171045208
 21
56.640957924104853
 31
0.000000254
  0
LINE
  5
4D3
  8
1
 10
362.28165171045208
 20
56.640957924104853
 30
0.000000254
 11
362.28165171045208
 21
54.640957924104853
 31
0.000000254
  0
LINE
  5
4D4
  8
1
 10
362.28165171045208
 20
54.640957924104853
 30
0.000000254
 11
382.28165171045202
 21
54.640957924104853
 31
0.000000254
  0
LINE
  5
4D5
  8
1
 10
382.28165171045202
 20
54.640957924104853
 30
0.000000254
 11
382.28165171045202
 21
56.640957924104853
 31
0.000000254
  0
LINE
  5
4D6
  8
1
 10
382.28165171045202
 20
56.640957924104853
 30
0.000000254
 11
387.28165171045219
 21
56.640957924104853
 31
0.000000254
  0
LINE
  5
4D7
  8
1
 10
387.28165171045219
 20
56.640957924104853
 30
0.000000254
 11
387.28165171045219
 21
54.640957924104853
 31
0.000000254
  0
LINE
  5
4D8
  8
1
 10
387.28165171045219
 20
54.640957924104853
 30
0.000000254
 11
407.28165171045163
 21
54.640957924104853
 31
0.000000254
  0
LINE
  5
4D9
  8
1
 10
407.28165171045163
 20
54.640957924104853
 30
0.000000254
 11
407.28165171045163
 21
56.640957924104853
 31
0.000000254
  0
LINE
  5
4DA
  8
1
 10
407.28165171045163
 20
56.640957924104853
 30
0.000000254
 11
412.28165171045168
 21
56.640957924104853
 31
0.000000254
  0
LINE
  5
4DB
  8
1
 10
412.28165171045168
 20
56.640957924104853
 30
0.000000254
 11
412.28165171045168
 21
54.640957924104853
 31
0.000000254
  0
LINE
  5
4DC
  8
1
 10
412.28165171045168
 20
54.640957924104853
 30
0.000000254
 11
432.28165171045163
 21
54.640957924104853
 31
0.000000254
  0
LINE
  5
4DD
  8
1
 10
432.28165171045163
 20
54.640957924104853
 30
0.000000254
 11
432.28165171045163
 21
56.640957924104853
 31
0.000000254
  0
LINE
  5
4DE
  8
1
 10
432.28165171045163
 20
56.640957924104853
 30
0.000000254
 11
437.28165171045168
 21
56.640957924104853
 31
0.000000254
  0
LINE
  5
4DF
  8
1
 10
437.28165171045168
 20
56.640957924104853
 30
0.000000254
 11
437.28165171045168
 21
54.640957924104853
 31
0.000000254
  0
LINE
  5
4E0
  8
1
 10
437.28165171045168
 20
54.640957924104853
 30
0.000000254
 11
442.2816517104518
 21
54.640957924104853
 31
0.000000254
  0
LINE
  5
4E1
  8
1
 10
442.2816517104518
 20
54.640957924104853
 30
0.000000254
 11
442.2816517104518
 21
34.640957924104782
 31
0.000000254
  0
LINE
  5
4E2
  8
1
 10
442.2816517104518
 20
34.640957924104782
 30
0.000000254
 11
437.28165171045168
 21
34.640957924104782
 31
0.000000254
  0
LINE
  5
4E3
  8
1
 10
437.28165171045168
 20
34.640957924104782
 30
0.000000254
 11
437.28165171045168
 21
32.640957924104789
 31
0.000000254
  0
LINE
  5
4E4
  8
1
 10
437.28165171045168
 20
32.640957924104789
 30
0.000000254
 11
432.28165171045163
 21
32.640957924104789
 31
0.000000254
  0
LINE
  5
4E5
  8
1
 10
432.28165171045163
 20
32.640957924104789
 30
0.000000254
 11
432.28165171045163
 21
34.640957924104782
 31
0.000000254
  0
LINE
  5
4E6
  8
1
 10
432.28165171045163
 20
34.640957924104782
 30
0.000000254
 11
412.28165171045168
 21
34.640957924104782
 31
0.000000254
  0
LINE
  5
4E7
  8
1
 10
412.28165171045168
 20
34.640957924104782
 30
0.000000254
 11
412.28165171045168
 21
32.640957924104789
 31
0.000000254
  0
LINE
  5
4E8
  8
1
 10
412.28165171045168
 20
32.640957924104789
 30
0.000000254
 11
407.28165171045163
 21
32.640957924104789
 31
0.000000254
  0
LINE
  5
4E9
  8
1
 10
407.28165171045163
 20
32.640957924104789
 30
0.000000254
 11
407.28165171045163
 21
34.640957924104782
 31
0.000000254
  0
LINE
  5
4EA
  8
1
 10
407.28165171045163
 20
34.640957924104782
 30
0.000000254
 11
387.28165171045219
 21
34.640957924104782
 31
0.000000254
  0
LINE
  5
4EB
  8
1
 10
387.28165171045219
 20
34.640957924104782
 30
0.000000254
 11
387.28165171045219
 21
32.640957924104789
 31
0.000000254
  0
LINE
  5
4EC
  8
1
 10
387.28165171045219
 20
32.640957924104789
 30
0.000000254
 11
382.28165171045202
 21
32.640957924104789
 31
0.000000254
  0
LINE
  5
4ED
  8
1
 10
382.28165171045202
 20
32.640957924104789
 30
0.000000254
 11
382.28165171045202
 21
34.640957924104782
 31
0.000000254
  0
LINE
  5
4EE
  8
1
 10
382.28165171045202
 20
34.640957924104782
 30
0.000000254
 11
362.28165171045208
 21
34.640957924104782
 31
0.000000254
  0
LINE
  5
4EF
  8
1
 10
362.28165171045208
 20
34.640957924104782
 30
0.000000254
 11
362.28165171045208
 21
32.640957924104789
 31
0.000000254
  0
LINE
  5
4F0
  8
1
 10
362.28165171045208
 20
32.640957924104789
 30
0.000000254
 11
357.28165171045202
 21
32.640957924104789
 31
0.000000254
  0
LINE
  5
4F1
  8
1
 10
357.28165171045208
 20
32.640957924104789
 30
0.000000254
 11
357.28165171045208
 21
56.640957924104853
 31
0.000000254
  0
LINE
  5
4F2
  8
2
 10
412.28165171045168
 20
49.640957924104789
 30
0.000000254
 11
432.28165171045163
 21
49.640957924104789
 31
0.000000254
  0
LINE
  5
4F3
  8
2
 10
412.28165171045168
 20
39.640957924104818
 30
0.000000254
 11
432.28165171045163
 21
39.640957924104818
 31
0.000000254
  0
ARC
  5
4F4
  8
2
 10
412.28165171045168
 20
44.64095792410486
 30
0.000000254
 40
4.9999999999999911
 50
90.0
 51
180.0
  0
ARC
  5
4F5
  8
2
 10
412.28165171045168
 20
44.64095792410486
 30
0.000000254
 40
4.9999999999999911
 50
180.0
 51
270.0
  0
ARC
  5
4F6
  8
2
 10
432.28165171045163
 20
44.64095792410486
 30
0.000000254
 40
4.9999999999999911
 50
0.0
 51
90.0
  0
ARC
  5
4F7
  8
2
 10
432.28165171045163
 20
44.64095792410486
 30
0.000000254
 40
4.9999999999999911
 50
270.0
 51
0.0
  0
CIRCLE
  5
4F8
  8
2
 10
393.07407040651879
 20
44.541058185678949
 30
0.000000254
 40
2.4999999999999991
  0
CIRCLE
  5
4F9
  8
2
 10
401.28165171045191
 20
44.640957670104747
 30
0.000000254
 40
2.4999999999999991
  0
LINE
  5
4FA
  8
2
 10
367.28165171045208
 20
49.640957924104789
 30
0.000000254
 11
382.28165171045202
 21
49.640957924104789
 31
0.000000254
  0
LINE
  5
4FB
  8
2
 10
367.28165171045208
 20
39.640957924104818
 30
0.000000254
 11
382.28165171045202
 21
39.640957924104818
 31
0.000000254
  0
ARC
  5
4FC
  8
2
 10
367.28165171045208
 20
44.64095792410486
 30
0.000000254
 40
4.9999999999999911
 50
90.0
 51
180.0
  0
ARC
  5
4FD
  8
2
 10
367.28165171045208
 20
44.64095792410486
 30
0.000000254
 40
4.9999999999999911
 50
180.0
 51
270.0
  0
ARC
  5
4FE
  8
2
 10
382.28165171045202
 20
44.64095792410486
 30
0.000000254
 40
4.9999999999999911
 50
0.0
 51
90.0
  0
ARC
  5
4FF
  8
2
 10
382.28165171045202
 20
44.64095792410486
 30
0.000000254
 40
4.9999999999999911
 50
270.0
 51
0.0
  0
LINE
  5
500
  8
1
 10
367.07062624809538
 20
111.4023011424223
 30
0.000000254
 11
367.07062624809538
 21
135.40230114242229
 31
0.000000254
  0
LINE
  5
501
  8
1
 10
367.07062624809538
 20
135.40230114242229
 30
0.000000254
 11
372.07062624809532
 21
135.40230114242229
 31
0.000000254
  0
LINE
  5
502
  8
1
 10
372.07062624809532
 20
135.40230114242229
 30
0.000000254
 11
372.07062624809532
 21
133.40230114242229
 31
0.000000254
  0
LINE
  5
503
  8
1
 10
372.07062624809532
 20
133.40230114242229
 30
0.000000254
 11
397.07062624809549
 21
133.40230114242229
 31
0.000000254
  0
LINE
  5
504
  8
1
 10
397.07062624809549
 20
133.40230114242229
 30
0.000000254
 11
397.07062624809549
 21
135.40230114242229
 31
0.000000254
  0
LINE
  5
505
  8
1
 10
397.07062624809549
 20
135.40230114242229
 30
0.000000254
 11
402.07062624809532
 21
135.40230114242229
 31
0.000000254
  0
LINE
  5
506
  8
1
 10
402.07062624809532
 20
135.40230114242229
 30
0.000000254
 11
402.07062624809532
 21
111.4023011424223
 31
0.000000254
  0
LINE
  5
507
  8
1
 10
402.07062624809532
 20
111.4023011424223
 30
0.000000254
 11
397.07062624809549
 21
111.4023011424223
 31
0.000000254
  0
LINE
  5
508
  8
1
 10
397.07062624809549
 20
111.4023011424223
 30
0.000000254
 11
397.07062624809549
 21
113.4023011424223
 31
0.000000254
  0
LINE
  5
509
  8
1
 10
397.07062624809549
 20
113.4023011424223
 30
0.000000254
 11
372.07062624809532
 21
113.4023011424223
 31
0.000000254
  0
LINE
  5
50A
  8
1
 10
372.07062624809532
 20
113.4023011424223
 30
0.000000254
 11
372.07062624809532
 21
111.4023011424223
 31
0.000000254
  0
LINE
  5
50B
  8
1
 10
372.07062624809532
 20
111.4023011424223
 30
0.000000254
 11
367.07062624809538
 21
111.4023011424223
 31
0.000000254
  0
LINE
  5
50C
  8
2
 10
391.97735795899888
 20
118.4023011424222
 30
0.000000254
 11
377.29004369853487
 21
118.4023011424222
 31
0.000000254
  0
LINE
  5
50D
  8
2
 10
391.97735795899888
 20
128.40230114242229
 30
0.000000254
 11
377.29004369853487
 21
128.40230114242229
 31
0.000000254
  0
ARC
  5
50E
  8
2
 10
391.97735795899888
 20
123.4023011424223
 30
0.000000254
 40
4.9999999999999911
 50
270.0
 51
0.0
  0
ARC
  5
50F
  8
2
 10
391.97735795899888
 20
123.4023011424223
 30
0.000000254
 40
4.9999999999999911
 50
0.0
 51
90.0
  0
ARC
  5
510
  8
2
 10
377.29004369853487
 20
123.4023011424223
 30
0.000000254
 40
4.9999999999999911
 50
180.0
 51
270.0
  0
ARC
  5
511
  8
2
 10
377.29004369853487
 20
123.4023011424223
 30
0.000000254
 40
4.9999999999999911
 50
90.0
 51
180.0
  0
LINE
  5
512
  8
1
 10
420.0706262480951
 20
143.40230114242229
 30
0.000000254
 11
431.07062637509529
 21
143.40230114242229
 31
0.000000254
  0
LINE
  5
513
  8
1
 10
431.07062637509529
 20
145.40230101542181
 30
0.000000254
 11
436.07062624809521
 21
145.40230101542181
 31
0.000000254
  0
LINE
  5
514
  8
1
 10
436.07062624809521
 20
145.40230101542181
 30
0.000000254
 11
436.07062624809521
 21
143.40230114242229
 31
0.000000254
  0
LINE
  5
515
  8
1
 10
436.07062624809521
 20
143.40230114242229
 30
0.000000254
 11
440.0706262480951
 21
143.40230114242229
 31
0.000000254
  0
LINE
  5
516
  8
1
 10
440.0706262480951
 20
143.40230114242229
 30
0.000000254
 11
440.0706262480951
 21
123.4023011424223
 31
0.000000254
  0
LINE
  5
517
  8
1
 10
420.0706262480951
 20
145.40230114242229
 30
0.000000254
 11
415.0706262480951
 21
145.40230114242229
 31
0.000000254
  0
LINE
  5
518
  8
1
 10
411.0706262480951
 20
143.40230114242229
 30
0.000000254
 11
415.07062637509517
 21
143.40230114242229
 31
0.000000254
  0
LINE
  5
519
  8
1
 10
415.07062637509517
 20
143.40230114242229
 30
0.000000254
 11
415.07062637509517
 21
145.40230114242229
 31
0.000000254
  0
LINE
  5
51A
  8
1
 10
420.0706262480951
 20
145.40230114242229
 30
0.000000254
 11
420.0706262480951
 21
143.40230114242229
 31
0.000000254
  0
LINE
  5
51B
  8
1
 10
411.0706262480951
 20
143.40230114242229
 30
0.000000254
 11
411.0706262480951
 21
123.4023011424223
 31
0.000000254
  0
LINE
  5
51C
  8
1
 10
411.0706262480951
 20
123.4023011424223
 30
0.000000254
 11
415.07062637509517
 21
123.4023011424223
 31
0.000000254
  0
LINE
  5
51D
  8
1
 10
415.07062637509517
 20
123.4023011424223
 30
0.000000254
 11
415.07062637509517
 21
121.4023011424223
 31
0.000000254
  0
LINE
  5
51E
  8
1
 10
415.07062637509517
 20
121.4023011424223
 30
0.000000254
 11
420.0706262480951
 21
121.4023011424223
 31
0.000000254
  0
LINE
  5
51F
  8
1
 10
420.0706262480951
 20
121.4023011424223
 30
0.000000254
 11
420.0706262480951
 21
123.4023011424223
 31
0.000000254
  0
LINE
  5
520
  8
1
 10
420.0706262480951
 20
123.4023011424223
 30
0.000000254
 11
431.07062637509529
 21
123.4023011424223
 31
0.000000254
  0
LINE
  5
521
  8
1
 10
431.07062637509529
 20
123.4023011424223
 30
0.000000254
 11
431.07062637509529
 21
121.4023011424223
 31
0.000000254
  0
LINE
  5
522
  8
1
 10
431.0706262480951
 20
121.4023011424223
 30
0.000000254
 11
436.07062624809521
 21
121.4023011424223
 31
0.000000254
  0
LINE
  5
523
  8
1
 10
436.07062624809521
 20
121.4023011424223
 30
0.000000254
 11
436.07062624809521
 21
123.4023011424223
 31
0.000000254
  0
LINE
  5
524
  8
1
 10
436.07062624809521
 20
123.4023011424223
 30
0.000000254
 11
440.0706262480951
 21
123.4023011424223
 31
0.000000254
  0
LINE
  5
525
  8
2
 10
422.0706262480951
 20
138.40230114242229
 30
0.000000254
 11
429.07062624809498
 21
138.40230114242229
 31
0.000000254
  0
LINE
  5
526
  8
2
 10
422.0706262480951
 20
128.4023011424224
 30
0.000000254
 11
429.07062624809498
 21
128.4023011424224
 31
0.000000254
  0
ARC
  5
527
  8
2
 10
429.07062624809498
 20
133.40230114242229
 30
0.000000254
 40
5.0000000000000346
 50
270.0
 51
90.0
  0
ARC
  5
528
  8
2
 10
422.0706262480951
 20
133.40230114242229
 30
0.000000254
 40
5.0000000000000346
 50
90.0
 51
270.0
  0
LINE
  5
529
  8
1
 10
431.07062637509529
 20
145.40230101542181
 30
0.000000254
 11
431.07062637509529
 21
143.40230114242229
 31
0.000000254
  0
LINE
  5
52B
  8
1
 10
505.99999999999949
 20
222.88500376575001
 30
0.000000254
 11
505.99999999999949
 21
232.8850037657501
 31
0.000000254
  0
ARC
  5
52C
  8
2
 10
494.99999999999932
 20
160.88500386100009
 30
0.000000254
 40
3.0
 50
90.0
 51
180.0
  0
POLYLINE
  5
52D
  8
2
 66
     1
 10
0.0
 20
0.0
 30
0.0
 70
     1
  0
VERTEX
  5
B45
  8
2
 10
485.8999999999993
 20
82.785003861000177
 30
0.0
  0
VERTEX
  5
B46
  8
2
 10
485.8999999999993
 20
92.985003861000123
 30
0.0
  0
VERTEX
  5
B47
  8
2
 10
488.0999999999994
 20
92.985003861000123
 30
0.0
  0
VERTEX
  5
B48
  8
2
 10
488.0999999999994
 20
82.785003861000177
 30
0.0
  0
SEQEND
  5
B49
  8
2
  0
POLYLINE
  5
52E
  8
2
 66
     1
 10
0.0
 20
0.0
 30
0.0
 70
     1
  0
VERTEX
  5
B4A
  8
2
 10
485.8999999999993
 20
122.78500386100011
 30
0.0
  0
VERTEX
  5
B4B
  8
2
 10
485.8999999999993
 20
132.98500386100011
 30
0.0
  0
VERTEX
  5
B4C
  8
2
 10
488.0999999999994
 20
132.98500386100011
 30
0.0
  0
VERTEX
  5
B4D
  8
2
 10
488.0999999999994
 20
122.78500386100011
 30
0.0
  0
SEQEND
  5
B4E
  8
2
  0
POLYLINE
  5
52F
  8
2
 66
     1
 10
0.0
 20
0.0
 30
0.0
 70
     1
  0
VERTEX
  5
B4F
  8
2
 10
485.8999999999993
 20
167.78500386100009
 30
0.0
  0
VERTEX
  5
B50
  8
2
 10
485.8999999999993
 20
177.98500386100019
 30
0.0
  0
VERTEX
  5
B51
  8
2
 10
488.0999999999994
 20
177.98500386100019
 30
0.0
  0
VERTEX
  5
B52
  8
2
 10
488.0999999999994
 20
167.78500386100009
 30
0.0
  0
SEQEND
  5
B53
  8
2
  0
POLYLINE
  5
530
  8
2
 66
     1
 10
0.0
 20
0.0
 30
0.0
 70
     1
  0
VERTEX
  5
B54
  8
2
 10
485.8999999999993
 20
202.78500386100009
 30
0.0
  0
VERTEX
  5
B55
  8
2
 10
485.8999999999993
 20
207.985003861
 30
0.0
  0
VERTEX
  5
B56
  8
2
 10
488.0999999999994
 20
207.985003861
 30
0.0
  0
VERTEX
  5
B57
  8
2
 10
488.0999999999994
 20
202.78500386100009
 30
0.0
  0
SEQEND
  5
B58
  8
2
  0
POLYLINE
  5
531
  8
2
 66
     1
 10
0.0
 20
0.0
 30
0.0
 70
     1
  0
VERTEX
  5
B59
  8
2
 10
485.89999999999918
 20
20.78500386100017
 30
0.0
  0
VERTEX
  5
B5A
  8
2
 10
485.89999999999918
 20
25.98500386100017
 30
0.0
  0
VERTEX
  5
B5B
  8
2
 10
488.0999999999994
 20
25.98500386100017
 30
0.0
  0
VERTEX
  5
B5C
  8
2
 10
488.0999999999994
 20
20.78500386100017
 30
0.0
  0
SEQEND
  5
B5D
  8
2
  0
ARC
  5
532
  8
1
  6
CONTINUOUS
 62
     7
 10
484.00273062090429
 20
37.885004115000207
 30
0.000000254
 40
20.0
 50
270.0
 51
352.17193299328801
  0
POLYLINE
  5
533
  8
1
  6
CONTINUOUS
 62
     7
 66
     1
 10
0.0
 20
0.0
 30
0.0
  0
VERTEX
  5
B5E
  8
1
  6
CONTINUOUS
 62
     7
 10
513.30939360200091
 20
126.2578276284312
 30
0.0
  0
VERTEX
  5
B5F
  8
1
  6
CONTINUOUS
 62
     7
 10
503.81635541578203
 20
35.160986404373268
 30
0.0
  0
SEQEND
  5
B60
  8
1
  6
CONTINUOUS
 62
     7
  0
LINE
  5
534
  8
1
  6
CONTINUOUS
 62
     7
 10
504.00273087490427
 20
222.88500376575001
 30
0.000000254
 11
504.00273087490427
 21
212.88500376575001
 31
0.000000254
  0
LINE
  5
535
  8
1
 62
     7
 10
503.99999974599922
 20
196.9072015735822
 30
0.000000254
 11
503.9999997459995
 21
202.8850038610002
 31
0.000000254
  0
LINE
  5
536
  8
1
 62
     7
 10
485.99863430854691
 20
28.8850039880002
 30
0.000000254
 11
485.99999974599962
 21
77.885003988000221
 31
0.000000254
  0
LINE
  5
537
  8
1
 62
     7
 10
485.99863430854691
 20
28.8850039880002
 30
0.000000254
 11
484.00136518345158
 21
28.885003988000221
 31
0.000000254
  0
LINE
  5
538
  8
1
 62
     7
 10
485.99999974599962
 20
77.885003988000221
 30
0.000000254
 11
484.00273062090429
 21
77.885003988000221
 31
0.000000254
  0
LINE
  5
539
  8
1
 10
503.99999999999937
 20
202.88500376575001
 30
0.000000254
 11
505.99999999999949
 21
202.88500376575001
 31
0.000000254
  0
LINE
  5
53A
  8
1
 10
505.99999999999949
 20
202.88500376575001
 30
0.000000254
 11
505.99999999999949
 21
212.8850037657501
 31
0.000000254
  0
LINE
  5
53B
  8
1
 10
505.99999999999949
 20
212.8850037657501
 30
0.000000254
 11
504.00273087490427
 21
212.8850037657501
 31
0.000000254
  0
LINE
  5
53C
  8
1
 10
504.00273087490427
 20
222.88500376575001
 30
0.000000254
 11
505.99999999999949
 21
222.88500376575001
 31
0.000000254
  0
LINE
  5
53D
  8
1
 10
483.99999999999949
 20
202.88500376575001
 30
0.000000254
 11
481.99999999999937
 21
202.88500376575001
 31
0.000000254
  0
LINE
  5
53E
  8
1
 10
481.99999999999937
 20
202.88500376575001
 30
0.000000254
 11
481.99999999999937
 21
212.8850037657501
 31
0.000000254
  0
LINE
  5
53F
  8
1
 10
481.99999999999937
 20
212.8850037657501
 30
0.000000254
 11
483.99999999999949
 21
212.8850037657501
 31
0.000000254
  0
LINE
  5
540
  8
1
 10
483.99999999999949
 20
212.8850037657501
 30
0.000000254
 11
483.99999999999949
 21
222.88500376575001
 31
0.000000254
  0
LINE
  5
541
  8
1
 10
483.99999999999949
 20
222.88500376575001
 30
0.000000254
 11
481.99999999999937
 21
222.88500376575001
 31
0.000000254
  0
LINE
  5
542
  8
1
 10
481.99999999999937
 20
222.88500376575001
 30
0.000000254
 11
481.99999999999937
 21
232.8850037657501
 31
0.000000254
  0
LINE
  5
543
  8
1
 10
484.00273062090429
 20
17.885004115000189
 30
0.000000254
 11
484.00136518345158
 21
28.885003988000221
 31
0.000000254
  0
LINE
  5
544
  8
1
 10
520.38205625408796
 20
134.79962094042691
 30
0.000000254
 11
576.67967646831573
 21
150.45823138219839
 31
0.000000254
  0
LINE
  5
545
  8
1
 10
513.33480964076148
 20
186.92934999501611
 30
0.000000254
 11
574.66518985123719
 21
182.8406579809843
 31
0.000000254
  0
ARC
  5
546
  8
1
  6
CONTINUOUS
 62
     7
 10
523.25553510975158
 20
125.2213580882153
 30
0.000000254
 40
9.9999999999999982
 50
106.6992442339938
 51
174.05078260603949
  0
LINE
  5
547
  8
1
 10
583.9999997459995
 20
160.09251042444529
 30
0.000000254
 11
583.9999997459995
 21
172.86280640241819
 31
0.000000254
  0
ARC
  5
548
  8
1
 10
513.99999974599939
 20
196.90720157358211
 30
0.000000254
 40
9.9999999999999982
 50
180.00000000000011
 51
266.18592516570982
  0
ARC
  5
549
  8
1
 10
573.9999997459995
 20
160.09251042444529
 30
0.000000254
 40
9.9999999999999982
 50
285.5433672280314
 51
0.0000000000000799
  0
ARC
  5
54A
  8
1
 10
573.9999997459995
 20
172.86280640241819
 30
0.000000254
 40
9.9999999999999982
 50
0.0000000000000509
 51
86.185925165709577
  0
LINE
  5
54B
  8
2
 10
494.9999997459995
 20
62.885003988000207
 30
0.000000254
 11
496.81036029675079
 21
62.885003988000207
 31
0.000000254
  0
LINE
  5
54C
  8
2
 10
497.95703324528932
 20
67.885003988000236
 30
0.000000254
 11
494.9999997459995
 21
67.885003988000236
 31
0.000000254
  0
LINE
  5
54D
  8
2
 10
494.9999997459995
 20
92.885003988000236
 30
0.000000254
 11
499.93765015640111
 21
92.885003988000236
 31
0.000000254
  0
LINE
  5
54E
  8
2
 10
494.9999997459995
 20
97.885003988000207
 30
0.000000254
 11
501.08432310493947
 21
97.885003988000207
 31
0.000000254
  0
LINE
  5
54F
  8
2
 10
491.9999997459995
 20
41.013312912860719
 30
0.000000254
 11
491.9999997459995
 21
59.885003988000257
 31
0.000000254
  0
LINE
  5
550
  8
2
 10
497.82626233594118
 20
40.695668382491966
 30
0.000000254
 11
499.79419204542472
 21
59.573960428982531
 31
0.000000254
  0
LINE
  5
551
  8
2
 10
491.99999974599939
 20
100.88500398800019
 30
0.000000254
 11
491.99999974599939
 21
129.88500386100009
 31
0.000000254
  0
LINE
  5
552
  8
2
 10
491.9999997459995
 20
70.885003988000179
 30
0.000000254
 11
491.9999997459995
 21
89.885003988000193
 31
0.000000254
  0
LINE
  5
553
  8
2
 10
500.94086499396309
 20
70.573960428982573
 30
0.000000254
 11
502.92148190507481
 21
89.573960428982573
 31
0.000000254
  0
ARC
  5
554
  8
2
 10
494.9999997459995
 20
59.885003988000257
 30
0.000000254
 40
3.0
 50
90.0
 51
180.0
  0
ARC
  5
555
  8
2
 10
494.9999997459995
 20
70.885003988000179
 30
0.000000254
 40
3.0
 50
180.0
 51
270.0
  0
ARC
  5
556
  8
2
 10
496.81036029675079
 20
59.885003988000257
 30
0.000000254
 40
3.0
 50
354.04881061434833
 51
90.000000000000881
  0
ARC
  5
557
  8
2
 10
494.84243058726747
 20
41.006711941509629
 30
0.000000254
 40
3.0
 50
273.15188160280297
 51
354.04881061434838
  0
ARC
  5
558
  8
2
 10
494.9999997459995
 20
41.013312912860719
 30
0.000000254
 40
3.0
 50
180.0
 51
271.64584385605821
  0
ARC
  5
559
  8
2
 10
497.95703324528932
 20
70.885003988000179
 30
0.000000254
 40
3.0
 50
270.0
 51
354.04881061434833
  0
ARC
  5
55A
  8
2
 10
499.93765015640111
 20
89.885003988000193
 30
0.000000254
 40
3.0
 50
354.04881061434838
 51
90.0
  0
ARC
  5
55B
  8
2
 10
494.9999997459995
 20
89.885003988000193
 30
0.000000254
 40
3.0
 50
90.0
 51
180.0
  0
ARC
  5
55C
  8
2
 10
494.9999997459995
 20
100.88500398800019
 30
0.000000254
 40
3.0
 50
180.0
 51
270.00000000000171
  0
ARC
  5
55D
  8
2
 10
501.08432310493947
 20
100.88500398800019
 30
0.000000254
 40
3.0
 50
270.0
 51
354.04881061434821
  0
ARC
  5
55E
  8
2
 10
495.17232840983939
 20
35.015788187474513
 30
0.000000254
 40
3.0
 50
91.645843856058718
 51
93.151881602803073
  0
POLYLINE
  5
55F
  8
2
 66
     1
 10
0.0
 20
0.0
 30
0.0
 70
     1
  0
VERTEX
  5
B61
  8
2
 10
571.88764256788591
 20
155.68500398799989
 30
0.0
  0
VERTEX
  5
B62
  8
2
 10
571.88764256788591
 20
161.08719444446149
 30
0.0
  0
VERTEX
  5
B63
  8
2
 10
574.19999999999925
 20
161.08719444446149
 30
0.0
  0
VERTEX
  5
B64
  8
2
 10
574.19999999999925
 20
155.68500398799989
 30
0.0
  0
SEQEND
  5
B65
  8
2
  0
POLYLINE
  5
560
  8
2
 66
     1
 10
0.0
 20
0.0
 30
0.0
 70
     1
  0
VERTEX
  5
B66
  8
2
 10
571.88764256788591
 20
171.68500398799989
 30
0.0
  0
VERTEX
  5
B67
  8
2
 10
571.88764256788591
 20
177.0871944444614
 30
0.0
  0
VERTEX
  5
B68
  8
2
 10
574.19999999999925
 20
177.0871944444614
 30
0.0
  0
VERTEX
  5
B69
  8
2
 10
574.19999999999925
 20
171.68500398799989
 30
0.0
  0
SEQEND
  5
B6A
  8
2
  0
POLYLINE
  5
561
  8
2
 66
     1
 10
0.0
 20
0.0
 30
0.0
 70
     1
  0
VERTEX
  5
B6B
  8
2
 10
522.88764256788602
 20
142.68500398800001
 30
0.0
  0
VERTEX
  5
B6C
  8
2
 10
522.88764256788602
 20
148.0850039879999
 30
0.0
  0
VERTEX
  5
B6D
  8
2
 10
525.19999999999959
 20
148.0850039879999
 30
0.0
  0
VERTEX
  5
B6E
  8
2
 10
525.19999999999959
 20
142.68500398800001
 30
0.0
  0
SEQEND
  5
B6F
  8
2
  0
POLYLINE
  5
562
  8
2
 66
     1
 10
0.0
 20
0.0
 30
0.0
 70
     1
  0
VERTEX
  5
B70
  8
2
 10
522.88764256788602
 20
172.68500398799989
 30
0.0
  0
VERTEX
  5
B71
  8
2
 10
522.88764256788602
 20
178.0871944444614
 30
0.0
  0
VERTEX
  5
B72
  8
2
 10
525.19999999999959
 20
178.0871944444614
 30
0.0
  0
VERTEX
  5
B73
  8
2
 10
525.19999999999959
 20
172.68500398799989
 30
0.0
  0
SEQEND
  5
B74
  8
2
  0
LINE
  5
563
  8
2
 10
507.37491955181531
 20
137.88500386100009
 30
0.000000254
 11
494.99999999999932
 21
137.88500386100009
 31
0.000000254
  0
LINE
  5
564
  8
2
 10
491.99999999999932
 20
171.8850038610002
 30
0.000000254
 11
491.99999999999932
 21
178.46894789674559
 31
0.000000254
  0
LINE
  5
565
  8
2
 10
491.99999999999932
 20
140.88500386100009
 30
0.000000254
 11
491.99999999999932
 21
160.88500386100009
 31
0.000000254
  0
LINE
  5
566
  8
2
 10
518.99999999999943
 20
171.88500386100009
 30
0.000000254
 11
518.99999999999943
 21
177.0371297149274
 31
0.000000254
  0
LINE
  5
567
  8
2
 10
518.99999999999943
 20
143.33723261587591
 30
0.000000254
 11
518.99999999999943
 21
160.885003861
 31
0.000000254
  0
LINE
  5
568
  8
2
 10
528.99999999999943
 20
171.88500386100009
 30
0.000000254
 11
528.99999999999943
 21
175.94622062401831
 31
0.000000254
  0
LINE
  5
569
  8
2
 10
528.99999999999943
 20
147.8862522237192
 30
0.000000254
 11
528.99999999999943
 21
160.885003861
 31
0.000000254
  0
LINE
  5
56A
  8
2
 10
548.99999999999932
 20
171.88500386100009
 30
0.000000254
 11
548.99999999999932
 21
174.99167516947281
 31
0.000000254
  0
LINE
  5
56B
  8
2
 10
548.99999999999932
 20
151.86664438058179
 30
0.000000254
 11
548.99999999999932
 21
160.885003861
 31
0.000000254
  0
LINE
  5
56C
  8
2
 10
553.99999999999943
 20
171.88500386100009
 30
0.000000254
 11
553.99999999999943
 21
174.2416751694729
 31
0.000000254
  0
LINE
  5
56D
  8
2
 10
553.99999999999943
 20
154.99409536097389
 30
0.000000254
 11
553.99999999999943
 21
160.885003861
 31
0.000000254
  0
LINE
  5
56E
  8
2
 10
568.99999999999943
 20
171.88500386100009
 30
0.000000254
 11
568.99999999999943
 21
173.6280388058365
 31
0.000000254
  0
LINE
  5
56F
  8
2
 10
568.99999999999943
 20
157.5529188903856
 30
0.000000254
 11
568.99999999999943
 21
160.885003861
 31
0.000000254
  0
LINE
  5
570
  8
2
 10
508.19534575518787
 20
137.99936686982821
 30
0.000000254
 11
516.82042620337165
 21
140.451595624704
 31
0.000000254
  0
LINE
  5
571
  8
2
 10
515.99999999999943
 20
163.885003861
 30
0.000000254
 11
494.99999999999932
 21
163.88500386100009
 31
0.000000254
  0
LINE
  5
572
  8
2
 10
515.99999999999943
 20
168.88500386100009
 30
0.000000254
 11
494.99999999999932
 21
168.88500386100009
 31
0.000000254
  0
LINE
  5
573
  8
2
 10
516.20407166441146
 20
180.030180792972
 30
0.000000254
 11
495.2040716644114
 21
181.4619989747903
 31
0.000000254
  0
LINE
  5
574
  8
2
 10
557.82042620337165
 20
152.10845836980201
 30
0.000000254
 11
566.82042620337165
 21
154.66728189921369
 31
0.000000254
  0
LINE
  5
575
  8
2
 10
532.82042620337165
 20
145.00061523254709
 30
0.000000254
 11
546.82042620337188
 21
148.98100738940991
 31
0.000000254
  0
LINE
  5
576
  8
2
 10
545.99999999999943
 20
163.885003861
 30
0.000000254
 11
531.99999999999943
 21
163.885003861
 31
0.000000254
  0
LINE
  5
577
  8
2
 10
565.99999999999943
 20
163.885003861
 30
0.000000254
 11
556.99999999999943
 21
163.885003861
 31
0.000000254
  0
LINE
  5
578
  8
2
 10
545.99999999999943
 20
168.88500386100009
 30
0.000000254
 11
531.99999999999943
 21
168.88500386100009
 31
0.000000254
  0
LINE
  5
579
  8
2
 10
565.99999999999943
 20
168.88500386100009
 30
0.000000254
 11
556.99999999999943
 21
168.88500386100009
 31
0.000000254
  0
LINE
  5
57A
  8
2
 10
546.20407166441134
 20
177.98472624751739
 30
0.000000254
 11
532.20407166441146
 21
178.939271702063
 31
0.000000254
  0
LINE
  5
57B
  8
2
 10
566.20407166441134
 20
176.6210898838811
 30
0.000000254
 11
557.20407166441146
 21
177.2347262475175
 31
0.000000254
  0
ARC
  5
57C
  8
2
 10
531.99999999999943
 20
147.8862522237192
 30
0.000000254
 40
3.0
 50
180.0
 51
285.87117861145663
  0
ARC
  5
57D
  8
2
 10
531.99999999999943
 20
160.885003861
 30
0.000000254
 40
3.0
 50
90.0
 51
180.0
  0
ARC
  5
57E
  8
2
 10
545.99999999999943
 20
151.86664438058179
 30
0.000000254
 40
3.0
 50
285.87117861145617
 51
0.0000000000000799
  0
ARC
  5
57F
  8
2
 10
545.99999999999943
 20
160.885003861
 30
0.000000254
 40
3.0
 50
0.0000000000000509
 51
90.0
  0
ARC
  5
580
  8
2
 10
556.99999999999943
 20
154.99409536097389
 30
0.000000254
 40
3.0
 50
180.00000000000011
 51
285.8711786114568
  0
ARC
  5
581
  8
2
 10
556.99999999999943
 20
160.885003861
 30
0.000000254
 40
3.0
 50
90.000000000000881
 51
180.0
  0
ARC
  5
582
  8
2
 10
565.99999999999943
 20
157.5529188903856
 30
0.000000254
 40
3.0
 50
285.87117861145771
 51
0.0000000000000799
  0
ARC
  5
583
  8
2
 10
565.99999999999943
 20
160.885003861
 30
0.000000254
 40
3.0
 50
0.0000000000000509
 51
90.0
  0
ARC
  5
584
  8
2
 10
565.99999999999943
 20
171.88500386100009
 30
0.000000254
 40
3.0
 50
270.0
 51
0.0000000000000799
  0
ARC
  5
585
  8
2
 10
565.99999999999943
 20
173.6280388058365
 30
0.000000254
 40
3.0
 50
0.0000000000000509
 51
86.099506257618486
  0
ARC
  5
586
  8
2
 10
556.99999999999943
 20
174.2416751694729
 30
0.000000254
 40
3.0
 50
86.099506257618955
 51
180.00000000000011
  0
ARC
  5
587
  8
2
 10
556.99999999999943
 20
171.88500386100009
 30
0.000000254
 40
3.0
 50
180.0
 51
270.0000000000008
  0
ARC
  5
588
  8
2
 10
545.99999999999943
 20
171.88500386100009
 30
0.000000254
 40
3.0
 50
269.99999999999909
 51
0.0000000000000799
  0
ARC
  5
589
  8
2
 10
545.99999999999943
 20
174.99167516947281
 30
0.000000254
 40
3.0
 50
0.0000000000000509
 51
86.099506257618586
  0
ARC
  5
58A
  8
2
 10
531.99999999999943
 20
175.94622062401831
 30
0.000000254
 40
3.0
 50
86.099506257617804
 51
180.0
  0
ARC
  5
58B
  8
2
 10
531.99999999999943
 20
171.88500386100009
 30
0.000000254
 40
3.0
 50
180.0
 51
269.99999999999909
  0
ARC
  5
58C
  8
2
 10
515.99999999999943
 20
160.885003861
 30
0.000000254
 40
3.0
 50
0.0000000000000509
 51
90.0
  0
ARC
  5
58D
  8
2
 10
515.99999999999943
 20
171.88500386100009
 30
0.000000254
 40
3.0
 50
270.0
 51
0.0000000000000799
  0
ARC
  5
58E
  8
2
 10
515.99999999999943
 20
177.0371297149274
 30
0.000000254
 40
3.0
 50
0.0000000000000509
 51
86.099506257617378
  0
ARC
  5
58F
  8
2
 10
494.99999999999932
 20
171.8850038610002
 30
0.000000254
 40
3.0
 50
180.0
 51
270.0
  0
ARC
  5
590
  8
2
 10
494.99999999999932
 20
178.46894789674559
 30
0.000000254
 40
3.0
 50
86.099506257617975
 51
180.0
  0
ARC
  5
591
  8
2
 10
494.99999999999932
 20
140.88500386100009
 30
0.000000254
 40
3.0
 50
180.0
 51
270.0000000000008
  0
ARC
  5
592
  8
2
 10
507.37491955181531
 20
140.88500386100009
 30
0.000000254
 40
3.0
 50
269.9999999999992
 51
285.8711786114568
  0
LINE
  5
593
  8
2
 10
494.99999974599922
 20
132.88500386100009
 30
0.000000254
 11
504.2407742185456
 21
132.88500386100009
 31
0.000000254
  0
ARC
  5
594
  8
2
 10
504.2407742185456
 20
129.88500386100009
 30
0.000000254
 40
3.0
 50
353.78813936133929
 51
90.0
  0
ARC
  5
595
  8
2
 10
494.99999974599922
 20
129.88500386100009
 30
0.000000254
 40
3.0
 50
90.0
 51
180.0
  0
ARC
  5
596
  8
2
 10
515.99999999999943
 20
143.33723261587591
 30
0.000000254
 40
3.0
 50
285.8711786114568
 51
0.0000000000000799
  0
LINE
  5
597
  8
2
 10
504.06815485361318
 20
100.5739604289825
 30
0.000000254
 11
507.2231599766294
 21
129.56038841161799
 31
0.000000254
  0
LINE
  5
598
  8
1
  6
CONTINUOUS
 62
     7
 10
484.00273062090429
 20
77.885003988000221
 30
0.000000254
 11
483.99999999999932
 21
202.885003861
 31
0.000000254
  0
LINE
  5
599
  8
1
  6
CONTINUOUS
 62
     7
 10
484.00273062090429
 20
77.885003988000221
 30
0.000000254
 11
483.99999999999932
 21
202.885003861
 31
0.000000254
  0
CIRCLE
  5
59A
  8
2
 10
494.99999999999932
 20
32.88500398799998
 30
0.000000254
 40
2.549999999999998
  0
POLYLINE
  5
59B
  8
2
 66
     1
 10
0.0
 20
0.0
 30
0.0
 70
     1
  0
VERTEX
  5
B75
  8
2
 10
511.39411017208488
 20
125.18118477528211
 30
0.0
  0
VERTEX
  5
B76
  8
2
 10
510.85033319804512
 20
120.0074924624553
 30
0.0
  0
VERTEX
  5
B77
  8
2
 10
508.66044790502781
 20
120.23765868149739
 30
0.0
  0
VERTEX
  5
B78
  8
2
 10
509.20422487906751
 20
125.4113509943241
 30
0.0
  0
SEQEND
  5
B79
  8
2
  0
POLYLINE
  5
59C
  8
2
 66
     1
 10
0.0
 20
0.0
 30
0.0
 70
     1
  0
VERTEX
  5
B7A
  8
2
 10
508.78089859039358
 20
100.3181373910752
 30
0.0
  0
VERTEX
  5
B7B
  8
2
 10
508.23712161635387
 20
95.144445078248793
 30
0.0
  0
VERTEX
  5
B7C
  8
2
 10
506.04723632333651
 20
95.374611297290841
 30
0.0
  0
VERTEX
  5
B7D
  8
2
 10
506.59101329737649
 20
100.5483036101172
 30
0.0
  0
SEQEND
  5
B7E
  8
2
  0
POLYLINE
  5
59D
  8
2
 66
     1
 10
0.0
 20
0.0
 30
0.0
 70
     1
  0
VERTEX
  5
B7F
  8
2
 10
506.16768700870227
 20
75.45509000686846
 30
0.0
  0
VERTEX
  5
B80
  8
2
 10
505.62391003466257
 20
70.281397694041615
 30
0.0
  0
VERTEX
  5
B81
  8
2
 10
503.43402474164509
 20
70.511563913083691
 30
0.0
  0
VERTEX
  5
B82
  8
2
 10
503.9778017156849
 20
75.685256225910507
 30
0.0
  0
SEQEND
  5
B83
  8
2
  0
POLYLINE
  5
59E
  8
2
 66
     1
 10
0.0
 20
0.0
 30
0.0
 70
     1
  0
VERTEX
  5
B84
  8
2
 10
503.5544754270108
 20
50.592042622661467
 30
0.0
  0
VERTEX
  5
B85
  8
2
 10
503.0106984529715
 20
45.418350309834793
 30
0.0
  0
VERTEX
  5
B86
  8
2
 10
500.82081315995379
 20
45.648516528876769
 30
0.0
  0
VERTEX
  5
B87
  8
2
 10
501.36459013399377
 20
50.822208841703713
 30
0.0
  0
SEQEND
  5
B88
  8
2
  0
ARC
  5
59F
  8
1
 10
493.99999999999937
 20
237.88500398799999
 30
0.000000254
 40
7.9999999999999831
 50
218.68219124033229
 51
321.31780875966751
  0
LINE
  5
5A0
  8
1
 10
500.24499766793338
 20
232.8850035752501
 30
0.000000254
 11
505.9999999999996
 21
232.8850035752501
 31
0.000000254
  0
LINE
  5
5A1
  8
1
 10
481.99999999999937
 20
232.8850035752501
 30
0.000000254
 11
487.75500233206549
 21
232.8850035752501
 31
0.000000254
  0
LINE
  5
5A2
  8
1
 10
613.54579075619336
 20
27.000000063500021
 30
0.000000254
 11
613.54579075619336
 21
17.000000063499929
 31
0.000000254
  0
ARC
  5
5A3
  8
2
 10
624.54579075619347
 20
88.999999968250066
 30
0.000000254
 40
3.0
 50
270.0
 51
0.0000000000000799
  0
POLYLINE
  5
5A4
  8
2
 66
     1
 10
0.0
 20
0.0
 30
0.0
 70
     1
  0
VERTEX
  5
B89
  8
2
 10
633.64579075619361
 20
167.09999996824999
 30
0.0
  0
VERTEX
  5
B8A
  8
2
 10
633.64579075619361
 20
156.89999996825
 30
0.0
  0
VERTEX
  5
B8B
  8
2
 10
631.44579075619345
 20
156.89999996825
 30
0.0
  0
VERTEX
  5
B8C
  8
2
 10
631.44579075619345
 20
167.09999996824999
 30
0.0
  0
SEQEND
  5
B8D
  8
2
  0
POLYLINE
  5
5A5
  8
2
 66
     1
 10
0.0
 20
0.0
 30
0.0
 70
     1
  0
VERTEX
  5
B8E
  8
2
 10
633.64579075619361
 20
127.0999999682499
 30
0.0
  0
VERTEX
  5
B8F
  8
2
 10
633.64579075619361
 20
116.8999999682499
 30
0.0
  0
VERTEX
  5
B90
  8
2
 10
631.44579075619345
 20
116.8999999682499
 30
0.0
  0
VERTEX
  5
B91
  8
2
 10
631.44579075619345
 20
127.0999999682499
 30
0.0
  0
SEQEND
  5
B92
  8
2
  0
POLYLINE
  5
5A6
  8
2
 66
     1
 10
0.0
 20
0.0
 30
0.0
 70
     1
  0
VERTEX
  5
B93
  8
2
 10
633.64579075619361
 20
82.099999968250017
 30
0.0
  0
VERTEX
  5
B94
  8
2
 10
633.64579075619361
 20
71.899999968249972
 30
0.0
  0
VERTEX
  5
B95
  8
2
 10
631.44579075619345
 20
71.899999968249972
 30
0.0
  0
VERTEX
  5
B96
  8
2
 10
631.44579075619345
 20
82.099999968250017
 30
0.0
  0
SEQEND
  5
B97
  8
2
  0
POLYLINE
  5
5A7
  8
2
 66
     1
 10
0.0
 20
0.0
 30
0.0
 70
     1
  0
VERTEX
  5
B98
  8
2
 10
633.64579075619361
 20
47.099999968250017
 30
0.0
  0
VERTEX
  5
B99
  8
2
 10
633.64579075619361
 20
41.899999968250043
 30
0.0
  0
VERTEX
  5
B9A
  8
2
 10
631.44579075619345
 20
41.899999968250043
 30
0.0
  0
VERTEX
  5
B9B
  8
2
 10
631.44579075619345
 20
47.099999968250017
 30
0.0
  0
SEQEND
  5
B9C
  8
2
  0
POLYLINE
  5
5A8
  8
2
 66
     1
 10
0.0
 20
0.0
 30
0.0
 70
     1
  0
VERTEX
  5
B9D
  8
2
 10
633.64579075619361
 20
229.0999999682499
 30
0.0
  0
VERTEX
  5
B9E
  8
2
 10
633.64579075619361
 20
223.89999996824989
 30
0.0
  0
VERTEX
  5
B9F
  8
2
 10
631.44579075619356
 20
223.89999996824989
 30
0.0
  0
VERTEX
  5
BA0
  8
2
 10
631.44579075619356
 20
229.0999999682499
 30
0.0
  0
SEQEND
  5
BA1
  8
2
  0
ARC
  5
5A9
  8
1
  6
CONTINUOUS
 62
     7
 10
635.5430601352889
 20
211.9999997142499
 30
0.000000254
 40
20.0
 50
89.999999999999986
 51
172.17193299328801
  0
POLYLINE
  5
5AA
  8
1
  6
CONTINUOUS
 62
     7
 66
     1
 10
0.0
 20
0.0
 30
0.0
  0
VERTEX
  5
BA2
  8
1
  6
CONTINUOUS
 62
     7
 10
606.2363971541921
 20
123.62717620081889
 30
0.0
  0
VERTEX
  5
BA3
  8
1
  6
CONTINUOUS
 62
     7
 10
615.72943534041121
 20
214.72401742487679
 30
0.0
  0
SEQEND
  5
BA4
  8
1
  6
CONTINUOUS
 62
     7
  0
LINE
  5
5AB
  8
1
  6
CONTINUOUS
 62
     7
 10
615.54305988128874
 20
27.000000063500021
 30
0.000000254
 11
615.54305988128874
 21
37.000000063500103
 31
0.000000254
  0
LINE
  5
5AC
  8
1
 62
     7
 10
615.54579101019374
 20
52.977802255667861
 30
0.000000254
 11
615.54579101019351
 21
46.999999968249952
 31
0.000000254
  0
LINE
  5
5AD
  8
1
 62
     7
 10
633.54715644764622
 20
220.99999984124989
 30
0.000000254
 11
633.54579101019351
 21
171.99999984124989
 31
0.000000254
  0
LINE
  5
5AE
  8
1
 62
     7
 10
633.54715644764622
 20
220.99999984124989
 30
0.000000254
 11
635.54442557274126
 21
220.99999984124989
 31
0.000000254
  0
LINE
  5
5AF
  8
1
 62
     7
 10
633.54579101019351
 20
171.99999984124989
 30
0.000000254
 11
635.54306013528867
 21
171.99999984124989
 31
0.000000254
  0
LINE
  5
5B0
  8
1
 10
615.54579075619358
 20
47.000000063500032
 30
0.000000254
 11
613.54579075619336
 21
47.000000063500032
 31
0.000000254
  0
LINE
  5
5B1
  8
1
 10
613.54579075619336
 20
47.000000063500032
 30
0.000000254
 11
613.54579075619336
 21
37.000000063500003
 31
0.000000254
  0
LINE
  5
5B2
  8
1
 10
613.54579075619336
 20
37.000000063500003
 30
0.000000254
 11
615.54305988128874
 21
37.000000063500003
 31
0.000000254
  0
LINE
  5
5B3
  8
1
 10
615.54305988128874
 20
27.000000063500021
 30
0.000000254
 11
613.54579075619336
 21
27.000000063500021
 31
0.000000254
  0
LINE
  5
5B4
  8
1
 10
635.54579075619336
 20
47.000000063500032
 30
0.000000254
 11
637.54579075619336
 21
47.000000063500032
 31
0.000000254
  0
LINE
  5
5B5
  8
1
 10
637.54579075619336
 20
47.000000063500032
 30
0.000000254
 11
637.54579075619336
 21
37.000000063500003
 31
0.000000254
  0
LINE
  5
5B6
  8
1
 10
637.54579075619336
 20
37.000000063500003
 30
0.000000254
 11
635.54579075619336
 21
37.000000063500003
 31
0.000000254
  0
LINE
  5
5B7
  8
1
 10
635.54579075619336
 20
37.000000063500003
 30
0.000000254
 11
635.54579075619336
 21
27.000000063500021
 31
0.000000254
  0
LINE
  5
5B8
  8
1
 10
635.54579075619336
 20
27.000000063500021
 30
0.000000254
 11
637.54579075619336
 21
27.000000063500021
 31
0.000000254
  0
LINE
  5
5B9
  8
1
 10
637.54579075619336
 20
27.000000063500021
 30
0.000000254
 11
637.54579075619336
 21
17.000000063499929
 31
0.000000254
  0
LINE
  5
5BA
  8
1
 10
635.5430601352889
 20
231.9999997142499
 30
0.000000254
 11
635.54442557274126
 21
220.99999984124989
 31
0.000000254
  0
LINE
  5
5BB
  8
1
 10
599.16373450210494
 20
115.0853828888232
 30
0.000000254
 11
542.86611428787728
 21
99.426772447051732
 31
0.000000254
  0
LINE
  5
5BC
  8
1
 10
606.2109811154312
 20
62.955653834234027
 30
0.000000254
 11
544.88060090495594
 21
67.044345848265849
 31
0.000000254
  0
ARC
  5
5BD
  8
1
  6
CONTINUOUS
 62
     7
 10
596.29025564644121
 20
124.6636457410348
 30
0.000000254
 40
9.9999999999999982
 50
286.6992442339938
 51
354.05078260603949
  0
LINE
  5
5BE
  8
1
 10
535.54579101019374
 20
89.792493404804915
 30
0.000000254
 11
535.54579101019374
 21
77.022197426831895
 31
0.000000254
  0
ARC
  5
5BF
  8
1
 10
605.54579101019362
 20
52.97780225566796
 30
0.000000254
 40
9.9999999999999982
 50
0.0000000000000891
 51
86.185925165709861
  0
ARC
  5
5C0
  8
1
 10
545.54579101019374
 20
89.792493404804915
 30
0.000000254
 40
9.9999999999999982
 50
105.5433672280315
 51
180.0
  0
ARC
  5
5C1
  8
1
 10
545.54579101019374
 20
77.022197426831895
 30
0.000000254
 40
9.9999999999999982
 50
180.0
 51
266.18592516570948
  0
LINE
  5
5C2
  8
2
 10
624.54579101019362
 20
186.99999984124989
 30
0.000000254
 11
622.73543045944223
 21
186.99999984124989
 31
0.000000254
  0
LINE
  5
5C3
  8
2
 10
621.58875751090375
 20
181.99999984124989
 30
0.000000254
 11
624.54579101019362
 21
181.99999984124989
 31
0.000000254
  0
LINE
  5
5C4
  8
2
 10
624.54579101019362
 20
156.99999984124989
 30
0.000000254
 11
619.60814059979202
 21
156.99999984124989
 31
0.000000254
  0
LINE
  5
5C5
  8
2
 10
624.54579101019362
 20
151.99999984124989
 30
0.000000254
 11
618.46146765125366
 21
151.99999984124989
 31
0.000000254
  0
LINE
  5
5C6
  8
2
 10
627.54579101019374
 20
208.8716909163893
 30
0.000000254
 11
627.54579101019374
 21
189.99999984124989
 31
0.000000254
  0
LINE
  5
5C7
  8
2
 10
621.71952842025166
 20
209.18933544675809
 30
0.000000254
 11
619.75159871076823
 21
190.31104340026749
 31
0.000000254
  0
LINE
  5
5C8
  8
2
 10
627.54579101019374
 20
148.9999998412498
 30
0.000000254
 11
627.54579101019374
 21
119.99999996824999
 31
0.000000254
  0
LINE
  5
5C9
  8
2
 10
627.54579101019374
 20
178.99999984124989
 30
0.000000254
 11
627.54579101019362
 21
159.99999984124989
 31
0.000000254
  0
LINE
  5
5CA
  8
2
 10
618.60492576222998
 20
179.31104340026761
 30
0.000000254
 11
616.62430885111814
 21
160.31104340026749
 31
0.000000254
  0
ARC
  5
5CB
  8
2
 10
624.54579101019362
 20
189.99999984124989
 30
0.000000254
 40
3.0
 50
270.0
 51
0.0000000000000799
  0
ARC
  5
5CC
  8
2
 10
624.54579101019362
 20
178.99999984124989
 30
0.000000254
 40
3.0
 50
0.0000000000000509
 51
89.999999999999986
  0
ARC
  5
5CD
  8
2
 10
622.73543045944223
 20
189.99999984124989
 30
0.000000254
 40
3.0
 50
174.0488106143483
 51
270.0000000000008
  0
ARC
  5
5CE
  8
2
 10
624.70336016892543
 20
208.8782918877404
 30
0.000000254
 40
3.0
 50
93.151881602803044
 51
174.04881061434841
  0
ARC
  5
5CF
  8
2
 10
624.54579101019362
 20
208.8716909163893
 30
0.000000254
 40
3.0
 50
0.0000000000000382
 51
91.645843856058306
  0
ARC
  5
5D0
  8
2
 10
621.58875751090375
 20
178.99999984124989
 30
0.000000254
 40
3.0
 50
89.999999999999986
 51
174.0488106143483
  0
ARC
  5
5D1
  8
2
 10
619.60814059979202
 20
159.99999984124989
 30
0.000000254
 40
3.0
 50
174.04881061434841
 51
270.0
  0
ARC
  5
5D2
  8
2
 10
624.54579101019362
 20
159.99999984124989
 30
0.000000254
 40
3.0
 50
270.0
 51
0.0000000000000799
  0
ARC
  5
5D3
  8
2
 10
624.54579101019362
 20
148.99999984124989
 30
0.000000254
 40
3.0
 50
0.0000000000000509
 51
90.000000000001677
  0
ARC
  5
5D4
  8
2
 10
618.46146765125366
 20
148.99999984124989
 30
0.000000254
 40
3.0
 50
89.999999999999986
 51
174.0488106143481
  0
ARC
  5
5D5
  8
2
 10
624.37346234635345
 20
214.86921564177561
 30
0.000000254
 40
3.0
 50
271.64584385605872
 51
273.15188160280297
  0
POLYLINE
  5
5D6
  8
2
 66
     1
 10
0.0
 20
0.0
 30
0.0
 70
     1
  0
VERTEX
  5
BA5
  8
2
 10
547.65814818830722
 20
94.199999841250133
 30
0.0
  0
VERTEX
  5
BA6
  8
2
 10
547.65814818830722
 20
88.797809384788593
 30
0.0
  0
VERTEX
  5
BA7
  8
2
 10
545.34579075619365
 20
88.797809384788636
 30
0.0
  0
VERTEX
  5
BA8
  8
2
 10
545.34579075619365
 20
94.199999841250175
 30
0.0
  0
SEQEND
  5
BA9
  8
2
  0
POLYLINE
  5
5D7
  8
2
 66
     1
 10
0.0
 20
0.0
 30
0.0
 70
     1
  0
VERTEX
  5
BAA
  8
2
 10
547.65814818830722
 20
78.199999841250147
 30
0.0
  0
VERTEX
  5
BAB
  8
2
 10
547.65814818830722
 20
72.797809384788636
 30
0.0
  0
VERTEX
  5
BAC
  8
2
 10
545.34579075619365
 20
72.797809384788678
 30
0.0
  0
VERTEX
  5
BAD
  8
2
 10
545.34579075619365
 20
78.199999841250204
 30
0.0
  0
SEQEND
  5
BAE
  8
2
  0
POLYLINE
  5
5D8
  8
2
 66
     1
 10
0.0
 20
0.0
 30
0.0
 70
     1
  0
VERTEX
  5
BAF
  8
2
 10
596.658148188307
 20
107.1999998412501
 30
0.0
  0
VERTEX
  5
BB0
  8
2
 10
596.658148188307
 20
101.7999998412501
 30
0.0
  0
VERTEX
  5
BB1
  8
2
 10
594.34579075619342
 20
101.7999998412501
 30
0.0
  0
VERTEX
  5
BB2
  8
2
 10
594.34579075619342
 20
107.1999998412501
 30
0.0
  0
SEQEND
  5
BB3
  8
2
  0
POLYLINE
  5
5D9
  8
2
 66
     1
 10
0.0
 20
0.0
 30
0.0
 70
     1
  0
VERTEX
  5
BB4
  8
2
 10
596.658148188307
 20
77.199999841250147
 30
0.0
  0
VERTEX
  5
BB5
  8
2
 10
596.658148188307
 20
71.797809384788678
 30
0.0
  0
VERTEX
  5
BB6
  8
2
 10
594.34579075619342
 20
71.797809384788678
 30
0.0
  0
VERTEX
  5
BB7
  8
2
 10
594.34579075619342
 20
77.199999841250147
 30
0.0
  0
SEQEND
  5
BB8
  8
2
  0
LINE
  5
5DA
  8
2
 10
612.17087120437748
 20
111.9999999682499
 30
0.000000254
 11
624.54579075619347
 21
111.9999999682499
 31
0.000000254
  0
LINE
  5
5DB
  8
2
 10
627.54579075619358
 20
77.999999968249924
 30
0.000000254
 11
627.54579075619358
 21
71.41605593250442
 31
0.000000254
  0
LINE
  5
5DC
  8
2
 10
627.54579075619358
 20
108.9999999682499
 30
0.000000254
 11
627.54579075619358
 21
88.999999968250066
 31
0.000000254
  0
LINE
  5
5DD
  8
2
 10
600.54579075619336
 20
77.999999968249924
 30
0.000000254
 11
600.54579075619336
 21
72.847874114322622
 31
0.000000254
  0
LINE
  5
5DE
  8
2
 10
600.54579075619336
 20
106.54777121337411
 30
0.000000254
 11
600.54579075619336
 21
88.999999968250066
 31
0.000000254
  0
LINE
  5
5DF
  8
2
 10
590.54579075619358
 20
77.999999968249924
 30
0.000000254
 11
590.54579075619358
 21
73.938783205231786
 31
0.000000254
  0
LINE
  5
5E0
  8
2
 10
590.54579075619358
 20
101.9987516055309
 30
0.000000254
 11
590.54579075619358
 21
88.999999968250066
 31
0.000000254
  0
LINE
  5
5E1
  8
2
 10
570.54579075619347
 20
77.999999968249924
 30
0.000000254
 11
570.54579075619347
 21
74.893328659777225
 31
0.000000254
  0
LINE
  5
5E2
  8
2
 10
570.54579075619347
 20
98.018359448668306
 30
0.000000254
 11
570.54579075619347
 21
88.999999968250066
 31
0.000000254
  0
LINE
  5
5E3
  8
2
 10
565.54579075619358
 20
77.999999968249924
 30
0.000000254
 11
565.54579075619358
 21
75.64332865977714
 31
0.000000254
  0
LINE
  5
5E4
  8
2
 10
565.54579075619358
 20
94.890908468276152
 30
0.000000254
 11
565.54579075619358
 21
88.999999968250066
 31
0.000000254
  0
LINE
  5
5E5
  8
2
 10
550.5457907561937
 20
77.999999968249924
 30
0.000000254
 11
550.5457907561937
 21
76.256965023413514
 31
0.000000254
  0
LINE
  5
5E6
  8
2
 10
550.5457907561937
 20
92.33208493886444
 30
0.000000254
 11
550.5457907561937
 21
88.999999968250066
 31
0.000000254
  0
LINE
  5
5E7
  8
2
 10
611.35044500100526
 20
111.8856369594219
 30
0.000000254
 11
602.72536455282125
 21
109.433408204546
 31
0.000000254
  0
LINE
  5
5E8
  8
2
 10
603.54579075619347
 20
85.999999968250023
 30
0.000000254
 11
624.54579075619347
 21
85.999999968250023
 31
0.000000254
  0
LINE
  5
5E9
  8
2
 10
603.54579075619347
 20
80.999999968249995
 30
0.000000254
 11
624.54579075619347
 21
80.999999968249995
 31
0.000000254
  0
LINE
  5
5EA
  8
2
 10
603.34171909178144
 20
69.854823036278034
 30
0.000000254
 11
624.34171909178144
 21
68.423004854459847
 31
0.000000254
  0
LINE
  5
5EB
  8
2
 10
561.72536455282125
 20
97.776545459448073
 30
0.000000254
 11
552.72536455282125
 21
95.217721930036376
 31
0.000000254
  0
LINE
  5
5EC
  8
2
 10
586.72536455282125
 20
104.884388596703
 30
0.000000254
 11
572.72536455282125
 21
100.9039964398402
 31
0.000000254
  0
LINE
  5
5ED
  8
2
 10
573.54579075619358
 20
85.999999968250023
 30
0.000000254
 11
587.54579075619347
 21
85.999999968250023
 31
0.000000254
  0
LINE
  5
5EE
  8
2
 10
553.54579075619347
 20
85.999999968250023
 30
0.000000254
 11
562.54579075619347
 21
85.999999968250023
 31
0.000000254
  0
LINE
  5
5EF
  8
2
 10
573.54579075619358
 20
80.999999968249995
 30
0.000000254
 11
587.54579075619347
 21
80.999999968249995
 31
0.000000254
  0
LINE
  5
5F0
  8
2
 10
553.54579075619347
 20
80.999999968249995
 30
0.000000254
 11
562.54579075619347
 21
80.999999968249995
 31
0.000000254
  0
LINE
  5
5F1
  8
2
 10
573.34171909178144
 20
71.900277581732652
 30
0.000000254
 11
587.34171909178144
 21
70.945732127187114
 31
0.000000254
  0
LINE
  5
5F2
  8
2
 10
553.34171909178144
 20
73.263913945368955
 30
0.000000254
 11
562.34171909178144
 21
72.650277581732553
 31
0.000000254
  0
ARC
  5
5F3
  8
2
 10
587.54579075619347
 20
101.9987516055309
 30
0.000000254
 40
3.0
 50
0.0000000000000382
 51
105.8711786114566
  0
ARC
  5
5F4
  8
2
 10
587.54579075619347
 20
88.999999968250066
 30
0.000000254
 40
3.0
 50
270.0
 51
0.0000000000000799
  0
ARC
  5
5F5
  8
2
 10
573.54579075619358
 20
98.018359448668306
 30
0.000000254
 40
3.0
 50
105.8711786114563
 51
180.0
  0
ARC
  5
5F6
  8
2
 10
573.54579075619358
 20
88.999999968250066
 30
0.000000254
 40
3.0
 50
180.0
 51
270.0
  0
ARC
  5
5F7
  8
2
 10
562.54579075619347
 20
94.890908468276152
 30
0.000000254
 40
3.0
 50
0.0000000000000891
 51
105.8711786114568
  0
ARC
  5
5F8
  8
2
 10
562.54579075619347
 20
88.999999968250066
 30
0.000000254
 40
3.0
 50
270.0000000000008
 51
0.0000000000000799
  0
ARC
  5
5F9
  8
2
 10
553.54579075619347
 20
92.33208493886444
 30
0.000000254
 40
3.0
 50
105.87117861145769
 51
180.0
  0
ARC
  5
5FA
  8
2
 10
553.54579075619347
 20
88.999999968250066
 30
0.000000254
 40
3.0
 50
180.0
 51
270.0
  0
ARC
  5
5FB
  8
2
 10
553.54579075619347
 20
77.999999968249924
 30
0.000000254
 40
3.0
 50
89.999999999999986
 51
180.0
  0
ARC
  5
5FC
  8
2
 10
553.54579075619347
 20
76.256965023413514
 30
0.000000254
 40
3.0
 50
180.0
 51
266.09950625761837
  0
ARC
  5
5FD
  8
2
 10
562.54579075619347
 20
75.64332865977714
 30
0.000000254
 40
3.0
 50
266.09950625761888
 51
0.0000000000000799
  0
ARC
  5
5FE
  8
2
 10
562.54579075619347
 20
77.999999968249924
 30
0.000000254
 40
3.0
 50
0.0000000000000509
 51
90.000000000000881
  0
ARC
  5
5FF
  8
2
 10
573.54579075619358
 20
77.999999968249924
 30
0.000000254
 40
3.0
 50
89.999999999999119
 51
180.0
  0
ARC
  5
600
  8
2
 10
573.54579075619358
 20
74.893328659777225
 30
0.000000254
 40
3.0
 50
180.0
 51
266.0995062576186
  0
ARC
  5
601
  8
2
 10
587.54579075619347
 20
73.938783205231786
 30
0.000000254
 40
3.0
 50
266.0995062576178
 51
0.0000000000000799
  0
ARC
  5
602
  8
2
 10
587.54579075619347
 20
77.999999968249924
 30
0.000000254
 40
3.0
 50
0.0000000000000382
 51
89.999999999999119
  0
ARC
  5
603
  8
2
 10
603.54579075619347
 20
88.999999968250066
 30
0.000000254
 40
3.0
 50
180.0
 51
270.0
  0
ARC
  5
604
  8
2
 10
603.54579075619347
 20
77.999999968249924
 30
0.000000254
 40
3.0
 50
89.999999999999986
 51
180.0
  0
ARC
  5
605
  8
2
 10
603.54579075619347
 20
72.847874114322622
 30
0.000000254
 40
3.0
 50
180.0
 51
266.09950625761729
  0
ARC
  5
606
  8
2
 10
624.54579075619347
 20
77.999999968249924
 30
0.000000254
 40
3.0
 50
0.0000000000000382
 51
89.999999999999986
  0
ARC
  5
607
  8
2
 10
624.54579075619347
 20
71.41605593250442
 30
0.000000254
 40
3.0
 50
266.09950625761797
 51
0.0000000000000799
  0
ARC
  5
608
  8
2
 10
624.54579075619347
 20
108.9999999682499
 30
0.000000254
 40
3.0
 50
0.0000000000000382
 51
90.000000000000881
  0
ARC
  5
609
  8
2
 10
612.17087120437748
 20
108.9999999682499
 30
0.000000254
 40
3.0
 50
89.999999999999176
 51
105.8711786114568
  0
LINE
  5
60A
  8
2
 10
624.54579101019374
 20
116.99999996824999
 30
0.000000254
 11
615.30501653764725
 21
116.99999996824999
 31
0.000000254
  0
ARC
  5
60B
  8
2
 10
615.30501653764725
 20
119.99999996824999
 30
0.000000254
 40
3.0
 50
173.78813936133929
 51
270.0
  0
ARC
  5
60C
  8
2
 10
624.54579101019374
 20
119.99999996824999
 30
0.000000254
 40
3.0
 50
270.0
 51
0.0000000000000799
  0
ARC
  5
60D
  8
2
 10
603.54579075619347
 20
106.54777121337411
 30
0.000000254
 40
3.0
 50
105.8711786114568
 51
180.0
  0
LINE
  5
60E
  8
2
 10
615.47763590258
 20
149.31104340026761
 30
0.000000254
 11
612.3226307795635
 21
120.3246154176321
 31
0.000000254
  0
LINE
  5
60F
  8
1
  6
CONTINUOUS
 62
     7
 10
635.54306013528867
 20
171.99999984124989
 30
0.000000254
 11
635.5457907561937
 21
46.99999996825003
 31
0.000000254
  0
LINE
  5
610
  8
1
  6
CONTINUOUS
 62
     7
 10
635.54306013528867
 20
171.99999984124989
 30
0.000000254
 11
635.5457907561937
 21
46.99999996825003
 31
0.000000254
  0
CIRCLE
  5
611
  8
2
 10
624.54579075619347
 20
216.99999984125009
 30
0.000000254
 40
2.549999999999998
  0
POLYLINE
  5
612
  8
2
 66
     1
 10
0.0
 20
0.0
 30
0.0
 70
     1
  0
VERTEX
  5
BB9
  8
2
 10
608.15168058410825
 20
124.703819053968
 30
0.0
  0
VERTEX
  5
BBA
  8
2
 10
608.69545755814772
 20
129.87751136679481
 30
0.0
  0
VERTEX
  5
BBB
  8
2
 10
610.88534285116509
 20
129.6473451477527
 30
0.0
  0
VERTEX
  5
BBC
  8
2
 10
610.34156587712562
 20
124.4736528349259
 30
0.0
  0
SEQEND
  5
BBD
  8
2
  0
POLYLINE
  5
613
  8
2
 66
     1
 10
0.0
 20
0.0
 30
0.0
 70
     1
  0
VERTEX
  5
BBE
  8
2
 10
610.76489216579944
 20
149.56686643817491
 30
0.0
  0
VERTEX
  5
BBF
  8
2
 10
611.30866913983914
 20
154.74055875100129
 30
0.0
  0
VERTEX
  5
BC0
  8
2
 10
613.49855443285662
 20
154.5103925319593
 30
0.0
  0
VERTEX
  5
BC1
  8
2
 10
612.95477745881681
 20
149.33670021913281
 30
0.0
  0
SEQEND
  5
BC2
  8
2
  0
POLYLINE
  5
614
  8
2
 66
     1
 10
0.0
 20
0.0
 30
0.0
 70
     1
  0
VERTEX
  5
BC3
  8
2
 10
613.37810374749074
 20
174.42991382238159
 30
0.0
  0
VERTEX
  5
BC4
  8
2
 10
613.92188072153056
 20
179.60360613520839
 30
0.0
  0
VERTEX
  5
BC5
  8
2
 10
616.11176601454804
 20
179.3734399161664
 30
0.0
  0
VERTEX
  5
BC6
  8
2
 10
615.56798904050811
 20
174.1997476033396
 30
0.0
  0
SEQEND
  5
BC7
  8
2
  0
POLYLINE
  5
615
  8
2
 66
     1
 10
0.0
 20
0.0
 30
0.0
 70
     1
  0
VERTEX
  5
BC8
  8
2
 10
615.99131532918227
 20
199.2929612065887
 30
0.0
  0
VERTEX
  5
BC9
  8
2
 10
616.53509230322175
 20
204.4666535194151
 30
0.0
  0
VERTEX
  5
BCA
  8
2
 10
618.72497759623923
 20
204.23648730037331
 30
0.0
  0
VERTEX
  5
BCB
  8
2
 10
618.18120062219941
 20
199.06279498754631
 30
0.0
  0
SEQEND
  5
BCC
  8
2
  0
ARC
  5
616
  8
1
 10
625.54579075619336
 20
11.999999841250119
 30
0.000000254
 40
7.9999999999999831
 50
38.682191240332379
 51
141.31780875966751
  0
LINE
  5
617
  8
1
 10
619.30079308825964
 20
17.000000253999989
 30
0.000000254
 11
613.54579075619324
 21
17.000000253999989
 31
0.000000254
  0
LINE
  5
618
  8
1
 10
637.54579075619336
 20
17.000000253999989
 30
0.000000254
 11
631.79078842412764
 21
17.000000253999989
 31
0.000000254
  0
LINE
  5
619
  8
1
 10
515.28165171045168
 20
53.640957924104839
 30
0.000000254
 11
520.28165171045157
 21
53.640957924104839
 31
0.000000254
  0
LINE
  5
61A
  8
1
 10
520.28165171045157
 20
53.640957924104839
 30
0.000000254
 11
520.28165171045157
 21
51.640957924104853
 31
0.000000254
  0
LINE
  5
61B
  8
1
 10
520.28165171045157
 20
51.640957924104853
 30
0.000000254
 11
540.28165171045168
 21
51.640957924104853
 31
0.000000254
  0
LINE
  5
61C
  8
1
 10
540.28165171045168
 20
51.640957924104853
 30
0.000000254
 11
540.28165171045168
 21
53.640957924104839
 31
0.000000254
  0
LINE
  5
61D
  8
1
 10
540.28165171045168
 20
53.640957924104839
 30
0.000000254
 11
545.28165171045157
 21
53.640957924104839
 31
0.000000254
  0
LINE
  5
61E
  8
1
 10
545.28165171045157
 20
53.640957924104839
 30
0.000000254
 11
545.28165171045157
 21
51.640957924104853
 31
0.000000254
  0
LINE
  5
61F
  8
1
 10
545.28165171045157
 20
51.640957924104853
 30
0.000000254
 11
565.28165171045168
 21
51.640957924104853
 31
0.000000254
  0
LINE
  5
620
  8
1
 10
565.28165171045168
 20
51.640957924104853
 30
0.000000254
 11
565.28165171045168
 21
53.640957924104839
 31
0.000000254
  0
LINE
  5
621
  8
1
 10
565.28165171045168
 20
53.640957924104839
 30
0.000000254
 11
570.28165171045157
 21
53.640957924104839
 31
0.000000254
  0
LINE
  5
622
  8
1
 10
570.28165171045157
 20
53.640957924104839
 30
0.000000254
 11
570.28165171045157
 21
51.640957924104853
 31
0.000000254
  0
LINE
  5
623
  8
1
 10
570.28165171045157
 20
51.640957924104853
 30
0.000000254
 11
590.28165171045168
 21
51.640957924104853
 31
0.000000254
  0
LINE
  5
624
  8
1
 10
590.28165171045168
 20
51.640957924104853
 30
0.000000254
 11
590.28165171045168
 21
53.640957924104839
 31
0.000000254
  0
LINE
  5
625
  8
1
 10
590.28165171045168
 20
53.640957924104839
 30
0.000000254
 11
595.28165171045157
 21
53.640957924104839
 31
0.000000254
  0
LINE
  5
626
  8
1
 10
595.28165171045157
 20
53.640957924104839
 30
0.000000254
 11
595.28165171045157
 21
51.640957924104853
 31
0.000000254
  0
LINE
  5
627
  8
1
 10
595.28165171045157
 20
51.640957924104853
 30
0.000000254
 11
600.28165171045157
 21
51.640957924104853
 31
0.000000254
  0
LINE
  5
628
  8
1
 10
600.28165171045157
 20
51.640957924104853
 30
0.000000254
 11
600.28165171045157
 21
31.640957924104789
 31
0.000000254
  0
LINE
  5
629
  8
1
 10
600.28165171045157
 20
31.640957924104789
 30
0.000000254
 11
595.28165171045157
 21
31.640957924104789
 31
0.000000254
  0
LINE
  5
62A
  8
1
 10
595.28165171045157
 20
31.640957924104789
 30
0.000000254
 11
595.28165171045157
 21
29.640957924104789
 31
0.000000254
  0
LINE
  5
62B
  8
1
 10
595.28165171045157
 20
29.640957924104789
 30
0.000000254
 11
590.28165171045168
 21
29.640957924104789
 31
0.000000254
  0
LINE
  5
62C
  8
1
 10
590.28165171045168
 20
29.640957924104789
 30
0.000000254
 11
590.28165171045168
 21
31.640957924104789
 31
0.000000254
  0
LINE
  5
62D
  8
1
 10
590.28165171045168
 20
31.640957924104789
 30
0.000000254
 11
570.28165171045157
 21
31.640957924104789
 31
0.000000254
  0
LINE
  5
62E
  8
1
 10
570.28165171045157
 20
31.640957924104789
 30
0.000000254
 11
570.28165171045157
 21
29.640957924104789
 31
0.000000254
  0
LINE
  5
62F
  8
1
 10
570.28165171045157
 20
29.640957924104789
 30
0.000000254
 11
565.28165171045168
 21
29.640957924104789
 31
0.000000254
  0
LINE
  5
630
  8
1
 10
565.28165171045168
 20
29.640957924104789
 30
0.000000254
 11
565.28165171045168
 21
31.640957924104789
 31
0.000000254
  0
LINE
  5
631
  8
1
 10
565.28165171045168
 20
31.640957924104789
 30
0.000000254
 11
545.28165171045157
 21
31.640957924104789
 31
0.000000254
  0
LINE
  5
632
  8
1
 10
545.28165171045157
 20
31.640957924104789
 30
0.000000254
 11
545.28165171045157
 21
29.640957924104789
 31
0.000000254
  0
LINE
  5
633
  8
1
 10
545.28165171045157
 20
29.640957924104789
 30
0.000000254
 11
540.28165171045168
 21
29.640957924104789
 31
0.000000254
  0
LINE
  5
634
  8
1
 10
540.28165171045168
 20
29.640957924104789
 30
0.000000254
 11
540.28165171045168
 21
31.640957924104789
 31
0.000000254
  0
LINE
  5
635
  8
1
 10
540.28165171045168
 20
31.640957924104789
 30
0.000000254
 11
520.28165171045157
 21
31.640957924104789
 31
0.000000254
  0
LINE
  5
636
  8
1
 10
520.28165171045157
 20
31.640957924104789
 30
0.000000254
 11
520.28165171045157
 21
29.640957924104789
 31
0.000000254
  0
LINE
  5
637
  8
1
 10
520.28165171045157
 20
29.640957924104789
 30
0.000000254
 11
515.28165171045168
 21
29.640957924104789
 31
0.000000254
  0
LINE
  5
638
  8
1
 10
515.28165171045168
 20
29.640957924104789
 30
0.000000254
 11
515.28165171045168
 21
53.640957924104839
 31
0.000000254
  0
LINE
  5
639
  8
2
 10
570.28165171045157
 20
46.640957924104796
 30
0.000000254
 11
590.28165171045168
 21
46.640957924104796
 31
0.000000254
  0
LINE
  5
63A
  8
2
 10
570.28165171045157
 20
36.640957924104818
 30
0.000000254
 11
590.28165171045168
 21
36.640957924104818
 31
0.000000254
  0
ARC
  5
63B
  8
2
 10
570.28165171045157
 20
41.64095792410486
 30
0.000000254
 40
4.9999999999999911
 50
90.0
 51
180.0
  0
ARC
  5
63C
  8
2
 10
570.28165171045157
 20
41.64095792410486
 30
0.000000254
 40
4.9999999999999911
 50
180.0
 51
270.0
  0
ARC
  5
63D
  8
2
 10
590.28165171045168
 20
41.64095792410486
 30
0.000000254
 40
4.9999999999999911
 50
0.0
 51
90.0
  0
ARC
  5
63E
  8
2
 10
590.28165171045168
 20
41.64095792410486
 30
0.000000254
 40
4.9999999999999911
 50
270.0
 51
0.0
  0
CIRCLE
  5
63F
  8
2
 10
551.07407040651844
 20
41.541058185678949
 30
0.000000254
 40
2.4999999999999991
  0
CIRCLE
  5
640
  8
2
 10
559.28165171045134
 20
41.640957670104747
 30
0.000000254
 40
2.4999999999999991
  0
LINE
  5
641
  8
2
 10
525.28165171045157
 20
46.640957924104796
 30
0.000000254
 11
540.28165171045168
 21
46.640957924104796
 31
0.000000254
  0
LINE
  5
642
  8
2
 10
525.28165171045157
 20
36.640957924104818
 30
0.000000254
 11
540.28165171045168
 21
36.640957924104818
 31
0.000000254
  0
ARC
  5
643
  8
2
 10
525.28165171045157
 20
41.64095792410486
 30
0.000000254
 40
4.9999999999999911
 50
90.0
 51
180.0
  0
ARC
  5
644
  8
2
 10
525.28165171045157
 20
41.64095792410486
 30
0.000000254
 40
4.9999999999999911
 50
180.0
 51
270.0
  0
ARC
  5
645
  8
2
 10
540.28165171045168
 20
41.64095792410486
 30
0.000000254
 40
4.9999999999999911
 50
0.0
 51
90.0
  0
ARC
  5
646
  8
2
 10
540.28165171045168
 20
41.64095792410486
 30
0.000000254
 40
4.9999999999999911
 50
270.0
 51
0.0
  0
LINE
  5
647
  8
1
 10
525.07062624809487
 20
108.4023011424223
 30
0.000000254
 11
525.07062624809487
 21
132.40230114242229
 31
0.000000254
  0
LINE
  5
648
  8
1
 10
525.07062624809487
 20
132.40230114242229
 30
0.000000254
 11
530.07062624809475
 21
132.40230114242229
 31
0.000000254
  0
LINE
  5
649
  8
1
 10
530.07062624809475
 20
132.40230114242229
 30
0.000000254
 11
530.07062624809475
 21
130.40230114242229
 31
0.000000254
  0
LINE
  5
64A
  8
1
 10
530.07062624809475
 20
130.40230114242229
 30
0.000000254
 11
555.07062624809475
 21
130.40230114242229
 31
0.000000254
  0
LINE
  5
64B
  8
1
 10
555.07062624809475
 20
130.40230114242229
 30
0.000000254
 11
555.07062624809475
 21
132.40230114242229
 31
0.000000254
  0
LINE
  5
64C
  8
1
 10
555.07062624809475
 20
132.40230114242229
 30
0.000000254
 11
560.07062624809475
 21
132.40230114242229
 31
0.000000254
  0
LINE
  5
64D
  8
1
 10
560.07062624809475
 20
132.40230114242229
 30
0.000000254
 11
560.07062624809475
 21
108.4023011424223
 31
0.000000254
  0
LINE
  5
64E
  8
1
 10
560.07062624809475
 20
108.4023011424223
 30
0.000000254
 11
555.07062624809475
 21
108.4023011424223
 31
0.000000254
  0
LINE
  5
64F
  8
1
 10
555.07062624809475
 20
108.4023011424223
 30
0.000000254
 11
555.07062624809475
 21
110.4023011424223
 31
0.000000254
  0
LINE
  5
650
  8
1
 10
555.07062624809475
 20
110.4023011424223
 30
0.000000254
 11
530.07062624809475
 21
110.4023011424223
 31
0.000000254
  0
LINE
  5
651
  8
1
 10
530.07062624809475
 20
110.4023011424223
 30
0.000000254
 11
530.07062624809475
 21
108.4023011424223
 31
0.000000254
  0
LINE
  5
652
  8
1
 10
530.07062624809475
 20
108.4023011424223
 30
0.000000254
 11
525.07062624809487
 21
108.4023011424223
 31
0.000000254
  0
LINE
  5
653
  8
2
 10
549.97735795899825
 20
115.4023011424222
 30
0.000000254
 11
535.2900436985343
 21
115.4023011424222
 31
0.000000254
  0
LINE
  5
654
  8
2
 10
549.97735795899825
 20
125.4023011424223
 30
0.000000254
 11
535.2900436985343
 21
125.4023011424223
 31
0.000000254
  0
ARC
  5
655
  8
2
 10
549.97735795899825
 20
120.4023011424223
 30
0.000000254
 40
4.9999999999999911
 50
270.0
 51
0.0
  0
ARC
  5
656
  8
2
 10
549.97735795899825
 20
120.4023011424223
 30
0.000000254
 40
4.9999999999999911
 50
0.0
 51
90.0
  0
ARC
  5
657
  8
2
 10
535.2900436985343
 20
120.4023011424223
 30
0.000000254
 40
4.9999999999999911
 50
180.0
 51
270.0
  0
ARC
  5
658
  8
2
 10
535.2900436985343
 20
120.4023011424223
 30
0.000000254
 40
4.9999999999999911
 50
90.0
 51
180.0
  0
LINE
  5
659
  8
1
 10
578.07062624809498
 20
140.40230114242229
 30
0.000000254
 11
589.07062637509512
 21
140.40230114242229
 31
0.000000254
  0
LINE
  5
65A
  8
1
 10
589.07062637509512
 20
142.40230101542181
 30
0.000000254
 11
594.07062624809498
 21
142.40230101542181
 31
0.000000254
  0
LINE
  5
65B
  8
1
 10
594.07062624809498
 20
142.40230101542181
 30
0.000000254
 11
594.07062624809498
 21
140.40230114242229
 31
0.000000254
  0
LINE
  5
65C
  8
1
 10
594.07062624809498
 20
140.40230114242229
 30
0.000000254
 11
598.07062624809498
 21
140.40230114242229
 31
0.000000254
  0
LINE
  5
65D
  8
1
 10
598.07062624809498
 20
140.40230114242229
 30
0.000000254
 11
598.07062624809498
 21
120.4023011424223
 31
0.000000254
  0
LINE
  5
65E
  8
1
 10
578.07062624809498
 20
142.40230114242229
 30
0.000000254
 11
573.07062624809475
 21
142.40230114242229
 31
0.000000254
  0
LINE
  5
65F
  8
1
 10
569.07062624809498
 20
140.40230114242229
 30
0.000000254
 11
573.070626375095
 21
140.40230114242229
 31
0.000000254
  0
LINE
  5
660
  8
1
 10
573.070626375095
 20
140.40230114242229
 30
0.000000254
 11
573.070626375095
 21
142.40230114242229
 31
0.000000254
  0
LINE
  5
661
  8
1
 10
578.07062624809498
 20
142.40230114242229
 30
0.000000254
 11
578.07062624809498
 21
140.40230114242229
 31
0.000000254
  0
LINE
  5
662
  8
1
 10
569.07062624809498
 20
140.40230114242229
 30
0.000000254
 11
569.07062624809498
 21
120.4023011424223
 31
0.000000254
  0
LINE
  5
663
  8
1
 10
569.07062624809498
 20
120.4023011424223
 30
0.000000254
 11
573.070626375095
 21
120.4023011424223
 31
0.000000254
  0
LINE
  5
664
  8
1
 10
573.070626375095
 20
120.4023011424223
 30
0.000000254
 11
573.070626375095
 21
118.4023011424223
 31
0.000000254
  0
LINE
  5
665
  8
1
 10
573.070626375095
 20
118.4023011424223
 30
0.000000254
 11
578.07062624809498
 21
118.4023011424223
 31
0.000000254
  0
LINE
  5
666
  8
1
 10
578.07062624809498
 20
118.4023011424223
 30
0.000000254
 11
578.07062624809498
 21
120.4023011424223
 31
0.000000254
  0
LINE
  5
667
  8
1
 10
578.07062624809498
 20
120.4023011424223
 30
0.000000254
 11
589.07062637509512
 21
120.4023011424223
 31
0.000000254
  0
LINE
  5
668
  8
1
 10
589.07062637509512
 20
120.4023011424223
 30
0.000000254
 11
589.07062637509512
 21
118.4023011424223
 31
0.000000254
  0
LINE
  5
669
  8
1
 10
589.07062624809475
 20
118.4023011424223
 30
0.000000254
 11
594.07062624809498
 21
118.4023011424223
 31
0.000000254
  0
LINE
  5
66A
  8
1
 10
594.07062624809498
 20
118.4023011424223
 30
0.000000254
 11
594.07062624809498
 21
120.4023011424223
 31
0.000000254
  0
LINE
  5
66B
  8
1
 10
594.07062624809498
 20
120.4023011424223
 30
0.000000254
 11
598.07062624809498
 21
120.4023011424223
 31
0.000000254
  0
LINE
  5
66C
  8
2
 10
580.07062624809475
 20
135.40230114242229
 30
0.000000254
 11
587.07062624809498
 21
135.40230114242229
 31
0.000000254
  0
LINE
  5
66D
  8
2
 10
580.07062624809475
 20
125.4023011424224
 30
0.000000254
 11
587.07062624809498
 21
125.4023011424224
 31
0.000000254
  0
ARC
  5
66E
  8
2
 10
587.07062624809498
 20
130.40230114242229
 30
0.000000254
 40
5.0000000000000346
 50
270.0
 51
90.0
  0
ARC
  5
66F
  8
2
 10
580.07062624809475
 20
130.40230114242229
 30
0.000000254
 40
5.0000000000000346
 50
90.0
 51
270.0
  0
LINE
  5
670
  8
1
 10
589.07062637509512
 20
142.40230101542181
 30
0.000000254
 11
589.07062637509512
 21
140.40230114242229
 31
0.000000254
  0
LINE
  5
672
  8
2
 10
759.99999999999864
 20
199.99999999999989
 30
0.000000254
 11
784.500000126999
 21
199.99999999999989
 31
0.000000254
  0
LINE
  5
673
  8
2
 10
759.99999999999864
 20
189.99999999999989
 30
0.000000254
 11
784.500000126999
 21
189.99999999999989
 31
0.000000254
  0
ARC
  5
674
  8
2
 10
759.99999999999864
 20
194.99999999999989
 30
0.000000254
 40
4.9999999999999911
 50
90.0
 51
180.0
  0
ARC
  5
675
  8
2
 10
759.99999999999864
 20
194.99999999999989
 30
0.000000254
 40
4.9999999999999911
 50
180.0
 51
270.0
  0
ARC
  5
676
  8
2
 10
784.500000126999
 20
195.0
 30
0.000000254
 40
5.0000000000000124
 50
0.0
 51
90.0
  0
ARC
  5
677
  8
2
 10
784.500000126999
 20
195.0
 30
0.000000254
 40
5.0000000000000124
 50
270.0
 51
0.0
  0
LINE
  5
678
  8
2
 10
719.99999999999864
 20
199.99999999999989
 30
0.000000254
 11
739.99999999999864
 21
199.99999999999989
 31
0.000000254
  0
LINE
  5
679
  8
2
 10
719.99999999999864
 20
189.99999999999989
 30
0.000000254
 11
739.99999999999864
 21
189.99999999999989
 31
0.000000254
  0
ARC
  5
67A
  8
2
 10
719.99999999999864
 20
194.99999999999989
 30
0.000000254
 40
4.9999999999999911
 50
90.0
 51
180.0
  0
ARC
  5
67B
  8
2
 10
719.99999999999864
 20
194.99999999999989
 30
0.000000254
 40
4.9999999999999911
 50
180.0
 51
270.0
  0
ARC
  5
67C
  8
2
 10
739.99999999999864
 20
194.99999999999989
 30
0.000000254
 40
4.9999999999999911
 50
0.0
 51
90.0
  0
ARC
  5
67D
  8
2
 10
739.99999999999864
 20
194.99999999999989
 30
0.000000254
 40
4.9999999999999911
 50
270.0
 51
0.0
  0
LINE
  5
67E
  8
2
 10
805.00000000000227
 20
199.99999999999989
 30
0.000000254
 11
815.00000000000352
 21
199.99999999999989
 31
0.000000254
  0
LINE
  5
67F
  8
2
 10
805.00000000000227
 20
189.99999999999989
 30
0.000000254
 11
815.00000000000352
 21
189.99999999999989
 31
0.000000254
  0
ARC
  5
680
  8
2
 10
805.00000000000227
 20
194.99999999999989
 30
0.000000254
 40
4.9999999999999911
 50
90.0
 51
180.0
  0
ARC
  5
681
  8
2
 10
805.00000000000227
 20
194.99999999999989
 30
0.000000254
 40
4.9999999999999911
 50
180.0
 51
270.0
  0
ARC
  5
682
  8
2
 10
815.00000000000352
 20
194.99999999999989
 30
0.000000254
 40
4.9999999999999911
 50
0.0
 51
90.0
  0
ARC
  5
683
  8
2
 10
815.00000000000352
 20
194.99999999999989
 30
0.000000254
 40
4.9999999999999911
 50
270.0
 51
0.0
  0
CIRCLE
  5
684
  8
2
 10
660.99999999999864
 20
194.99999999999989
 30
0.000000254
 40
4.4721359549995814
  0
CIRCLE
  5
685
  8
2
 10
655.10507053663207
 20
200.71123920877719
 30
0.000000254
 40
1.552901623107285
  0
CIRCLE
  5
686
  8
2
 10
666.62361030951524
 20
189.31009603888569
 30
0.000000254
 40
1.552901623107285
  0
LINE
  5
687
  8
1
 62
     7
 10
639.99999999999864
 20
205.0
 30
0.000000254
 11
639.99999999999864
 21
184.99999999999989
 31
0.000000254
  0
LINE
  5
688
  8
1
 62
     7
 10
830.0000001270015
 20
207.0
 30
0.000000254
 11
830.0000001270015
 21
182.99999999999989
 31
0.000000254
  0
LINE
  5
689
  8
1
 62
     7
 10
642.99999999999864
 20
205.0
 30
0.000000254
 11
642.99999999999864
 21
207.0
 31
0.000000254
  0
LINE
  5
68A
  8
1
 62
     7
 10
647.99999999999864
 20
207.0
 30
0.000000254
 11
642.99999999999864
 21
207.0
 31
0.000000254
  0
LINE
  5
68B
  8
1
 62
     7
 10
647.99999999999864
 20
207.0
 30
0.000000254
 11
647.99999999999864
 21
205.0
 31
0.000000254
  0
LINE
  5
68C
  8
1
 62
     7
 10
704.99999999999864
 20
205.0
 30
0.000000254
 11
704.99999999999864
 21
207.0
 31
0.000000254
  0
LINE
  5
68D
  8
1
 62
     7
 10
704.99999999999864
 20
207.0
 30
0.000000254
 11
714.99999999999864
 21
207.0
 31
0.000000254
  0
LINE
  5
68E
  8
1
 62
     7
 10
714.99999999999864
 20
207.0
 30
0.000000254
 11
714.99999999999864
 21
205.0
 31
0.000000254
  0
POLYLINE
  5
68F
  8
1
 62
     7
 66
     1
 10
0.0
 20
0.0
 30
0.0
  0
VERTEX
  5
BCD
  8
1
 62
     7
 10
647.99999999999864
 20
205.0
 30
0.0
  0
VERTEX
  5
BCE
  8
1
 62
     7
 10
704.99999999999852
 20
205.0
 30
0.0
  0
SEQEND
  5
BCF
  8
1
 62
     7
  0
LINE
  5
690
  8
1
 62
     7
 10
744.99999999999864
 20
205.0
 30
0.000000254
 11
744.99999999999864
 21
207.0
 31
0.000000254
  0
LINE
  5
691
  8
1
 62
     7
 10
744.99999999999864
 20
207.0
 30
0.000000254
 11
754.99999999999864
 21
207.0
 31
0.000000254
  0
LINE
  5
692
  8
1
 62
     7
 10
754.99999999999864
 20
207.0
 30
0.000000254
 11
754.99999999999864
 21
205.0
 31
0.000000254
  0
LINE
  5
693
  8
1
 62
     7
 10
790.00000012699957
 20
204.99999999999989
 30
0.000000254
 11
790.00000012699957
 21
206.99999999999989
 31
0.000000254
  0
LINE
  5
694
  8
1
 62
     7
 10
790.00000000000034
 20
207.0
 30
0.000000254
 11
800.00000000000171
 21
207.0
 31
0.000000254
  0
LINE
  5
695
  8
1
 62
     7
 10
800.00000012700036
 20
206.99999999999989
 30
0.000000254
 11
800.00000012700036
 21
204.99999999999989
 31
0.000000254
  0
POLYLINE
  5
696
  8
1
 62
     7
 66
     1
 10
0.0
 20
0.0
 30
0.0
  0
VERTEX
  5
BD0
  8
1
 62
     7
 10
754.99999999999864
 20
205.0
 30
0.0
  0
VERTEX
  5
BD1
  8
1
 62
     7
 10
790.00000012699957
 20
204.99999999999989
 30
0.0
  0
SEQEND
  5
BD2
  8
1
 62
     7
  0
POLYLINE
  5
697
  8
1
 62
     7
 66
     1
 10
0.0
 20
0.0
 30
0.0
  0
VERTEX
  5
BD3
  8
1
 62
     7
 10
714.99999999999864
 20
205.0
 30
0.0
  0
VERTEX
  5
BD4
  8
1
 62
     7
 10
744.99999999999864
 20
205.0
 30
0.0
  0
SEQEND
  5
BD5
  8
1
 62
     7
  0
LINE
  5
698
  8
1
 62
     7
 10
800.00000012700036
 20
205.0
 30
0.000000254
 11
825.00000000000387
 21
205.0
 31
0.000000254
  0
LINE
  5
699
  8
1
 62
     7
 10
825.00000000000387
 20
205.0
 30
0.000000254
 11
825.00000000000387
 21
207.0
 31
0.000000254
  0
LINE
  5
69A
  8
1
 62
     7
 10
825.00000000000387
 20
207.0
 30
0.000000254
 11
830.0000001270015
 21
207.0
 31
0.000000254
  0
LINE
  5
69B
  8
1
 62
     7
 10
642.99999999999864
 20
184.99999999999989
 30
0.000000254
 11
642.99999999999864
 21
182.99999999999989
 31
0.000000254
  0
LINE
  5
69C
  8
1
 62
     7
 10
647.99999999999864
 20
182.99999999999989
 30
0.000000254
 11
642.99999999999864
 21
182.99999999999989
 31
0.000000254
  0
LINE
  5
69D
  8
1
 62
     7
 10
647.99999999999864
 20
182.99999999999989
 30
0.000000254
 11
647.99999999999864
 21
184.99999999999989
 31
0.000000254
  0
LINE
  5
69E
  8
1
 62
     7
 10
704.99999999999864
 20
184.99999999999989
 30
0.000000254
 11
704.99999999999864
 21
182.99999999999989
 31
0.000000254
  0
LINE
  5
69F
  8
1
 62
     7
 10
704.99999999999864
 20
182.99999999999989
 30
0.000000254
 11
714.99999999999864
 21
182.99999999999989
 31
0.000000254
  0
LINE
  5
6A0
  8
1
 62
     7
 10
714.99999999999864
 20
182.99999999999989
 30
0.000000254
 11
714.99999999999864
 21
184.99999999999989
 31
0.000000254
  0
POLYLINE
  5
6A1
  8
1
 62
     7
 66
     1
 10
0.0
 20
0.0
 30
0.0
  0
VERTEX
  5
BD6
  8
1
 62
     7
 10
647.99999999999864
 20
184.99999999999989
 30
0.0
  0
VERTEX
  5
BD7
  8
1
 62
     7
 10
704.99999999999852
 20
184.99999999999989
 30
0.0
  0
SEQEND
  5
BD8
  8
1
 62
     7
  0
LINE
  5
6A2
  8
1
 62
     7
 10
744.99999999999864
 20
184.99999999999989
 30
0.000000254
 11
744.99999999999864
 21
182.99999999999989
 31
0.000000254
  0
LINE
  5
6A3
  8
1
 62
     7
 10
744.99999999999864
 20
182.99999999999989
 30
0.000000254
 11
754.99999999999864
 21
182.99999999999989
 31
0.000000254
  0
LINE
  5
6A4
  8
1
 62
     7
 10
754.99999999999864
 20
182.99999999999989
 30
0.000000254
 11
754.99999999999864
 21
184.99999999999989
 31
0.000000254
  0
LINE
  5
6A5
  8
1
 62
     7
 10
790.00000012699957
 20
184.99999999999989
 30
0.000000254
 11
790.00000012699957
 21
182.99999999999989
 31
0.000000254
  0
LINE
  5
6A6
  8
1
 62
     7
 10
790.00000000000034
 20
182.99999999999989
 30
0.000000254
 11
800.00000000000171
 21
182.99999999999989
 31
0.000000254
  0
LINE
  5
6A7
  8
1
 62
     7
 10
800.00000012700036
 20
182.99999999999989
 30
0.000000254
 11
800.00000012700036
 21
184.99999999999989
 31
0.000000254
  0
POLYLINE
  5
6A8
  8
1
 62
     7
 66
     1
 10
0.0
 20
0.0
 30
0.0
  0
VERTEX
  5
BD9
  8
1
 62
     7
 10
754.99999999999864
 20
184.99999999999989
 30
0.0
  0
VERTEX
  5
BDA
  8
1
 62
     7
 10
790.00000012699957
 20
184.99999999999989
 30
0.0
  0
SEQEND
  5
BDB
  8
1
 62
     7
  0
POLYLINE
  5
6A9
  8
1
 62
     7
 66
     1
 10
0.0
 20
0.0
 30
0.0
  0
VERTEX
  5
BDC
  8
1
 62
     7
 10
714.99999999999864
 20
184.99999999999989
 30
0.0
  0
VERTEX
  5
BDD
  8
1
 62
     7
 10
744.99999999999864
 20
184.99999999999989
 30
0.0
  0
SEQEND
  5
BDE
  8
1
 62
     7
  0
LINE
  5
6AA
  8
1
 62
     7
 10
800.00000012700036
 20
184.99999999999989
 30
0.000000254
 11
825.00000000000387
 21
184.99999999999989
 31
0.000000254
  0
LINE
  5
6AB
  8
1
 62
     7
 10
825.00000000000387
 20
184.99999999999989
 30
0.000000254
 11
825.00000000000387
 21
182.99999999999989
 31
0.000000254
  0
LINE
  5
6AC
  8
1
 62
     7
 10
825.00000000000387
 20
182.99999999999989
 30
0.000000254
 11
830.0000001270015
 21
182.99999999999989
 31
0.000000254
  0
LINE
  5
6AD
  8
1
 10
642.99999999999864
 20
205.0
 30
0.000000254
 11
639.99999999999864
 21
205.0
 31
0.000000254
  0
LINE
  5
6AE
  8
1
 10
639.99999999999864
 20
184.99999999999989
 30
0.000000254
 11
642.99999999999864
 21
184.99999999999989
 31
0.000000254
  0
LINE
  5
6AF
  8
2
 10
680.00000025399845
 20
200.00000025400001
 30
0.000000254
 11
700.00000025399845
 21
200.00000025400001
 31
0.000000254
  0
LINE
  5
6B0
  8
2
 10
680.00000025399845
 20
190.00000025400001
 30
0.000000254
 11
700.00000025399845
 21
190.00000025400001
 31
0.000000254
  0
ARC
  5
6B1
  8
2
 10
680.00000025399845
 20
195.00000025400001
 30
0.000000254
 40
4.9999999999999911
 50
90.0
 51
180.0
  0
ARC
  5
6B2
  8
2
 10
680.00000025399845
 20
195.00000025400001
 30
0.000000254
 40
4.9999999999999911
 50
180.0
 51
270.0
  0
ARC
  5
6B3
  8
2
 10
700.00000025399845
 20
195.00000025400001
 30
0.000000254
 40
4.9999999999999911
 50
0.0
 51
90.0
  0
ARC
  5
6B4
  8
2
 10
700.00000025399845
 20
195.00000025400001
 30
0.000000254
 40
4.9999999999999911
 50
270.0
 51
0.0
  0
CIRCLE
  5
6B5
  8
2
 10
655.39394629317303
 20
189.393946293174
 30
0.000000254
 40
1.552901623107285
  0
CIRCLE
  5
6B6
  8
2
 10
666.63597305978931
 20
200.6359730597903
 30
0.000000254
 40
1.552901623107285
  0
LINE
  5
6B8
  8
2
 10
759.99999999999818
 20
172.99999999999989
 30
0.000000254
 11
784.50000012699923
 21
172.99999999999989
 31
0.000000254
  0
LINE
  5
6B9
  8
2
 10
759.99999999999818
 20
162.99999999999989
 30
0.000000254
 11
784.50000012699923
 21
162.99999999999989
 31
0.000000254
  0
ARC
  5
6BA
  8
2
 10
759.99999999999818
 20
167.99999999999989
 30
0.000000254
 40
4.9999999999999911
 50
90.0
 51
180.0
  0
ARC
  5
6BB
  8
2
 10
759.99999999999818
 20
167.99999999999989
 30
0.000000254
 40
4.9999999999999911
 50
180.0
 51
270.0
  0
ARC
  5
6BC
  8
2
 10
784.50000012699923
 20
167.99999999999989
 30
0.000000254
 40
5.0000000000000124
 50
0.0
 51
90.0
  0
ARC
  5
6BD
  8
2
 10
784.50000012699923
 20
167.99999999999989
 30
0.000000254
 40
5.0000000000000124
 50
270.0
 51
0.0
  0
LINE
  5
6BE
  8
2
 10
719.99999999999829
 20
172.99999999999989
 30
0.000000254
 11
739.99999999999829
 21
172.99999999999989
 31
0.000000254
  0
LINE
  5
6BF
  8
2
 10
719.99999999999829
 20
162.99999999999989
 30
0.000000254
 11
739.99999999999829
 21
162.99999999999989
 31
0.000000254
  0
ARC
  5
6C0
  8
2
 10
719.99999999999829
 20
167.99999999999989
 30
0.000000254
 40
4.9999999999999911
 50
90.0
 51
180.0
  0
ARC
  5
6C1
  8
2
 10
719.99999999999829
 20
167.99999999999989
 30
0.000000254
 40
4.9999999999999911
 50
180.0
 51
270.0
  0
ARC
  5
6C2
  8
2
 10
739.99999999999829
 20
167.99999999999989
 30
0.000000254
 40
4.9999999999999911
 50
0.0
 51
90.0
  0
ARC
  5
6C3
  8
2
 10
739.99999999999829
 20
167.99999999999989
 30
0.000000254
 40
4.9999999999999911
 50
270.0
 51
0.0
  0
LINE
  5
6C4
  8
2
 10
805.00000000000227
 20
172.99999999999989
 30
0.000000254
 11
815.00000000000387
 21
172.99999999999989
 31
0.000000254
  0
LINE
  5
6C5
  8
2
 10
805.00000000000227
 20
162.99999999999989
 30
0.000000254
 11
815.00000000000387
 21
162.99999999999989
 31
0.000000254
  0
ARC
  5
6C6
  8
2
 10
805.00000000000227
 20
167.99999999999989
 30
0.000000254
 40
4.9999999999999911
 50
90.0
 51
180.0
  0
ARC
  5
6C7
  8
2
 10
805.00000000000227
 20
167.99999999999989
 30
0.000000254
 40
4.9999999999999911
 50
180.0
 51
270.0
  0
ARC
  5
6C8
  8
2
 10
815.00000000000387
 20
167.99999999999989
 30
0.000000254
 40
4.9999999999999911
 50
0.0
 51
90.0
  0
ARC
  5
6C9
  8
2
 10
815.00000000000387
 20
167.99999999999989
 30
0.000000254
 40
4.9999999999999911
 50
270.0
 51
0.0
  0
CIRCLE
  5
6CA
  8
2
 10
660.99999999999841
 20
167.99999999999989
 30
0.000000254
 40
4.4721359549995814
  0
CIRCLE
  5
6CB
  8
2
 10
655.10507053663196
 20
173.71123920877699
 30
0.000000254
 40
1.552901623107285
  0
CIRCLE
  5
6CC
  8
2
 10
666.62361030951479
 20
162.31009603888569
 30
0.000000254
 40
1.552901623107285
  0
LINE
  5
6CD
  8
1
 62
     7
 10
639.99999999999841
 20
178.0
 30
0.000000254
 11
639.99999999999841
 21
157.99999999999989
 31
0.000000254
  0
LINE
  5
6CE
  8
1
 62
     7
 10
830.00000012700173
 20
180.0
 30
0.000000254
 11
830.00000012700173
 21
155.99999999999989
 31
0.000000254
  0
LINE
  5
6CF
  8
1
 62
     7
 10
642.99999999999818
 20
178.0
 30
0.000000254
 11
642.99999999999818
 21
180.0
 31
0.000000254
  0
LINE
  5
6D0
  8
1
 62
     7
 10
647.99999999999841
 20
180.0
 30
0.000000254
 11
642.99999999999818
 21
180.0
 31
0.000000254
  0
LINE
  5
6D1
  8
1
 62
     7
 10
647.99999999999841
 20
180.0
 30
0.000000254
 11
647.99999999999841
 21
178.0
 31
0.000000254
  0
LINE
  5
6D2
  8
1
 62
     7
 10
704.99999999999818
 20
178.0
 30
0.000000254
 11
704.99999999999818
 21
180.0
 31
0.000000254
  0
LINE
  5
6D3
  8
1
 62
     7
 10
704.99999999999818
 20
180.0
 30
0.000000254
 11
714.99999999999829
 21
180.0
 31
0.000000254
  0
LINE
  5
6D4
  8
1
 62
     7
 10
714.99999999999829
 20
180.0
 30
0.000000254
 11
714.99999999999829
 21
178.0
 31
0.000000254
  0
POLYLINE
  5
6D5
  8
1
 62
     7
 66
     1
 10
0.0
 20
0.0
 30
0.0
  0
VERTEX
  5
BDF
  8
1
 62
     7
 10
647.99999999999841
 20
178.0
 30
0.0
  0
VERTEX
  5
BE0
  8
1
 62
     7
 10
704.99999999999818
 20
178.0
 30
0.0
  0
SEQEND
  5
BE1
  8
1
 62
     7
  0
LINE
  5
6D6
  8
1
 62
     7
 10
744.99999999999829
 20
178.0
 30
0.000000254
 11
744.99999999999829
 21
180.0
 31
0.000000254
  0
LINE
  5
6D7
  8
1
 62
     7
 10
744.99999999999829
 20
180.0
 30
0.000000254
 11
754.99999999999818
 21
180.0
 31
0.000000254
  0
LINE
  5
6D8
  8
1
 62
     7
 10
754.99999999999818
 20
180.0
 30
0.000000254
 11
754.99999999999818
 21
178.0
 31
0.000000254
  0
LINE
  5
6D9
  8
1
 62
     7
 10
790.00000012699968
 20
177.99999999999989
 30
0.000000254
 11
790.00000012699968
 21
179.99999999999989
 31
0.000000254
  0
LINE
  5
6DA
  8
1
 62
     7
 10
790.00000000000045
 20
180.0
 30
0.000000254
 11
800.00000000000171
 21
180.0
 31
0.000000254
  0
LINE
  5
6DB
  8
1
 62
     7
 10
800.00000012700093
 20
179.99999999999989
 30
0.000000254
 11
800.00000012700093
 21
177.99999999999989
 31
0.000000254
  0
POLYLINE
  5
6DC
  8
1
 62
     7
 66
     1
 10
0.0
 20
0.0
 30
0.0
  0
VERTEX
  5
BE2
  8
1
 62
     7
 10
754.99999999999818
 20
178.0
 30
0.0
  0
VERTEX
  5
BE3
  8
1
 62
     7
 10
790.00000012699968
 20
177.99999999999989
 30
0.0
  0
SEQEND
  5
BE4
  8
1
 62
     7
  0
POLYLINE
  5
6DD
  8
1
 62
     7
 66
     1
 10
0.0
 20
0.0
 30
0.0
  0
VERTEX
  5
BE5
  8
1
 62
     7
 10
714.99999999999829
 20
178.0
 30
0.0
  0
VERTEX
  5
BE6
  8
1
 62
     7
 10
744.99999999999829
 20
178.0
 30
0.0
  0
SEQEND
  5
BE7
  8
1
 62
     7
  0
LINE
  5
6DE
  8
1
 62
     7
 10
800.00000012700093
 20
178.0
 30
0.000000254
 11
825.00000000000421
 21
178.0
 31
0.000000254
  0
LINE
  5
6DF
  8
1
 62
     7
 10
825.00000000000421
 20
178.0
 30
0.000000254
 11
825.00000000000421
 21
180.0
 31
0.000000254
  0
LINE
  5
6E0
  8
1
 62
     7
 10
825.00000000000421
 20
180.0
 30
0.000000254
 11
830.00000012700173
 21
180.0
 31
0.000000254
  0
LINE
  5
6E1
  8
1
 62
     7
 10
642.99999999999818
 20
157.99999999999989
 30
0.000000254
 11
642.99999999999818
 21
155.99999999999989
 31
0.000000254
  0
LINE
  5
6E2
  8
1
 62
     7
 10
647.99999999999841
 20
155.99999999999989
 30
0.000000254
 11
642.99999999999818
 21
155.99999999999989
 31
0.000000254
  0
LINE
  5
6E3
  8
1
 62
     7
 10
647.99999999999841
 20
155.99999999999989
 30
0.000000254
 11
647.99999999999841
 21
157.99999999999989
 31
0.000000254
  0
LINE
  5
6E4
  8
1
 62
     7
 10
704.99999999999818
 20
157.99999999999989
 30
0.000000254
 11
704.99999999999818
 21
155.99999999999989
 31
0.000000254
  0
LINE
  5
6E5
  8
1
 62
     7
 10
704.99999999999818
 20
155.99999999999989
 30
0.000000254
 11
714.99999999999829
 21
155.99999999999989
 31
0.000000254
  0
LINE
  5
6E6
  8
1
 62
     7
 10
714.99999999999829
 20
155.99999999999989
 30
0.000000254
 11
714.99999999999829
 21
157.99999999999989
 31
0.000000254
  0
POLYLINE
  5
6E7
  8
1
 62
     7
 66
     1
 10
0.0
 20
0.0
 30
0.0
  0
VERTEX
  5
BE8
  8
1
 62
     7
 10
647.99999999999841
 20
157.99999999999989
 30
0.0
  0
VERTEX
  5
BE9
  8
1
 62
     7
 10
704.99999999999818
 20
157.99999999999989
 30
0.0
  0
SEQEND
  5
BEA
  8
1
 62
     7
  0
LINE
  5
6E8
  8
1
 62
     7
 10
744.99999999999829
 20
157.99999999999989
 30
0.000000254
 11
744.99999999999829
 21
155.99999999999989
 31
0.000000254
  0
LINE
  5
6E9
  8
1
 62
     7
 10
744.99999999999829
 20
155.99999999999989
 30
0.000000254
 11
754.99999999999818
 21
155.99999999999989
 31
0.000000254
  0
LINE
  5
6EA
  8
1
 62
     7
 10
754.99999999999818
 20
155.99999999999989
 30
0.000000254
 11
754.99999999999818
 21
157.99999999999989
 31
0.000000254
  0
LINE
  5
6EB
  8
1
 62
     7
 10
790.00000012699968
 20
157.99999999999989
 30
0.000000254
 11
790.00000012699968
 21
155.99999999999989
 31
0.000000254
  0
LINE
  5
6EC
  8
1
 62
     7
 10
790.00000000000045
 20
155.99999999999989
 30
0.000000254
 11
800.00000000000171
 21
155.99999999999989
 31
0.000000254
  0
LINE
  5
6ED
  8
1
 62
     7
 10
800.00000012700093
 20
155.99999999999989
 30
0.000000254
 11
800.00000012700093
 21
157.99999999999989
 31
0.000000254
  0
POLYLINE
  5
6EE
  8
1
 62
     7
 66
     1
 10
0.0
 20
0.0
 30
0.0
  0
VERTEX
  5
BEB
  8
1
 62
     7
 10
754.99999999999818
 20
157.99999999999989
 30
0.0
  0
VERTEX
  5
BEC
  8
1
 62
     7
 10
790.00000012699968
 20
157.99999999999989
 30
0.0
  0
SEQEND
  5
BED
  8
1
 62
     7
  0
POLYLINE
  5
6EF
  8
1
 62
     7
 66
     1
 10
0.0
 20
0.0
 30
0.0
  0
VERTEX
  5
BEE
  8
1
 62
     7
 10
714.99999999999829
 20
157.99999999999989
 30
0.0
  0
VERTEX
  5
BEF
  8
1
 62
     7
 10
744.99999999999829
 20
157.99999999999989
 30
0.0
  0
SEQEND
  5
BF0
  8
1
 62
     7
  0
LINE
  5
6F0
  8
1
 62
     7
 10
800.00000012700093
 20
157.99999999999989
 30
0.000000254
 11
825.00000000000421
 21
157.99999999999989
 31
0.000000254
  0
LINE
  5
6F1
  8
1
 62
     7
 10
825.00000000000421
 20
157.99999999999989
 30
0.000000254
 11
825.00000000000421
 21
155.99999999999989
 31
0.000000254
  0
LINE
  5
6F2
  8
1
 62
     7
 10
825.00000000000421
 20
155.99999999999989
 30
0.000000254
 11
830.00000012700173
 21
155.99999999999989
 31
0.000000254
  0
LINE
  5
6F3
  8
1
 10
642.99999999999818
 20
178.0
 30
0.000000254
 11
639.99999999999841
 21
178.0
 31
0.000000254
  0
LINE
  5
6F4
  8
1
 10
639.99999999999841
 20
157.99999999999989
 30
0.000000254
 11
642.99999999999818
 21
157.99999999999989
 31
0.000000254
  0
LINE
  5
6F5
  8
2
 10
680.00000025399822
 20
173.00000025400001
 30
0.000000254
 11
700.00000025399822
 21
173.00000025400001
 31
0.000000254
  0
LINE
  5
6F6
  8
2
 10
680.00000025399822
 20
163.00000025400001
 30
0.000000254
 11
700.00000025399822
 21
163.00000025400001
 31
0.000000254
  0
ARC
  5
6F7
  8
2
 10
680.00000025399822
 20
168.00000025400001
 30
0.000000254
 40
4.9999999999999911
 50
90.0
 51
180.0
  0
ARC
  5
6F8
  8
2
 10
680.00000025399822
 20
168.00000025400001
 30
0.000000254
 40
4.9999999999999911
 50
180.0
 51
270.0
  0
ARC
  5
6F9
  8
2
 10
700.00000025399822
 20
168.00000025400001
 30
0.000000254
 40
4.9999999999999911
 50
0.0
 51
90.0
  0
ARC
  5
6FA
  8
2
 10
700.00000025399822
 20
168.00000025400001
 30
0.000000254
 40
4.9999999999999911
 50
270.0
 51
0.0
  0
CIRCLE
  5
6FB
  8
2
 10
655.3939462931728
 20
162.39394629317391
 30
0.000000254
 40
1.552901623107285
  0
CIRCLE
  5
6FC
  8
2
 10
666.63597305978885
 20
173.63597305979019
 30
0.000000254
 40
1.552901623107285
  0
LINE
  5
6FE
  8
2
 10
759.99999993649965
 20
145.99999999999989
 30
0.0
 11
784.5000000634999
 21
145.99999999999989
 31
0.0
  0
LINE
  5
6FF
  8
2
 10
759.99999993649965
 20
135.99999999999989
 30
0.0
 11
784.5000000634999
 21
135.99999999999989
 31
0.0
  0
ARC
  5
700
  8
2
 10
759.99999993649965
 20
140.99999999999989
 30
0.0
 40
4.9999999999999911
 50
90.0
 51
180.0
  0
ARC
  5
701
  8
2
 10
759.99999993649965
 20
140.99999999999989
 30
0.0
 40
4.9999999999999911
 50
180.0
 51
270.0
  0
ARC
  5
702
  8
2
 10
784.5000000634999
 20
141.0
 30
0.0
 40
5.0000000000000124
 50
0.0
 51
90.0
  0
ARC
  5
703
  8
2
 10
784.5000000634999
 20
141.0
 30
0.0
 40
5.0000000000000124
 50
270.0
 51
0.0
  0
LINE
  5
704
  8
2
 10
719.99999993649965
 20
145.99999999999989
 30
0.0
 11
739.99999993649976
 21
145.99999999999989
 31
0.0
  0
LINE
  5
705
  8
2
 10
719.99999993649965
 20
135.99999999999989
 30
0.0
 11
739.99999993649976
 21
135.99999999999989
 31
0.0
  0
ARC
  5
706
  8
2
 10
719.99999993649965
 20
140.99999999999989
 30
0.0
 40
4.9999999999999911
 50
90.0
 51
180.0
  0
ARC
  5
707
  8
2
 10
719.99999993649965
 20
140.99999999999989
 30
0.0
 40
4.9999999999999911
 50
180.0
 51
270.0
  0
ARC
  5
708
  8
2
 10
739.99999993649976
 20
140.99999999999989
 30
0.0
 40
4.9999999999999911
 50
0.0
 51
90.0
  0
ARC
  5
709
  8
2
 10
739.99999993649976
 20
140.99999999999989
 30
0.0
 40
4.9999999999999911
 50
270.0
 51
0.0
  0
LINE
  5
70A
  8
2
 10
804.99999993650147
 20
145.99999999999989
 30
0.0
 11
814.99999993650181
 21
145.99999999999989
 31
0.0
  0
LINE
  5
70B
  8
2
 10
804.99999993650147
 20
135.99999999999989
 30
0.0
 11
814.99999993650181
 21
135.99999999999989
 31
0.0
  0
ARC
  5
70C
  8
2
 10
804.99999993650147
 20
140.99999999999989
 30
0.0
 40
4.9999999999999911
 50
90.0
 51
180.0
  0
ARC
  5
70D
  8
2
 10
804.99999993650147
 20
140.99999999999989
 30
0.0
 40
4.9999999999999911
 50
180.0
 51
270.0
  0
ARC
  5
70E
  8
2
 10
814.99999993650181
 20
140.99999999999989
 30
0.0
 40
4.9999999999999911
 50
0.0
 51
90.0
  0
ARC
  5
70F
  8
2
 10
814.99999993650181
 20
140.99999999999989
 30
0.0
 40
4.9999999999999911
 50
270.0
 51
0.0
  0
CIRCLE
  5
710
  8
2
 10
660.99999993649976
 20
140.99999999999989
 30
0.0
 40
4.4721359549995814
  0
CIRCLE
  5
711
  8
2
 10
655.10507047313308
 20
146.71123920877719
 30
0.0
 40
1.552901623107285
  0
CIRCLE
  5
712
  8
2
 10
666.62361024601626
 20
135.31009603888569
 30
0.0
 40
1.552901623107285
  0
LINE
  5
713
  8
1
 62
     7
 10
639.99999993649976
 20
151.0
 30
0.0
 11
639.99999993649976
 21
130.99999999999989
 31
0.0
  0
LINE
  5
714
  8
1
 62
     7
 10
830.00000006350001
 20
153.0
 30
0.0
 11
830.00000006350001
 21
128.99999999999989
 31
0.0
  0
LINE
  5
715
  8
1
 62
     7
 10
642.99999993649965
 20
151.0
 30
0.0
 11
642.99999993649965
 21
153.0
 31
0.0
  0
LINE
  5
716
  8
1
 62
     7
 10
647.99999993649976
 20
153.0
 30
0.0
 11
642.99999993649965
 21
153.0
 31
0.0
  0
LINE
  5
717
  8
1
 62
     7
 10
647.99999993649976
 20
153.0
 30
0.0
 11
647.99999993649976
 21
151.0
 31
0.0
  0
LINE
  5
718
  8
1
 62
     7
 10
704.99999993649965
 20
151.0
 30
0.0
 11
704.99999993649965
 21
153.0
 31
0.0
  0
LINE
  5
719
  8
1
 62
     7
 10
704.99999993649965
 20
153.0
 30
0.0
 11
714.99999993649976
 21
153.0
 31
0.0
  0
LINE
  5
71A
  8
1
 62
     7
 10
714.99999993649976
 20
153.0
 30
0.0
 11
714.99999993649976
 21
151.0
 31
0.0
  0
POLYLINE
  5
71B
  8
1
 62
     7
 66
     1
 10
0.0
 20
0.0
 30
0.0
  0
VERTEX
  5
BF1
  8
1
 62
     7
 10
647.99999993649976
 20
151.0
 30
0.0
  0
VERTEX
  5
BF2
  8
1
 62
     7
 10
704.99999993649965
 20
151.0
 30
0.0
  0
SEQEND
  5
BF3
  8
1
 62
     7
  0
LINE
  5
71C
  8
1
 62
     7
 10
744.99999993649965
 20
151.0
 30
0.0
 11
744.99999993649965
 21
153.0
 31
0.0
  0
LINE
  5
71D
  8
1
 62
     7
 10
744.99999993649965
 20
153.0
 30
0.0
 11
754.99999993649965
 21
153.0
 31
0.0
  0
LINE
  5
71E
  8
1
 62
     7
 10
754.99999993649965
 20
153.0
 30
0.0
 11
754.99999993649965
 21
151.0
 31
0.0
  0
LINE
  5
71F
  8
1
 62
     7
 10
790.0000000634999
 20
150.99999999999989
 30
0.0
 11
790.0000000634999
 21
152.99999999999989
 31
0.0
  0
LINE
  5
720
  8
1
 62
     7
 10
789.99999993650056
 20
153.0
 30
0.0
 11
799.99999993650135
 21
153.0
 31
0.0
  0
LINE
  5
721
  8
1
 62
     7
 10
800.0000000634999
 20
152.99999999999989
 30
0.0
 11
800.0000000634999
 21
150.99999999999989
 31
0.0
  0
POLYLINE
  5
722
  8
1
 62
     7
 66
     1
 10
0.0
 20
0.0
 30
0.0
  0
VERTEX
  5
BF4
  8
1
 62
     7
 10
754.99999993649965
 20
151.0
 30
0.0
  0
VERTEX
  5
BF5
  8
1
 62
     7
 10
790.0000000634999
 20
150.99999999999989
 30
0.0
  0
SEQEND
  5
BF6
  8
1
 62
     7
  0
POLYLINE
  5
723
  8
1
 62
     7
 66
     1
 10
0.0
 20
0.0
 30
0.0
  0
VERTEX
  5
BF7
  8
1
 62
     7
 10
714.99999993649976
 20
151.0
 30
0.0
  0
VERTEX
  5
BF8
  8
1
 62
     7
 10
744.99999993649965
 20
151.0
 30
0.0
  0
SEQEND
  5
BF9
  8
1
 62
     7
  0
LINE
  5
724
  8
1
 62
     7
 10
800.0000000634999
 20
151.0
 30
0.0
 11
824.99999993650192
 21
151.0
 31
0.0
  0
LINE
  5
725
  8
1
 62
     7
 10
824.99999993650192
 20
151.0
 30
0.0
 11
824.99999993650192
 21
153.0
 31
0.0
  0
LINE
  5
726
  8
1
 62
     7
 10
824.99999993650192
 20
153.0
 30
0.0
 11
830.00000006350001
 21
153.0
 31
0.0
  0
LINE
  5
727
  8
1
 62
     7
 10
642.99999993649965
 20
130.99999999999989
 30
0.0
 11
642.99999993649965
 21
128.99999999999989
 31
0.0
  0
LINE
  5
728
  8
1
 62
     7
 10
647.99999993649976
 20
128.99999999999989
 30
0.0
 11
642.99999993649965
 21
128.99999999999989
 31
0.0
  0
LINE
  5
729
  8
1
 62
     7
 10
647.99999993649976
 20
128.99999999999989
 30
0.0
 11
647.99999993649976
 21
130.99999999999989
 31
0.0
  0
LINE
  5
72A
  8
1
 62
     7
 10
704.99999993649965
 20
130.99999999999989
 30
0.0
 11
704.99999993649965
 21
128.99999999999989
 31
0.0
  0
LINE
  5
72B
  8
1
 62
     7
 10
704.99999993649965
 20
128.99999999999989
 30
0.0
 11
714.99999993649976
 21
128.99999999999989
 31
0.0
  0
LINE
  5
72C
  8
1
 62
     7
 10
714.99999993649976
 20
128.99999999999989
 30
0.0
 11
714.99999993649976
 21
130.99999999999989
 31
0.0
  0
POLYLINE
  5
72D
  8
1
 62
     7
 66
     1
 10
0.0
 20
0.0
 30
0.0
  0
VERTEX
  5
BFA
  8
1
 62
     7
 10
647.99999993649976
 20
130.99999999999989
 30
0.0
  0
VERTEX
  5
BFB
  8
1
 62
     7
 10
704.99999993649965
 20
130.99999999999989
 30
0.0
  0
SEQEND
  5
BFC
  8
1
 62
     7
  0
LINE
  5
72E
  8
1
 62
     7
 10
744.99999993649965
 20
130.99999999999989
 30
0.0
 11
744.99999993649965
 21
128.99999999999989
 31
0.0
  0
LINE
  5
72F
  8
1
 62
     7
 10
744.99999993649965
 20
128.99999999999989
 30
0.0
 11
754.99999993649965
 21
128.99999999999989
 31
0.0
  0
LINE
  5
730
  8
1
 62
     7
 10
754.99999993649965
 20
128.99999999999989
 30
0.0
 11
754.99999993649965
 21
130.99999999999989
 31
0.0
  0
LINE
  5
731
  8
1
 62
     7
 10
790.0000000634999
 20
130.99999999999989
 30
0.0
 11
790.0000000634999
 21
128.99999999999989
 31
0.0
  0
LINE
  5
732
  8
1
 62
     7
 10
789.99999993650056
 20
128.99999999999989
 30
0.0
 11
799.99999993650135
 21
128.99999999999989
 31
0.0
  0
LINE
  5
733
  8
1
 62
     7
 10
800.0000000634999
 20
128.99999999999989
 30
0.0
 11
800.0000000634999
 21
130.99999999999989
 31
0.0
  0
POLYLINE
  5
734
  8
1
 62
     7
 66
     1
 10
0.0
 20
0.0
 30
0.0
  0
VERTEX
  5
BFD
  8
1
 62
     7
 10
754.99999993649965
 20
130.99999999999989
 30
0.0
  0
VERTEX
  5
BFE
  8
1
 62
     7
 10
790.0000000634999
 20
130.99999999999989
 30
0.0
  0
SEQEND
  5
BFF
  8
1
 62
     7
  0
POLYLINE
  5
735
  8
1
 62
     7
 66
     1
 10
0.0
 20
0.0
 30
0.0
  0
VERTEX
  5
C00
  8
1
 62
     7
 10
714.99999993649976
 20
130.99999999999989
 30
0.0
  0
VERTEX
  5
C01
  8
1
 62
     7
 10
744.99999993649965
 20
130.99999999999989
 30
0.0
  0
SEQEND
  5
C02
  8
1
 62
     7
  0
LINE
  5
736
  8
1
 62
     7
 10
800.0000000634999
 20
130.99999999999989
 30
0.0
 11
824.99999993650192
 21
130.99999999999989
 31
0.0
  0
LINE
  5
737
  8
1
 62
     7
 10
824.99999993650192
 20
130.99999999999989
 30
0.0
 11
824.99999993650192
 21
128.99999999999989
 31
0.0
  0
LINE
  5
738
  8
1
 62
     7
 10
824.99999993650192
 20
128.99999999999989
 30
0.0
 11
830.00000006350001
 21
128.99999999999989
 31
0.0
  0
LINE
  5
739
  8
1
 10
642.99999993649965
 20
151.0
 30
0.0
 11
639.99999993649976
 21
151.0
 31
0.0
  0
LINE
  5
73A
  8
1
 10
639.99999993649976
 20
130.99999999999989
 30
0.0
 11
642.99999993649965
 21
130.99999999999989
 31
0.0
  0
LINE
  5
73B
  8
2
 10
680.00000019049958
 20
146.00000025400001
 30
0.0
 11
700.00000019049969
 21
146.00000025400001
 31
0.0
  0
LINE
  5
73C
  8
2
 10
680.00000019049958
 20
136.00000025400001
 30
0.0
 11
700.00000019049969
 21
136.00000025400001
 31
0.0
  0
ARC
  5
73D
  8
2
 10
680.00000019049958
 20
141.00000025400001
 30
0.0
 40
4.9999999999999911
 50
90.0
 51
180.0
  0
ARC
  5
73E
  8
2
 10
680.00000019049958
 20
141.00000025400001
 30
0.0
 40
4.9999999999999911
 50
180.0
 51
270.0
  0
ARC
  5
73F
  8
2
 10
700.00000019049969
 20
141.00000025400001
 30
0.0
 40
4.9999999999999911
 50
0.0
 51
90.0
  0
ARC
  5
740
  8
2
 10
700.00000019049969
 20
141.00000025400001
 30
0.0
 40
4.9999999999999911
 50
270.0
 51
0.0
  0
CIRCLE
  5
741
  8
2
 10
655.39394622967416
 20
135.39394629317391
 30
0.0
 40
1.552901623107285
  0
CIRCLE
  5
742
  8
2
 10
666.63597299629055
 20
146.63597305979019
 30
0.0
 40
1.552901623107285
  0
LINE
  5
744
  8
1
 10
72.829373751904342
 20
216.48468437204551
 30
0.000000254
 11
53.029373751904522
 21
216.48468437204551
 31
0.000000254
  0
LINE
  5
745
  8
1
 10
50.829373751904463
 20
216.48468437204551
 30
0.000000254
 11
45.929373751904507
 21
216.48468437204551
 31
0.000000254
  0
LINE
  5
746
  8
1
 10
75.029373751904373
 20
216.48468437204551
 30
0.000000254
 11
102.92937375190429
 21
216.48468437204551
 31
0.000000254
  0
LINE
  5
747
  8
1
 10
42.929373751904457
 20
219.48468437204539
 30
0.000000254
 11
42.929373751904457
 21
233.48468437204539
 31
0.000000254
  0
LINE
  5
748
  8
1
 10
45.929373751904507
 20
236.48468437204551
 30
0.000000254
 11
92.929373751903739
 21
236.48468437204551
 31
0.000000254
  0
LINE
  5
749
  8
1
 10
102.92937375190439
 20
216.48468437204551
 30
0.000000254
 11
122.2959368979038
 21
206.8014027990456
 31
0.000000254
  0
LINE
  5
74A
  8
1
 10
132.92937375190431
 20
209.48468437204551
 30
0.000000254
 11
132.92937375190431
 21
219.63058240579571
 31
0.000000254
  0
LINE
  5
74B
  8
1
 10
112.9293737519038
 20
231.48468437204571
 30
0.000000254
 11
131.27101453840419
 21
222.31386397879541
 31
0.000000254
  0
LINE
  5
74C
  8
1
 10
129.0293737519043
 20
210.48468437204539
 30
0.000000254
 11
126.8293737519043
 21
210.48468437204539
 31
0.000000254
  0
ARC
  5
74D
  8
1
 10
45.929373751904507
 20
219.48468437204539
 30
0.000000254
 40
3.0
 50
180.0
 51
270.0
  0
ARC
  5
74E
  8
1
 10
45.929373751904507
 20
233.48468437204539
 30
0.000000254
 40
3.0
 50
89.999999999999119
 51
180.0
  0
ARC
  5
74F
  8
1
 10
129.92937375190431
 20
219.63058240579571
 30
0.000000254
 40
3.0
 50
0.0000000000000891
 51
63.434948822922763
  0
ARC
  5
750
  8
1
 10
129.92937375190431
 20
209.48468437204551
 30
0.000000254
 40
3.0
 50
270.0
 51
0.0000000000000799
  0
ARC
  5
751
  8
1
 10
123.63757768440369
 20
209.48468437204551
 30
0.000000254
 40
3.0
 50
243.4349488229208
 51
270.0
  0
ARC
  5
752
  8
1
 10
123.63757768440369
 20
209.48468437204551
 30
0.000000254
 40
3.0
 50
243.43494882292191
 51
270.0
  0
CIRCLE
  5
753
  8
2
 10
120.92937375190439
 20
217.48468437204539
 30
0.000000254
 40
3.9999999999999978
  0
CIRCLE
  5
754
  8
2
 10
111.052479631522
 20
222.3615784924279
 30
0.000000254
 40
3.9999999999999978
  0
CIRCLE
  5
755
  8
2
 10
100.13571991320509
 20
226.56480574050599
 30
0.000000254
 40
4.9999999999999991
  0
CIRCLE
  5
756
  8
2
 10
86.929373751904365
 20
226.48468437204539
 30
0.000000254
 40
4.9999999999999991
  0
CIRCLE
  5
757
  8
2
 10
62.929373751904429
 20
226.48468437204539
 30
0.000000254
 40
4.9999999999999991
  0
LINE
  5
758
  8
1
 10
75.029373751904373
 20
223.98468437204539
 30
0.000000254
 11
72.829373751904342
 21
223.98468437204539
 31
0.000000254
  0
LINE
  5
759
  8
1
 10
53.029373751904522
 20
223.98468437204539
 30
0.000000254
 11
50.829373751904463
 21
223.98468437204539
 31
0.000000254
  0
ARC
  5
75A
  8
1
 10
94.429373751904293
 20
199.98468437204551
 30
0.000000254
 40
36.53080891521568
 50
59.57421619803953
 51
92.353296866109076
  0
LINE
  5
75B
  8
1
 10
129.0293737519043
 20
206.48468437204539
 30
0.000000254
 11
129.92937375190431
 21
206.48468437204539
 31
0.000000254
  0
LINE
  5
75C
  8
1
 10
123.63757768440369
 20
206.48468437204539
 30
0.000000254
 11
126.8293737519043
 21
206.48468437204539
 31
0.000000254
  0
LINE
  5
75D
  8
1
 10
75.029373751904373
 20
223.98468437204539
 30
0.000000254
 11
75.029373751904373
 21
216.48468437204551
 31
0.000000254
  0
LINE
  5
75E
  8
1
 10
72.829373751904342
 20
223.98468437204539
 30
0.000000254
 11
72.829373751904342
 21
216.48468437204551
 31
0.000000254
  0
LINE
  5
75F
  8
1
 10
53.029373751904522
 20
223.98468437204539
 30
0.000000254
 11
53.029373751904522
 21
216.48468437204551
 31
0.000000254
  0
LINE
  5
760
  8
1
 10
50.829373751904463
 20
223.98468437204539
 30
0.000000254
 11
50.829373751904463
 21
216.48468437204551
 31
0.000000254
  0
LINE
  5
761
  8
1
 10
129.0293737519043
 20
210.48468437204539
 30
0.000000254
 11
129.0293737519043
 21
206.48468437204539
 31
0.000000254
  0
LINE
  5
762
  8
1
 10
126.8293737519043
 20
210.48468437204539
 30
0.000000254
 11
126.8293737519043
 21
206.48468437204539
 31
0.000000254
  0
LINE
  5
763
  8
1
 10
73.301385778240601
 20
192.50490068515981
 30
0.000000254
 11
53.501385778240767
 21
192.50490068515981
 31
0.000000254
  0
LINE
  5
764
  8
1
 10
51.301385778240729
 20
192.50490068515981
 30
0.000000254
 11
46.401385778240758
 21
192.50490068515981
 31
0.000000254
  0
LINE
  5
765
  8
1
 10
75.501385778240646
 20
192.50490068515981
 30
0.000000254
 11
103.40138577824059
 21
192.50490068515981
 31
0.000000254
  0
LINE
  5
766
  8
1
 10
43.401385778240709
 20
195.5049006851599
 30
0.000000254
 11
43.401385778240709
 21
209.5049006851597
 31
0.000000254
  0
LINE
  5
767
  8
1
 10
46.401385778240758
 20
212.50490068515981
 30
0.000000254
 11
93.401385778239984
 21
212.50490068515981
 31
0.000000254
  0
LINE
  5
768
  8
1
 10
103.40138577824069
 20
192.50490068515981
 30
0.000000254
 11
122.7679489242401
 21
182.82161911215999
 31
0.000000254
  0
LINE
  5
769
  8
1
 10
133.40138577824061
 20
185.50490068515981
 30
0.000000254
 11
133.40138577824061
 21
195.65079871891001
 31
0.000000254
  0
LINE
  5
76A
  8
1
 10
113.4013857782401
 20
207.50490068516001
 30
0.000000254
 11
131.7430265647404
 21
198.3340802919098
 31
0.000000254
  0
LINE
  5
76B
  8
1
 10
129.50138577824049
 20
186.5049006851597
 30
0.000000254
 11
127.3013857782405
 21
186.5049006851597
 31
0.000000254
  0
ARC
  5
76C
  8
1
 10
46.401385778240758
 20
195.5049006851599
 30
0.000000254
 40
3.0
 50
180.0
 51
270.0
  0
ARC
  5
76D
  8
1
 10
46.401385778240758
 20
209.5049006851597
 30
0.000000254
 40
3.0
 50
89.999999999999119
 51
180.0
  0
ARC
  5
76E
  8
1
 10
130.40138577824061
 20
195.65079871891001
 30
0.000000254
 40
3.0
 50
0.0000000000000891
 51
63.434948822922763
  0
ARC
  5
76F
  8
1
 10
130.40138577824061
 20
185.50490068515981
 30
0.000000254
 40
3.0
 50
270.0
 51
0.0000000000000799
  0
ARC
  5
770
  8
1
 10
124.1095897107399
 20
185.50490068515981
 30
0.000000254
 40
3.0
 50
243.4349488229208
 51
270.0
  0
ARC
  5
771
  8
1
 10
124.1095897107399
 20
185.50490068515981
 30
0.000000254
 40
3.0
 50
243.43494882292191
 51
270.0
  0
CIRCLE
  5
772
  8
2
 10
121.40138577824059
 20
193.50490068515981
 30
0.000000254
 40
3.9999999999999978
  0
CIRCLE
  5
773
  8
2
 10
111.52449165785831
 20
198.38179480554211
 30
0.000000254
 40
3.9999999999999978
  0
CIRCLE
  5
774
  8
2
 10
100.6077319395413
 20
202.58502205362041
 30
0.000000254
 40
4.9999999999999991
  0
CIRCLE
  5
775
  8
2
 10
87.401385778240638
 20
202.5049006851597
 30
0.000000254
 40
4.9999999999999991
  0
CIRCLE
  5
776
  8
2
 10
63.401385778240687
 20
202.5049006851597
 30
0.000000254
 40
4.9999999999999991
  0
LINE
  5
777
  8
1
 10
75.501385778240646
 20
200.0049006851597
 30
0.000000254
 11
73.301385778240601
 21
200.0049006851597
 31
0.000000254
  0
LINE
  5
778
  8
1
 10
53.501385778240767
 20
200.0049006851597
 30
0.000000254
 11
51.301385778240729
 21
200.0049006851597
 31
0.000000254
  0
ARC
  5
779
  8
1
 10
94.901385778240567
 20
176.00490068515981
 30
0.000000254
 40
36.53080891521568
 50
59.57421619803953
 51
92.353296866109076
  0
LINE
  5
77A
  8
1
 10
129.50138577824049
 20
182.50490068515981
 30
0.000000254
 11
130.40138577824061
 21
182.50490068515981
 31
0.000000254
  0
LINE
  5
77B
  8
1
 10
124.1095897107399
 20
182.50490068515981
 30
0.000000254
 11
127.3013857782405
 21
182.50490068515981
 31
0.000000254
  0
LINE
  5
77C
  8
1
 10
75.501385778240646
 20
200.0049006851597
 30
0.000000254
 11
75.501385778240646
 21
192.50490068515981
 31
0.000000254
  0
LINE
  5
77D
  8
1
 10
73.301385778240601
 20
200.0049006851597
 30
0.000000254
 11
73.301385778240601
 21
192.50490068515981
 31
0.000000254
  0
LINE
  5
77E
  8
1
 10
53.501385778240767
 20
200.0049006851597
 30
0.000000254
 11
53.501385778240767
 21
192.50490068515981
 31
0.000000254
  0
LINE
  5
77F
  8
1
 10
51.301385778240729
 20
200.0049006851597
 30
0.000000254
 11
51.301385778240729
 21
192.50490068515981
 31
0.000000254
  0
LINE
  5
780
  8
1
 10
129.50138577824049
 20
186.5049006851597
 30
0.000000254
 11
129.50138577824049
 21
182.50490068515981
 31
0.000000254
  0
LINE
  5
781
  8
1
 10
127.3013857782405
 20
186.5049006851597
 30
0.000000254
 11
127.3013857782405
 21
182.50490068515981
 31
0.000000254
  0
LINE
  5
783
  8
1
 10
231.89999999999969
 20
215.8869855144678
 30
0.000000254
 11
212.09999999999991
 21
215.8869855144678
 31
0.000000254
  0
LINE
  5
784
  8
1
 10
209.89999999999989
 20
215.8869855144678
 30
0.000000254
 11
204.99999999999989
 21
215.8869855144678
 31
0.000000254
  0
LINE
  5
785
  8
1
 10
234.0999999999998
 20
215.8869855144678
 30
0.000000254
 11
261.99999999999972
 21
215.8869855144678
 31
0.000000254
  0
LINE
  5
786
  8
1
 10
201.99999999999989
 20
218.8869855144678
 30
0.000000254
 11
201.99999999999989
 21
232.88698551446771
 31
0.000000254
  0
LINE
  5
787
  8
1
 10
204.99999999999989
 20
235.8869855144678
 30
0.000000254
 11
251.9999999999992
 21
235.8869855144678
 31
0.000000254
  0
LINE
  5
788
  8
1
 10
261.99999999999977
 20
215.8869855144678
 30
0.000000254
 11
281.36656314599929
 21
206.20370394146801
 31
0.000000254
  0
LINE
  5
789
  8
1
 10
291.99999999999977
 20
208.8869855144678
 30
0.000000254
 11
291.99999999999977
 21
219.03288354821811
 31
0.000000254
  0
LINE
  5
78A
  8
1
 10
271.99999999999932
 20
230.88698551446799
 30
0.000000254
 11
290.34164078649962
 21
221.71616512121781
 31
0.000000254
  0
LINE
  5
78B
  8
1
 10
288.0999999999998
 20
209.88698551446771
 30
0.000000254
 11
285.89999999999969
 21
209.88698551446771
 31
0.000000254
  0
ARC
  5
78C
  8
1
 10
204.99999999999989
 20
218.8869855144678
 30
0.000000254
 40
3.0
 50
180.0
 51
270.0
  0
ARC
  5
78D
  8
1
 10
204.99999999999989
 20
232.88698551446771
 30
0.000000254
 40
3.0
 50
89.999999999999119
 51
180.0
  0
ARC
  5
78E
  8
1
 10
288.99999999999972
 20
219.03288354821811
 30
0.000000254
 40
3.0
 50
0.0000000000000891
 51
63.434948822922763
  0
ARC
  5
78F
  8
1
 10
288.99999999999972
 20
208.8869855144678
 30
0.000000254
 40
3.0
 50
270.0
 51
0.0000000000000799
  0
ARC
  5
790
  8
1
 10
282.7082039324992
 20
208.8869855144678
 30
0.000000254
 40
3.0
 50
243.4349488229208
 51
270.0
  0
ARC
  5
791
  8
1
 10
282.7082039324992
 20
208.8869855144678
 30
0.000000254
 40
3.0
 50
243.43494882292191
 51
270.0
  0
CIRCLE
  5
792
  8
2
 10
279.99999999999977
 20
216.8869855144678
 30
0.000000254
 40
3.9999999999999978
  0
CIRCLE
  5
793
  8
2
 10
270.12310587961753
 20
221.76387963485021
 30
0.000000254
 40
3.9999999999999978
  0
CIRCLE
  5
794
  8
2
 10
259.20634616130047
 20
225.96710688292831
 30
0.000000254
 40
4.9999999999999991
  0
CIRCLE
  5
795
  8
2
 10
245.9999999999998
 20
225.88698551446771
 30
0.000000254
 40
4.9999999999999991
  0
CIRCLE
  5
796
  8
2
 10
221.9999999999998
 20
225.88698551446771
 30
0.000000254
 40
4.9999999999999991
  0
LINE
  5
797
  8
1
 10
234.0999999999998
 20
223.3869855144678
 30
0.000000254
 11
231.89999999999969
 21
223.3869855144678
 31
0.000000254
  0
LINE
  5
798
  8
1
 10
212.09999999999991
 20
223.3869855144678
 30
0.000000254
 11
209.89999999999989
 21
223.3869855144678
 31
0.000000254
  0
ARC
  5
799
  8
1
 10
253.49999999999969
 20
199.3869855144678
 30
0.000000254
 40
36.53080891521568
 50
59.57421619803953
 51
92.353296866109076
  0
LINE
  5
79A
  8
1
 10
288.0999999999998
 20
205.88698551446771
 30
0.000000254
 11
288.99999999999972
 21
205.88698551446771
 31
0.000000254
  0
LINE
  5
79B
  8
1
 10
282.7082039324992
 20
205.88698551446771
 30
0.000000254
 11
285.89999999999969
 21
205.88698551446771
 31
0.000000254
  0
LINE
  5
79C
  8
1
 10
234.0999999999998
 20
223.3869855144678
 30
0.000000254
 11
234.0999999999998
 21
215.8869855144678
 31
0.000000254
  0
LINE
  5
79D
  8
1
 10
231.89999999999969
 20
223.3869855144678
 30
0.000000254
 11
231.89999999999969
 21
215.8869855144678
 31
0.000000254
  0
LINE
  5
79E
  8
1
 10
212.09999999999991
 20
223.3869855144678
 30
0.000000254
 11
212.09999999999991
 21
215.8869855144678
 31
0.000000254
  0
LINE
  5
79F
  8
1
 10
209.89999999999989
 20
223.3869855144678
 30
0.000000254
 11
209.89999999999989
 21
215.8869855144678
 31
0.000000254
  0
LINE
  5
7A0
  8
1
 10
288.0999999999998
 20
209.88698551446771
 30
0.000000254
 11
288.0999999999998
 21
205.88698551446771
 31
0.000000254
  0
LINE
  5
7A1
  8
1
 10
285.89999999999969
 20
209.88698551446771
 30
0.000000254
 11
285.89999999999969
 21
205.88698551446771
 31
0.000000254
  0
LINE
  5
7A2
  8
1
 10
232.37201202633599
 20
191.9072018275821
 30
0.000000254
 11
212.57201202633621
 21
191.9072018275821
 31
0.000000254
  0
LINE
  5
7A3
  8
1
 10
210.37201202633611
 20
191.9072018275821
 30
0.000000254
 11
205.47201202633619
 21
191.9072018275821
 31
0.000000254
  0
LINE
  5
7A4
  8
1
 10
234.57201202633601
 20
191.9072018275821
 30
0.000000254
 11
262.47201202633602
 21
191.9072018275821
 31
0.000000254
  0
LINE
  5
7A5
  8
1
 10
202.4720120263361
 20
194.9072018275821
 30
0.000000254
 11
202.4720120263361
 21
208.9072018275821
 31
0.000000254
  0
LINE
  5
7A6
  8
1
 10
205.47201202633619
 20
211.9072018275821
 30
0.000000254
 11
252.47201202633539
 21
211.9072018275821
 31
0.000000254
  0
LINE
  5
7A7
  8
1
 10
262.47201202633607
 20
191.9072018275821
 30
0.000000254
 11
281.83857517233548
 21
182.2239202545824
 31
0.000000254
  0
LINE
  5
7A8
  8
1
 10
292.4720120263359
 20
184.9072018275821
 30
0.000000254
 11
292.4720120263359
 21
195.05309986133241
 31
0.000000254
  0
LINE
  5
7A9
  8
1
 10
272.47201202633551
 20
206.90720182758241
 30
0.000000254
 11
290.81365281283593
 21
197.73638143433209
 31
0.000000254
  0
LINE
  5
7AA
  8
1
 10
288.57201202633598
 20
185.9072018275821
 30
0.000000254
 11
286.37201202633599
 21
185.9072018275821
 31
0.000000254
  0
ARC
  5
7AB
  8
1
 10
205.47201202633619
 20
194.9072018275821
 30
0.000000254
 40
3.0
 50
180.0
 51
270.0
  0
ARC
  5
7AC
  8
1
 10
205.47201202633619
 20
208.9072018275821
 30
0.000000254
 40
3.0
 50
89.999999999999119
 51
180.0
  0
ARC
  5
7AD
  8
1
 10
289.47201202633602
 20
195.05309986133241
 30
0.000000254
 40
3.0
 50
0.0000000000000891
 51
63.434948822922763
  0
ARC
  5
7AE
  8
1
 10
289.47201202633602
 20
184.9072018275821
 30
0.000000254
 40
3.0
 50
270.0
 51
0.0000000000000799
  0
ARC
  5
7AF
  8
1
 10
283.18021595883528
 20
184.9072018275821
 30
0.000000254
 40
3.0
 50
243.4349488229208
 51
270.0
  0
ARC
  5
7B0
  8
1
 10
283.18021595883528
 20
184.9072018275821
 30
0.000000254
 40
3.0
 50
243.43494882292191
 51
270.0
  0
CIRCLE
  5
7B1
  8
2
 10
280.47201202633607
 20
192.9072018275821
 30
0.000000254
 40
3.9999999999999978
  0
CIRCLE
  5
7B2
  8
2
 10
270.59511790595371
 20
197.78409594796449
 30
0.000000254
 40
3.9999999999999978
  0
CIRCLE
  5
7B3
  8
2
 10
259.67835818763677
 20
201.98732319604269
 30
0.000000254
 40
4.9999999999999991
  0
CIRCLE
  5
7B4
  8
2
 10
246.47201202633599
 20
201.90720182758201
 30
0.000000254
 40
4.9999999999999991
  0
CIRCLE
  5
7B5
  8
2
 10
222.4720120263361
 20
201.90720182758201
 30
0.000000254
 40
4.9999999999999991
  0
LINE
  5
7B6
  8
1
 10
234.57201202633601
 20
199.4072018275821
 30
0.000000254
 11
232.37201202633599
 21
199.4072018275821
 31
0.000000254
  0
LINE
  5
7B7
  8
1
 10
212.57201202633621
 20
199.4072018275821
 30
0.000000254
 11
210.37201202633611
 21
199.4072018275821
 31
0.000000254
  0
ARC
  5
7B8
  8
1
 10
253.97201202633599
 20
175.4072018275821
 30
0.000000254
 40
36.53080891521568
 50
59.57421619803953
 51
92.353296866109076
  0
LINE
  5
7B9
  8
1
 10
288.57201202633598
 20
181.9072018275821
 30
0.000000254
 11
289.47201202633602
 21
181.9072018275821
 31
0.000000254
  0
LINE
  5
7BA
  8
1
 10
283.18021595883528
 20
181.9072018275821
 30
0.000000254
 11
286.37201202633599
 21
181.9072018275821
 31
0.000000254
  0
LINE
  5
7BB
  8
1
 10
234.57201202633601
 20
199.4072018275821
 30
0.000000254
 11
234.57201202633601
 21
191.9072018275821
 31
0.000000254
  0
LINE
  5
7BC
  8
1
 10
232.37201202633599
 20
199.4072018275821
 30
0.000000254
 11
232.37201202633599
 21
191.9072018275821
 31
0.000000254
  0
LINE
  5
7BD
  8
1
 10
212.57201202633621
 20
199.4072018275821
 30
0.000000254
 11
212.57201202633621
 21
191.9072018275821
 31
0.000000254
  0
LINE
  5
7BE
  8
1
 10
210.37201202633611
 20
199.4072018275821
 30
0.000000254
 11
210.37201202633611
 21
191.9072018275821
 31
0.000000254
  0
LINE
  5
7BF
  8
1
 10
288.57201202633598
 20
185.9072018275821
 30
0.000000254
 11
288.57201202633598
 21
181.9072018275821
 31
0.000000254
  0
LINE
  5
7C0
  8
1
 10
286.37201202633599
 20
185.9072018275821
 30
0.000000254
 11
286.37201202633599
 21
181.9072018275821
 31
0.000000254
  0
LINE
  5
7C2
  8
1
 10
527.73972192659096
 20
226.50908502358459
 30
0.000000254
 11
539.73972192659096
 21
226.50908502358459
 31
0.000000254
  0
LINE
  5
7C3
  8
1
 10
539.73972192659096
 20
226.50908502358459
 30
0.000000254
 11
539.73972192659096
 21
228.50908502358459
 31
0.000000254
  0
LINE
  5
7C4
  8
1
 10
539.73972192659096
 20
228.50908502358459
 30
0.000000254
 11
549.73972192659096
 21
228.50908502358459
 31
0.000000254
  0
LINE
  5
7C5
  8
1
 10
549.73972192659096
 20
228.50908502358459
 30
0.000000254
 11
549.73972192659096
 21
226.50908502358459
 31
0.000000254
  0
LINE
  5
7C6
  8
1
 10
549.73972192659096
 20
226.50908502358459
 30
0.000000254
 11
579.73972192659085
 21
226.50908502358459
 31
0.000000254
  0
LINE
  5
7C7
  8
1
 10
579.73972192659085
 20
226.50908502358459
 30
0.000000254
 11
579.73972192659085
 21
228.50908502358459
 31
0.000000254
  0
LINE
  5
7C8
  8
1
 10
579.73972192659085
 20
228.50908502358459
 30
0.000000254
 11
589.73972192659096
 21
228.50908502358459
 31
0.000000254
  0
LINE
  5
7C9
  8
1
 10
589.73972192659096
 20
228.50908502358459
 30
0.000000254
 11
589.73972192659096
 21
226.50908502358459
 31
0.000000254
  0
LINE
  5
7CA
  8
1
 10
589.73972192659096
 20
226.50908502358459
 30
0.000000254
 11
601.73972192659085
 21
226.50908502358459
 31
0.000000254
  0
LINE
  5
7CB
  8
1
 10
527.73972192659096
 20
226.50908502358459
 30
0.000000254
 11
527.73972192659096
 21
196.5090850235847
 31
0.000000254
  0
LINE
  5
7CC
  8
1
 10
527.73972192659096
 20
196.5090850235847
 30
0.000000254
 11
539.73972192659096
 21
196.5090850235847
 31
0.000000254
  0
LINE
  5
7CD
  8
1
 10
539.73972192659096
 20
196.5090850235847
 30
0.000000254
 11
539.73972192659096
 21
194.50908502358479
 31
0.000000254
  0
LINE
  5
7CE
  8
1
 10
539.73972192659096
 20
194.50908502358479
 30
0.000000254
 11
549.73972192659096
 21
194.50908502358479
 31
0.000000254
  0
LINE
  5
7CF
  8
1
 10
549.73972192659096
 20
194.50908502358479
 30
0.000000254
 11
549.73972192659096
 21
196.5090850235847
 31
0.000000254
  0
LINE
  5
7D0
  8
1
 10
549.73972192659096
 20
196.5090850235847
 30
0.000000254
 11
579.73972192659085
 21
196.5090850235847
 31
0.000000254
  0
LINE
  5
7D1
  8
1
 10
579.73972192659085
 20
194.50908502358479
 30
0.000000254
 11
589.73972192659096
 21
194.50908502358479
 31
0.000000254
  0
LINE
  5
7D2
  8
1
 10
589.73972192659096
 20
194.50908502358479
 30
0.000000254
 11
589.73972192659096
 21
196.5090850235847
 31
0.000000254
  0
LINE
  5
7D3
  8
1
 10
589.73972192659096
 20
196.5090850235847
 30
0.000000254
 11
601.73972192659085
 21
196.5090850235847
 31
0.000000254
  0
LINE
  5
7D4
  8
1
 10
601.73972192659085
 20
226.50908502358459
 30
0.000000254
 11
601.73972192659085
 21
196.5090850235847
 31
0.000000254
  0
LINE
  5
7D5
  8
2
 10
532.73972192659085
 20
218.50908502358479
 30
0.000000254
 11
532.73972192659085
 21
204.5090850235847
 31
0.000000254
  0
LINE
  5
7D6
  8
2
 10
596.73972192659107
 20
218.50908502358479
 30
0.000000254
 11
596.73972192659107
 21
204.5090850235847
 31
0.000000254
  0
LINE
  5
7D7
  8
2
 10
549.73972192659096
 20
218.50908502358479
 30
0.000000254
 11
549.73972192659096
 21
204.5090850235847
 31
0.000000254
  0
LINE
  5
7D8
  8
2
 10
554.73972192659096
 20
218.50908502358479
 30
0.000000254
 11
554.73972192659096
 21
204.5090850235847
 31
0.000000254
  0
LINE
  5
7D9
  8
2
 10
574.73972192659096
 20
218.50908502358479
 30
0.000000254
 11
574.73972192659096
 21
204.5090850235847
 31
0.000000254
  0
LINE
  5
7DA
  8
2
 10
579.73972192659085
 20
218.50908502358479
 30
0.000000254
 11
579.73972192659085
 21
204.5090850235847
 31
0.000000254
  0
LINE
  5
7DB
  8
2
 10
535.73972192659096
 20
221.50908502358479
 30
0.000000254
 11
546.73972192659107
 21
221.50908502358479
 31
0.000000254
  0
LINE
  5
7DC
  8
2
 10
535.73972192659096
 20
201.5090850235847
 30
0.000000254
 11
546.73972192659107
 21
201.5090850235847
 31
0.000000254
  0
LINE
  5
7DD
  8
2
 10
582.73972192659085
 20
221.50908502358479
 30
0.000000254
 11
593.73972192659107
 21
221.50908502358479
 31
0.000000254
  0
LINE
  5
7DE
  8
2
 10
557.73972192659085
 20
221.50908502358479
 30
0.000000254
 11
571.73972192659085
 21
221.50908502358479
 31
0.000000254
  0
LINE
  5
7DF
  8
2
 10
582.73972192659085
 20
201.5090850235847
 30
0.000000254
 11
593.73972192659107
 21
201.5090850235847
 31
0.000000254
  0
LINE
  5
7E0
  8
2
 10
557.73972192659085
 20
201.5090850235847
 30
0.000000254
 11
571.73972192659085
 21
201.5090850235847
 31
0.000000254
  0
ARC
  5
7E1
  8
2
 10
535.73972192659096
 20
218.50908502358479
 30
0.000000254
 40
3.0
 50
90.000000000000057
 51
180.0
  0
ARC
  5
7E2
  8
2
 10
535.73972192659096
 20
204.5090850235847
 30
0.000000254
 40
3.0
 50
180.0
 51
270.0
  0
ARC
  5
7E3
  8
2
 10
546.73972192659107
 20
218.50908502358479
 30
0.000000254
 40
3.0
 50
0.0
 51
90.000000000000057
  0
ARC
  5
7E4
  8
2
 10
546.73972192659107
 20
204.5090850235847
 30
0.000000254
 40
3.0
 50
270.0
 51
0.0
  0
ARC
  5
7E5
  8
2
 10
557.73972192659085
 20
218.50908502358479
 30
0.000000254
 40
3.0
 50
90.000000000000057
 51
180.0
  0
ARC
  5
7E6
  8
2
 10
557.73972192659085
 20
204.5090850235847
 30
0.000000254
 40
3.0
 50
180.0
 51
270.0
  0
ARC
  5
7E7
  8
2
 10
571.73972192659085
 20
204.5090850235847
 30
0.000000254
 40
3.0
 50
270.0
 51
0.0000000000002398
  0
ARC
  5
7E8
  8
2
 10
571.73972192659085
 20
218.50908502358479
 30
0.000000254
 40
3.0
 50
0.0
 51
90.000000000000057
  0
ARC
  5
7E9
  8
2
 10
582.73972192659085
 20
218.50908502358479
 30
0.000000254
 40
3.0
 50
90.000000000000057
 51
180.0
  0
ARC
  5
7EA
  8
2
 10
582.73972192659085
 20
204.5090850235847
 30
0.000000254
 40
3.0
 50
180.0
 51
270.0
  0
ARC
  5
7EB
  8
2
 10
593.73972192659107
 20
204.5090850235847
 30
0.000000254
 40
3.0
 50
270.0
 51
0.0
  0
ARC
  5
7EC
  8
2
 10
593.73972192659107
 20
218.50908502358479
 30
0.000000254
 40
3.0
 50
0.0
 51
90.000000000000057
  0
LINE
  5
7ED
  8
1
 10
579.73972192659085
 20
196.5090850235847
 30
0.000000254
 11
579.73972192659085
 21
194.50908502358479
 31
0.000000254
  0
CIRCLE
  5
7EE
  8
3
 10
50.0
 20
79.999999999999986
 30
0.0
 40
1.299999999999998
  0
CIRCLE
  5
7EF
  8
3
 10
123.300000254
 20
164.300000254
 30
0.000000254
 40
1.299999999999998
  0
CIRCLE
  5
7F0
  8
3
 10
127.3000002539999
 20
24.300000254
 30
0.000000254
 40
1.299999999999998
  0
CIRCLE
  5
7F1
  8
3
 10
37.300000253999983
 20
25.30000025399999
 30
0.000000254
 40
1.299999999999998
  0
CIRCLE
  5
7F2
  8
3
 10
206.30000025399991
 20
84.300000253999997
 30
0.000000254
 40
1.299999999999998
  0
CIRCLE
  5
7F3
  8
3
 10
196.30000025399991
 20
26.30000025399999
 30
0.000000254
 40
1.299999999999998
  0
CIRCLE
  5
7F4
  8
3
 10
288.30000025399988
 20
28.300000253999979
 30
0.000000254
 40
1.299999999999998
  0
CIRCLE
  5
7F5
  8
3
 10
365.30000025399988
 20
85.300000253999968
 30
0.000000254
 40
1.299999999999998
  0
CIRCLE
  5
7F6
  8
3
 10
352.30000025399988
 20
28.300000253999979
 30
0.000000254
 40
1.299999999999998
  0
CIRCLE
  5
7F7
  8
3
 10
448.30000025399983
 20
29.30000025399999
 30
0.000000254
 40
1.299999999999998
  0
CIRCLE
  5
7F8
  8
3
 10
522.300000254
 20
80.300000253999968
 30
0.000000254
 40
1.299999999999998
  0
CIRCLE
  5
7F9
  8
3
 10
509.30000025399988
 20
28.300000253999979
 30
0.000000254
 40
1.299999999999998
  0
CIRCLE
  5
7FA
  8
3
 10
608.30000025399966
 20
28.300000253999979
 30
0.000000254
 40
1.299999999999998
  0
CIRCLE
  5
7FB
  8
3
 10
648.30000025399977
 20
117.3000002539999
 30
0.000000254
 40
1.299999999999998
  0
CIRCLE
  5
7FC
  8
3
 10
751.30000025399988
 20
114.300000254
 30
0.000000254
 40
1.299999999999998
  0
CIRCLE
  5
7FD
  8
3
 10
751.30000025399988
 20
31.300000253999979
 30
0.000000254
 40
1.299999999999998
  0
CIRCLE
  5
7FE
  8
3
 10
648.30000025399977
 20
31.300000253999979
 30
0.000000254
 40
1.299999999999998
  0
CIRCLE
  5
7FF
  8
3
 10
844.30000025399988
 20
121.3000002539999
 30
0.000000254
 40
1.299999999999998
  0
CIRCLE
  5
800
  8
3
 10
849.30000025399966
 20
31.300000253999979
 30
0.000000254
 40
1.299999999999998
  0
CIRCLE
  5
801
  8
3
 10
841.30000025399977
 20
229.30000025399991
 30
0.000000254
 40
1.299999999999998
  0
CIRCLE
  5
802
  8
3
 10
598.30000025399977
 20
180.30000025399991
 30
0.000000254
 40
1.299999999999998
  0
CIRCLE
  5
803
  8
3
 10
611.30000025399977
 20
226.300000254
 30
0.000000254
 40
1.299999999999998
  0
CIRCLE
  5
804
  8
3
 10
516.300000254
 20
216.30000025399991
 30
0.000000254
 40
1.299999999999998
  0
CIRCLE
  5
805
  8
3
 10
441.300000254
 20
181.30000025399991
 30
0.000000254
 40
1.299999999999998
  0
CIRCLE
  5
806
  8
3
 10
451.300000254
 20
225.30000025399991
 30
0.000000254
 40
1.299999999999998
  0
CIRCLE
  5
807
  8
3
 10
358.30000025399988
 20
217.30000025399991
 30
0.000000254
 40
1.299999999999998
  0
CIRCLE
  5
808
  8
3
 10
281.30000025399988
 20
165.30000025399991
 30
0.000000254
 40
1.299999999999998
  0
CIRCLE
  5
809
  8
3
 10
291.30000025399988
 20
231.30000025399991
 30
0.000000254
 40
1.299999999999998
  0
CIRCLE
  5
80A
  8
3
 10
196.30000025399991
 20
221.30000025399991
 30
0.000000254
 40
1.299999999999998
  0
CIRCLE
  5
80B
  8
3
 10
135.30000025399991
 20
229.30000025399991
 30
0.000000254
 40
1.299999999999998
  0
CIRCLE
  5
80C
  8
3
 10
37.300000253999983
 20
221.30000025399991
 30
0.000000254
 40
1.299999999999998
  0
ENDSEC
  0
EOF
