  0
SECTION
  2
HEADER
  9
$ACADVER
  1
AC1006
  9
$EXTMIN
 10
0.000000
 20
0.000000
 30
0.000000
  9
$EXTMAX
 10
300.000000
 20
300.000000
 30
0.000000
  0
ENDSEC
  0
SECTION
  2
ENTITIES
  0
POLYLINE
  8
0
 66
1
 70
1
  0
VERTEX
  8
0
 10
147.872445
 20
285.363954
 42
0.040105
  0
VERTEX
  8
0
 10
147.241065
 20
284.475495
 42
0.013021
  0
VERTEX
  8
0
 10
146.451578
 20
283.069464
 42
0.012886
  0
VERTEX
  8
0
 10
145.651996
 20
281.454876
 42
0.014151
  0
VERTEX
  8
0
 10
144.962715
 20
279.850353
 42
0.000000
  0
VERTEX
  8
0
 10
143.425429
 20
275.972798
 42
0.000000
  0
VERTEX
  8
0
 10
139.962715
 20
278.572704
 42
0.121528
  0
VERTEX
  8
0
 10
127.116658
 20
284.036695
 42
0.133530
  0
VERTEX
  8
0
 10
113.687145
 20
282.618717
 42
0.132912
  0
VERTEX
  8
0
 10
102.780269
 20
274.583164
 42
0.119895
  0
VERTEX
  8
0
 10
96.887009
 20
261.831206
 42
-0.013466
  0
VERTEX
  8
0
 10
96.384430
 20
259.596198
 42
-0.021232
  0
VERTEX
  8
0
 10
95.821254
 20
257.712917
 42
-0.016665
  0
VERTEX
  8
0
 10
95.264420
 20
256.261624
 42
-0.301440
  0
VERTEX
  8
0
 10
94.869895
 20
256.000000
 42
-0.157083
  0
VERTEX
  8
0
 10
94.538116
 20
256.106871
 42
-0.097334
  0
VERTEX
  8
0
 10
94.255532
 20
256.408082
 42
-0.079368
  0
VERTEX
  8
0
 10
94.064767
 20
256.857977
 42
-0.060734
  0
VERTEX
  8
0
 10
94.000000
 20
257.389216
 42
0.087879
  0
VERTEX
  8
0
 10
93.878611
 20
258.074543
 42
0.028172
  0
VERTEX
  8
0
 10
93.467892
 20
259.027475
 42
0.027122
  0
VERTEX
  8
0
 10
92.881849
 20
260.056968
 42
0.027237
  0
VERTEX
  8
0
 10
92.188570
 20
261.015454
 42
0.026879
  0
VERTEX
  8
0
 10
91.099345
 20
262.221844
 42
0.140170
  0
VERTEX
  8
0
 10
90.322931
 20
262.650165
 42
0.159510
  0
VERTEX
  8
0
 10
89.492472
 20
262.574586
 42
0.037801
  0
VERTEX
  8
0
 10
88.244509
 20
261.920626
 42
-0.035529
  0
VERTEX
  8
0
 10
87.020671
 20
261.272209
 42
-0.127932
  0
VERTEX
  8
0
 10
86.156155
 20
261.131175
 42
-0.126774
  0
VERTEX
  8
0
 10
85.327987
 20
261.428771
 42
-0.034611
  0
VERTEX
  8
0
 10
84.227199
 20
262.294388
 42
0.042281
  0
VERTEX
  8
0
 10
82.623612
 20
263.516108
 42
0.133543
  0
VERTEX
  8
0
 10
81.344779
 20
263.913137
 42
0.160427
  0
VERTEX
  8
0
 10
80.185434
 20
263.576456
 42
0.069435
  0
VERTEX
  8
0
 10
78.983956
 20
262.480668
 42
-0.088690
  0
VERTEX
  8
0
 10
78.214354
 20
261.830921
 42
-0.082034
  0
VERTEX
  8
0
 10
77.246449
 20
261.466007
 42
-0.064437
  0
VERTEX
  8
0
 10
76.015544
 20
261.382007
 42
-0.031231
  0
VERTEX
  8
0
 10
74.446979
 20
261.575925
 42
0.032268
  0
VERTEX
  8
0
 10
72.631658
 20
261.796531
 42
0.108995
  0
VERTEX
  8
0
 10
71.459148
 20
261.606451
 42
0.115373
  0
VERTEX
  8
0
 10
70.512858
 20
260.948478
 42
0.038381
  0
VERTEX
  8
0
 10
69.475231
 20
259.602542
 42
0.131385
  0
VERTEX
  8
0
 10
68.301738
 20
256.046719
 42
0.165033
  0
VERTEX
  8
0
 10
69.220591
 20
252.721815
 42
0.270060
  0
VERTEX
  8
0
 10
71.520727
 20
251.620582
 42
0.214066
  0
VERTEX
  8
0
 10
73.979358
 20
252.972634
 42
0.000000
  0
VERTEX
  8
0
 10
75.540907
 20
255.042827
 42
0.000000
  0
VERTEX
  8
0
 10
80.229339
 20
252.069512
 42
-0.045680
  0
VERTEX
  8
0
 10
84.154892
 20
249.045008
 42
-0.042261
  0
VERTEX
  8
0
 10
87.579319
 20
245.283748
 42
-0.044457
  0
VERTEX
  8
0
 10
90.134804
 20
241.254653
 42
-0.072860
  0
VERTEX
  8
0
 10
91.445257
 20
237.440112
 42
-0.065016
  0
VERTEX
  8
0
 10
91.640673
 20
233.928784
 42
-0.022510
  0
VERTEX
  8
0
 10
91.035455
 20
228.878418
 42
-0.016523
  0
VERTEX
  8
0
 10
90.060181
 20
224.000208
 42
-0.199291
  0
VERTEX
  8
0
 10
88.964976
 20
222.478354
 42
-0.419704
  0
VERTEX
  8
0
 10
88.192037
 20
222.668470
 42
-0.003439
  0
VERTEX
  8
0
 10
84.717316
 20
228.626322
 42
-0.006231
  0
VERTEX
  8
0
 10
81.492318
 20
234.410187
 42
-0.124687
  0
VERTEX
  8
0
 10
81.000000
 20
236.353716
 42
-0.260795
  0
VERTEX
  8
0
 10
81.116572
 20
236.562008
 42
-0.011480
  0
VERTEX
  8
0
 10
81.860143
 20
236.995072
 42
-0.016927
  0
VERTEX
  8
0
 10
82.805954
 20
237.476197
 42
-0.011007
  0
VERTEX
  8
0
 10
83.928145
 20
237.970237
 42
0.028829
  0
VERTEX
  8
0
 10
85.085372
 20
238.529729
 42
0.030972
  0
VERTEX
  8
0
 10
86.141970
 20
239.206838
 42
0.032579
  0
VERTEX
  8
0
 10
86.966786
 20
239.897306
 42
0.111024
  0
VERTEX
  8
0
 10
87.352706
 20
240.476755
 42
0.184978
  0
VERTEX
  8
0
 10
87.353638
 20
242.065947
 42
0.082122
  0
VERTEX
  8
0
 10
86.278647
 20
243.904406
 42
0.072880
  0
VERTEX
  8
0
 10
84.489815
 20
245.512709
 42
0.085432
  0
VERTEX
  8
0
 10
82.405735
 20
246.434303
 42
0.116653
  0
VERTEX
  8
0
 10
79.707242
 20
246.471137
 42
0.164244
  0
VERTEX
  8
0
 10
77.664270
 20
245.234862
 42
0.123100
  0
VERTEX
  8
0
 10
76.404989
 20
242.667799
 42
0.052823
  0
VERTEX
  8
0
 10
76.000000
 20
238.845012
 42
-0.009514
  0
VERTEX
  8
0
 10
75.964648
 20
236.987367
 42
-0.015754
  0
VERTEX
  8
0
 10
75.855667
 20
235.423222
 42
-0.009553
  0
VERTEX
  8
0
 10
75.704357
 20
234.170183
 42
-0.373984
  0
VERTEX
  8
0
 10
75.508653
 20
234.000000
 42
-0.148611
  0
VERTEX
  8
0
 10
75.181260
 20
234.099506
 42
-0.003370
  0
VERTEX
  8
0
 10
73.814722
 20
235.028125
 42
-0.007270
  0
VERTEX
  8
0
 10
72.224808
 20
236.158725
 42
-0.004822
  0
VERTEX
  8
0
 10
70.432057
 20
237.500000
 42
0.013789
  0
VERTEX
  8
0
 10
68.572127
 20
238.840198
 42
0.017344
  0
VERTEX
  8
0
 10
66.775599
 20
239.971875
 42
0.015599
  0
VERTEX
  8
0
 10
65.229168
 20
240.809185
 42
0.116791
  0
VERTEX
  8
0
 10
64.423404
 20
241.000000
 42
0.306821
  0
VERTEX
  8
0
 10
63.319940
 20
240.252500
 42
0.123205
  0
VERTEX
  8
0
 10
63.062659
 20
238.355622
 42
0.078610
  0
VERTEX
  8
0
 10
63.768641
 20
235.777281
 42
0.063394
  0
VERTEX
  8
0
 10
65.273712
 20
233.326725
 42
-0.003291
  0
VERTEX
  8
0
 10
68.664290
 20
229.054206
 42
-0.180362
  0
VERTEX
  8
0
 10
68.970192
 20
228.090435
 42
-0.382754
  0
VERTEX
  8
0
 10
68.440963
 20
227.556151
 42
-0.011069
  0
VERTEX
  8
0
 10
64.981255
 20
227.428386
 42
0.023826
  0
VERTEX
  8
0
 10
63.010931
 20
227.305241
 42
0.025190
  0
VERTEX
  8
0
 10
61.098028
 20
226.995690
 42
0.025870
  0
VERTEX
  8
0
 10
59.487906
 20
226.562995
 42
0.094899
  0
VERTEX
  8
0
 10
58.567405
 20
226.055941
 42
0.121704
  0
VERTEX
  8
0
 10
57.459150
 20
224.554489
 42
0.098384
  0
VERTEX
  8
0
 10
57.064855
 20
222.584112
 42
0.085949
  0
VERTEX
  8
0
 10
57.443373
 20
220.380476
 42
0.067459
  0
VERTEX
  8
0
 10
58.556704
 20
218.222506
 42
0.088772
  0
VERTEX
  8
0
 10
60.255504
 20
216.532837
 42
0.183445
  0
VERTEX
  8
0
 10
62.046339
 20
216.089331
 42
0.180696
  0
VERTEX
  8
0
 10
63.699716
 20
216.945103
 42
0.085946
  0
VERTEX
  8
0
 10
65.000000
 20
219.000000
 42
-0.024020
  0
VERTEX
  8
0
 10
65.541906
 20
220.148902
 42
-0.033073
  0
VERTEX
  8
0
 10
66.143060
 20
221.118750
 42
-0.034775
  0
VERTEX
  8
0
 10
66.720037
 20
221.817080
 42
-0.205508
  0
VERTEX
  8
0
 10
67.146284
 20
222.000000
 42
-0.116826
  0
VERTEX
  8
0
 10
69.044775
 20
221.550275
 42
-0.005052
  0
VERTEX
  8
0
 10
75.170706
 20
218.397556
 42
-0.002884
  0
VERTEX
  8
0
 10
81.493527
 20
215.015522
 42
-0.275106
  0
VERTEX
  8
0
 10
82.000000
 20
214.164683
 42
-0.286799
  0
VERTEX
  8
0
 10
80.974992
 20
212.524690
 42
-0.027487
  0
VERTEX
  8
0
 10
76.434780
 20
210.612468
 42
-0.033118
  0
VERTEX
  8
0
 10
71.133199
 20
209.102580
 42
-0.050028
  0
VERTEX
  8
0
 10
66.366484
 20
208.569984
 42
-0.017551
  0
VERTEX
  8
0
 10
62.848496
 20
208.653729
 42
-0.053871
  0
VERTEX
  8
0
 10
60.501215
 20
209.048295
 42
-0.059310
  0
VERTEX
  8
0
 10
58.417036
 20
209.911489
 42
-0.024752
  0
VERTEX
  8
0
 10
55.836463
 20
211.531655
 42
-0.031627
  0
VERTEX
  8
0
 10
53.934775
 20
213.048700
 42
-0.017283
  0
VERTEX
  8
0
 10
51.794545
 20
215.128808
 42
-0.017164
  0
VERTEX
  8
0
 10
49.758137
 20
217.400873
 42
-0.026095
  0
VERTEX
  8
0
 10
48.166245
 20
219.520066
 42
-0.005702
  0
VERTEX
  8
0
 10
46.008069
 20
222.809306
 42
-0.093929
  0
VERTEX
  8
0
 10
45.520535
 20
224.023012
 42
-0.240177
  0
VERTEX
  8
0
 10
45.764420
 20
224.881578
 42
-0.059185
  0
VERTEX
  8
0
 10
46.916245
 20
225.860383
 42
0.039653
  0
VERTEX
  8
0
 10
48.399686
 20
227.024579
 42
0.180536
  0
VERTEX
  8
0
 10
48.887255
 20
227.987025
 42
0.184600
  0
VERTEX
  8
0
 10
48.619765
 20
229.019913
 42
0.041750
  0
VERTEX
  8
0
 10
47.428571
 20
230.428571
 42
0.159842
  0
VERTEX
  8
0
 10
44.415507
 20
231.953027
 42
0.169542
  0
VERTEX
  8
0
 10
41.166848
 20
231.346762
 42
0.164173
  0
VERTEX
  8
0
 10
38.930001
 20
228.821796
 42
0.150347
  0
VERTEX
  8
0
 10
38.578625
 20
225.356873
 42
-0.037502
  0
VERTEX
  8
0
 10
38.752905
 20
223.940453
 42
-0.068867
  0
VERTEX
  8
0
 10
38.648570
 20
222.785050
 42
-0.082303
  0
VERTEX
  8
0
 10
38.259807
 20
221.844130
 42
-0.080681
  0
VERTEX
  8
0
 10
37.586203
 20
221.071542
 42
0.065895
  0
VERTEX
  8
0
 10
36.445704
 20
219.838611
 42
0.160714
  0
VERTEX
  8
0
 10
36.088879
 20
218.669254
 42
0.136556
  0
VERTEX
  8
0
 10
36.476930
 20
217.387442
 42
0.042567
  0
VERTEX
  8
0
 10
37.705612
 20
215.772801
 42
-0.035337
  0
VERTEX
  8
0
 10
38.554228
 20
214.690409
 42
-0.121776
  0
VERTEX
  8
0
 10
38.859385
 20
213.859382
 42
-0.127365
  0
VERTEX
  8
0
 10
38.735475
 20
213.003680
 42
-0.040291
  0
VERTEX
  8
0
 10
38.137315
 20
211.848269
 42
0.040641
  0
VERTEX
  8
0
 10
37.539433
 20
210.691410
 42
0.127997
  0
VERTEX
  8
0
 10
37.417517
 20
209.833494
 42
0.121353
  0
VERTEX
  8
0
 10
37.727248
 20
208.997907
 42
0.034781
  0
VERTEX
  8
0
 10
38.586691
 20
207.904208
 42
0.046893
  0
VERTEX
  8
0
 10
39.382297
 20
207.175534
 42
0.039420
  0
VERTEX
  8
0
 10
40.345733
 20
206.559361
 42
0.041130
  0
VERTEX
  8
0
 10
41.323804
 20
206.136599
 42
0.081624
  0
VERTEX
  8
0
 10
42.154988
 20
206.000000
 42
-0.105596
  0
VERTEX
  8
0
 10
43.659993
 20
205.678572
 42
-0.579377
  0
VERTEX
  8
0
 10
43.724764
 20
205.031316
 42
-0.084498
  0
VERTEX
  8
0
 10
41.779353
 20
204.087480
 42
-0.019772
  0
VERTEX
  8
0
 10
38.250000
 20
203.210421
 42
0.049909
  0
VERTEX
  8
0
 10
32.988995
 20
201.561272
 42
0.040910
  0
VERTEX
  8
0
 10
27.775065
 20
198.811797
 42
0.041726
  0
VERTEX
  8
0
 10
23.201076
 20
195.331374
 42
0.060033
  0
VERTEX
  8
0
 10
19.860848
 20
191.500000
 42
0.082937
  0
VERTEX
  8
0
 10
16.683011
 20
184.600114
 42
0.071216
  0
VERTEX
  8
0
 10
15.694100
 20
176.660662
 42
0.070320
  0
VERTEX
  8
0
 10
16.973242
 20
168.667318
 42
0.077082
  0
VERTEX
  8
0
 10
20.407037
 20
161.611996
 42
0.000000
  0
VERTEX
  8
0
 10
23.800175
 20
156.723993
 42
0.000000
  0
VERTEX
  8
0
 10
18.650087
 20
154.111996
 42
0.021596
  0
VERTEX
  8
0
 10
16.677730
 20
153.002114
 42
0.029520
  0
VERTEX
  8
0
 10
15.012838
 20
151.826649
 42
0.029649
  0
VERTEX
  8
0
 10
13.802021
 20
150.736367
 42
0.197108
  0
VERTEX
  8
0
 10
13.500000
 20
150.000000
 42
0.235663
  0
VERTEX
  8
0
 10
14.071240
 20
148.855326
 42
0.019433
  0
VERTEX
  8
0
 10
16.891809
 20
146.899997
 42
0.025857
  0
VERTEX
  8
0
 10
20.208439
 20
145.020309
 42
0.035554
  0
VERTEX
  8
0
 10
23.373307
 20
143.708898
 42
-0.215750
  0
VERTEX
  8
0
 10
23.685811
 20
143.419670
 42
-0.177272
  0
VERTEX
  8
0
 10
23.707913
 20
142.961250
 42
-0.088986
  0
VERTEX
  8
0
 10
23.377478
 20
142.326893
 42
-0.031928
  0
VERTEX
  8
0
 10
22.701843
 20
141.558986
 42
0.063276
  0
VERTEX
  8
0
 10
20.660528
 20
138.923425
 42
0.023428
  0
VERTEX
  8
0
 10
18.464389
 20
134.763962
 42
0.023725
  0
VERTEX
  8
0
 10
16.622691
 20
130.302556
 42
0.047567
  0
VERTEX
  8
0
 10
15.684069
 20
126.611139
 42
0.107059
  0
VERTEX
  8
0
 10
16.259673
 20
116.927762
 42
0.093647
  0
VERTEX
  8
0
 10
20.764512
 20
107.822197
 42
0.090242
  0
VERTEX
  8
0
 10
28.464212
 20
100.726110
 42
0.090482
  0
VERTEX
  8
0
 10
38.163125
 20
96.805434
 42
-0.012321
  0
VERTEX
  8
0
 10
40.400389
 20
96.285552
 42
-0.019501
  0
VERTEX
  8
0
 10
42.285418
 20
95.719011
 42
-0.014311
  0
VERTEX
  8
0
 10
43.753422
 20
95.167161
 42
-0.304577
  0
VERTEX
  8
0
 10
44.000000
 20
94.799924
 42
-0.169418
  0
VERTEX
  8
0
 10
43.893536
 20
94.494737
 42
-0.094545
  0
VERTEX
  8
0
 10
43.591918
 20
94.234978
 42
-0.075173
  0
VERTEX
  8
0
 10
43.142193
 20
94.059314
 42
-0.055636
  0
VERTEX
  8
0
 10
42.610784
 20
94.000000
 42
0.088043
  0
VERTEX
  8
0
 10
41.925064
 20
93.878310
 42
0.028127
  0
VERTEX
  8
0
 10
40.970503
 20
93.466255
 42
0.027082
  0
VERTEX
  8
0
 10
39.938783
 20
92.878409
 42
0.027159
  0
VERTEX
  8
0
 10
38.977663
 20
92.182996
 42
0.029800
  0
VERTEX
  8
0
 10
37.795655
 20
91.103194
 42
0.131659
  0
VERTEX
  8
0
 10
37.340122
 20
90.287200
 42
0.146071
  0
VERTEX
  8
0
 10
37.378052
 20
89.400355
 42
0.039661
  0
VERTEX
  8
0
 10
37.946584
 20
88.099809
 42
-0.035904
  0
VERTEX
  8
0
 10
38.504778
 20
86.848579
 42
-0.110203
  0
VERTEX
  8
0
 10
38.622831
 20
85.933663
 42
-0.117705
  0
VERTEX
  8
0
 10
38.338306
 20
85.090719
 42
-0.043954
  0
VERTEX
  8
0
 10
37.579704
 20
84.088072
 42
0.068376
  0
VERTEX
  8
0
 10
36.442873
 20
82.422890
 42
0.117506
  0
VERTEX
  8
0
 10
36.064193
 20
80.794941
 42
0.153872
  0
VERTEX
  8
0
 10
36.491245
 20
79.465161
 42
0.148144
  0
VERTEX
  8
0
 10
37.609310
 20
78.596428
 42
-0.109938
  0
VERTEX
  8
0
 10
38.344790
 20
78.108864
 42
-0.133352
  0
VERTEX
  8
0
 10
38.741039
 20
77.385696
 42
-0.082575
  0
VERTEX
  8
0
 10
38.819698
 20
76.284986
 42
-0.023007
  0
VERTEX
  8
0
 10
38.578661
 20
74.567610
 42
0.028770
  0
VERTEX
  8
0
 10
38.340415
 20
72.715326
 42
0.096071
  0
VERTEX
  8
0
 10
38.487864
 20
71.504294
 42
0.113476
  0
VERTEX
  8
0
 10
39.058526
 20
70.549471
 42
0.048813
  0
VERTEX
  8
0
 10
40.191858
 20
69.578171
 42
0.054756
  0
VERTEX
  8
0
 10
42.249677
 20
68.449671
 42
0.098133
  0
VERTEX
  8
0
 10
44.133091
 20
68.074604
 42
0.111348
  0
VERTEX
  8
0
 10
45.852915
 20
68.460727
 42
0.085902
  0
VERTEX
  8
0
 10
47.428571
 20
69.571429
 42
0.049942
  0
VERTEX
  8
0
 10
48.624681
 20
71.033737
 42
0.173968
  0
VERTEX
  8
0
 10
48.911769
 20
72.200275
 42
0.223499
  0
VERTEX
  8
0
 10
48.372300
 20
73.094248
 42
0.083265
  0
VERTEX
  8
0
 10
47.000000
 20
73.710251
 42
-0.033888
  0
VERTEX
  8
0
 10
46.234310
 20
73.966994
 42
-0.045722
  0
VERTEX
  8
0
 10
45.587500
 20
74.305920
 42
-0.053764
  0
VERTEX
  8
0
 10
45.136947
 20
74.671357
 42
-0.198005
  0
VERTEX
  8
0
 10
45.000000
 20
75.003617
 42
-0.155327
  0
VERTEX
  8
0
 10
45.681648
 20
77.144907
 42
-0.015317
  0
VERTEX
  8
0
 10
48.981163
 20
81.512192
 42
-0.020337
  0
VERTEX
  8
0
 10
52.702334
 20
85.769366
 42
-0.050455
  0
VERTEX
  8
0
 10
55.836142
 20
88.468345
 42
-0.024959
  0
VERTEX
  8
0
 10
58.405608
 20
90.080179
 42
-0.058223
  0
VERTEX
  8
0
 10
60.499320
 20
90.950691
 42
-0.053113
  0
VERTEX
  8
0
 10
62.852518
 20
91.358483
 42
-0.017920
  0
VERTEX
  8
0
 10
66.336142
 20
91.461718
 42
-0.020154
  0
VERTEX
  8
0
 10
69.058660
 20
91.334991
 42
-0.023211
  0
VERTEX
  8
0
 10
71.635497
 20
90.989630
 42
-0.025286
  0
VERTEX
  8
0
 10
73.865132
 20
90.467093
 42
-0.054025
  0
VERTEX
  8
0
 10
75.500000
 20
89.797538
 42
0.000000
  0
VERTEX
  8
0
 10
78.500000
 20
88.171640
 42
0.000000
  0
VERTEX
  8
0
 10
71.022997
 20
84.583321
 42
0.000000
  0
VERTEX
  8
0
 10
63.545994
 20
80.995002
 42
0.000000
  0
VERTEX
  8
0
 10
62.735040
 20
83.247501
 42
0.097955
  0
VERTEX
  8
0
 10
60.915836
 20
86.276457
 42
0.218778
  0
VERTEX
  8
0
 10
58.500228
 20
87.308820
 42
0.203945
  0
VERTEX
  8
0
 10
56.010364
 20
86.169138
 42
0.086833
  0
VERTEX
  8
0
 10
54.005259
 20
83.012696
 42
0.106790
  0
VERTEX
  8
0
 10
53.464701
 20
80.040859
 42
0.192897
  0
VERTEX
  8
0
 10
54.444920
 20
77.809780
 42
0.142785
  0
VERTEX
  8
0
 10
57.012912
 20
76.433209
 42
0.052151
  0
VERTEX
  8
0
 10
61.154988
 20
76.000000
 42
-0.017466
  0
VERTEX
  8
0
 10
64.586613
 20
75.880090
 42
-0.215474
  0
VERTEX
  8
0
 10
65.710274
 20
75.274500
 42
-0.350433
  0
VERTEX
  8
0
 10
65.688064
 20
74.269656
 42
-0.034767
  0
VERTEX
  8
0
 10
63.897621
 20
72.407348
 42
0.048262
  0
VERTEX
  8
0
 10
62.247116
 20
70.595318
 42
0.028075
  0
VERTEX
  8
0
 10
60.618324
 20
68.142552
 42
0.026665
  0
VERTEX
  8
0
 10
59.353242
 20
65.693134
 42
0.106255
  0
VERTEX
  8
0
 10
59.000000
 20
64.049660
 42
0.361108
  0
VERTEX
  8
0
 10
59.764290
 20
63.129400
 42
0.104171
  0
VERTEX
  8
0
 10
61.756481
 20
63.175115
 42
0.062235
  0
VERTEX
  8
0
 10
64.552572
 20
64.211151
 42
0.042170
  0
VERTEX
  8
0
 10
67.428139
 20
66.027820
 42
-0.006615
  0
VERTEX
  8
0
 10
68.974726
 20
67.166169
 42
-0.009628
  0
VERTEX
  8
0
 10
70.370372
 20
68.125129
 42
-0.005667
  0
VERTEX
  8
0
 10
71.560258
 20
68.890213
 42
-0.143669
  0
VERTEX
  8
0
 10
71.928139
 20
68.993896
 42
-0.350751
  0
VERTEX
  8
0
 10
72.159571
 20
68.804684
 42
-0.014298
  0
VERTEX
  8
0
 10
72.368433
 20
67.670771
 42
-0.019549
  0
VERTEX
  8
0
 10
72.535245
 20
66.219849
 42
-0.011943
  0
VERTEX
  8
0
 10
72.623972
 20
64.498213
 42
0.024220
  0
VERTEX
  8
0
 10
72.763320
 20
62.669125
 42
0.025162
  0
VERTEX
  8
0
 10
73.078267
 20
60.885555
 42
0.025890
  0
VERTEX
  8
0
 10
73.506356
 20
59.379041
 42
0.091276
  0
VERTEX
  8
0
 10
73.996417
 20
58.504317
 42
0.125552
  0
VERTEX
  8
0
 10
75.471985
 20
57.432352
 42
0.096601
  0
VERTEX
  8
0
 10
77.435746
 20
57.063080
 42
0.084078
  0
VERTEX
  8
0
 10
79.635985
 20
57.450955
 42
0.067290
  0
VERTEX
  8
0
 10
81.777494
 20
58.556704
 42
0.094978
  0
VERTEX
  8
0
 10
83.499757
 20
60.331433
 42
0.175629
  0
VERTEX
  8
0
 10
83.958426
 20
62.261661
 42
0.178111
  0
VERTEX
  8
0
 10
83.072975
 20
64.018084
 42
0.097913
  0
VERTEX
  8
0
 10
81.001961
 20
65.305362
 42
-0.029468
  0
VERTEX
  8
0
 10
79.515589
 20
65.968854
 42
-0.111617
  0
VERTEX
  8
0
 10
78.742548
 20
66.621401
 42
-0.157393
  0
VERTEX
  8
0
 10
78.467998
 20
67.409605
 42
-0.078411
  0
VERTEX
  8
0
 10
78.610256
 20
68.468498
 42
-0.037256
  0
VERTEX
  8
0
 10
79.877855
 20
71.790470
 42
-0.012919
  0
VERTEX
  8
0
 10
82.178750
 20
76.378549
 42
-0.005422
  0
VERTEX
  8
0
 10
84.710271
 20
80.995728
 42
-0.270960
  0
VERTEX
  8
0
 10
85.572479
 20
81.500000
 42
-0.264179
  0
VERTEX
  8
0
 10
86.857470
 20
80.770126
 42
-0.019363
  0
VERTEX
  8
0
 10
88.874008
 20
77.069741
 42
-0.026767
  0
VERTEX
  8
0
 10
90.654528
 20
72.936048
 42
-0.050754
  0
VERTEX
  8
0
 10
91.556680
 20
69.428898
 42
-0.091349
  0
VERTEX
  8
0
 10
91.353045
 20
63.035737
 42
-0.074709
  0
VERTEX
  8
0
 10
88.919180
 20
56.631395
 42
-0.072107
  0
VERTEX
  8
0
 10
84.601523
 20
51.025247
 42
-0.074841
  0
VERTEX
  8
0
 10
78.919404
 20
46.958883
 42
-0.009100
  0
VERTEX
  8
0
 10
76.468371
 20
45.764168
 42
-0.121460
  0
VERTEX
  8
0
 10
75.491975
 20
45.572733
 42
-0.203440
  0
VERTEX
  8
0
 10
74.757589
 20
45.927058
 42
-0.033444
  0
VERTEX
  8
0
 10
73.778896
 20
47.206480
 42
0.119089
  0
VERTEX
  8
0
 10
72.347858
 20
48.533226
 42
0.206036
  0
VERTEX
  8
0
 10
70.761216
 20
48.699081
 42
0.172936
  0
VERTEX
  8
0
 10
69.342905
 20
47.632654
 42
0.084624
  0
VERTEX
  8
0
 10
68.419563
 20
45.535535
 42
0.059066
  0
VERTEX
  8
0
 10
68.258144
 20
44.280454
 42
0.053189
  0
VERTEX
  8
0
 10
68.384271
 20
42.975626
 42
0.050568
  0
VERTEX
  8
0
 10
68.794660
 20
41.666086
 42
0.043853
  0
VERTEX
  8
0
 10
69.475231
 20
40.397458
 42
0.038382
  0
VERTEX
  8
0
 10
70.526503
 20
39.033826
 42
0.119180
  0
VERTEX
  8
0
 10
71.478172
 20
38.382665
 42
0.108541
  0
VERTEX
  8
0
 10
72.675466
 20
38.205888
 42
0.028958
  0
VERTEX
  8
0
 10
74.598524
 20
38.452505
 42
-0.022914
  0
VERTEX
  8
0
 10
76.302310
 20
38.691954
 42
-0.078937
  0
VERTEX
  8
0
 10
77.412462
 20
38.621094
 42
-0.128643
  0
VERTEX
  8
0
 10
78.141479
 20
38.244176
 42
-0.118382
  0
VERTEX
  8
0
 10
78.620045
 20
37.547762
 42
0.184470
  0
VERTEX
  8
0
 10
79.622557
 20
36.430342
 42
0.127849
  0
VERTEX
  8
0
 10
81.296362
 20
36.055358
 42
0.110343
  0
VERTEX
  8
0
 10
83.143955
 20
36.534460
 42
0.115156
  0
VERTEX
  8
0
 10
84.578853
 20
37.750000
 42
-0.041889
  0
VERTEX
  8
0
 10
85.377730
 20
38.656453
 42
-0.166446
  0
VERTEX
  8
0
 10
86.040948
 20
38.964481
 42
-0.138483
  0
VERTEX
  8
0
 10
86.828084
 20
38.829136
 42
-0.025895
  0
VERTEX
  8
0
 10
88.127666
 20
38.123762
 42
0.033295
  0
VERTEX
  8
0
 10
89.459384
 20
37.426236
 42
0.157483
  0
VERTEX
  8
0
 10
90.305515
 20
37.338327
 42
0.144669
  0
VERTEX
  8
0
 10
91.083603
 20
37.759589
 42
0.026649
  0
VERTEX
  8
0
 10
92.188570
 20
38.984546
 42
0.027237
  0
VERTEX
  8
0
 10
92.881849
 20
39.943032
 42
0.027122
  0
VERTEX
  8
0
 10
93.467892
 20
40.972525
 42
0.028172
  0
VERTEX
  8
0
 10
93.878611
 20
41.925457
 42
0.087879
  0
VERTEX
  8
0
 10
94.000000
 20
42.610784
 42
-0.070284
  0
VERTEX
  8
0
 10
94.075002
 20
43.141714
 42
-0.086020
  0
VERTEX
  8
0
 10
94.293750
 20
43.591918
 42
-0.100172
  0
VERTEX
  8
0
 10
94.618662
 20
43.892914
 42
-0.137744
  0
VERTEX
  8
0
 10
95.000000
 20
44.000000
 42
-0.157001
  0
VERTEX
  8
0
 10
95.381401
 20
43.877212
 42
-0.097350
  0
VERTEX
  8
0
 10
95.706250
 20
43.531148
 42
-0.079396
  0
VERTEX
  8
0
 10
95.925544
 20
43.014255
 42
-0.060769
  0
VERTEX
  8
0
 10
96.000000
 20
42.403907
 42
0.069567
  0
VERTEX
  8
0
 10
96.511953
 20
38.742139
 42
0.026499
  0
VERTEX
  8
0
 10
98.189600
 20
33.857082
 42
0.026649
  0
VERTEX
  8
0
 10
100.475030
 20
28.965440
 42
0.044663
  0
VERTEX
  8
0
 10
102.958686
 20
25.171482
 42
0.102278
  0
VERTEX
  8
0
 10
110.574965
 20
18.781647
 42
0.098230
  0
VERTEX
  8
0
 10
120.210648
 20
15.818107
 42
0.095530
  0
VERTEX
  8
0
 10
130.474551
 20
16.723022
 42
0.090910
  0
VERTEX
  8
0
 10
139.866855
 20
21.373410
 42
0.000000
  0
VERTEX
  8
0
 10
143.233710
 20
23.885756
 42
0.000000
  0
VERTEX
  8
0
 10
145.866855
 20
18.692878
 42
0.021421
  0
VERTEX
  8
0
 10
146.984832
 20
16.704113
 42
0.029332
  0
VERTEX
  8
0
 10
148.167139
 20
15.025408
 42
0.029371
  0
VERTEX
  8
0
 10
149.262793
 20
13.803504
 42
0.197794
  0
VERTEX
  8
0
 10
150.000000
 20
13.500000
 42
0.197773
  0
VERTEX
  8
0
 10
150.737180
 20
13.803458
 42
0.029380
  0
VERTEX
  8
0
 10
151.832668
 20
15.025016
 42
0.029338
  0
VERTEX
  8
0
 10
153.014761
 20
16.703291
 42
0.021426
  0
VERTEX
  8
0
 10
154.132485
 20
18.691544
 42
0.000000
  0
VERTEX
  8
0
 10
156.764971
 20
23.883088
 42
0.000000
  0
VERTEX
  8
0
 10
160.745140
 20
20.956039
 42
0.035671
  0
VERTEX
  8
0
 10
162.699557
 20
19.723120
 42
0.017821
  0
VERTEX
  8
0
 10
165.326206
 20
18.435339
 42
0.017595
  0
VERTEX
  8
0
 10
168.152944
 20
17.289840
 42
0.024763
  0
VERTEX
  8
0
 10
170.751087
 20
16.485257
 42
0.106486
  0
VERTEX
  8
0
 10
181.875757
 20
16.055387
 42
0.111405
  0
VERTEX
  8
0
 10
191.989824
 20
20.277343
 42
0.107155
  0
VERTEX
  8
0
 10
199.594025
 20
28.605958
 42
0.092236
  0
VERTEX
  8
0
 10
203.582807
 20
39.792481
 42
-0.035455
  0
VERTEX
  8
0
 10
204.167875
 20
42.297504
 42
-0.102509
  0
VERTEX
  8
0
 10
205.024833
 20
43.849039
 42
-0.510701
  0
VERTEX
  8
0
 10
205.669519
 20
43.795743
 42
-0.136837
  0
VERTEX
  8
0
 10
206.000000
 20
42.610784
 42
0.087879
  0
VERTEX
  8
0
 10
206.121389
 20
41.925457
 42
0.028172
  0
VERTEX
  8
0
 10
206.532108
 20
40.972525
 42
0.027122
  0
VERTEX
  8
0
 10
207.118151
 20
39.943032
 42
0.027237
  0
VERTEX
  8
0
 10
207.811430
 20
38.984546
 42
0.026879
  0
VERTEX
  8
0
 10
208.900655
 20
37.778156
 42
0.140170
  0
VERTEX
  8
0
 10
209.677069
 20
37.349835
 42
0.159510
  0
VERTEX
  8
0
 10
210.507528
 20
37.425414
 42
0.037801
  0
VERTEX
  8
0
 10
211.755491
 20
38.079374
 42
-0.035529
  0
VERTEX
  8
0
 10
212.979329
 20
38.727791
 42
-0.127932
  0
VERTEX
  8
0
 10
213.843845
 20
38.868825
 42
-0.126774
  0
VERTEX
  8
0
 10
214.672013
 20
38.571229
 42
-0.034611
  0
VERTEX
  8
0
 10
215.772801
 20
37.705612
 42
0.063393
  0
VERTEX
  8
0
 10
217.507077
 20
36.496210
 42
0.115488
  0
VERTEX
  8
0
 10
219.170320
 20
36.067308
 42
0.157028
  0
VERTEX
  8
0
 10
220.513668
 20
36.466862
 42
0.152101
  0
VERTEX
  8
0
 10
221.392186
 20
37.579637
 42
-0.106733
  0
VERTEX
  8
0
 10
221.855199
 20
38.287782
 42
-0.135153
  0
VERTEX
  8
0
 10
222.534768
 20
38.668251
 42
-0.087995
  0
VERTEX
  8
0
 10
223.545403
 20
38.735226
 42
-0.026716
  0
VERTEX
  8
0
 10
225.066337
 20
38.485430
 42
0.150599
  0
VERTEX
  8
0
 10
228.637288
 20
38.781591
 42
0.163684
  0
VERTEX
  8
0
 10
231.282362
 20
41.037630
 42
0.170990
  0
VERTEX
  8
0
 10
231.958784
 20
44.350437
 42
0.163460
  0
VERTEX
  8
0
 10
230.428571
 20
47.428571
 42
0.049942
  0
VERTEX
  8
0
 10
228.966263
 20
48.624681
 42
0.173968
  0
VERTEX
  8
0
 10
227.799725
 20
48.911769
 42
0.223499
  0
VERTEX
  8
0
 10
226.905752
 20
48.372300
 42
0.083265
  0
VERTEX
  8
0
 10
226.289749
 20
47.000000
 42
-0.057563
  0
VERTEX
  8
0
 10
225.733562
 20
45.569323
 42
-0.283498
  0
VERTEX
  8
0
 10
225.019912
 20
45.148764
 42
-0.121602
  0
VERTEX
  8
0
 10
223.862121
 20
45.459236
 42
-0.009009
  0
VERTEX
  8
0
 10
221.000000
 20
47.105695
 42
-0.027477
  0
VERTEX
  8
0
 10
217.583803
 20
49.417775
 42
-0.029574
  0
VERTEX
  8
0
 10
214.529016
 20
52.038434
 42
-0.031600
  0
VERTEX
  8
0
 10
212.017700
 20
54.791914
 42
-0.047919
  0
VERTEX
  8
0
 10
210.241547
 20
57.500000
 42
-0.085407
  0
VERTEX
  8
0
 10
209.031415
 20
61.222276
 42
-0.034978
  0
VERTEX
  8
0
 10
208.637212
 20
66.539656
 42
-0.034891
  0
VERTEX
  8
0
 10
208.985358
 20
71.832520
 42
-0.090495
  0
VERTEX
  8
0
 10
210.168457
 20
75.451856
 42
0.000000
  0
VERTEX
  8
0
 10
211.767416
 20
78.403712
 42
0.000000
  0
VERTEX
  8
0
 10
214.883708
 20
72.230373
 42
-0.018212
  0
VERTEX
  8
0
 10
216.936281
 20
67.767310
 42
-0.057849
  0
VERTEX
  8
0
 10
217.839703
 20
64.614510
 42
-0.131276
  0
VERTEX
  8
0
 10
217.657493
 20
62.752766
 42
-0.312675
  0
VERTEX
  8
0
 10
216.571429
 20
62.000000
 42
0.083501
  0
VERTEX
  8
0
 10
215.912058
 20
61.889111
 42
0.037277
  0
VERTEX
  8
0
 10
215.101475
 20
61.538975
 42
0.035558
  0
VERTEX
  8
0
 10
214.279387
 20
61.031149
 42
0.040262
  0
VERTEX
  8
0
 10
213.573411
 20
60.430554
 42
0.150472
  0
VERTEX
  8
0
 10
212.714378
 20
58.807130
 42
0.170725
  0
VERTEX
  8
0
 10
212.976855
 20
57.072768
 42
0.117684
  0
VERTEX
  8
0
 10
214.450053
 20
55.402134
 42
0.055338
  0
VERTEX
  8
0
 10
216.987304
 20
54.005259
 42
0.106790
  0
VERTEX
  8
0
 10
219.959141
 20
53.464701
 42
0.192897
  0
VERTEX
  8
0
 10
222.190220
 20
54.444920
 42
0.142785
  0
VERTEX
  8
0
 10
223.566791
 20
57.012912
 42
0.052151
  0
VERTEX
  8
0
 10
224.000000
 20
61.154988
 42
-0.009514
  0
VERTEX
  8
0
 10
224.035352
 20
63.012633
 42
-0.015754
  0
VERTEX
  8
0
 10
224.144333
 20
64.576778
 42
-0.009553
  0
VERTEX
  8
0
 10
224.295643
 20
65.829817
 42
-0.373984
  0
VERTEX
  8
0
 10
224.491347
 20
66.000000
 42
-0.148611
  0
VERTEX
  8
0
 10
224.818740
 20
65.900494
 42
-0.003370
  0
VERTEX
  8
0
 10
226.185278
 20
64.971875
 42
-0.007270
  0
VERTEX
  8
0
 10
227.775192
 20
63.841275
 42
-0.004822
  0
VERTEX
  8
0
 10
229.567943
 20
62.500000
 42
0.025899
  0
VERTEX
  8
0
 10
233.919775
 20
59.521580
 42
0.174978
  0
VERTEX
  8
0
 10
236.437605
 20
59.006079
 42
0.409766
  0
VERTEX
  8
0
 10
237.406283
 20
60.284277
 42
0.071240
  0
VERTEX
  8
0
 10
236.508249
 20
63.509906
 42
0.030892
  0
VERTEX
  8
0
 10
235.816601
 20
64.853050
 42
0.016390
  0
VERTEX
  8
0
 10
234.805996
 20
66.429473
 42
0.016253
  0
VERTEX
  8
0
 10
233.663259
 20
67.979261
 42
0.024198
  0
VERTEX
  8
0
 10
232.557149
 20
69.250000
 42
-0.005973
  0
VERTEX
  8
0
 10
231.565903
 20
70.308317
 42
-0.010633
  0
VERTEX
  8
0
 10
230.779325
 20
71.206094
 42
-0.005470
  0
VERTEX
  8
0
 10
230.171086
 20
71.947168
 42
-0.574410
  0
VERTEX
  8
0
 10
230.209531
 20
72.047341
 42
-0.017056
  0
VERTEX
  8
0
 10
230.430134
 20
72.075611
 42
-0.000213
  0
VERTEX
  8
0
 10
231.845845
 20
72.207535
 42
-0.000627
  0
VERTEX
  8
0
 10
233.483826
 20
72.357398
 42
-0.000411
  0
VERTEX
  8
0
 10
235.372069
 20
72.526204
 42
0.018874
  0
VERTEX
  8
0
 10
237.338314
 20
72.775436
 42
0.020766
  0
VERTEX
  8
0
 10
239.217734
 20
73.166894
 42
0.020702
  0
VERTEX
  8
0
 10
240.784522
 20
73.631500
 42
0.091013
  0
VERTEX
  8
0
 10
241.622069
 20
74.101308
 42
0.133729
  0
VERTEX
  8
0
 10
242.621745
 20
75.524969
 42
0.092663
  0
VERTEX
  8
0
 10
242.939762
 20
77.476794
 42
0.080223
  0
VERTEX
  8
0
 10
242.532903
 20
79.670437
 42
0.066980
  0
VERTEX
  8
0
 10
241.443296
 20
81.777494
 42
0.094974
  0
VERTEX
  8
0
 10
239.668295
 20
83.500048
 42
0.175704
  0
VERTEX
  8
0
 10
237.738039
 20
83.958458
 42
0.178122
  0
VERTEX
  8
0
 10
235.981519
 20
83.072305
 42
0.097833
  0
VERTEX
  8
0
 10
234.693898
 20
81.000000
 42
-0.021990
  0
VERTEX
  8
0
 10
234.201427
 20
79.850913
 42
-0.031189
  0
VERTEX
  8
0
 10
233.657477
 20
78.881250
 42
-0.031894
  0
VERTEX
  8
0
 10
233.135595
 20
78.176413
 42
-0.220913
  0
VERTEX
  8
0
 10
232.755798
 20
78.000000
 42
-0.118284
  0
VERTEX
  8
0
 10
230.856233
 20
78.455755
 42
-0.005183
  0
VERTEX
  8
0
 10
224.778347
 20
81.630133
 42
-0.003004
  0
VERTEX
  8
0
 10
218.512878
 20
85.034185
 42
-0.273290
  0
VERTEX
  8
0
 10
218.000000
 20
85.902445
 42
-0.280623
  0
VERTEX
  8
0
 10
218.684367
 20
87.025790
 42
-0.014385
  0
VERTEX
  8
0
 10
222.689236
 20
88.948918
 42
-0.022709
  0
VERTEX
  8
0
 10
227.055076
 20
90.659877
 42
-0.042407
  0
VERTEX
  8
0
 10
230.737391
 20
91.573998
 42
-0.090698
  0
VERTEX
  8
0
 10
236.942050
 20
91.435382
 42
-0.078263
  0
VERTEX
  8
0
 10
243.051824
 20
89.139510
 42
-0.072886
  0
VERTEX
  8
0
 10
248.524041
 20
84.882244
 42
-0.063104
  0
VERTEX
  8
0
 10
252.860432
 20
79.034538
 42
0.000000
  0
VERTEX
  8
0
 10
255.203321
 20
74.865930
 42
0.000000
  0
VERTEX
  8
0
 10
253.101660
 20
74.316334
 42
0.148861
  0
VERTEX
  8
0
 10
251.652401
 20
73.425130
 42
0.174805
  0
VERTEX
  8
0
 10
251.060548
 20
71.933806
 42
0.158397
  0
VERTEX
  8
0
 10
251.536906
 20
70.292654
 42
0.121269
  0
VERTEX
  8
0
 10
252.934259
 20
69.035184
 42
0.110915
  0
VERTEX
  8
0
 10
256.409720
 20
68.071561
 42
0.163924
  0
VERTEX
  8
0
 10
259.428640
 20
68.924694
 42
0.171598
  0
VERTEX
  8
0
 10
261.225347
 20
71.386140
 42
0.122621
  0
VERTEX
  8
0
 10
261.385657
 20
74.821713
 42
-0.026456
  0
VERTEX
  8
0
 10
261.157820
 20
76.387509
 42
-0.087473
  0
VERTEX
  8
0
 10
261.243807
 20
77.422275
 42
-0.133582
  0
VERTEX
  8
0
 10
261.644194
 20
78.116721
 42
-0.104325
  0
VERTEX
  8
0
 10
262.378080
 20
78.591589
 42
0.148445
  0
VERTEX
  8
0
 10
263.515861
 20
79.476717
 42
0.158754
  0
VERTEX
  8
0
 10
263.931690
 20
80.820832
 42
0.117368
  0
VERTEX
  8
0
 10
263.509538
 20
82.484408
 42
0.063430
  0
VERTEX
  8
0
 10
262.294388
 20
84.227199
 42
-0.034611
  0
VERTEX
  8
0
 10
261.428771
 20
85.327987
 42
-0.126774
  0
VERTEX
  8
0
 10
261.131175
 20
86.156155
 42
-0.127932
  0
VERTEX
  8
0
 10
261.272209
 20
87.020671
 42
-0.035529
  0
VERTEX
  8
0
 10
261.920626
 20
88.244509
 42
0.037801
  0
VERTEX
  8
0
 10
262.574586
 20
89.492472
 42
0.159510
  0
VERTEX
  8
0
 10
262.650165
 20
90.322931
 42
0.140170
  0
VERTEX
  8
0
 10
262.221844
 20
91.099345
 42
0.026879
  0
VERTEX
  8
0
 10
261.015454
 20
92.188570
 42
0.027237
  0
VERTEX
  8
0
 10
260.056968
 20
92.881849
 42
0.027122
  0
VERTEX
  8
0
 10
259.027475
 20
93.467892
 42
0.028172
  0
VERTEX
  8
0
 10
258.074543
 20
93.878611
 42
0.087879
  0
VERTEX
  8
0
 10
257.389216
 20
94.000000
 42
-0.136837
  0
VERTEX
  8
0
 10
256.204257
 20
94.330481
 42
-0.510701
  0
VERTEX
  8
0
 10
256.150961
 20
94.975167
 42
-0.102509
  0
VERTEX
  8
0
 10
257.702496
 20
95.832125
 42
-0.035455
  0
VERTEX
  8
0
 10
260.207519
 20
96.417193
 42
0.078796
  0
VERTEX
  8
0
 10
270.025801
 20
99.625498
 42
0.092988
  0
VERTEX
  8
0
 10
277.745164
 20
105.598489
 42
0.095552
  0
VERTEX
  8
0
 10
282.629904
 20
113.816486
 42
0.088243
  0
VERTEX
  8
0
 10
284.289478
 20
123.500000
 42
0.035092
  0
VERTEX
  8
0
 10
283.941015
 20
128.048995
 42
0.047051
  0
VERTEX
  8
0
 10
282.955801
 20
132.063778
 42
0.045779
  0
VERTEX
  8
0
 10
281.211340
 20
135.906270
 42
0.030831
  0
VERTEX
  8
0
 10
278.572128
 20
139.940674
 42
0.000000
  0
VERTEX
  8
0
 10
276.005320
 20
143.381349
 42
0.000000
  0
VERTEX
  8
0
 10
281.252660
 20
145.940674
 42
0.021538
  0
VERTEX
  8
0
 10
283.262314
 20
147.030373
 42
0.029634
  0
VERTEX
  8
0
 10
284.958594
 20
148.188823
 42
0.029767
  0
VERTEX
  8
0
 10
286.192960
 20
149.266977
 42
0.200975
  0
VERTEX
  8
0
 10
286.500000
 20
150.000000
 42
0.197773
  0
VERTEX
  8
0
 10
286.196542
 20
150.737180
 42
0.029380
  0
VERTEX
  8
0
 10
284.974984
 20
151.832668
 42
0.029338
  0
VERTEX
  8
0
 10
283.296709
 20
153.014761
 42
0.021426
  0
VERTEX
  8
0
 10
281.308456
 20
154.132485
 42
0.000000
  0
VERTEX
  8
0
 10
276.116912
 20
156.764971
 42
0.000000
  0
VERTEX
  8
0
 10
279.030690
 20
160.727093
 42
0.095558
  0
VERTEX
  8
0
 10
283.350563
 20
169.818960
 42
0.091617
  0
VERTEX
  8
0
 10
284.067881
 20
180.006281
 42
0.093416
  0
VERTEX
  8
0
 10
281.109728
 20
189.612740
 42
0.104359
  0
VERTEX
  8
0
 10
274.928984
 20
197.056245
 42
0.047416
  0
VERTEX
  8
0
 10
271.295473
 20
199.411395
 42
0.023575
  0
VERTEX
  8
0
 10
266.309785
 20
201.717207
 42
0.022873
  0
VERTEX
  8
0
 10
261.318109
 20
203.484692
 42
0.073777
  0
VERTEX
  8
0
 10
257.844774
 20
204.000000
 42
-0.052240
  0
VERTEX
  8
0
 10
257.138951
 20
204.073946
 42
-0.072116
  0
VERTEX
  8
0
 10
256.541902
 20
204.293750
 42
-0.092069
  0
VERTEX
  8
0
 10
256.140789
 20
204.618352
 42
-0.178567
  0
VERTEX
  8
0
 10
256.000000
 20
205.000000
 42
-0.137744
  0
VERTEX
  8
0
 10
256.107086
 20
205.381338
 42
-0.100172
  0
VERTEX
  8
0
 10
256.408082
 20
205.706250
 42
-0.086020
  0
VERTEX
  8
0
 10
256.858286
 20
205.924998
 42
-0.070284
  0
VERTEX
  8
0
 10
257.389216
 20
206.000000
 42
0.087879
  0
VERTEX
  8
0
 10
258.074543
 20
206.121389
 42
0.028172
  0
VERTEX
  8
0
 10
259.027475
 20
206.532108
 42
0.027122
  0
VERTEX
  8
0
 10
260.056968
 20
207.118151
 42
0.027237
  0
VERTEX
  8
0
 10
261.015454
 20
207.811430
 42
0.026879
  0
VERTEX
  8
0
 10
262.221844
 20
208.900655
 42
0.140170
  0
VERTEX
  8
0
 10
262.650165
 20
209.677069
 42
0.159510
  0
VERTEX
  8
0
 10
262.574586
 20
210.507528
 42
0.037801
  0
VERTEX
  8
0
 10
261.920626
 20
211.755491
 42
-0.035529
  0
VERTEX
  8
0
 10
261.272209
 20
212.979329
 42
-0.127932
  0
VERTEX
  8
0
 10
261.131175
 20
213.843845
 42
-0.126774
  0
VERTEX
  8
0
 10
261.428771
 20
214.672013
 42
-0.034611
  0
VERTEX
  8
0
 10
262.294388
 20
215.772801
 42
0.063368
  0
VERTEX
  8
0
 10
263.499368
 20
217.500555
 42
0.114062
  0
VERTEX
  8
0
 10
263.933380
 20
219.163562
 42
0.155664
  0
VERTEX
  8
0
 10
263.546211
 20
220.506417
 42
0.154931
  0
VERTEX
  8
0
 10
262.452238
 20
221.379955
 42
-0.118382
  0
VERTEX
  8
0
 10
261.755824
 20
221.858521
 42
-0.128643
  0
VERTEX
  8
0
 10
261.378906
 20
222.587538
 42
-0.078937
  0
VERTEX
  8
0
 10
261.308046
 20
223.697690
 42
-0.022914
  0
VERTEX
  8
0
 10
261.547495
 20
225.401476
 42
0.028958
  0
VERTEX
  8
0
 10
261.794112
 20
227.324534
 42
0.108541
  0
VERTEX
  8
0
 10
261.617335
 20
228.521828
 42
0.119180
  0
VERTEX
  8
0
 10
260.966174
 20
229.473497
 42
0.038382
  0
VERTEX
  8
0
 10
259.602542
 20
230.524769
 42
0.043853
  0
VERTEX
  8
0
 10
258.333914
 20
231.205340
 42
0.050568
  0
VERTEX
  8
0
 10
257.024374
 20
231.615729
 42
0.053189
  0
VERTEX
  8
0
 10
255.719546
 20
231.741856
 42
0.059066
  0
VERTEX
  8
0
 10
254.464465
 20
231.580437
 42
0.084612
  0
VERTEX
  8
0
 10
252.366512
 20
230.656786
 42
0.173131
  0
VERTEX
  8
0
 10
251.300659
 20
229.238260
 42
0.206092
  0
VERTEX
  8
0
 10
251.467889
 20
227.651042
 42
0.118853
  0
VERTEX
  8
0
 10
252.796983
 20
226.218805
 42
-0.033678
  0
VERTEX
  8
0
 10
254.027914
 20
225.276293
 42
-0.183890
  0
VERTEX
  8
0
 10
254.412922
 20
224.547969
 42
-0.133227
  0
VERTEX
  8
0
 10
254.279203
 20
223.614815
 42
-0.014796
  0
VERTEX
  8
0
 10
253.360211
 20
221.646511
 42
-0.044678
  0
VERTEX
  8
0
 10
251.447995
 20
218.567154
 42
-0.026339
  0
VERTEX
  8
0
 10
248.663831
 20
215.245965
 42
-0.026374
  0
VERTEX
  8
0
 10
245.637009
 20
212.324243
 42
-0.059219
  0
VERTEX
  8
0
 10
243.000000
 20
210.532929
 42
-0.055325
  0
VERTEX
  8
0
 10
239.622337
 20
209.231177
 42
-0.040499
  0
VERTEX
  8
0
 10
235.663516
 20
208.525644
 42
-0.039637
  0
VERTEX
  8
0
 10
231.537714
 20
208.458883
 42
-0.045938
  0
VERTEX
  8
0
 10
227.657689
 20
209.064610
 42
-0.011938
  0
VERTEX
  8
0
 10
225.826383
 20
209.572524
 42
-0.016339
  0
VERTEX
  8
0
 10
224.206193
 20
210.122237
 42
-0.013100
  0
VERTEX
  8
0
 10
222.905873
 20
210.650633
 42
-0.152427
  0
VERTEX
  8
0
 10
222.496240
 20
211.006084
 42
-0.388578
  0
VERTEX
  8
0
 10
222.580589
 20
211.450255
 42
-0.011652
  0
VERTEX
  8
0
 10
224.251706
 20
212.639711
 42
-0.017440
  0
VERTEX
  8
0
 10
226.441246
 20
214.013675
 42
-0.010425
  0
VERTEX
  8
0
 10
229.131963
 20
215.500004
 42
-0.007713
  0
VERTEX
  8
0
 10
232.863958
 20
217.388231
 42
-0.041109
  0
VERTEX
  8
0
 10
234.991763
 20
218.215496
 42
-0.093154
  0
VERTEX
  8
0
 10
236.304091
 20
218.350961
 42
-0.234983
  0
VERTEX
  8
0
 10
237.103412
 20
217.866916
 42
-0.033516
  0
VERTEX
  8
0
 10
237.436108
 20
217.254568
 42
-0.025440
  0
VERTEX
  8
0
 10
237.719496
 20
216.544679
 42
-0.025987
  0
VERTEX
  8
0
 10
237.917460
 20
215.848343
 42
-0.053154
  0
VERTEX
  8
0
 10
237.984687
 20
215.285184
 42
0.116783
  0
VERTEX
  8
0
 10
238.118304
 20
214.751032
 42
0.053425
  0
VERTEX
  8
0
 10
238.517150
 20
214.148042
 42
0.048812
  0
VERTEX
  8
0
 10
239.095380
 20
213.573589
 42
0.048332
  0
VERTEX
  8
0
 10
239.775823
 20
213.119976
 42
0.214547
  0
VERTEX
  8
0
 10
242.679507
 20
212.920147
 42
0.157452
  0
VERTEX
  8
0
 10
245.250217
 20
214.941433
 42
0.135802
  0
VERTEX
  8
0
 10
246.389757
 20
218.355090
 42
0.159398
  0
VERTEX
  8
0
 10
245.503515
 20
221.634979
 42
0.062497
  0
VERTEX
  8
0
 10
244.471533
 20
222.848148
 42
0.098679
  0
VERTEX
  8
0
 10
243.306637
 20
223.553361
 42
0.068942
  0
VERTEX
  8
0
 10
241.667716
 20
223.902660
 42
0.018082
  0
VERTEX
  8
0
 10
238.976947
 20
224.000000
 42
-0.016751
  0
VERTEX
  8
0
 10
235.455196
 20
224.118019
 42
-0.210264
  0
VERTEX
  8
0
 10
234.301816
 20
224.720665
 42
-0.356164
  0
VERTEX
  8
0
 10
234.311355
 20
225.725233
 42
-0.035371
  0
VERTEX
  8
0
 10
236.102379
 20
227.592652
 42
0.050869
  0
VERTEX
  8
0
 10
238.035961
 20
229.737764
 42
0.041324
  0
VERTEX
  8
0
 10
239.652927
 20
232.379066
 42
0.041870
  0
VERTEX
  8
0
 10
240.672784
 20
234.910108
 42
0.167993
  0
VERTEX
  8
0
 10
240.617642
 20
236.554025
 42
0.313011
  0
VERTEX
  8
0
 10
239.451030
 20
237.348196
 42
0.090095
  0
VERTEX
  8
0
 10
237.187529
 20
236.915892
 42
0.059210
  0
VERTEX
  8
0
 10
234.270339
 20
235.372229
 42
0.036737
  0
VERTEX
  8
0
 10
231.250000
 20
232.937658
 42
-0.005275
  0
VERTEX
  8
0
 10
230.000137
 20
231.793402
 42
-0.009324
  0
VERTEX
  8
0
 10
228.941620
 20
230.879670
 42
-0.004222
  0
VERTEX
  8
0
 10
228.059150
 20
230.158681
 42
-0.579388
  0
VERTEX
  8
0
 10
227.955516
 20
230.199314
 42
-0.017317
  0
VERTEX
  8
0
 10
227.929915
 20
230.426427
 42
-0.000239
  0
VERTEX
  8
0
 10
227.822898
 20
231.811036
 42
-0.000673
  0
VERTEX
  8
0
 10
227.701770
 20
233.416345
 42
-0.000443
  0
VERTEX
  8
0
 10
227.566518
 20
235.263787
 42
0.021240
  0
VERTEX
  8
0
 10
227.343923
 20
237.196515
 42
0.022545
  0
VERTEX
  8
0
 10
226.960881
 20
239.064786
 42
0.022873
  0
VERTEX
  8
0
 10
226.487472
 20
240.633767
 42
0.088717
  0
VERTEX
  8
0
 10
225.988558
 20
241.513787
 42
0.126685
  0
VERTEX
  8
0
 10
224.520419
 20
242.575362
 42
0.096068
  0
VERTEX
  8
0
 10
222.558480
 20
242.937387
 42
0.083535
  0
VERTEX
  8
0
 10
220.359203
 20
242.546812
 42
0.067244
  0
VERTEX
  8
0
 10
218.222506
 20
241.443296
 42
0.094882
  0
VERTEX
  8
0
 10
216.492790
 20
239.661564
 42
0.177550
  0
VERTEX
  8
0
 10
216.040767
 20
237.730600
 42
0.178391
  0
VERTEX
  8
0
 10
216.944342
 20
235.971667
 42
0.095855
  0
VERTEX
  8
0
 10
219.048763
 20
234.675492
 42
-0.030474
  0
VERTEX
  8
0
 10
220.528956
 20
234.011188
 42
-0.103145
  0
VERTEX
  8
0
 10
221.342718
 20
233.341824
 42
-0.145881
  0
VERTEX
  8
0
 10
221.667704
 20
232.544807
 42
-0.086289
  0
VERTEX
  8
0
 10
221.590440
 20
231.512356
 42
-0.054576
  0
VERTEX
  8
0
 10
220.489460
 20
228.550496
 42
-0.011227
  0
VERTEX
  8
0
 10
217.875485
 20
223.618816
 42
-0.004943
  0
VERTEX
  8
0
 10
214.965751
 20
218.533634
 42
-0.266339
  0
VERTEX
  8
0
 10
214.035018
 20
218.000000
 42
-0.283110
  0
VERTEX
  8
0
 10
212.949547
 20
218.668169
 42
-0.014489
  0
VERTEX
  8
0
 10
211.119795
 20
222.572407
 42
-0.022772
  0
VERTEX
  8
0
 10
209.480018
 20
226.879791
 42
-0.038207
  0
VERTEX
  8
0
 10
208.553152
 20
230.637377
 42
-0.088333
  0
VERTEX
  8
0
 10
208.620629
 20
236.915753
 42
-0.080063
  0
VERTEX
  8
0
 10
210.827197
 20
243.022404
 42
-0.074851
  0
VERTEX
  8
0
 10
215.014687
 20
248.463302
 42
-0.063433
  0
VERTEX
  8
0
 10
220.845054
 20
252.792759
 42
-0.006712
  0
VERTEX
  8
0
 10
223.537625
 20
254.258861
 42
-0.110005
  0
VERTEX
  8
0
 10
224.521734
 20
254.527047
 42
-0.241019
  0
VERTEX
  8
0
 10
225.203834
 20
254.217444
 42
-0.045104
  0
VERTEX
  8
0
 10
225.981811
 20
253.033987
 42
0.091645
  0
VERTEX
  8
0
 10
227.126840
 20
251.601044
 42
0.175218
  0
VERTEX
  8
0
 10
228.484232
 20
251.079357
 42
0.179955
  0
VERTEX
  8
0
 10
229.834895
 20
251.551198
 42
0.097107
  0
VERTEX
  8
0
 10
230.964816
 20
252.934259
 42
0.114975
  0
VERTEX
  8
0
 10
231.905940
 20
256.437441
 42
0.160291
  0
VERTEX
  8
0
 10
231.001978
 20
259.530094
 42
0.169090
  0
VERTEX
  8
0
 10
228.492425
 20
261.373472
 42
0.129397
  0
VERTEX
  8
0
 10
225.066337
 20
261.514570
 42
-0.026716
  0
VERTEX
  8
0
 10
223.545403
 20
261.264774
 42
-0.087995
  0
VERTEX
  8
0
 10
222.534768
 20
261.331749
 42
-0.135153
  0
VERTEX
  8
0
 10
221.855199
 20
261.712218
 42
-0.106733
  0
VERTEX
  8
0
 10
221.392186
 20
262.420363
 42
0.150695
  0
VERTEX
  8
0
 10
220.528112
 20
263.521051
 42
0.152701
  0
VERTEX
  8
0
 10
219.198898
 20
263.936669
 42
0.116172
  0
VERTEX
  8
0
 10
217.571266
 20
263.553305
 42
0.068341
  0
VERTEX
  8
0
 10
215.911928
 20
262.420296
 42
-0.043954
  0
VERTEX
  8
0
 10
214.909281
 20
261.661694
 42
-0.117705
  0
VERTEX
  8
0
 10
214.066337
 20
261.377169
 42
-0.110203
  0
VERTEX
  8
0
 10
213.151421
 20
261.495222
 42
-0.035904
  0
VERTEX
  8
0
 10
211.900191
 20
262.053416
 42
0.039661
  0
VERTEX
  8
0
 10
210.599645
 20
262.621948
 42
0.146071
  0
VERTEX
  8
0
 10
209.712800
 20
262.659878
 42
0.131659
  0
VERTEX
  8
0
 10
208.896806
 20
262.204345
 42
0.029800
  0
VERTEX
  8
0
 10
207.817004
 20
261.022337
 42
0.027159
  0
VERTEX
  8
0
 10
207.121591
 20
260.061217
 42
0.027082
  0
VERTEX
  8
0
 10
206.533745
 20
259.029497
 42
0.028127
  0
VERTEX
  8
0
 10
206.121690
 20
258.074936
 42
0.088043
  0
VERTEX
  8
0
 10
206.000000
 20
257.389216
 42
-0.168448
  0
VERTEX
  8
0
 10
205.618131
 20
256.287889
 42
-0.507474
  0
VERTEX
  8
0
 10
204.953586
 20
256.311788
 42
-0.072285
  0
VERTEX
  8
0
 10
203.948581
 20
258.385367
 42
-0.022251
  0
VERTEX
  8
0
 10
203.044523
 20
261.750000
 42
0.041970
  0
VERTEX
  8
0
 10
200.939349
 20
268.510165
 42
0.062364
  0
VERTEX
  8
0
 10
197.914329
 20
273.913776
 42
0.065997
  0
VERTEX
  8
0
 10
193.797615
 20
278.187255
 42
0.054369
  0
VERTEX
  8
0
 10
188.442279
 20
281.572042
 42
0.070018
  0
VERTEX
  8
0
 10
181.094190
 20
283.968097
 42
0.078109
  0
VERTEX
  8
0
 10
173.648565
 20
284.113289
 42
0.072469
  0
VERTEX
  8
0
 10
166.074537
 20
281.926415
 42
0.050094
  0
VERTEX
  8
0
 10
158.346631
 20
277.441210
 42
-0.031744
  0
VERTEX
  8
0
 10
157.005362
 20
276.595597
 42
-0.272092
  0
VERTEX
  8
0
 10
156.324243
 20
276.617586
 42
-0.162638
  0
VERTEX
  8
0
 10
155.792204
 20
277.269156
 42
-0.010881
  0
VERTEX
  8
0
 10
154.976578
 20
279.570971
 42
0.034941
  0
VERTEX
  8
0
 10
153.899800
 20
282.200773
 42
0.035254
  0
VERTEX
  8
0
 10
152.470050
 20
284.646788
 42
0.034415
  0
VERTEX
  8
0
 10
150.995202
 20
286.515103
 42
0.211509
  0
VERTEX
  8
0
 10
149.900204
 20
287.000000
 42
0.143837
  0
VERTEX
  8
0
 10
149.562790
 20
286.900884
 42
0.026872
  0
VERTEX
  8
0
 10
149.034232
 20
286.519411
 42
0.026799
  0
VERTEX
  8
0
 10
148.445948
 20
285.990319
 42
0.021687
  0
SEQEND
  0
POLYLINE
  8
0
 66
1
 70
1
  0
VERTEX
  8
0
 10
136.206904
 20
271.444254
 42
-0.051808
  0
VERTEX
  8
0
 10
139.616284
 20
268.497780
 42
-0.065178
  0
VERTEX
  8
0
 10
142.054082
 20
265.114685
 42
-0.066512
  0
VERTEX
  8
0
 10
143.505042
 20
261.276250
 42
-0.057120
  0
VERTEX
  8
0
 10
143.998446
 20
256.984398
 42
-0.056859
  0
VERTEX
  8
0
 10
143.598064
 20
253.464190
 42
-0.040541
  0
VERTEX
  8
0
 10
142.394628
 20
249.679761
 42
-0.039833
  0
VERTEX
  8
0
 10
140.788665
 20
246.506784
 42
-0.177035
  0
VERTEX
  8
0
 10
139.180207
 20
245.226736
 42
-0.245684
  0
VERTEX
  8
0
 10
138.628202
 20
245.315860
 42
-0.050266
  0
VERTEX
  8
0
 10
137.875818
 20
246.006102
 42
-0.042326
  0
VERTEX
  8
0
 10
137.074423
 20
247.074860
 42
-0.028464
  0
VERTEX
  8
0
 10
136.339951
 20
248.413305
 42
0.049128
  0
VERTEX
  8
0
 10
134.814837
 20
250.939515
 42
0.122119
  0
VERTEX
  8
0
 10
133.156053
 20
252.298662
 42
0.135562
  0
VERTEX
  8
0
 10
131.171344
 20
252.647367
 42
0.067040
  0
VERTEX
  8
0
 10
128.660011
 20
252.060836
 42
0.114746
  0
VERTEX
  8
0
 10
126.823625
 20
250.826443
 42
0.097236
  0
VERTEX
  8
0
 10
125.585565
 20
248.836826
 42
0.085826
  0
VERTEX
  8
0
 10
125.093525
 20
246.299349
 42
0.066650
  0
VERTEX
  8
0
 10
125.410644
 20
243.500000
 42
-0.046230
  0
VERTEX
  8
0
 10
125.687237
 20
241.712380
 42
-0.405442
  0
VERTEX
  8
0
 10
125.213123
 20
241.159959
 42
-0.129458
  0
VERTEX
  8
0
 10
124.005129
 20
241.362757
 42
-0.006757
  0
VERTEX
  8
0
 10
120.411163
 20
243.043005
 42
0.053608
  0
VERTEX
  8
0
 10
116.826177
 20
244.326203
 42
0.105781
  0
VERTEX
  8
0
 10
113.816751
 20
244.403975
 42
0.110340
  0
VERTEX
  8
0
 10
111.122622
 20
243.249855
 42
0.061770
  0
VERTEX
  8
0
 10
108.497052
 20
240.814127
 42
0.069316
  0
VERTEX
  8
0
 10
106.705642
 20
237.963728
 42
0.108430
  0
VERTEX
  8
0
 10
106.113511
 20
235.139518
 42
0.110694
  0
VERTEX
  8
0
 10
106.761802
 20
232.368709
 42
0.074473
  0
VERTEX
  8
0
 10
108.601186
 20
229.674301
 42
-0.010409
  0
VERTEX
  8
0
 10
109.573424
 20
228.580994
 42
-0.017620
  0
VERTEX
  8
0
 10
110.335113
 20
227.621149
 42
-0.012007
  0
VERTEX
  8
0
 10
110.890111
 20
226.829683
 42
-0.407965
  0
VERTEX
  8
0
 10
110.851186
 20
226.624153
 42
-0.013728
  0
VERTEX
  8
0
 10
108.230591
 20
224.901736
 42
-0.004866
  0
VERTEX
  8
0
 10
104.391142
 20
222.577882
 42
-0.001361
  0
VERTEX
  8
0
 10
100.306063
 20
220.174354
 42
-0.133052
  0
VERTEX
  8
0
 10
99.662453
 20
220.000000
 42
-0.415284
  0
VERTEX
  8
0
 10
98.947696
 20
220.717373
 42
-0.011719
  0
VERTEX
  8
0
 10
99.077510
 20
225.508333
 42
-0.019667
  0
VERTEX
  8
0
 10
99.570303
 20
230.977874
 42
-0.019901
  0
VERTEX
  8
0
 10
100.490257
 20
236.370070
 42
-0.057403
  0
VERTEX
  8
0
 10
103.020681
 20
243.918365
 42
-0.086685
  0
VERTEX
  8
0
 10
106.989188
 20
249.583440
 42
-0.103709
  0
VERTEX
  8
0
 10
112.044962
 20
252.896561
 42
-0.119239
  0
VERTEX
  8
0
 10
117.750000
 20
253.677644
 42
0.011414
  0
VERTEX
  8
0
 10
120.501541
 20
253.461300
 42
0.159082
  0
VERTEX
  8
0
 10
121.450650
 20
253.713665
 42
0.226929
  0
VERTEX
  8
0
 10
121.897625
 20
254.444185
 42
0.025704
  0
VERTEX
  8
0
 10
122.000000
 20
256.434276
 42
0.051892
  0
VERTEX
  8
0
 10
121.850961
 20
257.866467
 42
0.040616
  0
VERTEX
  8
0
 10
121.405980
 20
259.365457
 42
0.040820
  0
VERTEX
  8
0
 10
120.728222
 20
260.763700
 42
0.054323
  0
VERTEX
  8
0
 10
119.883755
 20
261.894399
 42
0.055184
  0
VERTEX
  8
0
 10
118.503846
 20
263.081708
 42
0.090892
  0
VERTEX
  8
0
 10
117.101939
 20
263.706033
 42
0.060276
  0
VERTEX
  8
0
 10
115.187715
 20
263.931567
 42
0.013347
  0
VERTEX
  8
0
 10
111.881933
 20
263.832960
 42
-0.016654
  0
VERTEX
  8
0
 10
107.692108
 20
263.735712
 42
-0.212620
  0
VERTEX
  8
0
 10
106.296125
 20
264.374417
 42
-0.325707
  0
VERTEX
  8
0
 10
106.179604
 20
265.624335
 42
-0.032443
  0
VERTEX
  8
0
 10
107.984248
 20
268.252845
 42
-0.117043
  0
VERTEX
  8
0
 10
113.491990
 20
272.627625
 42
-0.081587
  0
VERTEX
  8
0
 10
121.160954
 20
274.794843
 42
-0.079589
  0
VERTEX
  8
0
 10
129.311535
 20
274.417682
 42
-0.101367
  0
SEQEND
  0
POLYLINE
  8
0
 66
1
 70
1
  0
VERTEX
  8
0
 10
151.425672
 20
272.440123
 42
-0.067199
  0
VERTEX
  8
0
 10
151.709858
 20
269.906700
 42
-0.031861
  0
VERTEX
  8
0
 10
151.426493
 20
266.627156
 42
-0.025039
  0
VERTEX
  8
0
 10
150.820561
 20
263.637349
 42
-0.342740
  0
VERTEX
  8
0
 10
150.000000
 20
263.000000
 42
-0.268984
  0
VERTEX
  8
0
 10
149.660358
 20
263.196968
 42
-0.031904
  0
VERTEX
  8
0
 10
149.261371
 20
264.010536
 42
-0.031188
  0
VERTEX
  8
0
 10
148.880909
 20
265.121990
 42
-0.020504
  0
VERTEX
  8
0
 10
148.577211
 20
266.440123
 42
-0.045481
  0
VERTEX
  8
0
 10
148.312694
 20
269.229526
 42
-0.042114
  0
VERTEX
  8
0
 10
148.543986
 20
272.095374
 42
-0.043187
  0
VERTEX
  8
0
 10
149.130826
 20
274.383779
 42
-0.318521
  0
VERTEX
  8
0
 10
150.000000
 20
275.000000
 42
-0.226039
  0
VERTEX
  8
0
 10
150.343922
 20
274.836149
 42
-0.043386
  0
VERTEX
  8
0
 10
150.741855
 20
274.248036
 42
-0.038554
  0
VERTEX
  8
0
 10
151.122440
 20
273.420542
 42
-0.027032
  0
SEQEND
  0
POLYLINE
  8
0
 66
1
 70
1
  0
VERTEX
  8
0
 10
185.578599
 20
273.103669
 42
-0.050805
  0
VERTEX
  8
0
 10
188.502675
 20
271.398860
 42
-0.039995
  0
VERTEX
  8
0
 10
191.286261
 20
269.009612
 42
-0.040268
  0
VERTEX
  8
0
 10
193.390374
 20
266.516808
 42
-0.155976
  0
VERTEX
  8
0
 10
194.001822
 20
264.615141
 42
-0.316720
  0
VERTEX
  8
0
 10
193.672777
 20
264.146165
 42
-0.052058
  0
VERTEX
  8
0
 10
192.535620
 20
263.866067
 42
-0.035144
  0
VERTEX
  8
0
 10
190.756239
 20
263.746266
 42
-0.013119
  0
VERTEX
  8
0
 10
188.251822
 20
263.819589
 42
0.049880
  0
VERTEX
  8
0
 10
183.652548
 20
263.616299
 42
0.118236
  0
VERTEX
  8
0
 10
180.489263
 20
262.355675
 42
0.146489
  0
VERTEX
  8
0
 10
178.648939
 20
260.010120
 42
0.093867
  0
VERTEX
  8
0
 10
178.000000
 20
256.583882
 42
0.022743
  0
VERTEX
  8
0
 10
178.096206
 20
254.469908
 42
0.223634
  0
VERTEX
  8
0
 10
178.535934
 20
253.721102
 42
0.165318
  0
VERTEX
  8
0
 10
179.473611
 20
253.459458
 42
0.011434
  0
VERTEX
  8
0
 10
182.250000
 20
253.677644
 42
-0.119239
  0
VERTEX
  8
0
 10
187.955038
 20
252.896561
 42
-0.103709
  0
VERTEX
  8
0
 10
193.010812
 20
249.583440
 42
-0.086685
  0
VERTEX
  8
0
 10
196.979319
 20
243.918365
 42
-0.057403
  0
VERTEX
  8
0
 10
199.509743
 20
236.370070
 42
-0.020042
  0
VERTEX
  8
0
 10
200.387458
 20
231.216668
 42
-0.016823
  0
VERTEX
  8
0
 10
200.913073
 20
225.699147
 42
-0.008309
  0
VERTEX
  8
0
 10
201.139344
 20
220.642113
 42
-0.422467
  0
VERTEX
  8
0
 10
200.515023
 20
220.000000
 42
-0.132281
  0
VERTEX
  8
0
 10
199.965631
 20
220.147937
 42
-0.000691
  0
VERTEX
  8
0
 10
195.095609
 20
222.984735
 42
-0.002217
  0
VERTEX
  8
0
 10
190.604431
 20
225.635963
 42
-0.031720
  0
VERTEX
  8
0
 10
189.072902
 20
226.686269
 42
-0.381377
  0
VERTEX
  8
0
 10
189.026420
 20
226.945304
 42
-0.018074
  0
VERTEX
  8
0
 10
189.557662
 20
227.743397
 42
-0.022028
  0
VERTEX
  8
0
 10
190.327129
 20
228.719672
 42
-0.013113
  0
VERTEX
  8
0
 10
191.322902
 20
229.815150
 42
0.073341
  0
VERTEX
  8
0
 10
193.209998
 20
232.472151
 42
0.114186
  0
VERTEX
  8
0
 10
193.884979
 20
235.186186
 42
0.111617
  0
VERTEX
  8
0
 10
193.304373
 20
237.965442
 42
0.067916
  0
VERTEX
  8
0
 10
191.502948
 20
240.814127
 42
0.061770
  0
VERTEX
  8
0
 10
188.902330
 20
243.226704
 42
0.109970
  0
VERTEX
  8
0
 10
186.231418
 20
244.373185
 42
0.102448
  0
VERTEX
  8
0
 10
183.192948
 20
244.319151
 42
0.048665
  0
VERTEX
  8
0
 10
179.459987
 20
243.085325
 42
0.000000
  0
VERTEX
  8
0
 10
175.000000
 20
241.112461
 42
0.000000
  0
VERTEX
  8
0
 10
174.984687
 20
244.806230
 42
0.028267
  0
VERTEX
  8
0
 10
174.815430
 20
247.592851
 42
0.093079
  0
VERTEX
  8
0
 10
174.268555
 20
249.343333
 42
0.106384
  0
VERTEX
  8
0
 10
173.170354
 20
250.646104
 42
0.043427
  0
VERTEX
  8
0
 10
171.212227
 20
251.905695
 42
0.086445
  0
VERTEX
  8
0
 10
168.945073
 20
252.637839
 42
0.142576
  0
VERTEX
  8
0
 10
166.966952
 20
252.352333
 42
0.121551
  0
VERTEX
  8
0
 10
165.235336
 20
250.984674
 42
0.053905
  0
VERTEX
  8
0
 10
163.696556
 20
248.489862
 42
-0.021690
  0
VERTEX
  8
0
 10
162.986487
 20
247.153290
 42
-0.029899
  0
VERTEX
  8
0
 10
162.228683
 20
246.025147
 42
-0.030134
  0
VERTEX
  8
0
 10
161.521288
 20
245.204683
 42
-0.202454
  0
VERTEX
  8
0
 10
161.036502
 20
245.000000
 42
-0.271727
  0
VERTEX
  8
0
 10
159.590497
 20
245.848487
 42
-0.029608
  0
VERTEX
  8
0
 10
157.841812
 20
249.465655
 42
-0.034909
  0
VERTEX
  8
0
 10
156.452256
 20
253.640257
 42
-0.063058
  0
VERTEX
  8
0
 10
156.001554
 20
257.210162
 42
-0.060907
  0
VERTEX
  8
0
 10
156.521863
 20
261.452893
 42
-0.070102
  0
VERTEX
  8
0
 10
158.047562
 20
265.232471
 42
-0.066024
  0
VERTEX
  8
0
 10
160.648823
 20
268.615495
 42
-0.046208
  0
VERTEX
  8
0
 10
164.359191
 20
271.684613
 42
-0.020815
  0
VERTEX
  8
0
 10
167.233499
 20
273.475144
 42
-0.056206
  0
VERTEX
  8
0
 10
169.442154
 20
274.417296
 42
-0.054735
  0
VERTEX
  8
0
 10
171.838669
 20
274.857220
 42
-0.018943
  0
VERTEX
  8
0
 10
175.359191
 20
274.978038
 42
-0.021833
  0
VERTEX
  8
0
 10
178.181504
 20
274.844626
 42
-0.022629
  0
VERTEX
  8
0
 10
180.947533
 20
274.465699
 42
-0.023983
  0
VERTEX
  8
0
 10
183.476785
 20
273.875218
 42
-0.037271
  0
SEQEND
  0
POLYLINE
  8
0
 66
1
 70
1
  0
VERTEX
  8
0
 10
120.950779
 20
234.917136
 42
-0.013301
  0
VERTEX
  8
0
 10
122.886038
 20
234.447931
 42
-0.020912
  0
VERTEX
  8
0
 10
124.516791
 20
233.932240
 42
-0.016242
  0
VERTEX
  8
0
 10
125.775297
 20
233.428735
 42
-0.297797
  0
VERTEX
  8
0
 10
126.000000
 20
233.084917
 42
-0.246688
  0
VERTEX
  8
0
 10
125.817796
 20
232.738090
 42
-0.028854
  0
VERTEX
  8
0
 10
125.045312
 20
232.269069
 42
-0.029272
  0
VERTEX
  8
0
 10
123.995121
 20
231.788129
 42
-0.019819
  0
VERTEX
  8
0
 10
122.750000
 20
231.359848
 42
-0.039759
  0
VERTEX
  8
0
 10
120.901659
 20
230.961667
 42
-0.075604
  0
VERTEX
  8
0
 10
119.384085
 20
230.989309
 42
-0.064505
  0
VERTEX
  8
0
 10
117.790174
 20
231.478810
 42
-0.022389
  0
VERTEX
  8
0
 10
115.643793
 20
232.573331
 42
-0.017512
  0
VERTEX
  8
0
 10
114.052862
 20
233.551712
 42
-0.060771
  0
VERTEX
  8
0
 10
113.136731
 20
234.335607
 42
-0.169793
  0
VERTEX
  8
0
 10
112.893015
 20
234.903706
 42
-0.326093
  0
VERTEX
  8
0
 10
113.143793
 20
235.302317
 42
-0.037700
  0
VERTEX
  8
0
 10
114.555650
 20
235.744365
 42
-0.069452
  0
VERTEX
  8
0
 10
115.752132
 20
235.851596
 42
-0.036292
  0
VERTEX
  8
0
 10
117.371014
 20
235.653352
 42
-0.004215
  0
SEQEND
  0
POLYLINE
  8
0
 66
1
 70
1
  0
VERTEX
  8
0
 10
186.474941
 20
235.371243
 42
-0.153673
  0
VERTEX
  8
0
 10
187.023267
 20
234.935606
 42
-0.314495
  0
VERTEX
  8
0
 10
187.015452
 20
234.412479
 42
-0.089181
  0
VERTEX
  8
0
 10
186.268438
 20
233.690200
 42
-0.011917
  0
VERTEX
  8
0
 10
184.412766
 20
232.509026
 42
-0.022562
  0
VERTEX
  8
0
 10
182.304012
 20
231.362776
 42
-0.071084
  0
VERTEX
  8
0
 10
180.775020
 20
230.871572
 42
-0.081181
  0
VERTEX
  8
0
 10
179.284466
 20
230.861273
 42
-0.035687
  0
VERTEX
  8
0
 10
177.356038
 20
231.305565
 42
-0.019834
  0
VERTEX
  8
0
 10
174.649837
 20
232.255077
 42
-0.339546
  0
VERTEX
  8
0
 10
174.196486
 20
233.013055
 42
-0.286637
  0
VERTEX
  8
0
 10
174.797144
 20
233.765110
 42
-0.016387
  0
VERTEX
  8
0
 10
177.750000
 20
234.697266
 42
-0.012513
  0
VERTEX
  8
0
 10
180.891161
 20
235.492594
 42
-0.036483
  0
VERTEX
  8
0
 10
183.101674
 20
235.826741
 42
-0.051588
  0
VERTEX
  8
0
 10
184.854228
 20
235.781181
 42
-0.059403
  0
SEQEND
  0
POLYLINE
  8
0
 66
1
 70
1
  0
VERTEX
  8
0
 10
171.978417
 20
220.985863
 42
-0.023325
  0
VERTEX
  8
0
 10
180.790896
 20
217.550076
 42
-0.031492
  0
VERTEX
  8
0
 10
188.371967
 20
213.590232
 42
-0.032015
  0
VERTEX
  8
0
 10
195.298968
 20
208.766067
 42
-0.025398
  0
VERTEX
  8
0
 10
202.138074
 20
202.729851
 42
-0.028107
  0
VERTEX
  8
0
 10
208.399852
 20
195.881578
 42
-0.034328
  0
VERTEX
  8
0
 10
213.413039
 20
188.797625
 42
-0.033089
  0
VERTEX
  8
0
 10
217.547303
 20
180.877333
 42
-0.023295
  0
VERTEX
  8
0
 10
221.166574
 20
171.500000
 42
-0.022181
  0
VERTEX
  8
0
 10
222.404883
 20
167.151237
 42
-0.031246
  0
VERTEX
  8
0
 10
223.089079
 20
163.179234
 42
-0.021678
  0
VERTEX
  8
0
 10
223.412256
 20
158.195809
 42
-0.005353
  0
VERTEX
  8
0
 10
223.500000
 20
150.000000
 42
-0.007567
  0
VERTEX
  8
0
 10
223.355344
 20
140.441600
 42
-0.034418
  0
VERTEX
  8
0
 10
222.805163
 20
134.906568
 42
-0.038249
  0
VERTEX
  8
0
 10
221.524669
 20
129.770747
 42
-0.010814
  0
VERTEX
  8
0
 10
218.754596
 20
122.000000
 42
-0.044937
  0
VERTEX
  8
0
 10
214.388659
 20
113.050457
 42
-0.031943
  0
VERTEX
  8
0
 10
208.012609
 20
103.879945
 42
-0.031777
  0
VERTEX
  8
0
 10
200.466775
 20
95.531519
 42
-0.042445
  0
VERTEX
  8
0
 10
192.575524
 20
89.051962
 42
-0.028691
  0
VERTEX
  8
0
 10
186.737496
 20
85.510496
 42
-0.018483
  0
VERTEX
  8
0
 10
179.612384
 20
82.060356
 42
-0.018577
  0
VERTEX
  8
0
 10
172.362349
 20
79.191174
 42
-0.032719
  0
VERTEX
  8
0
 10
166.163184
 20
77.446971
 42
-0.033866
  0
VERTEX
  8
0
 10
158.888618
 20
76.413289
 42
-0.018775
  0
VERTEX
  8
0
 10
149.924111
 20
76.091329
 42
-0.018765
  0
VERTEX
  8
0
 10
140.935922
 20
76.443579
 42
-0.033028
  0
VERTEX
  8
0
 10
133.580639
 20
77.500570
 42
-0.048618
  0
VERTEX
  8
0
 10
122.678752
 20
80.943763
 42
-0.038240
  0
VERTEX
  8
0
 10
111.682912
 20
86.661657
 42
-0.037260
  0
VERTEX
  8
0
 10
101.380169
 20
94.180691
 42
-0.039705
  0
VERTEX
  8
0
 10
92.541593
 20
103.000000
 42
-0.040590
  0
VERTEX
  8
0
 10
88.137476
 20
109.091586
 42
-0.021223
  0
VERTEX
  8
0
 10
83.626803
 20
117.301235
 42
-0.021182
  0
VERTEX
  8
0
 10
79.782367
 20
125.965479
 42
-0.036426
  0
VERTEX
  8
0
 10
77.431535
 20
133.500000
 42
-0.045486
  0
VERTEX
  8
0
 10
76.243539
 20
142.009772
 42
-0.021967
  0
VERTEX
  8
0
 10
76.200918
 20
153.021024
 42
-0.021924
  0
VERTEX
  8
0
 10
77.116941
 20
163.913827
 42
-0.049072
  0
VERTEX
  8
0
 10
78.974512
 20
172.000000
 42
-0.060140
  0
VERTEX
  8
0
 10
87.287103
 20
189.475019
 42
-0.063360
  0
VERTEX
  8
0
 10
99.400116
 20
204.130775
 42
-0.063759
  0
VERTEX
  8
0
 10
114.722545
 20
215.213817
 42
-0.062217
  0
VERTEX
  8
0
 10
132.468001
 20
222.190467
 42
-0.047812
  0
VERTEX
  8
0
 10
141.125371
 20
223.541116
 42
-0.022427
  0
VERTEX
  8
0
 10
152.470258
 20
223.704119
 42
-0.022375
  0
VERTEX
  8
0
 10
163.708850
 20
222.857134
 42
-0.051331
  0
SEQEND
  0
POLYLINE
  8
0
 66
1
 70
1
  0
VERTEX
  8
0
 10
80.000000
 20
200.337547
 42
-0.133657
  0
VERTEX
  8
0
 10
79.816993
 20
199.665162
 42
-0.001275
  0
VERTEX
  8
0
 10
77.207652
 20
195.252566
 42
-0.004187
  0
VERTEX
  8
0
 10
74.749106
 20
191.196762
 42
-0.022726
  0
VERTEX
  8
0
 10
73.299935
 20
189.072902
 42
-0.388239
  0
VERTEX
  8
0
 10
73.047308
 20
189.025382
 42
-0.017704
  0
VERTEX
  8
0
 10
72.252550
 20
189.557662
 42
-0.021735
  0
VERTEX
  8
0
 10
71.279360
 20
190.327083
 42
-0.012882
  0
VERTEX
  8
0
 10
70.184850
 20
191.322902
 42
0.073341
  0
VERTEX
  8
0
 10
67.527849
 20
193.209998
 42
0.114186
  0
VERTEX
  8
0
 10
64.813814
 20
193.884979
 42
0.111617
  0
VERTEX
  8
0
 10
62.034558
 20
193.304373
 42
0.067916
  0
VERTEX
  8
0
 10
59.185873
 20
191.502948
 42
0.061770
  0
VERTEX
  8
0
 10
56.750145
 20
188.877378
 42
0.110340
  0
VERTEX
  8
0
 10
55.596025
 20
186.183249
 42
0.105781
  0
VERTEX
  8
0
 10
55.673797
 20
183.173823
 42
0.053608
  0
VERTEX
  8
0
 10
56.956995
 20
179.588837
 42
-0.003737
  0
VERTEX
  8
0
 10
57.739930
 20
177.940207
 42
-0.005514
  0
VERTEX
  8
0
 10
58.400247
 20
176.480692
 42
-0.002695
  0
VERTEX
  8
0
 10
58.939405
 20
175.234914
 42
-0.100355
  0
VERTEX
  8
0
 10
59.001293
 20
174.934276
 42
-0.373009
  0
VERTEX
  8
0
 10
58.852452
 20
174.761484
 42
-0.010229
  0
VERTEX
  8
0
 10
57.788627
 20
174.627568
 42
-0.016330
  0
VERTEX
  8
0
 10
56.455163
 20
174.531248
 42
-0.009863
  0
VERTEX
  8
0
 10
54.871251
 20
174.500000
 42
0.028463
  0
VERTEX
  8
0
 10
52.692705
 20
174.375882
 42
0.073334
  0
VERTEX
  8
0
 10
51.173312
 20
173.971318
 42
0.083902
  0
VERTEX
  8
0
 10
49.957116
 20
173.184812
 42
0.046303
  0
VERTEX
  8
0
 10
48.764428
 20
171.870173
 42
0.082764
  0
VERTEX
  8
0
 10
47.500582
 20
169.437256
 42
0.162677
  0
VERTEX
  8
0
 10
47.519064
 20
167.281087
 42
0.141919
  0
VERTEX
  8
0
 10
48.864977
 20
165.367860
 42
0.057768
  0
VERTEX
  8
0
 10
51.586695
 20
163.660049
 42
-0.030479
  0
VERTEX
  8
0
 10
52.924437
 20
162.918938
 42
-0.044447
  0
VERTEX
  8
0
 10
53.992059
 20
162.097709
 42
-0.053358
  0
VERTEX
  8
0
 10
54.675437
 20
161.318015
 42
-0.233429
  0
VERTEX
  8
0
 10
54.767006
 20
160.729671
 42
-0.181998
  0
VERTEX
  8
0
 10
53.516169
 20
159.132212
 42
-0.041145
  0
VERTEX
  8
0
 10
50.380507
 20
157.562224
 42
-0.041347
  0
VERTEX
  8
0
 10
46.594925
 20
156.394079
 42
-0.054218
  0
VERTEX
  8
0
 10
43.000000
 20
156.003108
 42
-0.058398
  0
VERTEX
  8
0
 10
38.586630
 20
156.520333
 42
-0.070693
  0
VERTEX
  8
0
 10
34.709984
 20
158.043946
 42
-0.067933
  0
VERTEX
  8
0
 10
31.295422
 20
160.646649
 42
-0.048717
  0
VERTEX
  8
0
 10
28.250000
 20
164.363014
 42
-0.021219
  0
VERTEX
  8
0
 10
26.509095
 20
167.223602
 42
-0.054762
  0
VERTEX
  8
0
 10
25.580411
 20
169.452018
 42
-0.053194
  0
VERTEX
  8
0
 10
25.143142
 20
171.866570
 42
-0.019114
  0
VERTEX
  8
0
 10
25.021962
 20
175.363014
 42
-0.041571
  0
VERTEX
  8
0
 10
25.466713
 20
180.481584
 42
-0.051432
  0
VERTEX
  8
0
 10
26.754167
 20
185.087948
 42
-0.056721
  0
VERTEX
  8
0
 10
28.802977
 20
188.941735
 42
-0.075725
  0
VERTEX
  8
0
 10
31.509228
 20
191.828599
 42
-0.020888
  0
VERTEX
  8
0
 10
33.919475
 20
193.566626
 42
-0.179899
  0
VERTEX
  8
0
 10
35.190466
 20
193.860182
 42
-0.332040
  0
VERTEX
  8
0
 10
35.878406
 20
193.192873
 42
-0.056382
  0
VERTEX
  8
0
 10
35.969404
 20
191.250000
 42
0.038027
  0
VERTEX
  8
0
 10
36.031713
 20
185.126225
 42
0.109881
  0
VERTEX
  8
0
 10
37.298439
 20
181.103684
 42
0.156685
  0
VERTEX
  8
0
 10
39.817579
 20
178.821927
 42
0.106690
  0
VERTEX
  8
0
 10
43.625691
 20
178.000000
 42
0.020784
  0
VERTEX
  8
0
 10
45.636999
 20
178.083642
 42
0.210873
  0
VERTEX
  8
0
 10
46.354675
 20
178.474575
 42
0.190045
  0
VERTEX
  8
0
 10
46.590624
 20
179.292810
 42
0.016505
  0
VERTEX
  8
0
 10
46.308967
 20
181.483483
 42
-0.073162
  0
VERTEX
  8
0
 10
46.257953
 20
184.927442
 42
-0.074678
  0
VERTEX
  8
0
 10
47.204299
 20
188.214358
 42
-0.066246
  0
VERTEX
  8
0
 10
49.201423
 20
191.387751
 42
-0.042235
  0
VERTEX
  8
0
 10
52.268230
 20
194.497600
 42
-0.035293
  0
VERTEX
  8
0
 10
54.995298
 20
196.516976
 42
-0.054923
  0
VERTEX
  8
0
 10
57.617560
 20
197.806705
 42
-0.032731
  0
VERTEX
  8
0
 10
61.305136
 20
198.874759
 42
-0.005512
  0
VERTEX
  8
0
 10
68.500000
 20
200.374156
 42
-0.034019
  0
VERTEX
  8
0
 10
71.536698
 20
200.760120
 42
-0.015400
  0
VERTEX
  8
0
 10
75.547258
 20
200.870895
 42
-0.006619
  0
VERTEX
  8
0
 10
79.545986
 20
200.805230
 42
-0.405554
  0
SEQEND
  0
POLYLINE
  8
0
 66
1
 70
1
  0
VERTEX
  8
0
 10
239.451307
 20
198.907944
 42
-0.084816
  0
VERTEX
  8
0
 10
245.433811
 20
196.265673
 42
-0.079750
  0
VERTEX
  8
0
 10
250.346548
 20
191.741076
 42
-0.086429
  0
VERTEX
  8
0
 10
253.296085
 20
186.276043
 42
-0.130706
  0
VERTEX
  8
0
 10
253.632096
 20
180.910481
 42
0.022865
  0
VERTEX
  8
0
 10
253.376200
 20
179.236276
 42
0.176370
  0
VERTEX
  8
0
 10
253.564062
 20
178.479105
 42
0.212925
  0
VERTEX
  8
0
 10
254.171924
 20
178.098967
 42
0.034834
  0
VERTEX
  8
0
 10
255.590741
 20
178.000000
 42
0.060848
  0
VERTEX
  8
0
 10
257.732437
 20
178.261605
 42
0.043876
  0
VERTEX
  8
0
 10
260.011321
 20
179.044189
 42
0.045094
  0
VERTEX
  8
0
 10
262.000790
 20
180.153395
 42
0.096126
  0
VERTEX
  8
0
 10
263.234687
 20
181.399704
 42
0.110794
  0
VERTEX
  8
0
 10
263.523545
 20
182.148792
 42
0.011592
  0
VERTEX
  8
0
 10
263.758058
 20
184.027675
 42
0.013918
  0
VERTEX
  8
0
 10
263.925141
 20
186.307493
 42
0.010724
  0
VERTEX
  8
0
 10
263.984687
 20
188.800891
 42
0.000000
  0
VERTEX
  8
0
 10
264.000000
 20
195.101783
 42
0.000000
  0
VERTEX
  8
0
 10
267.654941
 20
192.314023
 42
-0.144769
  0
VERTEX
  8
0
 10
273.623217
 20
184.156723
 42
-0.114565
  0
VERTEX
  8
0
 10
274.893666
 20
173.251403
 42
-0.117677
  0
VERTEX
  8
0
 10
271.238786
 20
163.126953
 42
-0.158279
  0
VERTEX
  8
0
 10
263.684900
 20
157.066612
 42
-0.070768
  0
VERTEX
  8
0
 10
259.151079
 20
156.048589
 42
-0.056352
  0
VERTEX
  8
0
 10
254.134659
 20
156.214237
 42
-0.058660
  0
VERTEX
  8
0
 10
249.527684
 20
157.453511
 42
-0.101707
  0
VERTEX
  8
0
 10
246.231274
 20
159.625869
 42
-0.025459
  0
VERTEX
  8
0
 10
245.334595
 20
160.618828
 42
-0.195505
  0
VERTEX
  8
0
 10
245.154334
 20
161.206879
 42
-0.190845
  0
VERTEX
  8
0
 10
245.433489
 20
161.762126
 42
-0.024109
  0
VERTEX
  8
0
 10
246.497714
 20
162.621987
 42
-0.028531
  0
VERTEX
  8
0
 10
247.312774
 20
163.149403
 42
-0.026470
  0
VERTEX
  8
0
 10
248.202820
 20
163.595209
 42
-0.027444
  0
VERTEX
  8
0
 10
249.037055
 20
163.905934
 42
-0.075562
  0
VERTEX
  8
0
 10
249.655946
 20
164.000000
 42
0.202027
  0
VERTEX
  8
0
 10
251.159594
 20
164.633409
 42
0.115543
  0
VERTEX
  8
0
 10
252.194686
 20
166.347144
 42
0.092290
  0
VERTEX
  8
0
 10
252.501780
 20
168.710275
 42
0.084668
  0
VERTEX
  8
0
 10
251.957151
 20
171.103447
 42
0.092771
  0
VERTEX
  8
0
 10
250.666981
 20
173.082531
 42
0.100739
  0
VERTEX
  8
0
 10
248.781128
 20
174.392946
 42
0.089922
  0
VERTEX
  8
0
 10
246.350980
 20
174.954545
 42
0.059227
  0
VERTEX
  8
0
 10
243.481524
 20
174.751717
 42
-0.008548
  0
VERTEX
  8
0
 10
242.529893
 20
174.586610
 42
-0.014554
  0
VERTEX
  8
0
 10
241.728948
 20
174.485490
 42
-0.008413
  0
VERTEX
  8
0
 10
241.082688
 20
174.433904
 42
-0.432737
  0
VERTEX
  8
0
 10
241.000000
 20
174.511554
 42
-0.099160
  0
VERTEX
  8
0
 10
241.034768
 20
174.685141
 42
-0.000753
  0
VERTEX
  8
0
 10
241.596047
 20
176.024427
 42
-0.002763
  0
VERTEX
  8
0
 10
242.251337
 20
177.557703
 42
-0.001765
  0
VERTEX
  8
0
 10
243.029095
 20
179.332869
 42
0.023923
  0
VERTEX
  8
0
 10
243.820713
 20
181.382135
 42
0.030555
  0
VERTEX
  8
0
 10
244.340477
 20
183.338286
 42
0.034298
  0
VERTEX
  8
0
 10
244.565377
 20
185.057890
 42
0.076997
  0
VERTEX
  8
0
 10
244.444487
 20
186.365157
 42
0.089385
  0
VERTEX
  8
0
 10
243.317313
 20
188.861005
 42
0.068261
  0
VERTEX
  8
0
 10
241.295449
 20
191.080626
 42
0.065387
  0
VERTEX
  8
0
 10
238.652354
 20
192.756514
 42
0.068513
  0
VERTEX
  8
0
 10
235.707297
 20
193.660073
 42
0.033389
  0
VERTEX
  8
0
 10
233.702749
 20
193.849306
 42
0.092818
  0
VERTEX
  8
0
 10
232.311366
 20
193.627998
 42
0.090100
  0
VERTEX
  8
0
 10
231.070499
 20
192.913308
 42
0.030288
  0
VERTEX
  8
0
 10
229.553972
 20
191.463736
 42
-0.012336
  0
VERTEX
  8
0
 10
228.545389
 20
190.427923
 42
-0.021106
  0
VERTEX
  8
0
 10
227.647950
 20
189.621810
 42
-0.017028
  0
VERTEX
  8
0
 10
226.912834
 20
189.056469
 42
-0.409924
  0
VERTEX
  8
0
 10
226.679704
 20
189.093263
 42
-0.020937
  0
VERTEX
  8
0
 10
225.060196
 20
191.489536
 42
-0.005525
  0
VERTEX
  8
0
 10
222.676177
 20
195.453989
 42
-0.001900
  0
VERTEX
  8
0
 10
220.211367
 20
199.694125
 42
-0.131439
  0
VERTEX
  8
0
 10
220.000000
 20
200.484283
 42
-0.432154
  0
VERTEX
  8
0
 10
220.676863
 20
201.121157
 42
-0.005001
  0
VERTEX
  8
0
 10
227.499308
 20
200.636891
 42
-0.013305
  0
VERTEX
  8
0
 10
234.270250
 20
199.906391
 42
-0.028156
  0
SEQEND
  0
POLYLINE
  8
0
 66
1
 70
1
  0
VERTEX
  8
0
 10
68.686869
 20
177.331386
 42
-0.026252
  0
VERTEX
  8
0
 10
68.206022
 20
176.015223
 42
-0.065596
  0
VERTEX
  8
0
 10
67.686307
 20
175.135832
 42
-0.132894
  0
VERTEX
  8
0
 10
67.187519
 20
174.763081
 42
-0.299213
  0
VERTEX
  8
0
 10
66.745510
 20
174.854490
 42
-0.127507
  0
VERTEX
  8
0
 10
65.741022
 20
176.562005
 42
-0.022233
  0
VERTEX
  8
0
 10
64.868567
 20
180.227840
 42
-0.023535
  0
VERTEX
  8
0
 10
64.331250
 20
183.982841
 42
-0.100940
  0
VERTEX
  8
0
 10
64.569457
 20
186.218839
 42
-0.069381
  0
VERTEX
  8
0
 10
65.005010
 20
187.130089
 42
-0.403087
  0
VERTEX
  8
0
 10
65.476968
 20
187.235654
 42
-0.113081
  0
VERTEX
  8
0
 10
66.116588
 20
186.613594
 42
-0.007776
  0
VERTEX
  8
0
 10
67.462554
 20
184.459855
 42
-0.022050
  0
VERTEX
  8
0
 10
68.630128
 20
182.317100
 42
-0.071303
  0
VERTEX
  8
0
 10
69.127144
 20
180.778529
 42
-0.081813
  0
VERTEX
  8
0
 10
69.137372
 20
179.280814
 42
-0.035352
  0
SEQEND
  0
POLYLINE
  8
0
 66
1
 70
1
  0
VERTEX
  8
0
 10
235.677934
 20
182.150860
 42
-0.016115
  0
VERTEX
  8
0
 10
235.389367
 20
180.920831
 42
-0.008256
  0
VERTEX
  8
0
 10
234.952672
 20
179.397440
 42
-0.008195
  0
VERTEX
  8
0
 10
234.450784
 20
177.841765
 42
-0.012214
  0
VERTEX
  8
0
 10
233.956597
 20
176.500000
 42
0.000000
  0
VERTEX
  8
0
 10
232.767671
 20
173.500000
 42
0.000000
  0
VERTEX
  8
0
 10
231.567166
 20
176.933024
 42
-0.031092
  0
VERTEX
  8
0
 10
231.002256
 20
178.941062
 42
-0.082913
  0
VERTEX
  8
0
 10
230.933126
 20
180.422751
 42
-0.074237
  0
VERTEX
  8
0
 10
231.348329
 20
181.940523
 42
-0.021475
  0
VERTEX
  8
0
 10
232.425845
 20
184.125368
 42
-0.012449
  0
VERTEX
  8
0
 10
233.540644
 20
186.045532
 42
-0.092920
  0
VERTEX
  8
0
 10
234.245447
 20
186.823306
 42
-0.292440
  0
VERTEX
  8
0
 10
234.810723
 20
186.868771
 42
-0.143940
  0
VERTEX
  8
0
 10
235.347686
 20
186.343204
 42
-0.074820
  0
VERTEX
  8
0
 10
235.641504
 20
185.564601
 42
-0.033230
  0
VERTEX
  8
0
 10
235.800543
 20
184.475840
 42
-0.031953
  0
VERTEX
  8
0
 10
235.818172
 20
183.278942
 42
-0.037280
  0
SEQEND
  0
POLYLINE
  8
0
 66
1
 70
1
  0
VERTEX
  8
0
 10
37.325182
 20
150.073632
 42
-0.586084
  0
VERTEX
  8
0
 10
37.065942
 20
149.151761
 42
-0.036952
  0
VERTEX
  8
0
 10
33.579104
 20
148.579945
 42
-0.031908
  0
VERTEX
  8
0
 10
29.340842
 20
148.474472
 42
-0.086527
  0
VERTEX
  8
0
 10
26.412260
 20
149.103384
 42
0.000000
  0
VERTEX
  8
0
 10
23.500000
 20
150.280648
 42
0.000000
  0
VERTEX
  8
0
 10
26.000000
 20
151.083903
 42
-0.072649
  0
VERTEX
  8
0
 10
28.578185
 20
151.515432
 42
-0.027448
  0
VERTEX
  8
0
 10
32.239398
 20
151.390584
 42
-0.024099
  0
VERTEX
  8
0
 10
35.744154
 20
150.906835
 42
-0.150964
  0
SEQEND
  0
POLYLINE
  8
0
 66
1
 70
1
  0
VERTEX
  8
0
 10
272.750000
 20
151.369714
 42
-0.190605
  0
VERTEX
  8
0
 10
274.300863
 20
150.218571
 42
-0.465363
  0
VERTEX
  8
0
 10
273.916628
 20
149.041536
 42
-0.090270
  0
VERTEX
  8
0
 10
270.436619
 20
148.321258
 42
-0.045683
  0
VERTEX
  8
0
 10
265.955367
 20
148.623128
 42
-0.024348
  0
VERTEX
  8
0
 10
263.420434
 20
149.156146
 42
-0.294483
  0
VERTEX
  8
0
 10
262.778528
 20
149.856214
 42
-0.361447
  0
VERTEX
  8
0
 10
263.203222
 20
150.590511
 42
-0.029187
  0
VERTEX
  8
0
 10
265.500000
 20
151.286934
 42
-0.019840
  0
VERTEX
  8
0
 10
267.594856
 20
151.703679
 42
-0.036337
  0
VERTEX
  8
0
 10
269.328927
 20
151.849787
 42
-0.039483
  0
VERTEX
  8
0
 10
270.965484
 20
151.739140
 42
-0.028860
  0
SEQEND
  0
POLYLINE
  8
0
 66
1
 70
1
  0
VERTEX
  8
0
 10
51.039838
 20
141.979676
 42
-0.018615
  0
VERTEX
  8
0
 10
52.556735
 20
141.133238
 42
-0.026183
  0
VERTEX
  8
0
 10
53.836702
 20
140.260290
 42
-0.024710
  0
VERTEX
  8
0
 10
54.782527
 20
139.463126
 42
-0.208201
  0
VERTEX
  8
0
 10
55.000000
 20
138.963498
 42
-0.202454
  0
VERTEX
  8
0
 10
54.795317
 20
138.478712
 42
-0.030134
  0
VERTEX
  8
0
 10
53.974853
 20
137.771317
 42
-0.029899
  0
VERTEX
  8
0
 10
52.846710
 20
137.013513
 42
-0.021690
  0
VERTEX
  8
0
 10
51.510138
 20
136.303444
 42
0.055442
  0
VERTEX
  8
0
 10
48.964149
 20
134.722306
 42
0.129373
  0
VERTEX
  8
0
 10
47.622095
 20
132.945772
 42
0.140447
  0
VERTEX
  8
0
 10
47.388231
 20
130.839586
 42
0.070347
  0
VERTEX
  8
0
 10
48.209608
 20
128.266094
 42
0.049096
  0
VERTEX
  8
0
 10
49.126980
 20
126.761475
 42
0.124943
  0
VERTEX
  8
0
 10
50.116715
 20
125.966728
 42
0.089504
  0
VERTEX
  8
0
 10
51.572952
 20
125.595773
 42
0.017726
  0
VERTEX
  8
0
 10
54.273507
 20
125.500000
 42
-0.002435
  0
VERTEX
  8
0
 10
56.087005
 20
125.491170
 42
-0.004061
  0
VERTEX
  8
0
 10
57.613404
 20
125.463903
 42
-0.000664
  0
VERTEX
  8
0
 10
58.953498
 20
125.427295
 42
-0.409692
  0
VERTEX
  8
0
 10
59.001619
 20
125.377118
 42
-0.098575
  0
VERTEX
  8
0
 10
58.981637
 20
125.283225
 42
-0.000216
  0
VERTEX
  8
0
 10
58.404429
 20
123.942871
 42
-0.001451
  0
VERTEX
  8
0
 10
57.748916
 20
122.434544
 42
-0.000900
  0
VERTEX
  8
0
 10
56.970905
 20
120.667131
 42
0.023923
  0
VERTEX
  8
0
 10
56.179287
 20
118.617865
 42
0.030555
  0
VERTEX
  8
0
 10
55.659523
 20
116.661714
 42
0.034298
  0
VERTEX
  8
0
 10
55.434623
 20
114.942110
 42
0.076997
  0
VERTEX
  8
0
 10
55.555513
 20
113.634843
 42
0.088933
  0
VERTEX
  8
0
 10
56.669711
 20
111.161825
 42
0.066796
  0
VERTEX
  8
0
 10
58.673203
 20
108.941459
 42
0.064544
  0
VERTEX
  8
0
 10
61.270992
 20
107.260202
 42
0.071273
  0
VERTEX
  8
0
 10
64.126706
 20
106.366864
 42
0.038033
  0
VERTEX
  8
0
 10
66.000870
 20
106.207465
 42
0.086394
  0
VERTEX
  8
0
 10
67.398890
 20
106.438159
 42
0.081488
  0
VERTEX
  8
0
 10
68.686442
 20
107.139075
 42
0.031076
  0
VERTEX
  8
0
 10
70.222299
 20
108.495026
 42
-0.049500
  0
VERTEX
  8
0
 10
71.988692
 20
109.942468
 42
-0.125303
  0
VERTEX
  8
0
 10
73.543363
 20
110.489359
 42
-0.240426
  0
VERTEX
  8
0
 10
74.567691
 20
110.076723
 42
-0.180925
  0
VERTEX
  8
0
 10
75.000000
 20
108.921111
 42
0.107108
  0
VERTEX
  8
0
 10
75.124408
 20
108.347012
 42
0.010809
  0
VERTEX
  8
0
 10
75.734375
 20
107.079182
 42
0.013155
  0
VERTEX
  8
0
 10
76.542582
 20
105.586843
 42
0.010110
  0
VERTEX
  8
0
 10
77.500000
 20
104.000000
 42
-0.007071
  0
VERTEX
  8
0
 10
78.457703
 20
102.434282
 42
-0.009892
  0
VERTEX
  8
0
 10
79.265625
 20
101.006818
 42
-0.006637
  0
VERTEX
  8
0
 10
79.898406
 20
99.797202
 42
-0.117715
  0
VERTEX
  8
0
 10
80.000000
 20
99.371655
 42
-0.434847
  0
VERTEX
  8
0
 10
79.385373
 20
98.798572
 42
-0.003629
  0
VERTEX
  8
0
 10
72.133466
 20
99.359444
 42
-0.010788
  0
VERTEX
  8
0
 10
65.256624
 20
100.091282
 42
-0.037527
  0
VERTEX
  8
0
 10
60.882369
 20
100.989905
 42
-0.045039
  0
VERTEX
  8
0
 10
57.216094
 20
102.402020
 42
-0.040206
  0
VERTEX
  8
0
 10
53.711389
 20
104.493502
 42
-0.040585
  0
VERTEX
  8
0
 10
50.620236
 20
107.094671
 42
-0.048363
  0
VERTEX
  8
0
 10
48.185494
 20
110.023797
 42
-0.031140
  0
VERTEX
  8
0
 10
47.041405
 20
111.956108
 42
-0.057964
  0
VERTEX
  8
0
 10
46.406933
 20
113.659692
 42
-0.057456
  0
VERTEX
  8
0
 10
46.177293
 20
115.473534
 42
-0.030068
  0
VERTEX
  8
0
 10
46.288860
 20
117.750000
 42
0.011234
  0
VERTEX
  8
0
 10
46.528390
 20
120.508413
 42
0.159838
  0
VERTEX
  8
0
 10
46.284263
 20
121.453276
 42
0.228718
  0
VERTEX
  8
0
 10
45.559886
 20
121.898652
 42
0.025395
  0
VERTEX
  8
0
 10
43.565724
 20
122.000000
 42
0.090540
  0
VERTEX
  8
0
 10
40.165034
 20
121.379115
 42
0.141890
  0
VERTEX
  8
0
 10
37.802245
 20
119.608603
 42
0.114534
  0
VERTEX
  8
0
 10
36.434317
 20
116.526836
 42
0.047455
  0
VERTEX
  8
0
 10
36.000000
 20
111.961045
 42
-0.013634
  0
VERTEX
  8
0
 10
35.937672
 20
109.675723
 42
-0.022402
  0
VERTEX
  8
0
 10
35.745865
 20
107.751057
 42
-0.018382
  0
VERTEX
  8
0
 10
35.475673
 20
106.273677
 42
-0.351811
  0
VERTEX
  8
0
 10
35.134859
 20
106.000000
 42
-0.164952
  0
VERTEX
  8
0
 10
33.431709
 20
106.577590
 42
-0.037043
  0
VERTEX
  8
0
 10
31.112434
 20
108.644683
 42
-0.037097
  0
VERTEX
  8
0
 10
28.828380
 20
111.386224
 42
-0.042430
  0
VERTEX
  8
0
 10
27.087322
 20
114.319617
 42
-0.033193
  0
VERTEX
  8
0
 10
26.163927
 20
116.601773
 42
-0.029959
  0
VERTEX
  8
0
 10
25.513336
 20
119.065086
 42
-0.027944
  0
VERTEX
  8
0
 10
25.127954
 20
121.752284
 42
-0.021646
  0
VERTEX
  8
0
 10
25.000000
 20
124.706533
 42
-0.019316
  0
VERTEX
  8
0
 10
25.133749
 20
128.167369
 42
-0.054190
  0
VERTEX
  8
0
 10
25.580510
 20
130.547713
 42
-0.055886
  0
VERTEX
  8
0
 10
26.519489
 20
132.735226
 42
-0.021573
  0
VERTEX
  8
0
 10
28.276699
 20
135.536425
 42
-0.075312
  0
VERTEX
  8
0
 10
33.014659
 20
140.584324
 42
-0.098032
  0
VERTEX
  8
0
 10
38.650253
 20
143.456094
 42
-0.101442
  0
VERTEX
  8
0
 10
44.802675
 20
143.910035
 42
-0.086012
  0
SEQEND
  0
POLYLINE
  8
0
 66
1
 70
1
  0
VERTEX
  8
0
 10
267.511076
 20
140.559350
 42
-0.100184
  0
VERTEX
  8
0
 10
271.885949
 20
135.566160
 42
-0.077405
  0
VERTEX
  8
0
 10
274.476806
 20
128.791823
 42
-0.075132
  0
VERTEX
  8
0
 10
274.929907
 20
121.349073
 42
-0.084486
  0
VERTEX
  8
0
 10
273.103669
 20
114.421401
 42
-0.050784
  0
VERTEX
  8
0
 10
271.453130
 20
111.590143
 42
-0.036300
  0
VERTEX
  8
0
 10
269.083904
 20
108.787854
 42
-0.034814
  0
VERTEX
  8
0
 10
266.622149
 20
106.599046
 42
-0.165788
  0
VERTEX
  8
0
 10
264.865141
 20
106.000000
 42
-0.351811
  0
VERTEX
  8
0
 10
264.524327
 20
106.273677
 42
-0.018382
  0
VERTEX
  8
0
 10
264.254135
 20
107.751057
 42
-0.022402
  0
VERTEX
  8
0
 10
264.062328
 20
109.675723
 42
-0.013634
  0
VERTEX
  8
0
 10
264.000000
 20
111.961045
 42
0.047390
  0
VERTEX
  8
0
 10
263.564822
 20
116.542177
 42
0.115561
  0
VERTEX
  8
0
 10
262.192122
 20
119.619992
 42
0.142548
  0
VERTEX
  8
0
 10
259.813723
 20
121.383374
 42
0.088932
  0
VERTEX
  8
0
 10
256.374309
 20
122.000000
 42
0.020784
  0
VERTEX
  8
0
 10
254.363001
 20
121.916358
 42
0.210873
  0
VERTEX
  8
0
 10
253.645325
 20
121.525425
 42
0.190045
  0
VERTEX
  8
0
 10
253.409376
 20
120.707190
 42
0.016505
  0
VERTEX
  8
0
 10
253.691033
 20
118.516517
 42
-0.126134
  0
VERTEX
  8
0
 10
253.172741
 20
112.777656
 42
-0.102768
  0
VERTEX
  8
0
 10
249.959786
 20
107.487800
 42
-0.086903
  0
VERTEX
  8
0
 10
244.339936
 20
103.244049
 42
-0.062523
  0
VERTEX
  8
0
 10
236.934987
 20
100.553405
 42
-0.014882
  0
VERTEX
  8
0
 10
233.903708
 20
99.958230
 42
-0.010211
  0
VERTEX
  8
0
 10
230.434840
 20
99.456313
 42
-0.010302
  0
VERTEX
  8
0
 10
227.071613
 20
99.109788
 42
-0.020520
  0
VERTEX
  8
0
 10
224.397607
 20
99.000000
 42
-0.004795
  0
VERTEX
  8
0
 10
220.830216
 20
99.034209
 42
-0.094755
  0
VERTEX
  8
0
 10
219.763674
 20
99.259444
 42
-0.429268
  0
VERTEX
  8
0
 10
219.572375
 20
99.763440
 42
-0.068018
  0
VERTEX
  8
0
 10
220.224423
 20
100.750000
 42
0.024268
  0
VERTEX
  8
0
 10
220.924206
 20
101.630888
 42
0.010465
  0
VERTEX
  8
0
 10
221.773392
 20
102.867188
 42
0.010327
  0
VERTEX
  8
0
 10
222.624109
 20
104.223254
 42
0.013459
  0
VERTEX
  8
0
 10
223.342820
 20
105.500000
 42
-0.008007
  0
VERTEX
  8
0
 10
225.497657
 20
109.427493
 42
-0.148648
  0
VERTEX
  8
0
 10
226.514274
 20
110.389562
 42
-0.278921
  0
VERTEX
  8
0
 10
227.605743
 20
110.300616
 42
-0.030595
  0
VERTEX
  8
0
 10
229.634274
 20
108.638302
 42
0.073324
  0
VERTEX
  8
0
 10
232.351174
 20
106.774444
 42
0.111019
  0
VERTEX
  8
0
 10
235.129035
 20
106.112980
 42
0.109238
  0
VERTEX
  8
0
 10
237.955357
 20
106.700568
 42
0.069340
  0
VERTEX
  8
0
 10
240.814127
 20
108.497052
 42
0.061955
  0
VERTEX
  8
0
 10
243.238473
 20
111.112282
 42
0.111397
  0
VERTEX
  8
0
 10
244.377364
 20
113.791736
 42
0.102538
  0
VERTEX
  8
0
 10
244.302775
 20
116.856665
 42
0.046979
  0
VERTEX
  8
0
 10
243.029095
 20
120.667131
 42
-0.001765
  0
VERTEX
  8
0
 10
242.251337
 20
122.442297
 42
-0.002763
  0
VERTEX
  8
0
 10
241.596047
 20
123.975573
 42
-0.000753
  0
VERTEX
  8
0
 10
241.034768
 20
125.314859
 42
-0.099160
  0
VERTEX
  8
0
 10
241.000000
 20
125.488446
 42
-0.432737
  0
VERTEX
  8
0
 10
241.082688
 20
125.566096
 42
-0.008413
  0
VERTEX
  8
0
 10
241.728948
 20
125.514510
 42
-0.014554
  0
VERTEX
  8
0
 10
242.529893
 20
125.413390
 42
-0.008548
  0
VERTEX
  8
0
 10
243.481524
 20
125.248283
 42
0.060376
  0
VERTEX
  8
0
 10
246.354276
 20
125.051831
 42
0.081723
  0
VERTEX
  8
0
 10
248.891974
 20
125.607094
 42
0.094221
  0
VERTEX
  8
0
 10
250.851011
 20
126.852803
 42
0.113788
  0
VERTEX
  8
0
 10
252.060836
 20
128.660011
 42
0.066678
  0
VERTEX
  8
0
 10
252.647216
 20
131.162545
 42
0.134315
  0
VERTEX
  8
0
 10
252.306863
 20
133.144950
 42
0.122365
  0
VERTEX
  8
0
 10
250.968606
 20
134.797888
 42
0.050474
  0
VERTEX
  8
0
 10
248.489862
 20
136.303444
 42
-0.021613
  0
VERTEX
  8
0
 10
247.153284
 20
137.013252
 42
-0.029815
  0
VERTEX
  8
0
 10
246.025147
 20
137.770269
 42
-0.030008
  0
VERTEX
  8
0
 10
245.204379
 20
138.476643
 42
-0.202754
  0
VERTEX
  8
0
 10
245.000000
 20
138.959932
 42
-0.200263
  0
VERTEX
  8
0
 10
245.208782
 20
139.460296
 42
-0.025208
  0
VERTEX
  8
0
 10
246.101562
 20
140.258935
 42
-0.026438
  0
VERTEX
  8
0
 10
247.313692
 20
141.136290
 42
-0.019047
  0
VERTEX
  8
0
 10
248.750000
 20
141.988645
 42
-0.080271
  0
VERTEX
  8
0
 10
253.213521
 20
143.553960
 42
-0.063367
  0
VERTEX
  8
0
 10
258.332778
 20
143.812840
 42
-0.063419
  0
VERTEX
  8
0
 10
263.349299
 20
142.781804
 42
-0.080732
  0
SEQEND
  0
POLYLINE
  8
0
 66
1
 70
1
  0
VERTEX
  8
0
 10
68.777373
 20
122.373726
 42
-0.019541
  0
VERTEX
  8
0
 10
69.282271
 20
120.465830
 42
-0.068320
  0
VERTEX
  8
0
 10
69.387800
 20
119.200375
 42
-0.101904
  0
VERTEX
  8
0
 10
69.135830
 20
118.239033
 42
-0.081669
  0
VERTEX
  8
0
 10
68.510663
 20
117.367806
 42
0.041655
  0
VERTEX
  8
0
 10
67.932487
 20
116.684340
 42
0.022640
  0
VERTEX
  8
0
 10
67.335188
 20
115.759820
 42
0.022409
  0
VERTEX
  8
0
 10
66.809077
 20
114.757883
 42
0.032857
  0
VERTEX
  8
0
 10
66.446421
 20
113.831187
 42
-0.012465
  0
VERTEX
  8
0
 10
66.013743
 20
112.577234
 42
-0.238187
  0
VERTEX
  8
0
 10
65.718931
 20
112.304810
 42
-0.325716
  0
VERTEX
  8
0
 10
65.391980
 20
112.424701
 42
-0.019844
  0
VERTEX
  8
0
 10
64.815488
 20
113.365222
 42
-0.154101
  0
VERTEX
  8
0
 10
64.380852
 20
115.461840
 42
-0.017289
  0
VERTEX
  8
0
 10
65.048820
 20
120.344337
 42
-0.013125
  0
VERTEX
  8
0
 10
66.022052
 20
125.225930
 42
-0.350298
  0
VERTEX
  8
0
 10
66.991349
 20
126.000000
 42
-0.263151
  0
VERTEX
  8
0
 10
67.310895
 20
125.819310
 42
-0.020973
  0
VERTEX
  8
0
 10
67.793643
 20
124.934782
 42
-0.024084
  0
VERTEX
  8
0
 10
68.302105
 20
123.763275
 42
-0.015888
  0
SEQEND
  0
POLYLINE
  8
0
 66
1
 70
1
  0
VERTEX
  8
0
 10
234.914845
 20
120.423902
 42
-0.021127
  0
VERTEX
  8
0
 10
235.311690
 20
118.509765
 42
-0.021187
  0
VERTEX
  8
0
 10
235.545125
 20
116.570772
 42
-0.021579
  0
VERTEX
  8
0
 10
235.603576
 20
114.867064
 42
-0.074758
  0
VERTEX
  8
0
 10
235.430370
 20
113.780614
 42
-0.065784
  0
VERTEX
  8
0
 10
234.989627
 20
112.841277
 42
-0.415573
  0
VERTEX
  8
0
 10
234.523715
 20
112.740514
 42
-0.113049
  0
VERTEX
  8
0
 10
233.902229
 20
113.380255
 42
-0.007368
  0
VERTEX
  8
0
 10
232.584596
 20
115.623710
 42
-0.022284
  0
VERTEX
  8
0
 10
231.488293
 20
117.772615
 42
-0.063717
  0
VERTEX
  8
0
 10
230.993630
 20
119.372147
 42
-0.075294
  0
VERTEX
  8
0
 10
230.959748
 20
120.887278
 42
-0.040933
  0
VERTEX
  8
0
 10
231.348322
 20
122.712446
 42
-0.036788
  0
VERTEX
  8
0
 10
232.236657
 20
125.036286
 42
-0.453374
  0
VERTEX
  8
0
 10
233.042935
 20
125.268844
 42
-0.177771
  0
VERTEX
  8
0
 10
233.869216
 20
124.178377
 42
-0.012473
  0
SEQEND
  0
POLYLINE
  8
0
 66
1
 70
1
  0
VERTEX
  8
0
 10
105.205994
 20
76.893890
 42
-0.002143
  0
VERTEX
  8
0
 10
107.267176
 20
75.672642
 42
-0.003098
  0
VERTEX
  8
0
 10
109.077615
 20
74.574161
 42
-0.001608
  0
VERTEX
  8
0
 10
110.602262
 20
73.629337
 42
-0.050431
  0
VERTEX
  8
0
 10
110.951844
 20
73.358712
 42
-0.359151
  0
VERTEX
  8
0
 10
110.988369
 20
73.059931
 42
-0.023163
  0
VERTEX
  8
0
 10
110.445561
 20
72.290331
 42
-0.025375
  0
VERTEX
  8
0
 10
109.638576
 20
71.353998
 42
-0.015264
  0
VERTEX
  8
0
 10
108.593823
 20
70.324191
 42
0.029711
  0
VERTEX
  8
0
 10
107.133139
 20
68.798770
 42
0.088384
  0
VERTEX
  8
0
 10
106.406735
 20
67.553320
 42
0.093123
  0
VERTEX
  8
0
 10
106.175288
 20
66.171790
 42
0.035303
  0
VERTEX
  8
0
 10
106.352378
 20
64.215972
 42
0.069770
  0
VERTEX
  8
0
 10
107.251210
 20
61.312244
 42
0.065010
  0
VERTEX
  8
0
 10
108.929489
 20
58.690097
 42
0.067591
  0
VERTEX
  8
0
 10
111.149433
 20
56.676727
 42
0.089175
  0
VERTEX
  8
0
 10
113.634843
 20
55.555513
 42
0.076997
  0
VERTEX
  8
0
 10
114.942110
 20
55.434623
 42
0.034298
  0
VERTEX
  8
0
 10
116.661714
 20
55.659523
 42
0.030555
  0
VERTEX
  8
0
 10
118.617865
 20
56.179287
 42
0.023923
  0
VERTEX
  8
0
 10
120.667131
 20
56.970905
 42
-0.001765
  0
VERTEX
  8
0
 10
122.442297
 20
57.748663
 42
-0.002763
  0
VERTEX
  8
0
 10
123.975573
 20
58.403953
 42
-0.000753
  0
VERTEX
  8
0
 10
125.314859
 20
58.965232
 42
-0.099160
  0
VERTEX
  8
0
 10
125.488446
 20
59.000000
 42
-0.432737
  0
VERTEX
  8
0
 10
125.566096
 20
58.917312
 42
-0.008413
  0
VERTEX
  8
0
 10
125.514510
 20
58.271052
 42
-0.014554
  0
VERTEX
  8
0
 10
125.413390
 20
57.470107
 42
-0.008548
  0
VERTEX
  8
0
 10
125.248283
 20
56.518476
 42
0.058589
  0
VERTEX
  8
0
 10
125.048546
 20
53.742939
 42
0.083801
  0
VERTEX
  8
0
 10
125.567890
 20
51.334889
 42
0.094401
  0
VERTEX
  8
0
 10
126.778314
 20
49.437587
 42
0.097092
  0
VERTEX
  8
0
 10
128.590932
 20
48.140522
 42
0.075555
  0
VERTEX
  8
0
 10
131.139374
 20
47.416798
 42
0.135036
  0
VERTEX
  8
0
 10
133.279866
 20
47.724051
 42
0.127744
  0
VERTEX
  8
0
 10
135.041364
 20
49.105693
 42
0.064031
  0
VERTEX
  8
0
 10
136.465963
 20
51.572780
 42
-0.023919
  0
VERTEX
  8
0
 10
137.089663
 20
52.885295
 42
-0.032923
  0
VERTEX
  8
0
 10
137.780070
 20
53.993254
 42
-0.034553
  0
VERTEX
  8
0
 10
138.441675
 20
54.791360
 42
-0.205200
  0
VERTEX
  8
0
 10
138.928649
 20
55.000000
 42
-0.270140
  0
VERTEX
  8
0
 10
140.394485
 20
54.145695
 42
-0.030478
  0
VERTEX
  8
0
 10
142.151677
 20
50.549333
 42
-0.035525
  0
VERTEX
  8
0
 10
143.545334
 20
46.379197
 42
-0.063051
  0
VERTEX
  8
0
 10
143.998446
 20
42.789838
 42
-0.060688
  0
VERTEX
  8
0
 10
143.473584
 20
38.494426
 42
-0.069882
  0
VERTEX
  8
0
 10
141.934285
 20
34.666681
 42
-0.066592
  0
VERTEX
  8
0
 10
139.326014
 20
31.270179
 42
-0.048486
  0
VERTEX
  8
0
 10
135.636986
 20
28.250000
 42
-0.021345
  0
VERTEX
  8
0
 10
132.791472
 20
26.519247
 42
-0.053766
  0
VERTEX
  8
0
 10
130.556831
 20
25.584075
 42
-0.052587
  0
VERTEX
  8
0
 10
128.145002
 20
25.135628
 42
-0.019693
  0
VERTEX
  8
0
 10
124.702710
 20
25.000000
 42
-0.046248
  0
VERTEX
  8
0
 10
119.437836
 20
25.488027
 42
-0.057402
  0
VERTEX
  8
0
 10
114.740493
 20
26.938718
 42
-0.061183
  0
VERTEX
  8
0
 10
110.739244
 20
29.317816
 42
-0.065229
  0
VERTEX
  8
0
 10
107.529405
 20
32.550336
 42
0.000000
  0
VERTEX
  8
0
 10
104.898217
 20
36.000000
 42
0.000000
  0
VERTEX
  8
0
 10
111.199109
 20
36.015313
 42
0.010724
  0
VERTEX
  8
0
 10
113.692507
 20
36.074859
 42
0.013918
  0
VERTEX
  8
0
 10
115.972325
 20
36.241942
 42
0.011592
  0
VERTEX
  8
0
 10
117.851208
 20
36.476455
 42
0.110794
  0
VERTEX
  8
0
 10
118.600296
 20
36.765313
 42
0.095992
  0
VERTEX
  8
0
 10
119.842583
 20
37.994573
 42
0.044764
  0
VERTEX
  8
0
 10
120.952601
 20
39.979942
 42
0.043644
  0
VERTEX
  8
0
 10
121.737808
 20
42.249368
 42
0.061545
  0
VERTEX
  8
0
 10
122.000000
 20
44.371388
 42
0.040667
  0
VERTEX
  8
0
 10
121.884272
 20
45.791897
 42
0.229036
  0
VERTEX
  8
0
 10
121.458516
 20
46.397333
 42
0.152250
  0
VERTEX
  8
0
 10
120.592234
 20
46.577837
 42
0.016032
  0
VERTEX
  8
0
 10
118.516517
 20
46.308967
 42
-0.040527
  0
VERTEX
  8
0
 10
116.959813
 20
46.184376
 42
-0.026407
  0
VERTEX
  8
0
 10
115.158408
 20
46.281653
 42
-0.026547
  0
VERTEX
  8
0
 10
113.399383
 20
46.565220
 42
-0.044977
  0
VERTEX
  8
0
 10
111.976355
 20
47.009794
 42
-0.082146
  0
VERTEX
  8
0
 10
108.715076
 20
49.039144
 42
-0.043306
  0
VERTEX
  8
0
 10
105.407388
 20
52.493650
 42
-0.042711
  0
VERTEX
  8
0
 10
102.661778
 20
56.578714
 42
-0.065020
  0
VERTEX
  8
0
 10
101.092056
 20
60.548693
 42
-0.028165
  0
VERTEX
  8
0
 10
100.156698
 20
65.402842
 42
-0.010662
  0
VERTEX
  8
0
 10
99.379623
 20
72.267381
 42
-0.003327
  0
VERTEX
  8
0
 10
98.772084
 20
79.419149
 42
-0.437276
  0
VERTEX
  8
0
 10
99.309258
 20
80.000000
 42
-0.118248
  0
VERTEX
  8
0
 10
99.716828
 20
79.902245
 42
-0.003504
  0
VERTEX
  8
0
 10
101.290050
 20
79.087580
 42
-0.006816
  0
VERTEX
  8
0
 10
103.133737
 20
78.084076
 42
-0.004629
  0
SEQEND
  0
POLYLINE
  8
0
 66
1
 70
1
  0
VERTEX
  8
0
 10
200.982636
 20
75.250000
 42
-0.055777
  0
VERTEX
  8
0
 10
199.606219
 20
63.343760
 42
-0.087470
  0
VERTEX
  8
0
 10
195.593792
 20
53.880600
 42
-0.113482
  0
VERTEX
  8
0
 10
189.516538
 20
47.996207
 42
-0.154708
  0
VERTEX
  8
0
 10
182.149828
 20
46.222338
 42
0.000000
  0
VERTEX
  8
0
 10
177.799656
 20
46.530346
 42
0.000000
  0
VERTEX
  8
0
 10
178.333497
 20
42.550259
 42
0.067529
  0
VERTEX
  8
0
 10
179.225279
 20
39.305119
 42
0.146348
  0
VERTEX
  8
0
 10
180.863299
 20
37.335225
 42
0.114235
  0
VERTEX
  8
0
 10
183.618940
 20
36.301113
 42
0.032893
  0
VERTEX
  8
0
 10
188.191130
 20
36.000000
 42
-0.013993
  0
VERTEX
  8
0
 10
190.418088
 20
35.937664
 42
-0.022974
  0
VERTEX
  8
0
 10
192.293644
 20
35.745865
 42
-0.019235
  0
VERTEX
  8
0
 10
193.728545
 20
35.475386
 42
-0.349808
  0
VERTEX
  8
0
 10
194.000000
 20
35.134859
 42
-0.117916
  0
VERTEX
  8
0
 10
193.884022
 20
34.649911
 42
-0.016572
  0
VERTEX
  8
0
 10
193.384733
 20
33.741667
 42
-0.018155
  0
VERTEX
  8
0
 10
192.707474
 20
32.689877
 42
-0.014533
  0
VERTEX
  8
0
 10
191.905474
 20
31.606959
 42
-0.130530
  0
VERTEX
  8
0
 10
185.436242
 20
26.743039
 42
-0.092945
  0
VERTEX
  8
0
 10
176.505434
 20
24.935120
 42
-0.091140
  0
VERTEX
  8
0
 10
167.366691
 20
26.479384
 42
-0.118649
  0
VERTEX
  8
0
 10
160.316612
 20
31.152682
 42
-0.086643
  0
VERTEX
  8
0
 10
157.558175
 20
35.396409
 42
-0.069902
  0
VERTEX
  8
0
 10
156.137445
 20
40.653474
 42
-0.069663
  0
VERTEX
  8
0
 10
156.217941
 20
46.116794
 42
-0.084811
  0
VERTEX
  8
0
 10
157.840122
 20
50.962309
 42
-0.029885
  0
VERTEX
  8
0
 10
159.591318
 20
53.805674
 42
-0.216320
  0
VERTEX
  8
0
 10
160.940870
 20
54.601757
 42
-0.270565
  0
VERTEX
  8
0
 10
162.220354
 20
54.027915
 42
-0.043965
  0
VERTEX
  8
0
 10
163.660049
 20
51.586695
 42
0.050294
  0
VERTEX
  8
0
 10
165.216629
 20
49.021871
 42
0.127271
  0
VERTEX
  8
0
 10
166.911317
 20
47.674724
 42
0.142648
  0
VERTEX
  8
0
 10
168.916186
 20
47.402261
 42
0.069917
  0
VERTEX
  8
0
 10
171.409068
 20
48.140522
 42
0.097750
  0
VERTEX
  8
0
 10
173.251855
 20
49.462813
 42
0.097804
  0
VERTEX
  8
0
 10
174.453569
 20
51.385893
 42
0.088381
  0
VERTEX
  8
0
 10
174.909148
 20
53.790681
 42
0.064295
  0
VERTEX
  8
0
 10
174.589356
 20
56.500000
 42
-0.023660
  0
VERTEX
  8
0
 10
174.212029
 20
58.374960
 42
-0.431845
  0
VERTEX
  8
0
 10
174.549194
 20
58.805800
 42
-0.124747
  0
VERTEX
  8
0
 10
175.442574
 20
58.664604
 42
-0.002878
  0
VERTEX
  8
0
 10
179.399988
 20
56.941215
 42
0.087242
  0
VERTEX
  8
0
 10
184.293525
 20
55.731082
 42
0.129185
  0
VERTEX
  8
0
 10
188.612115
 20
56.555189
 42
0.135486
  0
VERTEX
  8
0
 10
191.828629
 20
59.347053
 42
0.100633
  0
VERTEX
  8
0
 10
193.608393
 20
63.726094
 42
0.038736
  0
VERTEX
  8
0
 10
193.816332
 20
65.643750
 42
0.091780
  0
VERTEX
  8
0
 10
193.599048
 20
67.057784
 42
0.081342
  0
VERTEX
  8
0
 10
192.868307
 20
68.402281
 42
0.025840
  0
VERTEX
  8
0
 10
191.373703
 20
70.134698
 42
-0.013203
  0
VERTEX
  8
0
 10
189.858480
 20
71.803841
 42
-0.093434
  0
VERTEX
  8
0
 10
189.312754
 20
72.747388
 42
-0.225302
  0
VERTEX
  8
0
 10
189.384865
 20
73.430562
 42
-0.120424
  0
VERTEX
  8
0
 10
190.000000
 20
74.042430
 42
0.000477
  0
VERTEX
  8
0
 10
190.826909
 20
74.542606
 42
0.000107
  0
VERTEX
  8
0
 10
192.234375
 20
75.396193
 42
0.000111
  0
VERTEX
  8
0
 10
193.858593
 20
76.382204
 42
0.000108
  0
VERTEX
  8
0
 10
195.500000
 20
77.379632
 42
-0.006111
  0
VERTEX
  8
0
 10
197.086794
 20
78.317971
 42
-0.008259
  0
VERTEX
  8
0
 10
198.545312
 20
79.124810
 42
-0.005901
  0
VERTEX
  8
0
 10
199.780066
 20
79.762890
 42
-0.085241
  0
VERTEX
  8
0
 10
200.250000
 20
79.905737
 42
-0.378611
  0
VERTEX
  8
0
 10
200.543369
 20
79.705533
 42
-0.023006
  0
VERTEX
  8
0
 10
200.774587
 20
78.576998
 42
-0.025091
  0
VERTEX
  8
0
 10
200.935373
 20
77.064544
 42
-0.014849
  0
SEQEND
  0
POLYLINE
  8
0
 66
1
 70
1
  0
VERTEX
  8
0
 10
126.000000
 20
66.991349
 42
-0.348225
  0
VERTEX
  8
0
 10
125.326290
 20
66.141301
 42
-0.010044
  0
VERTEX
  8
0
 10
120.509427
 20
65.112918
 42
-0.015129
  0
VERTEX
  8
0
 10
115.753776
 20
64.345473
 42
-0.124677
  0
VERTEX
  8
0
 10
113.594207
 20
64.602223
 42
-0.122524
  0
VERTEX
  8
0
 10
112.949700
 20
65.052911
 42
-0.350547
  0
VERTEX
  8
0
 10
112.928063
 20
65.562916
 42
-0.095584
  0
VERTEX
  8
0
 10
113.666011
 20
66.248023
 42
-0.010330
  0
VERTEX
  8
0
 10
115.674501
 20
67.443894
 42
-0.022679
  0
VERTEX
  8
0
 10
117.802727
 20
68.527711
 42
-0.064637
  0
VERTEX
  8
0
 10
119.389719
 20
69.012687
 42
-0.075376
  0
VERTEX
  8
0
 10
120.904363
 20
69.038466
 42
-0.039573
  0
VERTEX
  8
0
 10
122.750000
 20
68.640152
 42
-0.017798
  0
VERTEX
  8
0
 10
123.995253
 20
68.217443
 42
-0.026668
  0
VERTEX
  8
0
 10
125.045312
 20
67.753334
 42
-0.024843
  0
VERTEX
  8
0
 10
125.827519
 20
67.306339
 42
-0.255863
  0
SEQEND
  0
POLYLINE
  8
0
 66
1
 70
1
  0
VERTEX
  8
0
 10
186.404148
 20
64.686420
 42
-0.130679
  0
VERTEX
  8
0
 10
184.850467
 20
64.289170
 42
-0.034764
  0
VERTEX
  8
0
 10
182.279653
 20
64.492852
 42
-0.031994
  0
VERTEX
  8
0
 10
179.219230
 20
65.153256
 42
-0.025037
  0
VERTEX
  8
0
 10
176.000000
 20
66.243567
 42
0.000000
  0
VERTEX
  8
0
 10
173.500000
 20
67.232329
 42
0.000000
  0
VERTEX
  8
0
 10
176.933024
 20
68.432834
 42
-0.031092
  0
VERTEX
  8
0
 10
178.941062
 20
68.997744
 42
-0.082913
  0
VERTEX
  8
0
 10
180.422751
 20
69.066874
 42
-0.074237
  0
VERTEX
  8
0
 10
181.940523
 20
68.651671
 42
-0.021475
  0
VERTEX
  8
0
 10
184.125368
 20
67.574155
 42
-0.013449
  0
VERTEX
  8
0
 10
185.981826
 20
66.491373
 42
-0.087173
  0
VERTEX
  8
0
 10
186.786617
 20
65.772865
 42
-0.271783
  0
VERTEX
  8
0
 10
186.865142
 20
65.204660
 42
-0.168357
  0
SEQEND
  0
POLYLINE
  8
0
 66
1
 70
1
  0
VERTEX
  8
0
 10
151.422789
 20
33.559877
 42
-0.045481
  0
VERTEX
  8
0
 10
151.687306
 20
30.770474
 42
-0.042114
  0
VERTEX
  8
0
 10
151.456014
 20
27.904626
 42
-0.043187
  0
VERTEX
  8
0
 10
150.869174
 20
25.616221
 42
-0.318521
  0
VERTEX
  8
0
 10
150.000000
 20
25.000000
 42
-0.318521
  0
VERTEX
  8
0
 10
149.130826
 20
25.616221
 42
-0.043187
  0
VERTEX
  8
0
 10
148.543986
 20
27.904626
 42
-0.042114
  0
VERTEX
  8
0
 10
148.312694
 20
30.770474
 42
-0.045481
  0
VERTEX
  8
0
 10
148.577211
 20
33.559877
 42
-0.020504
  0
VERTEX
  8
0
 10
148.880909
 20
34.878010
 42
-0.031188
  0
VERTEX
  8
0
 10
149.261371
 20
35.989464
 42
-0.031904
  0
VERTEX
  8
0
 10
149.660358
 20
36.803032
 42
-0.268984
  0
VERTEX
  8
0
 10
150.000000
 20
37.000000
 42
-0.268984
  0
VERTEX
  8
0
 10
150.339642
 20
36.803032
 42
-0.031904
  0
VERTEX
  8
0
 10
150.738629
 20
35.989464
 42
-0.031188
  0
VERTEX
  8
0
 10
151.119091
 20
34.878010
 42
-0.020504
  0
SEQEND
  0
ENDSEC
  0
EOF
