  0
SECTION
  2
HEADER
  9
$ACADVER
  1
AC1006
  0
ENDSEC
  0
SECTION
  2
TABLES
  0
TABLE
  2
LTYPE
 70
    25
  0
LTYPE
  2
CONTINUOUS
 70
    64
  3
Solid line
 72
    64
 73
     0
 40
0.000000
  0
LTYPE
  2
DASHDOT
 70
    64
  3
__ . __ . __ . __ . __ . __ . __ . __ . __ . __
 72
    65
 73
     4
 40
1.000000
 49
0.500000
 49
-0.250000
 49
0.000000
 49
-0.250000
  0
LTYPE
  2
DASHED
 70
    64
  3
__ __ __ __ __ __ __ __ __ __ __ __ __ __ __ __
 72
    65
 73
     2
 40
0.750000
 49
0.500000
 49
-0.250000
  0
LTYPE
  2
DIVIDE
 70
    64
  3
____ . . ____ . . ____ . . ____ . . ____ . . __
 72
    65
 73
     6
 40
1.250000
 49
0.500000
 49
-0.250000
 49
0.000000
 49
-0.250000
 49
0.000000
 49
-0.250000
  0
LTYPE
  2
DOT
 70
    64
  3
. . . . . . . . . . . . . . . . . . . . . . . . 
 72
    65
 73
     2
 40
0.250000
 49
0.000000
 49
-0.250000
  0
ENDTAB
  0
ENDSEC
  0
SECTION
  2
ENTITIES
  0
ARC
  8
0
 62
     3
  6
CONTINUOUS
 10
-7.183470
 20
32.843022
 30
0.000000
 40
4.662636
 50
248.151350
 51
263.733291
  0
ARC
  8
0
 62
     3
  6
CONTINUOUS
 10
-2.237106
 20
45.801383
 30
0.000000
 40
18.532465
 50
244.428714
 51
248.866978
  0
ARC
  8
0
 62
     3
  6
CONTINUOUS
 10
-11.683385
 20
26.093308
 30
0.000000
 40
3.322547
 50
64.181501
 51
74.496251
  0
ARC
  8
0
 62
     3
  6
CONTINUOUS
 10
-11.186055
 20
27.874873
 30
0.000000
 40
1.472874
 50
74.613689
 51
93.381599
  0
ARC
  8
0
 62
     3
  6
CONTINUOUS
 10
-11.160024
 20
27.913350
 30
0.000000
 40
1.436278
 50
94.508824
 51
113.638194
  0
ARC
  8
0
 62
     3
  6
CONTINUOUS
 10
-10.473386
 20
26.369134
 30
0.000000
 40
3.126257
 50
113.818853
 51
124.647482
  0
ARC
  8
0
 62
     3
  6
CONTINUOUS
 10
-9.387623
 20
24.967186
 30
0.000000
 40
4.897820
 50
125.772646
 51
142.027193
  0
ARC
  8
0
 62
     3
  6
CONTINUOUS
 10
-28.947997
 20
40.984676
 30
0.000000
 40
20.385619
 50
317.379653
 51
320.364823
  0
ARC
  8
0
 62
     3
  6
CONTINUOUS
 10
-17.742497
 20
30.575909
 30
0.000000
 40
5.092317
 50
307.796395
 51
318.186392
  0
ARC
  8
0
 62
     3
  6
CONTINUOUS
 10
-12.032354
 20
22.917056
 30
0.000000
 40
4.462862
 50
125.463464
 51
141.935539
  0
ARC
  8
0
 62
     3
  6
CONTINUOUS
 10
-13.000976
 20
23.571089
 30
0.000000
 40
3.298032
 50
140.506139
 51
176.066360
  0
ARC
  8
0
 62
     3
  6
CONTINUOUS
 10
-11.473217
 20
23.538441
 30
0.000000
 40
4.824972
 50
176.924161
 51
189.085565
  0
ARC
  8
0
 62
     3
  6
CONTINUOUS
 10
-3.676712
 20
24.758176
 30
0.000000
 40
12.716295
 50
188.965225
 51
194.326673
  0
ARC
  8
0
 62
     3
  6
CONTINUOUS
 10
-55.138432
 20
11.043367
 30
0.000000
 40
40.542516
 50
13.228186
 51
15.109737
  0
ARC
  8
0
 62
     3
  6
CONTINUOUS
 10
-43.005267
 20
13.804975
 30
0.000000
 40
28.099486
 50
11.059004
 51
13.407819
  0
ARC
  8
0
 62
     3
  6
CONTINUOUS
 10
-23.480362
 20
17.536555
 30
0.000000
 40
8.221784
 50
4.913594
 51
11.637272
  0
ARC
  8
0
 62
     3
  6
CONTINUOUS
 10
1.321053
 20
-1.550629
 30
0.000000
 40
25.837701
 50
123.250080
 51
130.004900
  0
ARC
  8
0
 62
     3
  6
CONTINUOUS
 10
11.205350
 20
-16.434339
 30
0.000000
 40
43.704361
 50
119.334711
 51
123.388308
  0
ARC
  8
0
 62
     3
  6
CONTINUOUS
 10
30.146836
 20
-50.702051
 30
0.000000
 40
82.858110
 50
115.626097
 51
119.144240
  0
LINE
  8
0
 62
     3
  6
CONTINUOUS
 10
-5.314183
 20
24.188983
 30
0.000000
 11
-5.689003
 21
24.005773
 31
0.000000
  0
ARC
  8
0
 62
     3
  6
CONTINUOUS
 10
14.888201
 20
-16.305444
 30
0.000000
 40
45.254115
 50
113.102231
 51
116.514286
  0
ARC
  8
0
 62
     3
  6
CONTINUOUS
 10
4.369315
 20
8.368144
 30
0.000000
 40
18.431871
 50
104.735787
 51
113.120604
  0
ARC
  8
0
 62
     3
  6
CONTINUOUS
 10
26.486674
 20
47.481968
 30
0.000000
 40
34.230604
 50
214.060671
 51
218.455406
  0
LINE
  8
0
 62
     3
  6
CONTINUOUS
 10
-2.297018
 20
28.920823
 30
0.000000
 11
-1.871498
 21
28.310418
 31
0.000000
  0
ARC
  8
0
 62
     3
  6
CONTINUOUS
 10
11.600853
 20
38.607986
 30
0.000000
 40
16.940837
 50
213.170534
 51
214.877458
  0
ARC
  8
0
 62
     3
  6
CONTINUOUS
 10
-7.476336
 20
26.329638
 30
0.000000
 40
5.747764
 50
31.573232
 51
42.470690
  0
ARC
  8
0
 62
     3
  6
CONTINUOUS
 10
-6.778407
 20
26.908978
 30
0.000000
 40
4.841977
 50
42.990356
 51
66.398284
  0
ARC
  8
0
 62
     3
  6
CONTINUOUS
 10
-5.842833
 20
28.935451
 30
0.000000
 40
2.610840
 50
67.406999
 51
88.114682
  0
ARC
  8
0
 62
     3
  6
CONTINUOUS
 10
-5.806412
 20
29.461542
 30
0.000000
 40
2.083923
 50
88.639642
 51
115.125589
  0
ARC
  8
0
 62
     3
  6
CONTINUOUS
 10
-8.964528
 20
36.288299
 30
0.000000
 40
5.437972
 50
292.935285
 51
294.710731
  0
ARC
  8
0
 62
     3
  6
CONTINUOUS
 10
-6.154516
 20
29.550711
 30
0.000000
 40
1.862399
 50
111.775071
 51
118.968829
  0
ARC
  8
0
 62
     3
  6
CONTINUOUS
 10
-6.941433
 20
30.950267
 30
0.000000
 40
0.257039
 50
116.603317
 51
153.926226
  0
ARC
  8
0
 62
     3
  6
CONTINUOUS
 10
-6.960986
 20
30.995224
 30
0.000000
 40
0.222004
 50
162.158522
 51
208.864887
  0
ARC
  8
0
 62
     3
  6
CONTINUOUS
 10
-6.053832
 20
31.435310
 30
0.000000
 40
1.230025
 50
206.417942
 51
221.959277
  0
ARC
  8
0
 62
     3
  6
CONTINUOUS
 10
-6.350839
 20
30.296751
 30
0.000000
 40
0.693879
 50
136.039223
 51
152.893609
  0
ARC
  8
0
 62
     3
  6
CONTINUOUS
 10
-6.808805
 20
30.755780
 30
0.000000
 40
0.047272
 50
49.737536
 51
151.387481
  0
ARC
  8
0
 62
     3
  6
CONTINUOUS
 10
-6.953419
 20
30.698425
 30
0.000000
 40
0.198524
 50
351.987329
 51
388.073972
  0
ARC
  8
0
 62
     3
  6
CONTINUOUS
 10
-8.127708
 20
30.743146
 30
0.000000
 40
1.372785
 50
346.926771
 51
356.977108
  0
ARC
  8
0
 62
     3
  6
CONTINUOUS
 10
-6.588610
 20
30.702294
 30
0.000000
 40
0.336869
 50
233.178645
 51
288.324702
  0
ARC
  8
0
 62
     3
  6
CONTINUOUS
 10
-6.299595
 20
29.327923
 30
0.000000
 40
1.070362
 50
96.465496
 51
99.849826
  0
ARC
  8
0
 62
     3
  6
CONTINUOUS
 10
-8.774456
 20
30.789268
 30
0.000000
 40
2.387701
 50
330.082282
 51
350.409834
  0
ARC
  8
0
 62
     3
  6
CONTINUOUS
 10
-6.694392
 20
29.586179
 30
0.000000
 40
0.016129
 50
130.809013
 51
295.716422
  0
ARC
  8
0
 62
     3
  6
CONTINUOUS
 10
-7.050508
 20
30.458824
 30
0.000000
 40
0.958611
 50
292.258905
 51
327.146348
  0
ARC
  8
0
 62
     3
  6
CONTINUOUS
 10
-7.258365
 20
30.548237
 30
0.000000
 40
1.182328
 50
328.971167
 51
337.837045
  0
ARC
  8
0
 62
     3
  6
CONTINUOUS
 10
-5.506706
 20
29.857473
 30
0.000000
 40
0.700811
 50
143.351255
 51
159.560195
  0
ARC
  8
0
 62
     3
  6
CONTINUOUS
 10
-5.977653
 20
30.207111
 30
0.000000
 40
0.114265
 50
63.278435
 51
143.053065
  0
ARC
  8
0
 62
     3
  6
CONTINUOUS
 10
-1.037201
 20
28.837586
 30
0.000000
 40
5.105742
 50
163.248470
 51
169.898643
  0
ARC
  8
0
 62
     3
  6
CONTINUOUS
 10
-17.657991
 20
31.993770
 30
0.000000
 40
11.812536
 50
347.576442
 51
348.966650
  0
ARC
  8
0
 62
     3
  6
CONTINUOUS
 10
-8.247398
 20
29.890683
 30
0.000000
 40
2.170049
 50
330.596966
 51
348.349423
  0
ARC
  8
0
 62
     3
  6
CONTINUOUS
 10
-7.447312
 20
29.446328
 30
0.000000
 40
1.254880
 50
306.009222
 51
330.337350
  0
ARC
  8
0
 62
     3
  6
CONTINUOUS
 10
-7.503382
 20
29.652666
 30
0.000000
 40
1.456737
 50
262.543467
 51
303.020515
  0
ARC
  8
0
 62
     3
  6
CONTINUOUS
 10
-13.011350
 20
36.974255
 30
0.000000
 40
7.878706
 50
298.584382
 51
310.556320
  0
ARC
  8
0
 62
     3
  6
CONTINUOUS
 10
-4.467776
 20
26.955911
 30
0.000000
 40
5.287944
 50
108.996238
 51
130.309803
  0
ARC
  8
0
 62
     3
  6
CONTINUOUS
 10
-5.326228
 20
29.353447
 30
0.000000
 40
2.741724
 50
74.691705
 51
108.342359
  0
ARC
  8
0
 62
     3
  6
CONTINUOUS
 10
-5.683984
 20
28.512698
 30
0.000000
 40
3.649172
 50
44.767121
 51
72.758640
  0
ARC
  8
0
 62
     3
  6
CONTINUOUS
 10
-9.519270
 20
24.614165
 30
0.000000
 40
9.117826
 50
30.035957
 51
45.187828
  0
ARC
  8
0
 62
     3
  6
CONTINUOUS
 10
30.595745
 20
49.154440
 30
0.000000
 40
37.911593
 50
211.797641
 51
214.936108
  0
ARC
  8
0
 62
     3
  6
CONTINUOUS
 10
18.397471
 20
40.499991
 30
0.000000
 40
22.955737
 50
214.663191
 51
217.595658
  0
ARC
  8
0
 62
     3
  6
CONTINUOUS
 10
3.710103
 20
29.064846
 30
0.000000
 40
4.343146
 50
216.277222
 51
226.865962
  0
ARC
  8
0
 62
     3
  6
CONTINUOUS
 10
-2.474814
 20
22.394407
 30
0.000000
 40
4.753555
 50
29.916219
 51
47.434240
  0
ARC
  8
0
 62
     3
  6
CONTINUOUS
 10
-12.419755
 20
16.467308
 30
0.000000
 40
16.330393
 50
25.458293
 51
30.538908
  0
ARC
  8
0
 62
     3
  6
CONTINUOUS
 10
17.157898
 20
30.645166
 30
0.000000
 40
16.469862
 50
205.761280
 51
208.207946
  0
ARC
  8
0
 62
     3
  6
CONTINUOUS
 10
1.826643
 20
24.838791
 30
0.000000
 40
2.140683
 50
292.447417
 51
316.964974
  0
ARC
  8
0
 62
     3
  6
CONTINUOUS
 10
0.444222
 20
26.156359
 30
0.000000
 40
4.050361
 50
316.687264
 51
331.517596
  0
ARC
  8
0
 62
     3
  6
CONTINUOUS
 10
-3.944997
 20
28.435500
 30
0.000000
 40
8.995671
 50
332.090126
 51
347.552981
  0
ARC
  8
0
 62
     3
  6
CONTINUOUS
 10
-7.724765
 20
29.474246
 30
0.000000
 40
12.912029
 50
346.667012
 51
357.255295
  0
ARC
  8
0
 62
     3
  6
CONTINUOUS
 10
-2.329928
 20
29.223498
 30
0.000000
 40
7.511378
 50
357.195219
 51
364.495440
  0
ARC
  8
0
 62
     3
  6
CONTINUOUS
 10
2.551587
 20
29.652668
 30
0.000000
 40
2.611634
 50
3.502929
 51
18.537966
  0
ARC
  8
0
 62
     3
  6
CONTINUOUS
 10
3.352506
 20
29.833102
 30
0.000000
 40
1.796851
 50
21.203597
 51
50.066673
  0
ARC
  8
0
 62
     3
  6
CONTINUOUS
 10
1.272433
 20
27.259237
 30
0.000000
 40
5.105979
 50
50.708208
 51
60.655380
  0
ARC
  8
0
 62
     3
  6
CONTINUOUS
 10
14.813643
 20
50.125989
 30
0.000000
 40
21.471034
 50
238.467815
 51
239.060481
  0
ARC
  8
0
 62
     3
  6
CONTINUOUS
 10
5.052637
 20
34.362690
 30
0.000000
 40
2.931438
 50
216.050787
 51
239.951670
  0
ARC
  8
0
 62
     3
  6
CONTINUOUS
 10
3.678792
 20
33.378893
 30
0.000000
 40
1.241793
 50
175.307232
 51
216.655903
  0
ARC
  8
0
 62
     3
  6
CONTINUOUS
 10
3.572854
 20
33.312980
 30
0.000000
 40
1.144022
 50
127.022736
 51
171.580463
  0
ARC
  8
0
 62
     3
  6
CONTINUOUS
 10
4.607269
 20
31.951925
 30
0.000000
 40
2.853545
 50
101.577399
 51
127.150018
  0
ARC
  8
0
 62
     3
  6
CONTINUOUS
 10
5.012946
 20
30.843484
 30
0.000000
 40
4.024654
 50
80.921994
 51
104.069071
  0
ARC
  8
0
 62
     3
  6
CONTINUOUS
 10
5.086799
 20
31.376347
 30
0.000000
 40
3.486832
 50
57.223418
 51
80.738845
  0
ARC
  8
0
 62
     3
  6
CONTINUOUS
 10
11.410737
 20
41.632492
 30
0.000000
 40
8.563199
 50
238.797485
 51
248.897916
  0
ARC
  8
0
 62
     3
  6
CONTINUOUS
 10
0.575897
 20
14.930011
 30
0.000000
 40
20.255539
 50
65.696852
 51
67.498882
  0
ARC
  8
0
 62
     3
  6
CONTINUOUS
 10
6.675738
 20
28.244391
 30
0.000000
 40
5.611157
 50
56.775222
 51
66.509189
  0
ARC
  8
0
 62
     3
  6
CONTINUOUS
 10
8.606833
 20
31.204758
 30
0.000000
 40
2.076644
 50
34.343486
 51
56.591872
  0
ARC
  8
0
 62
     3
  6
CONTINUOUS
 10
8.383274
 20
31.133683
 30
0.000000
 40
2.302315
 50
10.478129
 51
32.664989
  0
ARC
  8
0
 62
     3
  6
CONTINUOUS
 10
4.691034
 20
30.441352
 30
0.000000
 40
6.058900
 50
358.798620
 51
370.566217
  0
ARC
  8
0
 62
     3
  6
CONTINUOUS
 10
44.424822
 20
30.644078
 30
0.000000
 40
33.677835
 50
180.561027
 51
183.148624
  0
ARC
  8
0
 62
     3
  6
CONTINUOUS
 10
-28.303418
 20
26.610093
 30
0.000000
 40
39.162201
 50
359.767742
 51
363.197212
  0
ARC
  8
0
 62
     3
  6
CONTINUOUS
 10
-2.018337
 20
26.580640
 30
0.000000
 40
12.877448
 50
354.400902
 51
359.424708
  0
ARC
  8
0
 62
     3
  6
CONTINUOUS
 10
4.704451
 20
25.894807
 30
0.000000
 40
6.119878
 50
345.278257
 51
354.650285
  0
ARC
  8
0
 62
     3
  6
CONTINUOUS
 10
3.074196
 20
26.481685
 30
0.000000
 40
7.847252
 50
329.044723
 51
344.158715
  0
ARC
  8
0
 62
     3
  6
CONTINUOUS
 10
0.025453
 20
28.294822
 30
0.000000
 40
11.394389
 50
318.569225
 51
329.111540
  0
ARC
  8
0
 62
     3
  6
CONTINUOUS
 10
-5.934595
 20
33.751123
 30
0.000000
 40
19.474039
 50
306.346830
 51
318.136600
  0
ARC
  8
0
 62
     3
  6
CONTINUOUS
 10
7.076872
 20
16.038282
 30
0.000000
 40
2.504257
 50
125.937526
 51
143.479471
  0
ARC
  8
0
 62
     3
  6
CONTINUOUS
 10
5.885187
 20
16.906904
 30
0.000000
 40
1.029701
 50
142.860609
 51
163.084469
  0
ARC
  8
0
 62
     3
  6
CONTINUOUS
 10
5.227008
 20
17.098497
 30
0.000000
 40
0.344350
 50
161.719631
 51
210.662004
  0
ARC
  8
0
 62
     3
  6
CONTINUOUS
 10
6.725146
 20
18.102982
 30
0.000000
 40
2.147625
 50
213.331899
 51
215.455678
  0
ARC
  8
0
 62
     3
  6
CONTINUOUS
 10
4.424437
 20
16.408282
 30
0.000000
 40
0.710981
 50
14.336484
 51
39.154205
  0
ARC
  8
0
 62
     3
  6
CONTINUOUS
 10
6.525478
 20
16.833671
 30
0.000000
 40
1.434044
 50
190.012943
 51
222.062422
  0
ARC
  8
0
 62
     3
  6
CONTINUOUS
 10
7.153104
 20
17.364712
 30
0.000000
 40
2.255921
 50
221.396509
 51
241.751575
  0
ARC
  8
0
 62
     3
  6
CONTINUOUS
 10
5.009758
 20
13.457598
 30
0.000000
 40
2.200649
 50
15.371743
 51
60.739713
  0
ARC
  8
0
 62
     3
  6
CONTINUOUS
 10
3.826527
 20
13.091301
 30
0.000000
 40
3.438877
 50
347.298567
 51
376.030578
  0
ARC
  8
0
 62
     3
  6
CONTINUOUS
 10
5.401807
 20
12.139988
 30
0.000000
 40
1.790120
 50
331.664908
 51
366.260311
  0
ARC
  8
0
 62
     3
  6
CONTINUOUS
 10
2.859176
 20
13.633885
 30
0.000000
 40
4.738388
 50
317.900474
 51
330.357587
  0
LINE
  8
0
 62
     3
  6
CONTINUOUS
 10
6.253232
 20
10.311268
 30
0.000000
 11
6.374972
 21
10.457173
 31
0.000000
  0
ARC
  8
0
 62
     3
  6
CONTINUOUS
 10
8.440029
 20
8.525285
 30
0.000000
 40
2.823440
 50
140.761088
 51
166.686739
  0
ARC
  8
0
 62
     3
  6
CONTINUOUS
 10
7.900929
 20
8.614985
 30
0.000000
 40
2.278471
 50
165.760005
 51
197.721834
  0
LINE
  8
0
 62
     3
  6
CONTINUOUS
 10
7.325732
 20
9.595178
 30
0.000000
 11
5.730582
 21
7.921428
 31
0.000000
  0
ARC
  8
0
 62
     3
  6
CONTINUOUS
 10
157.512271
 20
-132.056591
 30
0.000000
 40
206.449074
 50
135.800113
 51
136.675130
  0
ARC
  8
0
 62
     3
  6
CONTINUOUS
 10
9.657386
 20
11.993321
 30
0.000000
 40
0.193515
 50
178.197590
 51
218.745264
  0
ARC
  8
0
 62
     3
  6
CONTINUOUS
 10
10.230118
 20
12.016495
 30
0.000000
 40
0.766342
 50
167.372772
 51
181.277643
  0
ARC
  8
0
 62
     3
  6
CONTINUOUS
 10
10.967047
 20
11.873391
 30
0.000000
 40
1.516882
 50
154.039732
 51
168.183204
  0
ARC
  8
0
 62
     3
  6
CONTINUOUS
 10
9.676902
 20
12.519994
 30
0.000000
 40
0.075709
 50
107.123090
 51
166.706518
  0
ARC
  8
0
 62
     3
  6
CONTINUOUS
 10
9.630849
 20
12.541513
 30
0.000000
 40
0.056115
 50
349.459651
 51
424.946083
  0
ARC
  8
0
 62
     3
  6
CONTINUOUS
 10
4.936620
 20
12.343515
 30
0.000000
 40
4.753105
 50
356.780054
 51
362.263589
  0
ARC
  8
0
 62
     3
  6
CONTINUOUS
 10
9.703787
 20
12.081508
 30
0.000000
 40
0.022130
 50
192.979299
 51
304.831232
  0
LINE
  8
0
 62
     3
  6
CONTINUOUS
 10
9.808272
 20
12.149358
 30
0.000000
 11
9.716427
 21
12.063343
 31
0.000000
  0
ARC
  8
0
 62
     3
  6
CONTINUOUS
 10
18.620510
 20
2.908352
 30
0.000000
 40
12.769171
 50
130.607096
 51
133.639470
  0
ARC
  8
0
 62
     3
  6
CONTINUOUS
 10
11.757326
 20
11.020976
 30
0.000000
 40
2.144249
 50
116.581081
 51
132.472104
  0
ARC
  8
0
 62
     3
  6
CONTINUOUS
 10
10.816909
 20
12.908684
 30
0.000000
 40
0.035456
 50
338.384512
 51
482.513232
  0
ARC
  8
0
 62
     3
  6
CONTINUOUS
 10
8.498242
 20
13.428775
 30
0.000000
 40
2.411310
 50
342.664557
 51
347.226074
  0
LINE
  8
0
 62
     3
  6
CONTINUOUS
 10
10.792512
 20
12.684998
 30
0.000000
 11
10.800022
 21
12.710288
 31
0.000000
  0
ARC
  8
0
 62
     3
  6
CONTINUOUS
 10
165.685536
 20
-145.138882
 30
0.000000
 40
221.133955
 50
134.463026
 51
135.798691
  0
LINE
  8
0
 62
     3
  6
CONTINUOUS
 10
5.823177
 20
7.674503
 30
0.000000
 11
7.155782
 21
9.031618
 31
0.000000
  0
ARC
  8
0
 62
     3
  6
CONTINUOUS
 10
8.982711
 20
8.369965
 30
0.000000
 40
3.235170
 50
192.413732
 51
205.260870
  0
ARC
  8
0
 62
     3
  6
CONTINUOUS
 10
14.362277
 20
10.927862
 30
0.000000
 40
9.191886
 50
205.370686
 51
209.804139
  0
ARC
  8
0
 62
     3
  6
CONTINUOUS
 10
-13.069752
 20
-4.510748
 30
0.000000
 40
22.286525
 50
28.445105
 51
29.191781
  0
ARC
  8
0
 62
     3
  6
CONTINUOUS
 10
3.490771
 20
4.390655
 30
0.000000
 40
3.485942
 50
14.649660
 51
29.452376
  0
ARC
  8
0
 62
     3
  6
CONTINUOUS
 10
5.626709
 20
4.931392
 30
0.000000
 40
1.282799
 50
345.642188
 51
375.410684
  0
ARC
  8
0
 62
     3
  6
CONTINUOUS
 10
6.021376
 20
4.869294
 30
0.000000
 40
0.885864
 50
304.085224
 51
343.202434
  0
ARC
  8
0
 62
     3
  6
CONTINUOUS
 10
5.462101
 20
5.746151
 30
0.000000
 40
1.925720
 50
279.563059
 51
303.245609
  0
ARC
  8
0
 62
     3
  6
CONTINUOUS
 10
4.565178
 20
3.605370
 30
0.000000
 40
1.240645
 50
322.919952
 51
371.239877
  0
ARC
  8
0
 62
     3
  6
CONTINUOUS
 10
4.086197
 20
3.835080
 30
0.000000
 40
1.764430
 50
293.176724
 51
326.348847
  0
ARC
  8
0
 62
     3
  6
CONTINUOUS
 10
5.074014
 20
1.396988
 30
0.000000
 40
0.867198
 50
109.774660
 51
127.158929
  0
ARC
  8
0
 62
     3
  6
CONTINUOUS
 10
4.755883
 20
1.810452
 30
0.000000
 40
0.345544
 50
126.529818
 51
158.675700
  0
ARC
  8
0
 62
     3
  6
CONTINUOUS
 10
4.680008
 20
1.852338
 30
0.000000
 40
0.259882
 50
161.195752
 51
200.445379
  0
ARC
  8
0
 62
     3
  6
CONTINUOUS
 10
4.949759
 20
1.959330
 30
0.000000
 40
0.550047
 50
201.072858
 51
225.202911
  0
ARC
  8
0
 62
     3
  6
CONTINUOUS
 10
3.591020
 20
0.561235
 30
0.000000
 40
1.399572
 50
26.875364
 51
46.059583
  0
ARC
  8
0
 62
     3
  6
CONTINUOUS
 10
4.393614
 20
0.984757
 30
0.000000
 40
0.492438
 50
328.816615
 51
385.133902
  0
ARC
  8
0
 62
     3
  6
CONTINUOUS
 10
3.383381
 20
0.243521
 30
0.000000
 40
1.511853
 50
356.349178
 51
378.761695
  0
ARC
  8
0
 62
     3
  6
CONTINUOUS
 10
0.580193
 20
0.442867
 30
0.000000
 40
4.322095
 50
348.412299
 51
356.078135
  0
ARC
  8
0
 62
     3
  6
CONTINUOUS
 10
8.023567
 20
-1.131069
 30
0.000000
 40
3.286056
 50
167.597606
 51
179.752383
  0
ARC
  8
0
 62
     3
  6
CONTINUOUS
 10
5.935349
 20
-1.096798
 30
0.000000
 40
1.197976
 50
180.959907
 51
215.407903
  0
ARC
  8
0
 62
     3
  6
CONTINUOUS
 10
4.449670
 20
-2.097222
 30
0.000000
 40
0.594300
 50
3.585865
 51
31.026768
  0
ARC
  8
0
 62
     3
  6
CONTINUOUS
 10
2.812291
 20
-2.219877
 30
0.000000
 40
2.236234
 50
356.320898
 51
364.098448
  0
ARC
  8
0
 62
     3
  6
CONTINUOUS
 10
6.416737
 20
-2.491983
 30
0.000000
 40
1.378832
 50
174.647961
 51
190.689283
  0
ARC
  8
0
 62
     3
  6
CONTINUOUS
 10
2.088717
 20
-6.521185
 30
0.000000
 40
4.803994
 50
28.831735
 51
51.765324
  0
ARC
  8
0
 62
     3
  6
CONTINUOUS
 10
3.594680
 20
-5.774856
 30
0.000000
 40
3.125640
 50
357.920242
 51
390.159371
  0
ARC
  8
0
 62
     3
  6
CONTINUOUS
 10
8.927815
 20
-6.061070
 30
0.000000
 40
2.216298
 50
175.528675
 51
193.276576
  0
ARC
  8
0
 62
     3
  6
CONTINUOUS
 10
10.814683
 20
-5.538083
 30
0.000000
 40
4.173528
 50
194.315681
 51
202.371586
  0
ARC
  8
0
 62
     3
  6
CONTINUOUS
 10
1.960685
 20
-9.129778
 30
0.000000
 40
5.381334
 50
17.101627
 51
21.854432
  0
ARC
  8
0
 62
     3
  6
CONTINUOUS
 10
8.994257
 20
-6.884786
 30
0.000000
 40
2.002921
 50
199.315836
 51
219.702052
  0
ARC
  8
0
 62
     3
  6
CONTINUOUS
 10
5.247501
 20
-9.887554
 30
0.000000
 40
2.799135
 50
28.420013
 51
37.999784
  0
ARC
  8
0
 62
     3
  6
CONTINUOUS
 10
6.776987
 20
-9.044083
 30
0.000000
 40
1.052637
 50
1.109392
 51
27.664082
  0
ARC
  8
0
 62
     3
  6
CONTINUOUS
 10
12.335902
 20
-26.762609
 30
0.000000
 40
18.302380
 50
104.254147
 51
108.614288
  0
ARC
  8
0
 62
     3
  6
CONTINUOUS
 10
1.385070
 20
5.598519
 30
0.000000
 40
15.861432
 50
283.848879
 51
288.789302
  0
ARC
  8
0
 62
     3
  6
CONTINUOUS
 10
6.584013
 20
-15.732931
 30
0.000000
 40
6.094629
 50
103.302447
 51
115.416087
  0
ARC
  8
0
 62
     3
  6
CONTINUOUS
 10
1.259451
 20
-4.487989
 30
0.000000
 40
6.347234
 50
284.070395
 51
295.262814
  0
ARC
  8
0
 62
     3
  6
CONTINUOUS
 10
6.788257
 20
-25.422691
 30
0.000000
 40
15.305951
 50
105.093935
 51
112.224271
  0
ARC
  8
0
 62
     3
  6
CONTINUOUS
 10
43.560583
 20
-120.590570
 30
0.000000
 40
117.328647
 50
111.269481
 51
112.452972
  0
ARC
  8
0
 62
     3
  6
CONTINUOUS
 10
-20.529488
 20
34.028822
 30
0.000000
 40
50.047481
 50
291.040358
 51
292.657447
  0
ARC
  8
0
 62
     3
  6
CONTINUOUS
 10
-10.009848
 20
6.915666
 30
0.000000
 40
20.965370
 50
285.934168
 51
290.810907
  0
ARC
  8
0
 62
     3
  6
CONTINUOUS
 10
-5.652860
 20
-8.400500
 30
0.000000
 40
5.041573
 50
271.971722
 51
286.106974
  0
ARC
  8
0
 62
     3
  6
CONTINUOUS
 10
-5.516016
 20
-8.452566
 30
0.000000
 40
4.986656
 50
256.596921
 51
270.420729
  0
ARC
  8
0
 62
     3
  6
CONTINUOUS
 10
-0.770141
 20
11.785862
 30
0.000000
 40
25.774062
 50
253.090540
 51
256.762885
  0
ARC
  8
0
 62
     3
  6
CONTINUOUS
 10
-4.724179
 20
-0.349070
 30
0.000000
 40
13.016172
 50
247.291699
 51
254.206575
  0
ARC
  8
0
 62
     3
  6
CONTINUOUS
 10
-7.120964
 20
-6.064490
 30
0.000000
 40
6.818548
 50
236.349769
 51
247.330460
  0
ARC
  8
0
 62
     3
  6
CONTINUOUS
 10
-8.152552
 20
-7.667986
 30
0.000000
 40
4.912205
 50
208.493496
 51
236.002171
  0
ARC
  8
0
 62
     3
  6
CONTINUOUS
 10
-10.790941
 20
-13.143396
 30
0.000000
 40
3.553563
 50
118.192111
 51
132.325081
  0
ARC
  8
0
 62
     3
  6
CONTINUOUS
 10
-15.777871
 20
-7.652163
 30
0.000000
 40
3.864200
 50
298.113092
 51
312.170489
  0
ARC
  8
0
 62
     3
  6
CONTINUOUS
 10
-9.024458
 20
-20.378212
 30
0.000000
 40
10.542794
 50
117.895467
 51
129.268273
  0
ARC
  8
0
 62
     3
  6
CONTINUOUS
 10
-12.436543
 20
-16.368280
 30
0.000000
 40
5.279669
 50
128.144894
 51
145.690257
  0
ARC
  8
0
 62
     3
  6
CONTINUOUS
 10
-16.923552
 20
-13.352893
 30
0.000000
 40
0.132010
 50
278.412858
 51
342.628089
  0
ARC
  8
0
 62
     3
  6
CONTINUOUS
 10
-16.877704
 20
-13.436270
 30
0.000000
 40
0.054158
 50
183.538018
 51
240.662734
  0
ARC
  8
0
 62
     3
  6
CONTINUOUS
 10
-16.563250
 20
-13.377355
 30
0.000000
 40
0.373731
 50
173.379667
 51
189.589291
  0
ARC
  8
0
 62
     3
  6
CONTINUOUS
 10
-136.347022
 20
3.199314
 30
0.000000
 40
120.551700
 50
352.117078
 51
352.822272
  0
ARC
  8
0
 62
     3
  6
CONTINUOUS
 10
89.688283
 20
-25.129126
 30
0.000000
 40
107.251901
 50
171.741980
 51
172.894990
  0
ARC
  8
0
 62
     3
  6
CONTINUOUS
 10
1.023160
 20
-12.267734
 30
0.000000
 40
17.658825
 50
169.061658
 51
171.719147
  0
ARC
  8
0
 62
     3
  6
CONTINUOUS
 10
-14.335005
 20
-9.225832
 30
0.000000
 40
2.003787
 50
158.099009
 51
171.131878
  0
ARC
  8
0
 62
     3
  6
CONTINUOUS
 10
-17.710747
 20
-3.360867
 30
0.000000
 40
5.337532
 50
272.810866
 51
286.507022
  0
ARC
  8
0
 62
     3
  6
CONTINUOUS
 10
-17.905798
 20
3.326062
 30
0.000000
 40
12.026718
 50
266.561727
 51
272.176735
  0
ARC
  8
0
 62
     3
  6
CONTINUOUS
 10
-19.551065
 20
-26.172961
 30
0.000000
 40
17.518338
 50
86.976590
 51
90.449595
  0
ARC
  8
0
 62
     3
  6
CONTINUOUS
 10
-19.658121
 20
-12.639966
 30
0.000000
 40
3.984920
 50
90.437200
 51
121.665103
  0
ARC
  8
0
 62
     3
  6
CONTINUOUS
 10
-23.709339
 20
-5.948031
 30
0.000000
 40
3.838042
 50
292.780645
 51
300.697147
  0
LINE
  8
0
 62
     3
  6
CONTINUOUS
 10
-22.360718
 20
-9.544772
 30
0.000000
 11
-22.223233
 21
-9.486682
 31
0.000000
  0
ARC
  8
0
 62
     3
  6
CONTINUOUS
 10
-16.409806
 20
-24.083021
 30
0.000000
 40
15.709042
 50
112.260659
 51
115.885117
  0
ARC
  8
0
 62
     3
  6
CONTINUOUS
 10
-20.997922
 20
-14.612611
 30
0.000000
 40
5.185767
 50
115.958964
 51
126.797655
  0
ARC
  8
0
 62
     3
  6
CONTINUOUS
 10
-25.416349
 20
-8.814734
 30
0.000000
 40
2.104525
 50
299.693595
 51
308.573203
  0
ARC
  8
0
 62
     3
  6
CONTINUOUS
 10
-24.491464
 20
-10.480635
 30
0.000000
 40
0.200414
 50
257.983537
 51
305.934733
  0
ARC
  8
0
 62
     3
  6
CONTINUOUS
 10
-24.452836
 20
-10.552879
 30
0.000000
 40
0.147572
 50
176.872235
 51
237.009879
  0
ARC
  8
0
 62
     3
  6
CONTINUOUS
 10
-23.018229
 20
-10.424645
 30
0.000000
 40
1.586518
 50
172.985813
 51
184.344445
  0
ARC
  8
0
 62
     3
  6
CONTINUOUS
 10
-16.020818
 20
-10.828219
 30
0.000000
 40
8.592841
 50
165.051830
 51
176.014000
  0
ARC
  8
0
 62
     3
  6
CONTINUOUS
 10
-21.158425
 20
-9.469242
 30
0.000000
 40
3.278574
 50
137.064896
 51
164.838060
  0
ARC
  8
0
 62
     3
  6
CONTINUOUS
 10
-31.152010
 20
-0.264042
 30
0.000000
 40
10.308512
 50
317.442640
 51
323.535412
  0
ARC
  8
0
 62
     3
  6
CONTINUOUS
 10
-61.200734
 20
22.395164
 30
0.000000
 40
47.942764
 50
323.099976
 51
324.545873
  0
LINE
  8
0
 62
     3
  6
CONTINUOUS
 10
-22.050288
 20
-5.278757
 30
0.000000
 11
-22.147508
 21
-5.414082
 31
0.000000
  0
ARC
  8
0
 62
     3
  6
CONTINUOUS
 10
-3.752920
 20
-18.318506
 30
0.000000
 40
22.468394
 50
136.658476
 51
144.524160
  0
ARC
  8
0
 62
     3
  6
CONTINUOUS
 10
-8.414864
 20
-13.914703
 30
0.000000
 40
16.055346
 50
125.709332
 51
136.669444
  0
ARC
  8
0
 62
     3
  6
CONTINUOUS
 10
-10.430994
 20
-11.064536
 30
0.000000
 40
12.564309
 50
96.495979
 51
125.830141
  0
ARC
  8
0
 62
     3
  6
CONTINUOUS
 10
-8.943167
 20
3.540640
 30
0.000000
 40
3.600660
 50
203.138656
 51
216.100707
  0
ARC
  8
0
 62
     3
  6
CONTINUOUS
 10
-10.226222
 20
2.980485
 30
0.000000
 40
2.200730
 50
184.861664
 51
202.854670
  0
ARC
  8
0
 62
     3
  6
CONTINUOUS
 10
-7.141640
 20
1.345856
 30
0.000000
 40
15.099035
 50
149.720562
 51
152.566641
  0
ARC
  8
0
 62
     3
  6
CONTINUOUS
 10
-25.059678
 20
11.809807
 30
0.000000
 40
5.650672
 50
329.702009
 51
330.906355
  0
ARC
  8
0
 62
     3
  6
CONTINUOUS
 10
-20.230974
 20
9.145315
 30
0.000000
 40
0.137054
 50
322.684464
 51
367.109357
  0
ARC
  8
0
 62
     3
  6
CONTINUOUS
 10
-20.063655
 20
9.070429
 30
0.000000
 40
0.097041
 50
108.828369
 51
163.538644
  0
ARC
  8
0
 62
     3
  6
CONTINUOUS
 10
4.725021
 20
-9.789784
 30
0.000000
 40
31.238544
 50
142.797892
 51
144.171828
  0
ARC
  8
0
 62
     3
  6
CONTINUOUS
 10
-36.872101
 20
20.074644
 30
0.000000
 40
19.969204
 50
321.634208
 51
324.561405
  0
ARC
  8
0
 62
     3
  6
CONTINUOUS
 10
-20.722726
 20
8.728903
 30
0.000000
 40
1.158513
 50
244.856499
 51
260.651040
  0
ARC
  8
0
 62
     3
  6
CONTINUOUS
 10
-21.790019
 20
3.302534
 30
0.000000
 40
4.372527
 50
77.512651
 51
78.401648
  0
ARC
  8
0
 62
     3
  6
CONTINUOUS
 10
-17.446789
 20
6.595600
 30
0.000000
 40
3.535189
 50
151.134468
 51
163.973152
  0
ARC
  8
0
 62
     3
  6
CONTINUOUS
 10
-10.187043
 20
2.729775
 30
0.000000
 40
12.605692
 50
138.787578
 51
145.304477
  0
ARC
  8
0
 62
     3
  6
CONTINUOUS
 10
-19.609861
 20
11.007151
 30
0.000000
 40
0.066260
 50
91.956476
 51
155.082313
  0
ARC
  8
0
 62
     3
  6
CONTINUOUS
 10
-19.696313
 20
11.063308
 30
0.000000
 40
0.084789
 50
314.268615
 51
366.817021
  0
ARC
  8
0
 62
     3
  6
CONTINUOUS
 10
6.936538
 20
-6.464592
 30
0.000000
 40
31.800351
 50
146.682609
 51
150.030049
  0
ARC
  8
0
 62
     3
  6
CONTINUOUS
 10
-10.576654
 20
3.606995
 30
0.000000
 40
11.597697
 50
149.912712
 51
159.088424
  0
ARC
  8
0
 62
     3
  6
CONTINUOUS
 10
-20.640732
 20
10.086860
 30
0.000000
 40
2.463661
 50
240.528151
 51
251.794646
  0
ARC
  8
0
 62
     3
  6
CONTINUOUS
 10
-75.635137
 20
43.776462
 30
0.000000
 40
64.626957
 50
326.324983
 51
327.117724
  0
ARC
  8
0
 62
     3
  6
CONTINUOUS
 10
12.575863
 20
-13.071858
 30
0.000000
 40
40.315638
 50
145.254839
 51
147.331640
  0
ARC
  8
0
 62
     3
  6
CONTINUOUS
 10
-20.463019
 20
11.528933
 30
0.000000
 40
0.376145
 50
325.037574
 51
338.024755
  0
ARC
  8
0
 62
     3
  6
CONTINUOUS
 10
-20.132344
 20
11.402848
 30
0.000000
 40
0.023330
 50
321.036801
 51
402.209940
  0
ARC
  8
0
 62
     3
  6
CONTINUOUS
 10
-20.055543
 20
11.245692
 30
0.000000
 40
0.182793
 50
109.002839
 51
150.804047
  0
ARC
  8
0
 62
     3
  6
CONTINUOUS
 10
4.316500
 20
-8.117015
 30
0.000000
 40
31.307753
 50
141.588017
 51
148.391381
  0
ARC
  8
0
 62
     3
  6
CONTINUOUS
 10
-20.717586
 20
10.078105
 30
0.000000
 40
2.417601
 50
227.635032
 51
238.624183
  0
ARC
  8
0
 62
     3
  6
CONTINUOUS
 10
-79.532637
 20
39.023471
 30
0.000000
 40
65.378258
 50
331.685684
 51
332.589577
  0
ARC
  8
0
 62
     3
  6
CONTINUOUS
 10
4.573742
 20
-4.130114
 30
0.000000
 40
29.154767
 50
148.014301
 51
153.396364
  0
ARC
  8
0
 62
     3
  6
CONTINUOUS
 10
-2.286189
 20
0.269141
 30
0.000000
 40
23.662428
 50
140.659020
 51
143.562386
  0
ARC
  8
0
 62
     3
  6
CONTINUOUS
 10
-15.156458
 20
9.767231
 30
0.000000
 40
7.666881
 50
143.539907
 51
152.431187
  0
ARC
  8
0
 62
     3
  6
CONTINUOUS
 10
-21.990800
 20
13.328950
 30
0.000000
 40
0.040279
 50
261.995915
 51
340.595996
  0
ARC
  8
0
 62
     3
  6
CONTINUOUS
 10
-21.981893
 20
13.314196
 30
0.000000
 40
0.029023
 50
132.896218
 51
239.991505
  0
ARC
  8
0
 62
     3
  6
CONTINUOUS
 10
-82.251509
 20
45.665087
 30
0.000000
 40
68.375805
 50
331.782322
 51
332.636484
  0
ARC
  8
0
 62
     3
  6
CONTINUOUS
 10
-0.838983
 20
3.845756
 30
0.000000
 40
23.150624
 50
148.996813
 51
153.329233
  0
ARC
  8
0
 62
     3
  6
CONTINUOUS
 10
-17.292429
 20
13.818909
 30
0.000000
 40
3.911401
 50
130.306639
 51
150.072657
  0
ARC
  8
0
 62
     3
  6
CONTINUOUS
 10
-12.724312
 20
7.583610
 30
0.000000
 40
11.634414
 50
126.565036
 51
127.597728
  0
ARC
  8
0
 62
     3
  6
CONTINUOUS
 10
-22.749907
 20
21.205551
 30
0.000000
 40
5.279440
 50
305.884605
 51
311.299194
  0
ARC
  8
0
 62
     3
  6
CONTINUOUS
 10
-19.246653
 20
17.230504
 30
0.000000
 40
0.020797
 50
155.138760
 51
320.078706
  0
ARC
  8
0
 62
     3
  6
CONTINUOUS
 10
-25.659437
 20
20.504394
 30
0.000000
 40
7.220425
 50
323.583937
 51
332.917756
  0
ARC
  8
0
 62
     3
  6
CONTINUOUS
 10
-38.399748
 20
29.880512
 30
0.000000
 40
23.038991
 50
320.640541
 51
323.628690
  0
LINE
  8
0
 62
     3
  6
CONTINUOUS
 10
-20.543933
 20
17.274508
 30
0.000000
 11
-19.959748
 21
18.190648
 31
0.000000
  0
ARC
  8
0
 62
     3
  6
CONTINUOUS
 10
-19.982782
 20
18.218715
 30
0.000000
 40
0.036309
 50
309.374051
 51
382.975140
  0
ARC
  8
0
 62
     3
  6
CONTINUOUS
 10
-19.947469
 20
18.185954
 30
0.000000
 40
0.046972
 50
92.299127
 51
152.080067
  0
ARC
  8
0
 62
     3
  6
CONTINUOUS
 10
-11.784842
 20
11.185257
 30
0.000000
 40
10.799350
 50
139.436660
 51
148.740276
  0
ARC
  8
0
 62
     3
  6
CONTINUOUS
 10
-6.698080
 20
8.000954
 30
0.000000
 40
16.800230
 50
148.459242
 51
154.245802
  0
ARC
  8
0
 62
     3
  6
CONTINUOUS
 10
-21.748078
 20
15.234209
 30
0.000000
 40
0.105199
 50
140.698216
 51
188.363593
  0
ARC
  8
0
 62
     3
  6
CONTINUOUS
 10
-21.913346
 20
15.330776
 30
0.000000
 40
0.127509
 50
298.676986
 51
339.776078
  0
ARC
  8
0
 62
     3
  6
CONTINUOUS
 10
55.317489
 20
-31.807447
 30
0.000000
 40
90.354821
 50
147.097338
 51
148.586320
  0
ARC
  8
0
 62
     3
  6
CONTINUOUS
 10
-21.925707
 20
17.678515
 30
0.000000
 40
0.024188
 50
356.926213
 51
488.029348
  0
ARC
  8
0
 62
     3
  6
CONTINUOUS
 10
-29.975901
 20
24.046855
 30
0.000000
 40
10.284327
 50
321.731034
 51
326.541797
  0
ARC
  8
0
 62
     3
  6
CONTINUOUS
 10
-12.852138
 20
12.734330
 30
0.000000
 40
10.238746
 50
141.623857
 51
146.558095
  0
ARC
  8
0
 62
     3
  6
CONTINUOUS
 10
-20.902402
 20
19.125719
 30
0.000000
 40
0.042165
 50
304.000272
 51
372.322763
  0
ARC
  8
0
 62
     3
  6
CONTINUOUS
 10
-20.864265
 20
19.085733
 30
0.000000
 40
0.049080
 50
86.429624
 51
147.674176
  0
ARC
  8
0
 62
     3
  6
CONTINUOUS
 10
-17.636234
 20
15.634013
 30
0.000000
 40
4.773458
 50
133.230435
 51
154.386535
  0
ARC
  8
0
 62
     3
  6
CONTINUOUS
 10
-11.610696
 20
26.746275
 30
0.000000
 40
0.052213
 50
101.620891
 51
163.135058
  0
ARC
  8
0
 62
     3
  6
CONTINUOUS
 10
-11.672451
 20
26.776660
 30
0.000000
 40
0.055283
 50
322.925637
 51
382.054423
  0
ARC
  8
0
 62
     3
  6
CONTINUOUS
 10
-16.844370
 20
29.008827
 30
0.000000
 40
5.686774
 50
303.941840
 51
336.523082
  0
ARC
  8
0
 62
     3
  6
CONTINUOUS
 10
-14.378787
 20
25.271728
 30
0.000000
 40
1.210498
 50
295.778067
 51
305.890164
  0
ARC
  8
0
 62
     3
  6
CONTINUOUS
 10
-13.897611
 20
24.234096
 30
0.000000
 40
0.069238
 50
244.146893
 51
310.812014
  0
ARC
  8
0
 62
     3
  6
CONTINUOUS
 10
-13.831854
 20
24.173764
 30
0.000000
 40
0.095969
 50
129.141137
 51
181.180260
  0
ARC
  8
0
 62
     3
  6
CONTINUOUS
 10
-12.928095
 20
23.435366
 30
0.000000
 40
1.261207
 50
130.261431
 51
139.872774
  0
ARC
  8
0
 62
     3
  6
CONTINUOUS
 10
-20.737261
 20
32.659308
 30
0.000000
 40
10.824495
 50
310.250779
 51
326.984577
  0
ARC
  8
0
 62
     3
  6
CONTINUOUS
 10
-36.466742
 20
42.771195
 30
0.000000
 40
28.871313
 50
321.712712
 51
325.354126
  0
LINE
  8
0
 62
     3
  6
CONTINUOUS
 10
-13.805248
 20
24.882388
 30
0.000000
 11
-13.969448
 21
24.669603
 31
0.000000
  0
ARC
  8
0
 62
     3
  6
CONTINUOUS
 10
-13.930455
 20
24.618214
 30
0.000000
 40
0.064508
 50
127.191215
 51
193.584070
  0
ARC
  8
0
 62
     3
  6
CONTINUOUS
 10
-13.980177
 20
24.663696
 30
0.000000
 40
0.062007
 50
257.916041
 51
326.078716
  0
ARC
  8
0
 62
     3
  6
CONTINUOUS
 10
-18.648886
 20
30.346509
 30
0.000000
 40
7.414094
 50
309.542265
 51
325.114853
  0
ARC
  8
0
 62
     3
  6
CONTINUOUS
 10
-16.501668
 20
28.817255
 30
0.000000
 40
4.778172
 50
325.431217
 51
349.205595
  0
ARC
  8
0
 62
     3
  6
CONTINUOUS
 10
-11.849907
 20
27.941207
 30
0.000000
 40
0.045906
 50
335.776978
 51
395.988363
  0
ARC
  8
0
 62
     3
  6
CONTINUOUS
 10
-11.803765
 20
27.932261
 30
0.000000
 40
0.037031
 50
104.063189
 51
174.877601
  0
ARC
  8
0
 62
     3
  6
CONTINUOUS
 10
-20.086076
 20
31.473003
 30
0.000000
 40
8.972208
 50
325.241488
 51
336.779808
  0
LINE
  8
0
 62
     3
  6
CONTINUOUS
 10
-4.181953
 20
27.563663
 30
0.000000
 11
-4.024018
 21
27.324738
 31
0.000000
  0
ARC
  8
0
 62
     3
  6
CONTINUOUS
 10
23.463297
 20
45.149682
 30
0.000000
 40
32.760970
 50
212.962558
 51
215.205731
  0
ARC
  8
0
 62
     3
  6
CONTINUOUS
 10
-3.263903
 20
26.276201
 30
0.000000
 40
0.043573
 50
198.295979
 51
272.091392
  0
ARC
  8
0
 62
     3
  6
CONTINUOUS
 10
-3.298447
 20
26.255340
 30
0.000000
 40
0.042663
 50
327.881883
 51
392.419971
  0
ARC
  8
0
 62
     3
  6
CONTINUOUS
 10
9.443078
 20
30.898710
 30
0.000000
 40
13.519579
 50
197.714364
 51
199.984348
  0
ARC
  8
0
 62
     3
  6
CONTINUOUS
 10
-8.718886
 20
25.293606
 30
0.000000
 40
5.489896
 50
15.764068
 51
29.714607
  0
ARC
  8
0
 62
     3
  6
CONTINUOUS
 10
7.206116
 20
28.450440
 30
0.000000
 40
11.165500
 50
179.644139
 51
182.235861
  0
ARC
  8
0
 62
     3
  6
CONTINUOUS
 10
-10.219298
 20
28.681722
 30
0.000000
 40
6.262224
 50
358.518227
 51
367.347032
  0
ARC
  8
0
 62
     3
  6
CONTINUOUS
 10
-5.310055
 20
29.296974
 30
0.000000
 40
1.314727
 50
8.113508
 51
25.349885
  0
ARC
  8
0
 62
     3
  6
CONTINUOUS
 10
-4.580707
 20
29.647580
 30
0.000000
 40
0.505518
 50
24.830887
 51
61.803126
  0
ARC
  8
0
 62
     3
  6
CONTINUOUS
 10
-5.383411
 20
29.917839
 30
0.000000
 40
1.056206
 50
335.259211
 51
369.551928
  0
ARC
  8
0
 62
     3
  6
CONTINUOUS
 10
-3.286914
 20
28.752850
 30
0.000000
 40
1.347581
 50
147.555541
 51
192.203498
  0
ARC
  8
0
 62
     3
  6
CONTINUOUS
 10
-2.027435
 20
29.119939
 30
0.000000
 40
2.657808
 50
194.199243
 51
215.841758
  0
ARC
  8
0
 62
     3
  6
CONTINUOUS
 10
-4.371813
 20
26.109574
 30
0.000000
 40
1.655784
 50
1.312577
 51
25.098518
  0
ARC
  8
0
 62
     3
  6
CONTINUOUS
 10
-2.730181
 20
26.146160
 30
0.000000
 40
0.013784
 50
5.591056
 51
180.902452
  0
ARC
  8
0
 62
     3
  6
CONTINUOUS
 10
9.320906
 20
31.977154
 30
0.000000
 40
13.400153
 50
201.787015
 51
205.795477
  0
ARC
  8
0
 62
     3
  6
CONTINUOUS
 10
-25.212746
 20
17.971134
 30
0.000000
 40
23.865939
 50
22.238714
 51
23.535418
  0
ARC
  8
0
 62
     3
  6
CONTINUOUS
 10
-3.176874
 20
27.604614
 30
0.000000
 40
0.186557
 50
180.511701
 51
213.670808
  0
ARC
  8
0
 62
     3
  6
CONTINUOUS
 10
-3.491590
 20
27.428564
 30
0.000000
 40
0.216417
 50
24.104042
 51
53.685262
  0
ARC
  8
0
 62
     3
  6
CONTINUOUS
 10
9.899383
 20
35.996261
 30
0.000000
 40
15.683279
 50
212.728544
 51
213.367276
  0
ARC
  8
0
 62
     3
  6
CONTINUOUS
 10
-6.625414
 20
24.993525
 30
0.000000
 40
4.170361
 50
25.850706
 51
34.746333
  0
ARC
  8
0
 62
     3
  6
CONTINUOUS
 10
-6.840820
 20
12.274389
 30
0.000000
 40
9.301107
 50
101.168722
 51
111.308496
  0
ARC
  8
0
 62
     3
  6
CONTINUOUS
 10
0.620341
 20
-7.213544
 30
0.000000
 40
30.168382
 50
111.060437
 51
114.165678
  0
LINE
  8
0
 62
     3
  6
CONTINUOUS
 10
-11.729888
 20
20.311048
 30
0.000000
 11
-11.852448
 21
20.257323
 31
0.000000
  0
ARC
  8
0
 62
     3
  6
CONTINUOUS
 10
-11.921978
 20
20.360270
 30
0.000000
 40
0.124228
 50
258.222795
 51
304.034535
  0
ARC
  8
0
 62
     3
  6
CONTINUOUS
 10
-11.883121
 20
20.235557
 30
0.000000
 40
0.064287
 50
102.115252
 51
177.235602
  0
ARC
  8
0
 62
     3
  6
CONTINUOUS
 10
7.898517
 20
-10.223037
 30
0.000000
 40
36.378648
 50
117.971070
 51
122.966012
  0
ARC
  8
0
 62
     3
  6
CONTINUOUS
 10
15.676537
 20
-24.593949
 30
0.000000
 40
52.719065
 50
114.590027
 51
118.111377
  0
ARC
  8
0
 62
     3
  6
CONTINUOUS
 10
-6.236879
 20
23.323531
 30
0.000000
 40
0.031642
 50
139.816962
 51
288.147832
  0
ARC
  8
0
 62
     3
  6
CONTINUOUS
 10
-5.872750
 20
23.009003
 30
0.000000
 40
0.454342
 50
141.237725
 51
172.571126
  0
ARC
  8
0
 62
     3
  6
CONTINUOUS
 10
-2.914743
 20
22.429330
 30
0.000000
 40
3.467808
 50
169.391426
 51
174.908631
  0
ARC
  8
0
 62
     3
  6
CONTINUOUS
 10
-11.002063
 20
23.186633
 30
0.000000
 40
4.654954
 50
351.392148
 51
354.457977
  0
ARC
  8
0
 62
     3
  6
CONTINUOUS
 10
9.031576
 20
-12.097418
 30
0.000000
 40
37.873521
 50
114.044007
 51
117.817625
  0
ARC
  8
0
 62
     3
  6
CONTINUOUS
 10
-3.903003
 20
15.946591
 30
0.000000
 40
6.651808
 50
110.901127
 51
118.772305
  0
ARC
  8
0
 62
     3
  6
CONTINUOUS
 10
-5.847804
 20
22.412966
 30
0.000000
 40
0.497052
 50
210.500041
 51
229.106993
  0
ARC
  8
0
 62
     3
  6
CONTINUOUS
 10
-12.497475
 20
35.021128
 30
0.000000
 40
14.442234
 50
292.946402
 51
295.970068
  0
ARC
  8
0
 62
     3
  6
CONTINUOUS
 10
-2.569218
 20
11.369620
 30
0.000000
 40
11.208731
 50
112.545764
 51
117.963331
  0
ARC
  8
0
 62
     3
  6
CONTINUOUS
 10
-7.862441
 20
21.315382
 30
0.000000
 40
0.059019
 50
216.752478
 51
309.294932
  0
ARC
  8
0
 62
     3
  6
CONTINUOUS
 10
-7.842989
 20
21.294865
 30
0.000000
 40
0.068360
 50
100.399401
 51
192.501369
  0
ARC
  8
0
 62
     3
  6
CONTINUOUS
 10
-9.396911
 20
24.176032
 30
0.000000
 40
3.208532
 50
298.715682
 51
300.147370
  0
ARC
  8
0
 62
     3
  6
CONTINUOUS
 10
3.770662
 20
1.263961
 30
0.000000
 40
23.217781
 50
117.930967
 51
119.849872
  0
ARC
  8
0
 62
     3
  6
CONTINUOUS
 10
-0.404167
 20
14.611741
 30
0.000000
 40
8.791587
 50
113.480664
 51
120.647175
  0
ARC
  8
0
 62
     3
  6
CONTINUOUS
 10
-4.872575
 20
22.112327
 30
0.000000
 40
0.064363
 50
101.746599
 51
170.222557
  0
ARC
  8
0
 62
     3
  6
CONTINUOUS
 10
-4.913619
 20
22.232559
 30
0.000000
 40
0.111570
 50
258.426333
 51
303.639397
  0
ARC
  8
0
 62
     3
  6
CONTINUOUS
 10
9.938727
 20
-12.991265
 30
0.000000
 40
38.117488
 50
111.790039
 51
112.831669
  0
ARC
  8
0
 62
     3
  6
CONTINUOUS
 10
-7.925788
 20
30.272166
 30
0.000000
 40
0.027255
 50
125.690288
 51
224.885591
  0
ARC
  8
0
 62
     3
  6
CONTINUOUS
 10
-7.938552
 20
30.308362
 30
0.000000
 40
0.055815
 50
263.264839
 51
321.225186
  0
ARC
  8
0
 62
     3
  6
CONTINUOUS
 10
-10.676981
 20
33.283789
 30
0.000000
 40
4.098976
 50
312.741530
 51
323.064971
  0
ARC
  8
0
 62
     3
  6
CONTINUOUS
 10
-7.411597
 20
30.838554
 30
0.000000
 40
0.020989
 50
153.854154
 51
301.603246
  0
ARC
  8
0
 62
     3
  6
CONTINUOUS
 10
-6.417100
 20
29.398952
 30
0.000000
 40
1.768056
 50
124.969272
 51
149.575415
  0
ARC
  8
0
 62
     3
  6
CONTINUOUS
 10
-10.084441
 20
2.964758
 30
0.000000
 40
2.340830
 50
167.386124
 51
184.183979
  0
ARC
  8
0
 62
     3
  6
CONTINUOUS
 10
-8.208868
 20
2.534353
 30
0.000000
 40
4.265139
 50
156.665505
 51
167.246013
  0
ARC
  8
0
 62
     3
  6
CONTINUOUS
 10
-12.573042
 20
4.458960
 30
0.000000
 40
0.505885
 50
332.295393
 51
368.801066
  0
ARC
  8
0
 62
     3
  6
CONTINUOUS
 10
-12.282814
 20
4.477581
 30
0.000000
 40
0.217784
 50
15.658891
 51
54.238376
  0
ARC
  8
0
 62
     3
  6
CONTINUOUS
 10
-12.427570
 20
4.259438
 30
0.000000
 40
0.479499
 50
55.436103
 51
80.240460
  0
ARC
  8
0
 62
     3
  6
CONTINUOUS
 10
-12.127891
 20
5.654993
 30
0.000000
 40
0.948482
 50
195.176425
 51
256.687609
  0
ARC
  8
0
 62
     3
  6
CONTINUOUS
 10
-9.469703
 20
6.424359
 30
0.000000
 40
3.715670
 50
180.129857
 51
195.895658
  0
LINE
  8
0
 62
     3
  6
CONTINUOUS
 10
-13.189938
 20
6.511908
 30
0.000000
 11
-13.185363
 21
6.415938
 31
0.000000
  0
ARC
  8
0
 62
     3
  6
CONTINUOUS
 10
-10.225480
 20
10.576817
 30
0.000000
 40
5.031054
 50
221.628884
 51
233.897471
  0
ARC
  8
0
 62
     3
  6
CONTINUOUS
 10
-12.388301
 20
8.635543
 30
0.000000
 40
2.124878
 50
192.133142
 51
221.244308
  0
ARC
  8
0
 62
     3
  6
CONTINUOUS
 10
-18.921328
 20
13.141315
 30
0.000000
 40
6.661730
 50
269.808158
 51
311.977406
  0
ARC
  8
0
 62
     3
  6
CONTINUOUS
 10
-18.958561
 20
12.591074
 30
0.000000
 40
6.111469
 50
247.322309
 51
270.139947
  0
ARC
  8
0
 62
     3
  6
CONTINUOUS
 10
-19.186344
 20
12.003883
 30
0.000000
 40
5.481878
 50
220.988706
 51
247.152810
  0
ARC
  8
0
 62
     3
  6
CONTINUOUS
 10
-18.426204
 20
12.587812
 30
0.000000
 40
6.438925
 50
199.742043
 51
220.474276
  0
ARC
  8
0
 62
     3
  6
CONTINUOUS
 10
-16.185100
 20
13.413369
 30
0.000000
 40
8.827189
 50
183.601706
 51
199.871987
  0
ARC
  8
0
 62
     3
  6
CONTINUOUS
 10
-13.624003
 20
13.552092
 30
0.000000
 40
11.391963
 50
155.964583
 51
183.488845
  0
ARC
  8
0
 62
     3
  6
CONTINUOUS
 10
-25.257888
 20
18.801718
 30
0.000000
 40
1.372512
 50
333.628069
 51
360.611163
  0
ARC
  8
0
 62
     3
  6
CONTINUOUS
 10
-19.233679
 20
18.969037
 30
0.000000
 40
4.654279
 50
170.285772
 51
181.879871
  0
ARC
  8
0
 62
     3
  6
CONTINUOUS
 10
-16.053203
 20
18.456080
 30
0.000000
 40
7.875766
 50
162.635700
 51
170.511684
  0
ARC
  8
0
 62
     3
  6
CONTINUOUS
 10
-11.825798
 20
17.096064
 30
0.000000
 40
12.316459
 50
151.141197
 51
162.466450
  0
ARC
  8
0
 62
     3
  6
CONTINUOUS
 10
-11.566934
 20
17.067456
 30
0.000000
 40
12.557381
 50
140.275585
 51
151.596951
  0
ARC
  8
0
 62
     3
  6
CONTINUOUS
 10
-15.910670
 20
20.799475
 30
0.000000
 40
6.832029
 50
122.875132
 51
141.066743
  0
ARC
  8
0
 62
     3
  6
CONTINUOUS
 10
-17.937974
 20
23.994264
 30
0.000000
 40
3.048590
 50
104.213240
 51
123.467551
  0
ARC
  8
0
 62
     3
  6
CONTINUOUS
 10
-18.499545
 20
26.112979
 30
0.000000
 40
0.857189
 50
81.076269
 51
102.597483
  0
ARC
  8
0
 62
     3
  6
CONTINUOUS
 10
-18.443185
 20
26.499967
 30
0.000000
 40
0.466163
 50
48.977126
 51
80.541494
  0
ARC
  8
0
 62
     3
  6
CONTINUOUS
 10
-18.691189
 20
26.328038
 30
0.000000
 40
0.762281
 50
359.144951
 51
403.386652
  0
ARC
  8
0
 62
     3
  6
CONTINUOUS
 10
-21.266843
 20
26.198493
 30
0.000000
 40
3.339941
 50
346.475530
 51
362.027587
  0
ARC
  8
0
 62
     3
  6
CONTINUOUS
 10
-1.274665
 20
22.119307
 30
0.000000
 40
17.066564
 50
168.857516
 51
178.273703
  0
ARC
  8
0
 62
     3
  6
CONTINUOUS
 10
-4.972989
 20
22.123612
 30
0.000000
 40
13.370218
 50
177.814697
 51
184.340298
  0
ARC
  8
0
 62
     3
  6
CONTINUOUS
 10
-12.656847
 20
21.474989
 30
0.000000
 40
5.659685
 50
183.679752
 51
196.729984
  0
ARC
  8
0
 62
     3
  6
CONTINUOUS
 10
-9.267918
 20
22.936347
 30
0.000000
 40
9.335468
 50
199.332895
 51
209.020421
  0
ARC
  8
0
 62
     3
  6
CONTINUOUS
 10
-12.195951
 20
21.345164
 30
0.000000
 40
6.003212
 50
209.297643
 51
227.834241
  0
ARC
  8
0
 62
     3
  6
CONTINUOUS
 10
-16.202249
 20
16.923862
 30
0.000000
 40
0.036811
 50
230.279389
 51
369.121701
  0
ARC
  8
0
 62
     3
  6
CONTINUOUS
 10
-8.208926
 20
17.539488
 30
0.000000
 40
7.980309
 50
178.298967
 51
184.382350
  0
ARC
  8
0
 62
     3
  6
CONTINUOUS
 10
21.510924
 20
17.048126
 30
0.000000
 40
37.703676
 50
177.544528
 51
178.893255
  0
LINE
  8
0
 62
     3
  6
CONTINUOUS
 10
-16.153448
 20
18.782523
 30
0.000000
 11
-16.158133
 21
18.663463
 31
0.000000
  0
ARC
  8
0
 62
     3
  6
CONTINUOUS
 10
-23.187113
 20
18.672367
 30
0.000000
 40
7.034527
 50
0.897249
 51
11.602393
  0
ARC
  8
0
 62
     3
  6
CONTINUOUS
 10
-55.813338
 20
12.808455
 30
0.000000
 40
40.181759
 50
10.436406
 51
12.566372
  0
LINE
  8
0
 62
     3
  6
CONTINUOUS
 10
-16.637858
 20
21.752503
 30
0.000000
 11
-16.594148
 21
21.550818
 31
0.000000
  0
ARC
  8
0
 62
     3
  6
CONTINUOUS
 10
-6.894118
 20
23.977937
 30
0.000000
 40
9.994650
 50
184.388641
 51
192.865465
  0
ARC
  8
0
 62
     3
  6
CONTINUOUS
 10
-12.454244
 20
23.554355
 30
0.000000
 40
4.418415
 50
168.219809
 51
184.429205
  0
ARC
  8
0
 62
     3
  6
CONTINUOUS
 10
-13.376409
 20
23.700093
 30
0.000000
 40
3.486217
 50
147.490327
 51
167.470388
  0
ARC
  8
0
 62
     3
  6
CONTINUOUS
 10
-11.788108
 20
22.629944
 30
0.000000
 40
5.400996
 50
131.796168
 51
146.972226
  0
ARC
  8
0
 62
     3
  6
CONTINUOUS
 10
14.977384
 20
-6.386934
 30
0.000000
 40
44.876625
 50
130.920044
 51
132.581363
  0
ARC
  8
0
 62
     3
  6
CONTINUOUS
 10
-26.387906
 20
41.580126
 30
0.000000
 40
18.463646
 50
310.417164
 51
314.555074
  0
LINE
  8
0
 62
     3
  6
CONTINUOUS
 10
-13.322848
 20
28.535058
 30
0.000000
 11
-13.433913
 21
28.423368
 31
0.000000
  0
ARC
  8
0
 62
     3
  6
CONTINUOUS
 10
-3.347683
 20
18.826203
 30
0.000000
 40
13.919978
 50
132.327781
 51
135.775122
  0
ARC
  8
0
 62
     3
  6
CONTINUOUS
 10
-9.823883
 20
25.951372
 30
0.000000
 40
4.291433
 50
121.455198
 51
132.461270
  0
ARC
  8
0
 62
     3
  6
CONTINUOUS
 10
-10.979829
 20
27.934053
 30
0.000000
 40
1.997491
 50
75.466683
 51
122.847848
  0
ARC
  8
0
 62
     3
  6
CONTINUOUS
 10
-10.116649
 20
31.278143
 30
0.000000
 40
1.456208
 50
255.608945
 51
279.914639
  0
ARC
  8
0
 62
     3
  6
CONTINUOUS
 10
-10.272684
 20
32.064389
 30
0.000000
 40
2.257653
 50
280.379765
 51
297.170097
  0
ARC
  8
0
 62
     3
  6
CONTINUOUS
 10
-10.012509
 20
37.515204
 30
0.000000
 40
16.187871
 50
291.002150
 51
296.696407
  0
ARC
  8
0
 62
     3
  6
CONTINUOUS
 10
-2.746891
 20
23.069331
 30
0.000000
 40
0.017795
 50
293.137577
 51
429.996154
  0
ARC
  8
0
 62
     3
  6
CONTINUOUS
 10
-2.987579
 20
22.041424
 30
0.000000
 40
1.073382
 50
76.708541
 51
83.190173
  0
LINE
  8
0
 62
     3
  6
CONTINUOUS
 10
-2.860373
 20
23.107208
 30
0.000000
 11
-2.860303
 21
23.107233
 31
0.000000
  0
ARC
  8
0
 62
     3
  6
CONTINUOUS
 10
7.609865
 20
-3.753561
 30
0.000000
 40
28.829270
 50
111.295672
 51
113.546178
  0
ARC
  8
0
 62
     3
  6
CONTINUOUS
 10
3.472099
 20
-0.443624
 30
0.000000
 40
23.282136
 50
119.416170
 51
123.059417
  0
ARC
  8
0
 62
     3
  6
CONTINUOUS
 10
-6.044372
 20
13.975263
 30
0.000000
 40
6.007285
 50
122.008494
 51
132.529997
  0
ARC
  8
0
 62
     3
  6
CONTINUOUS
 10
-10.098248
 20
18.367582
 30
0.000000
 40
0.035273
 50
326.828785
 51
461.289128
  0
LINE
  8
0
 62
     3
  6
CONTINUOUS
 10
-9.604708
 20
18.605138
 30
0.000000
 11
-10.068723
 21
18.348283
 31
0.000000
  0
ARC
  8
0
 62
     3
  6
CONTINUOUS
 10
14.922361
 20
-24.907639
 30
0.000000
 40
49.949363
 50
117.068308
 51
119.408874
  0
ARC
  8
0
 62
     3
  6
CONTINUOUS
 10
-0.145515
 20
4.574003
 30
0.000000
 40
16.840330
 50
110.076149
 51
117.062465
  0
ARC
  8
0
 62
     3
  6
CONTINUOUS
 10
-6.195569
 20
20.583539
 30
0.000000
 40
0.331007
 50
324.445871
 51
357.703941
  0
ARC
  8
0
 62
     3
  6
CONTINUOUS
 10
-4.365434
 20
20.315545
 30
0.000000
 40
1.520879
 50
156.192227
 51
170.358073
  0
ARC
  8
0
 62
     3
  6
CONTINUOUS
 10
-5.773265
 20
20.939794
 30
0.000000
 40
0.019351
 50
327.783960
 51
469.025863
  0
ARC
  8
0
 62
     3
  6
CONTINUOUS
 10
4.107064
 20
-0.980467
 30
0.000000
 40
24.063370
 50
114.258770
 51
120.105338
  0
ARC
  8
0
 62
     3
  6
CONTINUOUS
 10
-6.338658
 20
19.230659
 30
0.000000
 40
0.024758
 50
293.835409
 51
462.468192
  0
ARC
  8
0
 62
     3
  6
CONTINUOUS
 10
-6.298506
 20
19.084292
 30
0.000000
 40
0.127340
 50
57.897839
 51
103.694608
  0
ARC
  8
0
 62
     3
  6
CONTINUOUS
 10
-6.273727
 20
19.178396
 30
0.000000
 40
0.045049
 50
272.561937
 51
377.793655
  0
ARC
  8
0
 62
     3
  6
CONTINUOUS
 10
26.178992
 20
-40.113369
 30
0.000000
 40
67.551662
 50
118.710453
 51
120.036263
  0
ARC
  8
0
 62
     3
  6
CONTINUOUS
 10
-41.377714
 20
76.716668
 30
0.000000
 40
67.404502
 50
298.677679
 51
300.040844
  0
ARC
  8
0
 62
     3
  6
CONTINUOUS
 10
-9.023290
 20
17.529518
 30
0.000000
 40
0.051606
 50
99.180678
 51
167.977183
  0
ARC
  8
0
 62
     3
  6
CONTINUOUS
 10
-9.050539
 20
17.623914
 30
0.000000
 40
0.086811
 50
254.482721
 51
300.999810
  0
ARC
  8
0
 62
     3
  6
CONTINUOUS
 10
-14.139299
 20
30.781751
 30
0.000000
 40
14.193129
 50
291.203837
 51
297.795617
  0
ARC
  8
0
 62
     3
  6
CONTINUOUS
 10
3.117987
 20
-2.584890
 30
0.000000
 40
23.372799
 50
114.893649
 51
117.076323
  0
ARC
  8
0
 62
     3
  6
CONTINUOUS
 10
-6.676909
 20
18.556957
 30
0.000000
 40
0.073648
 50
79.207343
 51
126.240448
  0
ARC
  8
0
 62
     3
  6
CONTINUOUS
 10
-6.716519
 20
18.642835
 30
0.000000
 40
0.055088
 50
286.781581
 51
345.780075
  0
ARC
  8
0
 62
     3
  6
CONTINUOUS
 10
10.437146
 20
-7.425685
 30
0.000000
 40
31.153226
 50
123.374689
 51
124.548325
  0
ARC
  8
0
 62
     3
  6
CONTINUOUS
 10
-21.022649
 20
38.146470
 30
0.000000
 40
24.223176
 50
302.561040
 51
304.708652
  0
ARC
  8
0
 62
     3
  6
CONTINUOUS
 10
-7.971382
 20
17.682926
 30
0.000000
 40
0.049925
 50
106.771233
 51
168.929634
  0
ARC
  8
0
 62
     3
  6
CONTINUOUS
 10
-7.999149
 20
17.739558
 30
0.000000
 40
0.051613
 50
245.712393
 51
306.396488
  0
ARC
  8
0
 62
     3
  6
CONTINUOUS
 10
-14.216726
 20
17.948539
 30
0.000000
 40
3.485580
 50
244.414531
 51
255.656106
  0
ARC
  8
0
 62
     3
  6
CONTINUOUS
 10
-15.167097
 20
16.018092
 30
0.000000
 40
1.334212
 50
223.089001
 51
245.423882
  0
ARC
  8
0
 62
     3
  6
CONTINUOUS
 10
-21.377793
 20
10.687893
 30
0.000000
 40
6.851608
 50
40.159845
 51
50.908666
  0
ARC
  8
0
 62
     3
  6
CONTINUOUS
 10
-19.452228
 20
13.075245
 30
0.000000
 40
3.784519
 50
50.744349
 51
70.188668
  0
ARC
  8
0
 62
     3
  6
CONTINUOUS
 10
-18.339503
 20
16.027775
 30
0.000000
 40
0.631301
 50
74.383976
 51
116.543699
  0
ARC
  8
0
 62
     3
  6
CONTINUOUS
 10
-17.987666
 20
15.351883
 30
0.000000
 40
1.393237
 50
117.066310
 51
136.164044
  0
ARC
  8
0
 62
     3
  6
CONTINUOUS
 10
-12.219429
 20
9.650477
 30
0.000000
 40
9.503511
 50
135.455553
 51
146.586239
  0
ARC
  8
0
 62
     3
  6
CONTINUOUS
 10
5.601194
 20
-2.157293
 30
0.000000
 40
30.881010
 50
146.507112
 51
150.021818
  0
ARC
  8
0
 62
     3
  6
CONTINUOUS
 10
-60.939418
 20
36.528226
 30
0.000000
 40
46.088258
 50
328.102832
 51
329.696546
  0
ARC
  8
0
 62
     3
  6
CONTINUOUS
 10
-21.781039
 20
12.141332
 30
0.000000
 40
0.045066
 50
130.972405
 51
212.673929
  0
ARC
  8
0
 62
     3
  6
CONTINUOUS
 10
-21.815639
 20
12.175578
 30
0.000000
 40
0.058670
 50
266.741749
 51
337.823744
  0
ARC
  8
0
 62
     3
  6
CONTINUOUS
 10
47.503676
 20
-40.096783
 30
0.000000
 40
86.762453
 50
141.477725
 51
142.970832
  0
ARC
  8
0
 62
     3
  6
CONTINUOUS
 10
-0.456183
 20
-1.929815
 30
0.000000
 40
25.469180
 50
139.050573
 51
141.455762
  0
ARC
  8
0
 62
     3
  6
CONTINUOUS
 10
-15.845793
 20
11.531345
 30
0.000000
 40
5.023892
 50
131.682278
 51
139.972339
  0
ARC
  8
0
 62
     3
  6
CONTINUOUS
 10
-19.085220
 20
15.206822
 30
0.000000
 40
0.127119
 50
85.821722
 51
142.952680
  0
ARC
  8
0
 62
     3
  6
CONTINUOUS
 10
-19.182281
 20
15.305087
 30
0.000000
 40
0.110080
 50
310.521254
 51
375.013658
  0
ARC
  8
0
 62
     3
  6
CONTINUOUS
 10
-85.347259
 20
58.919272
 30
0.000000
 40
79.352236
 50
325.787243
 51
326.586172
  0
ARC
  8
0
 62
     3
  6
CONTINUOUS
 10
61.640774
 20
-41.141110
 30
0.000000
 40
98.461065
 50
145.729705
 51
147.190269
  0
ARC
  8
0
 62
     3
  6
CONTINUOUS
 10
0.504099
 20
-1.683097
 30
0.000000
 40
25.696906
 50
147.271630
 51
149.840666
  0
ARC
  8
0
 62
     3
  6
CONTINUOUS
 10
-16.284181
 20
7.988343
 30
0.000000
 40
6.322648
 50
149.185413
 51
156.745483
  0
ARC
  8
0
 62
     3
  6
CONTINUOUS
 10
-22.025818
 20
10.440152
 30
0.000000
 40
0.080719
 50
146.565092
 51
214.130632
  0
ARC
  8
0
 62
     3
  6
CONTINUOUS
 10
-22.092092
 20
10.486368
 30
0.000000
 40
0.091507
 50
269.660965
 51
334.859811
  0
ARC
  8
0
 62
     3
  6
CONTINUOUS
 10
-42.780764
 20
27.268291
 30
0.000000
 40
26.728167
 50
320.999398
 51
323.119052
  0
ARC
  8
0
 62
     3
  6
CONTINUOUS
 10
31.247933
 20
-28.694865
 30
0.000000
 40
66.073602
 50
141.457014
 51
142.828200
  0
ARC
  8
0
 62
     3
  6
CONTINUOUS
 10
-8.189829
 20
2.853492
 30
0.000000
 40
15.570214
 50
136.322806
 51
141.830620
  0
ARC
  8
0
 62
     3
  6
CONTINUOUS
 10
-19.430856
 20
13.604263
 30
0.000000
 40
0.020101
 50
174.476694
 51
286.926396
  0
ARC
  8
0
 62
     3
  6
CONTINUOUS
 10
-46.203546
 20
29.695022
 30
0.000000
 40
31.250954
 50
326.129423
 51
328.968857
  0
ARC
  8
0
 62
     3
  6
CONTINUOUS
 10
18.124050
 20
-13.351504
 30
0.000000
 40
46.150927
 50
146.265377
 51
149.068834
  0
ARC
  8
0
 62
     3
  6
CONTINUOUS
 10
-10.374724
 20
3.627209
 30
0.000000
 40
12.978175
 50
148.695772
 51
158.496768
  0
ARC
  8
0
 62
     3
  6
CONTINUOUS
 10
-19.748569
 20
11.769301
 30
0.000000
 40
4.330468
 50
210.462918
 51
231.411534
  0
ARC
  8
0
 62
     3
  6
CONTINUOUS
 10
-18.094672
 20
12.735084
 30
0.000000
 40
6.245693
 50
195.844315
 51
210.407603
  0
ARC
  8
0
 62
     3
  6
CONTINUOUS
 10
-14.538238
 20
13.585609
 30
0.000000
 40
9.900401
 50
185.484650
 51
194.960094
  0
ARC
  8
0
 62
     3
  6
CONTINUOUS
 10
-16.669880
 20
13.571725
 30
0.000000
 40
7.779510
 50
170.876200
 51
186.883541
  0
ARC
  8
0
 62
     3
  6
CONTINUOUS
 10
-18.208167
 20
13.802779
 30
0.000000
 40
6.224067
 50
156.719781
 51
170.730827
  0
ARC
  8
0
 62
     3
  6
CONTINUOUS
 10
-23.910177
 20
16.258843
 30
0.000000
 40
0.015791
 50
356.350513
 51
525.833044
  0
ARC
  8
0
 62
     3
  6
CONTINUOUS
 10
-30.415682
 20
15.776780
 30
0.000000
 40
6.538982
 50
358.764939
 51
364.218926
  0
ARC
  8
0
 62
     3
  6
CONTINUOUS
 10
-17.258784
 20
15.491186
 30
0.000000
 40
6.621014
 50
178.748141
 51
184.441711
  0
ARC
  8
0
 62
     3
  6
CONTINUOUS
 10
-23.731232
 20
14.964969
 30
0.000000
 40
0.129383
 50
174.031512
 51
239.641423
  0
ARC
  8
0
 62
     3
  6
CONTINUOUS
 10
-23.790951
 20
14.903379
 30
0.000000
 40
0.050372
 50
263.534668
 51
325.692431
  0
ARC
  8
0
 62
     3
  6
CONTINUOUS
 10
-23.941490
 20
15.022997
 30
0.000000
 40
0.242543
 50
322.393070
 51
345.939565
  0
ARC
  8
0
 62
     3
  6
CONTINUOUS
 10
-32.968106
 20
17.778776
 30
0.000000
 40
9.680145
 50
343.095894
 51
351.304243
  0
ARC
  8
0
 62
     3
  6
CONTINUOUS
 10
-28.958293
 20
17.195228
 30
0.000000
 40
5.628276
 50
351.005009
 51
366.169430
  0
ARC
  8
0
 62
     3
  6
CONTINUOUS
 10
-18.265469
 20
18.264055
 30
0.000000
 40
5.118216
 50
176.654552
 51
185.200952
  0
ARC
  8
0
 62
     3
  6
CONTINUOUS
 10
-11.002051
 20
18.007374
 30
0.000000
 40
12.385370
 50
172.461861
 51
177.430002
  0
ARC
  8
0
 62
     3
  6
CONTINUOUS
 10
-12.892900
 20
18.308353
 30
0.000000
 40
10.471498
 50
166.478410
 51
172.737220
  0
ARC
  8
0
 62
     3
  6
CONTINUOUS
 10
-18.763303
 20
19.778082
 30
0.000000
 40
4.420532
 50
154.449406
 51
167.209725
  0
ARC
  8
0
 62
     3
  6
CONTINUOUS
 10
-49.711070
 20
35.367733
 30
0.000000
 40
30.233136
 50
333.090394
 51
335.465563
  0
ARC
  8
0
 62
     3
  6
CONTINUOUS
 10
-3.470800
 20
14.322622
 30
0.000000
 40
20.571036
 50
152.880617
 51
155.621058
  0
ARC
  8
0
 62
     3
  6
CONTINUOUS
 10
-15.708085
 20
20.568138
 30
0.000000
 40
6.832169
 50
144.745211
 51
152.717566
  0
ARC
  8
0
 62
     3
  6
CONTINUOUS
 10
-15.905681
 20
20.650324
 30
0.000000
 40
6.623540
 50
135.002345
 51
144.339138
  0
ARC
  8
0
 62
     3
  6
CONTINUOUS
 10
-12.665861
 20
17.375634
 30
0.000000
 40
11.230021
 50
127.793788
 51
134.875583
  0
ARC
  8
0
 62
     3
  6
CONTINUOUS
 10
-18.332760
 20
24.792113
 30
0.000000
 40
1.897742
 50
113.796498
 51
129.813189
  0
ARC
  8
0
 62
     3
  6
CONTINUOUS
 10
-18.904805
 20
26.132079
 30
0.000000
 40
0.441217
 50
75.002549
 51
116.037067
  0
ARC
  8
0
 62
     3
  6
CONTINUOUS
 10
-18.906421
 20
26.269090
 30
0.000000
 40
0.311499
 50
18.511187
 51
68.177804
  0
ARC
  8
0
 62
     3
  6
CONTINUOUS
 10
-19.641487
 20
25.997269
 30
0.000000
 40
1.095106
 50
359.441389
 51
379.786904
  0
ARC
  8
0
 62
     3
  6
CONTINUOUS
 10
-20.796907
 20
25.839887
 30
0.000000
 40
2.255251
 50
333.476246
 51
363.729760
  0
ARC
  8
0
 62
     3
  6
CONTINUOUS
 10
-15.445374
 20
23.274368
 30
0.000000
 40
3.679920
 50
154.945127
 51
172.020378
  0
ARC
  8
0
 62
     3
  6
CONTINUOUS
 10
-6.127684
 20
21.580938
 30
0.000000
 40
13.148071
 50
170.348762
 51
176.748870
  0
ARC
  8
0
 62
     3
  6
CONTINUOUS
 10
-3.838272
 20
21.343148
 30
0.000000
 40
15.447658
 50
176.349889
 51
181.677665
  0
ARC
  8
0
 62
     3
  6
CONTINUOUS
 10
-14.694958
 20
20.910454
 30
0.000000
 40
4.584392
 50
180.244479
 51
192.578195
  0
ARC
  8
0
 62
     3
  6
CONTINUOUS
 10
-13.083994
 20
21.759706
 30
0.000000
 40
6.359628
 50
196.889128
 51
209.571993
  0
ARC
  8
0
 62
     3
  6
CONTINUOUS
 10
-10.417099
 20
23.200631
 30
0.000000
 40
9.390456
 50
209.188008
 51
217.988208
  0
ARC
  8
0
 62
     3
  6
CONTINUOUS
 10
-11.431481
 20
22.343131
 30
0.000000
 40
8.063356
 50
217.622431
 51
226.698835
  0
ARC
  8
0
 62
     3
  6
CONTINUOUS
 10
-14.929729
 20
18.522579
 30
0.000000
 40
2.884660
 50
225.221299
 51
243.220455
  0
ARC
  8
0
 62
     3
  6
CONTINUOUS
 10
-10.055936
 20
30.375730
 30
0.000000
 40
15.693677
 50
246.835325
 51
248.737730
  0
ARC
  8
0
 62
     3
  6
CONTINUOUS
 10
-17.304692
 20
11.364264
 30
0.000000
 40
4.654429
 50
60.711813
 51
70.448296
  0
ARC
  8
0
 62
     3
  6
CONTINUOUS
 10
-12.432136
 20
19.489444
 30
0.000000
 40
4.823615
 50
237.445457
 51
246.443373
  0
ARC
  8
0
 62
     3
  6
CONTINUOUS
 10
-13.661903
 20
16.663032
 30
0.000000
 40
1.741259
 50
246.367547
 51
258.203717
  0
ARC
  8
0
 62
     3
  6
CONTINUOUS
 10
-13.906346
 20
15.397279
 30
0.000000
 40
0.452684
 50
255.737315
 51
289.489784
  0
ARC
  8
0
 62
     3
  6
CONTINUOUS
 10
-13.590731
 20
14.589118
 30
0.000000
 40
0.415409
 50
77.419197
 51
113.340396
  0
ARC
  8
0
 62
     3
  6
CONTINUOUS
 10
-13.811673
 20
13.602685
 30
0.000000
 40
1.426282
 50
66.598028
 51
77.388011
  0
ARC
  8
0
 62
     3
  6
CONTINUOUS
 10
-11.352380
 20
19.669464
 30
0.000000
 40
5.120504
 50
248.305865
 51
249.155213
  0
ARC
  8
0
 62
     3
  6
CONTINUOUS
 10
-12.881242
 20
15.783883
 30
0.000000
 40
0.946343
 50
251.950961
 51
281.410014
  0
ARC
  8
0
 62
     3
  6
CONTINUOUS
 10
-13.076550
 20
16.964630
 30
0.000000
 40
2.142807
 50
280.283233
 51
297.778697
  0
ARC
  8
0
 62
     3
  6
CONTINUOUS
 10
-11.407685
 20
13.872883
 30
0.000000
 40
1.370880
 50
99.167437
 51
119.266902
  0
ARC
  8
0
 62
     3
  6
CONTINUOUS
 10
-12.010030
 20
22.650960
 30
0.000000
 40
7.434627
 50
272.960166
 51
311.446758
  0
ARC
  8
0
 62
     3
  6
CONTINUOUS
 10
-11.052503
 20
30.747926
 30
0.000000
 40
14.232793
 50
286.169851
 51
295.839761
  0
ARC
  8
0
 62
     3
  6
CONTINUOUS
 10
-8.968652
 20
26.490795
 30
0.000000
 40
9.493067
 50
295.719018
 51
310.034857
  0
ARC
  8
0
 62
     3
  6
CONTINUOUS
 10
-1.150759
 20
17.339511
 30
0.000000
 40
2.544466
 50
114.928881
 51
132.269172
  0
ARC
  8
0
 62
     3
  6
CONTINUOUS
 10
-0.005910
 20
14.217920
 30
0.000000
 40
5.864340
 50
102.816963
 51
112.216219
  0
ARC
  8
0
 62
     3
  6
CONTINUOUS
 10
-3.685969
 20
27.872494
 30
0.000000
 40
8.285284
 50
286.687489
 51
298.025774
  0
ARC
  8
0
 62
     3
  6
CONTINUOUS
 10
-3.101952
 20
27.300349
 30
0.000000
 40
7.509873
 50
296.143264
 51
310.412531
  0
ARC
  8
0
 62
     3
  6
CONTINUOUS
 10
7.105293
 20
15.378021
 30
0.000000
 40
8.185076
 50
125.132684
 51
130.711274
  0
ARC
  8
0
 62
     3
  6
CONTINUOUS
 10
-4.457004
 20
31.885545
 30
0.000000
 40
11.968990
 50
304.923396
 51
315.670617
  0
ARC
  8
0
 62
     3
  6
CONTINUOUS
 10
-0.249538
 20
27.729025
 30
0.000000
 40
6.054833
 50
315.984779
 51
342.637827
  0
ARC
  8
0
 62
     3
  6
CONTINUOUS
 10
-2.951732
 20
28.167972
 30
0.000000
 40
8.773453
 50
345.168700
 51
351.919627
  0
ARC
  8
0
 62
     3
  6
CONTINUOUS
 10
-23.478818
 20
31.498778
 30
0.000000
 40
29.567805
 50
351.120448
 51
353.948883
  0
ARC
  8
0
 62
     3
  6
CONTINUOUS
 10
-16.124216
 20
30.823309
 30
0.000000
 40
22.183218
 50
353.681338
 51
357.294339
  0
ARC
  8
0
 62
     3
  6
CONTINUOUS
 10
2.674502
 20
30.071683
 30
0.000000
 40
3.372743
 50
354.973030
 51
369.532666
  0
ARC
  8
0
 62
     3
  6
CONTINUOUS
 10
4.320757
 20
30.092356
 30
0.000000
 40
1.763926
 50
17.754393
 51
52.605785
  0
ARC
  8
0
 62
     3
  6
CONTINUOUS
 10
1.524200
 20
26.419894
 30
0.000000
 40
6.379951
 50
52.681879
 51
62.957518
  0
ARC
  8
0
 62
     3
  6
CONTINUOUS
 10
7.757629
 20
38.561363
 30
0.000000
 40
7.268191
 50
233.279710
 51
242.706879
  0
ARC
  8
0
 62
     3
  6
CONTINUOUS
 10
4.083557
 20
33.545262
 30
0.000000
 40
1.052100
 50
173.370400
 51
230.328491
  0
ARC
  8
0
 62
     3
  6
CONTINUOUS
 10
3.870575
 20
33.624011
 30
0.000000
 40
0.833179
 50
108.877965
 51
177.061170
  0
ARC
  8
0
 62
     3
  6
CONTINUOUS
 10
4.815082
 20
30.397649
 30
0.000000
 40
4.194283
 50
83.376540
 51
106.825746
  0
ARC
  8
0
 62
     3
  6
CONTINUOUS
 10
4.927941
 20
31.017373
 30
0.000000
 40
3.565909
 50
57.148594
 51
84.029295
  0
ARC
  8
0
 62
     3
  6
CONTINUOUS
 10
11.988425
 20
41.283741
 30
0.000000
 40
8.896088
 50
234.814812
 51
246.609610
  0
ARC
  8
0
 62
     3
  6
CONTINUOUS
 10
5.066481
 20
25.526542
 30
0.000000
 40
8.314746
 50
60.649854
 51
65.937087
  0
ARC
  8
0
 62
     3
  6
CONTINUOUS
 10
8.768992
 20
32.002524
 30
0.000000
 40
0.856894
 50
30.613122
 51
64.201649
  0
LINE
  8
0
 62
     3
  6
CONTINUOUS
 10
9.506457
 20
32.438888
 30
0.000000
 11
9.452632
 21
32.408228
 31
0.000000
  0
ARC
  8
0
 62
     3
  6
CONTINUOUS
 10
10.412867
 20
30.444938
 30
0.000000
 40
2.185534
 50
116.063040
 51
135.585629
  0
ARC
  8
0
 62
     3
  6
CONTINUOUS
 10
8.952873
 20
31.844472
 30
0.000000
 40
0.164698
 50
127.880148
 51
174.120791
  0
ARC
  8
0
 62
     3
  6
CONTINUOUS
 10
8.811730
 20
32.024171
 30
0.000000
 40
0.164401
 50
262.067365
 51
311.684360
  0
ARC
  8
0
 62
     3
  6
CONTINUOUS
 10
7.329826
 20
34.826965
 30
0.000000
 40
3.330316
 50
298.542029
 51
302.760126
  0
ARC
  8
0
 62
     3
  6
CONTINUOUS
 10
10.298459
 20
30.295075
 30
0.000000
 40
2.087610
 50
113.451816
 51
123.971718
  0
ARC
  8
0
 62
     3
  6
CONTINUOUS
 10
9.602048
 20
31.889977
 30
0.000000
 40
0.347323
 50
88.871781
 51
112.767450
  0
ARC
  8
0
 62
     3
  6
CONTINUOUS
 10
9.603481
 20
32.096320
 30
0.000000
 40
0.141016
 50
38.307107
 51
87.803198
  0
ARC
  8
0
 62
     3
  6
CONTINUOUS
 10
9.087641
 20
31.830273
 30
0.000000
 40
0.719327
 50
1.230723
 51
29.431066
  0
ARC
  8
0
 62
     3
  6
CONTINUOUS
 10
9.238976
 20
31.750867
 30
0.000000
 40
0.575694
 50
337.133197
 51
369.483759
  0
ARC
  8
0
 62
     3
  6
CONTINUOUS
 10
8.427611
 20
33.057328
 30
0.000000
 40
2.035163
 50
297.501322
 51
311.247718
  0
ARC
  8
0
 62
     3
  6
CONTINUOUS
 10
13.389137
 20
24.381493
 30
0.000000
 40
7.961170
 50
120.342688
 51
125.223779
  0
ARC
  8
0
 62
     3
  6
CONTINUOUS
 10
9.791166
 20
29.402948
 30
0.000000
 40
1.784427
 50
123.843898
 51
144.108463
  0
ARC
  8
0
 62
     3
  6
CONTINUOUS
 10
8.413518
 20
30.380949
 30
0.000000
 40
0.096230
 50
134.933447
 51
191.743592
  0
ARC
  8
0
 62
     3
  6
CONTINUOUS
 10
8.341407
 20
30.436148
 30
0.000000
 40
0.077983
 50
253.533382
 51
323.583453
  0
ARC
  8
0
 62
     3
  6
CONTINUOUS
 10
11.060880
 20
26.677869
 30
0.000000
 40
4.564753
 50
105.301335
 51
125.591823
  0
LINE
  8
0
 62
     3
  6
CONTINUOUS
 10
9.856262
 20
31.080808
 30
0.000000
 11
9.865887
 21
31.017468
 31
0.000000
  0
ARC
  8
0
 62
     3
  6
CONTINUOUS
 10
6.120630
 20
30.330313
 30
0.000000
 40
3.807772
 50
0.455850
 51
10.396617
  0
ARC
  8
0
 62
     3
  6
CONTINUOUS
 10
12.133496
 20
25.491023
 30
0.000000
 40
5.345636
 50
114.363618
 51
126.512910
  0
ARC
  8
0
 62
     3
  6
CONTINUOUS
 10
18.366903
 20
17.087351
 30
0.000000
 40
15.808763
 50
126.548118
 51
130.624856
  0
LINE
  8
0
 62
     3
  6
CONTINUOUS
 10
8.073762
 20
29.086028
 30
0.000000
 11
7.881872
 21
28.925708
 31
0.000000
  0
ARC
  8
0
 62
     3
  6
CONTINUOUS
 10
7.926605
 20
28.834988
 30
0.000000
 40
0.101149
 50
116.247903
 51
177.940793
  0
ARC
  8
0
 62
     3
  6
CONTINUOUS
 10
7.868346
 20
28.934278
 30
0.000000
 40
0.104804
 50
245.882313
 51
312.349461
  0
ARC
  8
0
 62
     3
  6
CONTINUOUS
 10
1.925393
 20
40.811208
 30
0.000000
 40
13.381710
 50
296.704299
 51
300.406660
  0
ARC
  8
0
 62
     3
  6
CONTINUOUS
 10
18.689635
 20
12.022881
 30
0.000000
 40
19.932192
 50
117.700057
 51
120.083705
  0
ARC
  8
0
 62
     3
  6
CONTINUOUS
 10
10.597393
 20
27.592565
 30
0.000000
 40
2.386385
 50
105.000730
 51
119.444407
  0
ARC
  8
0
 62
     3
  6
CONTINUOUS
 10
-1.758600
 20
29.980490
 30
0.000000
 40
11.738614
 50
358.398994
 51
359.595548
  0
ARC
  8
0
 62
     3
  6
CONTINUOUS
 10
18.436749
 20
29.407141
 30
0.000000
 40
8.464875
 50
178.338861
 51
179.691943
  0
ARC
  8
0
 62
     3
  6
CONTINUOUS
 10
23.968177
 20
6.998175
 30
0.000000
 40
26.459339
 50
121.935847
 51
126.504237
  0
ARC
  8
0
 62
     3
  6
CONTINUOUS
 10
17.567189
 20
15.574096
 30
0.000000
 40
15.758129
 50
126.345950
 51
134.088247
  0
ARC
  8
0
 62
     3
  6
CONTINUOUS
 10
6.656871
 20
26.793227
 30
0.000000
 40
0.112992
 50
118.343806
 51
177.942858
  0
ARC
  8
0
 62
     3
  6
CONTINUOUS
 10
6.569908
 20
26.946262
 30
0.000000
 40
0.151224
 50
260.116753
 51
308.560481
  0
LINE
  8
0
 62
     3
  6
CONTINUOUS
 10
6.664172
 20
26.828013
 30
0.000000
 11
8.202367
 21
27.592023
 31
0.000000
  0
LINE
  8
0
 62
     3
  6
CONTINUOUS
 10
8.202367
 20
27.592023
 30
0.000000
 11
9.252062
 21
28.114708
 31
0.000000
  0
ARC
  8
0
 62
     3
  6
CONTINUOUS
 10
9.282059
 20
28.079358
 30
0.000000
 40
0.046362
 50
69.761474
 51
130.317671
  0
ARC
  8
0
 62
     3
  6
CONTINUOUS
 10
9.259497
 20
28.122609
 30
0.000000
 40
0.038600
 50
291.042165
 51
360.368889
  0
ARC
  8
0
 62
     3
  6
CONTINUOUS
 10
-6.878457
 20
49.233047
 30
0.000000
 40
26.609285
 50
303.716760
 51
307.372837
  0
ARC
  8
0
 62
     3
  6
CONTINUOUS
 10
20.540922
 20
7.941737
 30
0.000000
 40
22.956927
 50
123.434516
 51
129.025704
  0
ARC
  8
0
 62
     3
  6
CONTINUOUS
 10
6.075733
 20
25.789806
 30
0.000000
 40
0.016891
 50
148.238116
 51
305.979648
  0
ARC
  8
0
 62
     3
  6
CONTINUOUS
 10
2.832102
 20
26.581309
 30
0.000000
 40
3.322750
 50
346.377067
 51
361.919542
  0
ARC
  8
0
 62
     3
  6
CONTINUOUS
 10
10.829027
 20
26.738228
 30
0.000000
 40
4.676263
 50
173.798196
 51
180.558970
  0
ARC
  8
0
 62
     3
  6
CONTINUOUS
 10
7.670865
 20
27.077986
 30
0.000000
 40
1.499883
 50
152.935061
 51
173.667976
  0
ARC
  8
0
 62
     3
  6
CONTINUOUS
 10
6.313187
 20
27.790741
 30
0.000000
 40
0.037478
 50
151.336488
 51
306.030770
  0
ARC
  8
0
 62
     3
  6
CONTINUOUS
 10
8.356172
 20
26.733033
 30
0.000000
 40
2.338020
 50
152.607478
 51
170.748984
  0
ARC
  8
0
 62
     3
  6
CONTINUOUS
 10
23.836332
 20
23.596507
 30
0.000000
 40
18.131234
 50
168.830031
 51
172.054195
  0
ARC
  8
0
 62
     3
  6
CONTINUOUS
 10
0.820681
 20
26.719631
 30
0.000000
 40
5.095947
 50
340.670103
 51
353.048836
  0
ARC
  8
0
 62
     3
  6
CONTINUOUS
 10
3.797663
 20
25.688034
 30
0.000000
 40
1.945354
 50
308.564475
 51
340.317930
  0
ARC
  8
0
 62
     3
  6
CONTINUOUS
 10
1.117479
 20
25.243450
 30
0.000000
 40
4.039009
 50
331.614315
 51
344.542327
  0
ARC
  8
0
 62
     3
  6
CONTINUOUS
 10
4.945173
 20
22.186756
 30
0.000000
 40
1.169166
 50
103.569048
 51
133.232080
  0
ARC
  8
0
 62
     3
  6
CONTINUOUS
 10
6.872068
 20
20.136862
 30
0.000000
 40
3.982525
 50
133.229518
 51
142.278920
  0
LINE
  8
0
 62
     3
  6
CONTINUOUS
 10
3.721897
 20
22.573443
 30
0.000000
 11
3.686282
 21
22.529943
 31
0.000000
  0
LINE
  8
0
 62
     3
  6
CONTINUOUS
 10
3.686282
 20
22.529943
 30
0.000000
 11
3.617852
 21
22.446303
 31
0.000000
  0
ARC
  8
0
 62
     3
  6
CONTINUOUS
 10
-0.085316
 20
25.292577
 30
0.000000
 40
4.670624
 50
313.804537
 51
322.453925
  0
ARC
  8
0
 62
     3
  6
CONTINUOUS
 10
1.686959
 20
23.572827
 30
0.000000
 40
2.204485
 50
292.988337
 51
311.499889
  0
LINE
  8
0
 62
     3
  6
CONTINUOUS
 10
2.547907
 20
21.543413
 30
0.000000
 11
2.503427
 21
21.523398
 31
0.000000
  0
ARC
  8
0
 62
     3
  6
CONTINUOUS
 10
3.302149
 20
19.468078
 30
0.000000
 40
2.205061
 50
111.236746
 51
127.766960
  0
ARC
  8
0
 62
     3
  6
CONTINUOUS
 10
2.461712
 20
20.614274
 30
0.000000
 40
0.785159
 50
130.512994
 51
178.268541
  0
ARC
  8
0
 62
     3
  6
CONTINUOUS
 10
-1.334968
 20
25.172643
 30
0.000000
 40
5.443751
 50
296.226589
 51
303.591831
  0
ARC
  8
0
 62
     3
  6
CONTINUOUS
 10
-17.859669
 20
57.561043
 30
0.000000
 40
41.803623
 50
295.587266
 51
296.926139
  0
ARC
  8
0
 62
     3
  6
CONTINUOUS
 10
12.387009
 20
-6.172177
 30
0.000000
 40
28.743327
 50
115.098688
 51
119.509002
  0
LINE
  8
0
 62
     3
  6
CONTINUOUS
 10
-1.770813
 20
18.842518
 30
0.000000
 11
-1.855403
 21
18.792613
 31
0.000000
  0
ARC
  8
0
 62
     3
  6
CONTINUOUS
 10
-26.228366
 20
59.781656
 30
0.000000
 40
47.687975
 50
298.505137
 51
300.736623
  0
ARC
  8
0
 62
     3
  6
CONTINUOUS
 10
-13.187964
 20
35.761729
 30
0.000000
 40
20.356511
 50
295.293511
 51
298.515384
  0
ARC
  8
0
 62
     3
  6
CONTINUOUS
 10
-6.962413
 20
22.409089
 30
0.000000
 40
5.624592
 50
286.876511
 51
296.070527
  0
ARC
  8
0
 62
     3
  6
CONTINUOUS
 10
-2.842233
 20
7.943880
 30
0.000000
 40
9.417266
 50
105.314777
 51
113.357863
  0
ARC
  8
0
 62
     3
  6
CONTINUOUS
 10
4.271518
 20
-8.481370
 30
0.000000
 40
27.316824
 50
113.396851
 51
116.137750
  0
ARC
  8
0
 62
     3
  6
CONTINUOUS
 10
-20.228688
 20
41.482629
 30
0.000000
 40
28.330832
 50
293.557134
 51
296.105545
  0
ARC
  8
0
 62
     3
  6
CONTINUOUS
 10
-12.792723
 20
24.441289
 30
0.000000
 40
9.737801
 50
286.031970
 51
293.524962
  0
ARC
  8
0
 62
     3
  6
CONTINUOUS
 10
-11.736269
 20
17.299734
 30
0.000000
 40
2.753846
 50
290.969827
 51
306.366064
  0
ARC
  8
0
 62
     3
  6
CONTINUOUS
 10
-12.508944
 20
19.246186
 30
0.000000
 40
4.847969
 50
281.345199
 51
291.264234
  0
ARC
  8
0
 62
     3
  6
CONTINUOUS
 10
-13.118513
 20
22.436154
 30
0.000000
 40
8.095574
 50
268.128784
 51
281.133784
  0
ARC
  8
0
 62
     3
  6
CONTINUOUS
 10
-13.239768
 20
21.883483
 30
0.000000
 40
7.539943
 50
255.871500
 51
268.912593
  0
ARC
  8
0
 62
     2
  6
CONTINUOUS
 10
-23.872937
 20
10.045964
 30
0.000000
 40
18.693999
 50
308.349538
 51
313.538732
  0
ARC
  8
0
 62
     2
  6
CONTINUOUS
 10
-14.533406
 20
0.375118
 30
0.000000
 40
5.251154
 50
312.353735
 51
326.274133
  0
ARC
  8
0
 62
     2
  6
CONTINUOUS
 10
-31.911569
 20
10.460223
 30
0.000000
 40
25.335480
 50
329.126783
 51
329.768495
  0
ARC
  8
0
 62
     2
  6
CONTINUOUS
 10
-3.089536
 20
-6.173080
 30
0.000000
 40
7.942733
 50
143.893629
 51
150.782861
  0
ARC
  8
0
 62
     2
  6
CONTINUOUS
 10
-10.234338
 20
-0.935490
 30
0.000000
 40
0.916412
 50
322.565336
 51
333.551972
  0
ARC
  8
0
 62
     2
  6
CONTINUOUS
 10
-9.547530
 20
-1.268502
 30
0.000000
 40
0.153363
 50
330.660547
 51
368.984266
  0
ARC
  8
0
 62
     2
  6
CONTINUOUS
 10
-9.494212
 20
-1.275515
 30
0.000000
 40
0.102931
 50
17.506310
 51
67.063403
  0
ARC
  8
0
 62
     2
  6
CONTINUOUS
 10
-9.686119
 20
-1.673804
 30
0.000000
 40
0.544943
 50
64.800580
 51
79.711929
  0
ARC
  8
0
 62
     2
  6
CONTINUOUS
 10
-10.048502
 20
-3.572138
 30
0.000000
 40
2.477539
 50
79.306763
 51
98.623427
  0
ARC
  8
0
 62
     2
  6
CONTINUOUS
 10
-9.614160
 20
-6.826875
 30
0.000000
 40
5.760904
 50
98.040787
 51
108.267250
  0
ARC
  8
0
 62
     2
  6
CONTINUOUS
 10
-6.605227
 20
-15.578684
 30
0.000000
 40
15.015246
 50
108.702429
 51
118.213336
  0
ARC
  8
0
 62
     2
  6
CONTINUOUS
 10
2.771805
 20
-33.639361
 30
0.000000
 40
35.364315
 50
117.767283
 51
122.052507
  0
ARC
  8
0
 62
     2
  6
CONTINUOUS
 10
19.447201
 20
-60.461956
 30
0.000000
 40
66.947777
 50
121.965884
 51
123.857977
  0
ARC
  8
0
 62
     2
  6
CONTINUOUS
 10
-18.177133
 20
-4.404567
 30
0.000000
 40
0.565479
 50
292.246876
 51
305.118687
  0
ARC
  8
0
 62
     2
  6
CONTINUOUS
 10
-17.991252
 20
-4.883736
 30
0.000000
 40
0.052448
 50
242.938607
 51
302.537018
  0
ARC
  8
0
 62
     2
  6
CONTINUOUS
 10
-17.975115
 20
-4.915127
 30
0.000000
 40
0.042830
 50
133.409257
 51
200.952344
  0
ARC
  8
0
 62
     2
  6
CONTINUOUS
 10
-17.616162
 20
-5.153625
 30
0.000000
 40
0.472795
 50
131.240501
 51
145.232140
  0
ARC
  8
0
 62
     2
  6
CONTINUOUS
 10
0.519313
 20
-25.092538
 30
0.000000
 40
27.425559
 50
123.682718
 51
132.270085
  0
ARC
  8
0
 62
     2
  6
CONTINUOUS
 10
-1.417901
 20
-21.999903
 30
0.000000
 40
23.777969
 50
118.658947
 51
123.931291
  0
ARC
  8
0
 62
     2
  6
CONTINUOUS
 10
-6.019051
 20
-13.467918
 30
0.000000
 40
14.084654
 50
110.724902
 51
118.880377
  0
ARC
  8
0
 62
     2
  6
CONTINUOUS
 10
-11.183044
 20
0.247713
 30
0.000000
 40
0.571382
 50
288.330163
 51
300.824294
  0
ARC
  8
0
 62
     2
  6
CONTINUOUS
 10
-10.907630
 20
-0.199149
 30
0.000000
 40
0.047125
 50
291.624518
 51
362.307040
  0
ARC
  8
0
 62
     2
  6
CONTINUOUS
 10
-11.103514
 20
-0.391967
 30
0.000000
 40
0.311366
 50
38.708321
 51
76.321275
  0
ARC
  8
0
 62
     2
  6
CONTINUOUS
 10
-13.049837
 20
-4.226090
 30
0.000000
 40
4.603493
 50
63.973485
 51
76.486124
  0
ARC
  8
0
 62
     2
  6
CONTINUOUS
 10
-12.265474
 20
-1.339596
 30
0.000000
 40
1.616030
 50
79.612208
 51
110.892974
  0
ARC
  8
0
 62
     2
  6
CONTINUOUS
 10
-6.302003
 20
-18.623459
 30
0.000000
 40
19.898985
 50
109.186809
 51
110.660207
  0
ARC
  8
0
 62
     2
  6
CONTINUOUS
 10
-17.939434
 20
12.010648
 30
0.000000
 40
12.871251
 50
287.395410
 51
291.018722
  0
ARC
  8
0
 62
     2
  6
CONTINUOUS
 10
-15.273230
 20
3.475281
 30
0.000000
 40
3.929163
 50
275.934792
 51
287.504888
  0
ARC
  8
0
 62
     2
  6
CONTINUOUS
 10
-14.447285
 20
-5.187628
 30
0.000000
 40
4.773291
 50
95.044145
 51
125.405529
  0
ARC
  8
0
 62
     2
  6
CONTINUOUS
 10
-13.505508
 20
-8.362536
 30
0.000000
 40
7.979011
 50
117.685814
 51
129.046504
  0
ARC
  8
0
 62
     2
  6
CONTINUOUS
 10
-8.859951
 20
-14.270729
 30
0.000000
 40
15.494412
 50
128.625057
 51
135.188670
  0
ARC
  8
0
 62
     2
  6
CONTINUOUS
 10
-7.506512
 20
-15.826677
 30
0.000000
 40
17.551817
 50
134.699109
 51
145.252402
  0
LINE
  8
0
 62
     2
  6
CONTINUOUS
 10
-22.305198
 20
-6.393892
 30
0.000000
 11
-21.928328
 21
-5.822802
 31
0.000000
  0
ARC
  8
0
 62
     2
  6
CONTINUOUS
 10
-82.329899
 20
32.806725
 30
0.000000
 40
71.691374
 50
326.255211
 51
326.852461
  0
ARC
  8
0
 62
     2
  6
CONTINUOUS
 10
-37.248968
 20
3.181634
 30
0.000000
 40
17.753790
 50
322.850121
 51
324.937234
  0
ARC
  8
0
 62
     2
  6
CONTINUOUS
 10
-15.477901
 20
-13.490110
 30
0.000000
 40
9.668150
 50
142.015900
 51
149.309253
  0
ARC
  8
0
 62
     2
  6
CONTINUOUS
 10
-19.776991
 20
-10.863109
 30
0.000000
 40
4.630834
 50
150.110733
 51
167.319079
  0
ARC
  8
0
 62
     2
  6
CONTINUOUS
 10
-24.117675
 20
-9.928874
 30
0.000000
 40
0.195387
 50
155.078406
 51
203.579315
  0
ARC
  8
0
 62
     2
  6
CONTINUOUS
 10
-24.276018
 20
-9.967845
 30
0.000000
 40
0.044333
 50
242.120932
 51
305.365389
  0
ARC
  8
0
 62
     2
  6
CONTINUOUS
 10
-24.440858
 20
-9.642460
 30
0.000000
 40
0.408656
 50
297.785410
 51
311.323531
  0
ARC
  8
0
 62
     2
  6
CONTINUOUS
 10
-7.320693
 20
-33.557771
 30
0.000000
 40
29.005011
 50
121.245810
 51
125.517059
  0
ARC
  8
0
 62
     2
  6
CONTINUOUS
 10
-10.773093
 20
-26.875376
 30
0.000000
 40
21.507259
 50
117.683986
 51
122.616849
  0
ARC
  8
0
 62
     2
  6
CONTINUOUS
 10
-19.141424
 20
-11.668789
 30
0.000000
 40
4.167929
 50
96.482383
 51
112.929606
  0
ARC
  8
0
 62
     2
  6
CONTINUOUS
 10
-18.057458
 20
-21.074748
 30
0.000000
 40
13.636137
 50
91.364525
 51
96.545930
  0
ARC
  8
0
 62
     2
  6
CONTINUOUS
 10
-18.805852
 20
8.196052
 30
0.000000
 40
15.644267
 50
271.551859
 51
275.722302
  0
ARC
  8
0
 62
     2
  6
CONTINUOUS
 10
-17.644770
 20
-2.637895
 30
0.000000
 40
4.749133
 50
274.816514
 51
290.739240
  0
ARC
  8
0
 62
     2
  6
CONTINUOUS
 10
-18.444133
 20
-1.396816
 30
0.000000
 40
6.200518
 50
293.587225
 51
303.792645
  0
LINE
  8
0
 62
     2
  6
CONTINUOUS
 10
-14.871988
 20
-6.473072
 30
0.000000
 11
-14.995473
 21
-6.549792
 31
0.000000
  0
ARC
  8
0
 62
     2
  6
CONTINUOUS
 10
-30.590999
 20
18.245113
 30
0.000000
 40
29.292934
 50
302.453463
 51
308.704258
  0
ARC
  8
0
 62
     2
  6
CONTINUOUS
 10
-5.020551
 20
-5.342660
 30
0.000000
 40
1.520352
 50
276.864990
 51
299.418011
  0
ARC
  8
0
 62
     2
  6
CONTINUOUS
 10
-4.941772
 20
-5.719720
 30
0.000000
 40
1.137063
 50
248.735585
 51
275.194622
  0
ARC
  8
0
 62
     2
  6
CONTINUOUS
 10
-4.449322
 20
-4.517366
 30
0.000000
 40
2.436262
 50
233.700378
 51
248.197927
  0
ARC
  8
0
 62
     2
  6
CONTINUOUS
 10
0.300936
 20
2.113646
 30
0.000000
 40
10.593044
 50
229.894979
 51
234.226253
  0
ARC
  8
0
 62
     2
  6
CONTINUOUS
 10
-5.417239
 20
-4.764531
 30
0.000000
 40
1.649566
 50
199.958303
 51
227.906923
  0
ARC
  8
0
 62
     2
  6
CONTINUOUS
 10
-5.622661
 20
-4.862721
 30
0.000000
 40
1.423138
 50
166.206720
 51
199.065497
  0
ARC
  8
0
 62
     2
  6
CONTINUOUS
 10
-8.090771
 20
-4.241580
 30
0.000000
 40
1.121988
 50
345.451790
 51
370.998833
  0
ARC
  8
0
 62
     2
  6
CONTINUOUS
 10
-9.554629
 20
-4.640604
 30
0.000000
 40
2.637482
 50
13.441444
 51
24.232799
  0
ARC
  8
0
 62
     2
  6
CONTINUOUS
 10
-0.060973
 20
-0.603686
 30
0.000000
 40
7.679599
 50
199.159493
 51
202.625394
  0
ARC
  8
0
 62
     2
  6
CONTINUOUS
 10
-5.735204
 20
-2.572530
 30
0.000000
 40
1.673500
 50
182.026125
 51
199.244727
  0
ARC
  8
0
 62
     2
  6
CONTINUOUS
 10
-6.566477
 20
-2.582045
 30
0.000000
 40
0.842645
 50
157.411927
 51
183.378078
  0
ARC
  8
0
 62
     2
  6
CONTINUOUS
 10
-7.751570
 20
-2.081578
 30
0.000000
 40
0.443824
 50
336.523977
 51
370.288780
  0
ARC
  8
0
 62
     2
  6
CONTINUOUS
 10
-8.381650
 20
-2.180093
 30
0.000000
 40
1.081480
 50
9.461859
 51
25.202568
  0
ARC
  8
0
 62
     2
  6
CONTINUOUS
 10
-10.270295
 20
-3.094461
 30
0.000000
 40
3.179781
 50
25.618897
 51
35.700343
  0
ARC
  8
0
 62
     2
  6
CONTINUOUS
 10
-2.513361
 20
2.252135
 30
0.000000
 40
6.242188
 50
210.237891
 51
214.005093
  0
ARC
  8
0
 62
     2
  6
CONTINUOUS
 10
-10.935021
 20
-2.563423
 30
0.000000
 40
3.459653
 50
28.901068
 51
42.336642
  0
ARC
  8
0
 62
     2
  6
CONTINUOUS
 10
-33.483383
 20
-24.262984
 30
0.000000
 40
34.752255
 50
43.745319
 51
46.330395
  0
ARC
  8
0
 62
     2
  6
CONTINUOUS
 10
13.617536
 20
25.110085
 30
0.000000
 40
33.484078
 50
223.542758
 51
226.368672
  0
ARC
  8
0
 62
     2
  6
CONTINUOUS
 10
-10.788132
 20
1.965267
 30
0.000000
 40
0.155270
 50
30.062225
 51
83.102016
  0
ARC
  8
0
 62
     2
  6
CONTINUOUS
 10
-10.743335
 20
2.094767
 30
0.000000
 40
0.035932
 50
136.694132
 51
205.588504
  0
ARC
  8
0
 62
     2
  6
CONTINUOUS
 10
-10.403313
 20
2.177357
 30
0.000000
 40
0.385136
 50
194.758064
 51
209.278667
  0
ARC
  8
0
 62
     2
  6
CONTINUOUS
 10
-5.982340
 20
4.892447
 30
0.000000
 40
5.572986
 50
211.398378
 51
222.962302
  0
ARC
  8
0
 62
     2
  6
CONTINUOUS
 10
19.028334
 20
26.890760
 30
0.000000
 40
38.879608
 50
221.566915
 51
223.625382
  0
ARC
  8
0
 62
     2
  6
CONTINUOUS
 10
-16.791571
 20
-7.515415
 30
0.000000
 40
10.789127
 50
39.553009
 51
44.644391
  0
LINE
  8
0
 62
     2
  6
CONTINUOUS
 10
-8.472768
 20
-0.644987
 30
0.000000
 11
-8.419263
 21
-0.720742
 31
0.000000
  0
ARC
  8
0
 62
     2
  6
CONTINUOUS
 10
-9.970252
 20
-1.950535
 30
0.000000
 40
1.979382
 50
21.113531
 51
38.411209
  0
ARC
  8
0
 62
     2
  6
CONTINUOUS
 10
-8.780587
 20
-1.455408
 30
0.000000
 40
0.692033
 50
327.026059
 51
378.351263
  0
ARC
  8
0
 62
     2
  6
CONTINUOUS
 10
-19.056754
 20
-7.097635
 30
0.000000
 40
12.066269
 50
25.873689
 51
31.947910
  0
ARC
  8
0
 62
     2
  6
CONTINUOUS
 10
-13.401525
 20
-3.573884
 30
0.000000
 40
5.403055
 50
31.973854
 51
37.819277
  0
ARC
  8
0
 62
     2
  6
CONTINUOUS
 10
-10.477105
 20
-1.268461
 30
0.000000
 40
1.679523
 50
36.864348
 51
50.770132
  0
ARC
  8
0
 62
     2
  6
CONTINUOUS
 10
-3.148601
 20
8.247682
 30
0.000000
 40
10.332259
 50
218.779057
 51
232.664519
  0
ARC
  8
0
 62
     2
  6
CONTINUOUS
 10
-8.490197
 20
4.086644
 30
0.000000
 40
3.563443
 50
208.903712
 51
220.415057
  0
ARC
  8
0
 62
     2
  6
CONTINUOUS
 10
-10.390071
 20
3.021588
 30
0.000000
 40
1.385518
 50
184.968636
 51
208.320543
  0
ARC
  8
0
 62
     2
  6
CONTINUOUS
 10
-9.631053
 20
3.024185
 30
0.000000
 40
2.142841
 50
166.196604
 51
183.279832
  0
ARC
  8
0
 62
     2
  6
CONTINUOUS
 10
-2.231309
 20
1.303518
 30
0.000000
 40
9.739875
 50
161.381904
 51
166.752743
  0
ARC
  8
0
 62
     2
  6
CONTINUOUS
 10
-12.242523
 20
1.831503
 30
0.000000
 40
2.697121
 50
51.950479
 51
73.166795
  0
ARC
  8
0
 62
     2
  6
CONTINUOUS
 10
-15.910924
 20
-2.897567
 30
0.000000
 40
8.682191
 50
45.477670
 51
52.121661
  0
LINE
  8
0
 62
     2
  6
CONTINUOUS
 10
-9.823083
 20
3.292638
 30
0.000000
 11
-9.819258
 21
3.289018
 31
0.000000
  0
ARC
  8
0
 62
     2
  6
CONTINUOUS
 10
-9.685846
 20
3.418752
 30
0.000000
 40
0.186091
 50
224.199089
 51
253.414883
  0
ARC
  8
0
 62
     2
  6
CONTINUOUS
 10
-9.732291
 20
3.265525
 30
0.000000
 40
0.025993
 50
255.126114
 51
333.329376
  0
ARC
  8
0
 62
     2
  6
CONTINUOUS
 10
-9.813290
 20
3.289373
 30
0.000000
 40
0.110111
 50
341.183429
 51
375.818255
  0
ARC
  8
0
 62
     2
  6
CONTINUOUS
 10
-10.529273
 20
3.139725
 30
0.000000
 40
0.841331
 50
12.330202
 51
37.789192
  0
ARC
  8
0
 62
     2
  6
CONTINUOUS
 10
-11.509786
 20
2.420787
 30
0.000000
 40
2.056997
 50
36.879399
 51
49.095652
  0
ARC
  8
0
 62
     2
  6
CONTINUOUS
 10
-13.223941
 20
0.423020
 30
0.000000
 40
4.689359
 50
49.249233
 51
59.953462
  0
ARC
  8
0
 62
     2
  6
CONTINUOUS
 10
-10.874559
 20
4.493765
 30
0.000000
 40
0.011633
 50
92.384596
 51
263.067761
  0
ARC
  8
0
 62
     2
  6
CONTINUOUS
 10
-10.916859
 20
34.897085
 30
0.000000
 40
30.391726
 50
270.078832
 51
272.063279
  0
ARC
  8
0
 62
     2
  6
CONTINUOUS
 10
-8.855609
 20
-19.369250
 30
0.000000
 40
23.913874
 50
88.715833
 51
92.317608
  0
ARC
  8
0
 62
     2
  6
CONTINUOUS
 10
-8.477548
 20
-3.036496
 30
0.000000
 40
7.576759
 50
77.533391
 51
88.806060
  0
ARC
  8
0
 62
     2
  6
CONTINUOUS
 10
-6.265590
 20
4.358443
 30
0.000000
 40
0.576367
 50
179.684393
 51
189.042923
  0
ARC
  8
0
 62
     2
  6
CONTINUOUS
 10
-7.543147
 20
4.150198
 30
0.000000
 40
0.718058
 50
355.837095
 51
369.430484
  0
ARC
  8
0
 62
     2
  6
CONTINUOUS
 10
-6.880607
 20
4.091393
 30
0.000000
 40
0.054038
 50
237.560453
 51
367.100106
  0
ARC
  8
0
 62
     2
  6
CONTINUOUS
 10
-6.971713
 20
3.969314
 30
0.000000
 40
0.098524
 50
50.913161
 51
123.139313
  0
ARC
  8
0
 62
     2
  6
CONTINUOUS
 10
-6.909838
 20
4.023704
 30
0.000000
 40
0.119100
 50
166.348757
 51
219.586960
  0
ARC
  8
0
 62
     2
  6
CONTINUOUS
 10
-7.232843
 20
3.797268
 30
0.000000
 40
0.275907
 50
338.597025
 51
393.066853
  0
ARC
  8
0
 62
     2
  6
CONTINUOUS
 10
-7.050277
 20
3.729938
 30
0.000000
 40
0.081456
 50
275.539678
 51
335.827142
  0
ARC
  8
0
 62
     2
  6
CONTINUOUS
 10
-7.036707
 20
3.783870
 30
0.000000
 40
0.135128
 50
219.670834
 51
267.579703
  0
ARC
  8
0
 62
     2
  6
CONTINUOUS
 10
-7.416257
 20
3.452305
 30
0.000000
 40
0.368910
 50
41.677575
 51
80.658113
  0
ARC
  8
0
 62
     2
  6
CONTINUOUS
 10
-6.589508
 20
3.872075
 30
0.000000
 40
0.768889
 50
184.158191
 51
199.987858
  0
ARC
  8
0
 62
     2
  6
CONTINUOUS
 10
-9.704481
 20
2.881306
 30
0.000000
 40
2.500695
 50
13.534555
 51
16.923697
  0
ARC
  8
0
 62
     2
  6
CONTINUOUS
 10
-7.455384
 20
3.403292
 30
0.000000
 40
0.192822
 50
328.030123
 51
379.150696
  0
ARC
  8
0
 62
     2
  6
CONTINUOUS
 10
-7.338228
 20
3.352110
 30
0.000000
 40
0.068898
 50
249.129820
 51
312.357515
  0
ARC
  8
0
 62
     2
  6
CONTINUOUS
 10
-7.247829
 20
3.620084
 30
0.000000
 40
0.351667
 50
226.961428
 51
250.921932
  0
LINE
  8
0
 62
     2
  6
CONTINUOUS
 10
-7.487838
 20
3.363053
 30
0.000000
 11
-7.490543
 21
3.365323
 31
0.000000
  0
ARC
  8
0
 62
     2
  6
CONTINUOUS
 10
-8.367898
 20
2.450566
 30
0.000000
 40
1.267490
 50
46.195606
 51
67.413740
  0
ARC
  8
0
 62
     2
  6
CONTINUOUS
 10
-7.088715
 20
3.822573
 30
0.000000
 40
0.817650
 50
194.283459
 51
212.767689
  0
ARC
  8
0
 62
     2
  6
CONTINUOUS
 10
-8.560559
 20
2.884593
 30
0.000000
 40
0.927683
 50
15.936103
 51
32.280264
  0
ARC
  8
0
 62
     2
  6
CONTINUOUS
 10
-7.694369
 20
3.115594
 30
0.000000
 40
0.035069
 50
42.536778
 51
198.842482
  0
ARC
  8
0
 62
     2
  6
CONTINUOUS
 10
-8.798293
 20
1.878947
 30
0.000000
 40
1.627231
 50
48.851729
 51
68.927314
  0
ARC
  8
0
 62
     2
  6
CONTINUOUS
 10
-7.397300
 20
5.369516
 30
0.000000
 40
2.134275
 50
235.992992
 51
247.524226
  0
ARC
  8
0
 62
     2
  6
CONTINUOUS
 10
-8.485601
 20
3.562427
 30
0.000000
 40
0.111975
 50
160.248765
 51
217.241521
  0
ARC
  8
0
 62
     2
  6
CONTINUOUS
 10
-8.172667
 20
3.798997
 30
0.000000
 40
0.504267
 50
217.122267
 51
231.364366
  0
ARC
  8
0
 62
     2
  6
CONTINUOUS
 10
-9.732467
 20
1.975426
 30
0.000000
 40
1.895751
 50
47.717998
 51
48.950762
  0
ARC
  8
0
 62
     2
  6
CONTINUOUS
 10
-8.737247
 20
3.081558
 30
0.000000
 40
0.407900
 50
6.199585
 51
46.611329
  0
ARC
  8
0
 62
     2
  6
CONTINUOUS
 10
-9.336506
 20
3.017677
 30
0.000000
 40
1.010553
 50
346.383050
 51
366.131097
  0
ARC
  8
0
 62
     2
  6
CONTINUOUS
 10
-7.294743
 20
2.534914
 30
0.000000
 40
1.087536
 50
166.988828
 51
219.550056
  0
ARC
  8
0
 62
     2
  6
CONTINUOUS
 10
-5.255703
 20
4.327682
 30
0.000000
 40
3.802253
 50
220.815702
 51
237.645470
  0
ARC
  8
0
 62
     2
  6
CONTINUOUS
 10
-10.782765
 20
-3.988863
 30
0.000000
 40
6.184872
 50
49.778479
 51
55.622298
  0
ARC
  8
0
 62
     2
  6
CONTINUOUS
 10
-8.215158
 20
-0.967304
 30
0.000000
 40
2.219751
 50
35.449462
 51
50.019826
  0
ARC
  8
0
 62
     2
  6
CONTINUOUS
 10
-7.483844
 20
-0.429317
 30
0.000000
 40
1.312054
 50
344.935782
 51
394.833394
  0
ARC
  8
0
 62
     2
  6
CONTINUOUS
 10
-4.642687
 20
-1.214822
 30
0.000000
 40
1.635744
 50
164.232078
 51
197.166734
  0
ARC
  8
0
 62
     2
  6
CONTINUOUS
 10
-4.887238
 20
-1.160393
 30
0.000000
 40
1.423579
 50
202.171224
 51
237.182256
  0
ARC
  8
0
 62
     2
  6
CONTINUOUS
 10
-4.769888
 20
-3.031687
 30
0.000000
 40
1.116079
 50
142.791053
 51
185.767177
  0
ARC
  8
0
 62
     2
  6
CONTINUOUS
 10
-4.460571
 20
-3.057256
 30
0.000000
 40
1.422385
 50
183.489789
 51
214.185282
  0
ARC
  8
0
 62
     2
  6
CONTINUOUS
 10
-5.489315
 20
-3.781830
 30
0.000000
 40
0.165649
 50
206.774806
 51
264.650500
  0
ARC
  8
0
 62
     2
  6
CONTINUOUS
 10
-5.518613
 20
-3.917463
 30
0.000000
 40
0.032406
 50
295.312462
 51
372.720826
  0
ARC
  8
0
 62
     2
  6
CONTINUOUS
 10
-5.666689
 20
-3.932309
 30
0.000000
 40
0.181025
 50
6.974549
 51
32.684775
  0
ARC
  8
0
 62
     2
  6
CONTINUOUS
 10
-5.132791
 20
-3.634609
 30
0.000000
 40
0.430753
 50
136.365874
 51
207.656682
  0
ARC
  8
0
 62
     2
  6
CONTINUOUS
 10
-4.574777
 20
-4.021588
 30
0.000000
 40
1.106648
 50
120.356825
 51
141.809204
  0
ARC
  8
0
 62
     2
  6
CONTINUOUS
 10
-2.639024
 20
-2.642476
 30
0.000000
 40
2.530837
 50
185.451591
 51
189.648840
  0
ARC
  8
0
 62
     2
  6
CONTINUOUS
 10
-6.778916
 20
-2.989954
 30
0.000000
 40
1.624034
 50
3.778992
 51
18.292291
  0
LINE
  8
0
 62
     2
  6
CONTINUOUS
 10
-5.236948
 20
-2.480227
 30
0.000000
 11
-5.113483
 21
-2.480227
 31
0.000000
  0
ARC
  8
0
 62
     2
  6
CONTINUOUS
 10
-19.439240
 20
-6.671478
 30
0.000000
 40
14.926281
 50
15.357344
 51
16.307761
  0
ARC
  8
0
 62
     2
  6
CONTINUOUS
 10
-1.722674
 20
-1.962617
 30
0.000000
 40
3.408123
 50
192.812864
 51
208.593491
  0
ARC
  8
0
 62
     2
  6
CONTINUOUS
 10
-4.428080
 20
-3.433388
 30
0.000000
 40
0.328794
 50
209.184951
 51
228.353693
  0
ARC
  8
0
 62
     2
  6
CONTINUOUS
 10
-4.608945
 20
-3.645742
 30
0.000000
 40
0.050274
 50
221.542117
 51
286.890415
  0
ARC
  8
0
 62
     2
  6
CONTINUOUS
 10
-4.633053
 20
-3.643063
 30
0.000000
 40
0.063858
 50
307.319500
 51
363.839641
  0
ARC
  8
0
 62
     2
  6
CONTINUOUS
 10
-4.993169
 20
-3.620910
 30
0.000000
 40
0.424208
 50
357.584669
 51
374.499916
  0
ARC
  8
0
 62
     2
  6
CONTINUOUS
 10
-1.514391
 20
-2.955724
 30
0.000000
 40
3.118586
 50
181.694603
 51
190.325453
  0
ARC
  8
0
 62
     2
  6
CONTINUOUS
 10
-9.714529
 20
-3.287599
 30
0.000000
 40
5.088562
 50
2.699407
 51
6.208156
  0
ARC
  8
0
 62
     2
  6
CONTINUOUS
 10
-5.273504
 20
-2.782469
 30
0.000000
 40
0.619344
 50
4.180720
 51
31.683070
  0
ARC
  8
0
 62
     2
  6
CONTINUOUS
 10
-5.046839
 20
-2.674004
 30
0.000000
 40
0.370459
 50
35.823664
 51
84.385909
  0
ARC
  8
0
 62
     2
  6
CONTINUOUS
 10
-4.925277
 20
-1.666043
 30
0.000000
 40
0.644948
 50
217.766965
 51
262.397936
  0
ARC
  8
0
 62
     2
  6
CONTINUOUS
 10
-4.324599
 20
-1.197235
 30
0.000000
 40
1.406913
 50
194.180315
 51
217.877377
  0
ARC
  8
0
 62
     2
  6
CONTINUOUS
 10
-2.924313
 20
-0.817920
 30
0.000000
 40
2.857562
 50
168.261090
 51
194.676028
  0
ARC
  8
0
 62
     2
  6
CONTINUOUS
 10
-3.928626
 20
-0.630512
 30
0.000000
 40
1.836244
 50
153.386920
 51
167.610756
  0
ARC
  8
0
 62
     2
  6
CONTINUOUS
 10
-4.905755
 20
-0.135929
 30
0.000000
 40
0.741098
 50
138.071688
 51
153.732103
  0
ARC
  8
0
 62
     2
  6
CONTINUOUS
 10
-5.300085
 20
0.230442
 30
0.000000
 40
0.203117
 50
98.337538
 51
140.634363
  0
ARC
  8
0
 62
     2
  6
CONTINUOUS
 10
-5.343048
 20
-1.193195
 30
0.000000
 40
1.624663
 50
65.019379
 51
89.523569
  0
ARC
  8
0
 62
     2
  6
CONTINUOUS
 10
-5.151492
 20
-1.068703
 30
0.000000
 40
1.436034
 50
39.457666
 51
69.855304
  0
ARC
  8
0
 62
     2
  6
CONTINUOUS
 10
-3.246214
 20
0.550475
 30
0.000000
 40
1.064748
 50
221.575051
 51
250.531732
  0
ARC
  8
0
 62
     2
  6
CONTINUOUS
 10
-2.721129
 20
-1.538237
 30
0.000000
 40
1.396849
 50
129.046647
 51
165.485738
  0
ARC
  8
0
 62
     2
  6
CONTINUOUS
 10
-2.935122
 20
-1.579280
 30
0.000000
 40
1.203599
 50
161.036771
 51
204.420905
  0
ARC
  8
0
 62
     2
  6
CONTINUOUS
 10
-7.758967
 20
-3.599222
 30
0.000000
 40
4.026778
 50
8.818358
 51
22.213048
  0
ARC
  8
0
 62
     2
  6
CONTINUOUS
 10
-3.614700
 20
-3.022079
 30
0.000000
 40
0.169906
 50
166.323927
 51
215.912721
  0
ARC
  8
0
 62
     2
  6
CONTINUOUS
 10
-3.745447
 20
-3.096090
 30
0.000000
 40
0.026549
 50
255.023124
 51
339.293854
  0
ARC
  8
0
 62
     2
  6
CONTINUOUS
 10
-3.942698
 20
-2.968513
 30
0.000000
 40
0.260923
 50
328.336953
 51
347.415570
  0
ARC
  8
0
 62
     2
  6
CONTINUOUS
 10
-5.396005
 20
-2.785110
 30
0.000000
 40
1.724777
 50
351.992951
 51
373.299927
  0
ARC
  8
0
 62
     2
  6
CONTINUOUS
 10
-10.134533
 20
-3.584822
 30
0.000000
 40
6.527638
 50
10.561840
 51
15.190252
  0
ARC
  8
0
 62
     2
  6
CONTINUOUS
 10
-3.178338
 20
-1.710370
 30
0.000000
 40
0.676808
 50
161.196342
 51
194.027280
  0
ARC
  8
0
 62
     2
  6
CONTINUOUS
 10
-2.759350
 20
-1.843157
 30
0.000000
 40
1.116273
 50
143.142916
 51
161.676327
  0
ARC
  8
0
 62
     2
  6
CONTINUOUS
 10
-3.472420
 20
-1.456945
 30
0.000000
 40
0.335744
 50
69.373896
 51
122.439959
  0
ARC
  8
0
 62
     2
  6
CONTINUOUS
 10
-2.300066
 20
-1.741586
 30
0.000000
 40
1.212323
 50
150.397462
 51
175.396599
  0
ARC
  8
0
 62
     2
  6
CONTINUOUS
 10
-2.774304
 20
-1.742207
 30
0.000000
 40
0.740675
 50
172.403057
 51
214.458437
  0
ARC
  8
0
 62
     2
  6
CONTINUOUS
 10
-3.329718
 20
-2.124954
 30
0.000000
 40
0.066168
 50
44.015180
 51
213.305795
  0
ARC
  8
0
 62
     2
  6
CONTINUOUS
 10
-3.030683
 20
-1.913221
 30
0.000000
 40
0.301169
 50
162.630623
 51
213.392947
  0
ARC
  8
0
 62
     2
  6
CONTINUOUS
 10
-3.112735
 20
-1.836100
 30
0.000000
 40
0.205781
 50
122.391928
 51
176.437267
  0
ARC
  8
0
 62
     2
  6
CONTINUOUS
 10
-3.279245
 20
-1.945658
 30
0.000000
 40
0.288855
 50
47.674850
 51
78.766420
  0
ARC
  8
0
 62
     2
  6
CONTINUOUS
 10
-2.939355
 20
-1.586572
 30
0.000000
 40
0.205711
 50
225.025989
 51
263.346812
  0
ARC
  8
0
 62
     2
  6
CONTINUOUS
 10
-3.362562
 20
0.810888
 30
0.000000
 40
2.632259
 50
278.726773
 51
290.402708
  0
ARC
  8
0
 62
     2
  6
CONTINUOUS
 10
-0.479502
 20
-7.422147
 30
0.000000
 40
6.091679
 50
106.625464
 51
108.822575
  0
ARC
  8
0
 62
     2
  6
CONTINUOUS
 10
-2.262849
 20
-1.657272
 30
0.000000
 40
0.082701
 50
331.429982
 51
420.732981
  0
ARC
  8
0
 62
     2
  6
CONTINUOUS
 10
-1.975806
 20
-1.769672
 30
0.000000
 40
0.226451
 50
161.234039
 51
185.188876
  0
ARC
  8
0
 62
     2
  6
CONTINUOUS
 10
-2.174128
 20
-1.789954
 30
0.000000
 40
0.027201
 50
180.418160
 51
275.548016
  0
ARC
  8
0
 62
     2
  6
CONTINUOUS
 10
-2.274118
 20
-1.553767
 30
0.000000
 40
0.282554
 50
291.295913
 51
328.355669
  0
ARC
  8
0
 62
     2
  6
CONTINUOUS
 10
-2.139523
 20
-1.584941
 30
0.000000
 40
0.157892
 50
312.146374
 51
388.824154
  0
ARC
  8
0
 62
     2
  6
CONTINUOUS
 10
-2.291204
 20
-1.752556
 30
0.000000
 40
0.378834
 50
40.045246
 51
77.721994
  0
ARC
  8
0
 62
     2
  6
CONTINUOUS
 10
-2.844584
 20
-3.934406
 30
0.000000
 40
2.629578
 50
76.049658
 51
94.043119
  0
ARC
  8
0
 62
     2
  6
CONTINUOUS
 10
-3.038248
 20
-1.153397
 30
0.000000
 40
0.158191
 50
208.340646
 51
272.992919
  0
ARC
  8
0
 62
     2
  6
CONTINUOUS
 10
-3.126992
 20
-1.205357
 30
0.000000
 40
0.055534
 50
132.300731
 51
204.619888
  0
ARC
  8
0
 62
     2
  6
CONTINUOUS
 10
-3.050121
 20
-1.314373
 30
0.000000
 40
0.188626
 50
89.877836
 51
127.278177
  0
ARC
  8
0
 62
     2
  6
CONTINUOUS
 10
-3.558519
 20
6.123004
 30
0.000000
 40
7.266586
 50
274.015093
 51
285.005388
  0
ARC
  8
0
 62
     2
  6
CONTINUOUS
 10
-2.917509
 20
-1.339532
 30
0.000000
 40
1.317361
 50
335.461039
 51
379.683976
  0
ARC
  8
0
 62
     2
  6
CONTINUOUS
 10
-4.991671
 20
-0.239473
 30
0.000000
 40
3.663699
 50
317.896666
 51
333.282408
  0
ARC
  8
0
 62
     2
  6
CONTINUOUS
 10
2.536794
 20
-6.785824
 30
0.000000
 40
6.313956
 50
139.626788
 51
145.452056
  0
ARC
  8
0
 62
     2
  6
CONTINUOUS
 10
-1.040222
 20
-4.325654
 30
0.000000
 40
1.972589
 50
145.388566
 51
163.720687
  0
ARC
  8
0
 62
     2
  6
CONTINUOUS
 10
-2.401756
 20
-3.933923
 30
0.000000
 40
0.555862
 50
163.139274
 51
179.655124
  0
ARC
  8
0
 62
     2
  6
CONTINUOUS
 10
-2.882900
 20
-3.941622
 30
0.000000
 40
0.075521
 50
171.590447
 51
230.537714
  0
ARC
  8
0
 62
     2
  6
CONTINUOUS
 10
-2.921212
 20
-3.941024
 30
0.000000
 40
0.059695
 50
260.662017
 51
331.166598
  0
ARC
  8
0
 62
     2
  6
CONTINUOUS
 10
-3.291217
 20
-3.629469
 30
0.000000
 40
0.542374
 50
321.133572
 51
338.380432
  0
ARC
  8
0
 62
     2
  6
CONTINUOUS
 10
-1.228140
 20
-4.520763
 30
0.000000
 40
1.705332
 50
141.296796
 51
156.079428
  0
ARC
  8
0
 62
     2
  6
CONTINUOUS
 10
2.215051
 20
-7.315062
 30
0.000000
 40
6.139682
 50
136.413526
 51
141.038501
  0
ARC
  8
0
 62
     2
  6
CONTINUOUS
 10
-16.122642
 20
9.805303
 30
0.000000
 40
18.948101
 50
317.145381
 51
318.144384
  0
ARC
  8
0
 62
     2
  6
CONTINUOUS
 10
-4.737961
 20
-0.271881
 30
0.000000
 40
3.745504
 50
316.756494
 51
330.393046
  0
ARC
  8
0
 62
     2
  6
CONTINUOUS
 10
-3.098843
 20
-1.236771
 30
0.000000
 40
1.843926
 50
331.297533
 51
359.925537
  0
ARC
  8
0
 62
     2
  6
CONTINUOUS
 10
-1.236531
 20
-1.242474
 30
0.000000
 40
0.018682
 50
36.705817
 51
169.805850
  0
ARC
  8
0
 62
     2
  6
CONTINUOUS
 10
-5.316260
 20
-4.834838
 30
0.000000
 40
5.454545
 50
40.599151
 51
41.349264
  0
ARC
  8
0
 62
     2
  6
CONTINUOUS
 10
-0.104176
 20
-0.444368
 30
0.000000
 40
1.361292
 50
218.147494
 51
233.672631
  0
ARC
  8
0
 62
     2
  6
CONTINUOUS
 10
-0.698956
 20
-1.255320
 30
0.000000
 40
0.355608
 50
233.475355
 51
291.960017
  0
ARC
  8
0
 62
     2
  6
CONTINUOUS
 10
-0.603960
 20
-1.474964
 30
0.000000
 40
0.116529
 50
289.025065
 51
334.613532
  0
ARC
  8
0
 62
     2
  6
CONTINUOUS
 10
-0.553363
 20
-1.514274
 30
0.000000
 40
0.055707
 50
348.980556
 51
412.587235
  0
ARC
  8
0
 62
     2
  6
CONTINUOUS
 10
-0.815868
 20
-1.841701
 30
0.000000
 40
0.475357
 50
51.433331
 51
71.985293
  0
ARC
  8
0
 62
     2
  6
CONTINUOUS
 10
-1.088339
 20
-2.386330
 30
0.000000
 40
1.081360
 50
67.174874
 51
68.956507
  0
ARC
  8
0
 62
     2
  6
CONTINUOUS
 10
-0.670602
 20
-1.182985
 30
0.000000
 40
0.196323
 50
189.310517
 51
261.373593
  0
ARC
  8
0
 62
     2
  6
CONTINUOUS
 10
-0.811954
 20
0.238172
 30
0.000000
 40
1.453863
 50
267.935133
 51
278.592710
  0
ARC
  8
0
 62
     2
  6
CONTINUOUS
 10
-0.394636
 20
-2.526748
 30
0.000000
 40
1.342372
 50
88.969246
 51
98.572582
  0
ARC
  8
0
 62
     2
  6
CONTINUOUS
 10
-0.375924
 20
-1.533892
 30
0.000000
 40
0.349342
 50
55.366382
 51
89.108536
  0
ARC
  8
0
 62
     2
  6
CONTINUOUS
 10
-0.397873
 20
-1.477329
 30
0.000000
 40
0.319249
 50
353.913858
 51
406.318361
  0
ARC
  8
0
 62
     2
  6
CONTINUOUS
 10
-1.374063
 20
-1.481449
 30
0.000000
 40
1.293981
 50
339.877376
 51
358.683531
  0
ARC
  8
0
 62
     2
  6
CONTINUOUS
 10
-1.821681
 20
-1.355558
 30
0.000000
 40
1.757950
 50
325.386212
 51
341.043889
  0
ARC
  8
0
 62
     2
  6
CONTINUOUS
 10
-1.189256
 20
-1.817941
 30
0.000000
 40
0.975044
 50
300.838183
 51
326.637797
  0
ARC
  8
0
 62
     2
  6
CONTINUOUS
 10
-0.635094
 20
-3.319062
 30
0.000000
 40
0.666150
 50
94.678970
 51
124.791490
  0
ARC
  8
0
 62
     2
  6
CONTINUOUS
 10
0.351046
 20
-4.764926
 30
0.000000
 40
2.416273
 50
124.432328
 51
133.172570
  0
ARC
  8
0
 62
     2
  6
CONTINUOUS
 10
-2.372657
 20
-1.930908
 30
0.000000
 40
1.514858
 50
297.345752
 51
314.964023
  0
ARC
  8
0
 62
     2
  6
CONTINUOUS
 10
-1.855748
 20
-2.882889
 30
0.000000
 40
0.432366
 50
235.097040
 51
294.449887
  0
ARC
  8
0
 62
     2
  6
CONTINUOUS
 10
-2.122048
 20
-3.259832
 30
0.000000
 40
0.029273
 50
49.772974
 51
181.968789
  0
ARC
  8
0
 62
     2
  6
CONTINUOUS
 10
-1.605272
 20
-3.155125
 30
0.000000
 40
0.556170
 50
190.957014
 51
241.270027
  0
ARC
  8
0
 62
     2
  6
CONTINUOUS
 10
-1.886864
 20
-3.765081
 30
0.000000
 40
0.123081
 50
331.710279
 51
443.351312
  0
ARC
  8
0
 62
     2
  6
CONTINUOUS
 10
1.120055
 20
-4.781344
 30
0.000000
 40
3.052730
 50
161.711912
 51
166.666308
  0
ARC
  8
0
 62
     2
  6
CONTINUOUS
 10
-1.249130
 20
-4.274905
 30
0.000000
 40
0.632887
 50
161.808094
 51
189.889470
  0
ARC
  8
0
 62
     2
  6
CONTINUOUS
 10
-2.096444
 20
-3.874774
 30
0.000000
 40
0.555884
 50
293.744361
 51
335.732830
  0
ARC
  8
0
 62
     2
  6
CONTINUOUS
 10
-2.813106
 20
-3.498603
 30
0.000000
 40
1.364682
 50
333.700803
 51
352.192774
  0
ARC
  8
0
 62
     2
  6
CONTINUOUS
 10
-0.864021
 20
-3.895312
 30
0.000000
 40
0.633349
 50
125.521038
 51
160.508340
  0
ARC
  8
0
 62
     2
  6
CONTINUOUS
 10
-0.460686
 20
-4.235140
 30
0.000000
 40
1.151730
 50
109.427045
 51
132.043842
  0
ARC
  8
0
 62
     2
  6
CONTINUOUS
 10
-0.152292
 20
-2.959720
 30
0.000000
 40
0.716900
 50
195.307619
 51
210.184508
  0
ARC
  8
0
 62
     2
  6
CONTINUOUS
 10
-0.690390
 20
-3.287939
 30
0.000000
 40
0.087732
 50
201.551970
 51
256.471211
  0
ARC
  8
0
 62
     2
  6
CONTINUOUS
 10
-0.733858
 20
-3.326225
 30
0.000000
 40
0.052313
 50
296.014537
 51
374.855602
  0
ARC
  8
0
 62
     2
  6
CONTINUOUS
 10
-1.271932
 20
-3.325147
 30
0.000000
 40
0.588768
 50
1.200479
 51
17.969384
  0
ARC
  8
0
 62
     2
  6
CONTINUOUS
 10
-0.570948
 20
-3.089115
 30
0.000000
 40
0.151067
 50
130.400453
 51
201.103365
  0
ARC
  8
0
 62
     2
  6
CONTINUOUS
 10
-1.643629
 20
-1.638436
 30
0.000000
 40
1.653512
 50
306.122607
 51
336.263057
  0
ARC
  8
0
 62
     2
  6
CONTINUOUS
 10
-3.247351
 20
-0.920139
 30
0.000000
 40
3.410728
 50
336.061943
 51
351.214270
  0
LINE
  8
0
 62
     2
  6
CONTINUOUS
 10
0.123357
 20
-1.441092
 30
0.000000
 11
0.148642
 21
-1.436092
 31
0.000000
  0
ARC
  8
0
 62
     2
  6
CONTINUOUS
 10
-0.209275
 20
0.533025
 30
0.000000
 40
2.001381
 50
280.301907
 51
285.426962
  0
ARC
  8
0
 62
     2
  6
CONTINUOUS
 10
0.311127
 20
-1.263103
 30
0.000000
 40
0.133683
 50
275.143367
 51
325.821489
  0
ARC
  8
0
 62
     2
  6
CONTINUOUS
 10
0.933620
 20
-1.479033
 30
0.000000
 40
0.530917
 50
122.903535
 51
164.617632
  0
ARC
  8
0
 62
     2
  6
CONTINUOUS
 10
1.714206
 20
-2.664444
 30
0.000000
 40
1.950241
 50
111.435887
 51
123.239142
  0
LINE
  8
0
 62
     2
  6
CONTINUOUS
 10
1.001472
 20
-0.849107
 30
0.000000
 11
1.059607
 21
-0.823782
 31
0.000000
  0
ARC
  8
0
 62
     2
  6
CONTINUOUS
 10
0.709390
 20
-0.803742
 30
0.000000
 40
0.350790
 50
321.853197
 51
356.724966
  0
ARC
  8
0
 62
     2
  6
CONTINUOUS
 10
-0.361419
 20
-0.019397
 30
0.000000
 40
1.677972
 50
315.000256
 51
323.375689
  0
LINE
  8
0
 62
     2
  6
CONTINUOUS
 10
0.825092
 20
-1.205897
 30
0.000000
 11
0.801082
 21
-1.231217
 31
0.000000
  0
ARC
  8
0
 62
     2
  6
CONTINUOUS
 10
0.884915
 20
-1.358409
 30
0.000000
 40
0.152334
 50
123.389173
 51
176.192022
  0
ARC
  8
0
 62
     2
  6
CONTINUOUS
 10
0.755032
 20
-1.321885
 30
0.000000
 40
0.034445
 50
230.055323
 51
298.054341
  0
ARC
  8
0
 62
     2
  6
CONTINUOUS
 10
0.663936
 20
-1.011187
 30
0.000000
 40
0.357573
 50
287.461605
 51
301.905738
  0
ARC
  8
0
 62
     2
  6
CONTINUOUS
 10
0.309580
 20
-0.441017
 30
0.000000
 40
1.028887
 50
301.876320
 51
327.428342
  0
ARC
  8
0
 62
     2
  6
CONTINUOUS
 10
-0.630300
 20
0.189854
 30
0.000000
 40
2.160725
 50
326.747921
 51
339.289808
  0
ARC
  8
0
 62
     2
  6
CONTINUOUS
 10
1.406524
 20
-0.578329
 30
0.000000
 40
0.016239
 50
12.523850
 51
165.516580
  0
ARC
  8
0
 62
     2
  6
CONTINUOUS
 10
0.567634
 20
-0.736773
 30
0.000000
 40
0.869953
 50
344.660923
 51
370.729788
  0
ARC
  8
0
 62
     2
  6
CONTINUOUS
 10
-0.330756
 20
-0.509639
 30
0.000000
 40
1.796520
 50
330.262288
 51
345.254423
  0
ARC
  8
0
 62
     2
  6
CONTINUOUS
 10
-1.735236
 20
0.307089
 30
0.000000
 40
3.421182
 50
311.885170
 51
330.052868
  0
ARC
  8
0
 62
     2
  6
CONTINUOUS
 10
3.849134
 20
-5.793611
 30
0.000000
 40
4.849777
 50
132.882400
 51
146.117660
  0
ARC
  8
0
 62
     2
  6
CONTINUOUS
 10
2.751987
 20
-5.138610
 30
0.000000
 40
3.574431
 50
145.029581
 51
167.480233
  0
ARC
  8
0
 62
     2
  6
CONTINUOUS
 10
-1.362251
 20
-4.229221
 30
0.000000
 40
0.639123
 50
324.204291
 51
347.848294
  0
LINE
  8
0
 62
     2
  6
CONTINUOUS
 10
-0.843853
 20
-4.603042
 30
0.000000
 11
-0.854248
 21
-4.618947
 31
0.000000
  0
ARC
  8
0
 62
     2
  6
CONTINUOUS
 10
-0.661858
 20
-4.757853
 30
0.000000
 40
0.237295
 50
144.170738
 51
170.691962
  0
ARC
  8
0
 62
     2
  6
CONTINUOUS
 10
-0.862925
 20
-4.729568
 30
0.000000
 40
0.034609
 50
163.039706
 51
254.371474
  0
ARC
  8
0
 62
     2
  6
CONTINUOUS
 10
-0.872015
 20
-4.659028
 30
0.000000
 40
0.103869
 50
269.871402
 51
314.673535
  0
ARC
  8
0
 62
     2
  6
CONTINUOUS
 10
-1.151109
 20
-4.312033
 30
0.000000
 40
0.548736
 50
309.918186
 51
326.724248
  0
ARC
  8
0
 62
     2
  6
CONTINUOUS
 10
-1.575241
 20
-4.106082
 30
0.000000
 40
1.018127
 50
330.132370
 51
351.307557
  0
LINE
  8
0
 62
     2
  6
CONTINUOUS
 10
-0.568808
 20
-4.259952
 30
0.000000
 11
-0.560518
 21
-4.222917
 31
0.000000
  0
ARC
  8
0
 62
     2
  6
CONTINUOUS
 10
1.966125
 20
-4.964711
 30
0.000000
 40
2.633284
 50
141.934745
 51
163.638361
  0
ARC
  8
0
 62
     2
  6
CONTINUOUS
 10
2.637001
 20
-5.310852
 30
0.000000
 40
3.377835
 50
123.976728
 51
144.329065
  0
ARC
  8
0
 62
     2
  6
CONTINUOUS
 10
-0.424752
 20
-0.792398
 30
0.000000
 40
2.080283
 50
304.357853
 51
336.227528
  0
ARC
  8
0
 62
     2
  6
CONTINUOUS
 10
-0.167288
 20
-0.828333
 30
0.000000
 40
1.831552
 50
334.009054
 51
371.812480
  0
ARC
  8
0
 62
     2
  6
CONTINUOUS
 10
2.130296
 20
-1.840550
 30
0.000000
 40
1.476155
 50
98.304413
 51
109.997721
  0
ARC
  8
0
 62
     2
  6
CONTINUOUS
 10
1.716616
 20
1.020439
 30
0.000000
 40
1.414589
 50
278.147403
 51
290.686548
  0
ARC
  8
0
 62
     2
  6
CONTINUOUS
 10
2.042886
 20
0.134020
 30
0.000000
 40
0.470129
 50
291.649103
 51
329.641610
  0
ARC
  8
0
 62
     2
  6
CONTINUOUS
 10
1.691368
 20
-0.443781
 30
0.000000
 40
0.830096
 50
348.062454
 51
384.193806
  0
ARC
  8
0
 62
     2
  6
CONTINUOUS
 10
-1.429980
 20
0.050384
 30
0.000000
 40
3.989453
 50
342.103301
 51
350.391989
  0
LINE
  8
0
 62
     2
  6
CONTINUOUS
 10
2.366432
 20
-1.175582
 30
0.000000
 11
2.345672
 21
-1.245607
 31
0.000000
  0
ARC
  8
0
 62
     2
  6
CONTINUOUS
 10
-0.911794
 20
2.208711
 30
0.000000
 40
4.747989
 50
307.417348
 51
313.320029
  0
ARC
  8
0
 62
     2
  6
CONTINUOUS
 10
4.097328
 20
-4.406300
 30
0.000000
 40
3.549717
 50
126.755714
 51
136.330681
  0
ARC
  8
0
 62
     2
  6
CONTINUOUS
 10
2.464721
 20
-2.826435
 30
0.000000
 40
1.277996
 50
137.024120
 51
164.282242
  0
ARC
  8
0
 62
     2
  6
CONTINUOUS
 10
22.147570
 20
-7.768962
 30
0.000000
 40
21.571433
 50
165.807937
 51
166.583260
  0
ARC
  8
0
 62
     2
  6
CONTINUOUS
 10
-4.406582
 20
-1.611514
 30
0.000000
 40
5.689333
 50
337.288967
 51
348.315846
  0
ARC
  8
0
 62
     2
  6
CONTINUOUS
 10
0.871895
 20
-3.833129
 30
0.000000
 40
0.039298
 50
140.386659
 51
273.006896
  0
ARC
  8
0
 62
     2
  6
CONTINUOUS
 10
0.503382
 20
-3.355636
 30
0.000000
 40
0.635879
 50
305.646025
 51
335.781746
  0
ARC
  8
0
 62
     2
  6
CONTINUOUS
 10
-0.913960
 20
-2.661254
 30
0.000000
 40
2.213932
 50
334.439599
 51
343.974529
  0
ARC
  8
0
 62
     2
  6
CONTINUOUS
 10
-1.472094
 20
-2.322185
 30
0.000000
 40
2.849166
 50
340.517357
 51
346.559287
  0
ARC
  8
0
 62
     2
  6
CONTINUOUS
 10
2.862317
 20
-3.302784
 30
0.000000
 40
1.595364
 50
152.064508
 51
168.489842
  0
ARC
  8
0
 62
     2
  6
CONTINUOUS
 10
1.913589
 20
-2.826046
 30
0.000000
 40
0.534352
 50
99.987771
 51
149.568475
  0
ARC
  8
0
 62
     2
  6
CONTINUOUS
 10
1.632524
 20
-1.575114
 30
0.000000
 40
0.748765
 50
284.572062
 51
331.608462
  0
ARC
  8
0
 62
     2
  6
CONTINUOUS
 10
-0.075216
 20
-0.567512
 30
0.000000
 40
2.731218
 50
330.047792
 51
346.607188
  0
ARC
  8
0
 62
     2
  6
CONTINUOUS
 10
3.940032
 20
-1.462844
 30
0.000000
 40
1.383478
 50
137.668146
 51
169.053503
  0
ARC
  8
0
 62
     2
  6
CONTINUOUS
 10
2.441299
 20
-0.163771
 30
0.000000
 40
0.601292
 50
322.336062
 51
363.063376
  0
ARC
  8
0
 62
     2
  6
CONTINUOUS
 10
2.454466
 20
-0.084386
 30
0.000000
 40
0.589164
 50
355.399916
 51
399.123513
  0
ARC
  8
0
 62
     2
  6
CONTINUOUS
 10
3.940945
 20
-0.210882
 30
0.000000
 40
1.143657
 50
122.434231
 51
154.172174
  0
ARC
  8
0
 62
     2
  6
CONTINUOUS
 10
4.410939
 20
-0.808286
 30
0.000000
 40
1.901472
 50
102.415714
 51
124.733115
  0
ARC
  8
0
 62
     2
  6
CONTINUOUS
 10
2.887030
 20
0.601282
 30
0.000000
 40
1.201506
 50
350.149120
 51
381.863457
  0
ARC
  8
0
 62
     2
  6
CONTINUOUS
 10
3.091480
 20
0.572790
 30
0.000000
 40
0.995220
 50
305.810306
 51
349.751492
  0
ARC
  8
0
 62
     2
  6
CONTINUOUS
 10
6.082551
 20
-3.027547
 30
0.000000
 40
3.688417
 50
130.772853
 51
154.814961
  0
ARC
  8
0
 62
     2
  6
CONTINUOUS
 10
2.809790
 20
-1.503775
 30
0.000000
 40
0.079543
 50
144.838152
 51
244.655923
  0
ARC
  8
0
 62
     2
  6
CONTINUOUS
 10
2.783737
 20
-1.498290
 30
0.000000
 40
0.077785
 50
264.100052
 51
349.014490
  0
ARC
  8
0
 62
     2
  6
CONTINUOUS
 10
3.489328
 20
-1.752323
 30
0.000000
 40
0.673167
 50
127.909697
 51
159.185065
  0
ARC
  8
0
 62
     2
  6
CONTINUOUS
 10
3.182177
 20
-1.322810
 30
0.000000
 40
0.147160
 50
89.750933
 51
136.335958
  0
ARC
  8
0
 62
     2
  6
CONTINUOUS
 10
3.170211
 20
-1.208460
 30
0.000000
 40
0.035146
 50
0.404381
 51
68.982266
  0
ARC
  8
0
 62
     2
  6
CONTINUOUS
 10
2.989958
 20
-1.223017
 30
0.000000
 40
0.215907
 50
342.154415
 51
363.931847
  0
ARC
  8
0
 62
     2
  6
CONTINUOUS
 10
0.349935
 20
-0.572972
 30
0.000000
 40
2.934291
 50
327.192768
 51
345.872347
  0
ARC
  8
0
 62
     2
  6
CONTINUOUS
 10
-3.565981
 20
2.232586
 30
0.000000
 40
7.749309
 50
317.916635
 51
325.444883
  0
LINE
  8
0
 62
     2
  6
CONTINUOUS
 10
2.185327
 20
-2.961087
 30
0.000000
 11
2.140482
 21
-3.013467
 31
0.000000
  0
ARC
  8
0
 62
     2
  6
CONTINUOUS
 10
5.842451
 20
-6.449222
 30
0.000000
 40
5.050642
 50
137.135958
 51
151.848065
  0
ARC
  8
0
 62
     2
  6
CONTINUOUS
 10
1.886078
 20
-4.319731
 30
0.000000
 40
0.557699
 50
152.968990
 51
164.431184
  0
ARC
  8
0
 62
     2
  6
CONTINUOUS
 10
1.391248
 20
-4.190676
 30
0.000000
 40
0.047157
 50
154.059311
 51
214.494621
  0
ARC
  8
0
 62
     2
  6
CONTINUOUS
 10
1.365455
 20
-4.173327
 30
0.000000
 40
0.045954
 50
253.472225
 51
315.402513
  0
ARC
  8
0
 62
     2
  6
CONTINUOUS
 10
1.077585
 20
-3.742178
 30
0.000000
 40
0.563499
 50
304.675642
 51
316.227221
  0
ARC
  8
0
 62
     2
  6
CONTINUOUS
 10
-25.216094
 20
19.932758
 30
0.000000
 40
35.944870
 50
317.972211
 51
320.202551
  0
LINE
  8
0
 62
     2
  6
CONTINUOUS
 10
2.400782
 20
-3.074672
 30
0.000000
 11
2.768122
 21
-2.644032
 31
0.000000
  0
ARC
  8
0
 62
     2
  6
CONTINUOUS
 10
-0.041363
 20
-0.144403
 30
0.000000
 40
3.760499
 50
318.340161
 51
329.019920
  0
ARC
  8
0
 62
     2
  6
CONTINUOUS
 10
1.384964
 20
-1.010453
 30
0.000000
 40
2.091869
 50
329.247731
 51
348.695235
  0
ARC
  8
0
 62
     2
  6
CONTINUOUS
 10
1.413797
 20
0.198017
 30
0.000000
 40
2.590359
 50
321.330272
 51
335.092425
  0
ARC
  8
0
 62
     2
  6
CONTINUOUS
 10
6.192513
 20
-2.031234
 30
0.000000
 40
2.682760
 50
142.726704
 51
154.893365
  0
ARC
  8
0
 62
     2
  6
CONTINUOUS
 10
3.225373
 20
0.223565
 30
0.000000
 40
1.043909
 50
322.873991
 51
349.968280
  0
ARC
  8
0
 62
     2
  6
CONTINUOUS
 10
2.372727
 20
0.401699
 30
0.000000
 40
1.914738
 50
349.163743
 51
365.199136
  0
ARC
  8
0
 62
     2
  6
CONTINUOUS
 10
2.179046
 20
0.407980
 30
0.000000
 40
2.107187
 50
4.551812
 51
18.448463
  0
ARC
  8
0
 62
     2
  6
CONTINUOUS
 10
3.242555
 20
0.791439
 30
0.000000
 40
0.977366
 50
16.853501
 51
40.128290
  0
ARC
  8
0
 62
     2
  6
CONTINUOUS
 10
4.009658
 20
1.439383
 30
0.000000
 40
0.026784
 50
74.065685
 51
222.311349
  0
ARC
  8
0
 62
     2
  6
CONTINUOUS
 10
3.898674
 20
0.969156
 30
0.000000
 40
0.509903
 50
26.686457
 51
76.580574
  0
ARC
  8
0
 62
     2
  6
CONTINUOUS
 10
3.127634
 20
0.545111
 30
0.000000
 40
1.389635
 50
4.242270
 51
28.030478
  0
ARC
  8
0
 62
     2
  6
CONTINUOUS
 10
1.762426
 20
0.416730
 30
0.000000
 40
2.760732
 50
334.250684
 51
364.803454
  0
ARC
  8
0
 62
     2
  6
CONTINUOUS
 10
-0.439909
 20
1.657879
 30
0.000000
 40
5.286037
 50
324.463729
 51
332.503840
  0
ARC
  8
0
 62
     2
  6
CONTINUOUS
 10
8.132358
 20
-4.471410
 30
0.000000
 40
5.252083
 50
144.405506
 51
152.901556
  0
ARC
  8
0
 62
     2
  6
CONTINUOUS
 10
0.622113
 20
-1.406858
 30
0.000000
 40
2.913300
 50
330.430239
 51
346.661298
  0
ARC
  8
0
 62
     2
  6
CONTINUOUS
 10
-3.820377
 20
1.145452
 30
0.000000
 40
8.036749
 50
324.539262
 51
330.233519
  0
ARC
  8
0
 62
     2
  6
CONTINUOUS
 10
6.590636
 20
-6.427708
 30
0.000000
 40
4.838397
 50
143.016901
 51
157.537733
  0
LINE
  8
0
 62
     2
  6
CONTINUOUS
 10
2.119322
 20
-4.579077
 30
0.000000
 11
1.972077
 21
-4.776227
 31
0.000000
  0
ARC
  8
0
 62
     2
  6
CONTINUOUS
 10
10.413272
 20
-11.266727
 30
0.000000
 40
10.648022
 50
142.443043
 51
146.356194
  0
ARC
  8
0
 62
     2
  6
CONTINUOUS
 10
4.664137
 20
-7.426036
 30
0.000000
 40
3.734048
 50
146.543146
 51
157.730077
  0
ARC
  8
0
 62
     2
  6
CONTINUOUS
 10
0.884715
 20
-5.893603
 30
0.000000
 40
0.344501
 50
325.057506
 51
340.086154
  0
ARC
  8
0
 62
     2
  6
CONTINUOUS
 10
1.140789
 20
-6.079291
 30
0.000000
 40
0.028775
 50
260.503103
 51
336.169864
  0
ARC
  8
0
 62
     2
  6
CONTINUOUS
 10
1.247742
 20
-6.021219
 30
0.000000
 40
0.141249
 50
170.387429
 51
217.738957
  0
ARC
  8
0
 62
     2
  6
CONTINUOUS
 10
6.133018
 20
-5.786808
 30
0.000000
 40
5.028962
 50
170.169729
 51
182.402665
  0
ARC
  8
0
 62
     2
  6
CONTINUOUS
 10
0.821779
 20
-4.844343
 30
0.000000
 40
0.365855
 50
346.747637
 51
363.935700
  0
ARC
  8
0
 62
     2
  6
CONTINUOUS
 10
1.127705
 20
-4.817542
 30
0.000000
 40
0.059090
 50
358.360335
 51
415.373975
  0
ARC
  8
0
 62
     2
  6
CONTINUOUS
 10
1.144599
 20
-4.823379
 30
0.000000
 40
0.056960
 50
72.969167
 51
131.754995
  0
ARC
  8
0
 62
     2
  6
CONTINUOUS
 10
1.320826
 20
-5.075258
 30
0.000000
 40
0.364030
 50
126.036455
 51
143.505489
  0
ARC
  8
0
 62
     2
  6
CONTINUOUS
 10
2.201163
 20
-5.728822
 30
0.000000
 40
1.460451
 50
143.433584
 51
161.286730
  0
ARC
  8
0
 62
     2
  6
CONTINUOUS
 10
3.833132
 20
-6.329423
 30
0.000000
 40
3.199160
 50
160.476080
 51
170.246650
  0
ARC
  8
0
 62
     2
  6
CONTINUOUS
 10
4.398825
 20
-6.476559
 30
0.000000
 40
3.781923
 50
169.501601
 51
186.023379
  0
ARC
  8
0
 62
     2
  6
CONTINUOUS
 10
0.216104
 20
-6.683568
 30
0.000000
 40
0.462442
 50
299.034842
 51
335.762110
  0
ARC
  8
0
 62
     2
  6
CONTINUOUS
 10
-0.075131
 20
-6.198613
 30
0.000000
 40
1.027979
 50
281.270669
 51
300.108692
  0
ARC
  8
0
 62
     2
  6
CONTINUOUS
 10
-0.147339
 20
-6.095757
 30
0.000000
 40
1.144088
 50
252.909095
 51
283.811201
  0
ARC
  8
0
 62
     2
  6
CONTINUOUS
 10
5.268551
 20
6.323818
 30
0.000000
 40
14.686453
 50
244.994957
 51
246.942050
  0
ARC
  8
0
 62
     2
  6
CONTINUOUS
 10
-4.050577
 20
-13.382286
 30
0.000000
 40
7.112731
 50
64.061130
 51
71.485211
  0
ARC
  8
0
 62
     2
  6
CONTINUOUS
 10
-2.674280
 20
-9.380262
 30
0.000000
 40
2.881006
 50
72.165820
 51
91.577145
  0
ARC
  8
0
 62
     2
  6
CONTINUOUS
 10
-2.759204
 20
-6.478227
 30
0.000000
 40
0.022826
 50
151.004685
 51
284.280041
  0
ARC
  8
0
 62
     2
  6
CONTINUOUS
 10
-2.071641
 20
-7.430756
 30
0.000000
 40
1.195453
 50
112.023159
 51
126.288317
  0
ARC
  8
0
 62
     2
  6
CONTINUOUS
 10
-3.093415
 20
-4.959472
 30
0.000000
 40
1.478796
 50
292.818721
 51
302.725633
  0
ARC
  8
0
 62
     2
  6
CONTINUOUS
 10
-3.145573
 20
-4.918564
 30
0.000000
 40
1.541561
 50
303.534522
 51
312.088246
  0
ARC
  8
0
 62
     2
  6
CONTINUOUS
 10
-2.212688
 20
-5.924844
 30
0.000000
 40
0.170433
 50
306.085821
 51
346.421814
  0
ARC
  8
0
 62
     2
  6
CONTINUOUS
 10
-2.107947
 20
-5.979830
 30
0.000000
 40
0.062741
 50
13.805936
 51
99.899272
  0
ARC
  8
0
 62
     2
  6
CONTINUOUS
 10
-2.185388
 20
-6.867056
 30
0.000000
 40
0.951372
 50
85.982467
 51
99.846008
  0
ARC
  8
0
 62
     2
  6
CONTINUOUS
 10
-1.756406
 20
-9.909657
 30
0.000000
 40
4.023699
 50
98.455763
 51
113.315535
  0
ARC
  8
0
 62
     2
  6
CONTINUOUS
 10
1.091898
 20
-16.463456
 30
0.000000
 40
11.169673
 50
113.427106
 51
118.710216
  0
ARC
  8
0
 62
     2
  6
CONTINUOUS
 10
-1.688490
 20
0.180710
 30
0.000000
 40
8.905832
 50
267.096898
 51
284.867580
  0
ARC
  8
0
 62
     2
  6
CONTINUOUS
 10
2.310700
 20
-10.507630
 30
0.000000
 40
2.695778
 50
107.425398
 51
129.482155
  0
ARC
  8
0
 62
     2
  6
CONTINUOUS
 10
1.530856
 20
-7.986168
 30
0.000000
 40
0.057563
 50
57.744810
 51
118.473948
  0
ARC
  8
0
 62
     2
  6
CONTINUOUS
 10
1.526584
 20
-7.955348
 30
0.000000
 40
0.039288
 50
307.630985
 51
387.040264
  0
ARC
  8
0
 62
     2
  6
CONTINUOUS
 10
2.129351
 20
-8.499011
 30
0.000000
 40
0.773105
 50
138.472869
 51
152.749214
  0
ARC
  8
0
 62
     2
  6
CONTINUOUS
 10
1.536530
 20
-8.203250
 30
0.000000
 40
0.110983
 50
148.351999
 51
196.334115
  0
ARC
  8
0
 62
     2
  6
CONTINUOUS
 10
1.549673
 20
-8.123410
 30
0.000000
 40
0.163242
 50
222.866612
 51
282.254365
  0
ARC
  8
0
 62
     2
  6
CONTINUOUS
 10
4.973160
 20
-11.207743
 30
0.000000
 40
4.476466
 50
128.544959
 51
139.203450
  0
ARC
  8
0
 62
     2
  6
CONTINUOUS
 10
2.345714
 20
-7.843097
 30
0.000000
 40
0.211805
 50
85.190741
 51
139.880244
  0
ARC
  8
0
 62
     2
  6
CONTINUOUS
 10
2.336796
 20
-7.673332
 30
0.000000
 40
0.049161
 50
347.606859
 51
417.138402
  0
ARC
  8
0
 62
     2
  6
CONTINUOUS
 10
2.100749
 20
-7.646754
 30
0.000000
 40
0.286479
 50
330.548475
 51
352.553460
  0
ARC
  8
0
 62
     2
  6
CONTINUOUS
 10
0.438362
 20
-6.786936
 30
0.000000
 40
2.157893
 50
329.595392
 51
332.372039
  0
ARC
  8
0
 62
     2
  6
CONTINUOUS
 10
3.840465
 20
-8.793554
 30
0.000000
 40
1.791906
 50
149.312752
 51
153.750100
  0
ARC
  8
0
 62
     2
  6
CONTINUOUS
 10
2.253252
 20
-8.003588
 30
0.000000
 40
0.020066
 50
172.640048
 51
294.463183
  0
ARC
  8
0
 62
     2
  6
CONTINUOUS
 10
1.901266
 20
-7.165817
 30
0.000000
 40
0.928768
 50
292.825649
 51
313.705627
  0
ARC
  8
0
 62
     2
  6
CONTINUOUS
 10
0.337944
 20
-5.512576
 30
0.000000
 40
3.204101
 50
313.487691
 51
319.798715
  0
ARC
  8
0
 62
     2
  6
CONTINUOUS
 10
4.772935
 20
-9.230608
 30
0.000000
 40
2.583262
 50
131.250610
 51
140.306877
  0
ARC
  8
0
 62
     2
  6
CONTINUOUS
 10
3.159247
 20
-7.349476
 30
0.000000
 40
0.108417
 50
72.622778
 51
145.730136
  0
ARC
  8
0
 62
     2
  6
CONTINUOUS
 10
3.076726
 20
-7.297676
 30
0.000000
 40
0.125983
 50
321.223307
 51
384.212444
  0
ARC
  8
0
 62
     2
  6
CONTINUOUS
 10
2.319011
 20
-6.947021
 30
0.000000
 40
0.957672
 50
326.678344
 51
333.349813
  0
ARC
  8
0
 62
     2
  6
CONTINUOUS
 10
4.391299
 20
-8.291477
 30
0.000000
 40
1.512567
 50
147.245045
 51
151.197604
  0
ARC
  8
0
 62
     2
  6
CONTINUOUS
 10
3.058342
 20
-7.383403
 30
0.000000
 40
0.179491
 50
272.399338
 51
308.161541
  0
ARC
  8
0
 62
     2
  6
CONTINUOUS
 10
1.824303
 20
-5.414066
 30
0.000000
 40
2.502587
 50
302.508265
 51
306.802425
  0
ARC
  8
0
 62
     2
  6
CONTINUOUS
 10
4.339145
 20
-8.696233
 30
0.000000
 40
1.632688
 50
115.186350
 51
128.467521
  0
ARC
  8
0
 62
     2
  6
CONTINUOUS
 10
3.718110
 20
-7.327340
 30
0.000000
 40
0.131268
 50
65.420288
 51
124.197111
  0
ARC
  8
0
 62
     2
  6
CONTINUOUS
 10
3.664599
 20
-7.230452
 30
0.000000
 40
0.110426
 50
305.063222
 51
371.748535
  0
ARC
  8
0
 62
     2
  6
CONTINUOUS
 10
-40.162028
 20
32.046392
 30
0.000000
 40
58.958600
 50
315.585794
 51
318.109457
  0
LINE
  8
0
 62
     2
  6
CONTINUOUS
 10
1.802517
 20
-9.370567
 30
0.000000
 11
1.952052
 21
-9.215222
 31
0.000000
  0
ARC
  8
0
 62
     2
  6
CONTINUOUS
 10
-2.034036
 20
-5.373725
 30
0.000000
 40
5.540206
 50
299.137102
 51
313.827755
  0
ARC
  8
0
 62
     2
  6
CONTINUOUS
 10
-7.090798
 20
3.104602
 30
0.000000
 40
15.410509
 50
293.781108
 51
300.210758
  0
ARC
  8
0
 62
     2
  6
CONTINUOUS
 10
-8.133250
 20
5.202873
 30
0.000000
 40
17.751311
 50
288.905589
 51
294.129143
  0
ARC
  8
0
 62
     2
  6
CONTINUOUS
 10
-4.246912
 20
-6.536679
 30
0.000000
 40
5.387351
 50
278.877869
 51
290.256848
  0
ARC
  8
0
 62
     2
  6
CONTINUOUS
 10
-3.807539
 20
-4.344825
 30
0.000000
 40
7.524882
 50
261.900855
 51
272.986497
  0
ARC
  8
0
 62
     2
  6
CONTINUOUS
 10
-1.312733
 20
16.831942
 30
0.000000
 40
28.846484
 50
259.231961
 51
262.921032
  0
ARC
  8
0
 62
     2
  6
CONTINUOUS
 10
3.546191
 20
43.101639
 30
0.000000
 40
55.561587
 50
256.529587
 51
259.370854
  0
ARC
  8
0
 62
     2
  6
CONTINUOUS
 10
-9.336178
 20
-10.622318
 30
0.000000
 40
0.314980
 50
234.441838
 51
258.958489
  0
ARC
  8
0
 62
     2
  6
CONTINUOUS
 10
-9.491615
 20
-10.830911
 30
0.000000
 40
0.055135
 50
164.791694
 51
239.800066
  0
ARC
  8
0
 62
     2
  6
CONTINUOUS
 10
-9.451699
 20
-10.869864
 30
0.000000
 40
0.107353
 50
101.727152
 51
150.159706
  0
ARC
  8
0
 62
     2
  6
CONTINUOUS
 10
-9.320982
 20
-11.286630
 30
0.000000
 40
0.543713
 50
88.426587
 51
106.292718
  0
ARC
  8
0
 62
     2
  6
CONTINUOUS
 10
-8.343398
 20
-31.803300
 30
0.000000
 40
21.082168
 50
89.286442
 51
92.617155
  0
ARC
  8
0
 62
     2
  6
CONTINUOUS
 10
-7.837400
 20
12.884571
 30
0.000000
 40
23.608594
 50
269.409164
 51
271.914265
  0
ARC
  8
0
 62
     2
  6
CONTINUOUS
 10
-7.031700
 20
-10.242557
 30
0.000000
 40
0.468602
 50
267.911413
 51
293.966478
  0
ARC
  8
0
 62
     2
  6
CONTINUOUS
 10
-6.999000
 20
-10.422702
 30
0.000000
 40
0.293912
 50
302.437209
 51
343.386062
  0
ARC
  8
0
 62
     2
  6
CONTINUOUS
 10
-6.628291
 20
-10.527251
 30
0.000000
 40
0.091399
 50
4.451438
 51
167.029861
  0
ARC
  8
0
 62
     2
  6
CONTINUOUS
 10
-6.349845
 20
-10.491298
 30
0.000000
 40
0.189533
 50
188.758301
 51
261.537148
  0
ARC
  8
0
 62
     2
  6
CONTINUOUS
 10
-6.237669
 20
-9.680061
 30
0.000000
 40
1.008481
 50
262.016281
 51
278.213591
  0
LINE
  8
0
 62
     2
  6
CONTINUOUS
 10
-6.029153
 20
-10.672692
 30
0.000000
 11
-6.093593
 21
-10.678197
 31
0.000000
  0
ARC
  8
0
 62
     2
  6
CONTINUOUS
 10
-5.040088
 20
-11.292044
 30
0.000000
 40
1.166982
 50
129.629514
 51
147.945239
  0
ARC
  8
0
 62
     2
  6
CONTINUOUS
 10
-5.662083
 20
-10.511682
 30
0.000000
 40
0.170266
 50
87.669235
 51
135.928234
  0
ARC
  8
0
 62
     2
  6
CONTINUOUS
 10
-5.701292
 20
-10.440602
 30
0.000000
 40
0.109262
 50
349.135217
 51
425.024637
  0
ARC
  8
0
 62
     2
  6
CONTINUOUS
 10
-6.495346
 20
-10.475618
 30
0.000000
 40
0.901473
 50
352.327592
 51
360.916560
  0
ARC
  8
0
 62
     2
  6
CONTINUOUS
 10
-2.818590
 20
-10.904030
 30
0.000000
 40
2.800350
 50
173.684285
 51
174.780689
  0
ARC
  8
0
 62
     2
  6
CONTINUOUS
 10
-5.294520
 20
-8.491255
 30
0.000000
 40
2.180585
 50
261.752387
 51
275.840150
  0
ARC
  8
0
 62
     2
  6
CONTINUOUS
 10
-4.743376
 20
-15.250694
 30
0.000000
 40
4.601966
 50
90.893185
 51
94.102914
  0
ARC
  8
0
 62
     2
  6
CONTINUOUS
 10
-6.061905
 20
-9.935615
 30
0.000000
 40
1.436600
 50
330.212889
 51
332.591495
  0
ARC
  8
0
 62
     2
  6
CONTINUOUS
 10
-4.385970
 20
-10.771731
 30
0.000000
 40
0.437076
 50
122.317188
 51
156.425681
  0
LINE
  8
0
 62
     2
  6
CONTINUOUS
 10
-4.619613
 20
-10.402397
 30
0.000000
 11
-4.619633
 21
-10.402357
 31
0.000000
  0
ARC
  8
0
 62
     2
  6
CONTINUOUS
 10
-5.713106
 20
-11.103401
 30
0.000000
 40
1.298897
 50
20.463752
 51
32.662637
  0
ARC
  8
0
 62
     2
  6
CONTINUOUS
 10
-4.705942
 20
-2.239358
 30
0.000000
 40
8.412545
 50
271.428800
 51
279.043356
  0
ARC
  8
0
 62
     2
  6
CONTINUOUS
 10
-4.111756
 20
-6.016996
 30
0.000000
 40
4.588474
 50
279.130465
 51
290.490011
  0
ARC
  8
0
 62
     2
  6
CONTINUOUS
 10
-4.423041
 20
-5.581970
 30
0.000000
 40
5.106842
 50
292.053204
 51
311.676810
  0
ARC
  8
0
 62
     2
  6
CONTINUOUS
 10
-1.040887
 20
-9.386404
 30
0.000000
 40
0.016766
 50
323.794527
 51
481.723635
  0
ARC
  8
0
 62
     2
  6
CONTINUOUS
 10
0.535392
 20
-18.621801
 30
0.000000
 40
9.384493
 50
99.724205
 51
106.217517
  0
ARC
  8
0
 62
     2
  6
CONTINUOUS
 10
-4.372770
 20
-1.973408
 30
0.000000
 40
7.972457
 50
277.392021
 51
286.671842
  0
ARC
  8
0
 62
     2
  6
CONTINUOUS
 10
-3.695132
 20
-6.959648
 30
0.000000
 40
2.940633
 50
250.616893
 51
276.797962
  0
ARC
  8
0
 62
     2
  6
CONTINUOUS
 10
-6.279185
 20
-4.744921
 30
0.000000
 40
5.241469
 50
259.191149
 51
287.866758
  0
ARC
  8
0
 62
     2
  6
CONTINUOUS
 10
-6.155185
 20
-4.066885
 30
0.000000
 40
5.930732
 50
234.367396
 51
259.242874
  0
ARC
  8
0
 62
     2
  6
CONTINUOUS
 10
-9.211438
 20
-8.287100
 30
0.000000
 40
0.720589
 50
219.489862
 51
236.386874
  0
ARC
  8
0
 62
     2
  6
CONTINUOUS
 10
-9.686133
 20
-8.664952
 30
0.000000
 40
0.114420
 50
166.590686
 51
224.642328
  0
ARC
  8
0
 62
     2
  6
CONTINUOUS
 10
-9.680920
 20
-8.703174
 30
0.000000
 40
0.133300
 50
98.482875
 51
150.935422
  0
ARC
  8
0
 62
     2
  6
CONTINUOUS
 10
-9.506910
 20
-9.380958
 30
0.000000
 40
0.832468
 50
87.979768
 51
103.453119
  0
ARC
  8
0
 62
     2
  6
CONTINUOUS
 10
-9.503093
 20
-1.475570
 30
0.000000
 40
7.073483
 50
270.206797
 51
273.303789
  0
ARC
  8
0
 62
     2
  6
CONTINUOUS
 10
-8.793481
 20
-12.344157
 30
0.000000
 40
3.818817
 50
84.434420
 51
94.535309
  0
ARC
  8
0
 62
     2
  6
CONTINUOUS
 10
-8.426181
 20
-8.523219
 30
0.000000
 40
0.020355
 50
278.667044
 51
412.514693
  0
ARC
  8
0
 62
     2
  6
CONTINUOUS
 10
-3.452735
 20
-4.353367
 30
0.000000
 40
6.470341
 50
212.797713
 51
219.938123
  0
ARC
  8
0
 62
     2
  6
CONTINUOUS
 10
-12.697338
 20
-10.182195
 30
0.000000
 40
4.459197
 50
31.410882
 51
46.540618
  0
ARC
  8
0
 62
     2
  6
CONTINUOUS
 10
-1.306705
 20
-13.000779
 30
0.000000
 40
10.293032
 50
143.963840
 51
150.198604
  0
ARC
  8
0
 62
     2
  6
CONTINUOUS
 10
-14.423303
 20
-5.588392
 30
0.000000
 40
4.773648
 50
321.439476
 51
331.240014
  0
ARC
  8
0
 62
     2
  6
CONTINUOUS
 10
-13.003593
 20
-6.563181
 30
0.000000
 40
3.058343
 50
301.293581
 51
319.139666
  0
ARC
  8
0
 62
     2
  6
CONTINUOUS
 10
-15.426696
 20
-2.831797
 30
0.000000
 40
7.506659
 50
300.677824
 51
302.304309
  0
ARC
  8
0
 62
     2
  6
CONTINUOUS
 10
-9.832768
 20
-12.369574
 30
0.000000
 40
3.550812
 50
119.786867
 51
126.571912
  0
ARC
  8
0
 62
     2
  6
CONTINUOUS
 10
-11.306406
 20
-10.384268
 30
0.000000
 40
1.078355
 50
126.540817
 51
148.193099
  0
ARC
  8
0
 62
     2
  6
CONTINUOUS
 10
-7.870513
 20
-6.660049
 30
0.000000
 40
5.376065
 50
215.945899
 51
238.611946
  0
ARC
  8
0
 62
     2
  6
CONTINUOUS
 10
-5.669016
 20
-3.294865
 30
0.000000
 40
9.396249
 50
237.839738
 51
252.435439
  0
ARC
  8
0
 62
     2
  6
CONTINUOUS
 10
-5.457860
 20
-2.910683
 30
0.000000
 40
9.826613
 50
251.937652
 51
265.908969
  0
ARC
  8
0
 62
     2
  6
CONTINUOUS
 10
-5.661390
 20
-6.874111
 30
0.000000
 40
5.859307
 50
265.129157
 51
285.787739
  0
ARC
  8
0
 62
     2
  6
CONTINUOUS
 10
-14.791223
 20
20.453718
 30
0.000000
 40
34.666525
 50
288.019906
 51
291.887004
  0
ARC
  8
0
 62
     2
  6
CONTINUOUS
 10
-67.949755
 20
155.055139
 30
0.000000
 40
179.384294
 50
291.615687
 51
292.494830
  0
ARC
  8
0
 62
     2
  6
CONTINUOUS
 10
30.780154
 20
-82.039849
 30
0.000000
 40
77.446818
 50
110.429165
 51
112.868727
  0
ARC
  8
0
 62
     2
  6
CONTINUOUS
 10
3.740063
 20
-9.414834
 30
0.000000
 40
0.049803
 50
278.485772
 51
370.179780
  0
ARC
  8
0
 62
     2
  6
CONTINUOUS
 10
3.725217
 20
-9.435478
 30
0.000000
 40
0.070326
 50
24.752766
 51
96.154891
  0
ARC
  8
0
 62
     2
  6
CONTINUOUS
 10
3.794201
 20
-12.530727
 30
0.000000
 40
3.166095
 50
91.384971
 51
103.967302
  0
ARC
  8
0
 62
     2
  6
CONTINUOUS
 10
2.251286
 20
-6.360942
 30
0.000000
 40
3.193693
 50
270.161291
 51
284.112743
  0
ARC
  8
0
 62
     2
  6
CONTINUOUS
 10
2.238693
 20
-9.463429
 30
0.000000
 40
0.093712
 50
214.640044
 51
283.316062
  0
ARC
  8
0
 62
     2
  6
CONTINUOUS
 10
2.252858
 20
-9.525949
 30
0.000000
 40
0.091734
 50
117.537613
 51
174.211828
  0
ARC
  8
0
 62
     2
  6
CONTINUOUS
 10
4.243817
 20
-12.206728
 30
0.000000
 40
3.429855
 50
109.275199
 51
126.359110
  0
ARC
  8
0
 62
     2
  6
CONTINUOUS
 10
4.633512
 20
-13.084013
 30
0.000000
 40
4.387301
 50
95.706293
 51
110.297201
  0
ARC
  8
0
 62
     2
  6
CONTINUOUS
 10
4.095776
 20
-7.012784
 30
0.000000
 40
1.708687
 50
273.405874
 51
285.844935
  0
ARC
  8
0
 62
     2
  6
CONTINUOUS
 10
4.390182
 20
-8.072998
 30
0.000000
 40
0.608405
 50
286.434049
 51
320.956648
  0
ARC
  8
0
 62
     2
  6
CONTINUOUS
 10
4.981641
 20
-8.519414
 30
0.000000
 40
0.134668
 50
91.797555
 51
152.022191
  0
ARC
  8
0
 62
     2
  6
CONTINUOUS
 10
4.973413
 20
-8.420093
 30
0.000000
 40
0.035507
 50
12.327167
 51
83.526361
  0
ARC
  8
0
 62
     2
  6
CONTINUOUS
 10
4.907827
 20
-8.426202
 30
0.000000
 40
0.101205
 50
328.390017
 51
367.774259
  0
ARC
  8
0
 62
     2
  6
CONTINUOUS
 10
5.063682
 20
-8.523281
 30
0.000000
 40
0.082415
 50
147.703889
 51
242.746410
  0
ARC
  8
0
 62
     2
  6
CONTINUOUS
 10
5.083316
 20
-8.419677
 30
0.000000
 40
0.185943
 50
252.027495
 51
314.429193
  0
ARC
  8
0
 62
     2
  6
CONTINUOUS
 10
4.747446
 20
-7.987860
 30
0.000000
 40
0.732097
 50
309.537022
 51
325.104136
  0
ARC
  8
0
 62
     2
  6
CONTINUOUS
 10
5.762326
 20
-8.648519
 30
0.000000
 40
0.479821
 50
102.489204
 51
149.734026
  0
ARC
  8
0
 62
     2
  6
CONTINUOUS
 10
5.455058
 20
-8.321146
 30
0.000000
 40
0.247631
 50
333.165023
 51
394.734370
  0
ARC
  8
0
 62
     2
  6
CONTINUOUS
 10
5.938526
 20
-8.530255
 30
0.000000
 40
0.279965
 50
159.657947
 51
179.918646
  0
ARC
  8
0
 62
     2
  6
CONTINUOUS
 10
5.729256
 20
-7.190763
 30
0.000000
 40
1.340959
 50
266.978024
 51
304.113008
  0
ARC
  8
0
 62
     2
  6
CONTINUOUS
 10
6.497943
 20
-8.322777
 30
0.000000
 40
0.027418
 50
352.339592
 51
487.369751
  0
ARC
  8
0
 62
     2
  6
CONTINUOUS
 10
6.605627
 20
-8.355279
 30
0.000000
 40
0.085522
 50
160.287215
 51
228.521114
  0
ARC
  8
0
 62
     2
  6
CONTINUOUS
 10
6.664717
 20
-8.253948
 30
0.000000
 40
0.201875
 50
235.019045
 51
267.717285
  0
ARC
  8
0
 62
     2
  6
CONTINUOUS
 10
6.731806
 20
-6.927931
 30
0.000000
 40
1.529578
 50
267.184621
 51
278.878158
  0
ARC
  8
0
 62
     2
  6
CONTINUOUS
 10
7.224511
 20
-10.373612
 30
0.000000
 40
1.951380
 50
93.992138
 51
97.557252
  0
ARC
  8
0
 62
     2
  6
CONTINUOUS
 10
5.162572
 20
-9.077950
 30
0.000000
 40
2.033121
 50
18.674364
 51
33.915452
  0
ARC
  8
0
 62
     2
  6
CONTINUOUS
 10
1.453509
 20
-11.563976
 30
0.000000
 40
6.498260
 50
33.858278
 51
38.718982
  0
LINE
  8
0
 62
     2
  6
CONTINUOUS
 10
6.442087
 20
-7.394247
 30
0.000000
 11
6.523602
 21
-7.499307
 31
0.000000
  0
ARC
  8
0
 62
     2
  6
CONTINUOUS
 10
8.825953
 20
-5.558311
 30
0.000000
 40
3.008900
 50
197.033133
 51
217.601691
  0
ARC
  8
0
 62
     2
  6
CONTINUOUS
 10
12.100427
 20
-4.646130
 30
0.000000
 40
6.407532
 50
187.785383
 51
196.255113
  0
ARC
  8
0
 62
     2
  6
CONTINUOUS
 10
0.730091
 20
-6.161668
 30
0.000000
 40
5.063444
 50
7.347586
 51
17.462199
  0
ARC
  8
0
 62
     2
  6
CONTINUOUS
 10
3.853289
 20
-5.209341
 30
0.000000
 40
1.798637
 50
18.378370
 51
47.149861
  0
ARC
  8
0
 62
     2
  6
CONTINUOUS
 10
5.061941
 20
-3.907353
 30
0.000000
 40
0.022129
 50
48.820114
 51
163.930399
  0
ARC
  8
0
 62
     2
  6
CONTINUOUS
 10
-2.870013
 20
-3.291553
 30
0.000000
 40
7.934148
 50
344.882998
 51
355.592944
  0
ARC
  8
0
 62
     2
  6
CONTINUOUS
 10
-13.889359
 20
-0.799652
 30
0.000000
 40
19.227737
 50
341.873348
 51
346.277934
  0
ARC
  8
0
 62
     2
  6
CONTINUOUS
 10
4.239459
 20
-6.769846
 30
0.000000
 40
0.145157
 50
299.569829
 51
355.293128
  0
ARC
  8
0
 62
     2
  6
CONTINUOUS
 10
4.416354
 20
-6.779338
 30
0.000000
 40
0.157203
 50
174.035370
 51
227.964342
  0
ARC
  8
0
 62
     2
  6
CONTINUOUS
 10
11.668666
 20
-6.184563
 30
0.000000
 40
7.431212
 50
178.425190
 51
184.464371
  0
ARC
  8
0
 62
     2
  6
CONTINUOUS
 10
55.719380
 20
-6.930057
 30
0.000000
 40
51.487878
 50
177.772662
 51
178.943090
  0
ARC
  8
0
 62
     2
  6
CONTINUOUS
 10
-43.880981
 20
-2.971342
 30
0.000000
 40
48.191162
 50
357.671844
 51
359.593271
  0
ARC
  8
0
 62
     2
  6
CONTINUOUS
 10
-5.751826
 20
-3.150659
 30
0.000000
 40
10.062109
 50
359.073064
 51
367.155979
  0
ARC
  8
0
 62
     2
  6
CONTINUOUS
 10
4.195811
 20
-1.905250
 30
0.000000
 40
0.036979
 50
12.553257
 51
141.861008
  0
ARC
  8
0
 62
     2
  6
CONTINUOUS
 10
21.062891
 20
-13.008374
 30
0.000000
 40
20.230358
 50
146.635481
 51
151.659745
  0
ARC
  8
0
 62
     2
  6
CONTINUOUS
 10
23.654162
 20
-14.943864
 30
0.000000
 40
23.434622
 50
150.502202
 51
154.061817
  0
LINE
  8
0
 62
     2
  6
CONTINUOUS
 10
2.563642
 20
-4.731687
 30
0.000000
 11
2.580192
 21
-4.693532
 31
0.000000
  0
ARC
  8
0
 62
     2
  6
CONTINUOUS
 10
-1.733488
 20
-2.978651
 30
0.000000
 40
4.640954
 50
330.521400
 51
337.806739
  0
ARC
  8
0
 62
     2
  6
CONTINUOUS
 10
0.928712
 20
-4.473600
 30
0.000000
 40
1.587766
 50
308.810867
 51
330.209177
  0
ARC
  8
0
 62
     2
  6
CONTINUOUS
 10
2.423339
 20
-6.328745
 30
0.000000
 40
0.794561
 50
128.949821
 51
158.393770
  0
ARC
  8
0
 62
     2
  6
CONTINUOUS
 10
4.075812
 20
-6.974088
 30
0.000000
 40
2.568572
 50
158.583020
 51
167.888238
  0
ARC
  8
0
 62
     2
  6
CONTINUOUS
 10
-1.197533
 20
-5.829800
 30
0.000000
 40
2.827511
 50
339.687950
 51
347.637643
  0
ARC
  8
0
 62
     2
  6
CONTINUOUS
 10
-0.044310
 20
-6.270411
 30
0.000000
 40
1.593101
 50
297.922055
 51
340.151551
  0
ARC
  8
0
 62
     2
  6
CONTINUOUS
 10
-0.177614
 20
-5.933909
 30
0.000000
 40
1.953257
 50
278.154497
 51
296.754846
  0
ARC
  8
0
 62
     2
  6
CONTINUOUS
 10
-0.388456
 20
-4.476490
 30
0.000000
 40
3.425848
 50
265.315216
 51
278.187713
  0
ARC
  8
0
 62
     2
  6
CONTINUOUS
 10
-0.510454
 20
-5.962615
 30
0.000000
 40
1.934724
 50
248.455718
 51
265.321501
  0
ARC
  8
0
 62
     2
  6
CONTINUOUS
 10
0.848696
 20
-2.560881
 30
0.000000
 40
5.597920
 50
242.550382
 51
248.302129
  0
ARC
  8
0
 62
     2
  6
CONTINUOUS
 10
-5.409499
 20
-14.763074
 30
0.000000
 40
8.115651
 50
63.053061
 51
65.812980
  0
ARC
  8
0
 62
     2
  6
CONTINUOUS
 10
-3.035537
 20
-9.536699
 30
0.000000
 40
2.375557
 50
66.397329
 51
91.850886
  0
ARC
  8
0
 62
     2
  6
CONTINUOUS
 10
-2.853616
 20
-12.747010
 30
0.000000
 40
5.590614
 50
92.651710
 51
102.448588
  0
ARC
  8
0
 62
     2
  6
CONTINUOUS
 10
-4.966894
 20
-3.518602
 30
0.000000
 40
3.877090
 50
268.666834
 51
283.546462
  0
ARC
  8
0
 62
     2
  6
CONTINUOUS
 10
-4.965551
 20
-5.971064
 30
0.000000
 40
1.426519
 50
224.803069
 51
266.320510
  0
ARC
  8
0
 62
     2
  6
CONTINUOUS
 10
-12.914299
 20
-14.295132
 30
0.000000
 40
10.083731
 50
46.535998
 51
51.324082
  0
ARC
  8
0
 62
     2
  6
CONTINUOUS
 10
-1.208335
 20
0.382299
 30
0.000000
 40
8.690130
 50
225.609383
 51
231.544128
  0
ARC
  8
0
 62
     2
  6
CONTINUOUS
 10
-5.384785
 20
-3.885005
 30
0.000000
 40
2.719149
 50
207.065861
 51
225.593808
  0
ARC
  8
0
 62
     2
  6
CONTINUOUS
 10
-5.806074
 20
-4.220353
 30
0.000000
 40
2.194017
 50
181.413192
 51
204.272356
  0
ARC
  8
0
 62
     2
  6
CONTINUOUS
 10
-21.540827
 20
-5.421906
 30
0.000000
 40
13.589931
 50
4.843441
 51
5.445962
  0
ARC
  8
0
 62
     2
  6
CONTINUOUS
 10
-11.789612
 20
-4.642822
 30
0.000000
 40
3.811740
 50
7.699606
 51
24.259003
  0
LINE
  8
0
 62
     2
  6
CONTINUOUS
 10
-8.374933
 20
-2.922632
 30
0.000000
 11
-8.314458
 21
-3.076722
 31
0.000000
  0
ARC
  8
0
 62
     2
  6
CONTINUOUS
 10
-7.409299
 20
-2.617872
 30
0.000000
 40
1.012585
 50
180.543772
 51
197.516002
  0
ARC
  8
0
 62
     2
  6
CONTINUOUS
 10
-10.164338
 20
-2.675598
 30
0.000000
 40
1.743164
 50
1.581709
 51
32.482240
  0
ARC
  8
0
 62
     2
  6
CONTINUOUS
 10
-9.456743
 20
-2.169508
 30
0.000000
 40
0.875734
 50
29.411593
 51
43.363958
  0
ARC
  8
0
 62
     2
  6
CONTINUOUS
 10
-8.918759
 20
-1.644352
 30
0.000000
 40
0.124646
 50
37.656532
 51
90.291433
  0
ARC
  8
0
 62
     2
  6
CONTINUOUS
 10
-8.885506
 20
-1.619113
 30
0.000000
 40
0.105023
 50
108.824173
 51
168.996445
  0
ARC
  8
0
 62
     2
  6
CONTINUOUS
 10
-8.226278
 20
-1.836991
 30
0.000000
 40
0.798586
 50
162.666579
 51
178.161602
  0
ARC
  8
0
 62
     2
  6
CONTINUOUS
 10
-36.536607
 20
0.949238
 30
0.000000
 40
27.650308
 50
351.946886
 51
354.270035
  0
ARC
  8
0
 62
     2
  6
CONTINUOUS
 10
18.489566
 20
-6.732686
 30
0.000000
 40
27.909588
 50
172.157317
 51
173.473731
  0
ARC
  8
0
 62
     2
  6
CONTINUOUS
 10
8.551632
 20
-3.450559
 30
0.000000
 40
17.791136
 50
180.354121
 51
185.204744
  0
ARC
  8
0
 62
     2
  6
CONTINUOUS
 10
-0.133964
 20
-3.600913
 30
0.000000
 40
9.149994
 50
189.204168
 51
190.500414
  0
ARC
  8
0
 62
     2
  6
CONTINUOUS
 10
-11.367914
 20
-5.820551
 30
0.000000
 40
2.304308
 50
352.216052
 51
373.863110
  0
ARC
  8
0
 62
     2
  6
CONTINUOUS
 10
-5.820425
 20
-2.581129
 30
0.000000
 40
4.823862
 50
227.411979
 51
238.220028
  0
ARC
  8
0
 62
     2
  6
CONTINUOUS
 10
-13.823153
 20
-15.041368
 30
0.000000
 40
9.985905
 50
54.277013
 51
56.839173
  0
ARC
  8
0
 62
     2
  6
CONTINUOUS
 10
-11.185564
 20
-11.212438
 30
0.000000
 40
5.338222
 50
43.623254
 51
53.265254
  0
ARC
  8
0
 62
     2
  6
CONTINUOUS
 10
-5.243859
 20
-5.638843
 30
0.000000
 40
2.808970
 50
222.305844
 51
236.413014
  0
ARC
  8
0
 62
     2
  6
CONTINUOUS
 10
-5.925106
 20
-6.477339
 30
0.000000
 40
1.736693
 50
239.834674
 51
266.565270
  0
ARC
  8
0
 62
     2
  6
CONTINUOUS
 10
-8.655303
 20
-31.716836
 30
0.000000
 40
23.652169
 50
80.058467
 51
83.625185
  0
ARC
  8
0
 62
     2
  6
CONTINUOUS
 10
-0.965725
 20
11.215089
 30
0.000000
 40
19.963321
 50
259.592905
 51
266.629137
  0
ARC
  8
0
 62
     2
  6
CONTINUOUS
 10
-15.871174
 20
-4.116374
 30
0.000000
 40
6.014075
 50
332.538844
 51
342.516669
  0
ARC
  8
0
 62
     2
  6
CONTINUOUS
 10
-14.943341
 20
-4.464213
 30
0.000000
 40
5.024882
 50
343.121269
 51
353.538483
  0
ARC
  8
0
 62
     2
  6
CONTINUOUS
 10
-22.621359
 20
-3.655670
 30
0.000000
 40
12.745262
 50
353.811112
 51
358.345137
  0
ARC
  8
0
 62
     2
  6
CONTINUOUS
 10
-9.931781
 20
-4.018663
 30
0.000000
 40
0.050622
 50
354.247135
 51
406.731637
  0
ARC
  8
0
 62
     2
  6
CONTINUOUS
 10
-9.908796
 20
-3.999837
 30
0.000000
 40
0.021504
 50
56.996890
 51
164.852114
  0
ARC
  8
0
 62
     2
  6
CONTINUOUS
 10
4.092367
 20
-11.983183
 30
0.000000
 40
16.138086
 50
150.327746
 51
154.669101
  0
ARC
  8
0
 62
     2
  6
CONTINUOUS
 10
-4.510414
 20
-8.154064
 30
0.000000
 40
6.727763
 50
152.797702
 51
163.291304
  0
ARC
  8
0
 62
     2
  6
CONTINUOUS
 10
-14.064936
 20
-5.573934
 30
0.000000
 40
3.177151
 50
329.890866
 51
348.271034
  0
ARC
  8
0
 62
     2
  6
CONTINUOUS
 10
-18.885816
 20
-2.575919
 30
0.000000
 40
8.853239
 50
321.844488
 51
328.757533
  0
LINE
  8
0
 62
     2
  6
CONTINUOUS
 10
-11.930883
 20
-8.054372
 30
0.000000
 11
-11.924188
 21
-8.045432
 31
0.000000
  0
ARC
  8
0
 62
     2
  6
CONTINUOUS
 10
-11.971492
 20
-8.038416
 30
0.000000
 40
0.043631
 50
261.954512
 51
338.548448
  0
ARC
  8
0
 62
     2
  6
CONTINUOUS
 10
-11.938723
 20
-8.052900
 30
0.000000
 40
0.048332
 50
145.028807
 51
216.453773
  0
LINE
  8
0
 62
     2
  6
CONTINUOUS
 10
-11.938553
 20
-7.921917
 30
0.000000
 11
-11.978328
 21
-8.025197
 31
0.000000
  0
ARC
  8
0
 62
     2
  6
CONTINUOUS
 10
-18.860073
 20
-5.148606
 30
0.000000
 40
7.456453
 50
338.165035
 51
342.400086
  0
ARC
  8
0
 62
     2
  6
CONTINUOUS
 10
-12.055545
 20
-7.300010
 30
0.000000
 40
0.319992
 50
341.186826
 51
359.895773
  0
ARC
  8
0
 62
     2
  6
CONTINUOUS
 10
-11.786677
 20
-7.295067
 30
0.000000
 40
0.051421
 50
353.831369
 51
416.149078
  0
ARC
  8
0
 62
     2
  6
CONTINUOUS
 10
-11.774323
 20
-7.311718
 30
0.000000
 40
0.061550
 50
74.653244
 51
130.746878
  0
ARC
  8
0
 62
     2
  6
CONTINUOUS
 10
-11.587395
 20
-7.590232
 30
0.000000
 40
0.396605
 50
124.933112
 51
141.864087
  0
ARC
  8
0
 62
     2
  6
CONTINUOUS
 10
-30.895440
 20
8.454482
 30
0.000000
 40
24.708002
 50
314.377071
 51
320.248374
  0
ARC
  8
0
 62
     2
  6
CONTINUOUS
 10
-13.965205
 20
-8.878413
 30
0.000000
 40
0.479120
 50
295.908737
 51
316.925534
  0
ARC
  8
0
 62
     2
  6
CONTINUOUS
 10
-13.792343
 20
-9.253872
 30
0.000000
 40
0.066423
 50
230.767969
 51
303.317564
  0
ARC
  8
0
 62
     2
  6
CONTINUOUS
 10
-13.751359
 20
-9.255543
 30
0.000000
 40
0.096778
 50
156.615870
 51
210.954927
  0
ARC
  8
0
 62
     2
  6
CONTINUOUS
 10
-13.366782
 20
-9.368976
 30
0.000000
 40
0.497163
 50
142.810859
 51
162.216496
  0
ARC
  8
0
 62
     2
  6
CONTINUOUS
 10
-49.942127
 20
12.503562
 30
0.000000
 40
42.122358
 50
329.194336
 51
333.256182
  0
ARC
  8
0
 62
     2
  6
CONTINUOUS
 10
-10.591310
 20
-10.672874
 30
0.000000
 40
4.563703
 50
112.336210
 51
122.382887
  0
ARC
  8
0
 62
     2
  6
CONTINUOUS
 10
-5.075878
 20
-19.405211
 30
0.000000
 40
14.891993
 50
122.309396
 51
125.476735
  0
ARC
  8
0
 62
     2
  6
CONTINUOUS
 10
-18.317480
 20
-1.164961
 30
0.000000
 40
7.649578
 50
295.183444
 51
306.953784
  0
ARC
  8
0
 62
     2
  6
CONTINUOUS
 10
-13.717575
 20
-9.577819
 30
0.000000
 40
2.007459
 50
132.062300
 51
154.677963
  0
ARC
  8
0
 62
     2
  6
CONTINUOUS
 10
-9.934896
 20
-11.511536
 30
0.000000
 40
6.255105
 50
153.486645
 51
162.748848
  0
ARC
  8
0
 62
     2
  6
CONTINUOUS
 10
7.618019
 20
-16.781560
 30
0.000000
 40
24.581872
 50
163.151055
 51
168.429584
  0
ARC
  8
0
 62
     2
  6
CONTINUOUS
 10
-59.291111
 20
-2.558252
 30
0.000000
 40
43.823409
 50
346.667343
 51
347.757329
  0
ARC
  8
0
 62
     2
  6
CONTINUOUS
 10
-16.591666
 20
-12.692569
 30
0.000000
 40
0.063867
 50
153.550605
 51
220.765769
  0
ARC
  8
0
 62
     2
  6
CONTINUOUS
 10
-16.633791
 20
-12.683123
 30
0.000000
 40
0.051529
 50
263.036745
 51
340.731627
  0
ARC
  8
0
 62
     2
  6
CONTINUOUS
 10
-12.255175
 20
-15.834836
 30
0.000000
 40
5.345565
 50
130.791522
 51
144.097134
  0
ARC
  8
0
 62
     2
  6
CONTINUOUS
 10
-10.074669
 20
-18.204826
 30
0.000000
 40
8.565022
 50
123.243968
 51
131.477265
  0
ARC
  8
0
 62
     2
  6
CONTINUOUS
 10
-31.059626
 20
13.377108
 30
0.000000
 40
29.353356
 50
303.707090
 51
308.112363
  0
ARC
  8
0
 62
     2
  6
CONTINUOUS
 10
-23.249455
 20
3.546831
 30
0.000000
 40
16.798574
 50
307.847162
 51
312.383020
  0
ARC
  8
0
 62
     2
  6
CONTINUOUS
 10
-14.776183
 20
-5.599938
 30
0.000000
 40
4.331575
 50
311.150918
 51
324.505181
  0
ARC
  8
0
 62
     2
  6
CONTINUOUS
 10
-23.382907
 20
-0.215143
 30
0.000000
 40
14.478455
 50
326.932488
 51
332.548183
  0
ARC
  8
0
 62
     1
  6
CONTINUOUS
 10
1.749138
 20
8.646586
 30
0.000000
 40
5.824931
 50
316.156817
 51
318.512966
  0
ARC
  8
0
 62
     1
  6
CONTINUOUS
 10
5.544818
 20
5.367230
 30
0.000000
 40
0.811221
 50
314.422469
 51
359.686219
  0
ARC
  8
0
 62
     1
  6
CONTINUOUS
 10
4.424191
 20
5.151490
 30
0.000000
 40
1.943356
 50
6.242009
 51
27.649860
  0
ARC
  8
0
 62
     1
  6
CONTINUOUS
 10
-0.908606
 20
2.866866
 30
0.000000
 40
7.740521
 50
24.309226
 51
27.128953
  0
ARC
  8
0
 62
     1
  6
CONTINUOUS
 10
9.023984
 20
8.076189
 30
0.000000
 40
3.476381
 50
195.632313
 51
208.892699
  0
ARC
  8
0
 62
     1
  6
CONTINUOUS
 10
5.657900
 20
7.144145
 30
0.000000
 40
0.018889
 50
175.405240
 51
345.554996
  0
ARC
  8
0
 62
     1
  6
CONTINUOUS
 10
-1.094522
 20
8.820236
 30
0.000000
 40
6.938695
 50
337.409973
 51
346.034415
  0
ARC
  8
0
 62
     1
  6
CONTINUOUS
 10
4.370371
 20
6.565168
 30
0.000000
 40
1.026979
 50
326.223727
 51
336.450190
  0
ARC
  8
0
 62
     1
  6
CONTINUOUS
 10
5.158373
 20
6.022683
 30
0.000000
 40
0.071545
 50
272.714966
 51
336.555601
  0
ARC
  8
0
 62
     1
  6
CONTINUOUS
 10
5.204959
 20
6.033278
 30
0.000000
 40
0.092736
 50
191.413022
 51
242.237508
  0
ARC
  8
0
 62
     1
  6
CONTINUOUS
 10
6.259070
 20
6.417984
 30
0.000000
 40
1.213882
 50
191.574288
 51
199.392586
  0
ARC
  8
0
 62
     1
  6
CONTINUOUS
 10
8.051131
 20
6.804664
 30
0.000000
 40
3.047146
 50
175.495616
 51
191.936454
  0
ARC
  8
0
 62
     1
  6
CONTINUOUS
 10
14.513008
 20
6.293826
 30
0.000000
 40
9.529184
 50
170.153965
 51
175.484949
  0
ARC
  8
0
 62
     1
  6
CONTINUOUS
 10
-2.327089
 20
9.290561
 30
0.000000
 40
7.575669
 50
349.602464
 51
358.272448
  0
ARC
  8
0
 62
     1
  6
CONTINUOUS
 10
-3.741020
 20
9.078780
 30
0.000000
 40
8.986172
 50
359.894142
 51
361.231411
  0
ARC
  8
0
 62
     1
  6
CONTINUOUS
 10
7.465278
 20
9.404521
 30
0.000000
 40
2.226155
 50
165.999710
 51
183.415425
  0
ARC
  8
0
 62
     1
  6
CONTINUOUS
 10
12.854809
 20
8.020425
 30
0.000000
 40
7.790536
 50
164.001030
 51
165.712080
  0
ARC
  8
0
 62
     1
  6
CONTINUOUS
 10
3.338686
 20
10.868401
 30
0.000000
 40
2.145032
 50
340.932337
 51
360.430353
  0
ARC
  8
0
 62
     1
  6
CONTINUOUS
 10
5.702247
 20
10.919282
 30
0.000000
 40
0.221338
 50
157.004894
 51
189.037743
  0
ARC
  8
0
 62
     1
  6
CONTINUOUS
 10
5.525728
 20
10.980655
 30
0.000000
 40
0.037030
 50
39.317435
 51
137.340917
  0
ARC
  8
0
 62
     1
  6
CONTINUOUS
 10
5.653173
 20
11.109582
 30
0.000000
 40
0.144512
 50
226.869687
 51
275.009224
  0
ARC
  8
0
 62
     1
  6
CONTINUOUS
 10
5.584529
 20
11.079969
 30
0.000000
 40
0.140280
 50
305.400282
 51
362.966232
  0
ARC
  8
0
 62
     1
  6
CONTINUOUS
 10
4.792524
 20
11.207766
 30
0.000000
 40
0.939859
 50
352.631421
 51
363.518589
  0
ARC
  8
0
 62
     1
  6
CONTINUOUS
 10
6.547103
 20
11.329460
 30
0.000000
 40
0.818997
 50
166.374275
 51
184.482757
  0
ARC
  8
0
 62
     1
  6
CONTINUOUS
 10
5.901700
 20
11.519893
 30
0.000000
 40
0.150564
 50
131.975011
 51
179.046776
  0
ARC
  8
0
 62
     1
  6
CONTINUOUS
 10
5.795105
 20
11.569844
 30
0.000000
 40
0.062263
 50
6.217579
 51
84.565307
  0
ARC
  8
0
 62
     1
  6
CONTINUOUS
 10
6.243728
 20
11.734005
 30
0.000000
 40
0.417537
 50
202.148789
 51
216.038133
  0
ARC
  8
0
 62
     1
  6
CONTINUOUS
 10
5.952517
 20
11.516202
 30
0.000000
 40
0.054131
 50
210.956559
 51
266.848661
  0
ARC
  8
0
 62
     1
  6
CONTINUOUS
 10
5.870023
 20
11.626562
 30
0.000000
 40
0.182630
 50
295.811325
 51
342.663835
  0
ARC
  8
0
 62
     1
  6
CONTINUOUS
 10
4.399218
 20
12.412591
 30
0.000000
 40
1.847386
 50
332.938969
 51
362.386525
  0
ARC
  8
0
 62
     1
  6
CONTINUOUS
 10
6.201041
 20
12.367890
 30
0.000000
 40
0.129329
 50
20.261883
 51
70.128250
  0
ARC
  8
0
 62
     1
  6
CONTINUOUS
 10
6.507584
 20
12.510607
 30
0.000000
 40
0.209512
 50
207.866601
 51
227.127057
  0
ARC
  8
0
 62
     1
  6
CONTINUOUS
 10
6.374996
 20
12.380183
 30
0.000000
 40
0.025174
 50
246.694929
 51
374.832942
  0
ARC
  8
0
 62
     1
  6
CONTINUOUS
 10
1.341190
 20
13.633917
 30
0.000000
 40
5.209658
 50
346.147767
 51
361.147890
  0
ARC
  8
0
 62
     1
  6
CONTINUOUS
 10
4.137848
 20
13.671505
 30
0.000000
 40
2.412878
 50
1.585896
 51
17.551956
  0
ARC
  8
0
 62
     1
  6
CONTINUOUS
 10
5.186467
 20
14.008216
 30
0.000000
 40
1.311545
 50
17.342130
 51
44.524328
  0
ARC
  8
0
 62
     1
  6
CONTINUOUS
 10
5.618596
 20
14.164054
 30
0.000000
 40
0.914544
 50
56.637369
 51
72.776527
  0
ARC
  8
0
 62
     1
  6
CONTINUOUS
 10
6.618682
 20
17.087502
 30
0.000000
 40
2.175779
 50
242.859748
 51
250.416156
  0
ARC
  8
0
 62
     1
  6
CONTINUOUS
 10
5.895113
 20
15.694014
 30
0.000000
 40
0.605710
 50
217.041641
 51
243.638388
  0
ARC
  8
0
 62
     1
  6
CONTINUOUS
 10
8.135218
 20
14.703882
 30
0.000000
 40
2.794430
 50
167.070568
 51
177.061660
  0
ARC
  8
0
 62
     1
  6
CONTINUOUS
 10
2.414931
 20
15.006864
 30
0.000000
 40
2.933882
 50
348.330969
 51
356.878971
  0
ARC
  8
0
 62
     1
  6
CONTINUOUS
 10
6.558331
 20
14.160857
 30
0.000000
 40
1.295030
 50
168.751896
 51
190.076366
  0
ARC
  8
0
 62
     1
  6
CONTINUOUS
 10
8.331350
 20
14.519110
 30
0.000000
 40
3.103672
 50
190.861319
 51
199.131467
  0
ARC
  8
0
 62
     1
  6
CONTINUOUS
 10
3.517173
 20
12.762350
 30
0.000000
 40
2.022030
 50
356.347962
 51
381.454213
  0
ARC
  8
0
 62
     1
  6
CONTINUOUS
 10
5.439819
 20
12.637274
 30
0.000000
 40
0.095350
 50
300.677013
 51
357.763199
  0
ARC
  8
0
 62
     1
  6
CONTINUOUS
 10
5.472868
 20
12.594947
 30
0.000000
 40
0.042635
 50
197.525902
 51
291.461253
  0
ARC
  8
0
 62
     1
  6
CONTINUOUS
 10
-2.697193
 20
9.319616
 30
0.000000
 40
8.759627
 50
21.866569
 51
29.158777
  0
LINE
  8
0
 62
     1
  6
CONTINUOUS
 10
4.921597
 20
13.645573
 30
0.000000
 11
4.952352
 21
13.587583
 31
0.000000
  0
ARC
  8
0
 62
     1
  6
CONTINUOUS
 10
9.471013
 20
16.137116
 30
0.000000
 40
5.187001
 50
203.145529
 51
208.707857
  0
ARC
  8
0
 62
     1
  6
CONTINUOUS
 10
6.234525
 20
14.743714
 30
0.000000
 40
1.663342
 50
189.499486
 51
202.832507
  0
ARC
  8
0
 62
     1
  6
CONTINUOUS
 10
7.165370
 20
14.848981
 30
0.000000
 40
2.599273
 50
178.810655
 51
188.401636
  0
ARC
  8
0
 62
     1
  6
CONTINUOUS
 10
22.480267
 20
14.651188
 30
0.000000
 40
17.915379
 50
177.143268
 51
179.194860
  0
ARC
  8
0
 62
     1
  6
CONTINUOUS
 10
1.512662
 20
15.765137
 30
0.000000
 40
3.082427
 50
355.887253
 51
369.980039
  0
ARC
  8
0
 62
     1
  6
CONTINUOUS
 10
0.584239
 20
15.394337
 30
0.000000
 40
4.066198
 50
12.859838
 51
23.508495
  0
ARC
  8
0
 62
     1
  6
CONTINUOUS
 10
-0.721485
 20
15.147696
 30
0.000000
 40
5.370020
 50
20.362984
 51
35.071211
  0
ARC
  8
0
 62
     1
  6
CONTINUOUS
 10
1.694492
 20
16.826613
 30
0.000000
 40
2.428037
 50
35.404310
 51
67.767677
  0
ARC
  8
0
 62
     1
  6
CONTINUOUS
 10
-0.110952
 20
23.638040
 30
0.000000
 40
5.315074
 50
293.299529
 51
300.832357
  0
ARC
  8
0
 62
     1
  6
CONTINUOUS
 10
1.263527
 20
20.231027
 30
0.000000
 40
1.644455
 50
275.380318
 51
296.269842
  0
ARC
  8
0
 62
     1
  6
CONTINUOUS
 10
1.388579
 20
18.227690
 30
0.000000
 40
0.367286
 50
85.449047
 51
132.067267
  0
ARC
  8
0
 62
     1
  6
CONTINUOUS
 10
1.662923
 20
17.994692
 30
0.000000
 40
0.725624
 50
135.824725
 51
158.227481
  0
ARC
  8
0
 62
     1
  6
CONTINUOUS
 10
-1.378505
 20
19.427557
 30
0.000000
 40
2.638106
 50
315.504078
 51
333.824813
  0
ARC
  8
0
 62
     1
  6
CONTINUOUS
 10
-0.800361
 20
18.743517
 30
0.000000
 40
1.748259
 50
291.446420
 51
318.216353
  0
ARC
  8
0
 62
     1
  6
CONTINUOUS
 10
-0.165384
 20
17.144101
 30
0.000000
 40
0.028115
 50
148.471910
 51
278.674550
  0
ARC
  8
0
 62
     1
  6
CONTINUOUS
 10
-7.175590
 20
21.225539
 30
0.000000
 40
8.083682
 50
329.796039
 51
338.172388
  0
LINE
  8
0
 62
     1
  6
CONTINUOUS
 10
0.421722
 20
18.436263
 30
0.000000
 11
0.328547
 21
18.219903
 31
0.000000
  0
ARC
  8
0
 62
     1
  6
CONTINUOUS
 10
1.174735
 20
17.961608
 30
0.000000
 40
0.890127
 50
115.138189
 51
147.775125
  0
ARC
  8
0
 62
     1
  6
CONTINUOUS
 10
3.557514
 20
13.481134
 30
0.000000
 40
5.963850
 50
111.167052
 51
117.577007
  0
ARC
  8
0
 62
     1
  6
CONTINUOUS
 10
-0.170747
 20
23.369983
 30
0.000000
 40
4.605006
 50
289.997074
 51
303.430135
  0
ARC
  8
0
 62
     1
  6
CONTINUOUS
 10
-1.694567
 20
11.304776
 30
0.000000
 40
9.170195
 50
63.715611
 51
65.522682
  0
ARC
  8
0
 62
     1
  6
CONTINUOUS
 10
4.348510
 20
24.704575
 30
0.000000
 40
5.529393
 50
240.793047
 51
246.061727
  0
ARC
  8
0
 62
     1
  6
CONTINUOUS
 10
1.297068
 20
19.360679
 30
0.000000
 40
0.626588
 50
55.678970
 51
117.984558
  0
ARC
  8
0
 62
     1
  6
CONTINUOUS
 10
-17.132444
 20
56.064064
 30
0.000000
 40
40.444074
 50
295.080724
 51
296.641667
  0
ARC
  8
0
 62
     1
  6
CONTINUOUS
 10
11.752766
 20
-5.994662
 30
0.000000
 40
28.007888
 50
114.784705
 51
118.144747
  0
ARC
  8
0
 62
     1
  6
CONTINUOUS
 10
2.990124
 20
10.390809
 30
0.000000
 40
9.426512
 50
118.159951
 51
128.203197
  0
ARC
  8
0
 62
     1
  6
CONTINUOUS
 10
2.853021
 20
3.267271
 30
0.000000
 40
15.606417
 50
111.393394
 51
117.527848
  0
ARC
  8
0
 62
     1
  6
CONTINUOUS
 10
-15.977092
 20
40.133690
 30
0.000000
 40
25.791363
 50
294.967263
 51
296.771126
  0
ARC
  8
0
 62
     1
  6
CONTINUOUS
 10
-6.736558
 20
20.165648
 30
0.000000
 40
3.789270
 50
286.524819
 51
295.746293
  0
ARC
  8
0
 62
     1
  6
CONTINUOUS
 10
-4.606839
 20
12.255686
 30
0.000000
 40
4.404659
 50
103.817096
 51
116.910274
  0
ARC
  8
0
 62
     1
  6
CONTINUOUS
 10
0.921930
 20
1.144172
 30
0.000000
 40
16.815560
 50
116.573228
 51
118.127524
  0
ARC
  8
0
 62
     1
  6
CONTINUOUS
 10
-16.298371
 20
33.269636
 30
0.000000
 40
19.634210
 50
295.336799
 51
298.248643
  0
ARC
  8
0
 62
     1
  6
CONTINUOUS
 10
-10.014686
 20
19.858677
 30
0.000000
 40
4.824620
 50
284.664363
 51
296.047229
  0
ARC
  8
0
 62
     1
  6
CONTINUOUS
 10
-6.748345
 20
7.246503
 30
0.000000
 40
8.203679
 50
104.434515
 51
114.270282
  0
ARC
  8
0
 62
     1
  6
CONTINUOUS
 10
-15.194002
 20
26.502810
 30
0.000000
 40
12.824025
 50
289.266505
 51
293.305439
  0
ARC
  8
0
 62
     1
  6
CONTINUOUS
 10
-12.419292
 20
18.581845
 30
0.000000
 40
4.431134
 50
277.349715
 51
289.192971
  0
ARC
  8
0
 62
     1
  6
CONTINUOUS
 10
-11.641077
 20
13.605971
 30
0.000000
 40
0.618389
 50
109.986141
 51
131.176553
  0
ARC
  8
0
 62
     1
  6
CONTINUOUS
 10
-12.866594
 20
15.051744
 30
0.000000
 40
1.277019
 50
284.735819
 51
309.855430
  0
ARC
  8
0
 62
     1
  6
CONTINUOUS
 10
-12.417271
 20
12.989820
 30
0.000000
 40
0.836228
 50
98.561987
 51
141.101490
  0
ARC
  8
0
 62
     1
  6
CONTINUOUS
 10
-11.210409
 20
12.106039
 30
0.000000
 40
2.331495
 50
142.822709
 51
157.496700
  0
ARC
  8
0
 62
     1
  6
CONTINUOUS
 10
-15.832700
 20
14.055325
 30
0.000000
 40
2.685094
 50
326.197909
 51
336.819353
  0
ARC
  8
0
 62
     1
  6
CONTINUOUS
 10
-11.097856
 20
10.998619
 30
0.000000
 40
2.951418
 50
148.025045
 51
164.330670
  0
ARC
  8
0
 62
     1
  6
CONTINUOUS
 10
-8.501465
 20
10.224877
 30
0.000000
 40
5.660463
 50
163.887923
 51
172.694988
  0
ARC
  8
0
 62
     1
  6
CONTINUOUS
 10
-3.852909
 20
9.658772
 30
0.000000
 40
10.343311
 50
172.858732
 51
180.234506
  0
ARC
  8
0
 62
     1
  6
CONTINUOUS
 10
-18.346766
 20
9.606736
 30
0.000000
 40
4.150644
 50
358.181094
 51
360.133917
  0
ARC
  8
0
 62
     1
  6
CONTINUOUS
 10
-15.717395
 20
8.642277
 30
0.000000
 40
1.732434
 50
13.108385
 51
28.728651
  0
ARC
  8
0
 62
     1
  6
CONTINUOUS
 10
-20.067688
 20
7.600275
 30
0.000000
 40
6.205755
 50
8.752078
 51
13.369035
  0
ARC
  8
0
 62
     1
  6
CONTINUOUS
 10
-10.136866
 20
9.048295
 30
0.000000
 40
3.830596
 50
187.556796
 51
198.802258
  0
ARC
  8
0
 62
     1
  6
CONTINUOUS
 10
-12.794882
 20
8.141802
 30
0.000000
 40
1.022256
 50
198.721938
 51
238.172476
  0
ARC
  8
0
 62
     1
  6
CONTINUOUS
 10
-9.766070
 20
7.654553
 30
0.000000
 40
3.588230
 50
179.677464
 51
186.100014
  0
LINE
  8
0
 62
     1
  6
CONTINUOUS
 10
-13.354558
 20
7.695083
 30
0.000000
 11
-13.354243
 21
7.674753
 31
0.000000
  0
ARC
  8
0
 62
     1
  6
CONTINUOUS
 10
-12.457421
 20
8.614993
 30
0.000000
 40
1.284947
 50
194.413662
 51
225.718046
  0
ARC
  8
0
 62
     1
  6
CONTINUOUS
 10
-8.517028
 20
9.709542
 30
0.000000
 40
5.374353
 50
186.977454
 51
195.258588
  0
ARC
  8
0
 62
     1
  6
CONTINUOUS
 10
-20.537626
 20
8.173684
 30
0.000000
 40
6.744101
 50
7.523194
 51
12.659015
  0
ARC
  8
0
 62
     1
  6
CONTINUOUS
 10
-9.754493
 20
10.312047
 30
0.000000
 40
4.254538
 50
172.337755
 51
188.929754
  0
ARC
  8
0
 62
     1
  6
CONTINUOUS
 10
-10.301460
 20
10.464717
 30
0.000000
 40
3.692930
 50
159.587368
 51
173.553890
  0
ARC
  8
0
 62
     1
  6
CONTINUOUS
 10
-11.801482
 20
11.040757
 30
0.000000
 40
2.086259
 50
135.227616
 51
160.045790
  0
ARC
  8
0
 62
     1
  6
CONTINUOUS
 10
-12.262301
 20
12.383859
 30
0.000000
 40
1.028017
 50
135.007452
 51
172.946674
  0
ARC
  8
0
 62
     1
  6
CONTINUOUS
 10
-10.591043
 20
10.708706
 30
0.000000
 40
3.394288
 50
123.190685
 51
134.955768
  0
ARC
  8
0
 62
     1
  6
CONTINUOUS
 10
-12.426436
 20
13.520522
 30
0.000000
 40
0.036616
 50
321.618395
 51
488.376035
  0
ARC
  8
0
 62
     1
  6
CONTINUOUS
 10
-10.899499
 20
12.134226
 30
0.000000
 40
2.025835
 50
137.694281
 51
157.305829
  0
ARC
  8
0
 62
     1
  6
CONTINUOUS
 10
-9.574184
 20
11.511131
 30
0.000000
 40
3.489517
 50
156.262634
 51
167.979257
  0
ARC
  8
0
 62
     1
  6
CONTINUOUS
 10
-12.944136
 20
12.219893
 30
0.000000
 40
0.046653
 50
157.325252
 51
221.618365
  0
ARC
  8
0
 62
     1
  6
CONTINUOUS
 10
-12.973830
 20
12.221460
 30
0.000000
 40
0.032963
 50
260.952311
 51
347.743540
  0
LINE
  8
0
 62
     1
  6
CONTINUOUS
 10
-12.700233
 20
12.624673
 30
0.000000
 11
-12.941618
 21
12.214463
 31
0.000000
  0
ARC
  8
0
 62
     1
  6
CONTINUOUS
 10
-38.254662
 20
27.888815
 30
0.000000
 40
29.766136
 50
329.149332
 51
330.240923
  0
ARC
  8
0
 62
     1
  6
CONTINUOUS
 10
-12.352081
 20
13.102467
 30
0.000000
 40
0.063112
 50
82.775025
 51
169.218806
  0
ARC
  8
0
 62
     1
  6
CONTINUOUS
 10
-12.385144
 20
13.119807
 30
0.000000
 40
0.061078
 50
324.308310
 51
407.833921
  0
ARC
  8
0
 62
     1
  6
CONTINUOUS
 10
-2.057992
 20
8.835327
 30
0.000000
 40
11.121180
 50
157.539284
 51
164.670535
  0
ARC
  8
0
 62
     1
  6
CONTINUOUS
 10
-12.731173
 20
11.746598
 30
0.000000
 40
0.059739
 50
151.150700
 51
208.998030
  0
ARC
  8
0
 62
     1
  6
CONTINUOUS
 10
-12.787211
 20
11.770532
 30
0.000000
 40
0.053030
 50
274.096283
 51
340.451038
  0
ARC
  8
0
 62
     1
  6
CONTINUOUS
 10
-17.462976
 20
15.028274
 30
0.000000
 40
5.749905
 50
325.273529
 51
337.649749
  0
ARC
  8
0
 62
     1
  6
CONTINUOUS
 10
-12.046268
 20
12.822202
 30
0.000000
 40
0.100676
 50
110.261813
 51
168.790676
  0
ARC
  8
0
 62
     1
  6
CONTINUOUS
 10
-12.135016
 20
12.864026
 30
0.000000
 40
0.075315
 50
326.587242
 51
404.321870
  0
ARC
  8
0
 62
     1
  6
CONTINUOUS
 10
-19.148107
 20
14.690445
 30
0.000000
 40
7.318348
 50
337.630723
 51
345.212542
  0
ARC
  8
0
 62
     1
  6
CONTINUOUS
 10
-2.561557
 20
7.999372
 30
0.000000
 40
10.567258
 50
158.307666
 51
161.863844
  0
ARC
  8
0
 62
     1
  6
CONTINUOUS
 10
-12.480871
 20
11.217180
 30
0.000000
 40
0.142249
 50
149.812096
 51
202.910725
  0
ARC
  8
0
 62
     1
  6
CONTINUOUS
 10
-12.604084
 20
11.193126
 30
0.000000
 40
0.032283
 50
255.991971
 51
326.903501
  0
ARC
  8
0
 62
     1
  6
CONTINUOUS
 10
-12.829914
 20
11.422308
 30
0.000000
 40
0.353358
 50
315.695454
 51
330.618442
  0
ARC
  8
0
 62
     1
  6
CONTINUOUS
 10
-28.056981
 20
20.476950
 30
0.000000
 40
18.069075
 50
329.289052
 51
331.815464
  0
ARC
  8
0
 62
     1
  6
CONTINUOUS
 10
15.398562
 20
-2.984138
 30
0.000000
 40
31.315341
 50
150.698853
 51
151.532388
  0
ARC
  8
0
 62
     1
  6
CONTINUOUS
 10
-11.894496
 20
12.340375
 30
0.000000
 40
0.015829
 50
175.607796
 51
338.494879
  0
ARC
  8
0
 62
     1
  6
CONTINUOUS
 10
-14.404994
 20
12.745734
 30
0.000000
 40
2.558480
 50
337.356112
 51
350.752173
  0
ARC
  8
0
 62
     1
  6
CONTINUOUS
 10
-9.902064
 20
10.840037
 30
0.000000
 40
2.331178
 50
156.737770
 51
174.372900
  0
ARC
  8
0
 62
     1
  6
CONTINUOUS
 10
-12.141546
 20
11.050040
 30
0.000000
 40
0.082579
 50
166.999279
 51
217.061388
  0
ARC
  8
0
 62
     1
  6
CONTINUOUS
 10
-12.197033
 20
11.054385
 30
0.000000
 40
0.055104
 50
259.109708
 51
333.116444
  0
ARC
  8
0
 62
     1
  6
CONTINUOUS
 10
-14.190297
 20
12.869139
 30
0.000000
 40
2.748789
 50
317.989562
 51
333.546865
  0
ARC
  8
0
 62
     1
  6
CONTINUOUS
 10
-7.010859
 20
9.111534
 30
0.000000
 40
5.355411
 50
146.937751
 51
151.770736
  0
ARC
  8
0
 62
     1
  6
CONTINUOUS
 10
-11.484079
 20
12.026868
 30
0.000000
 40
0.016305
 50
157.231864
 51
336.753940
  0
ARC
  8
0
 62
     1
  6
CONTINUOUS
 10
-13.631520
 20
12.427501
 30
0.000000
 40
2.200403
 50
336.443918
 51
349.339032
  0
ARC
  8
0
 62
     1
  6
CONTINUOUS
 10
-9.753343
 20
10.714071
 30
0.000000
 40
2.039475
 50
155.861011
 51
172.913470
  0
ARC
  8
0
 62
     1
  6
CONTINUOUS
 10
-11.751520
 20
10.966266
 30
0.000000
 40
0.025725
 50
181.309507
 51
335.817598
  0
LINE
  8
0
 62
     1
  6
CONTINUOUS
 10
-11.595243
 20
11.133038
 30
0.000000
 11
-11.728053
 21
10.955728
 31
0.000000
  0
ARC
  8
0
 62
     1
  6
CONTINUOUS
 10
-15.803945
 20
14.490916
 30
0.000000
 40
5.384098
 50
321.415668
 51
331.770672
  0
ARC
  8
0
 62
     1
  6
CONTINUOUS
 10
-8.333013
 20
12.112773
 30
0.000000
 40
2.732414
 50
138.066052
 51
183.536461
  0
ARC
  8
0
 62
     1
  6
CONTINUOUS
 10
-7.722295
 20
11.506120
 30
0.000000
 40
3.592406
 50
118.884372
 51
137.377482
  0
ARC
  8
0
 62
     1
  6
CONTINUOUS
 10
-6.525173
 20
9.353143
 30
0.000000
 40
6.055812
 50
106.002088
 51
118.962083
  0
ARC
  8
0
 62
     1
  6
CONTINUOUS
 10
-7.889608
 20
14.219368
 30
0.000000
 40
1.002455
 50
94.206414
 51
107.712333
  0
ARC
  8
0
 62
     1
  6
CONTINUOUS
 10
-7.935458
 20
15.053196
 30
0.000000
 40
0.168220
 50
57.380738
 51
99.471123
  0
ARC
  8
0
 62
     1
  6
CONTINUOUS
 10
-7.889950
 20
15.161479
 30
0.000000
 40
0.056181
 50
304.723411
 51
396.482733
  0
ARC
  8
0
 62
     1
  6
CONTINUOUS
 10
-8.292148
 20
15.529400
 30
0.000000
 40
0.600005
 50
296.857885
 51
316.357494
  0
ARC
  8
0
 62
     1
  6
CONTINUOUS
 10
-9.393911
 20
17.661665
 30
0.000000
 40
3.000080
 50
284.343769
 51
297.232258
  0
ARC
  8
0
 62
     1
  6
CONTINUOUS
 10
-8.394348
 20
13.785969
 30
0.000000
 40
1.002464
 50
104.814816
 51
105.525740
  0
ARC
  8
0
 62
     1
  6
CONTINUOUS
 10
-7.861540
 20
11.791159
 30
0.000000
 40
3.067170
 50
105.141155
 51
127.230383
  0
ARC
  8
0
 62
     1
  6
CONTINUOUS
 10
-8.284138
 20
12.379599
 30
0.000000
 40
2.343049
 50
127.708271
 51
153.487972
  0
ARC
  8
0
 62
     1
  6
CONTINUOUS
 10
-7.994963
 20
12.265327
 30
0.000000
 40
2.652960
 50
154.067400
 51
177.512976
  0
ARC
  8
0
 62
     1
  6
CONTINUOUS
 10
-6.694748
 20
12.213494
 30
0.000000
 40
3.954201
 50
177.580142
 51
195.602075
  0
ARC
  8
0
 62
     1
  6
CONTINUOUS
 10
-17.850076
 20
9.063914
 30
0.000000
 40
7.637251
 50
8.642189
 51
15.851516
  0
ARC
  8
0
 62
     1
  6
CONTINUOUS
 10
-12.532674
 20
9.864873
 30
0.000000
 40
2.259879
 50
349.768185
 51
368.823359
  0
ARC
  8
0
 62
     1
  6
CONTINUOUS
 10
-12.202356
 20
9.860752
 30
0.000000
 40
1.934853
 50
325.914646
 51
348.150546
  0
ARC
  8
0
 62
     1
  6
CONTINUOUS
 10
-14.491026
 20
11.433746
 30
0.000000
 40
4.711930
 50
313.591251
 51
325.669923
  0
ARC
  8
0
 62
     1
  6
CONTINUOUS
 10
-11.356764
 20
8.094550
 30
0.000000
 40
0.136217
 50
274.250210
 51
327.321267
  0
ARC
  8
0
 62
     1
  6
CONTINUOUS
 10
-11.235518
 20
8.015249
 30
0.000000
 40
0.124705
 50
149.759966
 51
206.961945
  0
ARC
  8
0
 62
     1
  6
CONTINUOUS
 10
-5.346563
 20
6.627564
 30
0.000000
 40
6.169620
 50
157.993760
 51
166.402380
  0
ARC
  8
0
 62
     1
  6
CONTINUOUS
 10
-13.672995
 20
10.283765
 30
0.000000
 40
2.932621
 50
332.714252
 51
341.093805
  0
ARC
  8
0
 62
     1
  6
CONTINUOUS
 10
-11.980907
 20
9.690732
 30
0.000000
 40
1.139738
 50
341.735705
 51
364.157302
  0
ARC
  8
0
 62
     1
  6
CONTINUOUS
 10
-14.420790
 20
12.310531
 30
0.000000
 40
4.385142
 50
313.553055
 51
324.648987
  0
ARC
  8
0
 62
     1
  6
CONTINUOUS
 10
-18.068133
 20
16.124270
 30
0.000000
 40
9.662226
 50
308.774079
 51
313.645549
  0
ARC
  8
0
 62
     1
  6
CONTINUOUS
 10
-12.066422
 20
8.628208
 30
0.000000
 40
0.061504
 50
255.613287
 51
323.231492
  0
ARC
  8
0
 62
     1
  6
CONTINUOUS
 10
-12.020625
 20
8.593931
 30
0.000000
 40
0.066111
 50
133.993212
 51
202.499102
  0
ARC
  8
0
 62
     1
  6
CONTINUOUS
 10
-10.134380
 20
7.457963
 30
0.000000
 40
2.265832
 50
143.798561
 51
148.510819
  0
ARC
  8
0
 62
     1
  6
CONTINUOUS
 10
-14.395185
 20
10.550385
 30
0.000000
 40
2.998944
 50
324.202194
 51
326.501740
  0
ARC
  8
0
 62
     1
  6
CONTINUOUS
 10
-11.918366
 20
8.898671
 30
0.000000
 40
0.024252
 50
351.849716
 51
462.230571
  0
ARC
  8
0
 62
     1
  6
CONTINUOUS
 10
-11.583723
 20
7.288979
 30
0.000000
 40
1.668360
 50
101.751156
 51
130.409619
  0
ARC
  8
0
 62
     1
  6
CONTINUOUS
 10
-11.950567
 20
8.244114
 30
0.000000
 40
0.781090
 50
156.200108
 51
181.516476
  0
ARC
  8
0
 62
     1
  6
CONTINUOUS
 10
-10.690889
 20
8.218095
 30
0.000000
 40
2.040502
 50
179.849843
 51
191.472974
  0
ARC
  8
0
 62
     1
  6
CONTINUOUS
 10
-10.568165
 20
8.216067
 30
0.000000
 40
2.160531
 50
190.772902
 51
201.042594
  0
ARC
  8
0
 62
     1
  6
CONTINUOUS
 10
-12.040192
 20
7.616362
 30
0.000000
 40
0.572187
 50
197.920462
 51
223.526579
  0
ARC
  8
0
 62
     1
  6
CONTINUOUS
 10
-9.862358
 20
10.529968
 30
0.000000
 40
4.202706
 50
231.909013
 51
237.295887
  0
ARC
  8
0
 62
     1
  6
CONTINUOUS
 10
-13.132817
 20
5.252082
 30
0.000000
 40
2.007992
 50
36.606075
 51
60.140325
  0
ARC
  8
0
 62
     1
  6
CONTINUOUS
 10
-11.604374
 20
6.374095
 30
0.000000
 40
0.112472
 50
327.502314
 51
402.078041
  0
ARC
  8
0
 62
     1
  6
CONTINUOUS
 10
-11.579058
 20
6.403134
 30
0.000000
 40
0.113317
 50
227.623745
 51
307.859172
  0
ARC
  8
0
 62
     1
  6
CONTINUOUS
 10
-11.995611
 20
5.635119
 30
0.000000
 40
0.764194
 50
63.567365
 51
86.257015
  0
ARC
  8
0
 62
     1
  6
CONTINUOUS
 10
-11.902367
 20
7.125736
 30
0.000000
 40
0.729343
 50
242.121831
 51
266.592034
  0
ARC
  8
0
 62
     1
  6
CONTINUOUS
 10
-11.496792
 20
6.197662
 30
0.000000
 40
0.798580
 50
159.215763
 51
184.819844
  0
ARC
  8
0
 62
     1
  6
CONTINUOUS
 10
-12.863076
 20
6.085339
 30
0.000000
 40
0.572317
 50
345.884894
 51
364.532144
  0
ARC
  8
0
 62
     1
  6
CONTINUOUS
 10
-12.340465
 20
5.955130
 30
0.000000
 40
0.033752
 50
261.578479
 51
343.895073
  0
ARC
  8
0
 62
     1
  6
CONTINUOUS
 10
-12.301041
 20
6.075469
 30
0.000000
 40
0.160001
 50
222.868514
 51
253.901135
  0
ARC
  8
0
 62
     1
  6
CONTINUOUS
 10
-11.204573
 20
5.771493
 30
0.000000
 40
1.229320
 50
170.867083
 51
200.103620
  0
ARC
  8
0
 62
     1
  6
CONTINUOUS
 10
-11.862689
 20
5.563864
 30
0.000000
 40
0.540838
 50
203.413762
 51
252.795044
  0
ARC
  8
0
 62
     1
  6
CONTINUOUS
 10
-11.255717
 20
7.614572
 30
0.000000
 40
2.679452
 50
253.367463
 51
271.466608
  0
ARC
  8
0
 62
     1
  6
CONTINUOUS
 10
-11.152160
 20
8.268963
 30
0.000000
 40
3.333149
 50
269.398728
 51
279.224887
  0
ARC
  8
0
 62
     1
  6
CONTINUOUS
 10
-10.639020
 20
5.186543
 30
0.000000
 40
0.208699
 50
275.829468
 51
309.034803
  0
ARC
  8
0
 62
     1
  6
CONTINUOUS
 10
-10.538830
 20
5.041529
 30
0.000000
 40
0.035618
 50
331.314307
 51
431.890491
  0
ARC
  8
0
 62
     1
  6
CONTINUOUS
 10
-11.147552
 20
3.991275
 30
0.000000
 40
1.248773
 50
60.243021
 51
73.170348
  0
ARC
  8
0
 62
     1
  6
CONTINUOUS
 10
-10.335625
 20
6.612459
 30
0.000000
 40
1.495332
 50
242.149065
 51
252.471134
  0
ARC
  8
0
 62
     1
  6
CONTINUOUS
 10
-10.801967
 20
5.733820
 30
0.000000
 40
0.500610
 50
225.989894
 51
242.360505
  0
ARC
  8
0
 62
     1
  6
CONTINUOUS
 10
-11.130989
 20
5.405691
 30
0.000000
 40
0.037041
 50
147.802850
 51
239.508911
  0
ARC
  8
0
 62
     1
  6
CONTINUOUS
 10
-11.044003
 20
5.118949
 30
0.000000
 40
0.328529
 50
71.575310
 51
111.111489
  0
ARC
  8
0
 62
     1
  6
CONTINUOUS
 10
-10.064515
 20
10.901890
 30
0.000000
 40
5.540881
 50
260.907135
 51
264.924075
  0
ARC
  8
0
 62
     1
  6
CONTINUOUS
 10
-10.719619
 20
2.482639
 30
0.000000
 40
2.904782
 50
72.074991
 51
86.746243
  0
ARC
  8
0
 62
     1
  6
CONTINUOUS
 10
-9.679628
 20
5.826629
 30
0.000000
 40
0.598289
 50
255.877428
 51
278.247496
  0
ARC
  8
0
 62
     1
  6
CONTINUOUS
 10
-9.610159
 20
5.401086
 30
0.000000
 40
0.167360
 50
275.608280
 51
306.364322
  0
ARC
  8
0
 62
     1
  6
CONTINUOUS
 10
-9.540389
 20
5.299684
 30
0.000000
 40
0.044511
 50
311.442330
 51
400.739446
  0
ARC
  8
0
 62
     1
  6
CONTINUOUS
 10
-10.558811
 20
4.589152
 30
0.000000
 40
1.286077
 50
35.104314
 51
66.789424
  0
ARC
  8
0
 62
     1
  6
CONTINUOUS
 10
-9.958990
 20
5.739373
 30
0.000000
 40
0.098240
 50
89.170632
 51
161.135037
  0
ARC
  8
0
 62
     1
  6
CONTINUOUS
 10
-9.957588
 20
5.173610
 30
0.000000
 40
0.663993
 50
75.799323
 51
89.998274
  0
ARC
  8
0
 62
     1
  6
CONTINUOUS
 10
-9.569056
 20
6.722907
 30
0.000000
 40
0.933283
 50
256.008784
 51
273.833228
  0
ARC
  8
0
 62
     1
  6
CONTINUOUS
 10
-9.473328
 20
5.380664
 30
0.000000
 40
0.412398
 50
59.208193
 51
94.636413
  0
ARC
  8
0
 62
     1
  6
CONTINUOUS
 10
-10.017615
 20
4.450416
 30
0.000000
 40
1.490169
 50
49.309356
 51
59.540851
  0
ARC
  8
0
 62
     1
  6
CONTINUOUS
 10
-8.373554
 20
6.325759
 30
0.000000
 40
1.003965
 50
227.944224
 51
244.218838
  0
ARC
  8
0
 62
     1
  6
CONTINUOUS
 10
-8.715196
 20
5.632817
 30
0.000000
 40
0.231489
 50
245.766076
 51
308.714449
  0
ARC
  8
0
 62
     1
  6
CONTINUOUS
 10
-7.474101
 20
6.457500
 30
0.000000
 40
1.487462
 50
203.527024
 51
222.520516
  0
ARC
  8
0
 62
     1
  6
CONTINUOUS
 10
-8.620399
 20
4.968603
 30
0.000000
 40
0.921178
 50
38.717900
 51
103.658026
  0
ARC
  8
0
 62
     1
  6
CONTINUOUS
 10
-7.867792
 20
5.956280
 30
0.000000
 40
0.412884
 50
265.294459
 51
301.965442
  0
ARC
  8
0
 62
     1
  6
CONTINUOUS
 10
-8.696497
 20
7.624768
 30
0.000000
 40
2.274253
 50
297.419247
 51
304.311684
  0
ARC
  8
0
 62
     1
  6
CONTINUOUS
 10
-6.836602
 20
4.896550
 30
0.000000
 40
1.027623
 50
121.390532
 51
124.220341
  0
ARC
  8
0
 62
     1
  6
CONTINUOUS
 10
-6.708237
 20
4.571429
 30
0.000000
 40
1.373321
 50
70.662368
 51
118.896162
  0
ARC
  8
0
 62
     1
  6
CONTINUOUS
 10
-7.884441
 20
1.160141
 30
0.000000
 40
4.981677
 50
57.348174
 51
70.889493
  0
LINE
  8
0
 62
     1
  6
CONTINUOUS
 10
-5.037433
 20
5.261628
 30
0.000000
 11
-5.196663
 21
5.354538
 31
0.000000
  0
ARC
  8
0
 62
     1
  6
CONTINUOUS
 10
-5.054583
 20
5.206644
 30
0.000000
 40
0.057597
 50
8.324818
 51
72.677179
  0
ARC
  8
0
 62
     1
  6
CONTINUOUS
 10
-5.044522
 20
5.243062
 30
0.000000
 40
0.054688
 50
260.998712
 51
329.106284
  0
ARC
  8
0
 62
     1
  6
CONTINUOUS
 10
-5.148819
 20
7.828251
 30
0.000000
 40
2.640940
 50
259.335997
 51
272.077581
  0
ARC
  8
0
 62
     1
  6
CONTINUOUS
 10
-6.095391
 20
2.916851
 30
0.000000
 40
2.360896
 50
78.817303
 51
94.267155
  0
ARC
  8
0
 62
     1
  6
CONTINUOUS
 10
-6.206511
 20
4.614113
 30
0.000000
 40
0.660252
 50
95.610270
 51
148.576450
  0
ARC
  8
0
 62
     1
  6
CONTINUOUS
 10
-7.080853
 20
3.249033
 30
0.000000
 40
1.737358
 50
54.468171
 51
79.690581
  0
ARC
  8
0
 62
     1
  6
CONTINUOUS
 10
-8.623456
 20
0.795538
 30
0.000000
 40
4.633625
 50
43.838101
 51
56.576944
  0
ARC
  8
0
 62
     1
  6
CONTINUOUS
 10
-8.440578
 20
0.896373
 30
0.000000
 40
4.432202
 50
30.545046
 51
44.535315
  0
ARC
  8
0
 62
     1
  6
CONTINUOUS
 10
-6.400097
 20
2.049064
 30
0.000000
 40
2.089532
 50
5.777341
 51
31.759104
  0
LINE
  8
0
 62
     1
  6
CONTINUOUS
 10
-4.318638
 20
2.210543
 30
0.000000
 11
-4.321178
 21
2.259403
 31
0.000000
  0
ARC
  8
0
 62
     1
  6
CONTINUOUS
 10
-3.569228
 20
2.204346
 30
0.000000
 40
0.749436
 50
179.526214
 51
196.306060
  0
ARC
  8
0
 62
     1
  6
CONTINUOUS
 10
-4.150263
 20
2.037191
 30
0.000000
 40
0.144866
 50
197.376248
 51
271.542677
  0
ARC
  8
0
 62
     1
  6
CONTINUOUS
 10
-6.296604
 20
2.334789
 30
0.000000
 40
2.195282
 50
348.373668
 51
381.159029
  0
ARC
  8
0
 62
     1
  6
CONTINUOUS
 10
-7.045133
 20
1.970896
 30
0.000000
 40
3.025487
 50
22.469099
 51
44.609868
  0
ARC
  8
0
 62
     1
  6
CONTINUOUS
 10
-4.766222
 20
4.246117
 30
0.000000
 40
0.195670
 50
171.652877
 51
230.275493
  0
ARC
  8
0
 62
     1
  6
CONTINUOUS
 10
-4.920074
 20
4.260089
 30
0.000000
 40
0.042284
 50
79.264847
 51
160.040752
  0
ARC
  8
0
 62
     1
  6
CONTINUOUS
 10
-4.951114
 20
4.126911
 30
0.000000
 40
0.179003
 50
43.119086
 51
77.443624
  0
ARC
  8
0
 62
     1
  6
CONTINUOUS
 10
-1.223589
 20
8.188620
 30
0.000000
 40
5.334414
 50
227.602084
 51
242.041424
  0
ARC
  8
0
 62
     1
  6
CONTINUOUS
 10
-4.718751
 20
2.612087
 30
0.000000
 40
1.317646
 50
27.190809
 51
41.015074
  0
ARC
  8
0
 62
     1
  6
CONTINUOUS
 10
-2.391700
 20
3.810769
 30
0.000000
 40
1.299988
 50
207.316732
 51
219.175302
  0
ARC
  8
0
 62
     1
  6
CONTINUOUS
 10
-3.455579
 20
2.917738
 30
0.000000
 40
0.091149
 50
355.100414
 51
412.008765
  0
ARC
  8
0
 62
     1
  6
CONTINUOUS
 10
-3.407437
 20
2.987766
 30
0.000000
 40
0.088746
 50
230.251254
 51
298.740817
  0
ARC
  8
0
 62
     1
  6
CONTINUOUS
 10
-2.927294
 20
4.195537
 30
0.000000
 40
1.384354
 50
244.799309
 51
247.180665
  0
ARC
  8
0
 62
     1
  6
CONTINUOUS
 10
-3.657174
 20
2.725098
 30
0.000000
 40
0.259188
 50
57.191697
 51
95.803703
  0
ARC
  8
0
 62
     1
  6
CONTINUOUS
 10
-4.606558
 20
2.420927
 30
0.000000
 40
1.080800
 50
3.084731
 51
31.333154
  0
ARC
  8
0
 62
     1
  6
CONTINUOUS
 10
-7.094701
 20
2.290863
 30
0.000000
 40
3.572339
 50
354.223966
 51
363.020276
  0
ARC
  8
0
 62
     1
  6
CONTINUOUS
 10
1.703983
 20
1.474499
 30
0.000000
 40
5.264342
 50
175.021566
 51
179.259137
  0
ARC
  8
0
 62
     1
  6
CONTINUOUS
 10
-2.871408
 20
2.032238
 30
0.000000
 40
0.844881
 50
215.420543
 51
253.387412
  0
ARC
  8
0
 62
     1
  6
CONTINUOUS
 10
-4.067674
 20
-1.141559
 30
0.000000
 40
2.549673
 50
63.040401
 51
68.009916
  0
ARC
  8
0
 62
     1
  6
CONTINUOUS
 10
-3.706083
 20
-0.282260
 30
0.000000
 40
1.621223
 50
48.440738
 51
60.662019
  0
ARC
  8
0
 62
     1
  6
CONTINUOUS
 10
-1.835117
 20
1.760475
 30
0.000000
 40
1.149358
 50
226.204447
 51
250.307527
  0
ARC
  8
0
 62
     1
  6
CONTINUOUS
 10
-2.177381
 20
0.991755
 30
0.000000
 40
0.316636
 50
261.822716
 51
323.135701
  0
ARC
  8
0
 62
     1
  6
CONTINUOUS
 10
-0.937459
 20
2.209021
 30
0.000000
 40
1.718618
 50
199.051716
 51
234.965984
  0
ARC
  8
0
 62
     1
  6
CONTINUOUS
 10
0.474009
 20
2.695109
 30
0.000000
 40
3.211442
 50
178.902722
 51
199.029022
  0
ARC
  8
0
 62
     1
  6
CONTINUOUS
 10
-2.919783
 20
2.715835
 30
0.000000
 40
0.187428
 50
12.564509
 51
64.335732
  0
ARC
  8
0
 62
     1
  6
CONTINUOUS
 10
-2.526797
 20
3.341392
 30
0.000000
 40
0.552926
 50
227.869340
 51
235.672072
  0
ARC
  8
0
 62
     1
  6
CONTINUOUS
 10
-2.711505
 20
3.142879
 30
0.000000
 40
0.281825
 50
206.080919
 51
228.645062
  0
ARC
  8
0
 62
     1
  6
CONTINUOUS
 10
-2.915004
 20
3.047658
 30
0.000000
 40
0.057320
 50
149.717733
 51
210.023574
  0
ARC
  8
0
 62
     1
  6
CONTINUOUS
 10
-2.895125
 20
2.966344
 30
0.000000
 40
0.130236
 50
51.383211
 51
122.188888
  0
ARC
  8
0
 62
     1
  6
CONTINUOUS
 10
-3.296933
 20
2.060326
 30
0.000000
 40
1.117582
 50
35.179693
 51
64.388723
  0
ARC
  8
0
 62
     1
  6
CONTINUOUS
 10
-3.808057
 20
1.726463
 30
0.000000
 40
1.727836
 50
11.770678
 51
34.463504
  0
ARC
  8
0
 62
     1
  6
CONTINUOUS
 10
-10.771467
 20
0.109927
 30
0.000000
 40
8.876064
 50
11.543168
 51
12.816726
  0
ARC
  8
0
 62
     1
  6
CONTINUOUS
 10
0.579789
 20
2.333964
 30
0.000000
 40
2.692234
 50
189.576277
 51
202.041616
  0
ARC
  8
0
 62
     1
  6
CONTINUOUS
 10
-1.134464
 20
1.652877
 30
0.000000
 40
0.847759
 50
202.853853
 51
241.952145
  0
ARC
  8
0
 62
     1
  6
CONTINUOUS
 10
-1.880822
 20
-1.283296
 30
0.000000
 40
2.215439
 50
61.181477
 51
80.969560
  0
ARC
  8
0
 62
     1
  6
CONTINUOUS
 10
-1.784587
 20
-4.573469
 30
0.000000
 40
5.320711
 50
78.382343
 51
79.477372
  0
ARC
  8
0
 62
     1
  6
CONTINUOUS
 10
-0.201266
 20
2.912768
 30
0.000000
 40
2.331408
 50
257.317990
 51
265.076312
  0
ARC
  8
0
 62
     1
  6
CONTINUOUS
 10
-0.340176
 20
1.156471
 30
0.000000
 40
0.569804
 50
263.834961
 51
293.617203
  0
ARC
  8
0
 62
     1
  6
CONTINUOUS
 10
-0.127868
 20
0.653183
 30
0.000000
 40
0.024660
 50
310.361599
 51
419.973202
  0
ARC
  8
0
 62
     1
  6
CONTINUOUS
 10
0.227153
 20
1.510909
 30
0.000000
 40
0.903856
 50
209.881365
 51
247.720025
  0
ARC
  8
0
 62
     1
  6
CONTINUOUS
 10
1.799329
 20
2.354763
 30
0.000000
 40
2.687934
 50
196.148193
 51
208.781477
  0
ARC
  8
0
 62
     1
  6
CONTINUOUS
 10
-2.818374
 20
1.077519
 30
0.000000
 40
2.103596
 50
14.583587
 51
36.703467
  0
ARC
  8
0
 62
     1
  6
CONTINUOUS
 10
-2.204222
 20
1.314637
 30
0.000000
 40
1.480103
 50
43.569969
 51
60.831869
  0
ARC
  8
0
 62
     1
  6
CONTINUOUS
 10
-0.802473
 20
3.824136
 30
0.000000
 40
1.394351
 50
224.800313
 51
240.793514
  0
ARC
  8
0
 62
     1
  6
CONTINUOUS
 10
-1.648288
 20
2.978470
 30
0.000000
 40
0.198343
 50
203.337398
 51
223.626522
  0
ARC
  8
0
 62
     1
  6
CONTINUOUS
 10
-1.810411
 20
2.911890
 30
0.000000
 40
0.023313
 50
126.960002
 51
210.956799
  0
ARC
  8
0
 62
     1
  6
CONTINUOUS
 10
-1.794164
 20
2.754029
 30
0.000000
 40
0.179065
 50
57.160326
 51
99.730600
  0
LINE
  8
0
 62
     1
  6
CONTINUOUS
 10
-1.610938
 20
2.866453
 30
0.000000
 11
-1.697058
 21
2.904478
 31
0.000000
  0
ARC
  8
0
 62
     1
  6
CONTINUOUS
 10
-2.828432
 20
-0.359051
 30
0.000000
 40
3.447631
 50
53.749563
 51
69.320554
  0
ARC
  8
0
 62
     1
  6
CONTINUOUS
 10
-1.879419
 20
1.103171
 30
0.000000
 40
1.710157
 50
35.155801
 51
50.420390
  0
ARC
  8
0
 62
     1
  6
CONTINUOUS
 10
-3.200350
 20
0.193493
 30
0.000000
 40
3.313973
 50
24.623135
 51
34.864465
  0
ARC
  8
0
 62
     1
  6
CONTINUOUS
 10
-10.792188
 20
-3.431710
 30
0.000000
 40
11.726650
 50
24.540948
 51
25.270206
  0
ARC
  8
0
 62
     1
  6
CONTINUOUS
 10
3.000314
 20
2.768660
 30
0.000000
 40
3.396334
 50
203.050020
 51
213.702337
  0
ARC
  8
0
 62
     1
  6
CONTINUOUS
 10
0.697118
 20
0.003036
 30
0.000000
 40
1.024259
 50
91.665044
 51
120.660518
  0
ARC
  8
0
 62
     1
  6
CONTINUOUS
 10
0.771031
 20
-0.846652
 30
0.000000
 40
1.876381
 50
76.346925
 51
93.167347
  0
ARC
  8
0
 62
     1
  6
CONTINUOUS
 10
1.221153
 20
1.155419
 30
0.000000
 40
0.178857
 50
267.687812
 51
318.327756
  0
ARC
  8
0
 62
     1
  6
CONTINUOUS
 10
1.333086
 20
1.081383
 30
0.000000
 40
0.049836
 50
295.768594
 51
445.043718
  0
ARC
  8
0
 62
     1
  6
CONTINUOUS
 10
1.538255
 20
2.140207
 30
0.000000
 40
1.028970
 50
221.518827
 51
258.743093
  0
ARC
  8
0
 62
     1
  6
CONTINUOUS
 10
2.844506
 20
3.198173
 30
0.000000
 40
2.709302
 50
206.536179
 51
219.959419
  0
ARC
  8
0
 62
     1
  6
CONTINUOUS
 10
-1.905802
 20
0.836509
 30
0.000000
 40
2.595693
 50
26.328867
 51
40.964512
  0
ARC
  8
0
 62
     1
  6
CONTINUOUS
 10
-0.707050
 20
1.827847
 30
0.000000
 40
1.041252
 50
43.018326
 51
82.213209
  0
ARC
  8
0
 62
     1
  6
CONTINUOUS
 10
-0.513449
 20
3.117657
 30
0.000000
 40
0.263448
 50
206.487636
 51
258.499779
  0
ARC
  8
0
 62
     1
  6
CONTINUOUS
 10
-0.709952
 20
3.024560
 30
0.000000
 40
0.046252
 50
120.523500
 51
211.843003
  0
ARC
  8
0
 62
     1
  6
CONTINUOUS
 10
-0.678085
 20
2.872075
 30
0.000000
 40
0.200136
 50
66.048822
 51
106.057495
  0
ARC
  8
0
 62
     1
  6
CONTINUOUS
 10
2.387201
 20
10.903378
 30
0.000000
 40
8.396540
 50
249.182702
 51
258.189542
  0
ARC
  8
0
 62
     1
  6
CONTINUOUS
 10
0.651472
 20
3.129272
 30
0.000000
 40
0.445011
 50
272.211109
 51
317.556827
  0
ARC
  8
0
 62
     1
  6
CONTINUOUS
 10
0.638320
 20
3.254014
 30
0.000000
 40
0.545281
 50
308.782685
 51
357.462983
  0
ARC
  8
0
 62
     1
  6
CONTINUOUS
 10
1.166739
 20
2.993636
 30
0.000000
 40
0.236805
 50
17.287766
 51
86.046414
  0
ARC
  8
0
 62
     1
  6
CONTINUOUS
 10
1.039334
 20
2.903439
 30
0.000000
 40
0.388270
 50
328.587191
 51
384.427925
  0
ARC
  8
0
 62
     1
  6
CONTINUOUS
 10
0.437800
 20
3.299724
 30
0.000000
 40
1.108458
 50
321.182919
 51
327.311190
  0
ARC
  8
0
 62
     1
  6
CONTINUOUS
 10
1.808027
 20
2.178122
 30
0.000000
 40
0.662386
 50
139.886196
 51
152.274527
  0
ARC
  8
0
 62
     1
  6
CONTINUOUS
 10
1.351025
 20
2.417405
 30
0.000000
 40
0.146533
 50
151.960135
 51
200.683793
  0
ARC
  8
0
 62
     1
  6
CONTINUOUS
 10
0.155307
 20
2.040806
 30
0.000000
 40
1.107348
 50
356.497850
 51
377.058678
  0
ARC
  8
0
 62
     1
  6
CONTINUOUS
 10
2.580234
 20
1.917370
 30
0.000000
 40
1.320826
 50
177.579079
 51
192.123651
  0
ARC
  8
0
 62
     1
  6
CONTINUOUS
 10
1.697602
 20
1.738605
 30
0.000000
 40
0.420469
 50
193.567413
 51
239.062273
  0
ARC
  8
0
 62
     1
  6
CONTINUOUS
 10
1.912173
 20
2.187034
 30
0.000000
 40
0.916591
 50
241.970068
 51
269.179157
  0
ARC
  8
0
 62
     1
  6
CONTINUOUS
 10
2.038777
 20
5.211376
 30
0.000000
 40
3.943315
 50
267.969247
 51
274.894885
  0
ARC
  8
0
 62
     1
  6
CONTINUOUS
 10
2.730786
 20
-3.333156
 30
0.000000
 40
4.629271
 50
90.818990
 51
94.404726
  0
ARC
  8
0
 62
     1
  6
CONTINUOUS
 10
0.710208
 20
1.375597
 30
0.000000
 40
1.956043
 50
357.657344
 51
378.467998
  0
ARC
  8
0
 62
     1
  6
CONTINUOUS
 10
-2.110120
 20
0.386974
 30
0.000000
 40
4.944496
 50
18.981354
 51
26.703734
  0
ARC
  8
0
 62
     1
  6
CONTINUOUS
 10
9.648462
 20
6.171084
 30
0.000000
 40
8.160024
 50
203.233776
 51
205.883244
  0
ARC
  8
0
 62
     1
  6
CONTINUOUS
 10
2.516785
 20
3.510064
 30
0.000000
 40
0.667629
 50
187.433226
 51
236.694862
  0
ARC
  8
0
 62
     1
  6
CONTINUOUS
 10
4.400229
 20
3.740378
 30
0.000000
 40
2.565087
 50
173.383572
 51
187.091832
  0
ARC
  8
0
 62
     1
  6
CONTINUOUS
 10
-1.514235
 20
4.365818
 30
0.000000
 40
3.382586
 50
354.403357
 51
362.561350
  0
ARC
  8
0
 62
     1
  6
CONTINUOUS
 10
1.927063
 20
4.539985
 30
0.000000
 40
0.066215
 50
145.365353
 51
200.327631
  0
ARC
  8
0
 62
     1
  6
CONTINUOUS
 10
1.856113
 20
4.522340
 30
0.000000
 40
0.057679
 50
17.435908
 51
73.409798
  0
ARC
  8
0
 62
     1
  6
CONTINUOUS
 10
0.634116
 20
3.962143
 30
0.000000
 40
1.401527
 50
1.949584
 51
24.332819
  0
ARC
  8
0
 62
     1
  6
CONTINUOUS
 10
3.474217
 20
4.064645
 30
0.000000
 40
1.440429
 50
182.181198
 51
203.192313
  0
ARC
  8
0
 62
     1
  6
CONTINUOUS
 10
-0.184154
 20
1.177129
 30
0.000000
 40
3.291311
 50
9.086187
 51
44.826472
  0
ARC
  8
0
 62
     1
  6
CONTINUOUS
 10
3.039695
 20
2.201125
 30
0.000000
 40
0.504910
 50
272.970053
 51
305.137507
  0
ARC
  8
0
 62
     1
  6
CONTINUOUS
 10
2.521736
 20
2.890540
 30
0.000000
 40
1.367065
 50
306.260258
 51
317.741885
  0
ARC
  8
0
 62
     1
  6
CONTINUOUS
 10
4.276878
 20
1.350227
 30
0.000000
 40
0.968610
 50
112.947643
 51
140.124192
  0
ARC
  8
0
 62
     1
  6
CONTINUOUS
 10
2.001960
 20
2.118856
 30
0.000000
 40
1.901271
 50
3.719111
 51
34.883350
  0
ARC
  8
0
 62
     1
  6
CONTINUOUS
 10
1.541496
 20
1.723139
 30
0.000000
 40
2.506061
 50
36.284338
 51
60.086150
  0
ARC
  8
0
 62
     1
  6
CONTINUOUS
 10
3.022746
 20
4.356515
 30
0.000000
 40
0.516018
 50
221.453859
 51
243.346209
  0
ARC
  8
0
 62
     1
  6
CONTINUOUS
 10
2.670428
 20
4.060243
 30
0.000000
 40
0.056932
 50
148.709302
 51
232.787586
  0
ARC
  8
0
 62
     1
  6
CONTINUOUS
 10
2.669623
 20
4.008314
 30
0.000000
 40
0.094506
 50
62.871406
 51
120.416497
  0
ARC
  8
0
 62
     1
  6
CONTINUOUS
 10
2.541425
 20
3.629913
 30
0.000000
 40
0.493210
 50
47.765820
 51
69.677700
  0
ARC
  8
0
 62
     1
  6
CONTINUOUS
 10
3.025820
 20
4.127794
 30
0.000000
 40
0.202442
 50
220.959677
 51
262.153287
  0
ARC
  8
0
 62
     1
  6
CONTINUOUS
 10
2.989887
 20
3.966256
 30
0.000000
 40
0.039880
 50
282.005080
 51
348.430768
  0
ARC
  8
0
 62
     1
  6
CONTINUOUS
 10
2.802521
 20
4.016883
 30
0.000000
 40
0.233902
 50
345.484561
 51
366.330218
  0
ARC
  8
0
 62
     1
  6
CONTINUOUS
 10
25.827799
 20
5.231433
 30
0.000000
 40
22.823782
 50
182.193507
 51
182.985561
  0
ARC
  8
0
 62
     1
  6
CONTINUOUS
 10
-8.197619
 20
4.010712
 30
0.000000
 40
11.223731
 50
1.772444
 51
5.052747
  0
ARC
  8
0
 62
     1
  6
CONTINUOUS
 10
-0.170244
 20
4.731778
 30
0.000000
 40
3.164064
 50
4.848663
 51
15.890405
  0
ARC
  8
0
 62
     1
  6
CONTINUOUS
 10
2.887634
 20
5.612732
 30
0.000000
 40
0.020762
 50
224.838474
 51
373.624178
  0
ARC
  8
0
 62
     1
  6
CONTINUOUS
 10
0.755315
 20
4.002467
 30
0.000000
 40
2.691090
 50
8.476142
 51
36.883232
  0
ARC
  8
0
 62
     1
  6
CONTINUOUS
 10
5.525209
 20
4.682595
 30
0.000000
 40
2.127169
 50
187.658046
 51
208.904128
  0
ARC
  8
0
 62
     1
  6
CONTINUOUS
 10
9.058166
 20
6.645116
 30
0.000000
 40
6.168609
 50
209.000820
 51
216.139856
  0
ARC
  8
0
 62
     1
  6
CONTINUOUS
 10
-7.123592
 20
-4.890239
 30
0.000000
 40
13.704413
 50
33.916511
 51
35.188235
  0
ARC
  8
0
 62
     1
  6
CONTINUOUS
 10
4.791248
 20
2.485382
 30
0.000000
 40
0.606264
 50
123.537581
 51
153.424823
  0
ARC
  8
0
 62
     1
  6
CONTINUOUS
 10
5.680332
 20
1.166216
 30
0.000000
 40
2.197059
 50
115.156289
 51
123.857168
  0
ARC
  8
0
 62
     1
  6
CONTINUOUS
 10
4.197282
 20
4.429957
 30
0.000000
 40
1.388278
 50
293.298968
 51
311.518363
  0
ARC
  8
0
 62
     1
  6
CONTINUOUS
 10
4.806492
 20
3.702150
 30
0.000000
 40
0.440303
 50
314.941796
 51
372.273306
  0
ARC
  8
0
 62
     1
  6
CONTINUOUS
 10
-0.305192
 20
2.780066
 30
0.000000
 40
5.634228
 50
10.385480
 51
35.002498
  0
ARC
  8
0
 62
     1
  6
CONTINUOUS
 10
4.381129
 20
6.097190
 30
0.000000
 40
0.111064
 50
164.640883
 51
230.146803
  0
ARC
  8
0
 62
     1
  6
CONTINUOUS
 10
4.312369
 20
5.998569
 30
0.000000
 40
0.133655
 50
48.708628
 51
106.668975
  0
ARC
  8
0
 62
     1
  6
CONTINUOUS
 10
3.649695
 20
4.784557
 30
0.000000
 40
1.513786
 50
37.383010
 51
60.262822
  0
ARC
  8
0
 62
     1
  6
CONTINUOUS
 10
2.260866
 20
3.660663
 30
0.000000
 40
3.300080
 50
26.670490
 51
38.248130
  0
ARC
  8
0
 62
     1
  6
CONTINUOUS
 10
1.697770
 20
3.293526
 30
0.000000
 40
3.968771
 50
12.244930
 51
27.757976
  0
ARC
  8
0
 62
     1
  6
CONTINUOUS
 10
7.412820
 20
3.078523
 30
0.000000
 40
2.118889
 50
133.648203
 51
150.084253
  0
ARC
  8
0
 62
     1
  6
CONTINUOUS
 10
-11.185231
 20
11.153577
 30
0.000000
 40
0.100471
 50
271.301649
 51
336.243466
  0
ARC
  8
0
 62
     1
  6
CONTINUOUS
 10
-11.141272
 20
11.091052
 30
0.000000
 40
0.056345
 50
167.160428
 51
222.297621
  0
ARC
  8
0
 62
     1
  6
CONTINUOUS
 10
-10.612209
 20
11.055068
 30
0.000000
 40
0.586010
 50
162.693357
 51
175.252153
  0
ARC
  8
0
 62
     1
  6
CONTINUOUS
 10
-4.619137
 20
9.451436
 30
0.000000
 40
6.789482
 50
163.405369
 51
164.818953
  0
ARC
  8
0
 62
     1
  6
CONTINUOUS
 10
-15.940932
 20
12.838698
 30
0.000000
 40
5.028166
 50
343.260743
 51
345.316919
  0
ARC
  8
0
 62
     1
  6
CONTINUOUS
 10
-11.059612
 20
11.565811
 30
0.000000
 40
0.017436
 50
185.308178
 51
328.296103
  0
ARC
  8
0
 62
     1
  6
CONTINUOUS
 10
1.951672
 20
13.909690
 30
0.000000
 40
13.207745
 50
190.262383
 51
190.968494
  0
ARC
  8
0
 62
     1
  6
CONTINUOUS
 10
-22.411965
 20
9.185588
 30
0.000000
 40
11.609667
 50
10.267273
 51
10.979114
  0
ARC
  8
0
 62
     1
  6
CONTINUOUS
 10
-12.917850
 20
12.574939
 30
0.000000
 40
2.337958
 50
321.298576
 51
325.624582
  0
ARC
  8
0
 62
     3
  6
CONTINUOUS
 10
-3.080971
 20
5.111458
 30
0.000000
 40
13.502205
 50
109.398156
 51
111.221957
  0
ARC
  8
0
 62
     3
  6
CONTINUOUS
 10
-9.115138
 20
22.740066
 30
0.000000
 40
5.132420
 50
287.574010
 51
300.414979
  0
ARC
  8
0
 62
     3
  6
CONTINUOUS
 10
-6.457507
 20
18.257826
 30
0.000000
 40
0.081654
 50
79.140421
 51
136.567873
  0
ARC
  8
0
 62
     3
  6
CONTINUOUS
 10
-6.513746
 20
18.337137
 30
0.000000
 40
0.071629
 50
297.991460
 51
360.704510
  0
ARC
  8
0
 62
     3
  6
CONTINUOUS
 10
-10.331545
 20
22.582661
 30
0.000000
 40
5.779182
 50
300.609954
 51
311.792084
  0
ARC
  8
0
 62
     3
  6
CONTINUOUS
 10
-0.119633
 20
6.054912
 30
0.000000
 40
13.650399
 50
122.176352
 51
124.241007
  0
ARC
  8
0
 62
     3
  6
CONTINUOUS
 10
-7.793441
 20
17.313272
 30
0.000000
 40
0.027029
 50
104.860228
 51
201.041547
  0
ARC
  8
0
 62
     3
  6
CONTINUOUS
 10
-7.791762
 20
17.346222
 30
0.000000
 40
0.050432
 50
237.756944
 51
298.357985
  0
ARC
  8
0
 62
     3
  6
CONTINUOUS
 10
-10.878866
 20
25.837193
 30
0.000000
 40
9.084651
 50
290.026336
 51
299.915862
  0
ARC
  8
0
 62
     3
  6
CONTINUOUS
 10
-6.205908
 20
17.761362
 30
0.000000
 40
0.246725
 50
84.689639
 51
125.191562
  0
ARC
  8
0
 62
     3
  6
CONTINUOUS
 10
-6.217400
 20
17.993703
 30
0.000000
 40
0.036822
 50
312.997999
 51
381.214512
  0
ARC
  8
0
 62
     3
  6
CONTINUOUS
 10
-6.690147
 20
18.300831
 30
0.000000
 40
0.599549
 50
316.517588
 51
326.138769
  0
ARC
  8
0
 62
     3
  6
CONTINUOUS
 10
-9.142952
 20
20.548928
 30
0.000000
 40
3.926664
 50
315.238781
 51
317.344456
  0
ARC
  8
0
 62
     3
  6
CONTINUOUS
 10
-3.599400
 20
15.055023
 30
0.000000
 40
3.878076
 50
135.276877
 51
137.043844
  0
ARC
  8
0
 62
     3
  6
CONTINUOUS
 10
-6.421064
 20
17.677538
 30
0.000000
 40
0.026114
 50
322.242317
 51
489.482788
  0
ARC
  8
0
 62
     3
  6
CONTINUOUS
 10
-12.316713
 20
31.798882
 30
0.000000
 40
15.325363
 50
292.708690
 51
303.629015
  0
ARC
  8
0
 62
     3
  6
CONTINUOUS
 10
2.131384
 20
10.280386
 30
0.000000
 40
10.593965
 50
116.169022
 51
124.239347
  0
ARC
  8
0
 62
     3
  6
CONTINUOUS
 10
-0.084782
 20
15.002971
 30
0.000000
 40
5.378902
 50
104.258926
 51
117.167748
  0
ARC
  8
0
 62
     3
  6
CONTINUOUS
 10
-1.928224
 20
22.283281
 30
0.000000
 40
2.131178
 50
284.083604
 51
305.183576
  0
ARC
  8
0
 62
     3
  6
CONTINUOUS
 10
-4.465929
 20
25.931343
 30
0.000000
 40
6.575056
 50
304.940322
 51
311.636522
  0
ARC
  8
0
 62
     3
  6
CONTINUOUS
 10
2.670085
 20
17.984625
 30
0.000000
 40
4.105656
 50
123.204294
 51
132.382523
  0
ARC
  8
0
 62
     3
  6
CONTINUOUS
 10
8.149329
 20
8.090682
 30
0.000000
 40
15.407289
 50
118.743910
 51
120.102950
  0
ARC
  8
0
 62
     3
  6
CONTINUOUS
 10
-8.407219
 20
38.300486
 30
0.000000
 40
19.041972
 50
298.709770
 51
300.661904
  0
ARC
  8
0
 62
     3
  6
CONTINUOUS
 10
-0.367217
 20
24.840401
 30
0.000000
 40
3.363949
 50
299.781514
 51
309.196786
  0
ARC
  8
0
 62
     3
  6
CONTINUOUS
 10
1.496806
 20
22.552260
 30
0.000000
 40
0.412653
 50
309.404098
 51
324.754020
  0
ARC
  8
0
 62
     3
  6
CONTINUOUS
 10
1.803955
 20
22.342589
 30
0.000000
 40
0.041252
 50
316.365424
 51
385.490768
  0
ARC
  8
0
 62
     3
  6
CONTINUOUS
 10
1.758109
 20
22.207304
 30
0.000000
 40
0.174137
 50
61.502868
 51
108.556401
  0
ARC
  8
0
 62
     3
  6
CONTINUOUS
 10
2.253484
 20
19.175298
 30
0.000000
 40
3.244187
 50
99.774922
 51
111.731547
  0
ARC
  8
0
 62
     3
  6
CONTINUOUS
 10
-0.483945
 20
26.218266
 30
0.000000
 40
4.312272
 50
284.180675
 51
290.870005
  0
ARC
  8
0
 62
     3
  6
CONTINUOUS
 10
0.185493
 20
23.610910
 30
0.000000
 40
1.620400
 50
265.250929
 51
283.816899
  0
ARC
  8
0
 62
     3
  6
CONTINUOUS
 10
20.989964
 20
-37.467329
 30
0.000000
 40
63.042226
 50
109.398507
 51
112.641919
  0
ARC
  8
0
 62
     3
  6
CONTINUOUS
 10
8.940774
 20
-8.855012
 30
0.000000
 40
31.996684
 50
112.452748
 51
118.535215
  0
ARC
  8
0
 62
     3
  6
CONTINUOUS
 10
-7.157302
 20
29.839039
 30
0.000000
 40
0.027093
 50
325.242064
 51
497.037657
  0
ARC
  8
0
 62
     3
  6
CONTINUOUS
 10
-9.562241
 20
31.144942
 30
0.000000
 40
2.710399
 50
331.640657
 51
333.872372
  0
ARC
  8
0
 62
     3
  6
CONTINUOUS
 10
-6.372249
 20
29.655565
 30
0.000000
 40
0.812322
 50
131.245586
 51
158.645824
  0
ARC
  8
0
 62
     3
  6
CONTINUOUS
 10
-6.825267
 20
30.137509
 30
0.000000
 40
0.153004
 50
59.496557
 51
122.645526
  0
ARC
  8
0
 62
     3
  6
CONTINUOUS
 10
-6.783682
 20
30.196852
 30
0.000000
 40
0.080968
 50
318.883128
 51
423.538612
  0
ARC
  8
0
 62
     3
  6
CONTINUOUS
 10
-7.799928
 20
31.106023
 30
0.000000
 40
1.444541
 50
297.404777
 51
318.222249
  0
ARC
  8
0
 62
     3
  6
CONTINUOUS
 10
-7.257100
 20
30.411135
 30
0.000000
 40
0.082963
 50
77.517708
 51
160.446129
  0
ARC
  8
0
 62
     3
  6
CONTINUOUS
 10
-7.321446
 20
30.402851
 30
0.000000
 40
0.121415
 50
351.567994
 51
407.339220
  0
ARC
  8
0
 62
     3
  6
CONTINUOUS
 10
-7.517480
 20
30.417339
 30
0.000000
 40
0.317782
 50
308.889958
 51
354.167811
  0
ARC
  8
0
 62
     3
  6
CONTINUOUS
 10
-8.484830
 20
31.458173
 30
0.000000
 40
1.738095
 50
302.681097
 51
312.170955
  0
LINE
  8
0
 62
     3
  6
CONTINUOUS
 10
-7.546323
 20
29.995238
 30
0.000000
 11
-7.554808
 21
29.989463
 31
0.000000
  0
ARC
  8
0
 62
     3
  6
CONTINUOUS
 10
-7.581331
 20
30.006667
 30
0.000000
 40
0.031614
 50
327.030687
 51
500.224457
  0
ARC
  8
0
 62
     3
  6
CONTINUOUS
 10
-4.188955
 20
28.079666
 30
0.000000
 40
3.932600
 50
143.135995
 51
150.320365
  0
ARC
  8
0
 62
     3
  6
CONTINUOUS
 10
8.178733
 20
32.720157
 30
0.000000
 40
0.021304
 50
307.177531
 51
475.334249
  0
ARC
  8
0
 62
     3
  6
CONTINUOUS
 10
5.999887
 20
35.367685
 30
0.000000
 40
3.408158
 50
309.540846
 51
310.502493
  0
ARC
  8
0
 62
     3
  6
CONTINUOUS
 10
8.798179
 20
32.154477
 30
0.000000
 40
0.853509
 50
116.333104
 51
133.245160
  0
ARC
  8
0
 62
     3
  6
CONTINUOUS
 10
8.525614
 20
32.690911
 30
0.000000
 40
0.251913
 50
57.160956
 51
114.894379
  0
ARC
  8
0
 62
     3
  6
CONTINUOUS
 10
8.643999
 20
32.886592
 30
0.000000
 40
0.024234
 50
301.988363
 51
401.240130
  0
LINE
  8
0
 62
     3
  6
CONTINUOUS
 10
8.637872
 20
32.858143
 30
0.000000
 11
8.656837
 21
32.866038
 31
0.000000
  0
ARC
  8
0
 62
     1
  6
CONTINUOUS
 10
-0.307119
 20
7.341212
 30
0.000000
 40
0.868446
 50
269.471271
 51
303.852275
  0
ARC
  8
0
 62
     1
  6
CONTINUOUS
 10
-0.283995
 20
6.912093
 30
0.000000
 40
0.440393
 50
199.622105
 51
265.945494
  0
ARC
  8
0
 62
     1
  6
CONTINUOUS
 10
0.384459
 20
7.206113
 30
0.000000
 40
1.169942
 50
182.944361
 51
202.192528
  0
ARC
  8
0
 62
     1
  6
CONTINUOUS
 10
2.177383
 20
7.325846
 30
0.000000
 40
2.966776
 50
172.297950
 51
183.475050
  0
LINE
  8
0
 62
     1
  6
CONTINUOUS
 10
-0.753428
 20
7.798973
 30
0.000000
 11
-0.762628
 21
7.723458
 31
0.000000
  0
ARC
  8
0
 62
     1
  6
CONTINUOUS
 10
-27.413372
 20
11.234404
 30
0.000000
 40
26.880379
 50
352.657263
 51
354.557147
  0
ARC
  8
0
 62
     1
  6
CONTINUOUS
 10
-4.327707
 20
9.068134
 30
0.000000
 40
3.693473
 50
354.041519
 51
363.470747
  0
ARC
  8
0
 62
     1
  6
CONTINUOUS
 10
-2.341883
 20
9.139801
 30
0.000000
 40
1.707647
 50
5.104444
 51
39.000868
  0
ARC
  8
0
 62
     1
  6
CONTINUOUS
 10
-0.499103
 20
10.597158
 30
0.000000
 40
0.642181
 50
205.100734
 51
216.577331
  0
ARC
  8
0
 62
     1
  6
CONTINUOUS
 10
-1.030805
 20
10.359139
 30
0.000000
 40
0.060555
 50
162.192984
 51
214.618575
  0
ARC
  8
0
 62
     1
  6
CONTINUOUS
 10
-1.074143
 20
10.343871
 30
0.000000
 40
0.036694
 50
38.278908
 51
112.961820
  0
ARC
  8
0
 62
     1
  6
CONTINUOUS
 10
-1.360824
 20
9.943390
 30
0.000000
 40
0.527864
 50
40.320068
 51
53.297197
  0
ARC
  8
0
 62
     1
  6
CONTINUOUS
 10
-9.698560
 20
3.629948
 30
0.000000
 40
10.985452
 50
31.457354
 51
37.286515
  0
ARC
  8
0
 62
     1
  6
CONTINUOUS
 10
10.911023
 20
16.495686
 30
0.000000
 40
13.311089
 50
212.401990
 51
213.306112
  0
ARC
  8
0
 62
     1
  6
CONTINUOUS
 10
-19.431716
 20
-3.886857
 30
0.000000
 40
23.243112
 50
32.092981
 51
34.225927
  0
ARC
  8
0
 62
     1
  6
CONTINUOUS
 10
-3.171890
 20
6.281145
 30
0.000000
 40
4.065866
 50
23.878517
 51
32.439106
  0
ARC
  8
0
 62
     1
  6
CONTINUOUS
 10
-1.770257
 20
6.990830
 30
0.000000
 40
2.498257
 50
357.064444
 51
382.007642
  0
ARC
  8
0
 62
     1
  6
CONTINUOUS
 10
0.655146
 20
6.861369
 30
0.000000
 40
0.069592
 50
307.796920
 51
361.250811
  0
ARC
  8
0
 62
     1
  6
CONTINUOUS
 10
0.700109
 20
6.840097
 30
0.000000
 40
0.033798
 50
185.414185
 51
266.076819
  0
ARC
  8
0
 62
     1
  6
CONTINUOUS
 10
4.549864
 20
8.383908
 30
0.000000
 40
4.180194
 50
199.935394
 51
201.720466
  0
ARC
  8
0
 62
     1
  6
CONTINUOUS
 10
0.585778
 20
6.946820
 30
0.000000
 40
0.036350
 50
18.956169
 51
125.254690
  0
ARC
  8
0
 62
     1
  6
CONTINUOUS
 10
-0.507207
 20
7.754067
 30
0.000000
 40
1.324310
 50
301.090322
 51
324.045238
  0
ARC
  8
0
 62
     1
  6
CONTINUOUS
 10
2.249138
 20
7.581637
 30
0.000000
 40
0.030606
 50
214.407285
 51
383.207709
  0
ARC
  8
0
 62
     1
  6
CONTINUOUS
 10
2.827611
 20
7.724869
 30
0.000000
 40
0.565760
 50
147.200954
 51
193.405959
  0
ARC
  8
0
 62
     1
  6
CONTINUOUS
 10
0.893039
 20
9.099317
 30
0.000000
 40
1.808116
 50
323.796229
 51
339.458925
  0
ARC
  8
0
 62
     1
  6
CONTINUOUS
 10
1.876739
 20
8.727149
 30
0.000000
 40
0.756380
 50
339.712400
 51
368.684869
  0
ARC
  8
0
 62
     1
  6
CONTINUOUS
 10
1.743924
 20
8.673043
 30
0.000000
 40
0.896466
 50
10.822013
 51
36.421793
  0
ARC
  8
0
 62
     1
  6
CONTINUOUS
 10
0.411913
 20
7.708004
 30
0.000000
 40
2.541301
 50
36.099126
 51
48.157228
  0
ARC
  8
0
 62
     1
  6
CONTINUOUS
 10
5.146724
 20
12.670785
 30
0.000000
 40
4.319842
 50
212.791860
 51
225.281649
  0
ARC
  8
0
 62
     1
  6
CONTINUOUS
 10
-2.041024
 20
8.040237
 30
0.000000
 40
4.230346
 50
32.789659
 51
44.984201
  0
ARC
  8
0
 62
     1
  6
CONTINUOUS
 10
0.185837
 20
10.246226
 30
0.000000
 40
1.095931
 50
45.710609
 51
55.052665
  0
ARC
  8
0
 62
     1
  6
CONTINUOUS
 10
0.759929
 20
11.093767
 30
0.000000
 40
0.073888
 50
43.403541
 51
100.478534
  0
ARC
  8
0
 62
     1
  6
CONTINUOUS
 10
0.807135
 20
11.139403
 30
0.000000
 40
0.066391
 50
155.985076
 51
217.870450
  0
ARC
  8
0
 62
     1
  6
CONTINUOUS
 10
1.722417
 20
11.548214
 30
0.000000
 40
1.067021
 50
204.918490
 51
214.522741
  0
ARC
  8
0
 62
     1
  6
CONTINUOUS
 10
-0.759699
 20
9.780063
 30
0.000000
 40
1.980701
 50
24.466510
 51
35.971683
  0
ARC
  8
0
 62
     1
  6
CONTINUOUS
 10
-0.441250
 20
10.096067
 30
0.000000
 40
1.567725
 50
4.802462
 51
18.765331
  0
ARC
  8
0
 62
     1
  6
CONTINUOUS
 10
-1.516303
 20
14.770039
 30
0.000000
 40
0.051105
 50
212.916347
 51
320.289863
  0
ARC
  8
0
 62
     1
  6
CONTINUOUS
 10
-1.464884
 20
14.800634
 30
0.000000
 40
0.110918
 50
147.883750
 51
211.750019
  0
ARC
  8
0
 62
     1
  6
CONTINUOUS
 10
-0.741050
 20
14.383919
 30
0.000000
 40
0.946064
 50
140.452661
 51
149.814394
  0
ARC
  8
0
 62
     1
  6
CONTINUOUS
 10
-2.036860
 20
15.479455
 30
0.000000
 40
0.750937
 50
318.949070
 51
338.618176
  0
ARC
  8
0
 62
     1
  6
CONTINUOUS
 10
-1.637923
 20
14.751043
 30
0.000000
 40
0.544868
 50
33.445383
 51
56.552761
  0
ARC
  8
0
 62
     1
  6
CONTINUOUS
 10
-0.559170
 20
14.271965
 30
0.000000
 40
0.998469
 50
128.686955
 51
143.126066
  0
ARC
  8
0
 62
     1
  6
CONTINUOUS
 10
-2.545424
 20
15.808809
 30
0.000000
 40
1.513109
 50
314.920053
 51
321.704183
  0
ARC
  8
0
 62
     1
  6
CONTINUOUS
 10
8.329711
 20
11.036953
 30
0.000000
 40
7.254063
 50
186.408210
 51
198.465627
  0
ARC
  8
0
 62
     1
  6
CONTINUOUS
 10
3.975571
 20
9.562274
 30
0.000000
 40
2.657090
 50
198.042072
 51
228.757374
  0
ARC
  8
0
 62
     1
  6
CONTINUOUS
 10
6.553837
 20
8.993086
 30
0.000000
 40
2.640115
 50
165.979636
 51
178.748408
  0
ARC
  8
0
 62
     1
  6
CONTINUOUS
 10
4.013625
 20
9.637623
 30
0.000000
 40
0.021817
 50
193.046791
 51
333.101754
  0
ARC
  8
0
 62
     1
  6
CONTINUOUS
 10
-6.152976
 20
9.024652
 30
0.000000
 40
10.203897
 50
359.285354
 51
363.388439
  0
ARC
  8
0
 62
     1
  6
CONTINUOUS
 10
24.581223
 20
8.839320
 30
0.000000
 40
20.531179
 50
179.837967
 51
180.760195
  0
ARC
  8
0
 62
     1
  6
CONTINUOUS
 10
4.029935
 20
8.559177
 30
0.000000
 40
0.023245
 50
224.923217
 51
379.463895
  0
ARC
  8
0
 62
     1
  6
CONTINUOUS
 10
4.915709
 20
8.982483
 30
0.000000
 40
1.003682
 50
176.099778
 51
205.983189
  0
ARC
  8
0
 62
     1
  6
CONTINUOUS
 10
5.873816
 20
9.150779
 30
0.000000
 40
1.463144
 50
146.009988
 51
168.650843
  0
ARC
  8
0
 62
     1
  6
CONTINUOUS
 10
4.676123
 20
9.964164
 30
0.000000
 40
0.016117
 50
58.886537
 51
163.477209
  0
ARC
  8
0
 62
     1
  6
CONTINUOUS
 10
4.654901
 20
9.953758
 30
0.000000
 40
0.038199
 50
344.092375
 51
399.320784
  0
ARC
  8
0
 62
     1
  6
CONTINUOUS
 10
7.576355
 20
9.558453
 30
0.000000
 40
2.910274
 50
172.401342
 51
180.265194
  0
ARC
  8
0
 62
     1
  6
CONTINUOUS
 10
1.955453
 20
9.525067
 30
0.000000
 40
2.710731
 50
351.837241
 51
360.420946
  0
ARC
  8
0
 62
     1
  6
CONTINUOUS
 10
4.074241
 20
9.208143
 30
0.000000
 40
0.568557
 50
317.879747
 51
353.134988
  0
ARC
  8
0
 62
     1
  6
CONTINUOUS
 10
5.473126
 20
9.225904
 30
0.000000
 40
1.055519
 50
168.368829
 51
202.215701
  0
ARC
  8
0
 62
     3
  6
CONTINUOUS
 10
7.533919
 20
35.317311
 30
0.000000
 40
2.695593
 50
284.121927
 51
294.175924
  0
ARC
  8
0
 62
     3
  6
CONTINUOUS
 10
-14.431676
 20
71.490798
 30
0.000000
 40
50.298686
 50
295.150973
 51
296.823293
  0
ARC
  8
0
 62
     3
  6
CONTINUOUS
 10
34.891827
 20
-33.238960
 30
0.000000
 40
65.464626
 50
115.270470
 51
116.211032
  0
ARC
  8
0
 62
     3
  6
CONTINUOUS
 10
10.534586
 20
23.577801
 30
0.000000
 40
4.943626
 50
157.192151
 51
160.567545
  0
ARC
  8
0
 62
     3
  6
CONTINUOUS
 10
2.575461
 20
26.341595
 30
0.000000
 40
3.481852
 50
333.902863
 51
341.252308
  0
ARC
  8
0
 62
     3
  6
CONTINUOUS
 10
5.719684
 20
24.798765
 30
0.000000
 40
0.020639
 50
342.671687
 51
507.192977
  0
ARC
  8
0
 62
     3
  6
CONTINUOUS
 10
18.319486
 20
7.005046
 30
0.000000
 40
21.786615
 50
120.066576
 51
125.269514
  0
ARC
  8
0
 62
     3
  6
CONTINUOUS
 10
-10.749606
 20
56.543574
 30
0.000000
 40
35.651594
 50
300.610699
 51
302.691625
  0
ARC
  8
0
 62
     6
  6
CONTINUOUS
 10
-4.516844
 20
13.279549
 30
0.000000
 40
4.908659
 50
258.730931
 51
274.345722
  0
ARC
  8
0
 62
     6
  6
CONTINUOUS
 10
-4.415988
 20
11.953293
 30
0.000000
 40
3.578573
 50
274.344593
 51
295.295710
  0
ARC
  8
0
 62
     6
  6
CONTINUOUS
 10
-2.892658
 20
8.760610
 30
0.000000
 40
0.043144
 50
277.671400
 51
347.643301
  0
ARC
  8
0
 62
     6
  6
CONTINUOUS
 10
-2.879702
 20
8.697969
 30
0.000000
 40
0.060865
 50
61.343253
 51
115.796412
  0
ARC
  8
0
 62
     6
  6
CONTINUOUS
 10
-3.390985
 20
10.645736
 30
0.000000
 40
1.954062
 50
250.583518
 51
284.364915
  0
ARC
  8
0
 62
     6
  6
CONTINUOUS
 10
-4.033656
 20
8.822366
 30
0.000000
 40
0.020748
 50
110.753967
 51
250.510724
  0
ARC
  8
0
 62
     6
  6
CONTINUOUS
 10
-4.580788
 20
10.749222
 30
0.000000
 40
1.982359
 50
285.800686
 51
380.591019
  0
ARC
  8
0
 62
     6
  6
CONTINUOUS
 10
-9.802544
 20
8.554040
 30
0.000000
 40
7.645677
 50
22.228485
 51
23.681257
  0
ARC
  8
0
 62
     6
  6
CONTINUOUS
 10
-0.375469
 20
12.766246
 30
0.000000
 40
2.680352
 50
195.107081
 51
205.202251
  0
ARC
  8
0
 62
     6
  6
CONTINUOUS
 10
-4.911390
 20
9.007482
 30
0.000000
 40
3.627715
 50
44.426782
 51
57.518132
  0
ARC
  8
0
 62
     6
  6
CONTINUOUS
 10
6.412962
 20
20.724345
 30
0.000000
 40
12.668954
 50
226.419496
 51
227.533546
  0
ARC
  8
0
 62
     6
  6
CONTINUOUS
 10
-2.116275
 20
11.390063
 30
0.000000
 40
0.026794
 50
38.609744
 51
204.850786
  0
ARC
  8
0
 62
     6
  6
CONTINUOUS
 10
-5.191989
 20
9.907008
 30
0.000000
 40
3.440722
 50
25.841907
 51
55.898338
  0
ARC
  8
0
 62
     6
  6
CONTINUOUS
 10
-5.815280
 20
9.100283
 30
0.000000
 40
4.458639
 50
55.078295
 51
79.707999
  0
ARC
  8
0
 62
     6
  6
CONTINUOUS
 10
-5.726252
 20
9.813047
 30
0.000000
 40
3.741649
 50
79.099302
 51
108.500871
  0
ARC
  8
0
 62
     6
  6
CONTINUOUS
 10
-5.861397
 20
10.357483
 30
0.000000
 40
3.182777
 50
109.303767
 51
145.947052
  0
ARC
  8
0
 62
     6
  6
CONTINUOUS
 10
-8.010280
 20
12.360356
 30
0.000000
 40
0.535668
 50
161.532561
 51
204.325046
  0
ARC
  8
0
 62
     6
  6
CONTINUOUS
 10
-10.002802
 20
12.838808
 30
0.000000
 40
1.516211
 50
348.249739
 51
353.373878
  0
ARC
  8
0
 62
     6
  6
CONTINUOUS
 10
-8.570669
 20
12.692831
 30
0.000000
 40
0.079426
 50
338.601793
 51
404.592207
  0
ARC
  8
0
 62
     6
  6
CONTINUOUS
 10
-8.487437
 20
12.673285
 30
0.000000
 40
0.079891
 50
109.502143
 51
173.363539
  0
ARC
  8
0
 62
     6
  6
CONTINUOUS
 10
-11.716220
 20
13.993917
 30
0.000000
 40
3.411547
 50
329.871432
 51
337.393499
  0
ARC
  8
0
 62
     6
  6
CONTINUOUS
 10
-3.371088
 20
9.261065
 30
0.000000
 40
6.182520
 50
150.754858
 51
153.189837
  0
ARC
  8
0
 62
     6
  6
CONTINUOUS
 10
-7.341337
 20
11.313419
 30
0.000000
 40
1.713856
 50
154.561095
 51
200.956142
  0
ARC
  8
0
 62
     6
  6
CONTINUOUS
 10
-6.634137
 20
11.575025
 30
0.000000
 40
2.467857
 50
200.755773
 51
237.757482
  0
ARC
  8
0
 62
     6
  6
CONTINUOUS
 10
-4.073248
 20
15.368330
 30
0.000000
 40
7.043906
 50
236.600329
 51
258.512436
  0
ARC
  8
0
 62
     6
  6
CONTINUOUS
 10
-4.542466
 20
12.872604
 30
0.000000
 40
3.877586
 50
252.957955
 51
260.651492
  0
ARC
  8
0
 62
     6
  6
CONTINUOUS
 10
-8.049871
 20
0.896301
 30
0.000000
 40
8.602188
 50
74.000670
 51
75.468339
  0
ARC
  8
0
 62
     6
  6
CONTINUOUS
 10
-5.882745
 20
9.277071
 30
0.000000
 40
0.054474
 50
213.187906
 51
260.801500
  0
ARC
  8
0
 62
     6
  6
CONTINUOUS
 10
-5.903824
 20
9.251440
 30
0.000000
 40
0.024865
 50
87.866946
 51
189.695575
  0
ARC
  8
0
 62
     6
  6
CONTINUOUS
 10
-6.143853
 20
10.092062
 30
0.000000
 40
0.850616
 50
286.455485
 51
310.499860
  0
ARC
  8
0
 62
     6
  6
CONTINUOUS
 10
-5.853443
 20
9.737761
 30
0.000000
 40
0.392707
 50
311.852454
 51
348.155012
  0
ARC
  8
0
 62
     6
  6
CONTINUOUS
 10
-6.564399
 20
9.757033
 30
0.000000
 40
1.099845
 50
354.789619
 51
382.012943
  0
LINE
  8
0
 62
     6
  6
CONTINUOUS
 10
-5.544733
 20
10.169273
 30
0.000000
 11
-5.552683
 21
10.195748
 31
0.000000
  0
ARC
  8
0
 62
     6
  6
CONTINUOUS
 10
-6.598328
 20
9.911287
 30
0.000000
 40
1.083647
 50
15.218614
 51
63.909643
  0
ARC
  8
0
 62
     6
  6
CONTINUOUS
 10
-5.474248
 20
10.841915
 30
0.000000
 40
0.648905
 50
176.236057
 51
195.745677
  0
ARC
  8
0
 62
     6
  6
CONTINUOUS
 10
-6.602846
 20
10.500205
 30
0.000000
 40
0.530555
 50
346.367589
 51
378.189385
  0
ARC
  8
0
 62
     6
  6
CONTINUOUS
 10
-6.154559
 20
10.382407
 30
0.000000
 40
0.067710
 50
274.129723
 51
353.853719
  0
ARC
  8
0
 62
     6
  6
CONTINUOUS
 10
-6.092924
 20
10.373163
 30
0.000000
 40
0.081359
 50
158.339476
 51
225.762302
  0
ARC
  8
0
 62
     6
  6
CONTINUOUS
 10
-6.542198
 20
10.488054
 30
0.000000
 40
0.383175
 50
347.204632
 51
399.190447
  0
ARC
  8
0
 62
     6
  6
CONTINUOUS
 10
-5.605911
 20
10.472863
 30
0.000000
 40
0.689150
 50
158.075361
 51
182.324853
  0
ARC
  8
0
 62
     6
  6
CONTINUOUS
 10
-7.549260
 20
10.453728
 30
0.000000
 40
1.254798
 50
349.067971
 51
359.597250
  0
ARC
  8
0
 62
     6
  6
CONTINUOUS
 10
-6.465683
 20
10.274136
 30
0.000000
 40
0.159514
 50
287.280836
 51
338.534134
  0
ARC
  8
0
 62
     6
  6
CONTINUOUS
 10
-6.755911
 20
11.013026
 30
0.000000
 40
0.953009
 50
280.439498
 51
290.748073
  0
ARC
  8
0
 62
     6
  6
CONTINUOUS
 10
-6.147793
 20
8.011747
 30
0.000000
 40
2.109475
 50
101.912568
 51
103.674034
  0
ARC
  8
0
 62
     6
  6
CONTINUOUS
 10
-7.545986
 20
10.448879
 30
0.000000
 40
0.979412
 50
336.697161
 51
363.458503
  0
ARC
  8
0
 62
     6
  6
CONTINUOUS
 10
-8.477186
 20
10.440565
 30
0.000000
 40
1.910017
 50
2.022196
 51
15.368465
  0
ARC
  8
0
 62
     3
  6
CONTINUOUS
 10
2.273245
 20
36.260589
 30
0.000000
 40
11.547776
 50
302.668273
 51
309.045480
  0
ARC
  8
0
 62
     3
  6
CONTINUOUS
 10
9.519440
 20
27.354103
 30
0.000000
 40
0.068148
 50
294.422725
 51
347.038503
  0
ARC
  8
0
 62
     3
  6
CONTINUOUS
 10
9.588333
 20
27.245427
 30
0.000000
 40
0.093424
 50
91.522075
 51
133.085415
  0
ARC
  8
0
 62
     3
  6
CONTINUOUS
 10
1.122342
 20
40.754813
 30
0.000000
 40
15.851220
 50
296.783076
 51
302.009837
  0
ARC
  8
0
 62
     3
  6
CONTINUOUS
 10
7.692224
 20
25.424115
 30
0.000000
 40
0.074204
 50
288.579271
 51
342.469014
  0
ARC
  8
0
 62
     3
  6
CONTINUOUS
 10
7.757113
 20
25.292439
 30
0.000000
 40
0.109481
 50
86.927447
 51
125.887059
  0
LINE
  8
0
 62
     3
  6
CONTINUOUS
 10
7.585977
 20
25.328923
 30
0.000000
 11
7.692937
 21
25.381138
 31
0.000000
  0
ARC
  8
0
 62
     3
  6
CONTINUOUS
 10
40.517637
 20
-42.549782
 30
0.000000
 40
75.445429
 50
115.880552
 51
116.880930
  0
ARC
  8
0
 62
     3
  6
CONTINUOUS
 10
11.015542
 20
15.274356
 30
0.000000
 40
10.531657
 50
115.956828
 51
122.100214
  0
ARC
  8
0
 62
     3
  6
CONTINUOUS
 10
6.454855
 20
22.974013
 30
0.000000
 40
1.601898
 50
130.288817
 51
156.325783
  0
ARC
  8
0
 62
     3
  6
CONTINUOUS
 10
5.008990
 20
23.606749
 30
0.000000
 40
0.023671
 50
153.711277
 51
307.474713
  0
ARC
  8
0
 62
     3
  6
CONTINUOUS
 10
-35.777352
 20
88.735639
 30
0.000000
 40
76.869502
 50
302.058127
 51
304.458274
  0
ARC
  8
0
 62
     1
  6
CONTINUOUS
 10
4.477671
 20
12.412511
 30
0.000000
 40
0.317716
 50
307.450427
 51
355.327057
  0
ARC
  8
0
 62
     1
  6
CONTINUOUS
 10
2.515577
 20
12.428640
 30
0.000000
 40
2.279141
 50
358.943789
 51
384.724621
  0
ARC
  8
0
 62
     1
  6
CONTINUOUS
 10
4.557184
 20
13.379262
 30
0.000000
 40
0.028725
 50
5.283912
 51
103.718820
  0
ARC
  8
0
 62
     1
  6
CONTINUOUS
 10
4.587380
 20
13.382177
 30
0.000000
 40
0.044656
 50
145.969588
 51
205.833529
  0
ARC
  8
0
 62
     1
  6
CONTINUOUS
 10
2.862291
 20
12.939265
 30
0.000000
 40
1.737292
 50
355.629469
 51
374.107551
  0
ARC
  8
0
 62
     1
  6
CONTINUOUS
 10
6.138971
 20
12.661405
 30
0.000000
 40
1.551275
 50
174.619294
 51
198.846803
  0
LINE
  8
0
 62
     1
  6
CONTINUOUS
 10
-1.625683
 20
14.094518
 30
0.000000
 11
-1.539988
 21
14.201628
 31
0.000000
  0
ARC
  8
0
 62
     1
  6
CONTINUOUS
 10
-5.911066
 20
17.842558
 30
0.000000
 40
5.688822
 50
320.207075
 51
326.304427
  0
ARC
  8
0
 62
     6
  6
CONTINUOUS
 10
-6.746187
 20
10.939210
 30
0.000000
 40
0.110976
 50
3.904792
 51
80.339161
  0
ARC
  8
0
 62
     6
  6
CONTINUOUS
 10
-6.699941
 20
10.876662
 30
0.000000
 40
0.174155
 50
99.126210
 51
152.258706
  0
LINE
  8
0
 62
     6
  6
CONTINUOUS
 10
-6.854078
 20
10.957728
 30
0.000000
 11
-6.891668
 21
10.904063
 31
0.000000
  0
ARC
  8
0
 62
     6
  6
CONTINUOUS
 10
-1.568381
 20
7.004225
 30
0.000000
 40
6.598948
 50
143.773514
 51
151.168290
  0
ARC
  8
0
 62
     6
  6
CONTINUOUS
 10
-7.629255
 20
10.321136
 30
0.000000
 40
0.310629
 50
316.878912
 51
334.313084
  0
ARC
  8
0
 62
     6
  6
CONTINUOUS
 10
-7.435887
 20
10.131759
 30
0.000000
 40
0.040496
 50
259.526827
 51
325.475941
  0
ARC
  8
0
 62
     6
  6
CONTINUOUS
 10
-7.413871
 20
10.129711
 30
0.000000
 40
0.047852
 50
171.792241
 51
232.126927
  0
ARC
  8
0
 62
     6
  6
CONTINUOUS
 10
-7.069231
 20
10.135808
 30
0.000000
 40
0.392003
 50
164.087655
 51
179.892689
  0
ARC
  8
0
 62
     6
  6
CONTINUOUS
 10
-6.075711
 20
9.822880
 30
0.000000
 40
1.433533
 50
146.364833
 51
162.946573
  0
ARC
  8
0
 62
     6
  6
CONTINUOUS
 10
-2.541943
 20
7.608169
 30
0.000000
 40
5.603564
 50
143.298435
 51
147.524780
  0
ARC
  8
0
 62
     6
  6
CONTINUOUS
 10
-8.703627
 20
12.228513
 30
0.000000
 40
2.098072
 50
322.700589
 51
327.479052
  0
ARC
  8
0
 62
     6
  6
CONTINUOUS
 10
-6.971377
 20
10.135679
 30
0.000000
 40
0.965597
 50
87.813865
 51
135.618990
  0
ARC
  8
0
 62
     6
  6
CONTINUOUS
 10
-6.476573
 20
9.486817
 30
0.000000
 40
1.776966
 50
131.822252
 51
155.781396
  0
ARC
  8
0
 62
     6
  6
CONTINUOUS
 10
-6.507632
 20
11.259905
 30
0.000000
 40
1.901783
 50
196.213382
 51
213.300711
  0
ARC
  8
0
 62
     6
  6
CONTINUOUS
 10
-7.484258
 20
10.997156
 30
0.000000
 40
0.890869
 50
160.396331
 51
197.524841
  0
ARC
  8
0
 62
     6
  6
CONTINUOUS
 10
-7.269423
 20
10.747619
 30
0.000000
 40
1.188206
 50
118.630242
 51
152.511868
  0
ARC
  8
0
 62
     6
  6
CONTINUOUS
 10
-6.847533
 20
9.972963
 30
0.000000
 40
2.070296
 50
98.001563
 51
118.606040
  0
ARC
  8
0
 62
     6
  6
CONTINUOUS
 10
-6.626622
 20
8.537172
 30
0.000000
 40
3.522909
 50
74.298777
 51
98.308924
  0
ARC
  8
0
 62
     6
  6
CONTINUOUS
 10
-6.225912
 20
10.191926
 30
0.000000
 40
1.822518
 50
40.939943
 51
72.347566
  0
ARC
  8
0
 62
     6
  6
CONTINUOUS
 10
-6.720828
 20
9.713174
 30
0.000000
 40
2.510364
 50
18.880543
 51
41.792349
  0
ARC
  8
0
 62
     6
  6
CONTINUOUS
 10
-5.997414
 20
9.913458
 30
0.000000
 40
1.761626
 50
351.487810
 51
380.330810
  0
ARC
  8
0
 62
     6
  6
CONTINUOUS
 10
-5.008636
 20
9.755073
 30
0.000000
 40
0.760366
 50
296.355639
 51
352.262632
  0
ARC
  8
0
 62
     6
  6
CONTINUOUS
 10
-4.982163
 20
10.173211
 30
0.000000
 40
1.142630
 50
260.419319
 51
285.798398
  0
ARC
  8
0
 62
     6
  6
CONTINUOUS
 10
-2.812969
 20
10.390837
 30
0.000000
 40
1.428508
 50
132.023538
 51
145.600941
  0
ARC
  8
0
 62
     6
  6
CONTINUOUS
 10
-3.975837
 20
11.183741
 30
0.000000
 40
0.021221
 50
138.227136
 51
297.119362
  0
LINE
  8
0
 62
     6
  6
CONTINUOUS
 10
-3.949873
 20
11.174513
 30
0.000000
 11
-3.966163
 21
11.164853
 31
0.000000
  0
ARC
  8
0
 62
     6
  6
CONTINUOUS
 10
-2.138767
 20
8.224482
 30
0.000000
 40
3.461616
 50
115.553332
 51
121.546937
  0
ARC
  8
0
 62
     6
  6
CONTINUOUS
 10
-3.689898
 20
11.483305
 30
0.000000
 40
0.147658
 50
293.111575
 51
360.635356
  0
ARC
  8
0
 62
     6
  6
CONTINUOUS
 10
-3.643073
 20
11.493813
 30
0.000000
 40
0.101214
 50
354.972304
 51
443.683991
  0
ARC
  8
0
 62
     6
  6
CONTINUOUS
 10
-5.464370
 20
13.224372
 30
0.000000
 40
2.452462
 50
313.724030
 51
318.346714
  0
ARC
  8
0
 62
     6
  6
CONTINUOUS
 10
-5.139434
 20
13.252182
 30
0.000000
 40
1.767849
 50
306.045483
 51
312.701839
  0
ARC
  8
0
 62
     6
  6
CONTINUOUS
 10
-3.874026
 20
11.880216
 30
0.000000
 40
0.098579
 50
57.140302
 51
132.408324
  0
ARC
  8
0
 62
     6
  6
CONTINUOUS
 10
-3.848458
 20
11.921244
 30
0.000000
 40
0.050250
 50
352.244598
 51
416.246211
  0
ARC
  8
0
 62
     6
  6
CONTINUOUS
 10
1.553186
 20
13.493766
 30
0.000000
 40
0.460269
 50
287.135514
 51
325.856653
  0
ARC
  8
0
 62
     6
  6
CONTINUOUS
 10
1.979499
 20
13.212941
 30
0.000000
 40
0.050646
 50
153.633916
 51
329.311413
  0
ARC
  8
0
 62
     6
  6
CONTINUOUS
 10
1.587876
 20
13.469099
 30
0.000000
 40
0.518561
 50
279.340268
 51
327.055668
  0
ARC
  8
0
 62
     6
  6
CONTINUOUS
 10
1.532864
 20
13.734347
 30
0.000000
 40
0.789300
 50
248.128688
 51
280.155694
  0
ARC
  8
0
 62
     6
  6
CONTINUOUS
 10
1.243887
 20
13.061141
 30
0.000000
 40
0.059498
 50
198.280775
 51
265.125899
  0
ARC
  8
0
 62
     6
  6
CONTINUOUS
 10
1.229647
 20
12.947960
 30
0.000000
 40
0.103533
 50
65.973382
 51
114.087709
  0
ARC
  8
0
 62
     6
  6
CONTINUOUS
 10
1.459411
 20
13.811948
 30
0.000000
 40
0.791968
 50
256.296931
 51
286.836418
  0
ARC
  8
0
 62
     1
  6
CONTINUOUS
 10
-2.641055
 20
15.665439
 30
0.000000
 40
1.760362
 50
326.213923
 51
345.552888
  0
ARC
  8
0
 62
     1
  6
CONTINUOUS
 10
-0.574577
 20
15.621836
 30
0.000000
 40
0.536071
 50
201.036985
 51
227.555495
  0
ARC
  8
0
 62
     1
  6
CONTINUOUS
 10
0.266394
 20
15.980059
 30
0.000000
 40
1.449945
 50
188.939586
 51
202.319887
  0
ARC
  8
0
 62
     1
  6
CONTINUOUS
 10
1.852697
 20
16.216910
 30
0.000000
 40
3.053810
 50
171.912190
 51
188.704575
  0
ARC
  8
0
 62
     1
  6
CONTINUOUS
 10
2.238006
 20
16.208327
 30
0.000000
 40
3.436798
 50
155.184966
 51
172.674279
  0
ARC
  8
0
 62
     1
  6
CONTINUOUS
 10
1.389101
 20
16.617611
 30
0.000000
 40
2.494549
 50
130.435682
 51
155.534459
  0
ARC
  8
0
 62
     1
  6
CONTINUOUS
 10
-0.380075
 20
18.668075
 30
0.000000
 40
0.214256
 50
314.895881
 51
381.602856
  0
ARC
  8
0
 62
     1
  6
CONTINUOUS
 10
-0.309962
 20
18.698442
 30
0.000000
 40
0.137910
 50
20.597229
 51
72.354520
  0
ARC
  8
0
 62
     1
  6
CONTINUOUS
 10
-0.324341
 20
18.585547
 30
0.000000
 40
0.250693
 50
77.049357
 51
118.122709
  0
ARC
  8
0
 62
     1
  6
CONTINUOUS
 10
0.785886
 20
16.484984
 30
0.000000
 40
2.626604
 50
117.883409
 51
138.609050
  0
ARC
  8
0
 62
     1
  6
CONTINUOUS
 10
0.565754
 20
16.623673
 30
0.000000
 40
2.370121
 50
137.605675
 51
149.128451
  0
ARC
  8
0
 62
     1
  6
CONTINUOUS
 10
-0.491234
 20
17.236275
 30
0.000000
 40
1.148671
 50
148.303038
 51
168.423426
  0
ARC
  8
0
 62
     1
  6
CONTINUOUS
 10
-2.904048
 20
17.711320
 30
0.000000
 40
1.310525
 50
318.211424
 51
349.246069
  0
ARC
  8
0
 62
     1
  6
CONTINUOUS
 10
-5.004619
 20
19.601025
 30
0.000000
 40
4.136008
 50
308.239376
 51
318.084065
  0
ARC
  8
0
 62
     1
  6
CONTINUOUS
 10
0.743426
 20
12.400926
 30
0.000000
 40
5.077254
 50
128.896248
 51
134.561417
  0
ARC
  8
0
 62
     1
  6
CONTINUOUS
 10
-3.271655
 20
15.395291
 30
0.000000
 40
0.770133
 50
54.015279
 51
60.625149
  0
ARC
  8
0
 62
     1
  6
CONTINUOUS
 10
-2.328923
 20
17.046868
 30
0.000000
 40
1.131587
 50
237.158117
 51
240.048421
  0
ARC
  8
0
 62
     1
  6
CONTINUOUS
 10
5.962348
 20
10.217530
 30
0.000000
 40
10.670348
 50
140.491291
 51
146.569177
  0
ARC
  8
0
 62
     1
  6
CONTINUOUS
 10
-18.277960
 20
29.848410
 30
0.000000
 40
20.522656
 50
321.261311
 51
322.676040
  0
ARC
  8
0
 62
     6
  6
CONTINUOUS
 10
-3.920701
 20
11.943591
 30
0.000000
 40
0.125461
 50
305.414372
 51
346.574925
  0
ARC
  8
0
 62
     6
  6
CONTINUOUS
 10
-2.449481
 20
9.308470
 30
0.000000
 40
2.893319
 50
118.905149
 51
130.184905
  0
ARC
  8
0
 62
     6
  6
CONTINUOUS
 10
-4.333716
 20
11.536442
 30
0.000000
 40
0.024662
 50
169.354456
 51
314.553559
  0
ARC
  8
0
 62
     6
  6
CONTINUOUS
 10
-3.754759
 20
11.246790
 30
0.000000
 40
0.671120
 50
120.877792
 51
153.999196
  0
ARC
  8
0
 62
     6
  6
CONTINUOUS
 10
2.828367
 20
12.000930
 30
0.000000
 40
0.945363
 50
230.119178
 51
259.576652
  0
ARC
  8
0
 62
     6
  6
CONTINUOUS
 10
1.876863
 20
8.168407
 30
0.000000
 40
3.005853
 50
71.769174
 51
74.950719
  0
ARC
  8
0
 62
     6
  6
CONTINUOUS
 10
2.805895
 20
11.002313
 30
0.000000
 40
0.023921
 50
311.501618
 51
421.712481
  0
ARC
  8
0
 62
     6
  6
CONTINUOUS
 10
2.514705
 20
11.619768
 30
0.000000
 40
0.705670
 50
263.383968
 51
295.792038
  0
ARC
  8
0
 62
     6
  6
CONTINUOUS
 10
2.601616
 20
12.869456
 30
0.000000
 40
1.957898
 50
248.909806
 51
265.071313
  0
ARC
  8
0
 62
     6
  6
CONTINUOUS
 10
3.243543
 20
14.522456
 30
0.000000
 40
3.731163
 50
226.398661
 51
248.846589
  0
ARC
  8
0
 62
     6
  6
CONTINUOUS
 10
3.156620
 20
14.509195
 30
0.000000
 40
3.662011
 50
200.266395
 51
227.240448
  0
ARC
  8
0
 62
     6
  6
CONTINUOUS
 10
2.962908
 20
14.385494
 30
0.000000
 40
3.437791
 50
165.843960
 51
199.450655
  0
ARC
  8
0
 62
     6
  6
CONTINUOUS
 10
-3.567411
 20
15.839099
 30
0.000000
 40
3.255133
 50
349.148125
 51
365.691334
  0
ARC
  8
0
 62
     6
  6
CONTINUOUS
 10
-0.155076
 20
16.196736
 30
0.000000
 40
0.176713
 50
120.075065
 51
191.366704
  0
ARC
  8
0
 62
     6
  6
CONTINUOUS
 10
-0.215029
 20
16.277396
 30
0.000000
 40
0.077717
 50
49.778882
 51
111.596130
  0
ARC
  8
0
 62
     6
  6
CONTINUOUS
 10
-0.301497
 20
16.189558
 30
0.000000
 40
0.200838
 50
9.898434
 51
47.123816
  0
ARC
  8
0
 62
     6
  6
CONTINUOUS
 10
-1.111126
 20
16.000715
 30
0.000000
 40
1.031942
 50
6.042999
 51
12.500815
  0
ARC
  8
0
 62
     6
  6
CONTINUOUS
 10
0.272800
 20
16.097399
 30
0.000000
 40
0.357918
 50
178.086170
 51
225.171333
  0
LINE
  8
0
 62
     6
  6
CONTINUOUS
 10
0.105227
 20
15.945528
 30
0.000000
 11
0.020472
 21
15.843558
 31
0.000000
  0
ARC
  8
0
 62
     6
  6
CONTINUOUS
 10
32.280084
 20
-10.558299
 30
0.000000
 40
41.685421
 50
138.748914
 51
140.520235
  0
ARC
  8
0
 62
     6
  6
CONTINUOUS
 10
7.037587
 20
11.828376
 30
0.000000
 40
7.948742
 50
130.628522
 51
140.097103
  0
ARC
  8
0
 62
     6
  6
CONTINUOUS
 10
1.872498
 20
17.838259
 30
0.000000
 40
0.025202
 50
3.374187
 51
115.253652
  0
ARC
  8
0
 62
     6
  6
CONTINUOUS
 10
2.027101
 20
17.815067
 30
0.000000
 40
0.131775
 50
169.207224
 51
236.428269
  0
ARC
  8
0
 62
     6
  6
CONTINUOUS
 10
2.051113
 20
17.942392
 30
0.000000
 40
0.256148
 50
247.776158
 51
285.443315
  0
ARC
  8
0
 62
     6
  6
CONTINUOUS
 10
2.323144
 20
16.660486
 30
0.000000
 40
1.054884
 50
40.916189
 51
101.140611
  0
ARC
  8
0
 62
     6
  6
CONTINUOUS
 10
0.857341
 20
15.372673
 30
0.000000
 40
3.006033
 50
16.570894
 51
41.166389
  0
ARC
  8
0
 62
     6
  6
CONTINUOUS
 10
-2.400937
 20
14.218487
 30
0.000000
 40
6.460587
 50
6.101534
 51
18.140667
  0
ARC
  8
0
 62
     6
  6
CONTINUOUS
 10
0.644078
 20
14.428612
 30
0.000000
 40
3.412417
 50
351.951458
 51
368.028130
  0
ARC
  8
0
 62
     6
  6
CONTINUOUS
 10
-0.377923
 20
15.052041
 30
0.000000
 40
4.536490
 50
321.916108
 51
345.951416
  0
ARC
  8
0
 62
     6
  6
CONTINUOUS
 10
-0.364351
 20
14.811999
 30
0.000000
 40
4.381468
 50
306.181164
 51
324.278030
  0
ARC
  8
0
 62
     6
  6
CONTINUOUS
 10
1.759609
 20
13.383088
 30
0.000000
 40
1.055663
 50
273.989592
 51
310.425779
  0
ARC
  8
0
 62
     6
  6
CONTINUOUS
 10
1.470676
 20
13.699910
 30
0.000000
 40
1.484275
 50
310.985576
 51
358.886770
  0
ARC
  8
0
 62
     6
  6
CONTINUOUS
 10
1.102373
 20
13.704074
 30
0.000000
 40
1.852593
 50
358.979315
 51
375.442726
  0
ARC
  8
0
 62
     6
  6
CONTINUOUS
 10
2.255149
 20
14.021760
 30
0.000000
 40
0.656844
 50
15.507131
 51
49.728808
  0
ARC
  8
0
 62
     6
  6
CONTINUOUS
 10
2.175506
 20
13.857660
 30
0.000000
 40
0.834763
 50
52.840189
 51
81.710934
  0
ARC
  8
0
 62
     6
  6
CONTINUOUS
 10
1.846412
 20
11.862975
 30
0.000000
 40
2.856309
 50
80.946887
 51
92.885455
  0
ARC
  8
0
 62
     6
  6
CONTINUOUS
 10
1.693699
 20
14.685944
 30
0.000000
 40
0.031031
 50
73.278823
 51
177.517795
  0
ARC
  8
0
 62
     6
  6
CONTINUOUS
 10
1.734615
 20
14.711679
 30
0.000000
 40
0.075942
 50
198.734556
 51
251.295567
  0
ARC
  8
0
 62
     6
  6
CONTINUOUS
 10
1.232594
 20
13.535384
 30
0.000000
 40
1.203239
 50
35.130824
 51
66.610189
  0
ARC
  8
0
 62
     6
  6
CONTINUOUS
 10
2.170318
 20
14.188196
 30
0.000000
 40
0.060942
 50
342.837556
 51
400.510575
  0
ARC
  8
0
 62
     6
  6
CONTINUOUS
 10
2.213051
 20
14.186271
 30
0.000000
 40
0.022315
 50
220.098191
 51
313.977819
  0
ARC
  8
0
 62
     6
  6
CONTINUOUS
 10
6.492440
 20
19.797179
 30
0.000000
 40
7.078371
 50
231.449573
 51
232.628252
  0
ARC
  8
0
 62
     6
  6
CONTINUOUS
 10
0.371911
 20
12.201094
 30
0.000000
 40
2.677075
 50
50.321240
 51
57.946556
  0
ARC
  8
0
 62
     6
  6
CONTINUOUS
 10
1.747977
 20
14.421141
 30
0.000000
 40
0.066254
 50
47.588813
 51
112.281465
  0
ARC
  8
0
 62
     6
  6
CONTINUOUS
 10
1.773016
 20
14.455345
 30
0.000000
 40
0.057013
 50
151.616275
 51
226.487552
  0
ARC
  8
0
 62
     6
  6
CONTINUOUS
 10
0.694594
 20
13.746767
 30
0.000000
 40
1.234935
 50
17.099268
 51
32.703794
  0
ARC
  8
0
 62
     6
  6
CONTINUOUS
 10
1.590815
 20
14.002395
 30
0.000000
 40
0.303776
 50
322.323912
 51
380.720373
  0
ARC
  8
0
 62
     6
  6
CONTINUOUS
 10
1.329564
 20
13.651069
 30
0.000000
 40
0.528325
 50
18.273554
 51
45.860161
  0
ARC
  8
0
 62
     6
  6
CONTINUOUS
 10
1.524117
 20
13.872750
 30
0.000000
 40
0.234215
 50
42.246554
 51
63.401972
  0
ARC
  8
0
 62
     6
  6
CONTINUOUS
 10
1.609483
 20
14.047820
 30
0.000000
 40
0.039505
 50
60.424035
 51
126.957886
  0
ARC
  8
0
 62
     6
  6
CONTINUOUS
 10
1.741415
 20
13.976729
 30
0.000000
 40
0.186484
 50
146.598874
 51
188.503802
  0
ARC
  8
0
 62
     6
  6
CONTINUOUS
 10
1.206077
 20
13.935314
 30
0.000000
 40
0.351178
 50
348.650103
 51
362.258336
  0
ARC
  8
0
 62
     6
  6
CONTINUOUS
 10
1.523387
 20
13.866833
 30
0.000000
 40
0.027007
 50
285.340824
 51
358.663024
  0
ARC
  8
0
 62
     6
  6
CONTINUOUS
 10
1.584891
 20
13.986918
 30
0.000000
 40
0.155913
 50
214.368456
 51
249.595050
  0
ARC
  8
0
 62
     6
  6
CONTINUOUS
 10
1.068385
 20
13.563023
 30
0.000000
 40
0.513042
 50
40.895495
 51
58.704449
  0
ARC
  8
0
 62
     6
  6
CONTINUOUS
 10
1.266058
 20
13.886596
 30
0.000000
 40
0.133871
 50
59.060043
 51
128.311575
  0
ARC
  8
0
 62
     6
  6
CONTINUOUS
 10
1.130578
 20
14.154872
 30
0.000000
 40
0.171466
 50
225.885770
 51
287.825423
  0
ARC
  8
0
 62
     6
  6
CONTINUOUS
 10
0.538565
 20
13.255802
 30
0.000000
 40
0.908585
 50
58.653544
 51
63.032013
  0
ARC
  8
0
 62
     6
  6
CONTINUOUS
 10
0.654694
 20
13.572984
 30
0.000000
 40
0.574647
 50
59.006752
 51
84.649761
  0
ARC
  8
0
 62
     6
  6
CONTINUOUS
 10
0.724659
 20
13.963524
 30
0.000000
 40
0.182341
 50
95.154813
 51
162.876018
  0
ARC
  8
0
 62
     6
  6
CONTINUOUS
 10
1.623856
 20
13.552262
 30
0.000000
 40
1.169822
 50
156.580874
 51
193.711393
  0
ARC
  8
0
 62
     6
  6
CONTINUOUS
 10
1.564267
 20
13.507031
 30
0.000000
 40
1.101614
 50
192.160384
 51
240.185477
  0
ARC
  8
0
 62
     6
  6
CONTINUOUS
 10
1.785269
 20
13.770902
 30
0.000000
 40
1.441712
 50
237.778222
 51
271.899491
  0
ARC
  8
0
 62
     6
  6
CONTINUOUS
 10
1.403767
 20
14.514481
 30
0.000000
 40
1.037428
 50
76.842148
 51
96.520582
  0
ARC
  8
0
 62
     6
  6
CONTINUOUS
 10
2.356455
 20
20.150806
 30
0.000000
 40
4.681295
 50
261.195523
 51
266.799308
  0
ARC
  8
0
 62
     6
  6
CONTINUOUS
 10
2.186257
 20
16.730973
 30
0.000000
 40
1.257470
 50
265.841995
 51
286.393275
  0
ARC
  8
0
 62
     6
  6
CONTINUOUS
 10
2.608822
 20
15.160978
 30
0.000000
 40
0.369887
 50
51.901803
 51
100.541585
  0
ARC
  8
0
 62
     6
  6
CONTINUOUS
 10
2.170076
 20
14.430735
 30
0.000000
 40
1.219820
 50
34.037028
 51
56.853759
  0
ARC
  8
0
 62
     6
  6
CONTINUOUS
 10
2.034723
 20
14.309133
 30
0.000000
 40
1.400271
 50
341.848588
 51
395.060313
  0
ARC
  8
0
 62
     6
  6
CONTINUOUS
 10
-0.899230
 20
15.273270
 30
0.000000
 40
4.488578
 50
325.560946
 51
341.821194
  0
ARC
  8
0
 62
     6
  6
CONTINUOUS
 10
-8.302197
 20
20.397225
 30
0.000000
 40
13.491817
 50
319.932836
 51
325.394153
  0
LINE
  8
0
 62
     6
  6
CONTINUOUS
 10
2.022962
 20
11.712743
 30
0.000000
 11
1.851817
 21
11.501823
 31
0.000000
  0
ARC
  8
0
 62
     6
  6
CONTINUOUS
 10
2.941274
 20
14.033533
 30
0.000000
 40
2.756170
 50
210.927335
 51
246.716599
  0
ARC
  8
0
 62
     6
  6
CONTINUOUS
 10
4.362548
 20
14.985338
 30
0.000000
 40
4.465376
 50
188.691154
 51
212.031041
  0
ARC
  8
0
 62
     6
  6
CONTINUOUS
 10
2.241564
 20
13.060949
 30
0.000000
 40
2.611507
 50
130.994022
 51
151.411843
  0
ARC
  8
0
 62
     6
  6
CONTINUOUS
 10
2.923816
 20
12.311745
 30
0.000000
 40
3.624610
 50
116.863842
 51
131.365271
  0
ARC
  8
0
 62
     6
  6
CONTINUOUS
 10
0.975840
 20
17.669870
 30
0.000000
 40
2.003643
 50
326.657683
 51
338.457282
  0
ARC
  8
0
 62
     6
  6
CONTINUOUS
 10
2.729833
 20
16.719850
 30
0.000000
 40
0.240732
 50
14.424689
 51
62.894927
  0
ARC
  8
0
 62
     6
  6
CONTINUOUS
 10
2.325291
 20
17.034922
 30
0.000000
 40
0.686820
 50
308.266469
 51
338.196292
  0
ARC
  8
0
 62
     6
  6
CONTINUOUS
 10
3.183448
 20
15.946907
 30
0.000000
 40
0.698897
 50
128.261907
 51
158.780456
  0
ARC
  8
0
 62
     6
  6
CONTINUOUS
 10
2.475223
 20
16.206897
 30
0.000000
 40
0.057148
 50
278.192801
 51
352.934331
  0
ARC
  8
0
 62
     6
  6
CONTINUOUS
 10
2.493661
 20
16.183557
 30
0.000000
 40
0.034783
 50
142.309986
 51
252.784424
  0
ARC
  8
0
 62
     6
  6
CONTINUOUS
 10
4.016791
 20
15.650578
 30
0.000000
 40
1.646729
 50
146.118666
 51
160.331772
  0
ARC
  8
0
 62
     1
  6
CONTINUOUS
 10
-1.961502
 20
17.427298
 30
0.000000
 40
0.022490
 50
172.271378
 51
279.130524
  0
LINE
  8
0
 62
     1
  6
CONTINUOUS
 10
-1.983788
 20
17.430323
 30
0.000000
 11
-2.039488
 21
17.385313
 31
0.000000
  0
ARC
  8
0
 62
     1
  6
CONTINUOUS
 10
4.498581
 20
9.055037
 30
0.000000
 40
10.589609
 50
128.126819
 51
132.941935
  0
ARC
  8
0
 62
     1
  6
CONTINUOUS
 10
-0.597134
 20
14.511881
 30
0.000000
 40
3.123493
 50
132.707544
 51
148.542457
  0
ARC
  8
0
 62
     1
  6
CONTINUOUS
 10
-3.739522
 20
15.053114
 30
0.000000
 40
1.189102
 50
66.299641
 51
98.859996
  0
ARC
  8
0
 62
     1
  6
CONTINUOUS
 10
-3.305654
 20
13.468114
 30
0.000000
 40
2.828044
 50
102.601988
 51
116.940656
  0
ARC
  8
0
 62
     6
  6
CONTINUOUS
 10
-0.210214
 20
12.230758
 30
0.000000
 40
0.035561
 50
290.356433
 51
425.715307
  0
ARC
  8
0
 62
     6
  6
CONTINUOUS
 10
-0.238762
 20
12.270629
 30
0.000000
 40
0.083870
 50
224.610900
 51
299.201443
  0
ARC
  8
0
 62
     6
  6
CONTINUOUS
 10
2.592613
 20
14.540204
 30
0.000000
 40
3.712163
 50
211.753806
 51
218.847966
  0
ARC
  8
0
 62
     6
  6
CONTINUOUS
 10
0.692599
 20
13.356541
 30
0.000000
 40
1.473636
 50
193.634580
 51
211.498432
  0
ARC
  8
0
 62
     6
  6
CONTINUOUS
 10
-0.695483
 20
13.034856
 30
0.000000
 40
0.050975
 50
142.379673
 51
210.268011
  0
ARC
  8
0
 62
     6
  6
CONTINUOUS
 10
-0.753180
 20
13.004552
 30
0.000000
 40
0.063817
 50
17.755163
 51
74.250303
  0
ARC
  8
0
 62
     6
  6
CONTINUOUS
 10
-3.563143
 20
11.370986
 30
0.000000
 40
3.312649
 50
25.290622
 51
29.934153
  0
ARC
  8
0
 62
     6
  6
CONTINUOUS
 10
1.986311
 20
13.973882
 30
0.000000
 40
2.816940
 50
204.937368
 51
211.733634
  0
ARC
  8
0
 62
     6
  6
CONTINUOUS
 10
0.250955
 20
12.894572
 30
0.000000
 40
0.773348
 50
211.347762
 51
234.730969
  0
ARC
  8
0
 62
     1
  6
CONTINUOUS
 10
-9.892896
 20
27.271146
 30
0.000000
 40
12.467330
 50
289.834466
 51
295.187897
  0
ARC
  8
0
 62
     1
  6
CONTINUOUS
 10
-6.390411
 20
17.434176
 30
0.000000
 40
2.025970
 50
268.067997
 51
291.051047
  0
ARC
  8
0
 62
     1
  6
CONTINUOUS
 10
-6.517895
 20
14.943099
 30
0.000000
 40
0.469999
 50
82.766178
 51
104.772752
  0
ARC
  8
0
 62
     1
  6
CONTINUOUS
 10
-6.629840
 20
15.336282
 30
0.000000
 40
0.061788
 50
97.344666
 51
175.013455
  0
ARC
  8
0
 62
     1
  6
CONTINUOUS
 10
-6.587471
 20
15.365330
 30
0.000000
 40
0.106586
 50
192.835130
 51
243.458491
  0
ARC
  8
0
 62
     1
  6
CONTINUOUS
 10
-6.393867
 20
15.663725
 30
0.000000
 40
0.461768
 50
238.506073
 51
258.710149
  0
ARC
  8
0
 62
     1
  6
CONTINUOUS
 10
-6.094544
 20
17.614391
 30
0.000000
 40
2.434890
 50
260.789712
 51
289.384774
  0
ARC
  8
0
 62
     1
  6
CONTINUOUS
 10
-4.142781
 20
13.157010
 30
0.000000
 40
2.444519
 50
69.567334
 51
117.892957
  0
ARC
  8
0
 62
     1
  6
CONTINUOUS
 10
-4.496546
 20
12.264265
 30
0.000000
 40
3.404655
 50
32.518616
 51
69.233378
  0
ARC
  8
0
 62
     1
  6
CONTINUOUS
 10
-3.196179
 20
16.664394
 30
0.000000
 40
0.035434
 50
193.116204
 51
326.638474
  0
ARC
  8
0
 62
     1
  6
CONTINUOUS
 10
-2.947237
 20
16.687069
 30
0.000000
 40
0.285111
 50
141.576356
 51
186.184825
  0
ARC
  8
0
 62
     1
  6
CONTINUOUS
 10
-2.593532
 20
16.361552
 30
0.000000
 40
0.765326
 50
122.969186
 51
138.939808
  0
ARC
  8
0
 62
     1
  6
CONTINUOUS
 10
-3.813631
 20
18.157230
 30
0.000000
 40
1.405912
 50
304.861778
 51
310.598179
  0
ARC
  8
0
 62
     1
  6
CONTINUOUS
 10
-2.865364
 20
17.054420
 30
0.000000
 40
0.048585
 50
89.398311
 51
133.379912
  0
ARC
  8
0
 62
     1
  6
CONTINUOUS
 10
-2.865975
 20
17.088978
 30
0.000000
 40
0.014070
 50
321.440150
 51
445.426406
  0
ARC
  8
0
 62
     1
  6
CONTINUOUS
 10
-4.135765
 20
17.646040
 30
0.000000
 40
1.400212
 50
320.617462
 51
336.164957
  0
ARC
  8
0
 62
     1
  6
CONTINUOUS
 10
-3.506640
 20
17.099177
 30
0.000000
 40
0.567450
 50
306.817814
 51
322.991864
  0
ARC
  8
0
 62
     1
  6
CONTINUOUS
 10
-2.246124
 20
15.816722
 30
0.000000
 40
0.083050
 50
109.511982
 51
188.014479
  0
ARC
  8
0
 62
     1
  6
CONTINUOUS
 10
-2.183809
 20
15.864884
 30
0.000000
 40
0.156413
 50
202.454264
 51
247.764287
  0
LINE
  8
0
 62
     1
  6
CONTINUOUS
 10
-2.208133
 20
15.757848
 30
0.000000
 11
-2.242998
 21
15.720103
 31
0.000000
  0
ARC
  8
0
 62
     1
  6
CONTINUOUS
 10
-4.463415
 20
17.986149
 30
0.000000
 40
3.170429
 50
315.344787
 51
327.128842
  0
LINE
  8
0
 62
     1
  6
CONTINUOUS
 10
-1.800593
 20
16.409428
 30
0.000000
 11
-1.800593
 21
16.265393
 31
0.000000
  0
ARC
  8
0
 62
     1
  6
CONTINUOUS
 10
-1.616313
 20
15.950501
 30
0.000000
 40
0.494543
 50
111.877734
 51
157.357175
  0
ARC
  8
0
 62
     1
  6
CONTINUOUS
 10
-2.683011
 20
16.434863
 30
0.000000
 40
0.677385
 50
307.157608
 51
334.279695
  0
ARC
  8
0
 62
     1
  6
CONTINUOUS
 10
-1.606234
 20
15.428202
 30
0.000000
 40
0.290917
 50
201.820494
 51
240.577042
  0
ARC
  8
0
 62
     1
  6
CONTINUOUS
 10
-0.731860
 20
14.345598
 30
0.000000
 40
1.312427
 50
135.928889
 51
140.815937
  0
ARC
  8
0
 62
     1
  6
CONTINUOUS
 10
-2.029064
 20
15.677197
 30
0.000000
 40
0.548489
 50
310.231347
 51
343.848807
  0
ARC
  8
0
 62
     1
  6
CONTINUOUS
 10
-1.728864
 20
15.527435
 30
0.000000
 40
0.226658
 50
359.288986
 51
397.354168
  0
ARC
  8
0
 62
     1
  6
CONTINUOUS
 10
-1.679957
 20
15.589095
 30
0.000000
 40
0.151609
 50
30.025412
 51
88.930878
  0
ARC
  8
0
 62
     1
  6
CONTINUOUS
 10
-1.223480
 20
15.330971
 30
0.000000
 40
0.611275
 50
137.913642
 51
158.326233
  0
ARC
  8
0
 62
     1
  6
CONTINUOUS
 10
-3.819047
 20
16.571442
 30
0.000000
 40
2.267252
 50
330.237894
 51
333.413252
  0
ARC
  8
0
 62
     1
  6
CONTINUOUS
 10
-1.723211
 20
15.354649
 30
0.000000
 40
0.156954
 50
144.417272
 51
192.728431
  0
ARC
  8
0
 62
     1
  6
CONTINUOUS
 10
-2.847099
 20
13.563474
 30
0.000000
 40
1.443319
 50
340.411452
 51
365.159407
  0
ARC
  8
0
 62
     1
  6
CONTINUOUS
 10
-0.821022
 20
13.768141
 30
0.000000
 40
0.593349
 50
142.322803
 51
187.249304
  0
ARC
  8
0
 62
     1
  6
CONTINUOUS
 10
0.286454
 20
12.922843
 30
0.000000
 40
1.986551
 50
129.367081
 51
142.550032
  0
ARC
  8
0
 62
     1
  6
CONTINUOUS
 10
-5.544793
 20
19.653412
 30
0.000000
 40
6.919649
 50
311.346578
 51
312.137256
  0
ARC
  8
0
 62
     1
  6
CONTINUOUS
 10
-0.891131
 20
14.508893
 30
0.000000
 40
0.017411
 50
336.669929
 51
490.067062
  0
ARC
  8
0
 62
     1
  6
CONTINUOUS
 10
-2.148515
 20
14.897541
 30
0.000000
 40
1.333391
 50
324.410776
 51
342.743807
  0
ARC
  8
0
 62
     1
  6
CONTINUOUS
 10
-4.247424
 20
16.281544
 30
0.000000
 40
3.846891
 50
319.148460
 51
325.840996
  0
ARC
  8
0
 62
     1
  6
CONTINUOUS
 10
-1.085008
 20
13.809726
 30
0.000000
 40
0.256479
 50
189.977510
 51
221.470143
  0
ARC
  8
0
 62
     1
  6
CONTINUOUS
 10
-1.221288
 20
13.696435
 30
0.000000
 40
0.079520
 50
225.334615
 51
285.611395
  0
ARC
  8
0
 62
     1
  6
CONTINUOUS
 10
-1.355784
 20
13.998220
 30
0.000000
 40
0.409230
 50
292.392469
 51
320.753519
  0
ARC
  8
0
 62
     1
  6
CONTINUOUS
 10
-0.949324
 20
13.676445
 30
0.000000
 40
0.109409
 50
100.159765
 51
144.923963
  0
ARC
  8
0
 62
     1
  6
CONTINUOUS
 10
-0.978239
 20
13.754695
 30
0.000000
 40
0.030973
 50
344.460965
 51
431.913066
  0
ARC
  8
0
 62
     1
  6
CONTINUOUS
 10
-1.135914
 20
13.755197
 30
0.000000
 40
0.187722
 50
311.165597
 51
357.313402
  0
ARC
  8
0
 62
     1
  6
CONTINUOUS
 10
-0.580780
 20
13.006404
 30
0.000000
 40
0.745168
 50
125.391184
 51
154.268019
  0
ARC
  8
0
 62
     1
  6
CONTINUOUS
 10
0.950910
 20
12.265726
 30
0.000000
 40
2.446543
 50
154.215859
 51
163.161144
  0
ARC
  8
0
 62
     1
  6
CONTINUOUS
 10
-3.706573
 20
13.680332
 30
0.000000
 40
2.421032
 50
335.187411
 51
343.048287
  0
ARC
  8
0
 62
     1
  6
CONTINUOUS
 10
-2.049611
 20
12.907858
 30
0.000000
 40
0.592890
 50
306.873360
 51
335.749519
  0
ARC
  8
0
 62
     1
  6
CONTINUOUS
 10
-1.712013
 20
12.457113
 30
0.000000
 40
0.029737
 50
152.892686
 51
307.649117
  0
ARC
  8
0
 62
     1
  6
CONTINUOUS
 10
-5.714254
 20
14.466868
 30
0.000000
 40
4.448774
 50
333.339109
 51
341.830124
  0
ARC
  8
0
 62
     1
  6
CONTINUOUS
 10
-2.342427
 20
5.623125
 30
0.000000
 40
0.023884
 50
291.434429
 51
428.436658
  0
ARC
  8
0
 62
     1
  6
CONTINUOUS
 10
-2.605625
 20
6.933752
 30
0.000000
 40
1.360316
 50
258.537597
 51
281.531084
  0
ARC
  8
0
 62
     1
  6
CONTINUOUS
 10
-2.339670
 20
8.386859
 30
0.000000
 40
2.837432
 50
246.575617
 51
259.105394
  0
ARC
  8
0
 62
     1
  6
CONTINUOUS
 10
-1.190986
 20
10.991651
 30
0.000000
 40
5.684227
 50
233.575019
 51
246.389028
  0
ARC
  8
0
 62
     1
  6
CONTINUOUS
 10
-4.543736
 20
6.462038
 30
0.000000
 40
0.049464
 50
179.068043
 51
243.108619
  0
ARC
  8
0
 62
     1
  6
CONTINUOUS
 10
-4.567780
 20
6.450015
 30
0.000000
 40
0.028467
 50
58.906966
 51
153.217605
  0
ARC
  8
0
 62
     1
  6
CONTINUOUS
 10
-8.171536
 20
-6.597736
 30
0.000000
 40
13.563694
 50
64.506708
 51
74.527536
  0
ARC
  8
0
 62
     1
  6
CONTINUOUS
 10
-6.042093
 20
3.367134
 30
0.000000
 40
3.069554
 50
51.900132
 51
76.900175
  0
ARC
  8
0
 62
     1
  6
CONTINUOUS
 10
-6.399267
 20
2.310909
 30
0.000000
 40
4.180653
 50
75.413184
 51
92.640673
  0
ARC
  8
0
 62
     1
  6
CONTINUOUS
 10
-6.605148
 20
6.454126
 30
0.000000
 40
0.035565
 50
68.093096
 51
155.882949
  0
ARC
  8
0
 62
     1
  6
CONTINUOUS
 10
-6.581410
 20
6.529156
 30
0.000000
 40
0.082573
 50
227.110343
 51
271.396192
  0
ARC
  8
0
 62
     1
  6
CONTINUOUS
 10
-6.843419
 20
4.610427
 30
0.000000
 40
1.855065
 50
62.659820
 51
81.817638
  0
ARC
  8
0
 62
     1
  6
CONTINUOUS
 10
-8.437356
 20
1.572477
 30
0.000000
 40
5.285754
 50
55.846143
 51
62.436091
  0
ARC
  8
0
 62
     1
  6
CONTINUOUS
 10
-3.061048
 20
9.418335
 30
0.000000
 40
4.225535
 50
235.245813
 51
245.358596
  0
ARC
  8
0
 62
     1
  6
CONTINUOUS
 10
-4.171715
 20
7.054319
 30
0.000000
 40
1.613896
 50
246.206259
 51
274.017136
  0
LINE
  8
0
 62
     1
  6
CONTINUOUS
 10
-4.058653
 20
5.444388
 30
0.000000
 11
-3.956563
 21
5.452223
 31
0.000000
  0
ARC
  8
0
 62
     1
  6
CONTINUOUS
 10
-3.021371
 20
-5.757982
 30
0.000000
 40
11.249146
 50
93.550436
 51
94.768762
  0
ARC
  8
0
 62
     1
  6
CONTINUOUS
 10
-3.713263
 20
5.768853
 30
0.000000
 40
0.299317
 50
269.093550
 51
283.652730
  0
ARC
  8
0
 62
     1
  6
CONTINUOUS
 10
-3.641651
 20
5.493924
 30
0.000000
 40
0.015961
 50
266.543654
 51
368.679252
  0
ARC
  8
0
 62
     1
  6
CONTINUOUS
 10
-3.771256
 20
5.362406
 30
0.000000
 40
0.197667
 50
42.651324
 51
73.473762
  0
ARC
  8
0
 62
     1
  6
CONTINUOUS
 10
-2.986967
 20
7.439825
 30
0.000000
 40
2.023439
 50
234.982390
 51
248.911237
  0
ARC
  8
0
 62
     2
  6
CONTINUOUS
 10
-14.123088
 20
-1.816455
 30
0.000000
 40
0.406964
 50
95.634283
 51
125.102352
  0
ARC
  8
0
 62
     2
  6
CONTINUOUS
 10
-14.204290
 20
-1.412663
 30
0.000000
 40
0.041265
 50
292.313350
 51
361.673697
  0
ARC
  8
0
 62
     2
  6
CONTINUOUS
 10
-14.876535
 20
-0.649227
 30
0.000000
 40
1.056315
 50
302.790800
 51
310.634966
  0
ARC
  8
0
 62
     2
  6
CONTINUOUS
 10
10.574402
 20
-37.544145
 30
0.000000
 40
43.765928
 50
124.642407
 51
130.118841
  0
ARC
  8
0
 62
     2
  6
CONTINUOUS
 10
28.054751
 20
-59.326131
 30
0.000000
 40
71.689838
 50
129.584652
 51
132.422711
  0
ARC
  8
0
 62
     2
  6
CONTINUOUS
 10
-20.556741
 20
-6.150974
 30
0.000000
 40
0.356723
 50
299.276732
 51
314.466709
  0
ARC
  8
0
 62
     2
  6
CONTINUOUS
 10
-20.405253
 20
-6.433779
 30
0.000000
 40
0.036484
 50
243.882756
 51
308.999041
  0
ARC
  8
0
 62
     2
  6
CONTINUOUS
 10
-20.309519
 20
-6.445005
 30
0.000000
 40
0.113849
 50
130.305293
 51
190.902064
  0
ARC
  8
0
 62
     2
  6
CONTINUOUS
 10
-9.294846
 20
-14.318543
 30
0.000000
 40
13.649840
 50
126.570272
 51
144.325236
  0
ARC
  8
0
 62
     2
  6
CONTINUOUS
 10
-4.903826
 20
-20.438238
 30
0.000000
 40
21.181274
 50
116.506783
 51
126.246698
  0
ARC
  8
0
 62
     2
  6
CONTINUOUS
 10
-17.817203
 20
-3.109872
 30
0.000000
 40
0.204224
 50
100.920793
 51
135.955332
  0
ARC
  8
0
 62
     2
  6
CONTINUOUS
 10
-18.002936
 20
-2.862755
 30
0.000000
 40
0.154247
 50
299.445453
 51
342.418480
  0
ARC
  8
0
 62
     2
  6
CONTINUOUS
 10
-2.977533
 20
-19.461546
 30
0.000000
 40
22.238897
 50
132.239139
 51
137.620973
  0
ARC
  8
0
 62
     2
  6
CONTINUOUS
 10
29.576470
 20
-49.146418
 30
0.000000
 40
66.295164
 50
137.633213
 51
139.437993
  0
LINE
  8
0
 62
     2
  6
CONTINUOUS
 10
-21.510303
 20
-6.866577
 30
0.000000
 11
-20.788143
 21
-6.036622
 31
0.000000
  0
ARC
  8
0
 62
     2
  6
CONTINUOUS
 10
-21.616459
 20
-6.809719
 30
0.000000
 40
0.120424
 50
277.241983
 51
331.826099
  0
ARC
  8
0
 62
     2
  6
CONTINUOUS
 10
-21.506868
 20
-6.904090
 30
0.000000
 40
0.097688
 50
130.675286
 51
194.883956
  0
ARC
  8
0
 62
     2
  6
CONTINUOUS
 10
-8.957196
 20
-14.993678
 30
0.000000
 40
15.024713
 50
126.831652
 51
147.088031
  0
ARC
  8
0
 62
     2
  6
CONTINUOUS
 10
-3.725121
 20
-0.570171
 30
0.000000
 40
0.813956
 50
171.401161
 51
192.098615
  0
ARC
  8
0
 62
     2
  6
CONTINUOUS
 10
-5.360383
 20
-0.320831
 30
0.000000
 40
0.840206
 50
351.261995
 51
373.733757
  0
ARC
  8
0
 62
     2
  6
CONTINUOUS
 10
-4.562543
 20
-0.116197
 30
0.000000
 40
0.019057
 50
192.071497
 51
344.288703
  0
ARC
  8
0
 62
     2
  6
CONTINUOUS
 10
-5.838294
 20
-0.120874
 30
0.000000
 40
1.257116
 50
333.604845
 51
360.031542
  0
ARC
  8
0
 62
     2
  6
CONTINUOUS
 10
-4.485831
 20
-0.721796
 30
0.000000
 40
0.230276
 50
169.476286
 51
221.888615
  0
ARC
  8
0
 62
     2
  6
CONTINUOUS
 10
-4.290141
 20
-0.596367
 30
0.000000
 40
0.461212
 50
217.251790
 51
259.686572
  0
ARC
  8
0
 62
     2
  6
CONTINUOUS
 10
-4.335100
 20
-0.951428
 30
0.000000
 40
0.105624
 50
249.138441
 51
325.346215
  0
ARC
  8
0
 62
     2
  6
CONTINUOUS
 10
-4.302249
 20
-0.992447
 30
0.000000
 40
0.057292
 50
340.588985
 51
452.780893
  0
ARC
  8
0
 62
     2
  6
CONTINUOUS
 10
-4.247185
 20
-0.653816
 30
0.000000
 40
0.287289
 50
197.618470
 51
258.384537
  0
ARC
  8
0
 62
     6
  6
CONTINUOUS
 10
10.682703
 20
11.765304
 30
0.000000
 40
0.073371
 50
29.333098
 51
82.836882
  0
ARC
  8
0
 62
     6
  6
CONTINUOUS
 10
10.688885
 20
11.815804
 30
0.000000
 40
0.059586
 50
274.983469
 51
345.860273
  0
ARC
  8
0
 62
     6
  6
CONTINUOUS
 10
10.488376
 20
12.506118
 30
0.000000
 40
0.777380
 50
256.932884
 51
285.342456
  0
ARC
  8
0
 62
     6
  6
CONTINUOUS
 10
10.307979
 20
11.796524
 30
0.000000
 40
0.047882
 50
202.387459
 51
275.557631
  0
ARC
  8
0
 62
     6
  6
CONTINUOUS
 10
10.322391
 20
11.762682
 30
0.000000
 40
0.060724
 50
106.493019
 51
165.108555
  0
ARC
  8
0
 62
     6
  6
CONTINUOUS
 10
10.534945
 20
11.009928
 30
0.000000
 40
0.842908
 50
79.271857
 51
105.820216
  0
LINE
  8
0
 62
     6
  6
CONTINUOUS
 10
11.991832
 20
11.946668
 30
0.000000
 11
11.994347
 21
11.947013
 31
0.000000
  0
ARC
  8
0
 62
     6
  6
CONTINUOUS
 10
17.886573
 20
-31.867418
 30
0.000000
 40
44.208846
 50
97.662555
 51
98.541239
  0
ARC
  8
0
 62
     6
  6
CONTINUOUS
 10
11.281395
 20
11.966288
 30
0.000000
 40
0.121668
 50
241.576057
 51
288.808802
  0
ARC
  8
0
 62
     6
  6
CONTINUOUS
 10
11.241178
 20
11.864901
 30
0.000000
 40
0.018565
 50
111.888585
 51
197.599281
  0
ARC
  8
0
 62
     6
  6
CONTINUOUS
 10
11.365808
 20
11.695209
 30
0.000000
 40
0.228570
 50
108.373210
 51
125.137555
  0
ARC
  8
0
 62
     6
  6
CONTINUOUS
 10
17.538122
 20
-4.608369
 30
0.000000
 40
17.661224
 50
108.839908
 51
110.705418
  0
ARC
  8
0
 62
     6
  6
CONTINUOUS
 10
11.906066
 20
11.764353
 30
0.000000
 40
0.349620
 50
56.779072
 51
101.749449
  0
ARC
  8
0
 62
     6
  6
CONTINUOUS
 10
12.077394
 20
12.016966
 30
0.000000
 40
0.044701
 50
329.632860
 51
423.108972
  0
ARC
  8
0
 62
     6
  6
CONTINUOUS
 10
11.991878
 20
12.133193
 30
0.000000
 40
0.186197
 50
270.759685
 51
311.790653
  0
ARC
  8
0
 62
     6
  6
CONTINUOUS
 10
11.986454
 20
17.209003
 30
0.000000
 40
4.735910
 50
272.776373
 51
279.820389
  0
ARC
  8
0
 62
     6
  6
CONTINUOUS
 10
12.188816
 20
12.585881
 30
0.000000
 40
0.110584
 50
227.651425
 51
284.151307
  0
ARC
  8
0
 62
     6
  6
CONTINUOUS
 10
12.194262
 20
12.501821
 30
0.000000
 40
0.079974
 50
97.916854
 51
178.328974
  0
ARC
  8
0
 62
     6
  6
CONTINUOUS
 10
15.382561
 20
6.160628
 30
0.000000
 40
7.173368
 50
111.862523
 51
116.487269
  0
ARC
  8
0
 62
     6
  6
CONTINUOUS
 10
6.228583
 20
28.462703
 30
0.000000
 40
16.934582
 50
292.507945
 51
293.472572
  0
ARC
  8
0
 62
     6
  6
CONTINUOUS
 10
13.081066
 20
12.654865
 30
0.000000
 40
0.294787
 50
51.871348
 51
111.339179
  0
ARC
  8
0
 62
     6
  6
CONTINUOUS
 10
13.205948
 20
12.782677
 30
0.000000
 40
0.118724
 50
298.512831
 51
421.236981
  0
ARC
  8
0
 62
     6
  6
CONTINUOUS
 10
12.634616
 20
13.968094
 30
0.000000
 40
1.434512
 50
276.387645
 51
295.962563
  0
ARC
  8
0
 62
     6
  6
CONTINUOUS
 10
11.973083
 20
12.935437
 30
0.000000
 40
0.223751
 50
291.596059
 51
338.828804
  0
ARC
  8
0
 62
     6
  6
CONTINUOUS
 10
12.051051
 20
12.891895
 30
0.000000
 40
0.135891
 50
344.083105
 51
400.724354
  0
ARC
  8
0
 62
     6
  6
CONTINUOUS
 10
11.985498
 20
12.826297
 30
0.000000
 40
0.228473
 50
42.466319
 51
125.561881
  0
ARC
  8
0
 62
     6
  6
CONTINUOUS
 10
1.896230
 20
29.044804
 30
0.000000
 40
18.872612
 50
300.956172
 51
301.840585
  0
ARC
  8
0
 62
     6
  6
CONTINUOUS
 10
15.729597
 20
5.807628
 30
0.000000
 40
8.170816
 50
120.326215
 51
124.652221
  0
ARC
  8
0
 62
     6
  6
CONTINUOUS
 10
11.111237
 20
12.451904
 30
0.000000
 40
0.081947
 50
109.619516
 51
181.815421
  0
ARC
  8
0
 62
     6
  6
CONTINUOUS
 10
11.097791
 20
12.533902
 30
0.000000
 40
0.108825
 50
231.018039
 51
290.460607
  0
ARC
  8
0
 62
     6
  6
CONTINUOUS
 10
9.256096
 20
19.861613
 30
0.000000
 40
7.663772
 50
284.198114
 51
291.424154
  0
ARC
  8
0
 62
     6
  6
CONTINUOUS
 10
15.200597
 20
7.467266
 30
0.000000
 40
6.951979
 50
120.727483
 51
125.634003
  0
ARC
  8
0
 62
     6
  6
CONTINUOUS
 10
11.188016
 20
13.034693
 30
0.000000
 40
0.090997
 50
114.461028
 51
175.064204
  0
ARC
  8
0
 62
     6
  6
CONTINUOUS
 10
11.153796
 20
13.097293
 30
0.000000
 40
0.078646
 50
224.140645
 51
296.585082
  0
ARC
  8
0
 62
     6
  6
CONTINUOUS
 10
10.181745
 20
17.719638
 30
0.000000
 40
4.799557
 50
282.114289
 51
288.185075
  0
ARC
  8
0
 62
     6
  6
CONTINUOUS
 10
10.999011
 20
15.565707
 30
0.000000
 40
2.500322
 50
285.795876
 51
298.085029
  0
ARC
  8
0
 62
     6
  6
CONTINUOUS
 10
12.096294
 20
13.514474
 30
0.000000
 40
0.174059
 50
297.296552
 51
350.492214
  0
ARC
  8
0
 62
     6
  6
CONTINUOUS
 10
12.140022
 20
13.488163
 30
0.000000
 40
0.127963
 50
358.907427
 51
415.371960
  0
ARC
  8
0
 62
     6
  6
CONTINUOUS
 10
12.051530
 20
13.366144
 30
0.000000
 40
0.278674
 50
54.656474
 51
123.243357
  0
ARC
  8
0
 62
     6
  6
CONTINUOUS
 10
3.104649
 20
27.433516
 30
0.000000
 40
16.392815
 50
301.412218
 51
302.443077
  0
ARC
  8
0
 62
     6
  6
CONTINUOUS
 10
13.480347
 20
13.722940
 30
0.000000
 40
0.128725
 50
358.480849
 51
414.634451
  0
ARC
  8
0
 62
     6
  6
CONTINUOUS
 10
13.394277
 20
13.606658
 30
0.000000
 40
0.273382
 50
54.029889
 51
123.338234
  0
ARC
  8
0
 62
     6
  6
CONTINUOUS
 10
4.612996
 20
27.395125
 30
0.000000
 40
16.073902
 50
301.404106
 51
302.476904
  0
ARC
  8
0
 62
     6
  6
CONTINUOUS
 10
16.217046
 20
8.209100
 30
0.000000
 40
6.348842
 50
120.564215
 51
126.378947
  0
ARC
  8
0
 62
     6
  6
CONTINUOUS
 10
12.471371
 20
13.269490
 30
0.000000
 40
0.054899
 50
111.330470
 51
188.719043
  0
ARC
  8
0
 62
     6
  6
CONTINUOUS
 10
12.468136
 20
13.326273
 30
0.000000
 40
0.082720
 50
231.910639
 51
287.958968
  0
ARC
  8
0
 62
     6
  6
CONTINUOUS
 10
11.553367
 20
17.723060
 30
0.000000
 40
4.573184
 50
281.864981
 51
295.431421
  0
ARC
  8
0
 62
     6
  6
CONTINUOUS
 10
13.435480
 20
13.748894
 30
0.000000
 40
0.176014
 50
297.675408
 51
350.395703
  0
ARC
  8
0
 62
     6
  6
CONTINUOUS
 10
13.505966
 20
14.686397
 30
0.000000
 40
0.222841
 50
287.092239
 51
396.024875
  0
ARC
  8
0
 62
     6
  6
CONTINUOUS
 10
9.233517
 20
24.138073
 30
0.000000
 40
10.593570
 50
290.559245
 51
294.172705
  0
ARC
  8
0
 62
     6
  6
CONTINUOUS
 10
11.753122
 20
17.194024
 30
0.000000
 40
3.207949
 50
279.227032
 51
291.978441
  0
ARC
  8
0
 62
     6
  6
CONTINUOUS
 10
12.197593
 20
14.549975
 30
0.000000
 40
0.527050
 50
264.972597
 51
277.622789
  0
ARC
  8
0
 62
     6
  6
CONTINUOUS
 10
12.147704
 20
14.068359
 30
0.000000
 40
0.043564
 50
205.356628
 51
274.876065
  0
ARC
  8
0
 62
     6
  6
CONTINUOUS
 10
12.337762
 20
13.981340
 30
0.000000
 40
0.239394
 50
120.871248
 51
163.407430
  0
ARC
  8
0
 62
     6
  6
CONTINUOUS
 10
21.285050
 20
1.480754
 30
0.000000
 40
15.611252
 50
121.024618
 51
125.520843
  0
LINE
  8
0
 62
     6
  6
CONTINUOUS
 10
13.296492
 20
14.894398
 30
0.000000
 11
13.238912
 21
14.858753
 31
0.000000
  0
ARC
  8
0
 62
     6
  6
CONTINUOUS
 10
13.453791
 20
14.665734
 30
0.000000
 40
0.277543
 50
33.138664
 51
124.524351
  0
ARC
  8
0
 62
     6
  6
CONTINUOUS
 10
16.791919
 20
-4.515737
 30
0.000000
 40
17.782327
 50
108.842019
 51
110.723570
  0
ARC
  8
0
 62
     6
  6
CONTINUOUS
 10
10.555206
 20
11.944282
 30
0.000000
 40
0.180582
 50
107.977146
 51
127.177978
  0
ARC
  8
0
 62
     6
  6
CONTINUOUS
 10
10.452531
 20
12.074110
 30
0.000000
 40
0.015462
 50
114.653051
 51
209.747592
  0
ARC
  8
0
 62
     6
  6
CONTINUOUS
 10
10.497815
 20
12.183093
 30
0.000000
 40
0.130596
 50
243.285766
 51
287.456823
  0
ARC
  8
0
 62
     6
  6
CONTINUOUS
 10
17.122283
 20
-31.811179
 30
0.000000
 40
44.361198
 50
97.661011
 51
98.536945
  0
ARC
  8
0
 62
     6
  6
CONTINUOUS
 10
11.210546
 20
12.257280
 30
0.000000
 40
0.103245
 50
268.815249
 51
327.483982
  0
ARC
  8
0
 62
     6
  6
CONTINUOUS
 10
11.233762
 20
12.207476
 30
0.000000
 40
0.064098
 50
354.904312
 51
422.174290
  0
ARC
  8
0
 62
     6
  6
CONTINUOUS
 10
11.100216
 20
12.045666
 30
0.000000
 40
0.272877
 50
53.198335
 51
100.830360
  0
ARC
  8
0
 62
     6
  6
CONTINUOUS
 10
12.544818
 20
15.045084
 30
0.000000
 40
0.176018
 50
78.922728
 51
131.642806
  0
ARC
  8
0
 62
     6
  6
CONTINUOUS
 10
15.597786
 20
11.880944
 30
0.000000
 40
4.572740
 50
133.885791
 51
147.453373
  0
ARC
  8
0
 62
     6
  6
CONTINUOUS
 10
11.807808
 20
14.289357
 30
0.000000
 40
0.082738
 50
141.366755
 51
197.412496
  0
ARC
  8
0
 62
     6
  6
CONTINUOUS
 10
11.755814
 20
14.312413
 30
0.000000
 40
0.054888
 50
240.591109
 51
317.989068
  0
ARC
  8
0
 62
     6
  6
CONTINUOUS
 10
8.342392
 20
19.606427
 30
0.000000
 40
6.352040
 50
302.942327
 51
308.752936
  0
ARC
  8
0
 62
     6
  6
CONTINUOUS
 10
22.193239
 20
1.974105
 30
0.000000
 40
16.070419
 50
126.839537
 51
127.913023
  0
ARC
  8
0
 62
     6
  6
CONTINUOUS
 10
12.397168
 20
15.056783
 30
0.000000
 40
0.273401
 50
305.982458
 51
375.286208
  0
ARC
  8
0
 62
     6
  6
CONTINUOUS
 10
12.536387
 20
15.096242
 30
0.000000
 40
0.128712
 50
14.680902
 51
70.837308
  0
ARC
  8
0
 62
     6
  6
CONTINUOUS
 10
11.307009
 20
13.799182
 30
0.000000
 40
0.174043
 50
80.822987
 51
134.021689
  0
ARC
  8
0
 62
     6
  6
CONTINUOUS
 10
11.296091
 20
13.849025
 30
0.000000
 40
0.127958
 50
15.943184
 51
72.406854
  0
ARC
  8
0
 62
     6
  6
CONTINUOUS
 10
11.152155
 20
13.804275
 30
0.000000
 40
0.278671
 50
308.072995
 51
376.661134
  0
ARC
  8
0
 62
     6
  6
CONTINUOUS
 10
21.618975
 20
0.816049
 30
0.000000
 40
16.402133
 50
128.877737
 51
129.907220
  0
ARC
  8
0
 62
     6
  6
CONTINUOUS
 10
6.574882
 20
18.674368
 30
0.000000
 40
6.948683
 50
305.682204
 51
310.592846
  0
ARC
  8
0
 62
     6
  6
CONTINUOUS
 10
10.561580
 20
13.092413
 30
0.000000
 40
0.090987
 50
256.252271
 51
316.859932
  0
ARC
  8
0
 62
     6
  6
CONTINUOUS
 10
10.609918
 20
13.039952
 30
0.000000
 40
0.078644
 50
134.729931
 51
207.176438
  0
ARC
  8
0
 62
     6
  6
CONTINUOUS
 10
14.677721
 20
10.638347
 30
0.000000
 40
4.799953
 50
143.133929
 51
149.204258
  0
ARC
  8
0
 62
     6
  6
CONTINUOUS
 10
12.898065
 20
12.103187
 30
0.000000
 40
2.499505
 50
133.230651
 51
145.523918
  0
ARC
  8
0
 62
     6
  6
CONTINUOUS
 10
11.496332
 20
14.710299
 30
0.000000
 40
0.174040
 50
80.825400
 51
134.023885
  0
ARC
  8
0
 62
     6
  6
CONTINUOUS
 10
11.485409
 20
14.760143
 30
0.000000
 40
0.127954
 50
15.942214
 51
72.407824
  0
ARC
  8
0
 62
     6
  6
CONTINUOUS
 10
11.341462
 20
14.715393
 30
0.000000
 40
0.278678
 50
308.075367
 51
376.659948
  0
ARC
  8
0
 62
     6
  6
CONTINUOUS
 10
21.799513
 20
1.737099
 30
0.000000
 40
16.388890
 50
128.875627
 51
129.906715
  0
ARC
  8
0
 62
     6
  6
CONTINUOUS
 10
6.762907
 20
19.586747
 30
0.000000
 40
6.950470
 50
305.684713
 51
310.592378
  0
ARC
  8
0
 62
     6
  6
CONTINUOUS
 10
10.750901
 20
14.003519
 30
0.000000
 40
0.090983
 50
256.250917
 51
316.857082
  0
ARC
  8
0
 62
     6
  6
CONTINUOUS
 10
10.799253
 20
13.951066
 30
0.000000
 40
0.078658
 50
134.734212
 51
207.174094
  0
ARC
  8
0
 62
     6
  6
CONTINUOUS
 10
14.866540
 20
11.549815
 30
0.000000
 40
4.799345
 50
143.133740
 51
149.204756
  0
ARC
  8
0
 62
     6
  6
CONTINUOUS
 10
13.087254
 20
13.014367
 30
0.000000
 40
2.499364
 50
133.229553
 51
145.523506
  0
ARC
  8
0
 62
     6
  6
CONTINUOUS
 10
10.159672
 20
13.198707
 30
0.000000
 40
0.272882
 50
331.340579
 51
378.970849
  0
ARC
  8
0
 62
     6
  6
CONTINUOUS
 10
10.354604
 20
13.276295
 30
0.000000
 40
0.064100
 50
9.992732
 51
77.262709
  0
ARC
  8
0
 62
     6
  6
CONTINUOUS
 10
10.394914
 20
13.238943
 30
0.000000
 40
0.103248
 50
104.686721
 51
163.354811
  0
ARC
  8
0
 62
     6
  6
CONTINUOUS
 10
-29.789488
 20
32.380176
 30
0.000000
 40
44.408346
 50
333.634456
 51
334.509473
  0
ARC
  8
0
 62
     6
  6
CONTINUOUS
 10
10.106092
 20
12.583144
 30
0.000000
 40
0.130625
 50
144.720826
 51
188.876649
  0
ARC
  8
0
 62
     6
  6
CONTINUOUS
 10
9.988441
 20
12.573413
 30
0.000000
 40
0.015455
 50
222.417726
 51
317.532036
  0
ARC
  8
0
 62
     6
  6
CONTINUOUS
 10
9.896254
 20
12.710924
 30
0.000000
 40
0.180606
 50
304.998461
 51
324.194286
  0
ARC
  8
0
 62
     6
  6
CONTINUOUS
 10
-3.843134
 20
23.672442
 30
0.000000
 40
17.756677
 50
321.444778
 51
323.329079
  0
ARC
  8
0
 62
     6
  6
CONTINUOUS
 10
10.369759
 20
14.123623
 30
0.000000
 40
0.272884
 50
331.340799
 51
378.970630
  0
ARC
  8
0
 62
     6
  6
CONTINUOUS
 10
10.564694
 20
14.201210
 30
0.000000
 40
0.064100
 50
9.992312
 51
77.263129
  0
ARC
  8
0
 62
     6
  6
CONTINUOUS
 10
10.605005
 20
14.163857
 30
0.000000
 40
0.103250
 50
104.687150
 51
163.354382
  0
ARC
  8
0
 62
     6
  6
CONTINUOUS
 10
-29.641605
 20
33.335659
 30
0.000000
 40
44.477652
 50
333.634774
 51
334.508416
  0
ARC
  8
0
 62
     6
  6
CONTINUOUS
 10
10.316172
 20
13.508069
 30
0.000000
 40
0.130617
 50
144.718515
 51
188.881624
  0
ARC
  8
0
 62
     6
  6
CONTINUOUS
 10
10.198534
 20
13.498332
 30
0.000000
 40
0.015460
 50
222.424353
 51
317.525420
  0
ARC
  8
0
 62
     6
  6
CONTINUOUS
 10
10.106365
 20
13.635858
 30
0.000000
 40
0.180612
 50
304.990986
 51
324.188403
  0
ARC
  8
0
 62
     6
  6
CONTINUOUS
 10
-3.645022
 20
24.606136
 30
0.000000
 40
17.771527
 50
321.446746
 51
323.329443
  0
ARC
  8
0
 62
     6
  6
CONTINUOUS
 10
10.040451
 20
13.438623
 30
0.000000
 40
0.087324
 50
105.655027
 51
158.235164
  0
ARC
  8
0
 62
     6
  6
CONTINUOUS
 10
10.933638
 20
12.901003
 30
0.000000
 40
1.128775
 50
149.670491
 51
167.801977
  0
ARC
  8
0
 62
     6
  6
CONTINUOUS
 10
9.922019
 20
13.069822
 30
0.000000
 40
0.115149
 50
142.761352
 51
200.969763
  0
ARC
  8
0
 62
     6
  6
CONTINUOUS
 10
9.768229
 20
13.161244
 30
0.000000
 40
0.140470
 50
289.230978
 51
340.022530
  0
ARC
  8
0
 62
     6
  6
CONTINUOUS
 10
8.439772
 20
13.863350
 30
0.000000
 40
1.641838
 50
332.815032
 51
345.527600
  0
ARC
  8
0
 62
     6
  6
CONTINUOUS
 10
9.991611
 20
13.482146
 30
0.000000
 40
0.047792
 50
322.469799
 51
418.071139
  0
ENDSEC
  0
EOF
