  0
SECTION
  2
HEADER
  9
$ACADVER
  1
AC1015
  9
$ACADMAINTVER
 70
     6
  9
$DWGCODEPAGE
  3
DOS850
  9
$INSBASE
 10
0.0
 20
0.0
 30
0.0
  9
$EXTMIN
 10
-5.80315
 20
0.4543
 30
1.000000E+20
  9
$EXTMAX
 10
8.90543
 20
9.73646
 30
-1.000000E+20
  9
$LIMMIN
 10
0.0
 20
0.0
  9
$LIMMAX
 10
0.0
 20
0.0
  9
$ORTHOMODE
 70
     0
  9
$REGENMODE
 70
     1
  9
$FILLMODE
 70
     1
  9
$QTEXTMODE
 70
     0
  9
$MIRRTEXT
 70
     1
  9
$LTSCALE
 40
1.0
  9
$ATTMODE
 70
     1
  9
$TEXTSIZE
 40
0.2
  9
$TRACEWID
 40
0.05
  9
$TEXTSTYLE
  7
Standard
  9
$CLAYER
  8
0
  9
$CELTYPE
  6
Continuous
  9
$CECOLOR
 62
   256
  9
$CELTSCALE
 40
1.0
  9
$DISPSILH
 70
     0
  9
$DIMSCALE
 40
1.0
  9
$DIMASZ
 40
0.18
  9
$DIMEXO
 40
0.0625
  9
$DIMDLI
 40
0.38
  9
$DIMRND
 40
0.0
  9
$DIMDLE
 40
0.0
  9
$DIMEXE
 40
0.18
  9
$DIMTP
 40
0.0
  9
$DIMTM
 40
0.0
  9
$DIMTXT
 40
0.18
  9
$DIMCEN
 40
0.09
  9
$DIMTSZ
 40
0.0
  9
$DIMTOL
 70
     0
  9
$DIMLIM
 70
     0
  9
$DIMTIH
 70
     1
  9
$DIMTOH
 70
     1
  9
$DIMSE1
 70
     0
  9
$DIMSE2
 70
     0
  9
$DIMTAD
 70
     0
  9
$DIMZIN
 70
     0
  9
$DIMBLK
  1

  9
$DIMASO
 70
     1
  9
$DIMSHO
 70
     1
  9
$DIMPOST
  1

  9
$DIMAPOST
  1

  9
$DIMALT
 70
     0
  9
$DIMALTD
 70
     2
  9
$DIMALTF
 40
25.4
  9
$DIMLFAC
 40
1.0
  9
$DIMTOFL
 70
     0
  9
$DIMTVP
 40
0.0
  9
$DIMTIX
 70
     0
  9
$DIMSOXD
 70
     0
  9
$DIMSAH
 70
     0
  9
$DIMBLK1
  1

  9
$DIMBLK2
  1

  9
$DIMSTYLE
  2
Standard
  9
$DIMCLRD
 70
     0
  9
$DIMCLRE
 70
     0
  9
$DIMCLRT
 70
     0
  9
$DIMTFAC
 40
1.0
  9
$DIMGAP
 40
0.09
  9
$DIMJUST
 70
     0
  9
$DIMSD1
 70
     0
  9
$DIMSD2
 70
     0
  9
$DIMTOLJ
 70
     1
  9
$DIMTZIN
 70
     0
  9
$DIMALTZ
 70
     0
  9
$DIMALTTZ
 70
     0
  9
$DIMUPT
 70
     0
  9
$DIMDEC
 70
     4
  9
$DIMTDEC
 70
     4
  9
$DIMALTU
 70
     2
  9
$DIMALTTD
 70
     2
  9
$DIMTXSTY
  7
Standard
  9
$DIMAUNIT
 70
     0
  9
$DIMADEC
 70
     0
  9
$DIMALTRND
 40
0.0
  9
$DIMAZIN
 70
     0
  9
$DIMDSEP
 70
     0
  9
$DIMATFIT
 70
     3
  9
$DIMFRAC
 70
     0
  9
$DIMLDRBLK
  1

  9
$DIMLUNIT
 70
     2
  9
$DIMLWD
 70
     0
  9
$DIMLWE
 70
     0
  9
$DIMTMOVE
 70
     0
  9
$LUNITS
 70
     2
  9
$LUPREC
 70
     4
  9
$SKETCHINC
 40
0.1
  9
$FILLETRAD
 40
0.0
  9
$AUNITS
 70
     0
  9
$AUPREC
 70
     0
  9
$MENU
  1
acad
  9
$ELEVATION
 40
0.0
  9
$PELEVATION
 40
0.0
  9
$THICKNESS
 40
0.0
  9
$LIMCHECK
 70
     0
  9
$CHAMFERA
 40
0.0
  9
$CHAMFERB
 40
0.0
  9
$CHAMFERC
 40
0.0
  9
$CHAMFERD
 40
0.0
  9
$SKPOLY
 70
     0
  9
$TDCREATE
 40
0.000000000
  9
$TDUCREATE
 40
0.000000000
  9
$TDUPDATE
 40
0.000000000
  9
$TDUUPDATE
 40
0.000000000
  9
$TDINDWG
 40
0.0000000000
  9
$TDUSRTIMER
 40
0.0000000000
  9
$USRTIMER
 70
     1
  9
$ANGBASE
 50
0.0
  9
$ANGDIR
 70
     0
  9
$PDMODE
 70
     0
  9
$PDSIZE
 40
0.0
  9
$PLINEWID
 40
0.0
  9
$SPLFRAME
 70
     0
  9
$SPLINETYPE
 70
     6
  9
$SPLINESEGS
 70
     8
  9
$HANDSEED
  5
3F
  9
$SURFTAB1
 70
     6
  9
$SURFTAB2
 70
     6
  9
$SURFTYPE
 70
     6
  9
$SURFU
 70
     6
  9
$SURFV
 70
     6
  9
$UCSBASE
  2

  9
$UCSNAME
  2

  9
$UCSORG
 10
0.0
 20
0.0
 30
0.0
  9
$UCSXDIR
 10
1.0
 20
0.0
 30
0.0
  9
$UCSYDIR
 10
0.0
 20
1.0
 30
0.0
  9
$UCSORTHOREF
  2

  9
$UCSORTHOVIEW
 70
     0
  9
$UCSORGTOP
 10
0.0
 20
0.0
 30
0.0
  9
$UCSORGBOTTOM
 10
0.0
 20
0.0
 30
0.0
  9
$UCSORGLEFT
 10
0.0
 20
0.0
 30
0.0
  9
$UCSORGRIGHT
 10
0.0
 20
0.0
 30
0.0
  9
$UCSORGFRONT
 10
0.0
 20
0.0
 30
0.0
  9
$UCSORGBACK
 10
0.0
 20
0.0
 30
0.0
  9
$PUCSBASE
  2

  9
$PUCSNAME
  2

  9
$PUCSORG
 10
0.0
 20
0.0
 30
0.0
  9
$PUCSXDIR
 10
1.0
 20
0.0
 30
0.0
  9
$PUCSYDIR
 10
0.0
 20
1.0
 30
0.0
  9
$PUCSORTHOREF
  2

  9
$PUCSORTHOVIEW
 70
     0
  9
$PUCSORGTOP
 10
0.0
 20
0.0
 30
0.0
  9
$PUCSORGBOTTOM
 10
0.0
 20
0.0
 30
0.0
  9
$PUCSORGLEFT
 10
0.0
 20
0.0
 30
0.0
  9
$PUCSORGRIGHT
 10
0.0
 20
0.0
 30
0.0
  9
$PUCSORGFRONT
 10
0.0
 20
0.0
 30
0.0
  9
$PUCSORGBACK
 10
0.0
 20
0.0
 30
0.0
  9
$USERI1
 70
     0
  9
$USERI2
 70
     0
  9
$USERI3
 70
     0
  9
$USERI4
 70
     0
  9
$USERI5
 70
     0
  9
$USERR1
 40
0.0
  9
$USERR2
 40
0.0
  9
$USERR3
 40
0.0
  9
$USERR4
 40
0.0
  9
$USERR5
 40
0.0
  9
$WORLDVIEW
 70
     1
  9
$SHADEDGE
 70
     3
  9
$SHADEDIF
 70
    70
  9
$TILEMODE
 70
     1
  9
$MAXACTVP
 70
    16
  9
$PINSBASE
 10
0.0
 20
0.0
 30
0.0
  9
$PLIMCHECK
 70
     0
  9
$PEXTMIN
 10
1.000000E+20
 20
1.000000E+20
 30
1.000000E+20
  9
$PEXTMAX
 10
-1.000000E+20
 20
-1.000000E+20
 30
-1.000000E+20
  9
$PLIMMIN
 10
0.0
 20
0.0
  9
$PLIMMAX
 10
12.0
 20
9.0
  9
$UNITMODE
 70
     0
  9
$VISRETAIN
 70
     0
  9
$PLINEGEN
 70
     1
  9
$PSLTSCALE
 70
     0
  9
$TREEDEPTH
 70
  3020
  9
$CMLSTYLE
  2
Standard
  9
$CMLJUST
 70
     0
  9
$CMLSCALE
 40
1.0
  9
$PROXYGRAPHICS
 70
     0
  9
$MEASUREMENT
 70
     0
  9
$CELWEIGHT
370
     0
  9
$ENDCAPS
280
     0
  9
$JOINSTYLE
280
     0
  9
$LWDISPLAY
290
     0
  9
$INSUNITS
 70
     5
  9
$HYPERLINKBASE
  1

  9
$XEDIT
290
     1
  9
$CEPSNTYPE
380
     0
  9
$PSTYLEMODE
290
     1
  9
$FINGERPRINTGUID
  2

  9
$VERSIONGUID
  2

  9
$EXTNAMES
290
     1
  9
$PSVPSCALE
 40
0.0
  0
ENDSEC
  0
SECTION
  2
CLASSES
  0
CLASS
  1
LWPOLYLINE
  2
AcDbPolyline
  3
AutoCAD 2000
 90
    32768
280
     0
281
     1
  0
CLASS
  1
IMAGE
  2
AcDbRasterImage
  3
ISM
 90
    32895
280
     0
281
     1
  0
CLASS
  1
OLE2FRAME
  2
AcDbOle2Frame
  3
AutoCAD 2000
 90
    32768
280
     0
281
     1
  0
CLASS
  1
HATCH
  2
AcDbHatch
  3
AutoCAD 2000
 90
    32768
280
     0
281
     1
  0
CLASS
  1
DICTIONARYVAR
  2
AcDbDictionaryVar
  3
AutoCAD 2000
 90
    32768
280
     0
281
     0
  0
CLASS
  1
RASTERVARIABLES
  2
AcDbRasterVariables
  3
ISM
 90
    32768
280
     0
281
     0
  0
CLASS
  1
IMAGEDEF
  2
AcDbRasterImageDef
  3
ISM
 90
    32768
280
     0
281
     0
  0
CLASS
  1
IMAGEDEF_REACTOR
  2
AcDbRasterImageDefReactor
  3
ISM
 90
    32769
280
     0
281
     0
  0
CLASS
  1
IDBUFFER
  2
AcDbIdBuffer
  3
AutoCAD 2000
 90
    32768
280
     0
281
     0
  0
CLASS
  1
SPATIAL_FILTER
  2
AcDbSpatialFilter
  3
AutoCAD 2000
 90
    32768
280
     0
281
     0
  0
CLASS
  1
XRECORD
  2
AcDbXrecord
  3
AutoCAD 2000
 90
    32768
280
     0
281
     0
  0
CLASS
  1
SORTENTSTABLE
  2
AcDbSortentsTable
  3
AutoCAD 2000
 90
    32768
280
     0
281
     0
  0
CLASS
  1
LAYER_INDEX
  2
AcDbLayerIndex
  3
AutoCAD 2000
 90
    32768
280
     0
281
     0
  0
CLASS
  1
SPATIAL_INDEX
  2
AcDbSpatialIndex
  3
AutoCAD 2000
 90
    32768
280
     0
281
     0
  0
CLASS
  1
OBJECT_PTR
  2
CAseDLPNTableRecord
  3
"ASE-LPNTableRecord"
 90
    32769
280
     0
281
     0
  0
CLASS
  1
LAYOUT
  2
AcDbLayout
  3
AutoCAD 2000
 90
        0
280
     0
281
     0
  0
CLASS
  1
PLOTSETTINGS
  2
AcDbPlotSettings
  3
AutoCAD 2000
 90
    32768
280
     0
281
     0
  0
CLASS
  1
ACDBDICTIONARYWDFLT
  2
AcDbDictionaryWithDefault
  3
AutoCAD 2000
 90
        0
280
     0
281
     0
  0
CLASS
  1
ACDBPLACEHOLDER
  2
AcDbPlaceHolder
  3
AutoCAD 2000
 90
        0
280
     0
281
     0
  0
CLASS
  1
VBA_PROJECT
  2
AcDbVbaProject
  3
acadvba
 90
    32768
280
     0
281
     0
  0
CLASS
  1
WIPEOUT
  2
AcDbWipeout
  3
WipeOut|AutoCAD Express Tool|expresstools@autodesk.com
 90
    32895
280
     0
281
     1
  0
CLASS
  1
WIPEOUTVARIABLES
  2
AcDbWipeoutVariables
  3
WipeOut|AutoCAD Express Tool|expresstools@autodesk.com
 90
        0
280
     0
281
     0
  0
CLASS
  1
RTEXT
  2
RText
  3
RText|AutoCAD Express Tool|expresstools@autodesk.com
 90
    32768
280
     0
281
     1
  0
CLASS
  1
ARCALIGNEDTEXT
  2
AcDbArcAlignedText
  3
ATEXT|AutoCAD Express Tool|expresstools@autodesk.com
 90
    32768
280
     0
281
     1
  0
ENDSEC
  0
SECTION
  2
TABLES
  0
TABLE
  2
VPORT
  5
7
100
AcDbSymbolTable
 70
     1
  0
VPORT
  5
15
100
AcDbSymbolTableRecord
100
AcDbViewportTableRecord
  2
*ACTIVE
 70
     0
 10
0.0
 20
0.0
 11
1.0
 21
1.0
 12
6.591288
 22
4.579184
 13
0.0
 23
0.0
 14
1.0
 24
1.0
 15
0.0
 25
0.0
 16
0.0
 26
0.0
 36
1.0
 17
0.0
 27
0.0
 37
0.0
 40
9.158369
 41
0.688564
 42
50.0
 43
0.0
 44
0.0
 50
0.0
 51
0.0
 71
     0
 72
   100
 73
     1
 74
     1
 75
     0
 76
     0
 77
     0
 78
     0
281
     0
 65
     0
110
0.0
120
0.0
130
0.0
111
1.0
121
0.0
131
0.0
112
0.0
122
1.0
132
0.0
345
0
346
0
 79
     0
146
0.0
  0
ENDTAB
  0
TABLE
  2
LTYPE
  5
4
100
AcDbSymbolTable
 70
     3
  0
LTYPE
  5
11
100
AcDbSymbolTableRecord
100
AcDbLinetypeTableRecord
  2
ByBlock
 70
    64
  3

 72
    65
 73
     0
 40
0.0
  0
LTYPE
  5
12
100
AcDbSymbolTableRecord
100
AcDbLinetypeTableRecord
  2
ByLayer
 70
    64
  3

 72
    65
 73
     0
 40
0.0
  0
LTYPE
  5
13
100
AcDbSymbolTableRecord
100
AcDbLinetypeTableRecord
  2
Continuous
 70
    64
  3
Solid line
 72
    65
 73
     0
 40
0.0
  0
ENDTAB
  0
TABLE
  2
LAYER
  5
2
100
AcDbSymbolTable
 70
     2
  0
LAYER
  5
14
100
AcDbSymbolTableRecord
100
AcDbLayerTableRecord
  2
0
 70
     0
 62
     7
  6
Continuous
290
     1
370
    -3
390
1D
  0
LAYER
  5
24
100
AcDbSymbolTableRecord
100
AcDbLayerTableRecord
  2
Ebene 1
 70
     0
 62
     7
  6
Continuous
290
     1
370
    -3
390
1F
  0
ENDTAB
  0
TABLE
  2
STYLE
  5
3
100
AcDbSymbolTable
 70
     1
  0
STYLE
  5
17
100
AcDbSymbolTableRecord
100
AcDbTextStyleTableRecord
  2
Standard
 70
     0
 40
0.0
 41
1.0
 50
0.0
 71
     0
 42
0.0
  3
txt
  4

  0
ENDTAB
  0
TABLE
  2
VIEW
  5
5
100
AcDbSymbolTable
 70
     0
  0
ENDTAB
  0
TABLE
  2
UCS
  5
6
100
AcDbSymbolTable
 70
     0
  0
ENDTAB
  0
TABLE
  2
APPID
  5
8
100
AcDbSymbolTable
 70
     1
  0
APPID
  5
16
100
AcDbSymbolTableRecord
100
AcDbRegAppTableRecord
  2
ACAD
 70
     0
  0
ENDTAB
  0
TABLE
  2
DIMSTYLE
  5
9
100
AcDbSymbolTable
 70
     1
100
AcDbDimStyleTable
 71
     0
  0
DIMSTYLE
105
18
100
AcDbSymbolTableRecord
100
AcDbDimStyleTableRecord
  2
Standard
 70
     0
  3

  4

 40
1.0
 41
0.18
 42
0.0625
 43
0.38
 44
0.18
 45
0.0
 46
0.0
 47
0.0
 48
0.0
 71
     0
 72
     0
 73
     1
 74
     1
 75
     0
 76
     0
 77
     0
 78
     0
 79
     0
140
0.18
141
0.09
142
0.0
143
25.4
144
1.0
145
0.0
146
1.0
147
0.09
148
0.0
170
     0
171
     2
172
     0
173
     0
174
     0
175
     0
176
     0
177
     0
178
     0
179
     0
271
     4
272
     4
273
     2
274
     2
275
     0
276
     0
277
     2
278
    46
279
     0
280
     0
281
     0
282
     0
283
     1
284
     0
285
     0
286
     0
288
     0
340
17
341
0
342
0
343
0
344
0
371
    -2
372
    -2
  0
ENDTAB
  0
TABLE
  2
BLOCK_RECORD
  5
1
100
AcDbSymbolTable
 70
     0
  0
BLOCK_RECORD
  5
A
100
AcDbSymbolTableRecord
100
AcDbBlockTableRecord
  2
*MODEL_SPACE
340
20
  0
BLOCK_RECORD
  5
B
100
AcDbSymbolTableRecord
100
AcDbBlockTableRecord
  2
*PAPER_SPACE
340
21
  0
ENDTAB
  0
ENDSEC
  0
SECTION
  2
BLOCKS
  0
BLOCK
  5
D
100
AcDbEntity
  8
0
100
AcDbBlockBegin
  2
*MODEL_SPACE
 70
     0
 10
0.0
 20
0.0
 30
0.0
  3
*MODEL_SPACE
  1

  0
ENDBLK
  5
E
100
AcDbEntity
  8
0
100
AcDbBlockEnd
  0
BLOCK
  5
F
100
AcDbEntity
 67
     1
  8
0
100
AcDbBlockBegin
  2
*PAPER_SPACE
 70
     0
 10
0.0
 20
0.0
 30
0.0
  3
*PAPER_SPACE
  1

  0
ENDBLK
  5
10
100
AcDbEntity
 67
     1
  8
0
100
AcDbBlockEnd
  0
ENDSEC
  0
SECTION
  2
ENTITIES
  0
SPLINE
  5
25
100
AcDbEntity
  8
Ebene 1
 62
     1
100
AcDbSpline
210
0.0
220
0.0
230
1.0
 70
     1
 71
     3
 72
    44
 73
    40
 74
     0
 42
0.0000000001
 43
0.0000000001
 40
0.0
 40
0.0
 40
0.0
 40
0.0
 40
0.1
 40
0.1
 40
0.1
 40
0.1
 40
0.2
 40
0.2
 40
0.2
 40
0.2
 40
0.3
 40
0.3
 40
0.3
 40
0.3
 40
0.4
 40
0.4
 40
0.4
 40
0.4
 40
0.5
 40
0.5
 40
0.5
 40
0.5
 40
0.6
 40
0.6
 40
0.6
 40
0.6
 40
0.7
 40
0.7
 40
0.7
 40
0.7
 40
0.7999999999999999
 40
0.7999999999999999
 40
0.7999999999999999
 40
0.7999999999999999
 40
0.8999999999999999
 40
0.8999999999999999
 40
0.8999999999999999
 40
0.8999999999999999
 40
1.0
 40
1.0
 40
1.0
 40
1.0
 10
-4.0969000000000007
 20
8.5167700000000011
 30
0.0
 10
-4.0969000000000007
 20
8.5167700000000011
 30
0.0
 10
-3.6554600000000002
 20
8.442870000000001
 30
0.0
 10
-3.0552400000000004
 20
8.2363600000000012
 30
0.0
 10
-3.0552400000000004
 20
8.2363600000000012
 30
0.0
 10
-2.4619600000000004
 20
8.0322200000000006
 30
0.0
 10
-1.7016500000000001
 20
7.6324300000000003
 30
0.0
 10
-1.0835100000000002
 20
7.1678300000000004
 30
0.0
 10
-1.0835100000000002
 20
7.1678300000000004
 30
0.0
 10
-1.00248
 20
6.7419900000000004
 30
0.0
 10
-1.06501
 20
6.3009400000000007
 30
0.0
 10
-1.0798100000000002
 20
5.8698500000000005
 30
0.0
 10
-1.0798100000000002
 20
5.8698500000000005
 30
0.0
 10
-1.08063
 20
5.8455800000000009
 30
0.0
 10
-0.7738700000000001
 20
5.8386900000000006
 30
0.0
 10
-0.51729
 20
6.6894700000000009
 30
0.0
 10
-0.51729
 20
6.6894700000000009
 30
0.0
 10
0.46133
 20
5.8683900000000007
 30
0.0
 10
0.74687
 20
5.4578300000000004
 30
0.0
 10
0.74687
 20
5.4578300000000004
 30
0.0
 10
0.74687
 20
5.4578300000000004
 30
0.0
 10
0.70269
 20
5.23794
 30
0.0
 10
0.01429
 20
4.7612200000000007
 30
0.0
 10
-0.13606
 20
4.6642700000000001
 30
0.0
 10
-0.13606
 20
4.6642700000000001
 30
0.0
 10
-1.7408700000000001
 20
3.6289600000000002
 30
0.0
 10
-3.3590000000000004
 20
4.6263100000000001
 30
0.0
 10
-3.7730800000000002
 20
6.1973800000000008
 30
0.0
 10
-3.7730800000000002
 20
6.1973800000000008
 30
0.0
 10
-3.9052900000000004
 20
6.698970000000001
 30
0.0
 10
-3.9507800000000004
 20
7.0522800000000005
 30
0.0
 10
-4.0841600000000007
 20
7.5793100000000004
 30
0.0
 10
-4.0841600000000007
 20
7.5793100000000004
 30
0.0
 10
-4.3062400000000007
 20
8.4569600000000005
 30
0.0
 10
-4.7746900000000005
 20
8.6358899999999998
 30
0.0
 10
-4.7357800000000001
 20
8.6377400000000009
 30
0.0
 10
-4.7357800000000001
 20
8.6377400000000009
 30
0.0
 10
-4.5196300000000003
 20
8.5983300000000007
 30
0.0
 10
-4.3074700000000004
 20
8.5580100000000012
 30
0.0
 10
-4.0969000000000007
 20
8.5167700000000011
 30
0.0
  0
SPLINE
  5
26
100
AcDbEntity
  8
Ebene 1
 62
     1
100
AcDbSpline
210
0.0
220
0.0
230
1.0
 70
     1
 71
     3
 72
    68
 73
    64
 74
     0
 42
0.0000000001
 43
0.0000000001
 40
0.0
 40
0.0
 40
0.0
 40
0.0
 40
0.0625
 40
0.0625
 40
0.0625
 40
0.0625
 40
0.125
 40
0.125
 40
0.125
 40
0.125
 40
0.1875
 40
0.1875
 40
0.1875
 40
0.1875
 40
0.25
 40
0.25
 40
0.25
 40
0.25
 40
0.3125
 40
0.3125
 40
0.3125
 40
0.3125
 40
0.375
 40
0.375
 40
0.375
 40
0.375
 40
0.4375
 40
0.4375
 40
0.4375
 40
0.4375
 40
0.5
 40
0.5
 40
0.5
 40
0.5
 40
0.5625
 40
0.5625
 40
0.5625
 40
0.5625
 40
0.625
 40
0.625
 40
0.625
 40
0.625
 40
0.6875
 40
0.6875
 40
0.6875
 40
0.6875
 40
0.75
 40
0.75
 40
0.75
 40
0.75
 40
0.8125
 40
0.8125
 40
0.8125
 40
0.8125
 40
0.875
 40
0.875
 40
0.875
 40
0.875
 40
0.9375
 40
0.9375
 40
0.9375
 40
0.9375
 40
1.0
 40
1.0
 40
1.0
 40
1.0
 10
1.5315300000000001
 20
4.7486800000000002
 30
0.0
 10
1.5942500000000002
 20
4.7486800000000002
 30
0.0
 10
1.6485100000000001
 20
4.7011400000000005
 30
0.0
 10
1.6803100000000002
 20
4.6281000000000008
 30
0.0
 10
1.6803100000000002
 20
4.6281000000000008
 30
0.0
 10
1.7101400000000002
 20
4.5597500000000002
 30
0.0
 10
1.7179300000000002
 20
4.4659700000000004
 30
0.0
 10
1.7022200000000001
 20
4.3586900000000002
 30
0.0
 10
1.7022200000000001
 20
4.3586900000000002
 30
0.0
 10
1.6865100000000002
 20
4.2513400000000008
 30
0.0
 10
1.6524700000000001
 20
4.1412400000000007
 30
0.0
 10
1.6220100000000002
 20
4.0481600000000002
 30
0.0
 10
1.6220100000000002
 20
4.0481600000000002
 30
0.0
 10
1.6073700000000002
 20
4.0035100000000003
 30
0.0
 10
1.5940100000000001
 20
3.9629900000000005
 30
0.0
 10
1.5814100000000002
 20
3.9295700000000005
 30
0.0
 10
1.5814100000000002
 20
3.9295700000000005
 30
0.0
 10
1.6241500000000002
 20
3.8814100000000002
 30
0.0
 10
1.6602600000000001
 20
3.7726100000000002
 30
0.0
 10
1.6840300000000001
 20
3.6266800000000003
 30
0.0
 10
1.6840300000000001
 20
3.6266800000000003
 30
0.0
 10
1.71462
 20
3.4392700000000005
 30
0.0
 10
1.7226100000000002
 20
3.1824700000000004
 30
0.0
 10
1.70652
 20
2.8885400000000003
 30
0.0
 10
1.70652
 20
2.8885400000000003
 30
0.0
 10
1.6903700000000002
 20
2.5943200000000002
 30
0.0
 10
1.6554700000000002
 20
2.2927400000000002
 30
0.0
 10
1.6242200000000002
 20
2.0377300000000003
 30
0.0
 10
1.6242200000000002
 20
2.0377300000000003
 30
0.0
 10
1.59206
 20
1.7752200000000002
 30
0.0
 10
1.5660500000000002
 20
1.5656200000000002
 30
0.0
 10
1.5404900000000001
 20
1.4867900000000001
 30
0.0
 10
1.5404900000000001
 20
1.4867900000000001
 30
0.0
 10
1.5143900000000001
 20
1.55983
 30
0.0
 10
1.4868300000000001
 20
1.7718400000000001
 30
0.0
 10
1.45272
 20
2.0356700000000001
 30
0.0
 10
1.45272
 20
2.0356700000000001
 30
0.0
 10
1.4195600000000002
 20
2.2924600000000002
 30
0.0
 10
1.3825000000000001
 20
2.5943200000000002
 30
0.0
 10
1.3642400000000001
 20
2.8885400000000003
 30
0.0
 10
1.3642400000000001
 20
2.8885400000000003
 30
0.0
 10
1.3459400000000001
 20
3.1824700000000004
 30
0.0
 10
1.3520100000000002
 20
3.4390600000000004
 30
0.0
 10
1.3811900000000001
 20
3.6264100000000004
 30
0.0
 10
1.3811900000000001
 20
3.6264100000000004
 30
0.0
 10
1.4058700000000002
 20
3.7851600000000003
 30
0.0
 10
1.4454200000000001
 20
3.8998800000000005
 30
0.0
 10
1.4928100000000002
 20
3.9407400000000004
 30
0.0
 10
1.4928100000000002
 20
3.9407400000000004
 30
0.0
 10
1.4809700000000001
 20
3.9716100000000005
 30
0.0
 10
1.46838
 20
4.0079200000000004
 30
0.0
 10
1.4547600000000001
 20
4.0474000000000006
 30
0.0
 10
1.4547600000000001
 20
4.0474000000000006
 30
0.0
 10
1.42239
 20
4.1411700000000007
 30
0.0
 10
1.3862700000000001
 20
4.2513400000000008
 30
0.0
 10
1.36846
 20
4.3586900000000002
 30
0.0
 10
1.36846
 20
4.3586900000000002
 30
0.0
 10
1.3506400000000001
 20
4.4659700000000004
 30
0.0
 10
1.35653
 20
4.5596800000000002
 30
0.0
 10
1.3849900000000002
 20
4.6280300000000008
 30
0.0
 10
1.3849900000000002
 20
4.6280300000000008
 30
0.0
 10
1.4153600000000002
 20
4.7011400000000005
 30
0.0
 10
1.4687600000000001
 20
4.7486800000000002
 30
0.0
 10
1.5315300000000001
 20
4.7486800000000002
 30
0.0
  0
SPLINE
  5
27
100
AcDbEntity
  8
Ebene 1
 62
     1
100
AcDbSpline
210
0.0
220
0.0
230
1.0
 70
     1
 71
     3
 72
    44
 73
    40
 74
     0
 42
0.0000000001
 43
0.0000000001
 40
0.0
 40
0.0
 40
0.0
 40
0.0
 40
0.1
 40
0.1
 40
0.1
 40
0.1
 40
0.2
 40
0.2
 40
0.2
 40
0.2
 40
0.3
 40
0.3
 40
0.3
 40
0.3
 40
0.4
 40
0.4
 40
0.4
 40
0.4
 40
0.5
 40
0.5
 40
0.5
 40
0.5
 40
0.6
 40
0.6
 40
0.6
 40
0.6
 40
0.7
 40
0.7
 40
0.7
 40
0.7
 40
0.7999999999999999
 40
0.7999999999999999
 40
0.7999999999999999
 40
0.7999999999999999
 40
0.8999999999999999
 40
0.8999999999999999
 40
0.8999999999999999
 40
0.8999999999999999
 40
1.0
 40
1.0
 40
1.0
 40
1.0
 10
1.40049
 20
5.1010500000000008
 30
0.0
 10
1.3658700000000001
 20
5.11972
 30
0.0
 10
-0.22389
 20
8.8073000000000015
 30
0.0
 10
-0.6862900000000001
 20
9.0574100000000008
 30
0.0
 10
-0.6862900000000001
 20
9.0574100000000008
 30
0.0
 10
-0.98682
 20
9.2199500000000008
 30
0.0
 10
-0.7320300000000001
 20
8.8059700000000003
 30
0.0
 10
-0.6546700000000001
 20
8.7315700000000014
 30
0.0
 10
-0.6546700000000001
 20
8.7315700000000014
 30
0.0
 10
-0.5772900000000001
 20
8.657210000000001
 30
0.0
 10
-0.40171
 20
8.4212900000000008
 30
0.0
 10
-0.40171
 20
8.4212900000000008
 30
0.0
 10
-0.40171
 20
8.4212900000000008
 30
0.0
 10
-0.41749
 20
8.4107600000000016
 30
0.0
 10
-0.93649
 20
8.8469700000000007
 30
0.0
 10
-1.0657000000000001
 20
9.1349700000000009
 30
0.0
 10
-1.0657000000000001
 20
9.1349700000000009
 30
0.0
 10
-1.19493
 20
9.4229700000000012
 30
0.0
 10
-0.7811400000000001
 20
9.3056400000000004
 30
0.0
 10
-0.7811400000000001
 20
9.3056400000000004
 30
0.0
 10
-0.7811400000000001
 20
9.3056400000000004
 30
0.0
 10
-0.7811400000000001
 20
9.3056400000000004
 30
0.0
 10
-0.9461400000000001
 20
9.6404400000000017
 30
0.0
 10
-1.1208900000000002
 20
9.6234900000000003
 30
0.0
 10
-1.1208900000000002
 20
9.6234900000000003
 30
0.0
 10
-1.2956300000000001
 20
9.60656
 30
0.0
 10
-1.1733100000000001
 20
9.3150300000000001
 30
0.0
 10
-1.1733100000000001
 20
9.3150300000000001
 30
0.0
 10
-1.1733100000000001
 20
9.3150300000000001
 30
0.0
 10
-1.1733100000000001
 20
9.3150300000000001
 30
0.0
 10
-1.3660600000000001
 20
9.5538800000000013
 30
0.0
 10
-1.2712400000000001
 20
9.66249
 30
0.0
 10
-1.2712400000000001
 20
9.66249
 30
0.0
 10
-1.1763700000000001
 20
9.7710800000000013
 30
0.0
 10
-0.9392300000000001
 20
9.9107300000000009
 30
0.0
 10
-0.3701
 20
8.8712400000000002
 30
0.0
 10
-0.3701
 20
8.8712400000000002
 30
0.0
 10
0.19902
 20
7.8317100000000011
 30
0.0
 10
1.40049
 20
5.1010500000000008
 30
0.0
 10
1.40049
 20
5.1010500000000008
 30
0.0
  0
SPLINE
  5
28
100
AcDbEntity
  8
Ebene 1
 62
     1
100
AcDbSpline
210
0.0
220
0.0
230
1.0
 70
     1
 71
     3
 72
    44
 73
    40
 74
     0
 42
0.0000000001
 43
0.0000000001
 40
0.0
 40
0.0
 40
0.0
 40
0.0
 40
0.1
 40
0.1
 40
0.1
 40
0.1
 40
0.2
 40
0.2
 40
0.2
 40
0.2
 40
0.3
 40
0.3
 40
0.3
 40
0.3
 40
0.4
 40
0.4
 40
0.4
 40
0.4
 40
0.5
 40
0.5
 40
0.5
 40
0.5
 40
0.6
 40
0.6
 40
0.6
 40
0.6
 40
0.7
 40
0.7
 40
0.7
 40
0.7
 40
0.7999999999999999
 40
0.7999999999999999
 40
0.7999999999999999
 40
0.7999999999999999
 40
0.8999999999999999
 40
0.8999999999999999
 40
0.8999999999999999
 40
0.8999999999999999
 40
1.0
 40
1.0
 40
1.0
 40
1.0
 10
1.6346900000000002
 20
5.1010500000000008
 30
0.0
 10
1.6693100000000001
 20
5.11972
 30
0.0
 10
3.2590900000000005
 20
8.8073000000000015
 30
0.0
 10
3.7214900000000002
 20
9.0574100000000008
 30
0.0
 10
3.7214900000000002
 20
9.0574100000000008
 30
0.0
 10
4.0220100000000008
 20
9.2199500000000008
 30
0.0
 10
3.7672100000000004
 20
8.8059700000000003
 30
0.0
 10
3.6898600000000004
 20
8.7315700000000014
 30
0.0
 10
3.6898600000000004
 20
8.7315700000000014
 30
0.0
 10
3.6124900000000002
 20
8.657210000000001
 30
0.0
 10
3.4369300000000003
 20
8.4212900000000008
 30
0.0
 10
3.4369300000000003
 20
8.4212900000000008
 30
0.0
 10
3.4369300000000003
 20
8.4212900000000008
 30
0.0
 10
3.4527100000000002
 20
8.4107600000000016
 30
0.0
 10
3.9717100000000003
 20
8.8469700000000007
 30
0.0
 10
4.1009000000000002
 20
9.1349700000000009
 30
0.0
 10
4.1009000000000002
 20
9.1349700000000009
 30
0.0
 10
4.2301299999999999
 20
9.4229700000000012
 30
0.0
 10
3.8163300000000002
 20
9.3056400000000004
 30
0.0
 10
3.8163300000000002
 20
9.3056400000000004
 30
0.0
 10
3.8163300000000002
 20
9.3056400000000004
 30
0.0
 10
3.8163300000000002
 20
9.3056400000000004
 30
0.0
 10
3.9813200000000002
 20
9.6404400000000017
 30
0.0
 10
4.1560900000000007
 20
9.6234900000000003
 30
0.0
 10
4.1560900000000007
 20
9.6234900000000003
 30
0.0
 10
4.3308300000000006
 20
9.60656
 30
0.0
 10
4.2084900000000003
 20
9.3150300000000001
 30
0.0
 10
4.2084900000000003
 20
9.3150300000000001
 30
0.0
 10
4.2084900000000003
 20
9.3150300000000001
 30
0.0
 10
4.2084900000000003
 20
9.3150300000000001
 30
0.0
 10
4.4012800000000007
 20
9.5538800000000013
 30
0.0
 10
4.3064300000000006
 20
9.66249
 30
0.0
 10
4.3064300000000006
 20
9.66249
 30
0.0
 10
4.2115900000000002
 20
9.7710800000000013
 30
0.0
 10
3.9744300000000004
 20
9.9107300000000009
 30
0.0
 10
3.4053000000000004
 20
8.8712400000000002
 30
0.0
 10
3.4053000000000004
 20
8.8712400000000002
 30
0.0
 10
2.8361700000000001
 20
7.8317100000000011
 30
0.0
 10
1.6346900000000002
 20
5.1010500000000008
 30
0.0
 10
1.6346900000000002
 20
5.1010500000000008
 30
0.0
  0
SPLINE
  5
29
100
AcDbEntity
  8
Ebene 1
 62
     1
100
AcDbSpline
210
0.0
220
0.0
230
1.0
 70
     1
 71
     3
 72
    36
 73
    32
 74
     0
 42
0.0000000001
 43
0.0000000001
 40
0.0
 40
0.0
 40
0.0
 40
0.0
 40
0.125
 40
0.125
 40
0.125
 40
0.125
 40
0.25
 40
0.25
 40
0.25
 40
0.25
 40
0.375
 40
0.375
 40
0.375
 40
0.375
 40
0.5
 40
0.5
 40
0.5
 40
0.5
 40
0.625
 40
0.625
 40
0.625
 40
0.625
 40
0.75
 40
0.75
 40
0.75
 40
0.75
 40
0.875
 40
0.875
 40
0.875
 40
0.875
 40
1.0
 40
1.0
 40
1.0
 40
1.0
 10
1.5235900000000002
 20
5.0712100000000007
 30
0.0
 10
1.5577800000000002
 20
5.0712100000000007
 30
0.0
 10
1.5884900000000002
 20
5.0551600000000008
 30
0.0
 10
1.6131300000000002
 20
5.0308300000000008
 30
0.0
 10
1.6131300000000002
 20
5.0308300000000008
 30
0.0
 10
1.6388900000000002
 20
5.0052700000000003
 30
0.0
 10
1.6622500000000002
 20
4.9714400000000003
 30
0.0
 10
1.6752100000000001
 20
4.9335400000000007
 30
0.0
 10
1.6752100000000001
 20
4.9335400000000007
 30
0.0
 10
1.6924000000000001
 20
4.8955800000000007
 30
0.0
 10
1.6921200000000001
 20
4.8600900000000005
 30
0.0
 10
1.6693100000000001
 20
4.8362500000000006
 30
0.0
 10
1.6693100000000001
 20
4.8362500000000006
 30
0.0
 10
1.6444800000000002
 20
4.8102100000000005
 30
0.0
 10
1.5936300000000001
 20
4.7958100000000004
 30
0.0
 10
1.5314400000000001
 20
4.7958100000000004
 30
0.0
 10
1.5314400000000001
 20
4.7958100000000004
 30
0.0
 10
1.4692900000000002
 20
4.7958100000000004
 30
0.0
 10
1.4167000000000001
 20
4.8100700000000005
 30
0.0
 10
1.3893500000000001
 20
4.8362500000000006
 30
0.0
 10
1.3893500000000001
 20
4.8362500000000006
 30
0.0
 10
1.36436
 20
4.8600200000000005
 30
0.0
 10
1.3613600000000001
 20
4.8955800000000007
 30
0.0
 10
1.37602
 20
4.9335400000000007
 30
0.0
 10
1.37602
 20
4.9335400000000007
 30
0.0
 10
1.3871600000000002
 20
4.9714400000000003
 30
0.0
 10
1.4092600000000002
 20
5.0054100000000004
 30
0.0
 10
1.4345000000000001
 20
5.0308300000000008
 30
0.0
 10
1.4345000000000001
 20
5.0308300000000008
 30
0.0
 10
1.4587300000000001
 20
5.0552300000000008
 30
0.0
 10
1.4893900000000002
 20
5.0712100000000007
 30
0.0
 10
1.5235900000000002
 20
5.0712100000000007
 30
0.0
  0
SPLINE
  5
2A
100
AcDbEntity
  8
Ebene 1
 62
     1
100
AcDbSpline
210
0.0
220
0.0
230
1.0
 70
     1
 71
     3
 72
    44
 73
    40
 74
     0
 42
0.0000000001
 43
0.0000000001
 40
0.0
 40
0.0
 40
0.0
 40
0.0
 40
0.1
 40
0.1
 40
0.1
 40
0.1
 40
0.2
 40
0.2
 40
0.2
 40
0.2
 40
0.3
 40
0.3
 40
0.3
 40
0.3
 40
0.4
 40
0.4
 40
0.4
 40
0.4
 40
0.5
 40
0.5
 40
0.5
 40
0.5
 40
0.6
 40
0.6
 40
0.6
 40
0.6
 40
0.7
 40
0.7
 40
0.7
 40
0.7
 40
0.7999999999999999
 40
0.7999999999999999
 40
0.7999999999999999
 40
0.7999999999999999
 40
0.8999999999999999
 40
0.8999999999999999
 40
0.8999999999999999
 40
0.8999999999999999
 40
1.0
 40
1.0
 40
1.0
 40
1.0
 10
7.199180000000001
 20
8.5167700000000011
 30
0.0
 10
7.199180000000001
 20
8.5167700000000011
 30
0.0
 10
6.7577200000000008
 20
8.442870000000001
 30
0.0
 10
6.1575200000000008
 20
8.2363600000000012
 30
0.0
 10
6.1575200000000008
 20
8.2363600000000012
 30
0.0
 10
5.5642400000000007
 20
8.0322200000000006
 30
0.0
 10
4.8039000000000005
 20
7.6324300000000003
 30
0.0
 10
4.1857800000000003
 20
7.1678300000000004
 30
0.0
 10
4.1857800000000003
 20
7.1678300000000004
 30
0.0
 10
4.1047600000000006
 20
6.7419900000000004
 30
0.0
 10
4.1672800000000008
 20
6.3009400000000007
 30
0.0
 10
4.1820700000000004
 20
5.8698500000000005
 30
0.0
 10
4.1820700000000004
 20
5.8698500000000005
 30
0.0
 10
4.1828900000000004
 20
5.8455800000000009
 30
0.0
 10
3.8761100000000002
 20
5.8386900000000006
 30
0.0
 10
3.6195500000000003
 20
6.6894700000000009
 30
0.0
 10
3.6195500000000003
 20
6.6894700000000009
 30
0.0
 10
2.6409000000000002
 20
5.8683900000000007
 30
0.0
 10
2.3553700000000002
 20
5.4578300000000004
 30
0.0
 10
2.3553700000000002
 20
5.4578300000000004
 30
0.0
 10
2.3553700000000002
 20
5.4578300000000004
 30
0.0
 10
2.39954
 20
5.23794
 30
0.0
 10
3.0879400000000001
 20
4.7612200000000007
 30
0.0
 10
3.2383200000000003
 20
4.6642700000000001
 30
0.0
 10
3.2383200000000003
 20
4.6642700000000001
 30
0.0
 10
4.8431100000000002
 20
3.6289600000000002
 30
0.0
 10
6.4612400000000001
 20
4.6263100000000001
 30
0.0
 10
6.8753400000000005
 20
6.1973800000000008
 30
0.0
 10
6.8753400000000005
 20
6.1973800000000008
 30
0.0
 10
7.0075300000000009
 20
6.698970000000001
 30
0.0
 10
7.0530400000000002
 20
7.0522800000000005
 30
0.0
 10
7.1864000000000008
 20
7.5793100000000004
 30
0.0
 10
7.1864000000000008
 20
7.5793100000000004
 30
0.0
 10
7.408500000000001
 20
8.4569600000000005
 30
0.0
 10
7.8769700000000009
 20
8.6358899999999998
 30
0.0
 10
7.8380400000000003
 20
8.6377400000000009
 30
0.0
 10
7.8380400000000003
 20
8.6377400000000009
 30
0.0
 10
7.6218900000000005
 20
8.5983300000000007
 30
0.0
 10
7.4097400000000002
 20
8.5580100000000012
 30
0.0
 10
7.199180000000001
 20
8.5167700000000011
 30
0.0
  0
SPLINE
  5
2B
100
AcDbEntity
  8
Ebene 1
 62
     1
100
AcDbSpline
210
0.0
220
0.0
230
1.0
 70
     1
 71
     3
 72
    40
 73
    36
 74
     0
 42
0.0000000001
 43
0.0000000001
 40
0.0
 40
0.0
 40
0.0
 40
0.0
 40
0.1111111111111111
 40
0.1111111111111111
 40
0.1111111111111111
 40
0.1111111111111111
 40
0.2222222222222222
 40
0.2222222222222222
 40
0.2222222222222222
 40
0.2222222222222222
 40
0.3333333333333333
 40
0.3333333333333333
 40
0.3333333333333333
 40
0.3333333333333333
 40
0.4444444444444444
 40
0.4444444444444444
 40
0.4444444444444444
 40
0.4444444444444444
 40
0.5555555555555556
 40
0.5555555555555556
 40
0.5555555555555556
 40
0.5555555555555556
 40
0.6666666666666667
 40
0.6666666666666667
 40
0.6666666666666667
 40
0.6666666666666667
 40
0.7777777777777779
 40
0.7777777777777779
 40
0.7777777777777779
 40
0.7777777777777779
 40
0.8888888888888891
 40
0.8888888888888891
 40
0.8888888888888891
 40
0.8888888888888891
 40
1.0
 40
1.0
 40
1.0
 40
1.0
 10
2.13923
 20
2.8965300000000003
 30
0.0
 10
2.13923
 20
2.8965300000000003
 30
0.0
 10
2.0040800000000001
 20
3.7637300000000002
 30
0.0
 10
2.2871200000000003
 20
4.2011900000000004
 30
0.0
 10
2.2871200000000003
 20
4.2011900000000004
 30
0.0
 10
2.5701400000000003
 20
4.6385700000000005
 30
0.0
 10
3.0560700000000001
 20
4.3449200000000001
 30
0.0
 10
2.9806900000000001
 20
3.9870400000000004
 30
0.0
 10
2.9806900000000001
 20
3.9870400000000004
 30
0.0
 10
2.9053100000000001
 20
3.6290900000000001
 30
0.0
 10
2.6486900000000002
 20
3.5506800000000003
 30
0.0
 10
2.5030600000000001
 20
3.4152200000000001
 30
0.0
 10
2.5030600000000001
 20
3.4152200000000001
 30
0.0
 10
2.35744
 20
3.2797600000000005
 30
0.0
 10
2.27596
 20
3.00753
 30
0.0
 10
2.27596
 20
3.00753
 30
0.0
 10
2.27596
 20
3.00753
 30
0.0
 10
2.27596
 20
3.00753
 30
0.0
 10
2.3031400000000004
 20
3.5952600000000001
 30
0.0
 10
2.4279600000000001
 20
3.8770700000000002
 30
0.0
 10
2.4279600000000001
 20
3.8770700000000002
 30
0.0
 10
2.5527800000000003
 20
4.1588799999999999
 30
0.0
 10
2.6098300000000001
 20
4.1519900000000005
 30
0.0
 10
2.6098300000000001
 20
4.1519900000000005
 30
0.0
 10
2.6098300000000001
 20
4.1519900000000005
 30
0.0
 10
2.6098300000000001
 20
4.1519900000000005
 30
0.0
 10
2.4869800000000004
 20
3.9095900000000001
 30
0.0
 10
2.6855900000000004
 20
3.9091100000000005
 30
0.0
 10
2.6855900000000004
 20
3.9091100000000005
 30
0.0
 10
2.8841900000000003
 20
3.9087000000000005
 30
0.0
 10
2.8837800000000002
 20
4.1748700000000003
 30
0.0
 10
2.7047000000000003
 20
4.2317100000000005
 30
0.0
 10
2.7047000000000003
 20
4.2317100000000005
 30
0.0
 10
2.2022000000000004
 20
4.3911500000000006
 30
0.0
 10
2.1793300000000002
 20
3.1951500000000004
 30
0.0
 10
2.13923
 20
2.8965300000000003
 30
0.0
  0
SPLINE
  5
2C
100
AcDbEntity
  8
Ebene 1
 62
     1
100
AcDbSpline
210
0.0
220
0.0
230
1.0
 70
     1
 71
     3
 72
    44
 73
    40
 74
     0
 42
0.0000000001
 43
0.0000000001
 40
0.0
 40
0.0
 40
0.0
 40
0.0
 40
0.1
 40
0.1
 40
0.1
 40
0.1
 40
0.2
 40
0.2
 40
0.2
 40
0.2
 40
0.3
 40
0.3
 40
0.3
 40
0.3
 40
0.4
 40
0.4
 40
0.4
 40
0.4
 40
0.5
 40
0.5
 40
0.5
 40
0.5
 40
0.6
 40
0.6
 40
0.6
 40
0.6
 40
0.7
 40
0.7
 40
0.7
 40
0.7
 40
0.7999999999999999
 40
0.7999999999999999
 40
0.7999999999999999
 40
0.7999999999999999
 40
0.8999999999999999
 40
0.8999999999999999
 40
0.8999999999999999
 40
0.8999999999999999
 40
1.0
 40
1.0
 40
1.0
 40
1.0
 10
2.9487900000000002
 20
1.5961400000000001
 30
0.0
 10
2.9487900000000002
 20
1.5961400000000001
 30
0.0
 10
2.8807900000000002
 20
2.8334800000000002
 30
0.0
 10
3.1822000000000004
 20
3.2357300000000002
 30
0.0
 10
3.1822000000000004
 20
3.2357300000000002
 30
0.0
 10
3.4836000000000005
 20
3.6379800000000002
 30
0.0
 10
4.1451700000000002
 20
3.4216300000000004
 30
0.0
 10
4.0271400000000002
 20
2.9679800000000003
 30
0.0
 10
4.0271400000000002
 20
2.9679800000000003
 30
0.0
 10
3.9090800000000003
 20
2.5143300000000002
 30
0.0
 10
3.6874900000000004
 20
2.5578100000000004
 30
0.0
 10
3.4527400000000004
 20
2.3098300000000003
 30
0.0
 10
3.4527400000000004
 20
2.3098300000000003
 30
0.0
 10
3.2180200000000001
 20
2.0618500000000002
 30
0.0
 10
3.1046100000000001
 20
1.6743500000000002
 30
0.0
 10
3.1046100000000001
 20
1.6743500000000002
 30
0.0
 10
3.1046100000000001
 20
1.6743500000000002
 30
0.0
 10
3.1046100000000001
 20
1.6743500000000002
 30
0.0
 10
3.1713100000000001
 20
2.4603100000000002
 30
0.0
 10
3.3380200000000002
 20
2.8103300000000004
 30
0.0
 10
3.3380200000000002
 20
2.8103300000000004
 30
0.0
 10
3.5047300000000003
 20
3.1604200000000002
 30
0.0
 10
3.5764900000000002
 20
3.1567700000000003
 30
0.0
 10
3.5764900000000002
 20
3.1567700000000003
 30
0.0
 10
3.5764900000000002
 20
3.1567700000000003
 30
0.0
 10
3.5764900000000002
 20
3.1567700000000003
 30
0.0
 10
3.4121600000000001
 20
2.8479500000000004
 30
0.0
 10
3.6578600000000003
 20
2.8534600000000001
 30
0.0
 10
3.6578600000000003
 20
2.8534600000000001
 30
0.0
 10
3.9035300000000004
 20
2.8589100000000003
 30
0.0
 10
3.9202700000000004
 20
3.1938400000000002
 30
0.0
 10
3.6993400000000003
 20
3.2584700000000004
 30
0.0
 10
3.6993400000000003
 20
3.2584700000000004
 30
0.0
 10
3.4783700000000004
 20
3.3231000000000002
 30
0.0
 10
3.2207800000000004
 20
3.2529600000000003
 30
0.0
 10
3.1641400000000002
 20
2.7196600000000002
 30
0.0
 10
3.1641400000000002
 20
2.7196600000000002
 30
0.0
 10
3.0548600000000001
 20
2.2678700000000003
 30
0.0
 10
2.9487900000000002
 20
1.5961400000000001
 30
0.0
 10
2.9487900000000002
 20
1.5961400000000001
 30
0.0
  0
SPLINE
  5
2D
100
AcDbEntity
  8
Ebene 1
 62
     1
100
AcDbSpline
210
0.0
220
0.0
230
1.0
 70
     1
 71
     3
 72
    80
 73
    76
 74
     0
 42
0.0000000001
 43
0.0000000001
 40
0.0
 40
0.0
 40
0.0
 40
0.0
 40
0.0526315789473684
 40
0.0526315789473684
 40
0.0526315789473684
 40
0.0526315789473684
 40
0.1052631578947368
 40
0.1052631578947368
 40
0.1052631578947368
 40
0.1052631578947368
 40
0.1578947368421053
 40
0.1578947368421053
 40
0.1578947368421053
 40
0.1578947368421053
 40
0.2105263157894737
 40
0.2105263157894737
 40
0.2105263157894737
 40
0.2105263157894737
 40
0.2631578947368421
 40
0.2631578947368421
 40
0.2631578947368421
 40
0.2631578947368421
 40
0.3157894736842105
 40
0.3157894736842105
 40
0.3157894736842105
 40
0.3157894736842105
 40
0.3684210526315789
 40
0.3684210526315789
 40
0.3684210526315789
 40
0.3684210526315789
 40
0.4210526315789474
 40
0.4210526315789474
 40
0.4210526315789474
 40
0.4210526315789474
 40
0.4736842105263158
 40
0.4736842105263158
 40
0.4736842105263158
 40
0.4736842105263158
 40
0.5263157894736842
 40
0.5263157894736842
 40
0.5263157894736842
 40
0.5263157894736842
 40
0.5789473684210527
 40
0.5789473684210527
 40
0.5789473684210527
 40
0.5789473684210527
 40
0.631578947368421
 40
0.631578947368421
 40
0.631578947368421
 40
0.631578947368421
 40
0.6842105263157894
 40
0.6842105263157894
 40
0.6842105263157894
 40
0.6842105263157894
 40
0.7368421052631577
 40
0.7368421052631577
 40
0.7368421052631577
 40
0.7368421052631577
 40
0.7894736842105261
 40
0.7894736842105261
 40
0.7894736842105261
 40
0.7894736842105261
 40
0.8421052631578945
 40
0.8421052631578945
 40
0.8421052631578945
 40
0.8421052631578945
 40
0.8947368421052628
 40
0.8947368421052628
 40
0.8947368421052628
 40
0.8947368421052628
 40
0.9473684210526312
 40
0.9473684210526312
 40
0.9473684210526312
 40
0.9473684210526312
 40
1.0
 40
1.0
 40
1.0
 40
1.0
 10
2.35379
 20
5.2718200000000008
 30
0.0
 10
2.35379
 20
5.2718200000000008
 30
0.0
 10
2.6211600000000002
 20
4.9904600000000006
 30
0.0
 10
3.0253400000000004
 20
4.6816400000000007
 30
0.0
 10
3.0253400000000004
 20
4.6816400000000007
 30
0.0
 10
3.4355100000000003
 20
4.3682700000000008
 30
0.0
 10
3.7151900000000002
 20
3.9700900000000003
 30
0.0
 10
4.4865400000000006
 20
3.9623000000000004
 30
0.0
 10
4.4865400000000006
 20
3.9623000000000004
 30
0.0
 10
4.7761400000000007
 20
3.9593400000000005
 30
0.0
 10
5.6357200000000001
 20
4.0925900000000004
 30
0.0
 10
6.1166600000000004
 20
4.25204
 30
0.0
 10
6.1166600000000004
 20
4.25204
 30
0.0
 10
5.6331000000000007
 20
3.5972600000000003
 30
0.0
 10
4.2321200000000001
 20
3.7549100000000002
 30
0.0
 10
4.1382400000000006
 20
3.5493100000000002
 30
0.0
 10
4.1382400000000006
 20
3.5493100000000002
 30
0.0
 10
3.9945800000000005
 20
3.2346300000000001
 30
0.0
 10
5.4319500000000005
 20
3.2655700000000003
 30
0.0
 10
5.9317900000000003
 20
3.7863300000000004
 30
0.0
 10
5.9317900000000003
 20
3.7863300000000004
 30
0.0
 10
5.9317900000000003
 20
3.7863300000000004
 30
0.0
 10
5.9510200000000006
 20
3.0383300000000002
 30
0.0
 10
4.8765600000000004
 20
2.5666300000000004
 30
0.0
 10
4.8765600000000004
 20
2.5666300000000004
 30
0.0
 10
4.1831700000000005
 20
2.2621500000000001
 30
0.0
 10
3.5901700000000001
 20
1.9226000000000001
 30
0.0
 10
3.0092500000000002
 20
1.3508500000000001
 30
0.0
 10
3.0092500000000002
 20
1.3508500000000001
 30
0.0
 10
2.9424900000000003
 20
1.2851900000000001
 30
0.0
 10
3.3052500000000005
 20
1.8723000000000001
 30
0.0
 10
3.9856600000000002
 20
2.3998200000000001
 30
0.0
 10
3.9856600000000002
 20
2.3998200000000001
 30
0.0
 10
4.6660300000000001
 20
2.9273300000000004
 30
0.0
 10
3.8479300000000003
 20
3.9315700000000002
 30
0.0
 10
3.2886100000000003
 20
3.5279500000000001
 30
0.0
 10
3.2886100000000003
 20
3.5279500000000001
 30
0.0
 10
2.5084400000000002
 20
2.9649500000000004
 30
0.0
 10
3.1268700000000003
 20
1.07545
 30
0.0
 10
1.59606
 20
0.4543
 30
0.0
 10
1.59606
 20
0.4543
 30
0.0
 10
1.5749400000000002
 20
0.44575
 30
0.0
 10
2.5771300000000004
 20
1.1644700000000001
 30
0.0
 10
2.4908700000000001
 20
2.0883100000000003
 30
0.0
 10
2.4908700000000001
 20
2.0883100000000003
 30
0.0
 10
2.4045700000000001
 20
3.0121500000000001
 30
0.0
 10
2.0072800000000002
 20
2.3027300000000004
 30
0.0
 10
1.9797500000000001
 20
1.9718600000000002
 30
0.0
 10
1.9797500000000001
 20
1.9718600000000002
 30
0.0
 10
1.9522300000000001
 20
1.6410000000000002
 30
0.0
 10
2.0474900000000003
 20
1.2900800000000001
 30
0.0
 10
2.0474900000000003
 20
1.2900800000000001
 30
0.0
 10
2.0474900000000003
 20
1.2900800000000001
 30
0.0
 10
2.0474900000000003
 20
1.2900800000000001
 30
0.0
 10
1.4500500000000001
 20
2.03505
 30
0.0
 10
2.1496
 20
2.7443900000000001
 30
0.0
 10
2.1496
 20
2.7443900000000001
 30
0.0
 10
2.8491600000000004
 20
3.4537400000000003
 30
0.0
 10
3.5042100000000005
 20
3.9738800000000003
 30
0.0
 10
2.9788300000000003
 20
4.4712100000000001
 30
0.0
 10
2.9788300000000003
 20
4.4712100000000001
 30
0.0
 10
2.4534600000000002
 20
4.9686200000000005
 30
0.0
 10
2.0857600000000001
 20
4.3298300000000003
 30
0.0
 10
2.02868
 20
3.8798300000000001
 30
0.0
 10
2.02868
 20
3.8798300000000001
 30
0.0
 10
1.9716200000000002
 20
3.4299000000000004
 30
0.0
 10
2.0710800000000003
 20
3.2126500000000004
 30
0.0
 10
2.04352
 20
3.2218100000000001
 30
0.0
 10
2.04352
 20
3.2218100000000001
 30
0.0
 10
2.0159600000000002
 20
3.2310500000000002
 30
0.0
 10
1.7459300000000002
 20
3.9139300000000001
 30
0.0
 10
1.9565700000000001
 20
4.5936500000000002
 30
0.0
 10
1.9565700000000001
 20
4.5936500000000002
 30
0.0
 10
2.1264800000000004
 20
5.2754700000000003
 30
0.0
 10
2.35379
 20
5.2718200000000008
 30
0.0
 10
2.35379
 20
5.2718200000000008
 30
0.0
  0
SPLINE
  5
2E
100
AcDbEntity
  8
Ebene 1
 62
     1
100
AcDbSpline
210
0.0
220
0.0
230
1.0
 70
     1
 71
     3
 72
    72
 73
    68
 74
     0
 42
0.0000000001
 43
0.0000000001
 40
0.0
 40
0.0
 40
0.0
 40
0.0
 40
0.0588235294117647
 40
0.0588235294117647
 40
0.0588235294117647
 40
0.0588235294117647
 40
0.1176470588235294
 40
0.1176470588235294
 40
0.1176470588235294
 40
0.1176470588235294
 40
0.1764705882352941
 40
0.1764705882352941
 40
0.1764705882352941
 40
0.1764705882352941
 40
0.2352941176470588
 40
0.2352941176470588
 40
0.2352941176470588
 40
0.2352941176470588
 40
0.2941176470588235
 40
0.2941176470588235
 40
0.2941176470588235
 40
0.2941176470588235
 40
0.3529411764705883
 40
0.3529411764705883
 40
0.3529411764705883
 40
0.3529411764705883
 40
0.411764705882353
 40
0.411764705882353
 40
0.411764705882353
 40
0.411764705882353
 40
0.4705882352941177
 40
0.4705882352941177
 40
0.4705882352941177
 40
0.4705882352941177
 40
0.5294117647058824
 40
0.5294117647058824
 40
0.5294117647058824
 40
0.5294117647058824
 40
0.5882352941176471
 40
0.5882352941176471
 40
0.5882352941176471
 40
0.5882352941176471
 40
0.6470588235294118
 40
0.6470588235294118
 40
0.6470588235294118
 40
0.6470588235294118
 40
0.7058823529411765
 40
0.7058823529411765
 40
0.7058823529411765
 40
0.7058823529411765
 40
0.7647058823529412
 40
0.7647058823529412
 40
0.7647058823529412
 40
0.7647058823529412
 40
0.823529411764706
 40
0.823529411764706
 40
0.823529411764706
 40
0.823529411764706
 40
0.8823529411764707
 40
0.8823529411764707
 40
0.8823529411764707
 40
0.8823529411764707
 40
0.9411764705882354
 40
0.9411764705882354
 40
0.9411764705882354
 40
0.9411764705882354
 40
1.0
 40
1.0
 40
1.0
 40
1.0
 10
2.3609500000000003
 20
5.5558800000000002
 30
0.0
 10
2.3609500000000003
 20
5.5558800000000002
 30
0.0
 10
2.6941300000000004
 20
6.0904200000000008
 30
0.0
 10
3.0650300000000001
 20
6.4772400000000001
 30
0.0
 10
3.0650300000000001
 20
6.4772400000000001
 30
0.0
 10
3.5290800000000004
 20
6.9611500000000008
 30
0.0
 10
3.8963000000000005
 20
7.3235900000000003
 30
0.0
 10
4.7784400000000007
 20
7.7754200000000004
 30
0.0
 10
4.7784400000000007
 20
7.7754200000000004
 30
0.0
 10
5.6606300000000003
 20
8.2272100000000012
 30
0.0
 10
6.366740000000001
 20
8.3360700000000012
 30
0.0
 10
6.635250000000001
 20
8.6514700000000015
 30
0.0
 10
6.635250000000001
 20
8.6514700000000015
 30
0.0
 10
6.9037900000000008
 20
8.9668900000000011
 30
0.0
 10
6.7314700000000007
 20
9.3397700000000015
 30
0.0
 10
6.2761700000000005
 20
9.3850200000000008
 30
0.0
 10
6.2761700000000005
 20
9.3850200000000008
 30
0.0
 10
5.9570100000000004
 20
9.4167500000000004
 30
0.0
 10
5.8503900000000009
 20
9.2128700000000006
 30
0.0
 10
5.8679600000000001
 20
9.2187300000000008
 30
0.0
 10
5.8679600000000001
 20
9.2187300000000008
 30
0.0
 10
5.8855600000000008
 20
9.2246000000000006
 30
0.0
 10
6.3980500000000005
 20
9.1428799999999999
 30
0.0
 10
6.2682100000000007
 20
8.7677800000000001
 30
0.0
 10
6.2682100000000007
 20
8.7677800000000001
 30
0.0
 10
6.1544200000000009
 20
8.4390499999999999
 30
0.0
 10
5.5274400000000004
 20
8.3355100000000011
 30
0.0
 10
5.4755600000000006
 20
8.7339600000000015
 30
0.0
 10
5.4755600000000006
 20
8.7339600000000015
 30
0.0
 10
5.4236800000000001
 20
9.1324300000000012
 30
0.0
 10
5.8417400000000006
 20
8.9941400000000016
 30
0.0
 10
5.9253900000000002
 20
8.9319100000000002
 30
0.0
 10
5.9253900000000002
 20
8.9319100000000002
 30
0.0
 10
6.0090700000000004
 20
8.86965
 30
0.0
 10
5.7068600000000007
 20
9.2732500000000009
 30
0.0
 10
5.4045900000000007
 20
9.0447000000000006
 30
0.0
 10
5.4045900000000007
 20
9.0447000000000006
 30
0.0
 10
5.1023500000000004
 20
8.8161500000000004
 30
0.0
 10
5.1489700000000003
 20
8.3032400000000006
 30
0.0
 10
4.8335000000000008
 20
8.0732499999999998
 30
0.0
 10
4.8335000000000008
 20
8.0732499999999998
 30
0.0
 10
4.5180300000000004
 20
7.8432200000000005
 30
0.0
 10
4.4079600000000001
 20
8.0241900000000008
 30
0.0
 10
4.4897500000000008
 20
8.2134499999999999
 30
0.0
 10
4.4897500000000008
 20
8.2134499999999999
 30
0.0
 10
4.5715000000000003
 20
8.4026900000000015
 30
0.0
 10
4.8055900000000005
 20
8.448970000000001
 30
0.0
 10
4.8055900000000005
 20
8.448970000000001
 30
0.0
 10
4.8055900000000005
 20
8.448970000000001
 30
0.0
 10
4.8055900000000005
 20
8.448970000000001
 30
0.0
 10
4.3004100000000003
 20
8.5800200000000011
 30
0.0
 10
4.1559900000000001
 20
8.129010000000001
 30
0.0
 10
4.1559900000000001
 20
8.129010000000001
 30
0.0
 10
4.0115700000000007
 20
7.6779800000000007
 30
0.0
 10
3.9093500000000003
 20
7.2190000000000003
 30
0.0
 10
3.6937900000000004
 20
7.2422100000000009
 30
0.0
 10
3.6937900000000004
 20
7.2422100000000009
 30
0.0
 10
3.4782700000000002
 20
7.265410000000001
 30
0.0
 10
3.6767000000000003
 20
7.5893700000000006
 30
0.0
 10
3.6546600000000002
 20
7.5893800000000002
 30
0.0
 10
3.6546600000000002
 20
7.5893800000000002
 30
0.0
 10
3.6326100000000001
 20
7.5893800000000002
 30
0.0
 10
3.1768900000000002
 20
7.2246500000000005
 30
0.0
 10
2.9304300000000003
 20
6.7380300000000002
 30
0.0
 10
2.9304300000000003
 20
6.7380300000000002
 30
0.0
 10
2.6297400000000004
 20
6.2239400000000007
 30
0.0
 10
2.3609500000000003
 20
5.5558800000000002
 30
0.0
 10
2.3609500000000003
 20
5.5558800000000002
 30
0.0
  0
SPLINE
  5
2F
100
AcDbEntity
  8
Ebene 1
 62
     1
100
AcDbSpline
210
0.0
220
0.0
230
1.0
 70
     1
 71
     3
 72
    60
 73
    56
 74
     0
 42
0.0000000001
 43
0.0000000001
 40
0.0
 40
0.0
 40
0.0
 40
0.0
 40
0.0714285714285714
 40
0.0714285714285714
 40
0.0714285714285714
 40
0.0714285714285714
 40
0.1428571428571429
 40
0.1428571428571429
 40
0.1428571428571429
 40
0.1428571428571429
 40
0.2142857142857143
 40
0.2142857142857143
 40
0.2142857142857143
 40
0.2142857142857143
 40
0.2857142857142857
 40
0.2857142857142857
 40
0.2857142857142857
 40
0.2857142857142857
 40
0.3571428571428571
 40
0.3571428571428571
 40
0.3571428571428571
 40
0.3571428571428571
 40
0.4285714285714285
 40
0.4285714285714285
 40
0.4285714285714285
 40
0.4285714285714285
 40
0.4999999999999999
 40
0.4999999999999999
 40
0.4999999999999999
 40
0.4999999999999999
 40
0.5714285714285713
 40
0.5714285714285713
 40
0.5714285714285713
 40
0.5714285714285713
 40
0.6428571428571427
 40
0.6428571428571427
 40
0.6428571428571427
 40
0.6428571428571427
 40
0.7142857142857141
 40
0.7142857142857141
 40
0.7142857142857141
 40
0.7142857142857141
 40
0.7857142857142855
 40
0.7857142857142855
 40
0.7857142857142855
 40
0.7857142857142855
 40
0.8571428571428569
 40
0.8571428571428569
 40
0.8571428571428569
 40
0.8571428571428569
 40
0.9285714285714283
 40
0.9285714285714283
 40
0.9285714285714283
 40
0.9285714285714283
 40
1.0
 40
1.0
 40
1.0
 40
1.0
 10
7.9170000000000007
 20
8.6357300000000006
 30
0.0
 10
7.9170000000000007
 20
8.6357300000000006
 30
0.0
 10
7.5505100000000009
 20
8.3013300000000001
 30
0.0
 10
7.3858000000000006
 20
7.7845700000000004
 30
0.0
 10
7.3858000000000006
 20
7.7845700000000004
 30
0.0
 10
7.2210900000000002
 20
7.2678000000000003
 30
0.0
 10
7.1140800000000004
 20
6.6638900000000003
 30
0.0
 10
6.9518900000000006
 20
6.0626600000000002
 30
0.0
 10
6.9518900000000006
 20
6.0626600000000002
 30
0.0
 10
6.7897300000000005
 20
5.4614400000000005
 30
0.0
 10
6.4058800000000007
 20
5.0050600000000003
 30
0.0
 10
6.4374700000000002
 20
4.9987300000000001
 30
0.0
 10
6.4374700000000002
 20
4.9987300000000001
 30
0.0
 10
6.4690200000000004
 20
4.9923900000000003
 30
0.0
 10
7.1295800000000007
 20
5.7925400000000007
 30
0.0
 10
7.2318700000000007
 20
6.2386000000000008
 30
0.0
 10
7.2318700000000007
 20
6.2386000000000008
 30
0.0
 10
7.3341200000000004
 20
6.6846700000000006
 30
0.0
 10
7.4874300000000007
 20
6.4640300000000002
 30
0.0
 10
7.4735400000000007
 20
6.3027400000000009
 30
0.0
 10
7.4735400000000007
 20
6.3027400000000009
 30
0.0
 10
7.4596300000000006
 20
6.1414800000000005
 30
0.0
 10
7.3411100000000005
 20
5.9673500000000006
 30
0.0
 10
7.3411100000000005
 20
5.9673500000000006
 30
0.0
 10
7.3411100000000005
 20
5.9673500000000006
 30
0.0
 10
7.3411100000000005
 20
5.9673500000000006
 30
0.0
 10
7.6359400000000006
 20
6.1331100000000003
 30
0.0
 10
7.5796500000000009
 20
6.6816400000000007
 30
0.0
 10
7.5796500000000009
 20
6.6816400000000007
 30
0.0
 10
7.5233600000000003
 20
7.2301800000000007
 30
0.0
 10
7.4592100000000006
 20
7.6694500000000003
 30
0.0
 10
7.6745300000000007
 20
7.7167700000000004
 30
0.0
 10
7.6745300000000007
 20
7.7167700000000004
 30
0.0
 10
7.8898500000000009
 20
7.7640700000000002
 30
0.0
 10
7.6561700000000004
 20
7.106440000000001
 30
0.0
 10
7.6561700000000004
 20
7.106440000000001
 30
0.0
 10
7.6561700000000004
 20
7.106440000000001
 30
0.0
 10
7.6561700000000004
 20
7.106440000000001
 30
0.0
 10
7.8486800000000008
 20
7.2365400000000006
 30
0.0
 10
7.9137900000000005
 20
7.6920100000000007
 30
0.0
 10
7.9137900000000005
 20
7.6920100000000007
 30
0.0
 10
7.9789400000000006
 20
8.1474900000000012
 30
0.0
 10
8.1213899999999999
 20
8.3642400000000006
 30
0.0
 10
8.3883600000000005
 20
8.5781800000000015
 30
0.0
 10
8.3883600000000005
 20
8.5781800000000015
 30
0.0
 10
8.6553500000000003
 20
8.79209
 30
0.0
 10
8.908430000000001
 20
8.7657000000000007
 30
0.0
 10
8.9054300000000008
 20
8.7879900000000006
 30
0.0
 10
8.9054300000000008
 20
8.7879900000000006
 30
0.0
 10
8.9024000000000001
 20
8.8102900000000002
 30
0.0
 10
8.596540000000001
 20
8.8466700000000014
 30
0.0
 10
8.2918600000000016
 20
8.7504500000000007
 30
0.0
 10
8.2918600000000016
 20
8.7504500000000007
 30
0.0
 10
7.9951700000000008
 20
8.6551600000000004
 30
0.0
 10
7.9170000000000007
 20
8.6357300000000006
 30
0.0
 10
7.9170000000000007
 20
8.6357300000000006
 30
0.0
  0
SPLINE
  5
30
100
AcDbEntity
  8
Ebene 1
 62
     1
100
AcDbSpline
210
0.0
220
0.0
230
1.0
 70
     1
 71
     3
 72
    36
 73
    32
 74
     0
 42
0.0000000001
 43
0.0000000001
 40
0.0
 40
0.0
 40
0.0
 40
0.0
 40
0.125
 40
0.125
 40
0.125
 40
0.125
 40
0.25
 40
0.25
 40
0.25
 40
0.25
 40
0.375
 40
0.375
 40
0.375
 40
0.375
 40
0.5
 40
0.5
 40
0.5
 40
0.5
 40
0.625
 40
0.625
 40
0.625
 40
0.625
 40
0.75
 40
0.75
 40
0.75
 40
0.75
 40
0.875
 40
0.875
 40
0.875
 40
0.875
 40
1.0
 40
1.0
 40
1.0
 40
1.0
 10
3.1218700000000004
 20
6.1222200000000004
 30
0.0
 10
3.3100800000000001
 20
5.5311500000000002
 30
0.0
 10
3.6941700000000002
 20
5.1470400000000005
 30
0.0
 10
4.3559400000000004
 20
5.1608200000000002
 30
0.0
 10
4.3559400000000004
 20
5.1608200000000002
 30
0.0
 10
5.4430000000000005
 20
5.1834700000000007
 30
0.0
 10
5.7491000000000003
 20
6.8584600000000009
 30
0.0
 10
5.2179400000000005
 20
7.5884600000000004
 30
0.0
 10
5.2179400000000005
 20
7.5884600000000004
 30
0.0
 10
5.63748
 20
7.8111500000000005
 30
0.0
 10
5.8710600000000008
 20
7.8756000000000004
 30
0.0
 10
5.8919000000000006
 20
7.8826100000000006
 30
0.0
 10
5.8919000000000006
 20
7.8826100000000006
 30
0.0
 10
5.9771300000000007
 20
7.9113500000000005
 30
0.0
 10
6.0347400000000002
 20
7.3289000000000009
 30
0.0
 10
6.0223000000000004
 20
6.6466200000000004
 30
0.0
 10
6.0223000000000004
 20
6.6466200000000004
 30
0.0
 10
6.0114400000000003
 20
6.0498400000000006
 30
0.0
 10
5.6308000000000007
 20
5.01905
 30
0.0
 10
5.1455600000000006
 20
4.7858200000000002
 30
0.0
 10
5.1455600000000006
 20
4.7858200000000002
 30
0.0
 10
4.66031
 20
4.5525900000000004
 30
0.0
 10
4.2835300000000007
 20
4.4982900000000008
 30
0.0
 10
3.7230700000000003
 20
4.7121600000000008
 30
0.0
 10
3.7230700000000003
 20
4.7121600000000008
 30
0.0
 10
3.2748000000000004
 20
4.8831800000000003
 30
0.0
 10
2.9433800000000003
 20
5.4106200000000007
 30
0.0
 10
2.8044100000000003
 20
5.8463900000000004
 30
0.0
 10
2.8044100000000003
 20
5.8463900000000004
 30
0.0
 10
2.9400100000000005
 20
5.9554400000000003
 30
0.0
 10
2.9376300000000004
 20
5.9829400000000001
 30
0.0
 10
3.1218700000000004
 20
6.1222200000000004
 30
0.0
  0
SPLINE
  5
31
100
AcDbEntity
  8
Ebene 1
 62
     1
100
AcDbSpline
210
0.0
220
0.0
230
1.0
 70
     1
 71
     3
 72
    28
 73
    24
 74
     0
 42
0.0000000001
 43
0.0000000001
 40
0.0
 40
0.0
 40
0.0
 40
0.0
 40
0.1666666666666667
 40
0.1666666666666667
 40
0.1666666666666667
 40
0.1666666666666667
 40
0.3333333333333333
 40
0.3333333333333333
 40
0.3333333333333333
 40
0.3333333333333333
 40
0.5
 40
0.5
 40
0.5
 40
0.5
 40
0.6666666666666666
 40
0.6666666666666666
 40
0.6666666666666666
 40
0.6666666666666666
 40
0.8333333333333333
 40
0.8333333333333333
 40
0.8333333333333333
 40
0.8333333333333333
 40
1.0
 40
1.0
 40
1.0
 40
1.0
 10
7.0053500000000009
 20
8.2812600000000014
 30
0.0
 10
6.9533300000000002
 20
8.1861800000000002
 30
0.0
 10
6.8638000000000003
 20
8.12561
 30
0.0
 10
6.7820100000000005
 20
7.8441500000000008
 30
0.0
 10
6.7820100000000005
 20
7.8441500000000008
 30
0.0
 10
6.7477300000000007
 20
7.7260500000000008
 30
0.0
 10
6.6919200000000005
 20
7.2086300000000003
 30
0.0
 10
6.3313900000000007
 20
6.915820000000001
 30
0.0
 10
6.3313900000000007
 20
6.915820000000001
 30
0.0
 10
6.4500100000000007
 20
7.0804700000000009
 30
0.0
 10
6.5895300000000008
 20
7.3720500000000007
 30
0.0
 10
6.4861100000000009
 20
7.5508900000000008
 30
0.0
 10
6.4861100000000009
 20
7.5508900000000008
 30
0.0
 10
6.3826900000000002
 20
7.7297400000000005
 30
0.0
 10
6.1439400000000006
 20
7.2732300000000008
 30
0.0
 10
6.1439400000000006
 20
7.2732300000000008
 30
0.0
 10
6.1439400000000006
 20
7.2732300000000008
 30
0.0
 10
6.1439400000000006
 20
7.2732300000000008
 30
0.0
 10
6.1319900000000009
 20
7.724590000000001
 30
0.0
 10
6.3409700000000004
 20
7.9573600000000004
 30
0.0
 10
6.3409700000000004
 20
7.9573600000000004
 30
0.0
 10
6.5339600000000004
 20
8.1727100000000004
 30
0.0
 10
6.8123300000000002
 20
8.1712900000000008
 30
0.0
 10
7.0053500000000009
 20
8.2812600000000014
 30
0.0
  0
SPLINE
  5
32
100
AcDbEntity
  8
Ebene 1
 62
     1
100
AcDbSpline
210
0.0
220
0.0
230
1.0
 70
     1
 71
     3
 72
    24
 73
    20
 74
     0
 42
0.0000000001
 43
0.0000000001
 40
0.0
 40
0.0
 40
0.0
 40
0.0
 40
0.2
 40
0.2
 40
0.2
 40
0.2
 40
0.4
 40
0.4
 40
0.4
 40
0.4
 40
0.6000000000000001
 40
0.6000000000000001
 40
0.6000000000000001
 40
0.6000000000000001
 40
0.8
 40
0.8
 40
0.8
 40
0.8
 40
1.0
 40
1.0
 40
1.0
 40
1.0
 10
6.7788400000000006
 20
6.5318400000000008
 30
0.0
 10
6.7788400000000006
 20
6.5318400000000008
 30
0.0
 10
6.4870700000000001
 20
6.1054800000000009
 30
0.0
 10
6.4215100000000005
 20
6.2358600000000006
 30
0.0
 10
6.4215100000000005
 20
6.2358600000000006
 30
0.0
 10
6.3559500000000009
 20
6.3662500000000009
 30
0.0
 10
6.2081600000000003
 20
6.2826400000000007
 30
0.0
 10
6.1727500000000006
 20
6.2124000000000006
 30
0.0
 10
6.1727500000000006
 20
6.2124000000000006
 30
0.0
 10
6.2118100000000007
 20
5.9365700000000006
 30
0.0
 10
6.3720800000000004
 20
5.2314900000000009
 30
0.0
 10
5.6294900000000005
 20
4.7137500000000001
 30
0.0
 10
5.6294900000000005
 20
4.7137500000000001
 30
0.0
 10
5.6702800000000009
 20
4.6418800000000005
 30
0.0
 10
6.3391400000000004
 20
5.01485
 30
0.0
 10
6.6077900000000005
 20
5.6824400000000006
 30
0.0
 10
6.6077900000000005
 20
5.6824400000000006
 30
0.0
 10
6.7976200000000002
 20
6.1947100000000006
 30
0.0
 10
6.7788400000000006
 20
6.5318400000000008
 30
0.0
 10
6.7788400000000006
 20
6.5318400000000008
 30
0.0
  0
SPLINE
  5
33
100
AcDbEntity
  8
Ebene 1
 62
     1
100
AcDbSpline
210
0.0
220
0.0
230
1.0
 70
     1
 71
     3
 72
    24
 73
    20
 74
     0
 42
0.0000000001
 43
0.0000000001
 40
0.0
 40
0.0
 40
0.0
 40
0.0
 40
0.2
 40
0.2
 40
0.2
 40
0.2
 40
0.4
 40
0.4
 40
0.4
 40
0.4
 40
0.6000000000000001
 40
0.6000000000000001
 40
0.6000000000000001
 40
0.6000000000000001
 40
0.8
 40
0.8
 40
0.8
 40
0.8
 40
1.0
 40
1.0
 40
1.0
 40
1.0
 10
7.2103400000000004
 20
8.383890000000001
 30
0.0
 10
6.8899100000000004
 20
8.165750000000001
 30
0.0
 10
6.9032800000000005
 20
7.6360100000000006
 30
0.0
 10
6.7325700000000008
 20
7.3062200000000006
 30
0.0
 10
6.7325700000000008
 20
7.3062200000000006
 30
0.0
 10
6.6348300000000009
 20
7.1173600000000006
 30
0.0
 10
6.6107900000000006
 20
7.0837100000000008
 30
0.0
 10
6.5796800000000006
 20
7.0332900000000009
 30
0.0
 10
6.5796800000000006
 20
7.0332900000000009
 30
0.0
 10
6.8632100000000005
 20
7.2314600000000002
 30
0.0
 10
6.949650000000001
 20
7.4181600000000003
 30
0.0
 10
7.119390000000001
 20
7.9641800000000007
 30
0.0
 10
7.119390000000001
 20
7.9641800000000007
 30
0.0
 10
7.2170600000000009
 20
8.2782700000000009
 30
0.0
 10
7.3873800000000003
 20
8.4113800000000012
 30
0.0
 10
7.4791200000000009
 20
8.4865200000000005
 30
0.0
 10
7.4791200000000009
 20
8.4865200000000005
 30
0.0
 10
7.412910000000001
 20
8.4663700000000013
 30
0.0
 10
7.3195800000000002
 20
8.4324700000000004
 30
0.0
 10
7.2103400000000004
 20
8.383890000000001
 30
0.0
  0
SPLINE
  5
34
100
AcDbEntity
  8
Ebene 1
 62
     1
100
AcDbSpline
210
0.0
220
0.0
230
1.0
 70
     1
 71
     3
 72
    20
 73
    16
 74
     0
 42
0.0000000001
 43
0.0000000001
 40
0.0
 40
0.0
 40
0.0
 40
0.0
 40
0.25
 40
0.25
 40
0.25
 40
0.25
 40
0.5
 40
0.5
 40
0.5
 40
0.5
 40
0.75
 40
0.75
 40
0.75
 40
0.75
 40
1.0
 40
1.0
 40
1.0
 40
1.0
 10
2.7469800000000002
 20
5.6860200000000001
 30
0.0
 10
2.6664300000000001
 20
5.6145300000000002
 30
0.0
 10
2.5403100000000003
 20
5.5108200000000007
 30
0.0
 10
2.5021300000000002
 20
5.4715800000000003
 30
0.0
 10
2.5021300000000002
 20
5.4715800000000003
 30
0.0
 10
2.4145600000000003
 20
5.3816500000000005
 30
0.0
 10
3.1142600000000003
 20
4.85114
 30
0.0
 10
3.1992100000000003
 20
4.8365300000000007
 30
0.0
 10
3.1992100000000003
 20
4.8365300000000007
 30
0.0
 10
3.1992100000000003
 20
4.8365300000000007
 30
0.0
 10
2.9644300000000001
 20
5.1560300000000003
 30
0.0
 10
2.8783000000000003
 20
5.3356400000000006
 30
0.0
 10
2.8783000000000003
 20
5.3356400000000006
 30
0.0
 10
2.7953500000000004
 20
5.5143400000000007
 30
0.0
 10
2.7469800000000002
 20
5.6860200000000001
 30
0.0
 10
2.7469800000000002
 20
5.6860200000000001
 30
0.0
  0
SPLINE
  5
35
100
AcDbEntity
  8
Ebene 1
 62
     1
100
AcDbSpline
210
0.0
220
0.0
230
1.0
 70
     1
 71
     3
 72
    40
 73
    36
 74
     0
 42
0.0000000001
 43
0.0000000001
 40
0.0
 40
0.0
 40
0.0
 40
0.0
 40
0.1111111111111111
 40
0.1111111111111111
 40
0.1111111111111111
 40
0.1111111111111111
 40
0.2222222222222222
 40
0.2222222222222222
 40
0.2222222222222222
 40
0.2222222222222222
 40
0.3333333333333333
 40
0.3333333333333333
 40
0.3333333333333333
 40
0.3333333333333333
 40
0.4444444444444444
 40
0.4444444444444444
 40
0.4444444444444444
 40
0.4444444444444444
 40
0.5555555555555556
 40
0.5555555555555556
 40
0.5555555555555556
 40
0.5555555555555556
 40
0.6666666666666667
 40
0.6666666666666667
 40
0.6666666666666667
 40
0.6666666666666667
 40
0.7777777777777779
 40
0.7777777777777779
 40
0.7777777777777779
 40
0.7777777777777779
 40
0.8888888888888891
 40
0.8888888888888891
 40
0.8888888888888891
 40
0.8888888888888891
 40
1.0
 40
1.0
 40
1.0
 40
1.0
 10
0.9630200000000001
 20
2.8965300000000003
 30
0.0
 10
0.9630200000000001
 20
2.8965300000000003
 30
0.0
 10
1.0981700000000001
 20
3.7637300000000002
 30
0.0
 10
0.8151400000000001
 20
4.2011900000000004
 30
0.0
 10
0.8151400000000001
 20
4.2011900000000004
 30
0.0
 10
0.5320900000000001
 20
4.6385700000000005
 30
0.0
 10
0.04618
 20
4.3449200000000001
 30
0.0
 10
0.12156
 20
3.9870400000000004
 30
0.0
 10
0.12156
 20
3.9870400000000004
 30
0.0
 10
0.19693
 20
3.6290900000000001
 30
0.0
 10
0.45356
 20
3.5506800000000003
 30
0.0
 10
0.5991700000000001
 20
3.4152200000000001
 30
0.0
 10
0.5991700000000001
 20
3.4152200000000001
 30
0.0
 10
0.7448100000000001
 20
3.2797600000000005
 30
0.0
 10
0.8262700000000001
 20
3.00753
 30
0.0
 10
0.8262700000000001
 20
3.00753
 30
0.0
 10
0.8262700000000001
 20
3.00753
 30
0.0
 10
0.8262700000000001
 20
3.00753
 30
0.0
 10
0.7991200000000001
 20
3.5952600000000001
 30
0.0
 10
0.6742900000000001
 20
3.8770700000000002
 30
0.0
 10
0.6742900000000001
 20
3.8770700000000002
 30
0.0
 10
0.54945
 20
4.1588799999999999
 30
0.0
 10
0.49244
 20
4.1519900000000005
 30
0.0
 10
0.49244
 20
4.1519900000000005
 30
0.0
 10
0.49244
 20
4.1519900000000005
 30
0.0
 10
0.49244
 20
4.1519900000000005
 30
0.0
 10
0.6152700000000001
 20
3.9095900000000001
 30
0.0
 10
0.4166800000000001
 20
3.9091100000000005
 30
0.0
 10
0.4166800000000001
 20
3.9091100000000005
 30
0.0
 10
0.21807
 20
3.9087000000000005
 30
0.0
 10
0.21847
 20
4.1748700000000003
 30
0.0
 10
0.3975300000000001
 20
4.2317100000000005
 30
0.0
 10
0.3975300000000001
 20
4.2317100000000005
 30
0.0
 10
0.9000600000000001
 20
4.3911500000000006
 30
0.0
 10
0.9229200000000001
 20
3.1951500000000004
 30
0.0
 10
0.9630200000000001
 20
2.8965300000000003
 30
0.0
  0
SPLINE
  5
36
100
AcDbEntity
  8
Ebene 1
 62
     1
100
AcDbSpline
210
0.0
220
0.0
230
1.0
 70
     1
 71
     3
 72
    44
 73
    40
 74
     0
 42
0.0000000001
 43
0.0000000001
 40
0.0
 40
0.0
 40
0.0
 40
0.0
 40
0.1
 40
0.1
 40
0.1
 40
0.1
 40
0.2
 40
0.2
 40
0.2
 40
0.2
 40
0.3
 40
0.3
 40
0.3
 40
0.3
 40
0.4
 40
0.4
 40
0.4
 40
0.4
 40
0.5
 40
0.5
 40
0.5
 40
0.5
 40
0.6
 40
0.6
 40
0.6
 40
0.6
 40
0.7
 40
0.7
 40
0.7
 40
0.7
 40
0.7999999999999999
 40
0.7999999999999999
 40
0.7999999999999999
 40
0.7999999999999999
 40
0.8999999999999999
 40
0.8999999999999999
 40
0.8999999999999999
 40
0.8999999999999999
 40
1.0
 40
1.0
 40
1.0
 40
1.0
 10
0.15346
 20
1.5961400000000001
 30
0.0
 10
0.15346
 20
1.5961400000000001
 30
0.0
 10
0.22148
 20
2.8334800000000002
 30
0.0
 10
-0.07994
 20
3.2357300000000002
 30
0.0
 10
-0.07994
 20
3.2357300000000002
 30
0.0
 10
-0.38135
 20
3.6379800000000002
 30
0.0
 10
-1.04291
 20
3.4216300000000004
 30
0.0
 10
-0.92488
 20
2.9679800000000003
 30
0.0
 10
-0.92488
 20
2.9679800000000003
 30
0.0
 10
-0.8068200000000001
 20
2.5143300000000002
 30
0.0
 10
-0.58521
 20
2.5578100000000004
 30
0.0
 10
-0.3505
 20
2.3098300000000003
 30
0.0
 10
-0.3505
 20
2.3098300000000003
 30
0.0
 10
-0.11578
 20
2.0618500000000002
 30
0.0
 10
-0.00236
 20
1.6743500000000002
 30
0.0
 10
-0.00236
 20
1.6743500000000002
 30
0.0
 10
-0.00236
 20
1.6743500000000002
 30
0.0
 10
-0.00236
 20
1.6743500000000002
 30
0.0
 10
-0.06905
 20
2.4603100000000002
 30
0.0
 10
-0.23574
 20
2.8103300000000004
 30
0.0
 10
-0.23574
 20
2.8103300000000004
 30
0.0
 10
-0.40245
 20
3.1604200000000002
 30
0.0
 10
-0.47423
 20
3.1567700000000003
 30
0.0
 10
-0.47423
 20
3.1567700000000003
 30
0.0
 10
-0.47423
 20
3.1567700000000003
 30
0.0
 10
-0.47423
 20
3.1567700000000003
 30
0.0
 10
-0.30992
 20
2.8479500000000004
 30
0.0
 10
-0.5555800000000001
 20
2.8534600000000001
 30
0.0
 10
-0.5555800000000001
 20
2.8534600000000001
 30
0.0
 10
-0.80127
 20
2.8589100000000003
 30
0.0
 10
-0.8180200000000001
 20
3.1938400000000002
 30
0.0
 10
-0.59706
 20
3.2584700000000004
 30
0.0
 10
-0.59706
 20
3.2584700000000004
 30
0.0
 10
-0.37613
 20
3.3231000000000002
 30
0.0
 10
-0.11851
 20
3.2529600000000003
 30
0.0
 10
-0.06189
 20
2.7196600000000002
 30
0.0
 10
-0.06189
 20
2.7196600000000002
 30
0.0
 10
0.04738
 20
2.2678700000000003
 30
0.0
 10
0.15346
 20
1.5961400000000001
 30
0.0
 10
0.15346
 20
1.5961400000000001
 30
0.0
  0
SPLINE
  5
37
100
AcDbEntity
  8
Ebene 1
 62
     1
100
AcDbSpline
210
0.0
220
0.0
230
1.0
 70
     1
 71
     3
 72
    80
 73
    76
 74
     0
 42
0.0000000001
 43
0.0000000001
 40
0.0
 40
0.0
 40
0.0
 40
0.0
 40
0.0526315789473684
 40
0.0526315789473684
 40
0.0526315789473684
 40
0.0526315789473684
 40
0.1052631578947368
 40
0.1052631578947368
 40
0.1052631578947368
 40
0.1052631578947368
 40
0.1578947368421053
 40
0.1578947368421053
 40
0.1578947368421053
 40
0.1578947368421053
 40
0.2105263157894737
 40
0.2105263157894737
 40
0.2105263157894737
 40
0.2105263157894737
 40
0.2631578947368421
 40
0.2631578947368421
 40
0.2631578947368421
 40
0.2631578947368421
 40
0.3157894736842105
 40
0.3157894736842105
 40
0.3157894736842105
 40
0.3157894736842105
 40
0.3684210526315789
 40
0.3684210526315789
 40
0.3684210526315789
 40
0.3684210526315789
 40
0.4210526315789474
 40
0.4210526315789474
 40
0.4210526315789474
 40
0.4210526315789474
 40
0.4736842105263158
 40
0.4736842105263158
 40
0.4736842105263158
 40
0.4736842105263158
 40
0.5263157894736842
 40
0.5263157894736842
 40
0.5263157894736842
 40
0.5263157894736842
 40
0.5789473684210527
 40
0.5789473684210527
 40
0.5789473684210527
 40
0.5789473684210527
 40
0.631578947368421
 40
0.631578947368421
 40
0.631578947368421
 40
0.631578947368421
 40
0.6842105263157894
 40
0.6842105263157894
 40
0.6842105263157894
 40
0.6842105263157894
 40
0.7368421052631577
 40
0.7368421052631577
 40
0.7368421052631577
 40
0.7368421052631577
 40
0.7894736842105261
 40
0.7894736842105261
 40
0.7894736842105261
 40
0.7894736842105261
 40
0.8421052631578945
 40
0.8421052631578945
 40
0.8421052631578945
 40
0.8421052631578945
 40
0.8947368421052628
 40
0.8947368421052628
 40
0.8947368421052628
 40
0.8947368421052628
 40
0.9473684210526312
 40
0.9473684210526312
 40
0.9473684210526312
 40
0.9473684210526312
 40
1.0
 40
1.0
 40
1.0
 40
1.0
 10
0.74848
 20
5.2718200000000008
 30
0.0
 10
0.74848
 20
5.2718200000000008
 30
0.0
 10
0.48109
 20
4.9904600000000006
 30
0.0
 10
0.07689
 20
4.6816400000000007
 30
0.0
 10
0.07689
 20
4.6816400000000007
 30
0.0
 10
-0.33326
 20
4.3682700000000008
 30
0.0
 10
-0.61295
 20
3.9700900000000003
 30
0.0
 10
-1.3842800000000002
 20
3.9623000000000004
 30
0.0
 10
-1.3842800000000002
 20
3.9623000000000004
 30
0.0
 10
-1.6738600000000001
 20
3.9593400000000005
 30
0.0
 10
-2.5334700000000003
 20
4.0925900000000004
 30
0.0
 10
-3.0144000000000002
 20
4.25204
 30
0.0
 10
-3.0144000000000002
 20
4.25204
 30
0.0
 10
-2.5308300000000004
 20
3.5972600000000003
 30
0.0
 10
-1.1298600000000001
 20
3.7549100000000002
 30
0.0
 10
-1.0359900000000002
 20
3.5493100000000002
 30
0.0
 10
-1.0359900000000002
 20
3.5493100000000002
 30
0.0
 10
-0.8923300000000001
 20
3.2346300000000001
 30
0.0
 10
-2.3296700000000001
 20
3.2655700000000003
 30
0.0
 10
-2.82952
 20
3.7863300000000004
 30
0.0
 10
-2.82952
 20
3.7863300000000004
 30
0.0
 10
-2.82952
 20
3.7863300000000004
 30
0.0
 10
-2.8487800000000001
 20
3.0383300000000002
 30
0.0
 10
-1.7743000000000002
 20
2.5666300000000004
 30
0.0
 10
-1.7743000000000002
 20
2.5666300000000004
 30
0.0
 10
-1.0809300000000002
 20
2.2621500000000001
 30
0.0
 10
-0.4879100000000001
 20
1.9226000000000001
 30
0.0
 10
0.09298
 20
1.3508500000000001
 30
0.0
 10
0.09298
 20
1.3508500000000001
 30
0.0
 10
0.15974
 20
1.2851900000000001
 30
0.0
 10
-0.20302
 20
1.8723000000000001
 30
0.0
 10
-0.8834000000000001
 20
2.3998200000000001
 30
0.0
 10
-0.8834000000000001
 20
2.3998200000000001
 30
0.0
 10
-1.5637900000000002
 20
2.9273300000000004
 30
0.0
 10
-0.74565
 20
3.9315700000000002
 30
0.0
 10
-0.18636
 20
3.5279500000000001
 30
0.0
 10
-0.18636
 20
3.5279500000000001
 30
0.0
 10
0.59379
 20
2.9649500000000004
 30
0.0
 10
-0.02463
 20
1.07545
 30
0.0
 10
1.5061700000000002
 20
0.4543
 30
0.0
 10
1.5061700000000002
 20
0.4543
 30
0.0
 10
1.5273100000000002
 20
0.44575
 30
0.0
 10
0.52512
 20
1.1644700000000001
 30
0.0
 10
0.6114000000000001
 20
2.0883100000000003
 30
0.0
 10
0.6114000000000001
 20
2.0883100000000003
 30
0.0
 10
0.6976800000000001
 20
3.0121500000000001
 30
0.0
 10
1.09497
 20
2.3027300000000004
 30
0.0
 10
1.1224800000000001
 20
1.9718600000000002
 30
0.0
 10
1.1224800000000001
 20
1.9718600000000002
 30
0.0
 10
1.1500000000000001
 20
1.6410000000000002
 30
0.0
 10
1.05474
 20
1.2900800000000001
 30
0.0
 10
1.05474
 20
1.2900800000000001
 30
0.0
 10
1.05474
 20
1.2900800000000001
 30
0.0
 10
1.05474
 20
1.2900800000000001
 30
0.0
 10
1.65219
 20
2.03505
 30
0.0
 10
0.9526500000000001
 20
2.7443900000000001
 30
0.0
 10
0.9526500000000001
 20
2.7443900000000001
 30
0.0
 10
0.25311
 20
3.4537400000000003
 30
0.0
 10
-0.40194
 20
3.9738800000000003
 30
0.0
 10
0.12341
 20
4.4712100000000001
 30
0.0
 10
0.12341
 20
4.4712100000000001
 30
0.0
 10
0.64881
 20
4.9686200000000005
 30
0.0
 10
1.01651
 20
4.3298300000000003
 30
0.0
 10
1.07355
 20
3.8798300000000001
 30
0.0
 10
1.07355
 20
3.8798300000000001
 30
0.0
 10
1.1306100000000001
 20
3.4299000000000004
 30
0.0
 10
1.0311600000000001
 20
3.2126500000000004
 30
0.0
 10
1.0587200000000001
 20
3.2218100000000001
 30
0.0
 10
1.0587200000000001
 20
3.2218100000000001
 30
0.0
 10
1.0862900000000002
 20
3.2310500000000002
 30
0.0
 10
1.3563100000000001
 20
3.9139300000000001
 30
0.0
 10
1.14568
 20
4.5936500000000002
 30
0.0
 10
1.14568
 20
4.5936500000000002
 30
0.0
 10
0.9757900000000001
 20
5.2754700000000003
 30
0.0
 10
0.74848
 20
5.2718200000000008
 30
0.0
 10
0.74848
 20
5.2718200000000008
 30
0.0
  0
SPLINE
  5
38
100
AcDbEntity
  8
Ebene 1
 62
     1
100
AcDbSpline
210
0.0
220
0.0
230
1.0
 70
     1
 71
     3
 72
    72
 73
    68
 74
     0
 42
0.0000000001
 43
0.0000000001
 40
0.0
 40
0.0
 40
0.0
 40
0.0
 40
0.0588235294117647
 40
0.0588235294117647
 40
0.0588235294117647
 40
0.0588235294117647
 40
0.1176470588235294
 40
0.1176470588235294
 40
0.1176470588235294
 40
0.1176470588235294
 40
0.1764705882352941
 40
0.1764705882352941
 40
0.1764705882352941
 40
0.1764705882352941
 40
0.2352941176470588
 40
0.2352941176470588
 40
0.2352941176470588
 40
0.2352941176470588
 40
0.2941176470588235
 40
0.2941176470588235
 40
0.2941176470588235
 40
0.2941176470588235
 40
0.3529411764705883
 40
0.3529411764705883
 40
0.3529411764705883
 40
0.3529411764705883
 40
0.411764705882353
 40
0.411764705882353
 40
0.411764705882353
 40
0.411764705882353
 40
0.4705882352941177
 40
0.4705882352941177
 40
0.4705882352941177
 40
0.4705882352941177
 40
0.5294117647058824
 40
0.5294117647058824
 40
0.5294117647058824
 40
0.5294117647058824
 40
0.5882352941176471
 40
0.5882352941176471
 40
0.5882352941176471
 40
0.5882352941176471
 40
0.6470588235294118
 40
0.6470588235294118
 40
0.6470588235294118
 40
0.6470588235294118
 40
0.7058823529411765
 40
0.7058823529411765
 40
0.7058823529411765
 40
0.7058823529411765
 40
0.7647058823529412
 40
0.7647058823529412
 40
0.7647058823529412
 40
0.7647058823529412
 40
0.823529411764706
 40
0.823529411764706
 40
0.823529411764706
 40
0.823529411764706
 40
0.8823529411764707
 40
0.8823529411764707
 40
0.8823529411764707
 40
0.8823529411764707
 40
0.9411764705882354
 40
0.9411764705882354
 40
0.9411764705882354
 40
0.9411764705882354
 40
1.0
 40
1.0
 40
1.0
 40
1.0
 10
0.7412900000000001
 20
5.5558800000000002
 30
0.0
 10
0.7412900000000001
 20
5.5558800000000002
 30
0.0
 10
0.4081300000000001
 20
6.0904200000000008
 30
0.0
 10
0.03722
 20
6.4772400000000001
 30
0.0
 10
0.03722
 20
6.4772400000000001
 30
0.0
 10
-0.42682
 20
6.9611500000000008
 30
0.0
 10
-0.7940200000000001
 20
7.3235900000000003
 30
0.0
 10
-1.6762000000000001
 20
7.7754200000000004
 30
0.0
 10
-1.6762000000000001
 20
7.7754200000000004
 30
0.0
 10
-2.5583900000000002
 20
8.2272100000000012
 30
0.0
 10
-3.2644800000000003
 20
8.3360700000000012
 30
0.0
 10
-3.5330100000000004
 20
8.6514700000000015
 30
0.0
 10
-3.5330100000000004
 20
8.6514700000000015
 30
0.0
 10
-3.8015400000000001
 20
8.9668900000000011
 30
0.0
 10
-3.6292300000000002
 20
9.3397700000000015
 30
0.0
 10
-3.1739300000000004
 20
9.3850200000000008
 30
0.0
 10
-3.1739300000000004
 20
9.3850200000000008
 30
0.0
 10
-2.8547600000000002
 20
9.4167500000000004
 30
0.0
 10
-2.7481500000000003
 20
9.2128700000000006
 30
0.0
 10
-2.7657200000000004
 20
9.2187300000000008
 30
0.0
 10
-2.7657200000000004
 20
9.2187300000000008
 30
0.0
 10
-2.78329
 20
9.2246000000000006
 30
0.0
 10
-3.2957800000000002
 20
9.1428799999999999
 30
0.0
 10
-3.16595
 20
8.7677800000000001
 30
0.0
 10
-3.16595
 20
8.7677800000000001
 30
0.0
 10
-3.0521800000000003
 20
8.4390499999999999
 30
0.0
 10
-2.4251900000000002
 20
8.3355100000000011
 30
0.0
 10
-2.3733000000000004
 20
8.7339600000000015
 30
0.0
 10
-2.3733000000000004
 20
8.7339600000000015
 30
0.0
 10
-2.3214200000000003
 20
9.1324300000000012
 30
0.0
 10
-2.7394800000000004
 20
8.9941400000000016
 30
0.0
 10
-2.82315
 20
8.9319100000000002
 30
0.0
 10
-2.82315
 20
8.9319100000000002
 30
0.0
 10
-2.9068000000000001
 20
8.86965
 30
0.0
 10
-2.6046200000000002
 20
9.2732500000000009
 30
0.0
 10
-2.3023500000000001
 20
9.0447000000000006
 30
0.0
 10
-2.3023500000000001
 20
9.0447000000000006
 30
0.0
 10
-2.0000800000000001
 20
8.8161500000000004
 30
0.0
 10
-2.0466900000000003
 20
8.3032400000000006
 30
0.0
 10
-1.7312400000000001
 20
8.0732499999999998
 30
0.0
 10
-1.7312400000000001
 20
8.0732499999999998
 30
0.0
 10
-1.4157900000000001
 20
7.8432200000000005
 30
0.0
 10
-1.3057200000000002
 20
8.0241900000000008
 30
0.0
 10
-1.3874700000000002
 20
8.2134499999999999
 30
0.0
 10
-1.3874700000000002
 20
8.2134499999999999
 30
0.0
 10
-1.4692400000000001
 20
8.4026900000000015
 30
0.0
 10
-1.7033400000000001
 20
8.448970000000001
 30
0.0
 10
-1.7033400000000001
 20
8.448970000000001
 30
0.0
 10
-1.7033400000000001
 20
8.448970000000001
 30
0.0
 10
-1.7033400000000001
 20
8.448970000000001
 30
0.0
 10
-1.19815
 20
8.5800200000000011
 30
0.0
 10
-1.0537300000000001
 20
8.129010000000001
 30
0.0
 10
-1.0537300000000001
 20
8.129010000000001
 30
0.0
 10
-0.9093100000000001
 20
7.6779800000000007
 30
0.0
 10
-0.80708
 20
7.2190000000000003
 30
0.0
 10
-0.5915400000000001
 20
7.2422100000000009
 30
0.0
 10
-0.5915400000000001
 20
7.2422100000000009
 30
0.0
 10
-0.37601
 20
7.265410000000001
 30
0.0
 10
-0.57445
 20
7.5893700000000006
 30
0.0
 10
-0.5524
 20
7.5893800000000002
 30
0.0
 10
-0.5524
 20
7.5893800000000002
 30
0.0
 10
-0.53035
 20
7.5893800000000002
 30
0.0
 10
-0.07463
 20
7.2246500000000005
 30
0.0
 10
0.17182
 20
6.7380300000000002
 30
0.0
 10
0.17182
 20
6.7380300000000002
 30
0.0
 10
0.47251
 20
6.2239400000000007
 30
0.0
 10
0.7412900000000001
 20
5.5558800000000002
 30
0.0
 10
0.7412900000000001
 20
5.5558800000000002
 30
0.0
  0
SPLINE
  5
39
100
AcDbEntity
  8
Ebene 1
 62
     1
100
AcDbSpline
210
0.0
220
0.0
230
1.0
 70
     1
 71
     3
 72
    60
 73
    56
 74
     0
 42
0.0000000001
 43
0.0000000001
 40
0.0
 40
0.0
 40
0.0
 40
0.0
 40
0.0714285714285714
 40
0.0714285714285714
 40
0.0714285714285714
 40
0.0714285714285714
 40
0.1428571428571429
 40
0.1428571428571429
 40
0.1428571428571429
 40
0.1428571428571429
 40
0.2142857142857143
 40
0.2142857142857143
 40
0.2142857142857143
 40
0.2142857142857143
 40
0.2857142857142857
 40
0.2857142857142857
 40
0.2857142857142857
 40
0.2857142857142857
 40
0.3571428571428571
 40
0.3571428571428571
 40
0.3571428571428571
 40
0.3571428571428571
 40
0.4285714285714285
 40
0.4285714285714285
 40
0.4285714285714285
 40
0.4285714285714285
 40
0.4999999999999999
 40
0.4999999999999999
 40
0.4999999999999999
 40
0.4999999999999999
 40
0.5714285714285713
 40
0.5714285714285713
 40
0.5714285714285713
 40
0.5714285714285713
 40
0.6428571428571427
 40
0.6428571428571427
 40
0.6428571428571427
 40
0.6428571428571427
 40
0.7142857142857141
 40
0.7142857142857141
 40
0.7142857142857141
 40
0.7142857142857141
 40
0.7857142857142855
 40
0.7857142857142855
 40
0.7857142857142855
 40
0.7857142857142855
 40
0.8571428571428569
 40
0.8571428571428569
 40
0.8571428571428569
 40
0.8571428571428569
 40
0.9285714285714283
 40
0.9285714285714283
 40
0.9285714285714283
 40
0.9285714285714283
 40
1.0
 40
1.0
 40
1.0
 40
1.0
 10
-4.8147600000000006
 20
8.6357300000000006
 30
0.0
 10
-4.8147600000000006
 20
8.6357300000000006
 30
0.0
 10
-4.4482500000000007
 20
8.3013300000000001
 30
0.0
 10
-4.2835600000000005
 20
7.7845700000000004
 30
0.0
 10
-4.2835600000000005
 20
7.7845700000000004
 30
0.0
 10
-4.11883
 20
7.2678000000000003
 30
0.0
 10
-4.0118300000000007
 20
6.6638900000000003
 30
0.0
 10
-3.8496500000000005
 20
6.0626600000000002
 30
0.0
 10
-3.8496500000000005
 20
6.0626600000000002
 30
0.0
 10
-3.6874900000000004
 20
5.4614400000000005
 30
0.0
 10
-3.3036400000000001
 20
5.0050600000000003
 30
0.0
 10
-3.3351900000000003
 20
4.9987300000000001
 30
0.0
 10
-3.3351900000000003
 20
4.9987300000000001
 30
0.0
 10
-3.3667700000000003
 20
4.9923900000000003
 30
0.0
 10
-4.0273400000000006
 20
5.7925400000000007
 30
0.0
 10
-4.1296200000000001
 20
6.2386000000000008
 30
0.0
 10
-4.1296200000000001
 20
6.2386000000000008
 30
0.0
 10
-4.2318600000000002
 20
6.6846700000000006
 30
0.0
 10
-4.3851700000000005
 20
6.4640300000000002
 30
0.0
 10
-4.3712900000000001
 20
6.3027400000000009
 30
0.0
 10
-4.3712900000000001
 20
6.3027400000000009
 30
0.0
 10
-4.3573900000000005
 20
6.1414800000000005
 30
0.0
 10
-4.2388700000000004
 20
5.9673500000000006
 30
0.0
 10
-4.2388700000000004
 20
5.9673500000000006
 30
0.0
 10
-4.2388700000000004
 20
5.9673500000000006
 30
0.0
 10
-4.2388700000000004
 20
5.9673500000000006
 30
0.0
 10
-4.5336700000000008
 20
6.1331100000000003
 30
0.0
 10
-4.4774000000000003
 20
6.6816400000000007
 30
0.0
 10
-4.4774000000000003
 20
6.6816400000000007
 30
0.0
 10
-4.4211
 20
7.2301800000000007
 30
0.0
 10
-4.3569599999999999
 20
7.6694500000000003
 30
0.0
 10
-4.5722700000000005
 20
7.7167700000000004
 30
0.0
 10
-4.5722700000000005
 20
7.7167700000000004
 30
0.0
 10
-4.7875900000000007
 20
7.7640700000000002
 30
0.0
 10
-4.5539300000000003
 20
7.106440000000001
 30
0.0
 10
-4.5539300000000003
 20
7.106440000000001
 30
0.0
 10
-4.5539300000000003
 20
7.106440000000001
 30
0.0
 10
-4.5539300000000003
 20
7.106440000000001
 30
0.0
 10
-4.7464000000000004
 20
7.2365400000000006
 30
0.0
 10
-4.8115500000000004
 20
7.6920100000000007
 30
0.0
 10
-4.8115500000000004
 20
7.6920100000000007
 30
0.0
 10
-4.8766800000000003
 20
8.1474900000000012
 30
0.0
 10
-5.0191400000000002
 20
8.3642400000000006
 30
0.0
 10
-5.2861200000000004
 20
8.5781800000000015
 30
0.0
 10
-5.2861200000000004
 20
8.5781800000000015
 30
0.0
 10
-5.5530900000000001
 20
8.79209
 30
0.0
 10
-5.8061900000000009
 20
8.7657000000000007
 30
0.0
 10
-5.8031500000000005
 20
8.7879900000000006
 30
0.0
 10
-5.8031500000000005
 20
8.7879900000000006
 30
0.0
 10
-5.8001400000000007
 20
8.8102900000000002
 30
0.0
 10
-5.4942900000000003
 20
8.8466700000000014
 30
0.0
 10
-5.1896000000000004
 20
8.7504500000000007
 30
0.0
 10
-5.1896000000000004
 20
8.7504500000000007
 30
0.0
 10
-4.8929100000000005
 20
8.6551600000000004
 30
0.0
 10
-4.8147600000000006
 20
8.6357300000000006
 30
0.0
 10
-4.8147600000000006
 20
8.6357300000000006
 30
0.0
  0
SPLINE
  5
3A
100
AcDbEntity
  8
Ebene 1
 62
     1
100
AcDbSpline
210
0.0
220
0.0
230
1.0
 70
     1
 71
     3
 72
    36
 73
    32
 74
     0
 42
0.0000000001
 43
0.0000000001
 40
0.0
 40
0.0
 40
0.0
 40
0.0
 40
0.125
 40
0.125
 40
0.125
 40
0.125
 40
0.25
 40
0.25
 40
0.25
 40
0.25
 40
0.375
 40
0.375
 40
0.375
 40
0.375
 40
0.5
 40
0.5
 40
0.5
 40
0.5
 40
0.625
 40
0.625
 40
0.625
 40
0.625
 40
0.75
 40
0.75
 40
0.75
 40
0.75
 40
0.875
 40
0.875
 40
0.875
 40
0.875
 40
1.0
 40
1.0
 40
1.0
 40
1.0
 10
-0.01962
 20
6.1222200000000004
 30
0.0
 10
-0.20784
 20
5.5311500000000002
 30
0.0
 10
-0.5919000000000001
 20
5.1470400000000005
 30
0.0
 10
-1.2536800000000001
 20
5.1608200000000002
 30
0.0
 10
-1.2536800000000001
 20
5.1608200000000002
 30
0.0
 10
-2.3407500000000003
 20
5.1834700000000007
 30
0.0
 10
-2.6468600000000002
 20
6.8584600000000009
 30
0.0
 10
-2.1156800000000002
 20
7.5884600000000004
 30
0.0
 10
-2.1156800000000002
 20
7.5884600000000004
 30
0.0
 10
-2.5352200000000003
 20
7.8111500000000005
 30
0.0
 10
-2.7688000000000001
 20
7.8756000000000004
 30
0.0
 10
-2.7896500000000004
 20
7.8826100000000006
 30
0.0
 10
-2.7896500000000004
 20
7.8826100000000006
 30
0.0
 10
-2.8748900000000002
 20
7.9113500000000005
 30
0.0
 10
-2.9325000000000001
 20
7.3289000000000009
 30
0.0
 10
-2.9200600000000003
 20
6.6466200000000004
 30
0.0
 10
-2.9200600000000003
 20
6.6466200000000004
 30
0.0
 10
-2.90917
 20
6.0498400000000006
 30
0.0
 10
-2.52854
 20
5.01905
 30
0.0
 10
-2.0433000000000003
 20
4.7858200000000002
 30
0.0
 10
-2.0433000000000003
 20
4.7858200000000002
 30
0.0
 10
-1.5580600000000002
 20
4.5525900000000004
 30
0.0
 10
-1.1812500000000001
 20
4.4982900000000008
 30
0.0
 10
-0.62082
 20
4.7121600000000008
 30
0.0
 10
-0.62082
 20
4.7121600000000008
 30
0.0
 10
-0.17256
 20
4.8831800000000003
 30
0.0
 10
0.15886
 20
5.4106200000000007
 30
0.0
 10
0.29782
 20
5.8463900000000004
 30
0.0
 10
0.29782
 20
5.8463900000000004
 30
0.0
 10
0.16222
 20
5.9554400000000003
 30
0.0
 10
0.16464
 20
5.9829400000000001
 30
0.0
 10
-0.01962
 20
6.1222200000000004
 30
0.0
  0
SPLINE
  5
3B
100
AcDbEntity
  8
Ebene 1
 62
     1
100
AcDbSpline
210
0.0
220
0.0
230
1.0
 70
     1
 71
     3
 72
    28
 73
    24
 74
     0
 42
0.0000000001
 43
0.0000000001
 40
0.0
 40
0.0
 40
0.0
 40
0.0
 40
0.1666666666666667
 40
0.1666666666666667
 40
0.1666666666666667
 40
0.1666666666666667
 40
0.3333333333333333
 40
0.3333333333333333
 40
0.3333333333333333
 40
0.3333333333333333
 40
0.5
 40
0.5
 40
0.5
 40
0.5
 40
0.6666666666666666
 40
0.6666666666666666
 40
0.6666666666666666
 40
0.6666666666666666
 40
0.8333333333333333
 40
0.8333333333333333
 40
0.8333333333333333
 40
0.8333333333333333
 40
1.0
 40
1.0
 40
1.0
 40
1.0
 10
-3.9030800000000001
 20
8.2812600000000014
 30
0.0
 10
-3.8510800000000005
 20
8.1861800000000002
 30
0.0
 10
-3.7615200000000004
 20
8.12561
 30
0.0
 10
-3.6797700000000004
 20
7.8441500000000008
 30
0.0
 10
-3.6797700000000004
 20
7.8441500000000008
 30
0.0
 10
-3.6454600000000004
 20
7.7260500000000008
 30
0.0
 10
-3.5896800000000004
 20
7.2086300000000003
 30
0.0
 10
-3.2291400000000001
 20
6.915820000000001
 30
0.0
 10
-3.2291400000000001
 20
6.915820000000001
 30
0.0
 10
-3.3477700000000001
 20
7.0804700000000009
 30
0.0
 10
-3.4872800000000002
 20
7.3720500000000007
 30
0.0
 10
-3.3838500000000002
 20
7.5508900000000008
 30
0.0
 10
-3.3838500000000002
 20
7.5508900000000008
 30
0.0
 10
-3.2804300000000004
 20
7.7297400000000005
 30
0.0
 10
-3.0416900000000004
 20
7.2732300000000008
 30
0.0
 10
-3.0416900000000004
 20
7.2732300000000008
 30
0.0
 10
-3.0416900000000004
 20
7.2732300000000008
 30
0.0
 10
-3.0416900000000004
 20
7.2732300000000008
 30
0.0
 10
-3.0297300000000003
 20
7.724590000000001
 30
0.0
 10
-3.2387000000000001
 20
7.9573600000000004
 30
0.0
 10
-3.2387000000000001
 20
7.9573600000000004
 30
0.0
 10
-3.4317100000000003
 20
8.1727100000000004
 30
0.0
 10
-3.7100700000000004
 20
8.1712900000000008
 30
0.0
 10
-3.9030800000000001
 20
8.2812600000000014
 30
0.0
  0
SPLINE
  5
3C
100
AcDbEntity
  8
Ebene 1
 62
     1
100
AcDbSpline
210
0.0
220
0.0
230
1.0
 70
     1
 71
     3
 72
    24
 73
    20
 74
     0
 42
0.0000000001
 43
0.0000000001
 40
0.0
 40
0.0
 40
0.0
 40
0.0
 40
0.2
 40
0.2
 40
0.2
 40
0.2
 40
0.4
 40
0.4
 40
0.4
 40
0.4
 40
0.6000000000000001
 40
0.6000000000000001
 40
0.6000000000000001
 40
0.6000000000000001
 40
0.8
 40
0.8
 40
0.8
 40
0.8
 40
1.0
 40
1.0
 40
1.0
 40
1.0
 10
-3.6765900000000005
 20
6.5318400000000008
 30
0.0
 10
-3.6765900000000005
 20
6.5318400000000008
 30
0.0
 10
-3.3848200000000004
 20
6.1054800000000009
 30
0.0
 10
-3.3192400000000002
 20
6.2358600000000006
 30
0.0
 10
-3.3192400000000002
 20
6.2358600000000006
 30
0.0
 10
-3.2536800000000001
 20
6.3662500000000009
 30
0.0
 10
-3.1059200000000002
 20
6.2826400000000007
 30
0.0
 10
-3.0704700000000003
 20
6.2124000000000006
 30
0.0
 10
-3.0704700000000003
 20
6.2124000000000006
 30
0.0
 10
-3.10955
 20
5.9365700000000006
 30
0.0
 10
-3.2698000000000005
 20
5.2314900000000009
 30
0.0
 10
-2.5272300000000003
 20
4.7137500000000001
 30
0.0
 10
-2.5272300000000003
 20
4.7137500000000001
 30
0.0
 10
-2.5680200000000002
 20
4.6418800000000005
 30
0.0
 10
-3.2368900000000003
 20
5.01485
 30
0.0
 10
-3.5055500000000004
 20
5.6824400000000006
 30
0.0
 10
-3.5055500000000004
 20
5.6824400000000006
 30
0.0
 10
-3.6953800000000001
 20
6.1947100000000006
 30
0.0
 10
-3.6765900000000005
 20
6.5318400000000008
 30
0.0
 10
-3.6765900000000005
 20
6.5318400000000008
 30
0.0
  0
SPLINE
  5
3D
100
AcDbEntity
  8
Ebene 1
 62
     1
100
AcDbSpline
210
0.0
220
0.0
230
1.0
 70
     1
 71
     3
 72
    24
 73
    20
 74
     0
 42
0.0000000001
 43
0.0000000001
 40
0.0
 40
0.0
 40
0.0
 40
0.0
 40
0.2
 40
0.2
 40
0.2
 40
0.2
 40
0.4
 40
0.4
 40
0.4
 40
0.4
 40
0.6000000000000001
 40
0.6000000000000001
 40
0.6000000000000001
 40
0.6000000000000001
 40
0.8
 40
0.8
 40
0.8
 40
0.8
 40
1.0
 40
1.0
 40
1.0
 40
1.0
 10
-4.10806
 20
8.383890000000001
 30
0.0
 10
-3.7876700000000003
 20
8.165750000000001
 30
0.0
 10
-3.8010000000000002
 20
7.6360100000000006
 30
0.0
 10
-3.6303100000000001
 20
7.3062200000000006
 30
0.0
 10
-3.6303100000000001
 20
7.3062200000000006
 30
0.0
 10
-3.5325600000000001
 20
7.1173600000000006
 30
0.0
 10
-3.5085300000000004
 20
7.0837100000000008
 30
0.0
 10
-3.4774200000000004
 20
7.0332900000000009
 30
0.0
 10
-3.4774200000000004
 20
7.0332900000000009
 30
0.0
 10
-3.7609600000000003
 20
7.2314600000000002
 30
0.0
 10
-3.8473800000000002
 20
7.4181600000000003
 30
0.0
 10
-4.01715
 20
7.9641800000000007
 30
0.0
 10
-4.01715
 20
7.9641800000000007
 30
0.0
 10
-4.1148000000000007
 20
8.2782700000000009
 30
0.0
 10
-4.2851400000000002
 20
8.4113800000000012
 30
0.0
 10
-4.3768500000000001
 20
8.4865200000000005
 30
0.0
 10
-4.3768500000000001
 20
8.4865200000000005
 30
0.0
 10
-4.3106500000000008
 20
8.4663700000000013
 30
0.0
 10
-4.2173400000000001
 20
8.4324700000000004
 30
0.0
 10
-4.10806
 20
8.383890000000001
 30
0.0
  0
SPLINE
  5
3E
100
AcDbEntity
  8
Ebene 1
 62
     1
100
AcDbSpline
210
0.0
220
0.0
230
1.0
 70
     1
 71
     3
 72
    20
 73
    16
 74
     0
 42
0.0000000001
 43
0.0000000001
 40
0.0
 40
0.0
 40
0.0
 40
0.0
 40
0.25
 40
0.25
 40
0.25
 40
0.25
 40
0.5
 40
0.5
 40
0.5
 40
0.5
 40
0.75
 40
0.75
 40
0.75
 40
0.75
 40
1.0
 40
1.0
 40
1.0
 40
1.0
 10
0.35525
 20
5.6860200000000001
 30
0.0
 10
0.43582
 20
5.6145300000000002
 30
0.0
 10
0.5619200000000001
 20
5.5108200000000007
 30
0.0
 10
0.60011
 20
5.4715800000000003
 30
0.0
 10
0.60011
 20
5.4715800000000003
 30
0.0
 10
0.68767
 20
5.3816500000000005
 30
0.0
 10
-0.01198
 20
4.85114
 30
0.0
 10
-0.09697
 20
4.8365300000000007
 30
0.0
 10
-0.09697
 20
4.8365300000000007
 30
0.0
 10
-0.09697
 20
4.8365300000000007
 30
0.0
 10
0.13781
 20
5.1560300000000003
 30
0.0
 10
0.22396
 20
5.3356400000000006
 30
0.0
 10
0.22396
 20
5.3356400000000006
 30
0.0
 10
0.3069
 20
5.5143400000000007
 30
0.0
 10
0.35525
 20
5.6860200000000001
 30
0.0
 10
0.35525
 20
5.6860200000000001
 30
0.0
  0
ENDSEC
  0
SECTION
  2
OBJECTS
  0
DICTIONARY
  5
19
100
AcDbDictionary
280
     0
281
     1
  3
ACAD_GROUP
350
1A
  3
ACAD_MLINESTYLE
350
1B
  3
ACAD_LAYOUT
350
1E
  3
ACAD_PLOTSETTINGS
350
22
  3
ACAD_PLOTSTYLENAME
350
1F
  3
ACAD_WIPEOUT_VARS
350
23
  0
DICTIONARY
  5
1A
102
{ACAD_REACTORS
330
19
102
}
100
AcDbDictionary
280
     0
281
     1
  0
DICTIONARY
  5
1B
102
{ACAD_REACTORS
330
19
102
}
100
AcDbDictionary
280
     0
281
     1
  3
Standard
350
1C
  0
MLINESTYLE
  5
1C
102
{ACAD_REACTORS
330
1B
102
}
100
AcDbMlineStyle
  2
Standard
 70
     0
  3

 62
     0
 51
90.0
 52
90.0
 71
     2
 49
0.5
 62
   256
  6
BYLAYER
 49
-0.5
 62
   256
  6
BYLAYER
  0
ACDBDICTIONARYWDFLT
  5
1F
102
{ACAD_REACTORS
330
19
102
}
100
AcDbDictionary
281
     1
  3
Normal
350
1D
100
AcDbDictionaryWithDefault
340
1D
  0
ACDBPLACEHOLDER
  5
1D
102
{ACAD_REACTORS
330
1F
102
}
  0
LAYOUT
  5
20
102
{ACAD_REACTORS
330
1E
102
}
100
AcDbPlotSettings
  1

  2

  4

  6

 40
0.0
 41
0.0
 42
0.0
 43
0.0
 44
0.0
 45
0.0
 46
0.0
 47
0.0
 48
0.0
 49
0.0
140
0.0
141
0.0
142
1.0
143
1.0
 70
  1024
 72
     0
 73
     0
 74
     0
  7

 75
     0
147
1.0
148
0.0
149
0.0
100
AcDbLayout
  1
Model
 70
     0
 71
     0
 10
0.0
 20
0.0
 11
0.0
 21
0.0
 12
0.0
 22
0.0
 32
0.0
 14
0.0
 24
0.0
 34
0.0
 15
0.0
 25
0.0
 35
0.0
146
0.0
 13
0.0
 23
0.0
 33
0.0
 16
0.0
 26
0.0
 36
0.0
 17
0.0
 27
0.0
 37
0.0
 76
     0
330
A
331
0
345
0
346
0
  0
LAYOUT
  5
21
102
{ACAD_REACTORS
330
1E
102
}
100
AcDbPlotSettings
  1

  2

  4

  6

 40
0.0
 41
0.0
 42
0.0
 43
0.0
 44
0.0
 45
0.0
 46
0.0
 47
0.0
 48
0.0
 49
0.0
140
0.0
141
0.0
142
1.0
143
1.0
 70
     0
 72
     0
 73
     0
 74
     0
  7

 75
     0
147
1.0
148
0.0
149
0.0
100
AcDbLayout
  1
Layout1
 70
     0
 71
     0
 10
0.0
 20
0.0
 11
0.0
 21
0.0
 12
0.0
 22
0.0
 32
0.0
 14
0.0
 24
0.0
 34
0.0
 15
0.0
 25
0.0
 35
0.0
146
0.0
 13
0.0
 23
0.0
 33
0.0
 16
0.0
 26
0.0
 36
0.0
 17
0.0
 27
0.0
 37
0.0
 76
     0
330
B
331
0
345
0
346
0
  0
DICTIONARY
  5
1E
102
{ACAD_REACTORS
330
19
102
}
100
AcDbDictionary
280
     0
281
     1
  3
Layout1
350
21
  3
Model
350
20
  0
DICTIONARY
  5
22
102
{ACAD_REACTORS
330
19
102
}
100
AcDbDictionary
280
     0
281
     1
  0
WIPEOUTVARIABLES
  5
23
100
AcDbWipeoutVariables
 70
     1
  0
ENDSEC
  0
EOF
