  0
SECTION
  2
HEADER
  9
$ACADVER
  1
AC1018
  9
$ACADMAINTVER
 70
     0
  9
$DWGCODEPAGE
  3
ANSI_1252
  9
$INSBASE
 10
0.0
 20
0.0
 30
0.0
  9
$EXTMIN
 10
-33.81720394538549
 20
-612.002137494862
 30
0.0
  9
$EXTMAX
 10
1466.182796054615
 20
-188.9375950404317
 30
0.0
  9
$LIMMIN
 10
0.0
 20
0.0
  9
$LIMMAX
 10
12.0
 20
9.0
  9
$ORTHOMODE
 70
     0
  9
$REGENMODE
 70
     1
  9
$FILLMODE
 70
     1
  9
$QTEXTMODE
 70
     0
  9
$MIRRTEXT
 70
     1
  9
$LTSCALE
 40
1.0
  9
$ATTMODE
 70
     1
  9
$TEXTSIZE
 40
0.2
  9
$TRACEWID
 40
0.05
  9
$TEXTSTYLE
  7
Standard
  9
$CLAYER
  8
Predefinito
  9
$CELTYPE
  6
ByLayer
  9
$CECOLOR
 62
   256
  9
$CELTSCALE
 40
1.0
  9
$DISPSILH
 70
     0
  9
$DIMSCALE
 40
1.0
  9
$DIMASZ
 40
0.18
  9
$DIMEXO
 40
0.0625
  9
$DIMDLI
 40
0.38
  9
$DIMRND
 40
0.0
  9
$DIMDLE
 40
0.0
  9
$DIMEXE
 40
0.18
  9
$DIMTP
 40
0.0
  9
$DIMTM
 40
0.0
  9
$DIMTXT
 40
0.18
  9
$DIMCEN
 40
0.09
  9
$DIMTSZ
 40
0.0
  9
$DIMTOL
 70
     0
  9
$DIMLIM
 70
     0
  9
$DIMTIH
 70
     1
  9
$DIMTOH
 70
     1
  9
$DIMSE1
 70
     0
  9
$DIMSE2
 70
     0
  9
$DIMTAD
 70
     0
  9
$DIMZIN
 70
     0
  9
$DIMBLK
  1

  9
$DIMASO
 70
     1
  9
$DIMSHO
 70
     1
  9
$DIMPOST
  1

  9
$DIMAPOST
  1

  9
$DIMALT
 70
     0
  9
$DIMALTD
 70
     2
  9
$DIMALTF
 40
25.4
  9
$DIMLFAC
 40
1.0
  9
$DIMTOFL
 70
     0
  9
$DIMTVP
 40
0.0
  9
$DIMTIX
 70
     0
  9
$DIMSOXD
 70
     0
  9
$DIMSAH
 70
     0
  9
$DIMBLK1
  1

  9
$DIMBLK2
  1

  9
$DIMSTYLE
  2
Standard
  9
$DIMCLRD
 70
     0
  9
$DIMCLRE
 70
     0
  9
$DIMCLRT
 70
     0
  9
$DIMTFAC
 40
1.0
  9
$DIMGAP
 40
0.09
  9
$DIMJUST
 70
     0
  9
$DIMSD1
 70
     0
  9
$DIMSD2
 70
     0
  9
$DIMTOLJ
 70
     1
  9
$DIMTZIN
 70
     0
  9
$DIMALTZ
 70
     0
  9
$DIMALTTZ
 70
     0
  9
$DIMUPT
 70
     0
  9
$DIMDEC
 70
     4
  9
$DIMTDEC
 70
     4
  9
$DIMALTU
 70
     2
  9
$DIMALTTD
 70
     2
  9
$DIMTXSTY
  7
Standard
  9
$DIMAUNIT
 70
     0
  9
$DIMADEC
 70
     0
  9
$DIMALTRND
 40
0.0
  9
$DIMAZIN
 70
     0
  9
$DIMDSEP
 70
    46
  9
$DIMATFIT
 70
     3
  9
$DIMFRAC
 70
     0
  9
$DIMLDRBLK
  1

  9
$DIMLUNIT
 70
     2
  9
$DIMLWD
 70
    -2
  9
$DIMLWE
 70
    -2
  9
$DIMTMOVE
 70
     2
  9
$LUNITS
 70
     2
  9
$LUPREC
 70
     2
  9
$SKETCHINC
 40
0.1
  9
$FILLETRAD
 40
0.5
  9
$AUNITS
 70
     0
  9
$AUPREC
 70
     0
  9
$MENU
  1
.
  9
$ELEVATION
 40
0.0
  9
$PELEVATION
 40
0.0
  9
$THICKNESS
 40
0.0
  9
$LIMCHECK
 70
     0
  9
$CHAMFERA
 40
0.5
  9
$CHAMFERB
 40
0.5
  9
$CHAMFERC
 40
1.0
  9
$CHAMFERD
 40
0.0
  9
$SKPOLY
 70
     0
  9
$TDCREATE
 40
2457840.810268878
  9
$TDUCREATE
 40
2457840.726935544
  9
$TDUPDATE
 40
2457840.810284051
  9
$TDUUPDATE
 40
2457840.726950718
  9
$TDINDWG
 40
0.0000000116
  9
$TDUSRTIMER
 40
0.0000000116
  9
$USRTIMER
 70
     1
  9
$ANGBASE
 50
0.0
  9
$ANGDIR
 70
     0
  9
$PDMODE
 70
     0
  9
$PDSIZE
 40
0.0
  9
$PLINEWID
 40
0.0
  9
$SPLFRAME
 70
     0
  9
$SPLINETYPE
 70
     6
  9
$SPLINESEGS
 70
     8
  9
$HANDSEED
  5
309
  9
$SURFTAB1
 70
     6
  9
$SURFTAB2
 70
     6
  9
$SURFTYPE
 70
     6
  9
$SURFU
 70
     6
  9
$SURFV
 70
     6
  9
$UCSBASE
  2

  9
$UCSNAME
  2

  9
$UCSORG
 10
0.0
 20
0.0
 30
0.0
  9
$UCSXDIR
 10
1.0
 20
0.0
 30
0.0
  9
$UCSYDIR
 10
0.0
 20
1.0
 30
0.0
  9
$UCSORTHOREF
  2

  9
$UCSORTHOVIEW
 70
     0
  9
$UCSORGTOP
 10
0.0
 20
0.0
 30
0.0
  9
$UCSORGBOTTOM
 10
0.0
 20
0.0
 30
0.0
  9
$UCSORGLEFT
 10
0.0
 20
0.0
 30
0.0
  9
$UCSORGRIGHT
 10
0.0
 20
0.0
 30
0.0
  9
$UCSORGFRONT
 10
0.0
 20
0.0
 30
0.0
  9
$UCSORGBACK
 10
0.0
 20
0.0
 30
0.0
  9
$PUCSBASE
  2

  9
$PUCSNAME
  2

  9
$PUCSORG
 10
0.0
 20
0.0
 30
0.0
  9
$PUCSXDIR
 10
1.0
 20
0.0
 30
0.0
  9
$PUCSYDIR
 10
0.0
 20
1.0
 30
0.0
  9
$PUCSORTHOREF
  2

  9
$PUCSORTHOVIEW
 70
     0
  9
$PUCSORGTOP
 10
0.0
 20
0.0
 30
0.0
  9
$PUCSORGBOTTOM
 10
0.0
 20
0.0
 30
0.0
  9
$PUCSORGLEFT
 10
0.0
 20
0.0
 30
0.0
  9
$PUCSORGRIGHT
 10
0.0
 20
0.0
 30
0.0
  9
$PUCSORGFRONT
 10
0.0
 20
0.0
 30
0.0
  9
$PUCSORGBACK
 10
0.0
 20
0.0
 30
0.0
  9
$USERI1
 70
     0
  9
$USERI2
 70
     0
  9
$USERI3
 70
     0
  9
$USERI4
 70
     0
  9
$USERI5
 70
     0
  9
$USERR1
 40
0.0
  9
$USERR2
 40
0.0
  9
$USERR3
 40
0.0
  9
$USERR4
 40
0.0
  9
$USERR5
 40
0.0
  9
$WORLDVIEW
 70
     1
  9
$SHADEDGE
 70
     3
  9
$SHADEDIF
 70
    70
  9
$TILEMODE
 70
     1
  9
$MAXACTVP
 70
    64
  9
$PINSBASE
 10
0.0
 20
0.0
 30
0.0
  9
$PLIMCHECK
 70
     0
  9
$PEXTMIN
 10
1.000000000000000E+20
 20
1.000000000000000E+20
 30
1.000000000000000E+20
  9
$PEXTMAX
 10
-1.000000000000000E+20
 20
-1.000000000000000E+20
 30
-1.000000000000000E+20
  9
$PLIMMIN
 10
0.0
 20
0.0
  9
$PLIMMAX
 10
12.0
 20
9.0
  9
$UNITMODE
 70
     0
  9
$VISRETAIN
 70
     1
  9
$PLINEGEN
 70
     0
  9
$PSLTSCALE
 70
     1
  9
$TREEDEPTH
 70
  3020
  9
$CMLSTYLE
  2
Standard
  9
$CMLJUST
 70
     0
  9
$CMLSCALE
 40
1.0
  9
$PROXYGRAPHICS
 70
     1
  9
$MEASUREMENT
 70
     0
  9
$CELWEIGHT
370
    -1
  9
$ENDCAPS
280
     0
  9
$JOINSTYLE
280
     0
  9
$LWDISPLAY
290
     0
  9
$INSUNITS
 70
     4
  9
$HYPERLINKBASE
  1

  9
$STYLESHEET
  1

  9
$XEDIT
290
     1
  9
$CEPSNTYPE
380
     0
  9
$PSTYLEMODE
290
     1
  9
$FINGERPRINTGUID
  2
{1DFA7672-0A50-465A-8E16-89606867DFB2}
  9
$VERSIONGUID
  2
{FAEB1C32-E019-11D5-929B-00C0DF256EC4}
  9
$EXTNAMES
290
     1
  9
$PSVPSCALE
 40
0.0
  9
$OLESTARTUP
290
     0
  9
$SORTENTS
280
   127
  9
$INDEXCTL
280
     0
  9
$HIDETEXT
280
     1
  9
$XCLIPFRAME
290
     0
  9
$HALOGAP
280
     0
  9
$OBSCOLOR
 70
   257
  9
$OBSLTYPE
280
     0
  9
$INTERSECTIONDISPLAY
280
     0
  9
$INTERSECTIONCOLOR
 70
   257
  9
$DIMASSOC
280
     2
  9
$PROJECTNAME
  1

  0
ENDSEC
  0
SECTION
  2
CLASSES
  0
CLASS
  1
ACDBDICTIONARYWDFLT
  2
AcDbDictionaryWithDefault
  3
ObjectDBX Classes
 90
        0
 91
        4
280
     0
281
     0
  0
CLASS
  1
VISUALSTYLE
  2
AcDbVisualStyle
  3
ObjectDBX Classes
 90
     4095
 91
        4
280
     0
281
     0
  0
CLASS
  1
MATERIAL
  2
AcDbMaterial
  3
ObjectDBX Classes
 90
     1153
 91
        4
280
     0
281
     0
  0
CLASS
  1
SUN
  2
AcDbSun
  3
SCENEOE
 90
     1024
 91
        4
280
     0
281
     0
  0
ENDSEC
  0
SECTION
  2
TABLES
  0
TABLE
  2
VPORT
  5
8
330
0
100
AcDbSymbolTable
 70
     1
  0
VPORT
  5
29
330
8
100
AcDbSymbolTableRecord
100
AcDbViewportTableRecord
  2
*Active
 70
     0
 10
0.0
 20
0.0
 11
1.0
 21
1.0
 12
716.1827960546148
 22
-400.4698662676469
 13
0.0
 23
0.0
 14
0.5
 24
0.5
 15
0.5
 25
0.5
 16
0.0
 26
0.0
 36
1.0
 17
0.0
 27
0.0
 37
0.0
 40
431.525833303519
 41
3.545558300153623
 42
50.0
 43
0.0
 44
0.0
 50
0.0
 51
0.0
 71
     0
 72
   100
 73
     1
 74
     3
 75
     0
 76
     0
 77
     0
 78
     0
281
     0
 65
     1
110
0.0
120
0.0
130
0.0
111
1.0
121
0.0
131
0.0
112
0.0
122
1.0
132
0.0
 79
     0
146
0.0
  0
ENDTAB
  0
TABLE
  2
LTYPE
  5
5
330
0
100
AcDbSymbolTable
 70
     1
  0
LTYPE
  5
14
330
5
100
AcDbSymbolTableRecord
100
AcDbLinetypeTableRecord
  2
ByBlock
 70
     0
  3

 72
    65
 73
     0
 40
0.0
  0
LTYPE
  5
15
330
5
100
AcDbSymbolTableRecord
100
AcDbLinetypeTableRecord
  2
ByLayer
 70
     0
  3

 72
    65
 73
     0
 40
0.0
  0
LTYPE
  5
16
330
5
100
AcDbSymbolTableRecord
100
AcDbLinetypeTableRecord
  2
Continuous
 70
     0
  3
Solid line
 72
    65
 73
     0
 40
0.0
  0
ENDTAB
  0
TABLE
  2
LAYER
  5
2
330
0
100
AcDbSymbolTable
 70
     2
  0
LAYER
  5
10
330
2
100
AcDbSymbolTableRecord
100
AcDbLayerTableRecord
  2
0
 70
     0
 62
     7
  6
Continuous
370
    -3
390
F
  0
LAYER
  5
40
330
2
100
AcDbSymbolTableRecord
100
AcDbLayerTableRecord
  2
Predefinito
 70
     0
 62
    18
420
        0
  6
Continuous
370
    -3
390
F
  0
ENDTAB
  0
TABLE
  2
STYLE
  5
3
330
0
100
AcDbSymbolTable
 70
     1
  0
STYLE
  5
11
330
3
100
AcDbSymbolTableRecord
100
AcDbTextStyleTableRecord
  2
Standard
 70
     0
 40
0.0
 41
1.0
 50
0.0
 71
     0
 42
0.2
  3
txt
  4

  0
ENDTAB
  0
TABLE
  2
VIEW
  5
6
330
0
100
AcDbSymbolTable
 70
     0
  0
ENDTAB
  0
TABLE
  2
UCS
  5
7
330
0
100
AcDbSymbolTable
 70
     0
  0
ENDTAB
  0
TABLE
  2
APPID
  5
9
330
0
100
AcDbSymbolTable
 70
     1
  0
APPID
  5
12
330
9
100
AcDbSymbolTableRecord
100
AcDbRegAppTableRecord
  2
ACAD
 70
     0
  0
ENDTAB
  0
TABLE
  2
DIMSTYLE
  5
A
330
0
100
AcDbSymbolTable
 70
     1
100
AcDbDimStyleTable
  0
DIMSTYLE
105
27
330
A
100
AcDbSymbolTableRecord
100
AcDbDimStyleTableRecord
  2
Standard
 70
     0
178
     0
340
11
  0
ENDTAB
  0
TABLE
  2
BLOCK_RECORD
  5
1
330
0
100
AcDbSymbolTable
 70
     1
  0
BLOCK_RECORD
  5
1F
330
1
100
AcDbSymbolTableRecord
100
AcDbBlockTableRecord
  2
*Model_Space
340
22
  0
BLOCK_RECORD
  5
1B
330
1
100
AcDbSymbolTableRecord
100
AcDbBlockTableRecord
  2
*Paper_Space
340
1E
  0
BLOCK_RECORD
  5
23
330
1
100
AcDbSymbolTableRecord
100
AcDbBlockTableRecord
  2
*Paper_Space0
340
26
  0
ENDTAB
  0
ENDSEC
  0
SECTION
  2
BLOCKS
  0
BLOCK
  5
20
330
1F
100
AcDbEntity
  8
0
100
AcDbBlockBegin
  2
*Model_Space
 70
     0
 10
0.0
 20
0.0
 30
0.0
  3
*Model_Space
  1

  0
ENDBLK
  5
21
330
1F
100
AcDbEntity
  8
0
100
AcDbBlockEnd
  0
BLOCK
  5
1C
330
1B
100
AcDbEntity
 67
     1
  8
0
100
AcDbBlockBegin
  2
*Paper_Space
 70
     0
 10
0.0
 20
0.0
 30
0.0
  3
*Paper_Space
  1

  0
ENDBLK
  5
1D
330
1B
100
AcDbEntity
 67
     1
  8
0
100
AcDbBlockEnd
  0
BLOCK
  5
24
330
23
100
AcDbEntity
  8
0
100
AcDbBlockBegin
  2
*Paper_Space0
 70
     0
 10
0.0
 20
0.0
 30
0.0
  3
*Paper_Space0
  1

  0
ENDBLK
  5
25
330
23
100
AcDbEntity
  8
0
100
AcDbBlockEnd
  0
ENDSEC
  0
SECTION
  2
ENTITIES
  0
LINE
  5
41
330
1F
100
AcDbEntity
  8
Predefinito
100
AcDbLine
 10
1422.182796054615
 20
-194.4375950404317
 30
0.0
 11
1466.182796054614
 21
-194.4375950404317
 31
0.0
  0
LINE
  5
42
330
1F
100
AcDbEntity
  8
Predefinito
100
AcDbLine
 10
1422.182796054615
 20
-234.4375950404317
 30
0.0
 11
1422.182796054615
 21
-194.4375950404317
 31
0.0
  0
LINE
  5
43
330
1F
100
AcDbEntity
  8
Predefinito
100
AcDbLine
 10
1447.182796054615
 20
-234.4375950404317
 30
0.0
 11
1422.182796054615
 21
-234.4375950404317
 31
0.0
  0
LINE
  5
44
330
1F
100
AcDbEntity
  8
Predefinito
100
AcDbLine
 10
1447.182796054615
 20
-224.4375950404317
 30
0.0
 11
1447.182796054615
 21
-234.4375950404317
 31
0.0
  0
LINE
  5
45
330
1F
100
AcDbEntity
  8
Predefinito
100
AcDbLine
 10
1432.182796054615
 20
-224.4375950404317
 30
0.0
 11
1447.182796054615
 21
-224.4375950404317
 31
0.0
  0
LINE
  5
46
330
1F
100
AcDbEntity
  8
Predefinito
100
AcDbLine
 10
1432.182796054615
 20
-204.4375950404317
 30
0.0
 11
1432.182796054615
 21
-224.4375950404317
 31
0.0
  0
LINE
  5
47
330
1F
100
AcDbEntity
  8
Predefinito
100
AcDbLine
 10
1466.182796054615
 20
-204.4375950404317
 30
0.0
 11
1432.182796054615
 21
-204.4375950404317
 31
0.0
  0
LINE
  5
48
330
1F
100
AcDbEntity
  8
Predefinito
100
AcDbLine
 10
-33.81720394538549
 20
-251.4375950404317
 30
0.0
 11
1466.182796054615
 21
-251.4375950404317
 31
0.0
  0
LINE
  5
49
330
1F
100
AcDbEntity
  8
Predefinito
100
AcDbLine
 10
-33.81720394538549
 20
-191.4375950404317
 30
0.0
 11
1466.182796054615
 21
-191.4375950404317
 31
0.0
  0
POLYLINE
  5
4A
330
1F
100
AcDbEntity
  8
Predefinito
100
AcDb2dPolyline
 66
     1
 10
0.0
 20
0.0
 30
0.0
  0
VERTEX
  5
4B
330
4A
100
AcDbEntity
  8
Predefinito
100
AcDbVertex
100
AcDb2dVertex
 10
-33.81720394538549
 20
-253.9375950404317
 30
0.0
  0
VERTEX
  5
4C
330
4A
100
AcDbEntity
  8
Predefinito
100
AcDbVertex
100
AcDb2dVertex
 10
1466.182796054615
 20
-253.9375950404317
 30
0.0
  0
VERTEX
  5
4D
330
4A
100
AcDbEntity
  8
Predefinito
100
AcDbVertex
100
AcDb2dVertex
 10
1466.182796054615
 20
-188.9375950404317
 30
0.0
  0
VERTEX
  5
4E
330
4A
100
AcDbEntity
  8
Predefinito
100
AcDbVertex
100
AcDb2dVertex
 10
-33.81720394538549
 20
-188.9375950404317
 30
0.0
  0
VERTEX
  5
4F
330
4A
100
AcDbEntity
  8
Predefinito
100
AcDbVertex
100
AcDb2dVertex
 10
-33.81720394538549
 20
-253.9375950404317
 30
0.0
  0
SEQEND
  5
50
330
4A
100
AcDbEntity
  8
Predefinito
  0
LINE
  5
51
330
1F
100
AcDbEntity
  8
Predefinito
100
AcDbLine
 10
-17.81720394538551
 20
-234.4375950404317
 30
0.0
 11
-17.81720394538551
 21
-194.4375950404317
 31
0.0
  0
LINE
  5
52
330
1F
100
AcDbEntity
  8
Predefinito
100
AcDbLine
 10
7.182796054614485
 20
-234.4375950404317
 30
0.0
 11
-17.81720394538551
 21
-234.4375950404317
 31
0.0
  0
LINE
  5
53
330
1F
100
AcDbEntity
  8
Predefinito
100
AcDbLine
 10
7.182796054614485
 20
-224.4375950404317
 30
0.0
 11
7.182796054614485
 21
-234.4375950404317
 31
0.0
  0
LINE
  5
54
330
1F
100
AcDbEntity
  8
Predefinito
100
AcDbLine
 10
-7.817203945385515
 20
-224.4375950404317
 30
0.0
 11
7.182796054614485
 21
-224.4375950404317
 31
0.0
  0
LINE
  5
55
330
1F
100
AcDbEntity
  8
Predefinito
100
AcDbLine
 10
-7.817203945385515
 20
-204.4375950404317
 30
0.0
 11
-7.817203945385515
 21
-224.4375950404317
 31
0.0
  0
LINE
  5
56
330
1F
100
AcDbEntity
  8
Predefinito
100
AcDbLine
 10
27.18279605461449
 20
-204.4375950404317
 30
0.0
 11
-7.817203945385515
 21
-204.4375950404317
 31
0.0
  0
LINE
  5
57
330
1F
100
AcDbEntity
  8
Predefinito
100
AcDbLine
 10
27.18279605461449
 20
-249.4375950404317
 30
0.0
 11
27.18279605461449
 21
-204.4375950404317
 31
0.0
  0
LINE
  5
58
330
1F
100
AcDbEntity
  8
Predefinito
100
AcDbLine
 10
82.18279605461449
 20
-249.4375950404317
 30
0.0
 11
27.18279605461437
 21
-249.4375950404317
 31
0.0
  0
LINE
  5
59
330
1F
100
AcDbEntity
  8
Predefinito
100
AcDbLine
 10
82.18279605461449
 20
-209.4375950404317
 30
0.0
 11
82.18279605461449
 21
-249.4375950404317
 31
0.0
  0
LINE
  5
5A
330
1F
100
AcDbEntity
  8
Predefinito
100
AcDbLine
 10
57.18279605461449
 20
-209.4375950404317
 30
0.0
 11
82.18279605461449
 21
-209.4375950404317
 31
0.0
  0
LINE
  5
5B
330
1F
100
AcDbEntity
  8
Predefinito
100
AcDbLine
 10
57.18279605461449
 20
-219.4375950404317
 30
0.0
 11
57.18279605461449
 21
-209.4375950404317
 31
0.0
  0
LINE
  5
5C
330
1F
100
AcDbEntity
  8
Predefinito
100
AcDbLine
 10
72.18279605461449
 20
-219.4375950404317
 30
0.0
 11
57.18279605461449
 21
-219.4375950404317
 31
0.0
  0
LINE
  5
5D
330
1F
100
AcDbEntity
  8
Predefinito
100
AcDbLine
 10
72.18279605461449
 20
-239.4375950404317
 30
0.0
 11
72.18279605461449
 21
-219.4375950404317
 31
0.0
  0
LINE
  5
5E
330
1F
100
AcDbEntity
  8
Predefinito
100
AcDbLine
 10
37.18279605461449
 20
-239.4375950404317
 30
0.0
 11
72.18279605461449
 21
-239.4375950404317
 31
0.0
  0
LINE
  5
5F
330
1F
100
AcDbEntity
  8
Predefinito
100
AcDbLine
 10
37.18279605461449
 20
-194.4375950404317
 30
0.0
 11
37.18279605461449
 21
-239.4375950404317
 31
0.0
  0
LINE
  5
60
330
1F
100
AcDbEntity
  8
Predefinito
100
AcDbLine
 10
-17.81720394538551
 20
-194.4375950404317
 30
0.0
 11
37.18279605461449
 21
-194.4375950404317
 31
0.0
  0
LINE
  5
61
330
1F
100
AcDbEntity
  8
Predefinito
100
AcDbLine
 10
-32.81720394538561
 20
-249.4375950404317
 30
0.0
 11
-32.81720394538549
 21
-194.4375950404315
 31
0.0
  0
LINE
  5
62
330
1F
100
AcDbEntity
  8
Predefinito
100
AcDbLine
 10
22.18279605461451
 20
-249.4375950404317
 30
0.0
 11
-32.81720394538561
 21
-249.4375950404317
 31
0.0
  0
LINE
  5
63
330
1F
100
AcDbEntity
  8
Predefinito
100
AcDbLine
 10
22.18279605461451
 20
-209.4375950404317
 30
0.0
 11
22.18279605461451
 21
-249.4375950404317
 31
0.0
  0
LINE
  5
64
330
1F
100
AcDbEntity
  8
Predefinito
100
AcDbLine
 10
-2.817203945385494
 20
-209.4375950404317
 30
0.0
 11
22.18279605461451
 21
-209.4375950404317
 31
0.0
  0
LINE
  5
65
330
1F
100
AcDbEntity
  8
Predefinito
100
AcDbLine
 10
-2.817203945385494
 20
-219.4375950404317
 30
0.0
 11
-2.817203945385494
 21
-209.4375950404317
 31
0.0
  0
LINE
  5
66
330
1F
100
AcDbEntity
  8
Predefinito
100
AcDbLine
 10
12.18279605461451
 20
-219.4375950404317
 30
0.0
 11
-2.817203945385494
 21
-219.4375950404317
 31
0.0
  0
LINE
  5
67
330
1F
100
AcDbEntity
  8
Predefinito
100
AcDbLine
 10
12.18279605461451
 20
-239.4375950404317
 30
0.0
 11
12.18279605461451
 21
-219.4375950404317
 31
0.0
  0
LINE
  5
68
330
1F
100
AcDbEntity
  8
Predefinito
100
AcDbLine
 10
-22.81720394538549
 20
-239.4375950404317
 30
0.0
 11
12.18279605461451
 21
-239.4375950404317
 31
0.0
  0
LINE
  5
69
330
1F
100
AcDbEntity
  8
Predefinito
100
AcDbLine
 10
-22.81720394538549
 20
-194.4375950404317
 30
0.0
 11
-22.81720394538549
 21
-239.4375950404317
 31
0.0
  0
LINE
  5
6A
330
1F
100
AcDbEntity
  8
Predefinito
100
AcDbLine
 10
-32.81720394538549
 20
-194.4375950404315
 30
0.0
 11
-22.81720394538549
 21
-194.4375950404317
 31
0.0
  0
LINE
  5
6B
330
1F
100
AcDbEntity
  8
Predefinito
100
AcDbLine
 10
42.18279605461449
 20
-234.4375950404317
 30
0.0
 11
42.18279605461449
 21
-194.4375950404317
 31
0.0
  0
LINE
  5
6C
330
1F
100
AcDbEntity
  8
Predefinito
100
AcDbLine
 10
67.18279605461449
 20
-234.4375950404317
 30
0.0
 11
42.18279605461449
 21
-234.4375950404317
 31
0.0
  0
LINE
  5
6D
330
1F
100
AcDbEntity
  8
Predefinito
100
AcDbLine
 10
67.18279605461449
 20
-224.4375950404317
 30
0.0
 11
67.18279605461449
 21
-234.4375950404317
 31
0.0
  0
LINE
  5
6E
330
1F
100
AcDbEntity
  8
Predefinito
100
AcDbLine
 10
52.18279605461449
 20
-224.4375950404317
 30
0.0
 11
67.18279605461449
 21
-224.4375950404317
 31
0.0
  0
LINE
  5
6F
330
1F
100
AcDbEntity
  8
Predefinito
100
AcDbLine
 10
52.18279605461449
 20
-204.4375950404317
 30
0.0
 11
52.18279605461449
 21
-224.4375950404317
 31
0.0
  0
LINE
  5
70
330
1F
100
AcDbEntity
  8
Predefinito
100
AcDbLine
 10
87.18279605461449
 20
-204.4375950404317
 30
0.0
 11
52.18279605461449
 21
-204.4375950404317
 31
0.0
  0
LINE
  5
71
330
1F
100
AcDbEntity
  8
Predefinito
100
AcDbLine
 10
87.18279605461449
 20
-249.4375950404317
 30
0.0
 11
87.18279605461449
 21
-204.4375950404317
 31
0.0
  0
LINE
  5
72
330
1F
100
AcDbEntity
  8
Predefinito
100
AcDbLine
 10
142.1827960546145
 20
-249.4375950404317
 30
0.0
 11
87.18279605461437
 21
-249.4375950404317
 31
0.0
  0
LINE
  5
73
330
1F
100
AcDbEntity
  8
Predefinito
100
AcDbLine
 10
142.1827960546145
 20
-209.4375950404317
 30
0.0
 11
142.1827960546145
 21
-249.4375950404317
 31
0.0
  0
LINE
  5
74
330
1F
100
AcDbEntity
  8
Predefinito
100
AcDbLine
 10
117.1827960546145
 20
-209.4375950404317
 30
0.0
 11
142.1827960546145
 21
-209.4375950404317
 31
0.0
  0
LINE
  5
75
330
1F
100
AcDbEntity
  8
Predefinito
100
AcDbLine
 10
117.1827960546145
 20
-219.4375950404317
 30
0.0
 11
117.1827960546145
 21
-209.4375950404317
 31
0.0
  0
LINE
  5
76
330
1F
100
AcDbEntity
  8
Predefinito
100
AcDbLine
 10
132.1827960546145
 20
-219.4375950404317
 30
0.0
 11
117.1827960546145
 21
-219.4375950404317
 31
0.0
  0
LINE
  5
77
330
1F
100
AcDbEntity
  8
Predefinito
100
AcDbLine
 10
132.1827960546145
 20
-239.4375950404317
 30
0.0
 11
132.1827960546145
 21
-219.4375950404317
 31
0.0
  0
LINE
  5
78
330
1F
100
AcDbEntity
  8
Predefinito
100
AcDbLine
 10
97.18279605461449
 20
-239.4375950404317
 30
0.0
 11
132.1827960546145
 21
-239.4375950404317
 31
0.0
  0
LINE
  5
79
330
1F
100
AcDbEntity
  8
Predefinito
100
AcDbLine
 10
97.18279605461449
 20
-194.4375950404317
 30
0.0
 11
97.18279605461449
 21
-239.4375950404317
 31
0.0
  0
LINE
  5
7A
330
1F
100
AcDbEntity
  8
Predefinito
100
AcDbLine
 10
42.18279605461449
 20
-194.4375950404317
 30
0.0
 11
97.18279605461449
 21
-194.4375950404317
 31
0.0
  0
LINE
  5
7B
330
1F
100
AcDbEntity
  8
Predefinito
100
AcDbLine
 10
102.1827960546145
 20
-234.4375950404317
 30
0.0
 11
102.1827960546145
 21
-194.4375950404317
 31
0.0
  0
LINE
  5
7C
330
1F
100
AcDbEntity
  8
Predefinito
100
AcDbLine
 10
127.1827960546145
 20
-234.4375950404317
 30
0.0
 11
102.1827960546145
 21
-234.4375950404317
 31
0.0
  0
LINE
  5
7D
330
1F
100
AcDbEntity
  8
Predefinito
100
AcDbLine
 10
127.1827960546145
 20
-224.4375950404317
 30
0.0
 11
127.1827960546145
 21
-234.4375950404317
 31
0.0
  0
LINE
  5
7E
330
1F
100
AcDbEntity
  8
Predefinito
100
AcDbLine
 10
112.1827960546145
 20
-224.4375950404317
 30
0.0
 11
127.1827960546145
 21
-224.4375950404317
 31
0.0
  0
LINE
  5
7F
330
1F
100
AcDbEntity
  8
Predefinito
100
AcDbLine
 10
112.1827960546145
 20
-204.4375950404317
 30
0.0
 11
112.1827960546145
 21
-224.4375950404317
 31
0.0
  0
LINE
  5
80
330
1F
100
AcDbEntity
  8
Predefinito
100
AcDbLine
 10
147.1827960546145
 20
-204.4375950404317
 30
0.0
 11
112.1827960546145
 21
-204.4375950404317
 31
0.0
  0
LINE
  5
81
330
1F
100
AcDbEntity
  8
Predefinito
100
AcDbLine
 10
147.1827960546145
 20
-249.4375950404317
 30
0.0
 11
147.1827960546145
 21
-204.4375950404317
 31
0.0
  0
LINE
  5
82
330
1F
100
AcDbEntity
  8
Predefinito
100
AcDbLine
 10
202.1827960546145
 20
-249.4375950404317
 30
0.0
 11
147.1827960546144
 21
-249.4375950404317
 31
0.0
  0
LINE
  5
83
330
1F
100
AcDbEntity
  8
Predefinito
100
AcDbLine
 10
202.1827960546145
 20
-209.4375950404317
 30
0.0
 11
202.1827960546145
 21
-249.4375950404317
 31
0.0
  0
LINE
  5
84
330
1F
100
AcDbEntity
  8
Predefinito
100
AcDbLine
 10
177.1827960546145
 20
-209.4375950404317
 30
0.0
 11
202.1827960546145
 21
-209.4375950404317
 31
0.0
  0
LINE
  5
85
330
1F
100
AcDbEntity
  8
Predefinito
100
AcDbLine
 10
177.1827960546145
 20
-219.4375950404317
 30
0.0
 11
177.1827960546145
 21
-209.4375950404317
 31
0.0
  0
LINE
  5
86
330
1F
100
AcDbEntity
  8
Predefinito
100
AcDbLine
 10
192.1827960546145
 20
-219.4375950404317
 30
0.0
 11
177.1827960546145
 21
-219.4375950404317
 31
0.0
  0
LINE
  5
87
330
1F
100
AcDbEntity
  8
Predefinito
100
AcDbLine
 10
192.1827960546145
 20
-239.4375950404317
 30
0.0
 11
192.1827960546145
 21
-219.4375950404317
 31
0.0
  0
LINE
  5
88
330
1F
100
AcDbEntity
  8
Predefinito
100
AcDbLine
 10
157.1827960546145
 20
-239.4375950404317
 30
0.0
 11
192.1827960546145
 21
-239.4375950404317
 31
0.0
  0
LINE
  5
89
330
1F
100
AcDbEntity
  8
Predefinito
100
AcDbLine
 10
157.1827960546145
 20
-194.4375950404317
 30
0.0
 11
157.1827960546145
 21
-239.4375950404317
 31
0.0
  0
LINE
  5
8A
330
1F
100
AcDbEntity
  8
Predefinito
100
AcDbLine
 10
102.1827960546145
 20
-194.4375950404317
 30
0.0
 11
157.1827960546145
 21
-194.4375950404317
 31
0.0
  0
LINE
  5
8B
330
1F
100
AcDbEntity
  8
Predefinito
100
AcDbLine
 10
162.1827960546145
 20
-234.4375950404317
 30
0.0
 11
162.1827960546145
 21
-194.4375950404317
 31
0.0
  0
LINE
  5
8C
330
1F
100
AcDbEntity
  8
Predefinito
100
AcDbLine
 10
187.1827960546145
 20
-234.4375950404317
 30
0.0
 11
162.1827960546145
 21
-234.4375950404317
 31
0.0
  0
LINE
  5
8D
330
1F
100
AcDbEntity
  8
Predefinito
100
AcDbLine
 10
187.1827960546145
 20
-224.4375950404317
 30
0.0
 11
187.1827960546145
 21
-234.4375950404317
 31
0.0
  0
LINE
  5
8E
330
1F
100
AcDbEntity
  8
Predefinito
100
AcDbLine
 10
172.1827960546145
 20
-224.4375950404317
 30
0.0
 11
187.1827960546145
 21
-224.4375950404317
 31
0.0
  0
LINE
  5
8F
330
1F
100
AcDbEntity
  8
Predefinito
100
AcDbLine
 10
172.1827960546145
 20
-204.4375950404317
 30
0.0
 11
172.1827960546145
 21
-224.4375950404317
 31
0.0
  0
LINE
  5
90
330
1F
100
AcDbEntity
  8
Predefinito
100
AcDbLine
 10
207.1827960546145
 20
-204.4375950404317
 30
0.0
 11
172.1827960546145
 21
-204.4375950404317
 31
0.0
  0
LINE
  5
91
330
1F
100
AcDbEntity
  8
Predefinito
100
AcDbLine
 10
207.1827960546145
 20
-249.4375950404317
 30
0.0
 11
207.1827960546145
 21
-204.4375950404317
 31
0.0
  0
LINE
  5
92
330
1F
100
AcDbEntity
  8
Predefinito
100
AcDbLine
 10
262.1827960546145
 20
-249.4375950404317
 30
0.0
 11
207.1827960546144
 21
-249.4375950404317
 31
0.0
  0
LINE
  5
93
330
1F
100
AcDbEntity
  8
Predefinito
100
AcDbLine
 10
262.1827960546145
 20
-209.4375950404317
 30
0.0
 11
262.1827960546145
 21
-249.4375950404317
 31
0.0
  0
LINE
  5
94
330
1F
100
AcDbEntity
  8
Predefinito
100
AcDbLine
 10
237.1827960546145
 20
-209.4375950404317
 30
0.0
 11
262.1827960546145
 21
-209.4375950404317
 31
0.0
  0
LINE
  5
95
330
1F
100
AcDbEntity
  8
Predefinito
100
AcDbLine
 10
237.1827960546145
 20
-219.4375950404317
 30
0.0
 11
237.1827960546145
 21
-209.4375950404317
 31
0.0
  0
LINE
  5
96
330
1F
100
AcDbEntity
  8
Predefinito
100
AcDbLine
 10
252.1827960546145
 20
-219.4375950404317
 30
0.0
 11
237.1827960546145
 21
-219.4375950404317
 31
0.0
  0
LINE
  5
97
330
1F
100
AcDbEntity
  8
Predefinito
100
AcDbLine
 10
252.1827960546145
 20
-239.4375950404317
 30
0.0
 11
252.1827960546145
 21
-219.4375950404317
 31
0.0
  0
LINE
  5
98
330
1F
100
AcDbEntity
  8
Predefinito
100
AcDbLine
 10
217.1827960546145
 20
-239.4375950404317
 30
0.0
 11
252.1827960546145
 21
-239.4375950404317
 31
0.0
  0
LINE
  5
99
330
1F
100
AcDbEntity
  8
Predefinito
100
AcDbLine
 10
217.1827960546145
 20
-194.4375950404317
 30
0.0
 11
217.1827960546145
 21
-239.4375950404317
 31
0.0
  0
LINE
  5
9A
330
1F
100
AcDbEntity
  8
Predefinito
100
AcDbLine
 10
162.1827960546145
 20
-194.4375950404317
 30
0.0
 11
217.1827960546145
 21
-194.4375950404317
 31
0.0
  0
LINE
  5
9B
330
1F
100
AcDbEntity
  8
Predefinito
100
AcDbLine
 10
222.1827960546145
 20
-234.4375950404317
 30
0.0
 11
222.1827960546145
 21
-194.4375950404317
 31
0.0
  0
LINE
  5
9C
330
1F
100
AcDbEntity
  8
Predefinito
100
AcDbLine
 10
247.1827960546145
 20
-234.4375950404317
 30
0.0
 11
222.1827960546145
 21
-234.4375950404317
 31
0.0
  0
LINE
  5
9D
330
1F
100
AcDbEntity
  8
Predefinito
100
AcDbLine
 10
247.1827960546145
 20
-224.4375950404317
 30
0.0
 11
247.1827960546145
 21
-234.4375950404317
 31
0.0
  0
LINE
  5
9E
330
1F
100
AcDbEntity
  8
Predefinito
100
AcDbLine
 10
232.1827960546145
 20
-224.4375950404317
 30
0.0
 11
247.1827960546145
 21
-224.4375950404317
 31
0.0
  0
LINE
  5
9F
330
1F
100
AcDbEntity
  8
Predefinito
100
AcDbLine
 10
232.1827960546145
 20
-204.4375950404317
 30
0.0
 11
232.1827960546145
 21
-224.4375950404317
 31
0.0
  0
LINE
  5
A0
330
1F
100
AcDbEntity
  8
Predefinito
100
AcDbLine
 10
267.1827960546145
 20
-204.4375950404317
 30
0.0
 11
232.1827960546145
 21
-204.4375950404317
 31
0.0
  0
LINE
  5
A1
330
1F
100
AcDbEntity
  8
Predefinito
100
AcDbLine
 10
267.1827960546145
 20
-249.4375950404317
 30
0.0
 11
267.1827960546145
 21
-204.4375950404317
 31
0.0
  0
LINE
  5
A2
330
1F
100
AcDbEntity
  8
Predefinito
100
AcDbLine
 10
322.1827960546145
 20
-249.4375950404317
 30
0.0
 11
267.1827960546144
 21
-249.4375950404317
 31
0.0
  0
LINE
  5
A3
330
1F
100
AcDbEntity
  8
Predefinito
100
AcDbLine
 10
322.1827960546145
 20
-209.4375950404317
 30
0.0
 11
322.1827960546145
 21
-249.4375950404317
 31
0.0
  0
LINE
  5
A4
330
1F
100
AcDbEntity
  8
Predefinito
100
AcDbLine
 10
297.1827960546145
 20
-209.4375950404317
 30
0.0
 11
322.1827960546145
 21
-209.4375950404317
 31
0.0
  0
LINE
  5
A5
330
1F
100
AcDbEntity
  8
Predefinito
100
AcDbLine
 10
297.1827960546145
 20
-219.4375950404317
 30
0.0
 11
297.1827960546145
 21
-209.4375950404317
 31
0.0
  0
LINE
  5
A6
330
1F
100
AcDbEntity
  8
Predefinito
100
AcDbLine
 10
312.1827960546145
 20
-219.4375950404317
 30
0.0
 11
297.1827960546145
 21
-219.4375950404317
 31
0.0
  0
LINE
  5
A7
330
1F
100
AcDbEntity
  8
Predefinito
100
AcDbLine
 10
312.1827960546145
 20
-239.4375950404317
 30
0.0
 11
312.1827960546145
 21
-219.4375950404317
 31
0.0
  0
LINE
  5
A8
330
1F
100
AcDbEntity
  8
Predefinito
100
AcDbLine
 10
277.1827960546145
 20
-239.4375950404317
 30
0.0
 11
312.1827960546145
 21
-239.4375950404317
 31
0.0
  0
LINE
  5
A9
330
1F
100
AcDbEntity
  8
Predefinito
100
AcDbLine
 10
277.1827960546145
 20
-194.4375950404317
 30
0.0
 11
277.1827960546145
 21
-239.4375950404317
 31
0.0
  0
LINE
  5
AA
330
1F
100
AcDbEntity
  8
Predefinito
100
AcDbLine
 10
222.1827960546145
 20
-194.4375950404317
 30
0.0
 11
277.1827960546145
 21
-194.4375950404317
 31
0.0
  0
LINE
  5
AB
330
1F
100
AcDbEntity
  8
Predefinito
100
AcDbLine
 10
282.1827960546145
 20
-234.4375950404317
 30
0.0
 11
282.1827960546145
 21
-194.4375950404317
 31
0.0
  0
LINE
  5
AC
330
1F
100
AcDbEntity
  8
Predefinito
100
AcDbLine
 10
307.1827960546145
 20
-234.4375950404317
 30
0.0
 11
282.1827960546145
 21
-234.4375950404317
 31
0.0
  0
LINE
  5
AD
330
1F
100
AcDbEntity
  8
Predefinito
100
AcDbLine
 10
307.1827960546145
 20
-224.4375950404317
 30
0.0
 11
307.1827960546145
 21
-234.4375950404317
 31
0.0
  0
LINE
  5
AE
330
1F
100
AcDbEntity
  8
Predefinito
100
AcDbLine
 10
292.1827960546145
 20
-224.4375950404317
 30
0.0
 11
307.1827960546145
 21
-224.4375950404317
 31
0.0
  0
LINE
  5
AF
330
1F
100
AcDbEntity
  8
Predefinito
100
AcDbLine
 10
292.1827960546145
 20
-204.4375950404317
 30
0.0
 11
292.1827960546145
 21
-224.4375950404317
 31
0.0
  0
LINE
  5
B0
330
1F
100
AcDbEntity
  8
Predefinito
100
AcDbLine
 10
327.1827960546145
 20
-204.4375950404317
 30
0.0
 11
292.1827960546145
 21
-204.4375950404317
 31
0.0
  0
LINE
  5
B1
330
1F
100
AcDbEntity
  8
Predefinito
100
AcDbLine
 10
327.1827960546145
 20
-249.4375950404317
 30
0.0
 11
327.1827960546145
 21
-204.4375950404317
 31
0.0
  0
LINE
  5
B2
330
1F
100
AcDbEntity
  8
Predefinito
100
AcDbLine
 10
382.1827960546145
 20
-249.4375950404317
 30
0.0
 11
327.1827960546144
 21
-249.4375950404317
 31
0.0
  0
LINE
  5
B3
330
1F
100
AcDbEntity
  8
Predefinito
100
AcDbLine
 10
382.1827960546145
 20
-209.4375950404317
 30
0.0
 11
382.1827960546145
 21
-249.4375950404317
 31
0.0
  0
LINE
  5
B4
330
1F
100
AcDbEntity
  8
Predefinito
100
AcDbLine
 10
357.1827960546145
 20
-209.4375950404317
 30
0.0
 11
382.1827960546145
 21
-209.4375950404317
 31
0.0
  0
LINE
  5
B5
330
1F
100
AcDbEntity
  8
Predefinito
100
AcDbLine
 10
357.1827960546145
 20
-219.4375950404317
 30
0.0
 11
357.1827960546145
 21
-209.4375950404317
 31
0.0
  0
LINE
  5
B6
330
1F
100
AcDbEntity
  8
Predefinito
100
AcDbLine
 10
372.1827960546145
 20
-219.4375950404317
 30
0.0
 11
357.1827960546145
 21
-219.4375950404317
 31
0.0
  0
LINE
  5
B7
330
1F
100
AcDbEntity
  8
Predefinito
100
AcDbLine
 10
372.1827960546145
 20
-239.4375950404317
 30
0.0
 11
372.1827960546145
 21
-219.4375950404317
 31
0.0
  0
LINE
  5
B8
330
1F
100
AcDbEntity
  8
Predefinito
100
AcDbLine
 10
337.1827960546145
 20
-239.4375950404317
 30
0.0
 11
372.1827960546145
 21
-239.4375950404317
 31
0.0
  0
LINE
  5
B9
330
1F
100
AcDbEntity
  8
Predefinito
100
AcDbLine
 10
337.1827960546145
 20
-194.4375950404317
 30
0.0
 11
337.1827960546145
 21
-239.4375950404317
 31
0.0
  0
LINE
  5
BA
330
1F
100
AcDbEntity
  8
Predefinito
100
AcDbLine
 10
282.1827960546145
 20
-194.4375950404317
 30
0.0
 11
337.1827960546145
 21
-194.4375950404317
 31
0.0
  0
LINE
  5
BB
330
1F
100
AcDbEntity
  8
Predefinito
100
AcDbLine
 10
342.1827960546145
 20
-234.4375950404317
 30
0.0
 11
342.1827960546145
 21
-194.4375950404317
 31
0.0
  0
LINE
  5
BC
330
1F
100
AcDbEntity
  8
Predefinito
100
AcDbLine
 10
367.1827960546145
 20
-234.4375950404317
 30
0.0
 11
342.1827960546145
 21
-234.4375950404317
 31
0.0
  0
LINE
  5
BD
330
1F
100
AcDbEntity
  8
Predefinito
100
AcDbLine
 10
367.1827960546145
 20
-224.4375950404317
 30
0.0
 11
367.1827960546145
 21
-234.4375950404317
 31
0.0
  0
LINE
  5
BE
330
1F
100
AcDbEntity
  8
Predefinito
100
AcDbLine
 10
352.1827960546145
 20
-224.4375950404317
 30
0.0
 11
367.1827960546145
 21
-224.4375950404317
 31
0.0
  0
LINE
  5
BF
330
1F
100
AcDbEntity
  8
Predefinito
100
AcDbLine
 10
352.1827960546145
 20
-204.4375950404317
 30
0.0
 11
352.1827960546145
 21
-224.4375950404317
 31
0.0
  0
LINE
  5
C0
330
1F
100
AcDbEntity
  8
Predefinito
100
AcDbLine
 10
387.1827960546145
 20
-204.4375950404317
 30
0.0
 11
352.1827960546145
 21
-204.4375950404317
 31
0.0
  0
LINE
  5
C1
330
1F
100
AcDbEntity
  8
Predefinito
100
AcDbLine
 10
387.1827960546145
 20
-249.4375950404317
 30
0.0
 11
387.1827960546145
 21
-204.4375950404317
 31
0.0
  0
LINE
  5
C2
330
1F
100
AcDbEntity
  8
Predefinito
100
AcDbLine
 10
442.1827960546145
 20
-249.4375950404317
 30
0.0
 11
387.1827960546144
 21
-249.4375950404317
 31
0.0
  0
LINE
  5
C3
330
1F
100
AcDbEntity
  8
Predefinito
100
AcDbLine
 10
442.1827960546145
 20
-209.4375950404317
 30
0.0
 11
442.1827960546145
 21
-249.4375950404317
 31
0.0
  0
LINE
  5
C4
330
1F
100
AcDbEntity
  8
Predefinito
100
AcDbLine
 10
417.1827960546145
 20
-209.4375950404317
 30
0.0
 11
442.1827960546145
 21
-209.4375950404317
 31
0.0
  0
LINE
  5
C5
330
1F
100
AcDbEntity
  8
Predefinito
100
AcDbLine
 10
417.1827960546145
 20
-219.4375950404317
 30
0.0
 11
417.1827960546145
 21
-209.4375950404317
 31
0.0
  0
LINE
  5
C6
330
1F
100
AcDbEntity
  8
Predefinito
100
AcDbLine
 10
432.1827960546145
 20
-219.4375950404317
 30
0.0
 11
417.1827960546145
 21
-219.4375950404317
 31
0.0
  0
LINE
  5
C7
330
1F
100
AcDbEntity
  8
Predefinito
100
AcDbLine
 10
432.1827960546145
 20
-239.4375950404317
 30
0.0
 11
432.1827960546145
 21
-219.4375950404317
 31
0.0
  0
LINE
  5
C8
330
1F
100
AcDbEntity
  8
Predefinito
100
AcDbLine
 10
397.1827960546145
 20
-239.4375950404317
 30
0.0
 11
432.1827960546145
 21
-239.4375950404317
 31
0.0
  0
LINE
  5
C9
330
1F
100
AcDbEntity
  8
Predefinito
100
AcDbLine
 10
397.1827960546145
 20
-194.4375950404317
 30
0.0
 11
397.1827960546145
 21
-239.4375950404317
 31
0.0
  0
LINE
  5
CA
330
1F
100
AcDbEntity
  8
Predefinito
100
AcDbLine
 10
342.1827960546145
 20
-194.4375950404317
 30
0.0
 11
397.1827960546145
 21
-194.4375950404317
 31
0.0
  0
LINE
  5
CB
330
1F
100
AcDbEntity
  8
Predefinito
100
AcDbLine
 10
402.1827960546145
 20
-234.4375950404317
 30
0.0
 11
402.1827960546145
 21
-194.4375950404317
 31
0.0
  0
LINE
  5
CC
330
1F
100
AcDbEntity
  8
Predefinito
100
AcDbLine
 10
427.1827960546145
 20
-234.4375950404317
 30
0.0
 11
402.1827960546145
 21
-234.4375950404317
 31
0.0
  0
LINE
  5
CD
330
1F
100
AcDbEntity
  8
Predefinito
100
AcDbLine
 10
427.1827960546145
 20
-224.4375950404317
 30
0.0
 11
427.1827960546145
 21
-234.4375950404317
 31
0.0
  0
LINE
  5
CE
330
1F
100
AcDbEntity
  8
Predefinito
100
AcDbLine
 10
412.1827960546145
 20
-224.4375950404317
 30
0.0
 11
427.1827960546145
 21
-224.4375950404317
 31
0.0
  0
LINE
  5
CF
330
1F
100
AcDbEntity
  8
Predefinito
100
AcDbLine
 10
412.1827960546145
 20
-204.4375950404317
 30
0.0
 11
412.1827960546145
 21
-224.4375950404317
 31
0.0
  0
LINE
  5
D0
330
1F
100
AcDbEntity
  8
Predefinito
100
AcDbLine
 10
447.1827960546145
 20
-204.4375950404317
 30
0.0
 11
412.1827960546145
 21
-204.4375950404317
 31
0.0
  0
LINE
  5
D1
330
1F
100
AcDbEntity
  8
Predefinito
100
AcDbLine
 10
447.1827960546145
 20
-249.4375950404317
 30
0.0
 11
447.1827960546145
 21
-204.4375950404317
 31
0.0
  0
LINE
  5
D2
330
1F
100
AcDbEntity
  8
Predefinito
100
AcDbLine
 10
502.1827960546145
 20
-249.4375950404317
 30
0.0
 11
447.1827960546144
 21
-249.4375950404317
 31
0.0
  0
LINE
  5
D3
330
1F
100
AcDbEntity
  8
Predefinito
100
AcDbLine
 10
502.1827960546145
 20
-209.4375950404317
 30
0.0
 11
502.1827960546145
 21
-249.4375950404317
 31
0.0
  0
LINE
  5
D4
330
1F
100
AcDbEntity
  8
Predefinito
100
AcDbLine
 10
477.1827960546145
 20
-209.4375950404317
 30
0.0
 11
502.1827960546145
 21
-209.4375950404317
 31
0.0
  0
LINE
  5
D5
330
1F
100
AcDbEntity
  8
Predefinito
100
AcDbLine
 10
477.1827960546145
 20
-219.4375950404317
 30
0.0
 11
477.1827960546145
 21
-209.4375950404317
 31
0.0
  0
LINE
  5
D6
330
1F
100
AcDbEntity
  8
Predefinito
100
AcDbLine
 10
492.1827960546145
 20
-219.4375950404317
 30
0.0
 11
477.1827960546145
 21
-219.4375950404317
 31
0.0
  0
LINE
  5
D7
330
1F
100
AcDbEntity
  8
Predefinito
100
AcDbLine
 10
492.1827960546145
 20
-239.4375950404317
 30
0.0
 11
492.1827960546145
 21
-219.4375950404317
 31
0.0
  0
LINE
  5
D8
330
1F
100
AcDbEntity
  8
Predefinito
100
AcDbLine
 10
457.1827960546145
 20
-239.4375950404317
 30
0.0
 11
492.1827960546145
 21
-239.4375950404317
 31
0.0
  0
LINE
  5
D9
330
1F
100
AcDbEntity
  8
Predefinito
100
AcDbLine
 10
457.1827960546145
 20
-194.4375950404317
 30
0.0
 11
457.1827960546145
 21
-239.4375950404317
 31
0.0
  0
LINE
  5
DA
330
1F
100
AcDbEntity
  8
Predefinito
100
AcDbLine
 10
402.1827960546145
 20
-194.4375950404317
 30
0.0
 11
457.1827960546145
 21
-194.4375950404317
 31
0.0
  0
LINE
  5
DB
330
1F
100
AcDbEntity
  8
Predefinito
100
AcDbLine
 10
462.1827960546145
 20
-234.4375950404317
 30
0.0
 11
462.1827960546145
 21
-194.4375950404317
 31
0.0
  0
LINE
  5
DC
330
1F
100
AcDbEntity
  8
Predefinito
100
AcDbLine
 10
487.1827960546145
 20
-234.4375950404317
 30
0.0
 11
462.1827960546145
 21
-234.4375950404317
 31
0.0
  0
LINE
  5
DD
330
1F
100
AcDbEntity
  8
Predefinito
100
AcDbLine
 10
487.1827960546145
 20
-224.4375950404317
 30
0.0
 11
487.1827960546145
 21
-234.4375950404317
 31
0.0
  0
LINE
  5
DE
330
1F
100
AcDbEntity
  8
Predefinito
100
AcDbLine
 10
472.1827960546145
 20
-224.4375950404317
 30
0.0
 11
487.1827960546145
 21
-224.4375950404317
 31
0.0
  0
LINE
  5
DF
330
1F
100
AcDbEntity
  8
Predefinito
100
AcDbLine
 10
472.1827960546145
 20
-204.4375950404317
 30
0.0
 11
472.1827960546145
 21
-224.4375950404317
 31
0.0
  0
LINE
  5
E0
330
1F
100
AcDbEntity
  8
Predefinito
100
AcDbLine
 10
507.1827960546145
 20
-204.4375950404317
 30
0.0
 11
472.1827960546145
 21
-204.4375950404317
 31
0.0
  0
LINE
  5
E1
330
1F
100
AcDbEntity
  8
Predefinito
100
AcDbLine
 10
507.1827960546145
 20
-249.4375950404317
 30
0.0
 11
507.1827960546145
 21
-204.4375950404317
 31
0.0
  0
LINE
  5
E2
330
1F
100
AcDbEntity
  8
Predefinito
100
AcDbLine
 10
562.1827960546145
 20
-249.4375950404317
 30
0.0
 11
507.1827960546144
 21
-249.4375950404317
 31
0.0
  0
LINE
  5
E3
330
1F
100
AcDbEntity
  8
Predefinito
100
AcDbLine
 10
562.1827960546145
 20
-209.4375950404317
 30
0.0
 11
562.1827960546145
 21
-249.4375950404317
 31
0.0
  0
LINE
  5
E4
330
1F
100
AcDbEntity
  8
Predefinito
100
AcDbLine
 10
537.1827960546145
 20
-209.4375950404317
 30
0.0
 11
562.1827960546145
 21
-209.4375950404317
 31
0.0
  0
LINE
  5
E5
330
1F
100
AcDbEntity
  8
Predefinito
100
AcDbLine
 10
537.1827960546145
 20
-219.4375950404317
 30
0.0
 11
537.1827960546145
 21
-209.4375950404317
 31
0.0
  0
LINE
  5
E6
330
1F
100
AcDbEntity
  8
Predefinito
100
AcDbLine
 10
552.1827960546145
 20
-219.4375950404317
 30
0.0
 11
537.1827960546145
 21
-219.4375950404317
 31
0.0
  0
LINE
  5
E7
330
1F
100
AcDbEntity
  8
Predefinito
100
AcDbLine
 10
552.1827960546145
 20
-239.4375950404317
 30
0.0
 11
552.1827960546145
 21
-219.4375950404317
 31
0.0
  0
LINE
  5
E8
330
1F
100
AcDbEntity
  8
Predefinito
100
AcDbLine
 10
517.1827960546145
 20
-239.4375950404317
 30
0.0
 11
552.1827960546145
 21
-239.4375950404317
 31
0.0
  0
LINE
  5
E9
330
1F
100
AcDbEntity
  8
Predefinito
100
AcDbLine
 10
517.1827960546145
 20
-194.4375950404317
 30
0.0
 11
517.1827960546145
 21
-239.4375950404317
 31
0.0
  0
LINE
  5
EA
330
1F
100
AcDbEntity
  8
Predefinito
100
AcDbLine
 10
462.1827960546145
 20
-194.4375950404317
 30
0.0
 11
517.1827960546145
 21
-194.4375950404317
 31
0.0
  0
LINE
  5
EB
330
1F
100
AcDbEntity
  8
Predefinito
100
AcDbLine
 10
522.1827960546145
 20
-234.4375950404317
 30
0.0
 11
522.1827960546145
 21
-194.4375950404317
 31
0.0
  0
LINE
  5
EC
330
1F
100
AcDbEntity
  8
Predefinito
100
AcDbLine
 10
547.1827960546145
 20
-234.4375950404317
 30
0.0
 11
522.1827960546145
 21
-234.4375950404317
 31
0.0
  0
LINE
  5
ED
330
1F
100
AcDbEntity
  8
Predefinito
100
AcDbLine
 10
547.1827960546145
 20
-224.4375950404317
 30
0.0
 11
547.1827960546145
 21
-234.4375950404317
 31
0.0
  0
LINE
  5
EE
330
1F
100
AcDbEntity
  8
Predefinito
100
AcDbLine
 10
532.1827960546145
 20
-224.4375950404317
 30
0.0
 11
547.1827960546145
 21
-224.4375950404317
 31
0.0
  0
LINE
  5
EF
330
1F
100
AcDbEntity
  8
Predefinito
100
AcDbLine
 10
532.1827960546145
 20
-204.4375950404317
 30
0.0
 11
532.1827960546145
 21
-224.4375950404317
 31
0.0
  0
LINE
  5
F0
330
1F
100
AcDbEntity
  8
Predefinito
100
AcDbLine
 10
567.1827960546145
 20
-204.4375950404317
 30
0.0
 11
532.1827960546145
 21
-204.4375950404317
 31
0.0
  0
LINE
  5
F1
330
1F
100
AcDbEntity
  8
Predefinito
100
AcDbLine
 10
567.1827960546145
 20
-249.4375950404317
 30
0.0
 11
567.1827960546145
 21
-204.4375950404317
 31
0.0
  0
LINE
  5
F2
330
1F
100
AcDbEntity
  8
Predefinito
100
AcDbLine
 10
622.1827960546145
 20
-249.4375950404317
 30
0.0
 11
567.1827960546144
 21
-249.4375950404317
 31
0.0
  0
LINE
  5
F3
330
1F
100
AcDbEntity
  8
Predefinito
100
AcDbLine
 10
622.1827960546145
 20
-209.4375950404317
 30
0.0
 11
622.1827960546145
 21
-249.4375950404317
 31
0.0
  0
LINE
  5
F4
330
1F
100
AcDbEntity
  8
Predefinito
100
AcDbLine
 10
597.1827960546145
 20
-209.4375950404317
 30
0.0
 11
622.1827960546145
 21
-209.4375950404317
 31
0.0
  0
LINE
  5
F5
330
1F
100
AcDbEntity
  8
Predefinito
100
AcDbLine
 10
597.1827960546145
 20
-219.4375950404317
 30
0.0
 11
597.1827960546145
 21
-209.4375950404317
 31
0.0
  0
LINE
  5
F6
330
1F
100
AcDbEntity
  8
Predefinito
100
AcDbLine
 10
612.1827960546145
 20
-219.4375950404317
 30
0.0
 11
597.1827960546145
 21
-219.4375950404317
 31
0.0
  0
LINE
  5
F7
330
1F
100
AcDbEntity
  8
Predefinito
100
AcDbLine
 10
612.1827960546145
 20
-239.4375950404317
 30
0.0
 11
612.1827960546145
 21
-219.4375950404317
 31
0.0
  0
LINE
  5
F8
330
1F
100
AcDbEntity
  8
Predefinito
100
AcDbLine
 10
577.1827960546145
 20
-239.4375950404317
 30
0.0
 11
612.1827960546145
 21
-239.4375950404317
 31
0.0
  0
LINE
  5
F9
330
1F
100
AcDbEntity
  8
Predefinito
100
AcDbLine
 10
577.1827960546145
 20
-194.4375950404317
 30
0.0
 11
577.1827960546145
 21
-239.4375950404317
 31
0.0
  0
LINE
  5
FA
330
1F
100
AcDbEntity
  8
Predefinito
100
AcDbLine
 10
522.1827960546145
 20
-194.4375950404317
 30
0.0
 11
577.1827960546145
 21
-194.4375950404317
 31
0.0
  0
LINE
  5
FB
330
1F
100
AcDbEntity
  8
Predefinito
100
AcDbLine
 10
582.1827960546145
 20
-234.4375950404317
 30
0.0
 11
582.1827960546145
 21
-194.4375950404317
 31
0.0
  0
LINE
  5
FC
330
1F
100
AcDbEntity
  8
Predefinito
100
AcDbLine
 10
607.1827960546145
 20
-234.4375950404317
 30
0.0
 11
582.1827960546145
 21
-234.4375950404317
 31
0.0
  0
LINE
  5
FD
330
1F
100
AcDbEntity
  8
Predefinito
100
AcDbLine
 10
607.1827960546145
 20
-224.4375950404317
 30
0.0
 11
607.1827960546145
 21
-234.4375950404317
 31
0.0
  0
LINE
  5
FE
330
1F
100
AcDbEntity
  8
Predefinito
100
AcDbLine
 10
592.1827960546145
 20
-224.4375950404317
 30
0.0
 11
607.1827960546145
 21
-224.4375950404317
 31
0.0
  0
LINE
  5
FF
330
1F
100
AcDbEntity
  8
Predefinito
100
AcDbLine
 10
592.1827960546145
 20
-204.4375950404317
 30
0.0
 11
592.1827960546145
 21
-224.4375950404317
 31
0.0
  0
LINE
  5
100
330
1F
100
AcDbEntity
  8
Predefinito
100
AcDbLine
 10
627.1827960546145
 20
-204.4375950404317
 30
0.0
 11
592.1827960546145
 21
-204.4375950404317
 31
0.0
  0
LINE
  5
101
330
1F
100
AcDbEntity
  8
Predefinito
100
AcDbLine
 10
627.1827960546145
 20
-249.4375950404317
 30
0.0
 11
627.1827960546145
 21
-204.4375950404317
 31
0.0
  0
LINE
  5
102
330
1F
100
AcDbEntity
  8
Predefinito
100
AcDbLine
 10
682.1827960546145
 20
-249.4375950404317
 30
0.0
 11
627.1827960546144
 21
-249.4375950404317
 31
0.0
  0
LINE
  5
103
330
1F
100
AcDbEntity
  8
Predefinito
100
AcDbLine
 10
682.1827960546145
 20
-209.4375950404317
 30
0.0
 11
682.1827960546145
 21
-249.4375950404317
 31
0.0
  0
LINE
  5
104
330
1F
100
AcDbEntity
  8
Predefinito
100
AcDbLine
 10
657.1827960546145
 20
-209.4375950404317
 30
0.0
 11
682.1827960546145
 21
-209.4375950404317
 31
0.0
  0
LINE
  5
105
330
1F
100
AcDbEntity
  8
Predefinito
100
AcDbLine
 10
657.1827960546145
 20
-219.4375950404317
 30
0.0
 11
657.1827960546145
 21
-209.4375950404317
 31
0.0
  0
LINE
  5
106
330
1F
100
AcDbEntity
  8
Predefinito
100
AcDbLine
 10
672.1827960546145
 20
-219.4375950404317
 30
0.0
 11
657.1827960546145
 21
-219.4375950404317
 31
0.0
  0
LINE
  5
107
330
1F
100
AcDbEntity
  8
Predefinito
100
AcDbLine
 10
672.1827960546145
 20
-239.4375950404317
 30
0.0
 11
672.1827960546145
 21
-219.4375950404317
 31
0.0
  0
LINE
  5
108
330
1F
100
AcDbEntity
  8
Predefinito
100
AcDbLine
 10
637.1827960546145
 20
-239.4375950404317
 30
0.0
 11
672.1827960546145
 21
-239.4375950404317
 31
0.0
  0
LINE
  5
109
330
1F
100
AcDbEntity
  8
Predefinito
100
AcDbLine
 10
637.1827960546145
 20
-194.4375950404317
 30
0.0
 11
637.1827960546145
 21
-239.4375950404317
 31
0.0
  0
LINE
  5
10A
330
1F
100
AcDbEntity
  8
Predefinito
100
AcDbLine
 10
582.1827960546145
 20
-194.4375950404317
 30
0.0
 11
637.1827960546145
 21
-194.4375950404317
 31
0.0
  0
LINE
  5
10B
330
1F
100
AcDbEntity
  8
Predefinito
100
AcDbLine
 10
642.1827960546145
 20
-234.4375950404317
 30
0.0
 11
642.1827960546145
 21
-194.4375950404317
 31
0.0
  0
LINE
  5
10C
330
1F
100
AcDbEntity
  8
Predefinito
100
AcDbLine
 10
667.1827960546145
 20
-234.4375950404317
 30
0.0
 11
642.1827960546145
 21
-234.4375950404317
 31
0.0
  0
LINE
  5
10D
330
1F
100
AcDbEntity
  8
Predefinito
100
AcDbLine
 10
667.1827960546145
 20
-224.4375950404317
 30
0.0
 11
667.1827960546145
 21
-234.4375950404317
 31
0.0
  0
LINE
  5
10E
330
1F
100
AcDbEntity
  8
Predefinito
100
AcDbLine
 10
652.1827960546145
 20
-224.4375950404317
 30
0.0
 11
667.1827960546145
 21
-224.4375950404317
 31
0.0
  0
LINE
  5
10F
330
1F
100
AcDbEntity
  8
Predefinito
100
AcDbLine
 10
652.1827960546145
 20
-204.4375950404317
 30
0.0
 11
652.1827960546145
 21
-224.4375950404317
 31
0.0
  0
LINE
  5
110
330
1F
100
AcDbEntity
  8
Predefinito
100
AcDbLine
 10
687.1827960546145
 20
-204.4375950404317
 30
0.0
 11
652.1827960546145
 21
-204.4375950404317
 31
0.0
  0
LINE
  5
111
330
1F
100
AcDbEntity
  8
Predefinito
100
AcDbLine
 10
687.1827960546145
 20
-249.4375950404317
 30
0.0
 11
687.1827960546145
 21
-204.4375950404317
 31
0.0
  0
LINE
  5
112
330
1F
100
AcDbEntity
  8
Predefinito
100
AcDbLine
 10
742.1827960546145
 20
-249.4375950404317
 30
0.0
 11
687.1827960546144
 21
-249.4375950404317
 31
0.0
  0
LINE
  5
113
330
1F
100
AcDbEntity
  8
Predefinito
100
AcDbLine
 10
742.1827960546145
 20
-209.4375950404317
 30
0.0
 11
742.1827960546145
 21
-249.4375950404317
 31
0.0
  0
LINE
  5
114
330
1F
100
AcDbEntity
  8
Predefinito
100
AcDbLine
 10
717.1827960546145
 20
-209.4375950404317
 30
0.0
 11
742.1827960546145
 21
-209.4375950404317
 31
0.0
  0
LINE
  5
115
330
1F
100
AcDbEntity
  8
Predefinito
100
AcDbLine
 10
717.1827960546145
 20
-219.4375950404317
 30
0.0
 11
717.1827960546145
 21
-209.4375950404317
 31
0.0
  0
LINE
  5
116
330
1F
100
AcDbEntity
  8
Predefinito
100
AcDbLine
 10
732.1827960546145
 20
-219.4375950404317
 30
0.0
 11
717.1827960546145
 21
-219.4375950404317
 31
0.0
  0
LINE
  5
117
330
1F
100
AcDbEntity
  8
Predefinito
100
AcDbLine
 10
732.1827960546145
 20
-239.4375950404317
 30
0.0
 11
732.1827960546145
 21
-219.4375950404317
 31
0.0
  0
LINE
  5
118
330
1F
100
AcDbEntity
  8
Predefinito
100
AcDbLine
 10
697.1827960546145
 20
-239.4375950404317
 30
0.0
 11
732.1827960546145
 21
-239.4375950404317
 31
0.0
  0
LINE
  5
119
330
1F
100
AcDbEntity
  8
Predefinito
100
AcDbLine
 10
697.1827960546145
 20
-194.4375950404317
 30
0.0
 11
697.1827960546145
 21
-239.4375950404317
 31
0.0
  0
LINE
  5
11A
330
1F
100
AcDbEntity
  8
Predefinito
100
AcDbLine
 10
642.1827960546145
 20
-194.4375950404317
 30
0.0
 11
697.1827960546145
 21
-194.4375950404317
 31
0.0
  0
LINE
  5
11B
330
1F
100
AcDbEntity
  8
Predefinito
100
AcDbLine
 10
702.1827960546145
 20
-234.4375950404317
 30
0.0
 11
702.1827960546145
 21
-194.4375950404317
 31
0.0
  0
LINE
  5
11C
330
1F
100
AcDbEntity
  8
Predefinito
100
AcDbLine
 10
727.1827960546145
 20
-234.4375950404317
 30
0.0
 11
702.1827960546145
 21
-234.4375950404317
 31
0.0
  0
LINE
  5
11D
330
1F
100
AcDbEntity
  8
Predefinito
100
AcDbLine
 10
727.1827960546145
 20
-224.4375950404317
 30
0.0
 11
727.1827960546145
 21
-234.4375950404317
 31
0.0
  0
LINE
  5
11E
330
1F
100
AcDbEntity
  8
Predefinito
100
AcDbLine
 10
712.1827960546145
 20
-224.4375950404317
 30
0.0
 11
727.1827960546145
 21
-224.4375950404317
 31
0.0
  0
LINE
  5
11F
330
1F
100
AcDbEntity
  8
Predefinito
100
AcDbLine
 10
712.1827960546145
 20
-204.4375950404317
 30
0.0
 11
712.1827960546145
 21
-224.4375950404317
 31
0.0
  0
LINE
  5
120
330
1F
100
AcDbEntity
  8
Predefinito
100
AcDbLine
 10
747.1827960546145
 20
-204.4375950404317
 30
0.0
 11
712.1827960546145
 21
-204.4375950404317
 31
0.0
  0
LINE
  5
121
330
1F
100
AcDbEntity
  8
Predefinito
100
AcDbLine
 10
747.1827960546145
 20
-249.4375950404317
 30
0.0
 11
747.1827960546145
 21
-204.4375950404317
 31
0.0
  0
LINE
  5
122
330
1F
100
AcDbEntity
  8
Predefinito
100
AcDbLine
 10
802.1827960546145
 20
-249.4375950404317
 30
0.0
 11
747.1827960546143
 21
-249.4375950404317
 31
0.0
  0
LINE
  5
123
330
1F
100
AcDbEntity
  8
Predefinito
100
AcDbLine
 10
802.1827960546145
 20
-209.4375950404317
 30
0.0
 11
802.1827960546145
 21
-249.4375950404317
 31
0.0
  0
LINE
  5
124
330
1F
100
AcDbEntity
  8
Predefinito
100
AcDbLine
 10
777.1827960546145
 20
-209.4375950404317
 30
0.0
 11
802.1827960546145
 21
-209.4375950404317
 31
0.0
  0
LINE
  5
125
330
1F
100
AcDbEntity
  8
Predefinito
100
AcDbLine
 10
777.1827960546145
 20
-219.4375950404317
 30
0.0
 11
777.1827960546145
 21
-209.4375950404317
 31
0.0
  0
LINE
  5
126
330
1F
100
AcDbEntity
  8
Predefinito
100
AcDbLine
 10
792.1827960546145
 20
-219.4375950404317
 30
0.0
 11
777.1827960546145
 21
-219.4375950404317
 31
0.0
  0
LINE
  5
127
330
1F
100
AcDbEntity
  8
Predefinito
100
AcDbLine
 10
792.1827960546145
 20
-239.4375950404317
 30
0.0
 11
792.1827960546145
 21
-219.4375950404317
 31
0.0
  0
LINE
  5
128
330
1F
100
AcDbEntity
  8
Predefinito
100
AcDbLine
 10
757.1827960546145
 20
-239.4375950404317
 30
0.0
 11
792.1827960546145
 21
-239.4375950404317
 31
0.0
  0
LINE
  5
129
330
1F
100
AcDbEntity
  8
Predefinito
100
AcDbLine
 10
757.1827960546145
 20
-194.4375950404317
 30
0.0
 11
757.1827960546145
 21
-239.4375950404317
 31
0.0
  0
LINE
  5
12A
330
1F
100
AcDbEntity
  8
Predefinito
100
AcDbLine
 10
702.1827960546145
 20
-194.4375950404317
 30
0.0
 11
757.1827960546145
 21
-194.4375950404317
 31
0.0
  0
LINE
  5
12B
330
1F
100
AcDbEntity
  8
Predefinito
100
AcDbLine
 10
762.1827960546145
 20
-234.4375950404317
 30
0.0
 11
762.1827960546145
 21
-194.4375950404317
 31
0.0
  0
LINE
  5
12C
330
1F
100
AcDbEntity
  8
Predefinito
100
AcDbLine
 10
787.1827960546145
 20
-234.4375950404317
 30
0.0
 11
762.1827960546145
 21
-234.4375950404317
 31
0.0
  0
LINE
  5
12D
330
1F
100
AcDbEntity
  8
Predefinito
100
AcDbLine
 10
787.1827960546145
 20
-224.4375950404317
 30
0.0
 11
787.1827960546145
 21
-234.4375950404317
 31
0.0
  0
LINE
  5
12E
330
1F
100
AcDbEntity
  8
Predefinito
100
AcDbLine
 10
772.1827960546145
 20
-224.4375950404317
 30
0.0
 11
787.1827960546145
 21
-224.4375950404317
 31
0.0
  0
LINE
  5
12F
330
1F
100
AcDbEntity
  8
Predefinito
100
AcDbLine
 10
772.1827960546145
 20
-204.4375950404317
 30
0.0
 11
772.1827960546145
 21
-224.4375950404317
 31
0.0
  0
LINE
  5
130
330
1F
100
AcDbEntity
  8
Predefinito
100
AcDbLine
 10
807.1827960546145
 20
-204.4375950404317
 30
0.0
 11
772.1827960546145
 21
-204.4375950404317
 31
0.0
  0
LINE
  5
131
330
1F
100
AcDbEntity
  8
Predefinito
100
AcDbLine
 10
807.1827960546145
 20
-249.4375950404317
 30
0.0
 11
807.1827960546145
 21
-204.4375950404317
 31
0.0
  0
LINE
  5
132
330
1F
100
AcDbEntity
  8
Predefinito
100
AcDbLine
 10
862.1827960546145
 20
-249.4375950404317
 30
0.0
 11
807.1827960546143
 21
-249.4375950404317
 31
0.0
  0
LINE
  5
133
330
1F
100
AcDbEntity
  8
Predefinito
100
AcDbLine
 10
862.1827960546145
 20
-209.4375950404317
 30
0.0
 11
862.1827960546145
 21
-249.4375950404317
 31
0.0
  0
LINE
  5
134
330
1F
100
AcDbEntity
  8
Predefinito
100
AcDbLine
 10
837.1827960546145
 20
-209.4375950404317
 30
0.0
 11
862.1827960546145
 21
-209.4375950404317
 31
0.0
  0
LINE
  5
135
330
1F
100
AcDbEntity
  8
Predefinito
100
AcDbLine
 10
837.1827960546145
 20
-219.4375950404317
 30
0.0
 11
837.1827960546145
 21
-209.4375950404317
 31
0.0
  0
LINE
  5
136
330
1F
100
AcDbEntity
  8
Predefinito
100
AcDbLine
 10
852.1827960546145
 20
-219.4375950404317
 30
0.0
 11
837.1827960546145
 21
-219.4375950404317
 31
0.0
  0
LINE
  5
137
330
1F
100
AcDbEntity
  8
Predefinito
100
AcDbLine
 10
852.1827960546145
 20
-239.4375950404317
 30
0.0
 11
852.1827960546145
 21
-219.4375950404317
 31
0.0
  0
LINE
  5
138
330
1F
100
AcDbEntity
  8
Predefinito
100
AcDbLine
 10
817.1827960546145
 20
-239.4375950404317
 30
0.0
 11
852.1827960546145
 21
-239.4375950404317
 31
0.0
  0
LINE
  5
139
330
1F
100
AcDbEntity
  8
Predefinito
100
AcDbLine
 10
817.1827960546145
 20
-194.4375950404317
 30
0.0
 11
817.1827960546145
 21
-239.4375950404317
 31
0.0
  0
LINE
  5
13A
330
1F
100
AcDbEntity
  8
Predefinito
100
AcDbLine
 10
762.1827960546145
 20
-194.4375950404317
 30
0.0
 11
817.1827960546145
 21
-194.4375950404317
 31
0.0
  0
LINE
  5
13B
330
1F
100
AcDbEntity
  8
Predefinito
100
AcDbLine
 10
822.1827960546145
 20
-234.4375950404317
 30
0.0
 11
822.1827960546145
 21
-194.4375950404317
 31
0.0
  0
LINE
  5
13C
330
1F
100
AcDbEntity
  8
Predefinito
100
AcDbLine
 10
847.1827960546145
 20
-234.4375950404317
 30
0.0
 11
822.1827960546145
 21
-234.4375950404317
 31
0.0
  0
LINE
  5
13D
330
1F
100
AcDbEntity
  8
Predefinito
100
AcDbLine
 10
847.1827960546145
 20
-224.4375950404317
 30
0.0
 11
847.1827960546145
 21
-234.4375950404317
 31
0.0
  0
LINE
  5
13E
330
1F
100
AcDbEntity
  8
Predefinito
100
AcDbLine
 10
832.1827960546145
 20
-224.4375950404317
 30
0.0
 11
847.1827960546145
 21
-224.4375950404317
 31
0.0
  0
LINE
  5
13F
330
1F
100
AcDbEntity
  8
Predefinito
100
AcDbLine
 10
832.1827960546145
 20
-204.4375950404317
 30
0.0
 11
832.1827960546145
 21
-224.4375950404317
 31
0.0
  0
LINE
  5
140
330
1F
100
AcDbEntity
  8
Predefinito
100
AcDbLine
 10
867.1827960546145
 20
-204.4375950404317
 30
0.0
 11
832.1827960546145
 21
-204.4375950404317
 31
0.0
  0
LINE
  5
141
330
1F
100
AcDbEntity
  8
Predefinito
100
AcDbLine
 10
867.1827960546145
 20
-249.4375950404317
 30
0.0
 11
867.1827960546145
 21
-204.4375950404317
 31
0.0
  0
LINE
  5
142
330
1F
100
AcDbEntity
  8
Predefinito
100
AcDbLine
 10
922.1827960546145
 20
-249.4375950404317
 30
0.0
 11
867.1827960546143
 21
-249.4375950404317
 31
0.0
  0
LINE
  5
143
330
1F
100
AcDbEntity
  8
Predefinito
100
AcDbLine
 10
922.1827960546145
 20
-209.4375950404317
 30
0.0
 11
922.1827960546145
 21
-249.4375950404317
 31
0.0
  0
LINE
  5
144
330
1F
100
AcDbEntity
  8
Predefinito
100
AcDbLine
 10
897.1827960546145
 20
-209.4375950404317
 30
0.0
 11
922.1827960546145
 21
-209.4375950404317
 31
0.0
  0
LINE
  5
145
330
1F
100
AcDbEntity
  8
Predefinito
100
AcDbLine
 10
897.1827960546145
 20
-219.4375950404317
 30
0.0
 11
897.1827960546145
 21
-209.4375950404317
 31
0.0
  0
LINE
  5
146
330
1F
100
AcDbEntity
  8
Predefinito
100
AcDbLine
 10
912.1827960546145
 20
-219.4375950404317
 30
0.0
 11
897.1827960546145
 21
-219.4375950404317
 31
0.0
  0
LINE
  5
147
330
1F
100
AcDbEntity
  8
Predefinito
100
AcDbLine
 10
912.1827960546145
 20
-239.4375950404317
 30
0.0
 11
912.1827960546145
 21
-219.4375950404317
 31
0.0
  0
LINE
  5
148
330
1F
100
AcDbEntity
  8
Predefinito
100
AcDbLine
 10
877.1827960546145
 20
-239.4375950404317
 30
0.0
 11
912.1827960546145
 21
-239.4375950404317
 31
0.0
  0
LINE
  5
149
330
1F
100
AcDbEntity
  8
Predefinito
100
AcDbLine
 10
877.1827960546145
 20
-194.4375950404317
 30
0.0
 11
877.1827960546145
 21
-239.4375950404317
 31
0.0
  0
LINE
  5
14A
330
1F
100
AcDbEntity
  8
Predefinito
100
AcDbLine
 10
822.1827960546145
 20
-194.4375950404317
 30
0.0
 11
877.1827960546145
 21
-194.4375950404317
 31
0.0
  0
LINE
  5
14B
330
1F
100
AcDbEntity
  8
Predefinito
100
AcDbLine
 10
882.1827960546145
 20
-234.4375950404317
 30
0.0
 11
882.1827960546145
 21
-194.4375950404317
 31
0.0
  0
LINE
  5
14C
330
1F
100
AcDbEntity
  8
Predefinito
100
AcDbLine
 10
907.1827960546145
 20
-234.4375950404317
 30
0.0
 11
882.1827960546145
 21
-234.4375950404317
 31
0.0
  0
LINE
  5
14D
330
1F
100
AcDbEntity
  8
Predefinito
100
AcDbLine
 10
907.1827960546145
 20
-224.4375950404317
 30
0.0
 11
907.1827960546145
 21
-234.4375950404317
 31
0.0
  0
LINE
  5
14E
330
1F
100
AcDbEntity
  8
Predefinito
100
AcDbLine
 10
892.1827960546145
 20
-224.4375950404317
 30
0.0
 11
907.1827960546145
 21
-224.4375950404317
 31
0.0
  0
LINE
  5
14F
330
1F
100
AcDbEntity
  8
Predefinito
100
AcDbLine
 10
892.1827960546145
 20
-204.4375950404317
 30
0.0
 11
892.1827960546145
 21
-224.4375950404317
 31
0.0
  0
LINE
  5
150
330
1F
100
AcDbEntity
  8
Predefinito
100
AcDbLine
 10
927.1827960546145
 20
-204.4375950404317
 30
0.0
 11
892.1827960546145
 21
-204.4375950404317
 31
0.0
  0
LINE
  5
151
330
1F
100
AcDbEntity
  8
Predefinito
100
AcDbLine
 10
927.1827960546145
 20
-249.4375950404317
 30
0.0
 11
927.1827960546145
 21
-204.4375950404317
 31
0.0
  0
LINE
  5
152
330
1F
100
AcDbEntity
  8
Predefinito
100
AcDbLine
 10
982.1827960546145
 20
-249.4375950404317
 30
0.0
 11
927.1827960546143
 21
-249.4375950404317
 31
0.0
  0
LINE
  5
153
330
1F
100
AcDbEntity
  8
Predefinito
100
AcDbLine
 10
982.1827960546145
 20
-209.4375950404317
 30
0.0
 11
982.1827960546145
 21
-249.4375950404317
 31
0.0
  0
LINE
  5
154
330
1F
100
AcDbEntity
  8
Predefinito
100
AcDbLine
 10
957.1827960546145
 20
-209.4375950404317
 30
0.0
 11
982.1827960546145
 21
-209.4375950404317
 31
0.0
  0
LINE
  5
155
330
1F
100
AcDbEntity
  8
Predefinito
100
AcDbLine
 10
957.1827960546145
 20
-219.4375950404317
 30
0.0
 11
957.1827960546145
 21
-209.4375950404317
 31
0.0
  0
LINE
  5
156
330
1F
100
AcDbEntity
  8
Predefinito
100
AcDbLine
 10
972.1827960546145
 20
-219.4375950404317
 30
0.0
 11
957.1827960546145
 21
-219.4375950404317
 31
0.0
  0
LINE
  5
157
330
1F
100
AcDbEntity
  8
Predefinito
100
AcDbLine
 10
972.1827960546145
 20
-239.4375950404317
 30
0.0
 11
972.1827960546145
 21
-219.4375950404317
 31
0.0
  0
LINE
  5
158
330
1F
100
AcDbEntity
  8
Predefinito
100
AcDbLine
 10
937.1827960546145
 20
-239.4375950404317
 30
0.0
 11
972.1827960546145
 21
-239.4375950404317
 31
0.0
  0
LINE
  5
159
330
1F
100
AcDbEntity
  8
Predefinito
100
AcDbLine
 10
937.1827960546145
 20
-194.4375950404317
 30
0.0
 11
937.1827960546145
 21
-239.4375950404317
 31
0.0
  0
LINE
  5
15A
330
1F
100
AcDbEntity
  8
Predefinito
100
AcDbLine
 10
882.1827960546145
 20
-194.4375950404317
 30
0.0
 11
937.1827960546145
 21
-194.4375950404317
 31
0.0
  0
LINE
  5
15B
330
1F
100
AcDbEntity
  8
Predefinito
100
AcDbLine
 10
942.1827960546145
 20
-234.4375950404317
 30
0.0
 11
942.1827960546145
 21
-194.4375950404317
 31
0.0
  0
LINE
  5
15C
330
1F
100
AcDbEntity
  8
Predefinito
100
AcDbLine
 10
967.1827960546145
 20
-234.4375950404317
 30
0.0
 11
942.1827960546145
 21
-234.4375950404317
 31
0.0
  0
LINE
  5
15D
330
1F
100
AcDbEntity
  8
Predefinito
100
AcDbLine
 10
967.1827960546145
 20
-224.4375950404317
 30
0.0
 11
967.1827960546145
 21
-234.4375950404317
 31
0.0
  0
LINE
  5
15E
330
1F
100
AcDbEntity
  8
Predefinito
100
AcDbLine
 10
952.1827960546145
 20
-224.4375950404317
 30
0.0
 11
967.1827960546145
 21
-224.4375950404317
 31
0.0
  0
LINE
  5
15F
330
1F
100
AcDbEntity
  8
Predefinito
100
AcDbLine
 10
952.1827960546145
 20
-204.4375950404317
 30
0.0
 11
952.1827960546145
 21
-224.4375950404317
 31
0.0
  0
LINE
  5
160
330
1F
100
AcDbEntity
  8
Predefinito
100
AcDbLine
 10
987.1827960546145
 20
-204.4375950404317
 30
0.0
 11
952.1827960546145
 21
-204.4375950404317
 31
0.0
  0
LINE
  5
161
330
1F
100
AcDbEntity
  8
Predefinito
100
AcDbLine
 10
987.1827960546145
 20
-249.4375950404317
 30
0.0
 11
987.1827960546145
 21
-204.4375950404317
 31
0.0
  0
LINE
  5
162
330
1F
100
AcDbEntity
  8
Predefinito
100
AcDbLine
 10
1042.182796054615
 20
-249.4375950404317
 30
0.0
 11
987.1827960546143
 21
-249.4375950404317
 31
0.0
  0
LINE
  5
163
330
1F
100
AcDbEntity
  8
Predefinito
100
AcDbLine
 10
1042.182796054615
 20
-209.4375950404317
 30
0.0
 11
1042.182796054615
 21
-249.4375950404317
 31
0.0
  0
LINE
  5
164
330
1F
100
AcDbEntity
  8
Predefinito
100
AcDbLine
 10
1017.182796054615
 20
-209.4375950404317
 30
0.0
 11
1042.182796054615
 21
-209.4375950404317
 31
0.0
  0
LINE
  5
165
330
1F
100
AcDbEntity
  8
Predefinito
100
AcDbLine
 10
1017.182796054615
 20
-219.4375950404317
 30
0.0
 11
1017.182796054615
 21
-209.4375950404317
 31
0.0
  0
LINE
  5
166
330
1F
100
AcDbEntity
  8
Predefinito
100
AcDbLine
 10
1032.182796054615
 20
-219.4375950404317
 30
0.0
 11
1017.182796054615
 21
-219.4375950404317
 31
0.0
  0
LINE
  5
167
330
1F
100
AcDbEntity
  8
Predefinito
100
AcDbLine
 10
1032.182796054615
 20
-239.4375950404317
 30
0.0
 11
1032.182796054615
 21
-219.4375950404317
 31
0.0
  0
LINE
  5
168
330
1F
100
AcDbEntity
  8
Predefinito
100
AcDbLine
 10
997.1827960546145
 20
-239.4375950404317
 30
0.0
 11
1032.182796054615
 21
-239.4375950404317
 31
0.0
  0
LINE
  5
169
330
1F
100
AcDbEntity
  8
Predefinito
100
AcDbLine
 10
997.1827960546145
 20
-194.4375950404317
 30
0.0
 11
997.1827960546145
 21
-239.4375950404317
 31
0.0
  0
LINE
  5
16A
330
1F
100
AcDbEntity
  8
Predefinito
100
AcDbLine
 10
942.1827960546145
 20
-194.4375950404317
 30
0.0
 11
997.1827960546145
 21
-194.4375950404317
 31
0.0
  0
LINE
  5
16B
330
1F
100
AcDbEntity
  8
Predefinito
100
AcDbLine
 10
1002.182796054615
 20
-234.4375950404317
 30
0.0
 11
1002.182796054615
 21
-194.4375950404317
 31
0.0
  0
LINE
  5
16C
330
1F
100
AcDbEntity
  8
Predefinito
100
AcDbLine
 10
1027.182796054615
 20
-234.4375950404317
 30
0.0
 11
1002.182796054615
 21
-234.4375950404317
 31
0.0
  0
LINE
  5
16D
330
1F
100
AcDbEntity
  8
Predefinito
100
AcDbLine
 10
1027.182796054615
 20
-224.4375950404317
 30
0.0
 11
1027.182796054615
 21
-234.4375950404317
 31
0.0
  0
LINE
  5
16E
330
1F
100
AcDbEntity
  8
Predefinito
100
AcDbLine
 10
1012.182796054615
 20
-224.4375950404317
 30
0.0
 11
1027.182796054615
 21
-224.4375950404317
 31
0.0
  0
LINE
  5
16F
330
1F
100
AcDbEntity
  8
Predefinito
100
AcDbLine
 10
1012.182796054615
 20
-204.4375950404317
 30
0.0
 11
1012.182796054615
 21
-224.4375950404317
 31
0.0
  0
LINE
  5
170
330
1F
100
AcDbEntity
  8
Predefinito
100
AcDbLine
 10
1047.182796054615
 20
-204.4375950404317
 30
0.0
 11
1012.182796054615
 21
-204.4375950404317
 31
0.0
  0
LINE
  5
171
330
1F
100
AcDbEntity
  8
Predefinito
100
AcDbLine
 10
1047.182796054615
 20
-249.4375950404317
 30
0.0
 11
1047.182796054615
 21
-204.4375950404317
 31
0.0
  0
LINE
  5
172
330
1F
100
AcDbEntity
  8
Predefinito
100
AcDbLine
 10
1102.182796054615
 20
-249.4375950404317
 30
0.0
 11
1047.182796054614
 21
-249.4375950404317
 31
0.0
  0
LINE
  5
173
330
1F
100
AcDbEntity
  8
Predefinito
100
AcDbLine
 10
1102.182796054615
 20
-209.4375950404317
 30
0.0
 11
1102.182796054615
 21
-249.4375950404317
 31
0.0
  0
LINE
  5
174
330
1F
100
AcDbEntity
  8
Predefinito
100
AcDbLine
 10
1077.182796054615
 20
-209.4375950404317
 30
0.0
 11
1102.182796054615
 21
-209.4375950404317
 31
0.0
  0
LINE
  5
175
330
1F
100
AcDbEntity
  8
Predefinito
100
AcDbLine
 10
1077.182796054615
 20
-219.4375950404317
 30
0.0
 11
1077.182796054615
 21
-209.4375950404317
 31
0.0
  0
LINE
  5
176
330
1F
100
AcDbEntity
  8
Predefinito
100
AcDbLine
 10
1092.182796054615
 20
-219.4375950404317
 30
0.0
 11
1077.182796054615
 21
-219.4375950404317
 31
0.0
  0
LINE
  5
177
330
1F
100
AcDbEntity
  8
Predefinito
100
AcDbLine
 10
1092.182796054615
 20
-239.4375950404317
 30
0.0
 11
1092.182796054615
 21
-219.4375950404317
 31
0.0
  0
LINE
  5
178
330
1F
100
AcDbEntity
  8
Predefinito
100
AcDbLine
 10
1057.182796054615
 20
-239.4375950404317
 30
0.0
 11
1092.182796054615
 21
-239.4375950404317
 31
0.0
  0
LINE
  5
179
330
1F
100
AcDbEntity
  8
Predefinito
100
AcDbLine
 10
1057.182796054615
 20
-194.4375950404317
 30
0.0
 11
1057.182796054615
 21
-239.4375950404317
 31
0.0
  0
LINE
  5
17A
330
1F
100
AcDbEntity
  8
Predefinito
100
AcDbLine
 10
1002.182796054615
 20
-194.4375950404317
 30
0.0
 11
1057.182796054615
 21
-194.4375950404317
 31
0.0
  0
LINE
  5
17B
330
1F
100
AcDbEntity
  8
Predefinito
100
AcDbLine
 10
1062.182796054615
 20
-234.4375950404317
 30
0.0
 11
1062.182796054615
 21
-194.4375950404317
 31
0.0
  0
LINE
  5
17C
330
1F
100
AcDbEntity
  8
Predefinito
100
AcDbLine
 10
1087.182796054615
 20
-234.4375950404317
 30
0.0
 11
1062.182796054615
 21
-234.4375950404317
 31
0.0
  0
LINE
  5
17D
330
1F
100
AcDbEntity
  8
Predefinito
100
AcDbLine
 10
1087.182796054615
 20
-224.4375950404317
 30
0.0
 11
1087.182796054615
 21
-234.4375950404317
 31
0.0
  0
LINE
  5
17E
330
1F
100
AcDbEntity
  8
Predefinito
100
AcDbLine
 10
1072.182796054615
 20
-224.4375950404317
 30
0.0
 11
1087.182796054615
 21
-224.4375950404317
 31
0.0
  0
LINE
  5
17F
330
1F
100
AcDbEntity
  8
Predefinito
100
AcDbLine
 10
1072.182796054615
 20
-204.4375950404317
 30
0.0
 11
1072.182796054615
 21
-224.4375950404317
 31
0.0
  0
LINE
  5
180
330
1F
100
AcDbEntity
  8
Predefinito
100
AcDbLine
 10
1107.182796054615
 20
-204.4375950404317
 30
0.0
 11
1072.182796054615
 21
-204.4375950404317
 31
0.0
  0
LINE
  5
181
330
1F
100
AcDbEntity
  8
Predefinito
100
AcDbLine
 10
1107.182796054615
 20
-249.4375950404317
 30
0.0
 11
1107.182796054615
 21
-204.4375950404317
 31
0.0
  0
LINE
  5
182
330
1F
100
AcDbEntity
  8
Predefinito
100
AcDbLine
 10
1162.182796054615
 20
-249.4375950404317
 30
0.0
 11
1107.182796054614
 21
-249.4375950404317
 31
0.0
  0
LINE
  5
183
330
1F
100
AcDbEntity
  8
Predefinito
100
AcDbLine
 10
1162.182796054615
 20
-209.4375950404317
 30
0.0
 11
1162.182796054615
 21
-249.4375950404317
 31
0.0
  0
LINE
  5
184
330
1F
100
AcDbEntity
  8
Predefinito
100
AcDbLine
 10
1137.182796054615
 20
-209.4375950404317
 30
0.0
 11
1162.182796054615
 21
-209.4375950404317
 31
0.0
  0
LINE
  5
185
330
1F
100
AcDbEntity
  8
Predefinito
100
AcDbLine
 10
1137.182796054615
 20
-219.4375950404317
 30
0.0
 11
1137.182796054615
 21
-209.4375950404317
 31
0.0
  0
LINE
  5
186
330
1F
100
AcDbEntity
  8
Predefinito
100
AcDbLine
 10
1152.182796054615
 20
-219.4375950404317
 30
0.0
 11
1137.182796054615
 21
-219.4375950404317
 31
0.0
  0
LINE
  5
187
330
1F
100
AcDbEntity
  8
Predefinito
100
AcDbLine
 10
1152.182796054615
 20
-239.4375950404317
 30
0.0
 11
1152.182796054615
 21
-219.4375950404317
 31
0.0
  0
LINE
  5
188
330
1F
100
AcDbEntity
  8
Predefinito
100
AcDbLine
 10
1117.182796054615
 20
-239.4375950404317
 30
0.0
 11
1152.182796054615
 21
-239.4375950404317
 31
0.0
  0
LINE
  5
189
330
1F
100
AcDbEntity
  8
Predefinito
100
AcDbLine
 10
1117.182796054615
 20
-194.4375950404317
 30
0.0
 11
1117.182796054615
 21
-239.4375950404317
 31
0.0
  0
LINE
  5
18A
330
1F
100
AcDbEntity
  8
Predefinito
100
AcDbLine
 10
1062.182796054615
 20
-194.4375950404317
 30
0.0
 11
1117.182796054615
 21
-194.4375950404317
 31
0.0
  0
LINE
  5
18B
330
1F
100
AcDbEntity
  8
Predefinito
100
AcDbLine
 10
1122.182796054615
 20
-234.4375950404317
 30
0.0
 11
1122.182796054615
 21
-194.4375950404317
 31
0.0
  0
LINE
  5
18C
330
1F
100
AcDbEntity
  8
Predefinito
100
AcDbLine
 10
1147.182796054615
 20
-234.4375950404317
 30
0.0
 11
1122.182796054615
 21
-234.4375950404317
 31
0.0
  0
LINE
  5
18D
330
1F
100
AcDbEntity
  8
Predefinito
100
AcDbLine
 10
1147.182796054615
 20
-224.4375950404317
 30
0.0
 11
1147.182796054615
 21
-234.4375950404317
 31
0.0
  0
LINE
  5
18E
330
1F
100
AcDbEntity
  8
Predefinito
100
AcDbLine
 10
1132.182796054615
 20
-224.4375950404317
 30
0.0
 11
1147.182796054615
 21
-224.4375950404317
 31
0.0
  0
LINE
  5
18F
330
1F
100
AcDbEntity
  8
Predefinito
100
AcDbLine
 10
1132.182796054615
 20
-204.4375950404317
 30
0.0
 11
1132.182796054615
 21
-224.4375950404317
 31
0.0
  0
LINE
  5
190
330
1F
100
AcDbEntity
  8
Predefinito
100
AcDbLine
 10
1167.182796054615
 20
-204.4375950404317
 30
0.0
 11
1132.182796054615
 21
-204.4375950404317
 31
0.0
  0
LINE
  5
191
330
1F
100
AcDbEntity
  8
Predefinito
100
AcDbLine
 10
1167.182796054615
 20
-249.4375950404317
 30
0.0
 11
1167.182796054615
 21
-204.4375950404317
 31
0.0
  0
LINE
  5
192
330
1F
100
AcDbEntity
  8
Predefinito
100
AcDbLine
 10
1222.182796054615
 20
-249.4375950404317
 30
0.0
 11
1167.182796054614
 21
-249.4375950404317
 31
0.0
  0
LINE
  5
193
330
1F
100
AcDbEntity
  8
Predefinito
100
AcDbLine
 10
1222.182796054615
 20
-209.4375950404317
 30
0.0
 11
1222.182796054615
 21
-249.4375950404317
 31
0.0
  0
LINE
  5
194
330
1F
100
AcDbEntity
  8
Predefinito
100
AcDbLine
 10
1197.182796054615
 20
-209.4375950404317
 30
0.0
 11
1222.182796054615
 21
-209.4375950404317
 31
0.0
  0
LINE
  5
195
330
1F
100
AcDbEntity
  8
Predefinito
100
AcDbLine
 10
1197.182796054615
 20
-219.4375950404317
 30
0.0
 11
1197.182796054615
 21
-209.4375950404317
 31
0.0
  0
LINE
  5
196
330
1F
100
AcDbEntity
  8
Predefinito
100
AcDbLine
 10
1212.182796054615
 20
-219.4375950404317
 30
0.0
 11
1197.182796054615
 21
-219.4375950404317
 31
0.0
  0
LINE
  5
197
330
1F
100
AcDbEntity
  8
Predefinito
100
AcDbLine
 10
1212.182796054615
 20
-239.4375950404317
 30
0.0
 11
1212.182796054615
 21
-219.4375950404317
 31
0.0
  0
LINE
  5
198
330
1F
100
AcDbEntity
  8
Predefinito
100
AcDbLine
 10
1177.182796054615
 20
-239.4375950404317
 30
0.0
 11
1212.182796054615
 21
-239.4375950404317
 31
0.0
  0
LINE
  5
199
330
1F
100
AcDbEntity
  8
Predefinito
100
AcDbLine
 10
1177.182796054615
 20
-194.4375950404317
 30
0.0
 11
1177.182796054615
 21
-239.4375950404317
 31
0.0
  0
LINE
  5
19A
330
1F
100
AcDbEntity
  8
Predefinito
100
AcDbLine
 10
1122.182796054615
 20
-194.4375950404317
 30
0.0
 11
1177.182796054615
 21
-194.4375950404317
 31
0.0
  0
LINE
  5
19B
330
1F
100
AcDbEntity
  8
Predefinito
100
AcDbLine
 10
1182.182796054615
 20
-234.4375950404317
 30
0.0
 11
1182.182796054615
 21
-194.4375950404317
 31
0.0
  0
LINE
  5
19C
330
1F
100
AcDbEntity
  8
Predefinito
100
AcDbLine
 10
1207.182796054615
 20
-234.4375950404317
 30
0.0
 11
1182.182796054615
 21
-234.4375950404317
 31
0.0
  0
LINE
  5
19D
330
1F
100
AcDbEntity
  8
Predefinito
100
AcDbLine
 10
1207.182796054615
 20
-224.4375950404317
 30
0.0
 11
1207.182796054615
 21
-234.4375950404317
 31
0.0
  0
LINE
  5
19E
330
1F
100
AcDbEntity
  8
Predefinito
100
AcDbLine
 10
1192.182796054615
 20
-224.4375950404317
 30
0.0
 11
1207.182796054615
 21
-224.4375950404317
 31
0.0
  0
LINE
  5
19F
330
1F
100
AcDbEntity
  8
Predefinito
100
AcDbLine
 10
1192.182796054615
 20
-204.4375950404317
 30
0.0
 11
1192.182796054615
 21
-224.4375950404317
 31
0.0
  0
LINE
  5
1A0
330
1F
100
AcDbEntity
  8
Predefinito
100
AcDbLine
 10
1227.182796054615
 20
-204.4375950404317
 30
0.0
 11
1192.182796054615
 21
-204.4375950404317
 31
0.0
  0
LINE
  5
1A1
330
1F
100
AcDbEntity
  8
Predefinito
100
AcDbLine
 10
1227.182796054615
 20
-249.4375950404317
 30
0.0
 11
1227.182796054615
 21
-204.4375950404317
 31
0.0
  0
LINE
  5
1A2
330
1F
100
AcDbEntity
  8
Predefinito
100
AcDbLine
 10
1282.182796054615
 20
-249.4375950404317
 30
0.0
 11
1227.182796054614
 21
-249.4375950404317
 31
0.0
  0
LINE
  5
1A3
330
1F
100
AcDbEntity
  8
Predefinito
100
AcDbLine
 10
1282.182796054615
 20
-209.4375950404317
 30
0.0
 11
1282.182796054615
 21
-249.4375950404317
 31
0.0
  0
LINE
  5
1A4
330
1F
100
AcDbEntity
  8
Predefinito
100
AcDbLine
 10
1257.182796054615
 20
-209.4375950404317
 30
0.0
 11
1282.182796054615
 21
-209.4375950404317
 31
0.0
  0
LINE
  5
1A5
330
1F
100
AcDbEntity
  8
Predefinito
100
AcDbLine
 10
1257.182796054615
 20
-219.4375950404317
 30
0.0
 11
1257.182796054615
 21
-209.4375950404317
 31
0.0
  0
LINE
  5
1A6
330
1F
100
AcDbEntity
  8
Predefinito
100
AcDbLine
 10
1272.182796054615
 20
-219.4375950404317
 30
0.0
 11
1257.182796054615
 21
-219.4375950404317
 31
0.0
  0
LINE
  5
1A7
330
1F
100
AcDbEntity
  8
Predefinito
100
AcDbLine
 10
1272.182796054615
 20
-239.4375950404317
 30
0.0
 11
1272.182796054615
 21
-219.4375950404317
 31
0.0
  0
LINE
  5
1A8
330
1F
100
AcDbEntity
  8
Predefinito
100
AcDbLine
 10
1237.182796054615
 20
-239.4375950404317
 30
0.0
 11
1272.182796054615
 21
-239.4375950404317
 31
0.0
  0
LINE
  5
1A9
330
1F
100
AcDbEntity
  8
Predefinito
100
AcDbLine
 10
1237.182796054615
 20
-194.4375950404317
 30
0.0
 11
1237.182796054615
 21
-239.4375950404317
 31
0.0
  0
LINE
  5
1AA
330
1F
100
AcDbEntity
  8
Predefinito
100
AcDbLine
 10
1182.182796054615
 20
-194.4375950404317
 30
0.0
 11
1237.182796054615
 21
-194.4375950404317
 31
0.0
  0
LINE
  5
1AB
330
1F
100
AcDbEntity
  8
Predefinito
100
AcDbLine
 10
1242.182796054615
 20
-234.4375950404317
 30
0.0
 11
1242.182796054615
 21
-194.4375950404317
 31
0.0
  0
LINE
  5
1AC
330
1F
100
AcDbEntity
  8
Predefinito
100
AcDbLine
 10
1267.182796054615
 20
-234.4375950404317
 30
0.0
 11
1242.182796054615
 21
-234.4375950404317
 31
0.0
  0
LINE
  5
1AD
330
1F
100
AcDbEntity
  8
Predefinito
100
AcDbLine
 10
1267.182796054615
 20
-224.4375950404317
 30
0.0
 11
1267.182796054615
 21
-234.4375950404317
 31
0.0
  0
LINE
  5
1AE
330
1F
100
AcDbEntity
  8
Predefinito
100
AcDbLine
 10
1252.182796054615
 20
-224.4375950404317
 30
0.0
 11
1267.182796054615
 21
-224.4375950404317
 31
0.0
  0
LINE
  5
1AF
330
1F
100
AcDbEntity
  8
Predefinito
100
AcDbLine
 10
1252.182796054615
 20
-204.4375950404317
 30
0.0
 11
1252.182796054615
 21
-224.4375950404317
 31
0.0
  0
LINE
  5
1B0
330
1F
100
AcDbEntity
  8
Predefinito
100
AcDbLine
 10
1287.182796054615
 20
-204.4375950404317
 30
0.0
 11
1252.182796054615
 21
-204.4375950404317
 31
0.0
  0
LINE
  5
1B1
330
1F
100
AcDbEntity
  8
Predefinito
100
AcDbLine
 10
1287.182796054615
 20
-249.4375950404317
 30
0.0
 11
1287.182796054615
 21
-204.4375950404317
 31
0.0
  0
LINE
  5
1B2
330
1F
100
AcDbEntity
  8
Predefinito
100
AcDbLine
 10
1342.182796054615
 20
-249.4375950404317
 30
0.0
 11
1287.182796054614
 21
-249.4375950404317
 31
0.0
  0
LINE
  5
1B3
330
1F
100
AcDbEntity
  8
Predefinito
100
AcDbLine
 10
1342.182796054615
 20
-209.4375950404317
 30
0.0
 11
1342.182796054615
 21
-249.4375950404317
 31
0.0
  0
LINE
  5
1B4
330
1F
100
AcDbEntity
  8
Predefinito
100
AcDbLine
 10
1317.182796054615
 20
-209.4375950404317
 30
0.0
 11
1342.182796054615
 21
-209.4375950404317
 31
0.0
  0
LINE
  5
1B5
330
1F
100
AcDbEntity
  8
Predefinito
100
AcDbLine
 10
1317.182796054615
 20
-219.4375950404317
 30
0.0
 11
1317.182796054615
 21
-209.4375950404317
 31
0.0
  0
LINE
  5
1B6
330
1F
100
AcDbEntity
  8
Predefinito
100
AcDbLine
 10
1332.182796054615
 20
-219.4375950404317
 30
0.0
 11
1317.182796054615
 21
-219.4375950404317
 31
0.0
  0
LINE
  5
1B7
330
1F
100
AcDbEntity
  8
Predefinito
100
AcDbLine
 10
1332.182796054615
 20
-239.4375950404317
 30
0.0
 11
1332.182796054615
 21
-219.4375950404317
 31
0.0
  0
LINE
  5
1B8
330
1F
100
AcDbEntity
  8
Predefinito
100
AcDbLine
 10
1297.182796054615
 20
-239.4375950404317
 30
0.0
 11
1332.182796054615
 21
-239.4375950404317
 31
0.0
  0
LINE
  5
1B9
330
1F
100
AcDbEntity
  8
Predefinito
100
AcDbLine
 10
1297.182796054615
 20
-194.4375950404317
 30
0.0
 11
1297.182796054615
 21
-239.4375950404317
 31
0.0
  0
LINE
  5
1BA
330
1F
100
AcDbEntity
  8
Predefinito
100
AcDbLine
 10
1242.182796054615
 20
-194.4375950404317
 30
0.0
 11
1297.182796054615
 21
-194.4375950404317
 31
0.0
  0
LINE
  5
1BB
330
1F
100
AcDbEntity
  8
Predefinito
100
AcDbLine
 10
1302.182796054615
 20
-234.4375950404317
 30
0.0
 11
1302.182796054615
 21
-194.4375950404317
 31
0.0
  0
LINE
  5
1BC
330
1F
100
AcDbEntity
  8
Predefinito
100
AcDbLine
 10
1327.182796054615
 20
-234.4375950404317
 30
0.0
 11
1302.182796054615
 21
-234.4375950404317
 31
0.0
  0
LINE
  5
1BD
330
1F
100
AcDbEntity
  8
Predefinito
100
AcDbLine
 10
1327.182796054615
 20
-224.4375950404317
 30
0.0
 11
1327.182796054615
 21
-234.4375950404317
 31
0.0
  0
LINE
  5
1BE
330
1F
100
AcDbEntity
  8
Predefinito
100
AcDbLine
 10
1312.182796054615
 20
-224.4375950404317
 30
0.0
 11
1327.182796054615
 21
-224.4375950404317
 31
0.0
  0
LINE
  5
1BF
330
1F
100
AcDbEntity
  8
Predefinito
100
AcDbLine
 10
1312.182796054615
 20
-204.4375950404317
 30
0.0
 11
1312.182796054615
 21
-224.4375950404317
 31
0.0
  0
LINE
  5
1C0
330
1F
100
AcDbEntity
  8
Predefinito
100
AcDbLine
 10
1347.182796054615
 20
-204.4375950404317
 30
0.0
 11
1312.182796054615
 21
-204.4375950404317
 31
0.0
  0
LINE
  5
1C1
330
1F
100
AcDbEntity
  8
Predefinito
100
AcDbLine
 10
1347.182796054615
 20
-249.4375950404317
 30
0.0
 11
1347.182796054615
 21
-204.4375950404317
 31
0.0
  0
LINE
  5
1C2
330
1F
100
AcDbEntity
  8
Predefinito
100
AcDbLine
 10
1402.182796054615
 20
-249.4375950404317
 30
0.0
 11
1347.182796054614
 21
-249.4375950404317
 31
0.0
  0
LINE
  5
1C3
330
1F
100
AcDbEntity
  8
Predefinito
100
AcDbLine
 10
1402.182796054615
 20
-209.4375950404317
 30
0.0
 11
1402.182796054615
 21
-249.4375950404317
 31
0.0
  0
LINE
  5
1C4
330
1F
100
AcDbEntity
  8
Predefinito
100
AcDbLine
 10
1377.182796054615
 20
-209.4375950404317
 30
0.0
 11
1402.182796054615
 21
-209.4375950404317
 31
0.0
  0
LINE
  5
1C5
330
1F
100
AcDbEntity
  8
Predefinito
100
AcDbLine
 10
1377.182796054615
 20
-219.4375950404317
 30
0.0
 11
1377.182796054615
 21
-209.4375950404317
 31
0.0
  0
LINE
  5
1C6
330
1F
100
AcDbEntity
  8
Predefinito
100
AcDbLine
 10
1392.182796054615
 20
-219.4375950404317
 30
0.0
 11
1377.182796054615
 21
-219.4375950404317
 31
0.0
  0
LINE
  5
1C7
330
1F
100
AcDbEntity
  8
Predefinito
100
AcDbLine
 10
1392.182796054615
 20
-239.4375950404317
 30
0.0
 11
1392.182796054615
 21
-219.4375950404317
 31
0.0
  0
LINE
  5
1C8
330
1F
100
AcDbEntity
  8
Predefinito
100
AcDbLine
 10
1357.182796054615
 20
-239.4375950404317
 30
0.0
 11
1392.182796054615
 21
-239.4375950404317
 31
0.0
  0
LINE
  5
1C9
330
1F
100
AcDbEntity
  8
Predefinito
100
AcDbLine
 10
1357.182796054615
 20
-194.4375950404317
 30
0.0
 11
1357.182796054615
 21
-239.4375950404317
 31
0.0
  0
LINE
  5
1CA
330
1F
100
AcDbEntity
  8
Predefinito
100
AcDbLine
 10
1302.182796054615
 20
-194.4375950404317
 30
0.0
 11
1357.182796054615
 21
-194.4375950404317
 31
0.0
  0
LINE
  5
1CB
330
1F
100
AcDbEntity
  8
Predefinito
100
AcDbLine
 10
1362.182796054615
 20
-234.4375950404317
 30
0.0
 11
1362.182796054615
 21
-194.4375950404317
 31
0.0
  0
LINE
  5
1CC
330
1F
100
AcDbEntity
  8
Predefinito
100
AcDbLine
 10
1387.182796054615
 20
-234.4375950404317
 30
0.0
 11
1362.182796054615
 21
-234.4375950404317
 31
0.0
  0
LINE
  5
1CD
330
1F
100
AcDbEntity
  8
Predefinito
100
AcDbLine
 10
1387.182796054615
 20
-224.4375950404317
 30
0.0
 11
1387.182796054615
 21
-234.4375950404317
 31
0.0
  0
LINE
  5
1CE
330
1F
100
AcDbEntity
  8
Predefinito
100
AcDbLine
 10
1372.182796054615
 20
-224.4375950404317
 30
0.0
 11
1387.182796054615
 21
-224.4375950404317
 31
0.0
  0
LINE
  5
1CF
330
1F
100
AcDbEntity
  8
Predefinito
100
AcDbLine
 10
1372.182796054615
 20
-204.4375950404317
 30
0.0
 11
1372.182796054615
 21
-224.4375950404317
 31
0.0
  0
LINE
  5
1D0
330
1F
100
AcDbEntity
  8
Predefinito
100
AcDbLine
 10
1407.182796054615
 20
-204.4375950404317
 30
0.0
 11
1372.182796054615
 21
-204.4375950404317
 31
0.0
  0
LINE
  5
1D1
330
1F
100
AcDbEntity
  8
Predefinito
100
AcDbLine
 10
1407.182796054615
 20
-249.4375950404317
 30
0.0
 11
1407.182796054615
 21
-204.4375950404317
 31
0.0
  0
LINE
  5
1D2
330
1F
100
AcDbEntity
  8
Predefinito
100
AcDbLine
 10
1462.182796054615
 20
-249.4375950404317
 30
0.0
 11
1407.182796054614
 21
-249.4375950404317
 31
0.0
  0
LINE
  5
1D3
330
1F
100
AcDbEntity
  8
Predefinito
100
AcDbLine
 10
1462.182796054615
 20
-209.4375950404317
 30
0.0
 11
1462.182796054615
 21
-249.4375950404317
 31
0.0
  0
LINE
  5
1D4
330
1F
100
AcDbEntity
  8
Predefinito
100
AcDbLine
 10
1437.182796054615
 20
-209.4375950404317
 30
0.0
 11
1462.182796054615
 21
-209.4375950404317
 31
0.0
  0
LINE
  5
1D5
330
1F
100
AcDbEntity
  8
Predefinito
100
AcDbLine
 10
1437.182796054615
 20
-219.4375950404317
 30
0.0
 11
1437.182796054615
 21
-209.4375950404317
 31
0.0
  0
LINE
  5
1D6
330
1F
100
AcDbEntity
  8
Predefinito
100
AcDbLine
 10
1452.182796054615
 20
-219.4375950404317
 30
0.0
 11
1437.182796054615
 21
-219.4375950404317
 31
0.0
  0
LINE
  5
1D7
330
1F
100
AcDbEntity
  8
Predefinito
100
AcDbLine
 10
1452.182796054615
 20
-239.4375950404317
 30
0.0
 11
1452.182796054615
 21
-219.4375950404317
 31
0.0
  0
LINE
  5
1D8
330
1F
100
AcDbEntity
  8
Predefinito
100
AcDbLine
 10
1417.182796054615
 20
-239.4375950404317
 30
0.0
 11
1452.182796054615
 21
-239.4375950404317
 31
0.0
  0
LINE
  5
1D9
330
1F
100
AcDbEntity
  8
Predefinito
100
AcDbLine
 10
1417.182796054615
 20
-194.4375950404317
 30
0.0
 11
1417.182796054615
 21
-239.4375950404317
 31
0.0
  0
LINE
  5
1DA
330
1F
100
AcDbEntity
  8
Predefinito
100
AcDbLine
 10
1362.182796054615
 20
-194.4375950404317
 30
0.0
 11
1417.182796054615
 21
-194.4375950404317
 31
0.0
  0
POLYLINE
  5
1DB
330
1F
100
AcDbEntity
  8
Predefinito
100
AcDb2dPolyline
 66
     1
 10
0.0
 20
0.0
 30
0.0
  0
VERTEX
  5
1DC
330
1DB
100
AcDbEntity
  8
Predefinito
100
AcDbVertex
100
AcDb2dVertex
 10
-2.817203945385494
 20
-572.502137494862
 30
0.0
  0
VERTEX
  5
1DD
330
1DB
100
AcDbEntity
  8
Predefinito
100
AcDbVertex
100
AcDb2dVertex
 10
17.18279605461451
 20
-572.502137494862
 30
0.0
  0
VERTEX
  5
1DE
330
1DB
100
AcDbEntity
  8
Predefinito
100
AcDbVertex
100
AcDb2dVertex
 10
17.1827960546145
 20
-602.502137494862
 30
0.0
  0
VERTEX
  5
1DF
330
1DB
100
AcDbEntity
  8
Predefinito
100
AcDbVertex
100
AcDb2dVertex
 10
-27.8172039453856
 20
-602.502137494862
 30
0.0
  0
VERTEX
  5
1E0
330
1DB
100
AcDbEntity
  8
Predefinito
100
AcDbVertex
100
AcDb2dVertex
 10
-27.81720394538549
 20
-552.5021374948618
 30
0.0
  0
SEQEND
  5
1E1
330
1DB
100
AcDbEntity
  8
Predefinito
  0
POLYLINE
  5
1E2
330
1F
100
AcDbEntity
  8
Predefinito
100
AcDb2dPolyline
 66
     1
 10
0.0
 20
0.0
 30
0.0
  0
VERTEX
  5
1E3
330
1E2
100
AcDbEntity
  8
Predefinito
100
AcDbVertex
100
AcDb2dVertex
 10
1466.182796054615
 20
-557.502137494862
 30
0.0
  0
VERTEX
  5
1E4
330
1E2
100
AcDbEntity
  8
Predefinito
100
AcDbVertex
100
AcDb2dVertex
 10
1427.182796054615
 20
-557.502137494862
 30
0.0
  0
VERTEX
  5
1E5
330
1E2
100
AcDbEntity
  8
Predefinito
100
AcDbVertex
100
AcDb2dVertex
 10
1427.182796054615
 20
-587.502137494862
 30
0.0
  0
VERTEX
  5
1E6
330
1E2
100
AcDbEntity
  8
Predefinito
100
AcDbVertex
100
AcDb2dVertex
 10
1447.182796054615
 20
-587.502137494862
 30
0.0
  0
SEQEND
  5
1E7
330
1E2
100
AcDbEntity
  8
Predefinito
  0
POLYLINE
  5
1E8
330
1F
100
AcDbEntity
  8
Predefinito
100
AcDb2dPolyline
 66
     1
 10
0.0
 20
0.0
 30
0.0
  0
VERTEX
  5
1E9
330
1E8
100
AcDbEntity
  8
Predefinito
100
AcDbVertex
100
AcDb2dVertex
 10
1437.182796054615
 20
-572.502137494862
 30
0.0
  0
VERTEX
  5
1EA
330
1E8
100
AcDbEntity
  8
Predefinito
100
AcDbVertex
100
AcDb2dVertex
 10
1457.182796054615
 20
-572.502137494862
 30
0.0
  0
VERTEX
  5
1EB
330
1E8
100
AcDbEntity
  8
Predefinito
100
AcDbVertex
100
AcDb2dVertex
 10
1457.182796054615
 20
-602.502137494862
 30
0.0
  0
VERTEX
  5
1EC
330
1E8
100
AcDbEntity
  8
Predefinito
100
AcDbVertex
100
AcDb2dVertex
 10
1412.182796054615
 20
-602.502137494862
 30
0.0
  0
VERTEX
  5
1ED
330
1E8
100
AcDbEntity
  8
Predefinito
100
AcDbVertex
100
AcDb2dVertex
 10
1412.182796054615
 20
-557.502137494862
 30
0.0
  0
VERTEX
  5
1EE
330
1E8
100
AcDbEntity
  8
Predefinito
100
AcDbVertex
100
AcDb2dVertex
 10
1367.182796054615
 20
-557.502137494862
 30
0.0
  0
VERTEX
  5
1EF
330
1E8
100
AcDbEntity
  8
Predefinito
100
AcDbVertex
100
AcDb2dVertex
 10
1367.182796054615
 20
-587.502137494862
 30
0.0
  0
VERTEX
  5
1F0
330
1E8
100
AcDbEntity
  8
Predefinito
100
AcDbVertex
100
AcDb2dVertex
 10
1387.182796054615
 20
-587.502137494862
 30
0.0
  0
SEQEND
  5
1F1
330
1E8
100
AcDbEntity
  8
Predefinito
  0
POLYLINE
  5
1F2
330
1F
100
AcDbEntity
  8
Predefinito
100
AcDb2dPolyline
 66
     1
 10
0.0
 20
0.0
 30
0.0
  0
VERTEX
  5
1F3
330
1F2
100
AcDbEntity
  8
Predefinito
100
AcDbVertex
100
AcDb2dVertex
 10
1377.182796054615
 20
-572.502137494862
 30
0.0
  0
VERTEX
  5
1F4
330
1F2
100
AcDbEntity
  8
Predefinito
100
AcDbVertex
100
AcDb2dVertex
 10
1397.182796054615
 20
-572.502137494862
 30
0.0
  0
VERTEX
  5
1F5
330
1F2
100
AcDbEntity
  8
Predefinito
100
AcDbVertex
100
AcDb2dVertex
 10
1397.182796054615
 20
-602.502137494862
 30
0.0
  0
VERTEX
  5
1F6
330
1F2
100
AcDbEntity
  8
Predefinito
100
AcDbVertex
100
AcDb2dVertex
 10
1352.182796054615
 20
-602.502137494862
 30
0.0
  0
VERTEX
  5
1F7
330
1F2
100
AcDbEntity
  8
Predefinito
100
AcDbVertex
100
AcDb2dVertex
 10
1352.182796054615
 20
-557.502137494862
 30
0.0
  0
VERTEX
  5
1F8
330
1F2
100
AcDbEntity
  8
Predefinito
100
AcDbVertex
100
AcDb2dVertex
 10
1307.182796054615
 20
-557.502137494862
 30
0.0
  0
VERTEX
  5
1F9
330
1F2
100
AcDbEntity
  8
Predefinito
100
AcDbVertex
100
AcDb2dVertex
 10
1307.182796054615
 20
-587.502137494862
 30
0.0
  0
VERTEX
  5
1FA
330
1F2
100
AcDbEntity
  8
Predefinito
100
AcDbVertex
100
AcDb2dVertex
 10
1327.182796054615
 20
-587.502137494862
 30
0.0
  0
SEQEND
  5
1FB
330
1F2
100
AcDbEntity
  8
Predefinito
  0
POLYLINE
  5
1FC
330
1F
100
AcDbEntity
  8
Predefinito
100
AcDb2dPolyline
 66
     1
 10
0.0
 20
0.0
 30
0.0
  0
VERTEX
  5
1FD
330
1FC
100
AcDbEntity
  8
Predefinito
100
AcDbVertex
100
AcDb2dVertex
 10
1317.182796054615
 20
-572.502137494862
 30
0.0
  0
VERTEX
  5
1FE
330
1FC
100
AcDbEntity
  8
Predefinito
100
AcDbVertex
100
AcDb2dVertex
 10
1337.182796054615
 20
-572.502137494862
 30
0.0
  0
VERTEX
  5
1FF
330
1FC
100
AcDbEntity
  8
Predefinito
100
AcDbVertex
100
AcDb2dVertex
 10
1337.182796054615
 20
-602.502137494862
 30
0.0
  0
VERTEX
  5
200
330
1FC
100
AcDbEntity
  8
Predefinito
100
AcDbVertex
100
AcDb2dVertex
 10
1292.182796054615
 20
-602.502137494862
 30
0.0
  0
VERTEX
  5
201
330
1FC
100
AcDbEntity
  8
Predefinito
100
AcDbVertex
100
AcDb2dVertex
 10
1292.182796054615
 20
-557.502137494862
 30
0.0
  0
VERTEX
  5
202
330
1FC
100
AcDbEntity
  8
Predefinito
100
AcDbVertex
100
AcDb2dVertex
 10
1247.182796054615
 20
-557.502137494862
 30
0.0
  0
VERTEX
  5
203
330
1FC
100
AcDbEntity
  8
Predefinito
100
AcDbVertex
100
AcDb2dVertex
 10
1247.182796054615
 20
-587.502137494862
 30
0.0
  0
VERTEX
  5
204
330
1FC
100
AcDbEntity
  8
Predefinito
100
AcDbVertex
100
AcDb2dVertex
 10
1267.182796054615
 20
-587.502137494862
 30
0.0
  0
SEQEND
  5
205
330
1FC
100
AcDbEntity
  8
Predefinito
  0
POLYLINE
  5
206
330
1F
100
AcDbEntity
  8
Predefinito
100
AcDb2dPolyline
 66
     1
 10
0.0
 20
0.0
 30
0.0
  0
VERTEX
  5
207
330
206
100
AcDbEntity
  8
Predefinito
100
AcDbVertex
100
AcDb2dVertex
 10
1257.182796054615
 20
-572.502137494862
 30
0.0
  0
VERTEX
  5
208
330
206
100
AcDbEntity
  8
Predefinito
100
AcDbVertex
100
AcDb2dVertex
 10
1277.182796054615
 20
-572.502137494862
 30
0.0
  0
VERTEX
  5
209
330
206
100
AcDbEntity
  8
Predefinito
100
AcDbVertex
100
AcDb2dVertex
 10
1277.182796054615
 20
-602.502137494862
 30
0.0
  0
VERTEX
  5
20A
330
206
100
AcDbEntity
  8
Predefinito
100
AcDbVertex
100
AcDb2dVertex
 10
1232.182796054615
 20
-602.502137494862
 30
0.0
  0
VERTEX
  5
20B
330
206
100
AcDbEntity
  8
Predefinito
100
AcDbVertex
100
AcDb2dVertex
 10
1232.182796054615
 20
-557.502137494862
 30
0.0
  0
VERTEX
  5
20C
330
206
100
AcDbEntity
  8
Predefinito
100
AcDbVertex
100
AcDb2dVertex
 10
1187.182796054615
 20
-557.502137494862
 30
0.0
  0
VERTEX
  5
20D
330
206
100
AcDbEntity
  8
Predefinito
100
AcDbVertex
100
AcDb2dVertex
 10
1187.182796054615
 20
-587.502137494862
 30
0.0
  0
VERTEX
  5
20E
330
206
100
AcDbEntity
  8
Predefinito
100
AcDbVertex
100
AcDb2dVertex
 10
1207.182796054615
 20
-587.502137494862
 30
0.0
  0
SEQEND
  5
20F
330
206
100
AcDbEntity
  8
Predefinito
  0
POLYLINE
  5
210
330
1F
100
AcDbEntity
  8
Predefinito
100
AcDb2dPolyline
 66
     1
 10
0.0
 20
0.0
 30
0.0
  0
VERTEX
  5
211
330
210
100
AcDbEntity
  8
Predefinito
100
AcDbVertex
100
AcDb2dVertex
 10
1197.182796054615
 20
-572.502137494862
 30
0.0
  0
VERTEX
  5
212
330
210
100
AcDbEntity
  8
Predefinito
100
AcDbVertex
100
AcDb2dVertex
 10
1217.182796054615
 20
-572.502137494862
 30
0.0
  0
VERTEX
  5
213
330
210
100
AcDbEntity
  8
Predefinito
100
AcDbVertex
100
AcDb2dVertex
 10
1217.182796054615
 20
-602.502137494862
 30
0.0
  0
VERTEX
  5
214
330
210
100
AcDbEntity
  8
Predefinito
100
AcDbVertex
100
AcDb2dVertex
 10
1172.182796054615
 20
-602.502137494862
 30
0.0
  0
VERTEX
  5
215
330
210
100
AcDbEntity
  8
Predefinito
100
AcDbVertex
100
AcDb2dVertex
 10
1172.182796054615
 20
-557.502137494862
 30
0.0
  0
VERTEX
  5
216
330
210
100
AcDbEntity
  8
Predefinito
100
AcDbVertex
100
AcDb2dVertex
 10
1127.182796054615
 20
-557.502137494862
 30
0.0
  0
VERTEX
  5
217
330
210
100
AcDbEntity
  8
Predefinito
100
AcDbVertex
100
AcDb2dVertex
 10
1127.182796054615
 20
-587.502137494862
 30
0.0
  0
VERTEX
  5
218
330
210
100
AcDbEntity
  8
Predefinito
100
AcDbVertex
100
AcDb2dVertex
 10
1147.182796054615
 20
-587.502137494862
 30
0.0
  0
SEQEND
  5
219
330
210
100
AcDbEntity
  8
Predefinito
  0
POLYLINE
  5
21A
330
1F
100
AcDbEntity
  8
Predefinito
100
AcDb2dPolyline
 66
     1
 10
0.0
 20
0.0
 30
0.0
  0
VERTEX
  5
21B
330
21A
100
AcDbEntity
  8
Predefinito
100
AcDbVertex
100
AcDb2dVertex
 10
1137.182796054615
 20
-572.502137494862
 30
0.0
  0
VERTEX
  5
21C
330
21A
100
AcDbEntity
  8
Predefinito
100
AcDbVertex
100
AcDb2dVertex
 10
1157.182796054615
 20
-572.502137494862
 30
0.0
  0
VERTEX
  5
21D
330
21A
100
AcDbEntity
  8
Predefinito
100
AcDbVertex
100
AcDb2dVertex
 10
1157.182796054615
 20
-602.502137494862
 30
0.0
  0
VERTEX
  5
21E
330
21A
100
AcDbEntity
  8
Predefinito
100
AcDbVertex
100
AcDb2dVertex
 10
1112.182796054615
 20
-602.502137494862
 30
0.0
  0
VERTEX
  5
21F
330
21A
100
AcDbEntity
  8
Predefinito
100
AcDbVertex
100
AcDb2dVertex
 10
1112.182796054615
 20
-557.502137494862
 30
0.0
  0
VERTEX
  5
220
330
21A
100
AcDbEntity
  8
Predefinito
100
AcDbVertex
100
AcDb2dVertex
 10
1067.182796054615
 20
-557.502137494862
 30
0.0
  0
VERTEX
  5
221
330
21A
100
AcDbEntity
  8
Predefinito
100
AcDbVertex
100
AcDb2dVertex
 10
1067.182796054615
 20
-587.502137494862
 30
0.0
  0
VERTEX
  5
222
330
21A
100
AcDbEntity
  8
Predefinito
100
AcDbVertex
100
AcDb2dVertex
 10
1087.182796054615
 20
-587.502137494862
 30
0.0
  0
SEQEND
  5
223
330
21A
100
AcDbEntity
  8
Predefinito
  0
POLYLINE
  5
224
330
1F
100
AcDbEntity
  8
Predefinito
100
AcDb2dPolyline
 66
     1
 10
0.0
 20
0.0
 30
0.0
  0
VERTEX
  5
225
330
224
100
AcDbEntity
  8
Predefinito
100
AcDbVertex
100
AcDb2dVertex
 10
1077.182796054615
 20
-572.502137494862
 30
0.0
  0
VERTEX
  5
226
330
224
100
AcDbEntity
  8
Predefinito
100
AcDbVertex
100
AcDb2dVertex
 10
1097.182796054615
 20
-572.502137494862
 30
0.0
  0
VERTEX
  5
227
330
224
100
AcDbEntity
  8
Predefinito
100
AcDbVertex
100
AcDb2dVertex
 10
1097.182796054615
 20
-602.502137494862
 30
0.0
  0
VERTEX
  5
228
330
224
100
AcDbEntity
  8
Predefinito
100
AcDbVertex
100
AcDb2dVertex
 10
1052.182796054615
 20
-602.502137494862
 30
0.0
  0
VERTEX
  5
229
330
224
100
AcDbEntity
  8
Predefinito
100
AcDbVertex
100
AcDb2dVertex
 10
1052.182796054615
 20
-557.502137494862
 30
0.0
  0
VERTEX
  5
22A
330
224
100
AcDbEntity
  8
Predefinito
100
AcDbVertex
100
AcDb2dVertex
 10
1007.182796054615
 20
-557.502137494862
 30
0.0
  0
VERTEX
  5
22B
330
224
100
AcDbEntity
  8
Predefinito
100
AcDbVertex
100
AcDb2dVertex
 10
1007.182796054615
 20
-587.502137494862
 30
0.0
  0
VERTEX
  5
22C
330
224
100
AcDbEntity
  8
Predefinito
100
AcDbVertex
100
AcDb2dVertex
 10
1027.182796054615
 20
-587.502137494862
 30
0.0
  0
SEQEND
  5
22D
330
224
100
AcDbEntity
  8
Predefinito
  0
POLYLINE
  5
22E
330
1F
100
AcDbEntity
  8
Predefinito
100
AcDb2dPolyline
 66
     1
 10
0.0
 20
0.0
 30
0.0
  0
VERTEX
  5
22F
330
22E
100
AcDbEntity
  8
Predefinito
100
AcDbVertex
100
AcDb2dVertex
 10
1017.182796054615
 20
-572.502137494862
 30
0.0
  0
VERTEX
  5
230
330
22E
100
AcDbEntity
  8
Predefinito
100
AcDbVertex
100
AcDb2dVertex
 10
1037.182796054615
 20
-572.502137494862
 30
0.0
  0
VERTEX
  5
231
330
22E
100
AcDbEntity
  8
Predefinito
100
AcDbVertex
100
AcDb2dVertex
 10
1037.182796054615
 20
-602.502137494862
 30
0.0
  0
VERTEX
  5
232
330
22E
100
AcDbEntity
  8
Predefinito
100
AcDbVertex
100
AcDb2dVertex
 10
992.1827960546145
 20
-602.502137494862
 30
0.0
  0
VERTEX
  5
233
330
22E
100
AcDbEntity
  8
Predefinito
100
AcDbVertex
100
AcDb2dVertex
 10
992.1827960546145
 20
-557.502137494862
 30
0.0
  0
VERTEX
  5
234
330
22E
100
AcDbEntity
  8
Predefinito
100
AcDbVertex
100
AcDb2dVertex
 10
947.1827960546145
 20
-557.502137494862
 30
0.0
  0
VERTEX
  5
235
330
22E
100
AcDbEntity
  8
Predefinito
100
AcDbVertex
100
AcDb2dVertex
 10
947.1827960546145
 20
-587.502137494862
 30
0.0
  0
VERTEX
  5
236
330
22E
100
AcDbEntity
  8
Predefinito
100
AcDbVertex
100
AcDb2dVertex
 10
967.1827960546145
 20
-587.502137494862
 30
0.0
  0
SEQEND
  5
237
330
22E
100
AcDbEntity
  8
Predefinito
  0
POLYLINE
  5
238
330
1F
100
AcDbEntity
  8
Predefinito
100
AcDb2dPolyline
 66
     1
 10
0.0
 20
0.0
 30
0.0
  0
VERTEX
  5
239
330
238
100
AcDbEntity
  8
Predefinito
100
AcDbVertex
100
AcDb2dVertex
 10
957.1827960546145
 20
-572.502137494862
 30
0.0
  0
VERTEX
  5
23A
330
238
100
AcDbEntity
  8
Predefinito
100
AcDbVertex
100
AcDb2dVertex
 10
977.1827960546145
 20
-572.502137494862
 30
0.0
  0
VERTEX
  5
23B
330
238
100
AcDbEntity
  8
Predefinito
100
AcDbVertex
100
AcDb2dVertex
 10
977.1827960546145
 20
-602.502137494862
 30
0.0
  0
VERTEX
  5
23C
330
238
100
AcDbEntity
  8
Predefinito
100
AcDbVertex
100
AcDb2dVertex
 10
932.1827960546145
 20
-602.502137494862
 30
0.0
  0
VERTEX
  5
23D
330
238
100
AcDbEntity
  8
Predefinito
100
AcDbVertex
100
AcDb2dVertex
 10
932.1827960546145
 20
-557.502137494862
 30
0.0
  0
VERTEX
  5
23E
330
238
100
AcDbEntity
  8
Predefinito
100
AcDbVertex
100
AcDb2dVertex
 10
887.1827960546145
 20
-557.502137494862
 30
0.0
  0
VERTEX
  5
23F
330
238
100
AcDbEntity
  8
Predefinito
100
AcDbVertex
100
AcDb2dVertex
 10
887.1827960546145
 20
-587.502137494862
 30
0.0
  0
VERTEX
  5
240
330
238
100
AcDbEntity
  8
Predefinito
100
AcDbVertex
100
AcDb2dVertex
 10
907.1827960546145
 20
-587.502137494862
 30
0.0
  0
SEQEND
  5
241
330
238
100
AcDbEntity
  8
Predefinito
  0
POLYLINE
  5
242
330
1F
100
AcDbEntity
  8
Predefinito
100
AcDb2dPolyline
 66
     1
 10
0.0
 20
0.0
 30
0.0
  0
VERTEX
  5
243
330
242
100
AcDbEntity
  8
Predefinito
100
AcDbVertex
100
AcDb2dVertex
 10
897.1827960546145
 20
-572.502137494862
 30
0.0
  0
VERTEX
  5
244
330
242
100
AcDbEntity
  8
Predefinito
100
AcDbVertex
100
AcDb2dVertex
 10
917.1827960546145
 20
-572.502137494862
 30
0.0
  0
VERTEX
  5
245
330
242
100
AcDbEntity
  8
Predefinito
100
AcDbVertex
100
AcDb2dVertex
 10
917.1827960546145
 20
-602.502137494862
 30
0.0
  0
VERTEX
  5
246
330
242
100
AcDbEntity
  8
Predefinito
100
AcDbVertex
100
AcDb2dVertex
 10
872.1827960546145
 20
-602.502137494862
 30
0.0
  0
VERTEX
  5
247
330
242
100
AcDbEntity
  8
Predefinito
100
AcDbVertex
100
AcDb2dVertex
 10
872.1827960546145
 20
-557.502137494862
 30
0.0
  0
VERTEX
  5
248
330
242
100
AcDbEntity
  8
Predefinito
100
AcDbVertex
100
AcDb2dVertex
 10
827.1827960546145
 20
-557.502137494862
 30
0.0
  0
VERTEX
  5
249
330
242
100
AcDbEntity
  8
Predefinito
100
AcDbVertex
100
AcDb2dVertex
 10
827.1827960546145
 20
-587.502137494862
 30
0.0
  0
VERTEX
  5
24A
330
242
100
AcDbEntity
  8
Predefinito
100
AcDbVertex
100
AcDb2dVertex
 10
847.1827960546145
 20
-587.502137494862
 30
0.0
  0
SEQEND
  5
24B
330
242
100
AcDbEntity
  8
Predefinito
  0
POLYLINE
  5
24C
330
1F
100
AcDbEntity
  8
Predefinito
100
AcDb2dPolyline
 66
     1
 10
0.0
 20
0.0
 30
0.0
  0
VERTEX
  5
24D
330
24C
100
AcDbEntity
  8
Predefinito
100
AcDbVertex
100
AcDb2dVertex
 10
837.1827960546145
 20
-572.502137494862
 30
0.0
  0
VERTEX
  5
24E
330
24C
100
AcDbEntity
  8
Predefinito
100
AcDbVertex
100
AcDb2dVertex
 10
857.1827960546145
 20
-572.502137494862
 30
0.0
  0
VERTEX
  5
24F
330
24C
100
AcDbEntity
  8
Predefinito
100
AcDbVertex
100
AcDb2dVertex
 10
857.1827960546145
 20
-602.502137494862
 30
0.0
  0
VERTEX
  5
250
330
24C
100
AcDbEntity
  8
Predefinito
100
AcDbVertex
100
AcDb2dVertex
 10
812.1827960546145
 20
-602.502137494862
 30
0.0
  0
VERTEX
  5
251
330
24C
100
AcDbEntity
  8
Predefinito
100
AcDbVertex
100
AcDb2dVertex
 10
812.1827960546145
 20
-557.502137494862
 30
0.0
  0
VERTEX
  5
252
330
24C
100
AcDbEntity
  8
Predefinito
100
AcDbVertex
100
AcDb2dVertex
 10
767.1827960546145
 20
-557.502137494862
 30
0.0
  0
VERTEX
  5
253
330
24C
100
AcDbEntity
  8
Predefinito
100
AcDbVertex
100
AcDb2dVertex
 10
767.1827960546145
 20
-587.502137494862
 30
0.0
  0
VERTEX
  5
254
330
24C
100
AcDbEntity
  8
Predefinito
100
AcDbVertex
100
AcDb2dVertex
 10
787.1827960546145
 20
-587.502137494862
 30
0.0
  0
SEQEND
  5
255
330
24C
100
AcDbEntity
  8
Predefinito
  0
POLYLINE
  5
256
330
1F
100
AcDbEntity
  8
Predefinito
100
AcDb2dPolyline
 66
     1
 10
0.0
 20
0.0
 30
0.0
  0
VERTEX
  5
257
330
256
100
AcDbEntity
  8
Predefinito
100
AcDbVertex
100
AcDb2dVertex
 10
777.1827960546145
 20
-572.502137494862
 30
0.0
  0
VERTEX
  5
258
330
256
100
AcDbEntity
  8
Predefinito
100
AcDbVertex
100
AcDb2dVertex
 10
797.1827960546145
 20
-572.502137494862
 30
0.0
  0
VERTEX
  5
259
330
256
100
AcDbEntity
  8
Predefinito
100
AcDbVertex
100
AcDb2dVertex
 10
797.1827960546145
 20
-602.502137494862
 30
0.0
  0
VERTEX
  5
25A
330
256
100
AcDbEntity
  8
Predefinito
100
AcDbVertex
100
AcDb2dVertex
 10
752.1827960546145
 20
-602.502137494862
 30
0.0
  0
VERTEX
  5
25B
330
256
100
AcDbEntity
  8
Predefinito
100
AcDbVertex
100
AcDb2dVertex
 10
752.1827960546145
 20
-557.502137494862
 30
0.0
  0
VERTEX
  5
25C
330
256
100
AcDbEntity
  8
Predefinito
100
AcDbVertex
100
AcDb2dVertex
 10
707.1827960546145
 20
-557.502137494862
 30
0.0
  0
VERTEX
  5
25D
330
256
100
AcDbEntity
  8
Predefinito
100
AcDbVertex
100
AcDb2dVertex
 10
707.1827960546145
 20
-587.502137494862
 30
0.0
  0
VERTEX
  5
25E
330
256
100
AcDbEntity
  8
Predefinito
100
AcDbVertex
100
AcDb2dVertex
 10
727.1827960546145
 20
-587.502137494862
 30
0.0
  0
SEQEND
  5
25F
330
256
100
AcDbEntity
  8
Predefinito
  0
POLYLINE
  5
260
330
1F
100
AcDbEntity
  8
Predefinito
100
AcDb2dPolyline
 66
     1
 10
0.0
 20
0.0
 30
0.0
  0
VERTEX
  5
261
330
260
100
AcDbEntity
  8
Predefinito
100
AcDbVertex
100
AcDb2dVertex
 10
717.1827960546145
 20
-572.502137494862
 30
0.0
  0
VERTEX
  5
262
330
260
100
AcDbEntity
  8
Predefinito
100
AcDbVertex
100
AcDb2dVertex
 10
737.1827960546145
 20
-572.502137494862
 30
0.0
  0
VERTEX
  5
263
330
260
100
AcDbEntity
  8
Predefinito
100
AcDbVertex
100
AcDb2dVertex
 10
737.1827960546145
 20
-602.502137494862
 30
0.0
  0
VERTEX
  5
264
330
260
100
AcDbEntity
  8
Predefinito
100
AcDbVertex
100
AcDb2dVertex
 10
692.1827960546145
 20
-602.502137494862
 30
0.0
  0
VERTEX
  5
265
330
260
100
AcDbEntity
  8
Predefinito
100
AcDbVertex
100
AcDb2dVertex
 10
692.1827960546145
 20
-557.502137494862
 30
0.0
  0
VERTEX
  5
266
330
260
100
AcDbEntity
  8
Predefinito
100
AcDbVertex
100
AcDb2dVertex
 10
647.1827960546145
 20
-557.502137494862
 30
0.0
  0
VERTEX
  5
267
330
260
100
AcDbEntity
  8
Predefinito
100
AcDbVertex
100
AcDb2dVertex
 10
647.1827960546145
 20
-587.502137494862
 30
0.0
  0
VERTEX
  5
268
330
260
100
AcDbEntity
  8
Predefinito
100
AcDbVertex
100
AcDb2dVertex
 10
667.1827960546145
 20
-587.502137494862
 30
0.0
  0
SEQEND
  5
269
330
260
100
AcDbEntity
  8
Predefinito
  0
POLYLINE
  5
26A
330
1F
100
AcDbEntity
  8
Predefinito
100
AcDb2dPolyline
 66
     1
 10
0.0
 20
0.0
 30
0.0
  0
VERTEX
  5
26B
330
26A
100
AcDbEntity
  8
Predefinito
100
AcDbVertex
100
AcDb2dVertex
 10
657.1827960546145
 20
-572.502137494862
 30
0.0
  0
VERTEX
  5
26C
330
26A
100
AcDbEntity
  8
Predefinito
100
AcDbVertex
100
AcDb2dVertex
 10
677.1827960546145
 20
-572.502137494862
 30
0.0
  0
VERTEX
  5
26D
330
26A
100
AcDbEntity
  8
Predefinito
100
AcDbVertex
100
AcDb2dVertex
 10
677.1827960546145
 20
-602.502137494862
 30
0.0
  0
VERTEX
  5
26E
330
26A
100
AcDbEntity
  8
Predefinito
100
AcDbVertex
100
AcDb2dVertex
 10
632.1827960546145
 20
-602.502137494862
 30
0.0
  0
VERTEX
  5
26F
330
26A
100
AcDbEntity
  8
Predefinito
100
AcDbVertex
100
AcDb2dVertex
 10
632.1827960546145
 20
-557.502137494862
 30
0.0
  0
VERTEX
  5
270
330
26A
100
AcDbEntity
  8
Predefinito
100
AcDbVertex
100
AcDb2dVertex
 10
587.1827960546145
 20
-557.502137494862
 30
0.0
  0
VERTEX
  5
271
330
26A
100
AcDbEntity
  8
Predefinito
100
AcDbVertex
100
AcDb2dVertex
 10
587.1827960546145
 20
-587.502137494862
 30
0.0
  0
VERTEX
  5
272
330
26A
100
AcDbEntity
  8
Predefinito
100
AcDbVertex
100
AcDb2dVertex
 10
607.1827960546145
 20
-587.502137494862
 30
0.0
  0
SEQEND
  5
273
330
26A
100
AcDbEntity
  8
Predefinito
  0
POLYLINE
  5
274
330
1F
100
AcDbEntity
  8
Predefinito
100
AcDb2dPolyline
 66
     1
 10
0.0
 20
0.0
 30
0.0
  0
VERTEX
  5
275
330
274
100
AcDbEntity
  8
Predefinito
100
AcDbVertex
100
AcDb2dVertex
 10
597.1827960546145
 20
-572.502137494862
 30
0.0
  0
VERTEX
  5
276
330
274
100
AcDbEntity
  8
Predefinito
100
AcDbVertex
100
AcDb2dVertex
 10
617.1827960546145
 20
-572.502137494862
 30
0.0
  0
VERTEX
  5
277
330
274
100
AcDbEntity
  8
Predefinito
100
AcDbVertex
100
AcDb2dVertex
 10
617.1827960546145
 20
-602.502137494862
 30
0.0
  0
VERTEX
  5
278
330
274
100
AcDbEntity
  8
Predefinito
100
AcDbVertex
100
AcDb2dVertex
 10
572.1827960546145
 20
-602.502137494862
 30
0.0
  0
VERTEX
  5
279
330
274
100
AcDbEntity
  8
Predefinito
100
AcDbVertex
100
AcDb2dVertex
 10
572.1827960546145
 20
-557.502137494862
 30
0.0
  0
VERTEX
  5
27A
330
274
100
AcDbEntity
  8
Predefinito
100
AcDbVertex
100
AcDb2dVertex
 10
527.1827960546145
 20
-557.502137494862
 30
0.0
  0
VERTEX
  5
27B
330
274
100
AcDbEntity
  8
Predefinito
100
AcDbVertex
100
AcDb2dVertex
 10
527.1827960546145
 20
-587.502137494862
 30
0.0
  0
VERTEX
  5
27C
330
274
100
AcDbEntity
  8
Predefinito
100
AcDbVertex
100
AcDb2dVertex
 10
547.1827960546145
 20
-587.502137494862
 30
0.0
  0
SEQEND
  5
27D
330
274
100
AcDbEntity
  8
Predefinito
  0
POLYLINE
  5
27E
330
1F
100
AcDbEntity
  8
Predefinito
100
AcDb2dPolyline
 66
     1
 10
0.0
 20
0.0
 30
0.0
  0
VERTEX
  5
27F
330
27E
100
AcDbEntity
  8
Predefinito
100
AcDbVertex
100
AcDb2dVertex
 10
537.1827960546145
 20
-572.502137494862
 30
0.0
  0
VERTEX
  5
280
330
27E
100
AcDbEntity
  8
Predefinito
100
AcDbVertex
100
AcDb2dVertex
 10
557.1827960546145
 20
-572.502137494862
 30
0.0
  0
VERTEX
  5
281
330
27E
100
AcDbEntity
  8
Predefinito
100
AcDbVertex
100
AcDb2dVertex
 10
557.1827960546145
 20
-602.502137494862
 30
0.0
  0
VERTEX
  5
282
330
27E
100
AcDbEntity
  8
Predefinito
100
AcDbVertex
100
AcDb2dVertex
 10
512.1827960546145
 20
-602.502137494862
 30
0.0
  0
VERTEX
  5
283
330
27E
100
AcDbEntity
  8
Predefinito
100
AcDbVertex
100
AcDb2dVertex
 10
512.1827960546145
 20
-557.502137494862
 30
0.0
  0
VERTEX
  5
284
330
27E
100
AcDbEntity
  8
Predefinito
100
AcDbVertex
100
AcDb2dVertex
 10
467.1827960546145
 20
-557.502137494862
 30
0.0
  0
VERTEX
  5
285
330
27E
100
AcDbEntity
  8
Predefinito
100
AcDbVertex
100
AcDb2dVertex
 10
467.1827960546145
 20
-587.502137494862
 30
0.0
  0
VERTEX
  5
286
330
27E
100
AcDbEntity
  8
Predefinito
100
AcDbVertex
100
AcDb2dVertex
 10
487.1827960546145
 20
-587.502137494862
 30
0.0
  0
SEQEND
  5
287
330
27E
100
AcDbEntity
  8
Predefinito
  0
POLYLINE
  5
288
330
1F
100
AcDbEntity
  8
Predefinito
100
AcDb2dPolyline
 66
     1
 10
0.0
 20
0.0
 30
0.0
  0
VERTEX
  5
289
330
288
100
AcDbEntity
  8
Predefinito
100
AcDbVertex
100
AcDb2dVertex
 10
477.1827960546145
 20
-572.502137494862
 30
0.0
  0
VERTEX
  5
28A
330
288
100
AcDbEntity
  8
Predefinito
100
AcDbVertex
100
AcDb2dVertex
 10
497.1827960546145
 20
-572.502137494862
 30
0.0
  0
VERTEX
  5
28B
330
288
100
AcDbEntity
  8
Predefinito
100
AcDbVertex
100
AcDb2dVertex
 10
497.1827960546145
 20
-602.502137494862
 30
0.0
  0
VERTEX
  5
28C
330
288
100
AcDbEntity
  8
Predefinito
100
AcDbVertex
100
AcDb2dVertex
 10
452.1827960546145
 20
-602.502137494862
 30
0.0
  0
VERTEX
  5
28D
330
288
100
AcDbEntity
  8
Predefinito
100
AcDbVertex
100
AcDb2dVertex
 10
452.1827960546145
 20
-557.502137494862
 30
0.0
  0
VERTEX
  5
28E
330
288
100
AcDbEntity
  8
Predefinito
100
AcDbVertex
100
AcDb2dVertex
 10
407.1827960546145
 20
-557.502137494862
 30
0.0
  0
VERTEX
  5
28F
330
288
100
AcDbEntity
  8
Predefinito
100
AcDbVertex
100
AcDb2dVertex
 10
407.1827960546145
 20
-587.502137494862
 30
0.0
  0
VERTEX
  5
290
330
288
100
AcDbEntity
  8
Predefinito
100
AcDbVertex
100
AcDb2dVertex
 10
427.1827960546145
 20
-587.502137494862
 30
0.0
  0
SEQEND
  5
291
330
288
100
AcDbEntity
  8
Predefinito
  0
POLYLINE
  5
292
330
1F
100
AcDbEntity
  8
Predefinito
100
AcDb2dPolyline
 66
     1
 10
0.0
 20
0.0
 30
0.0
  0
VERTEX
  5
293
330
292
100
AcDbEntity
  8
Predefinito
100
AcDbVertex
100
AcDb2dVertex
 10
417.1827960546145
 20
-572.502137494862
 30
0.0
  0
VERTEX
  5
294
330
292
100
AcDbEntity
  8
Predefinito
100
AcDbVertex
100
AcDb2dVertex
 10
437.1827960546145
 20
-572.502137494862
 30
0.0
  0
VERTEX
  5
295
330
292
100
AcDbEntity
  8
Predefinito
100
AcDbVertex
100
AcDb2dVertex
 10
437.1827960546145
 20
-602.502137494862
 30
0.0
  0
VERTEX
  5
296
330
292
100
AcDbEntity
  8
Predefinito
100
AcDbVertex
100
AcDb2dVertex
 10
392.1827960546145
 20
-602.502137494862
 30
0.0
  0
VERTEX
  5
297
330
292
100
AcDbEntity
  8
Predefinito
100
AcDbVertex
100
AcDb2dVertex
 10
392.1827960546145
 20
-557.502137494862
 30
0.0
  0
VERTEX
  5
298
330
292
100
AcDbEntity
  8
Predefinito
100
AcDbVertex
100
AcDb2dVertex
 10
347.1827960546145
 20
-557.502137494862
 30
0.0
  0
VERTEX
  5
299
330
292
100
AcDbEntity
  8
Predefinito
100
AcDbVertex
100
AcDb2dVertex
 10
347.1827960546145
 20
-587.502137494862
 30
0.0
  0
VERTEX
  5
29A
330
292
100
AcDbEntity
  8
Predefinito
100
AcDbVertex
100
AcDb2dVertex
 10
367.1827960546145
 20
-587.502137494862
 30
0.0
  0
SEQEND
  5
29B
330
292
100
AcDbEntity
  8
Predefinito
  0
POLYLINE
  5
29C
330
1F
100
AcDbEntity
  8
Predefinito
100
AcDb2dPolyline
 66
     1
 10
0.0
 20
0.0
 30
0.0
  0
VERTEX
  5
29D
330
29C
100
AcDbEntity
  8
Predefinito
100
AcDbVertex
100
AcDb2dVertex
 10
357.1827960546145
 20
-572.502137494862
 30
0.0
  0
VERTEX
  5
29E
330
29C
100
AcDbEntity
  8
Predefinito
100
AcDbVertex
100
AcDb2dVertex
 10
377.1827960546145
 20
-572.502137494862
 30
0.0
  0
VERTEX
  5
29F
330
29C
100
AcDbEntity
  8
Predefinito
100
AcDbVertex
100
AcDb2dVertex
 10
377.1827960546145
 20
-602.502137494862
 30
0.0
  0
VERTEX
  5
2A0
330
29C
100
AcDbEntity
  8
Predefinito
100
AcDbVertex
100
AcDb2dVertex
 10
332.1827960546145
 20
-602.502137494862
 30
0.0
  0
VERTEX
  5
2A1
330
29C
100
AcDbEntity
  8
Predefinito
100
AcDbVertex
100
AcDb2dVertex
 10
332.1827960546145
 20
-557.502137494862
 30
0.0
  0
VERTEX
  5
2A2
330
29C
100
AcDbEntity
  8
Predefinito
100
AcDbVertex
100
AcDb2dVertex
 10
287.1827960546145
 20
-557.502137494862
 30
0.0
  0
VERTEX
  5
2A3
330
29C
100
AcDbEntity
  8
Predefinito
100
AcDbVertex
100
AcDb2dVertex
 10
287.1827960546145
 20
-587.502137494862
 30
0.0
  0
VERTEX
  5
2A4
330
29C
100
AcDbEntity
  8
Predefinito
100
AcDbVertex
100
AcDb2dVertex
 10
307.1827960546145
 20
-587.502137494862
 30
0.0
  0
SEQEND
  5
2A5
330
29C
100
AcDbEntity
  8
Predefinito
  0
POLYLINE
  5
2A6
330
1F
100
AcDbEntity
  8
Predefinito
100
AcDb2dPolyline
 66
     1
 10
0.0
 20
0.0
 30
0.0
  0
VERTEX
  5
2A7
330
2A6
100
AcDbEntity
  8
Predefinito
100
AcDbVertex
100
AcDb2dVertex
 10
297.1827960546145
 20
-572.502137494862
 30
0.0
  0
VERTEX
  5
2A8
330
2A6
100
AcDbEntity
  8
Predefinito
100
AcDbVertex
100
AcDb2dVertex
 10
317.1827960546145
 20
-572.502137494862
 30
0.0
  0
VERTEX
  5
2A9
330
2A6
100
AcDbEntity
  8
Predefinito
100
AcDbVertex
100
AcDb2dVertex
 10
317.1827960546145
 20
-602.502137494862
 30
0.0
  0
VERTEX
  5
2AA
330
2A6
100
AcDbEntity
  8
Predefinito
100
AcDbVertex
100
AcDb2dVertex
 10
272.1827960546145
 20
-602.502137494862
 30
0.0
  0
VERTEX
  5
2AB
330
2A6
100
AcDbEntity
  8
Predefinito
100
AcDbVertex
100
AcDb2dVertex
 10
272.1827960546145
 20
-557.502137494862
 30
0.0
  0
VERTEX
  5
2AC
330
2A6
100
AcDbEntity
  8
Predefinito
100
AcDbVertex
100
AcDb2dVertex
 10
227.1827960546145
 20
-557.502137494862
 30
0.0
  0
VERTEX
  5
2AD
330
2A6
100
AcDbEntity
  8
Predefinito
100
AcDbVertex
100
AcDb2dVertex
 10
227.1827960546145
 20
-587.502137494862
 30
0.0
  0
VERTEX
  5
2AE
330
2A6
100
AcDbEntity
  8
Predefinito
100
AcDbVertex
100
AcDb2dVertex
 10
247.1827960546145
 20
-587.502137494862
 30
0.0
  0
SEQEND
  5
2AF
330
2A6
100
AcDbEntity
  8
Predefinito
  0
POLYLINE
  5
2B0
330
1F
100
AcDbEntity
  8
Predefinito
100
AcDb2dPolyline
 66
     1
 10
0.0
 20
0.0
 30
0.0
  0
VERTEX
  5
2B1
330
2B0
100
AcDbEntity
  8
Predefinito
100
AcDbVertex
100
AcDb2dVertex
 10
237.1827960546145
 20
-572.502137494862
 30
0.0
  0
VERTEX
  5
2B2
330
2B0
100
AcDbEntity
  8
Predefinito
100
AcDbVertex
100
AcDb2dVertex
 10
257.1827960546145
 20
-572.502137494862
 30
0.0
  0
VERTEX
  5
2B3
330
2B0
100
AcDbEntity
  8
Predefinito
100
AcDbVertex
100
AcDb2dVertex
 10
257.1827960546145
 20
-602.502137494862
 30
0.0
  0
VERTEX
  5
2B4
330
2B0
100
AcDbEntity
  8
Predefinito
100
AcDbVertex
100
AcDb2dVertex
 10
212.1827960546145
 20
-602.502137494862
 30
0.0
  0
VERTEX
  5
2B5
330
2B0
100
AcDbEntity
  8
Predefinito
100
AcDbVertex
100
AcDb2dVertex
 10
212.1827960546145
 20
-557.502137494862
 30
0.0
  0
VERTEX
  5
2B6
330
2B0
100
AcDbEntity
  8
Predefinito
100
AcDbVertex
100
AcDb2dVertex
 10
167.1827960546145
 20
-557.502137494862
 30
0.0
  0
VERTEX
  5
2B7
330
2B0
100
AcDbEntity
  8
Predefinito
100
AcDbVertex
100
AcDb2dVertex
 10
167.1827960546145
 20
-587.502137494862
 30
0.0
  0
VERTEX
  5
2B8
330
2B0
100
AcDbEntity
  8
Predefinito
100
AcDbVertex
100
AcDb2dVertex
 10
187.1827960546145
 20
-587.502137494862
 30
0.0
  0
SEQEND
  5
2B9
330
2B0
100
AcDbEntity
  8
Predefinito
  0
POLYLINE
  5
2BA
330
1F
100
AcDbEntity
  8
Predefinito
100
AcDb2dPolyline
 66
     1
 10
0.0
 20
0.0
 30
0.0
  0
VERTEX
  5
2BB
330
2BA
100
AcDbEntity
  8
Predefinito
100
AcDbVertex
100
AcDb2dVertex
 10
177.1827960546145
 20
-572.502137494862
 30
0.0
  0
VERTEX
  5
2BC
330
2BA
100
AcDbEntity
  8
Predefinito
100
AcDbVertex
100
AcDb2dVertex
 10
197.1827960546145
 20
-572.502137494862
 30
0.0
  0
VERTEX
  5
2BD
330
2BA
100
AcDbEntity
  8
Predefinito
100
AcDbVertex
100
AcDb2dVertex
 10
197.1827960546145
 20
-602.502137494862
 30
0.0
  0
VERTEX
  5
2BE
330
2BA
100
AcDbEntity
  8
Predefinito
100
AcDbVertex
100
AcDb2dVertex
 10
152.1827960546145
 20
-602.502137494862
 30
0.0
  0
VERTEX
  5
2BF
330
2BA
100
AcDbEntity
  8
Predefinito
100
AcDbVertex
100
AcDb2dVertex
 10
152.1827960546145
 20
-557.502137494862
 30
0.0
  0
VERTEX
  5
2C0
330
2BA
100
AcDbEntity
  8
Predefinito
100
AcDbVertex
100
AcDb2dVertex
 10
107.1827960546145
 20
-557.502137494862
 30
0.0
  0
VERTEX
  5
2C1
330
2BA
100
AcDbEntity
  8
Predefinito
100
AcDbVertex
100
AcDb2dVertex
 10
107.1827960546145
 20
-587.502137494862
 30
0.0
  0
VERTEX
  5
2C2
330
2BA
100
AcDbEntity
  8
Predefinito
100
AcDbVertex
100
AcDb2dVertex
 10
127.1827960546145
 20
-587.502137494862
 30
0.0
  0
SEQEND
  5
2C3
330
2BA
100
AcDbEntity
  8
Predefinito
  0
POLYLINE
  5
2C4
330
1F
100
AcDbEntity
  8
Predefinito
100
AcDb2dPolyline
 66
     1
 10
0.0
 20
0.0
 30
0.0
  0
VERTEX
  5
2C5
330
2C4
100
AcDbEntity
  8
Predefinito
100
AcDbVertex
100
AcDb2dVertex
 10
117.1827960546145
 20
-572.502137494862
 30
0.0
  0
VERTEX
  5
2C6
330
2C4
100
AcDbEntity
  8
Predefinito
100
AcDbVertex
100
AcDb2dVertex
 10
137.1827960546145
 20
-572.502137494862
 30
0.0
  0
VERTEX
  5
2C7
330
2C4
100
AcDbEntity
  8
Predefinito
100
AcDbVertex
100
AcDb2dVertex
 10
137.1827960546145
 20
-602.502137494862
 30
0.0
  0
VERTEX
  5
2C8
330
2C4
100
AcDbEntity
  8
Predefinito
100
AcDbVertex
100
AcDb2dVertex
 10
92.18279605461449
 20
-602.502137494862
 30
0.0
  0
VERTEX
  5
2C9
330
2C4
100
AcDbEntity
  8
Predefinito
100
AcDbVertex
100
AcDb2dVertex
 10
92.18279605461449
 20
-557.502137494862
 30
0.0
  0
VERTEX
  5
2CA
330
2C4
100
AcDbEntity
  8
Predefinito
100
AcDbVertex
100
AcDb2dVertex
 10
47.18279605461449
 20
-557.502137494862
 30
0.0
  0
VERTEX
  5
2CB
330
2C4
100
AcDbEntity
  8
Predefinito
100
AcDbVertex
100
AcDb2dVertex
 10
47.18279605461449
 20
-587.502137494862
 30
0.0
  0
VERTEX
  5
2CC
330
2C4
100
AcDbEntity
  8
Predefinito
100
AcDbVertex
100
AcDb2dVertex
 10
67.18279605461449
 20
-587.502137494862
 30
0.0
  0
SEQEND
  5
2CD
330
2C4
100
AcDbEntity
  8
Predefinito
  0
POLYLINE
  5
2CE
330
1F
100
AcDbEntity
  8
Predefinito
100
AcDb2dPolyline
 66
     1
 10
0.0
 20
0.0
 30
0.0
  0
VERTEX
  5
2CF
330
2CE
100
AcDbEntity
  8
Predefinito
100
AcDbVertex
100
AcDb2dVertex
 10
57.18279605461449
 20
-572.502137494862
 30
0.0
  0
VERTEX
  5
2D0
330
2CE
100
AcDbEntity
  8
Predefinito
100
AcDbVertex
100
AcDb2dVertex
 10
77.18279605461449
 20
-572.502137494862
 30
0.0
  0
VERTEX
  5
2D1
330
2CE
100
AcDbEntity
  8
Predefinito
100
AcDbVertex
100
AcDb2dVertex
 10
77.18279605461449
 20
-602.502137494862
 30
0.0
  0
VERTEX
  5
2D2
330
2CE
100
AcDbEntity
  8
Predefinito
100
AcDbVertex
100
AcDb2dVertex
 10
32.18279605461449
 20
-602.502137494862
 30
0.0
  0
VERTEX
  5
2D3
330
2CE
100
AcDbEntity
  8
Predefinito
100
AcDbVertex
100
AcDb2dVertex
 10
32.18279605461449
 20
-557.502137494862
 30
0.0
  0
VERTEX
  5
2D4
330
2CE
100
AcDbEntity
  8
Predefinito
100
AcDbVertex
100
AcDb2dVertex
 10
-12.81720394538551
 20
-557.502137494862
 30
0.0
  0
VERTEX
  5
2D5
330
2CE
100
AcDbEntity
  8
Predefinito
100
AcDbVertex
100
AcDb2dVertex
 10
-12.81720394538551
 20
-587.502137494862
 30
0.0
  0
VERTEX
  5
2D6
330
2CE
100
AcDbEntity
  8
Predefinito
100
AcDbVertex
100
AcDb2dVertex
 10
7.182796054614485
 20
-587.502137494862
 30
0.0
  0
SEQEND
  5
2D7
330
2CE
100
AcDbEntity
  8
Predefinito
  0
POLYLINE
  5
2D8
330
1F
100
AcDbEntity
  8
Predefinito
100
AcDb2dPolyline
 66
     1
 10
0.0
 20
0.0
 30
0.0
  0
VERTEX
  5
2D9
330
2D8
100
AcDbEntity
  8
Predefinito
100
AcDbVertex
100
AcDb2dVertex
 10
-33.81720394538549
 20
-612.002137494862
 30
0.0
  0
VERTEX
  5
2DA
330
2D8
100
AcDbEntity
  8
Predefinito
100
AcDbVertex
100
AcDb2dVertex
 10
1466.182796054615
 20
-612.002137494862
 30
0.0
  0
VERTEX
  5
2DB
330
2D8
100
AcDbEntity
  8
Predefinito
100
AcDbVertex
100
AcDb2dVertex
 10
1466.182796054615
 20
-547.002137494862
 30
0.0
  0
VERTEX
  5
2DC
330
2D8
100
AcDbEntity
  8
Predefinito
100
AcDbVertex
100
AcDb2dVertex
 10
-33.81720394538549
 20
-547.002137494862
 30
0.0
  0
VERTEX
  5
2DD
330
2D8
100
AcDbEntity
  8
Predefinito
100
AcDbVertex
100
AcDb2dVertex
 10
-33.81720394538549
 20
-612.002137494862
 30
0.0
  0
SEQEND
  5
2DE
330
2D8
100
AcDbEntity
  8
Predefinito
  0
LINE
  5
2DF
330
1F
100
AcDbEntity
  8
Predefinito
100
AcDbLine
 10
-33.81720394538549
 20
-549.502137494862
 30
0.0
 11
1466.182796054615
 21
-549.502137494862
 31
0.0
  0
LINE
  5
2E0
330
1F
100
AcDbEntity
  8
Predefinito
100
AcDbLine
 10
-33.81720394538549
 20
-609.502137494862
 30
0.0
 11
1466.182796054615
 21
-609.502137494862
 31
0.0
  0
ENDSEC
  0
SECTION
  2
OBJECTS
  0
DICTIONARY
  5
C
330
0
100
AcDbDictionary
281
     1
  3
ACAD_GROUP
350
D
  3
ACAD_LAYOUT
350
1A
  3
ACAD_MATERIAL
350
3B
  3
ACAD_MLEADERSTYLE
350
308
  3
ACAD_MLINESTYLE
350
17
  3
ACAD_PLOTSETTINGS
350
19
  3
ACAD_PLOTSTYLENAME
350
E
  3
ACAD_TABLESTYLE
350
307
  3
ACAD_VISUALSTYLE
350
2A
  0
DICTIONARY
  5
D
102
{ACAD_REACTORS
330
C
102
}
330
C
100
AcDbDictionary
281
     1
  0
DICTIONARY
  5
1A
102
{ACAD_REACTORS
330
C
102
}
330
C
100
AcDbDictionary
281
     1
  3
Layout1
350
1E
  3
Layout2
350
26
  3
Model
350
22
  0
DICTIONARY
  5
3B
102
{ACAD_REACTORS
330
C
102
}
330
C
100
AcDbDictionary
281
     1
  3
ByBlock
350
3D
  3
ByLayer
350
3C
  3
Global
350
3E
  0
DICTIONARY
  5
308
102
{ACAD_REACTORS
330
C
102
}
330
C
100
AcDbDictionary
281
     1
  0
DICTIONARY
  5
17
102
{ACAD_REACTORS
330
C
102
}
330
C
100
AcDbDictionary
281
     1
  3
Standard
350
18
  0
DICTIONARY
  5
19
102
{ACAD_REACTORS
330
C
102
}
330
C
100
AcDbDictionary
281
     1
  0
ACDBDICTIONARYWDFLT
  5
E
102
{ACAD_REACTORS
330
C
102
}
330
C
100
AcDbDictionary
281
     1
  3
Normal
350
F
100
AcDbDictionaryWithDefault
340
F
  0
DICTIONARY
  5
307
102
{ACAD_REACTORS
330
C
102
}
330
C
100
AcDbDictionary
281
     1
  0
DICTIONARY
  5
2A
102
{ACAD_REACTORS
330
C
102
}
330
C
100
AcDbDictionary
281
     1
  3
2dWireframe
350
2F
  3
3D Hidden
350
31
  3
3dWireframe
350
30
  3
Basic
350
32
  3
Brighten
350
36
  3
ColorChange
350
3A
  3
Conceptual
350
34
  3
Dim
350
35
  3
Facepattern
350
39
  3
Flat
350
2B
  3
FlatWithEdges
350
2C
  3
Gouraud
350
2D
  3
GouraudWithEdges
350
2E
  3
Linepattern
350
38
  3
Realistic
350
33
  3
Thicken
350
37
  0
LAYOUT
  5
1E
102
{ACAD_REACTORS
330
1A
102
}
330
1A
100
AcDbPlotSettings
  1

  2
none_device
  4

  6

 40
0.0
 41
0.0
 42
0.0
 43
0.0
 44
0.0
 45
0.0
 46
0.0
 47
0.0
 48
0.0
 49
0.0
140
0.0
141
0.0
142
1.0
143
1.0
 70
   688
 72
     0
 73
     0
 74
     5
  7

 75
    16
 76
     0
 77
     2
 78
   300
147
1.0
148
0.0
149
0.0
100
AcDbLayout
  1
Layout1
 70
     1
 71
     1
 10
0.0
 20
0.0
 11
12.0
 21
9.0
 12
0.0
 22
0.0
 32
0.0
 14
1.000000000000000E+20
 24
1.000000000000000E+20
 34
1.000000000000000E+20
 15
-1.000000000000000E+20
 25
-1.000000000000000E+20
 35
-1.000000000000000E+20
146
0.0
 13
0.0
 23
0.0
 33
0.0
 16
1.0
 26
0.0
 36
0.0
 17
0.0
 27
1.0
 37
0.0
 76
     0
330
1B
  0
LAYOUT
  5
26
102
{ACAD_REACTORS
330
1A
102
}
330
1A
100
AcDbPlotSettings
  1

  2
none_device
  4

  6

 40
0.0
 41
0.0
 42
0.0
 43
0.0
 44
0.0
 45
0.0
 46
0.0
 47
0.0
 48
0.0
 49
0.0
140
0.0
141
0.0
142
1.0
143
1.0
 70
   688
 72
     0
 73
     0
 74
     5
  7

 75
    16
 76
     0
 77
     2
 78
   300
147
1.0
148
0.0
149
0.0
100
AcDbLayout
  1
Layout2
 70
     1
 71
     2
 10
0.0
 20
0.0
 11
0.0
 21
0.0
 12
0.0
 22
0.0
 32
0.0
 14
0.0
 24
0.0
 34
0.0
 15
0.0
 25
0.0
 35
0.0
146
0.0
 13
0.0
 23
0.0
 33
0.0
 16
1.0
 26
0.0
 36
0.0
 17
0.0
 27
1.0
 37
0.0
 76
     0
330
23
  0
LAYOUT
  5
22
102
{ACAD_REACTORS
330
1A
102
}
330
1A
100
AcDbPlotSettings
  1

  2
none_device
  4

  6

 40
0.0
 41
0.0
 42
0.0
 43
0.0
 44
0.0
 45
0.0
 46
0.0
 47
0.0
 48
0.0
 49
0.0
140
0.0
141
0.0
142
1.0
143
1.0
 70
  1712
 72
     0
 73
     0
 74
     0
  7

 75
     0
 76
     0
 77
     2
 78
   300
147
1.0
148
0.0
149
0.0
100
AcDbLayout
  1
Model
 70
     1
 71
     0
 10
0.0
 20
0.0
 11
12.0
 21
9.0
 12
0.0
 22
0.0
 32
0.0
 14
-33.81720394538549
 24
-612.002137494862
 34
0.0
 15
1466.182796054615
 25
-188.9375950404317
 35
0.0
146
0.0
 13
0.0
 23
0.0
 33
0.0
 16
1.0
 26
0.0
 36
0.0
 17
0.0
 27
1.0
 37
0.0
 76
     0
330
1F
331
29
  0
MATERIAL
  5
3D
102
{ACAD_REACTORS
330
3B
102
}
102
{ACAD_XDICTIONARY
360
303
102
}
330
3B
100
AcDbMaterial
  1
ByBlock
  0
MATERIAL
  5
3C
102
{ACAD_REACTORS
330
3B
102
}
102
{ACAD_XDICTIONARY
360
301
102
}
330
3B
100
AcDbMaterial
  1
ByLayer
  0
MATERIAL
  5
3E
102
{ACAD_REACTORS
330
3B
102
}
102
{ACAD_XDICTIONARY
360
305
102
}
330
3B
100
AcDbMaterial
  1
Global
  0
MLINESTYLE
  5
18
102
{ACAD_REACTORS
330
17
102
}
330
17
100
AcDbMlineStyle
  2
Standard
 70
     0
  3

 62
   256
 51
90.0
 52
90.0
 71
     2
 49
0.5
 62
   256
  6
BYLAYER
 49
-0.5
 62
   256
  6
BYLAYER
  0
ACDBPLACEHOLDER
  5
F
102
{ACAD_REACTORS
330
E
102
}
330
E
  0
VISUALSTYLE
  5
2F
102
{ACAD_REACTORS
330
2A
102
}
102
{ACAD_XDICTIONARY
360
2E9
102
}
330
2A
100
AcDbVisualStyle
  2
2dWireframe
 70
     4
 71
     0
 72
     2
 73
     0
 90
        0
 40
-0.6
 41
-30.0
 62
     5
 63
     7
421
 16777215
 74
     1
 91
        4
 64
     7
 65
   257
 75
     1
175
     1
 42
1.0
 92
        0
 66
   257
 43
1.0
 76
     1
 77
     6
 78
     2
 67
     7
 79
     5
170
     0
171
     0
290
     0
174
     0
 93
        1
 44
0.0
173
     0
291
     0
 45
0.0
1001
ACAD
1000
AcDbSavedByObjectVersion
1070
     0
  0
VISUALSTYLE
  5
31
102
{ACAD_REACTORS
330
2A
102
}
102
{ACAD_XDICTIONARY
360
2ED
102
}
330
2A
100
AcDbVisualStyle
  2
3D Hidden
 70
     6
 71
     1
 72
     2
 73
     2
 90
        0
 40
-0.6
 41
-30.0
 62
     5
 63
     7
421
 16777215
 74
     2
 91
        2
 64
     7
 65
   257
 75
     2
175
     1
 42
40.0
 92
        0
 66
   257
 43
1.0
 76
     1
 77
     6
 78
     2
 67
     7
 79
     3
170
     0
171
     0
290
     0
174
     0
 93
        1
 44
0.0
173
     0
291
     0
 45
0.0
1001
ACAD
1000
AcDbSavedByObjectVersion
1070
     0
  0
VISUALSTYLE
  5
30
102
{ACAD_REACTORS
330
2A
102
}
102
{ACAD_XDICTIONARY
360
2EB
102
}
330
2A
100
AcDbVisualStyle
  2
3dWireframe
 70
     5
 71
     0
 72
     2
 73
     0
 90
        0
 40
-0.6
 41
-30.0
 62
     5
 63
     7
421
 16777215
 74
     1
 91
        4
 64
     7
 65
   257
 75
     1
175
     1
 42
1.0
 92
        0
 66
   257
 43
1.0
 76
     1
 77
     6
 78
     2
 67
     7
 79
     5
170
     0
171
     0
290
     0
174
     0
 93
        1
 44
0.0
173
     0
291
     0
 45
0.0
1001
ACAD
1000
AcDbSavedByObjectVersion
1070
     0
  0
VISUALSTYLE
  5
32
102
{ACAD_REACTORS
330
2A
102
}
102
{ACAD_XDICTIONARY
360
2EF
102
}
330
2A
100
AcDbVisualStyle
  2
Basic
 70
     7
 71
     1
 72
     0
 73
     1
 90
        0
 40
-0.6
 41
-30.0
 62
     5
 63
     7
421
 16777215
 74
     0
 91
        4
 64
     7
 65
   257
 75
     1
175
     1
 42
1.0
 92
        8
 66
     7
 43
1.0
 76
     1
 77
     6
 78
     2
 67
     7
 79
     5
170
     0
171
     0
290
     0
174
     0
 93
        1
 44
0.0
173
     0
291
     1
 45
0.0
1001
ACAD
1000
AcDbSavedByObjectVersion
1070
     0
  0
VISUALSTYLE
  5
36
102
{ACAD_REACTORS
330
2A
102
}
102
{ACAD_XDICTIONARY
360
2F7
102
}
330
2A
100
AcDbVisualStyle
  2
Brighten
 70
    12
 71
     2
 72
     2
 73
     0
 90
        0
 40
-0.6
 41
-30.0
 62
     5
 63
     7
421
 16777215
 74
     1
 91
        4
 64
     7
 65
   257
 75
     1
175
     1
 42
1.0
 92
        8
 66
     7
 43
1.0
 76
     1
 77
     6
 78
     2
 67
     7
 79
     5
170
     0
171
     0
290
     0
174
     0
 93
        1
 44
50.0
173
     0
291
     1
 45
0.0
1001
ACAD
1000
AcDbSavedByObjectVersion
1070
     0
  0
VISUALSTYLE
  5
3A
102
{ACAD_REACTORS
330
2A
102
}
102
{ACAD_XDICTIONARY
360
2FF
102
}
330
2A
100
AcDbVisualStyle
  2
ColorChange
 70
    16
 71
     2
 72
     2
 73
     3
 90
        0
 40
-0.6
 41
-30.0
 62
     5
 63
     8
421
  8421504
 74
     1
 91
        4
 64
     7
 65
   257
 75
     1
175
     1
 42
1.0
 92
        8
 66
     8
424
  8421504
 43
1.0
 76
     1
 77
     6
 78
     2
 67
     7
 79
     5
170
     0
171
     0
290
     0
174
     0
 93
        1
 44
0.0
173
     0
291
     1
 45
0.0
1001
ACAD
1000
AcDbSavedByObjectVersion
1070
     0
  0
VISUALSTYLE
  5
34
102
{ACAD_REACTORS
330
2A
102
}
102
{ACAD_XDICTIONARY
360
2F3
102
}
330
2A
100
AcDbVisualStyle
  2
Conceptual
 70
     9
 71
     3
 72
     2
 73
     0
 90
        0
 40
-0.6
 41
-30.0
 62
     5
 63
     7
421
 16777215
 74
     2
 91
        2
 64
     7
 65
   257
 75
     1
175
     1
 42
40.0
 92
        8
 66
     7
 43
1.0
 76
     1
 77
     6
 78
     2
 67
     7
 79
     3
170
     0
171
     0
290
     0
174
     0
 93
        1
 44
0.0
173
     0
291
     0
 45
0.0
1001
ACAD
1000
AcDbSavedByObjectVersion
1070
     0
  0
VISUALSTYLE
  5
35
102
{ACAD_REACTORS
330
2A
102
}
102
{ACAD_XDICTIONARY
360
2F5
102
}
330
2A
100
AcDbVisualStyle
  2
Dim
 70
    11
 71
     2
 72
     2
 73
     0
 90
        0
 40
-0.6
 41
-30.0
 62
     5
 63
     7
421
 16777215
 74
     1
 91
        4
 64
     7
 65
   257
 75
     1
175
     1
 42
1.0
 92
        8
 66
     7
 43
1.0
 76
     1
 77
     6
 78
     2
 67
     7
 79
     5
170
     0
171
     0
290
     0
174
     0
 93
        1
 44
-50.0
173
     0
291
     1
 45
0.0
1001
ACAD
1000
AcDbSavedByObjectVersion
1070
     0
  0
VISUALSTYLE
  5
39
102
{ACAD_REACTORS
330
2A
102
}
102
{ACAD_XDICTIONARY
360
2FD
102
}
330
2A
100
AcDbVisualStyle
  2
Facepattern
 70
    15
 71
     2
 72
     2
 73
     0
 90
        0
 40
-0.6
 41
-30.0
 62
     5
 63
     7
421
 16777215
 74
     1
 91
        4
 64
     7
 65
   257
 75
     1
175
     1
 42
1.0
 92
        8
 66
     7
 43
1.0
 76
     1
 77
     6
 78
     2
 67
     7
 79
     5
170
     0
171
     0
290
     0
174
     0
 93
        1
 44
0.0
173
     0
291
     1
 45
0.0
1001
ACAD
1000
AcDbSavedByObjectVersion
1070
     0
  0
VISUALSTYLE
  5
2B
102
{ACAD_REACTORS
330
2A
102
}
102
{ACAD_XDICTIONARY
360
2E1
102
}
330
2A
100
AcDbVisualStyle
  2
Flat
 70
     0
 71
     2
 72
     1
 73
     1
 90
        2
 40
-0.6
 41
30.0
 62
     5
 63
     7
421
 16777215
 74
     0
 91
        4
 64
     7
 65
   257
 75
     1
175
     1
 42
1.0
 92
        8
 66
     7
 43
1.0
 76
     1
 77
     6
 78
     2
 67
     7
 79
     5
170
     0
171
     0
290
     0
174
     0
 93
       13
 44
0.0
173
     0
291
     1
 45
0.0
1001
ACAD
1000
AcDbSavedByObjectVersion
1070
     0
  0
VISUALSTYLE
  5
2C
102
{ACAD_REACTORS
330
2A
102
}
102
{ACAD_XDICTIONARY
360
2E3
102
}
330
2A
100
AcDbVisualStyle
  2
FlatWithEdges
 70
     1
 71
     2
 72
     1
 73
     1
 90
        2
 40
-0.6
 41
30.0
 62
     5
 63
     7
421
 16777215
 74
     1
 91
        4
 64
     7
 65
   257
 75
     1
175
     1
 42
1.0
 92
        0
 66
   257
 43
1.0
 76
     1
 77
     6
 78
     2
 67
     7
 79
     5
170
     0
171
     0
290
     0
174
     0
 93
       13
 44
0.0
173
     0
291
     1
 45
0.0
1001
ACAD
1000
AcDbSavedByObjectVersion
1070
     0
  0
VISUALSTYLE
  5
2D
102
{ACAD_REACTORS
330
2A
102
}
102
{ACAD_XDICTIONARY
360
2E5
102
}
330
2A
100
AcDbVisualStyle
  2
Gouraud
 70
     2
 71
     2
 72
     2
 73
     1
 90
        2
 40
-0.6
 41
30.0
 62
     5
 63
     7
421
 16777215
 74
     0
 91
        4
 64
     7
 65
   257
 75
     1
175
     1
 42
1.0
 92
        0
 66
     7
 43
1.0
 76
     1
 77
     6
 78
     2
 67
     7
 79
     5
170
     0
171
     0
290
     0
174
     0
 93
       13
 44
0.0
173
     0
291
     1
 45
0.0
1001
ACAD
1000
AcDbSavedByObjectVersion
1070
     0
  0
VISUALSTYLE
  5
2E
102
{ACAD_REACTORS
330
2A
102
}
102
{ACAD_XDICTIONARY
360
2E7
102
}
330
2A
100
AcDbVisualStyle
  2
GouraudWithEdges
 70
     3
 71
     2
 72
     2
 73
     1
 90
        2
 40
-0.6
 41
30.0
 62
     5
 63
     7
421
 16777215
 74
     1
 91
        4
 64
     7
 65
   257
 75
     1
175
     1
 42
1.0
 92
        0
 66
   257
 43
1.0
 76
     1
 77
     6
 78
     2
 67
     7
 79
     5
170
     0
171
     0
290
     0
174
     0
 93
       13
 44
0.0
173
     0
291
     1
 45
0.0
1001
ACAD
1000
AcDbSavedByObjectVersion
1070
     0
  0
VISUALSTYLE
  5
38
102
{ACAD_REACTORS
330
2A
102
}
102
{ACAD_XDICTIONARY
360
2FB
102
}
330
2A
100
AcDbVisualStyle
  2
Linepattern
 70
    14
 71
     2
 72
     2
 73
     0
 90
        0
 40
-0.6
 41
-30.0
 62
     5
 63
     7
421
 16777215
 74
     1
 91
        4
 64
     7
 65
   257
 75
     7
175
     7
 42
1.0
 92
        8
 66
     7
 43
1.0
 76
     1
 77
     6
 78
     2
 67
     7
 79
     5
170
     0
171
     0
290
     0
174
     0
 93
        1
 44
0.0
173
     0
291
     1
 45
0.0
1001
ACAD
1000
AcDbSavedByObjectVersion
1070
     0
  0
VISUALSTYLE
  5
33
102
{ACAD_REACTORS
330
2A
102
}
102
{ACAD_XDICTIONARY
360
2F1
102
}
330
2A
100
AcDbVisualStyle
  2
Realistic
 70
     8
 71
     2
 72
     2
 73
     0
 90
        0
 40
-0.6
 41
-30.0
 62
     5
 63
     7
421
 16777215
 74
     1
 91
        0
 64
     7
 65
   257
 75
     1
175
     1
 42
1.0
 92
        8
 66
     8
424
  7895160
 43
1.0
 76
     1
 77
     6
 78
     2
 67
     7
 79
     5
170
     0
171
     0
290
     0
174
     0
 93
       13
 44
0.0
173
     0
291
     0
 45
0.0
1001
ACAD
1000
AcDbSavedByObjectVersion
1070
     0
  0
VISUALSTYLE
  5
37
102
{ACAD_REACTORS
330
2A
102
}
102
{ACAD_XDICTIONARY
360
2F9
102
}
330
2A
100
AcDbVisualStyle
  2
Thicken
 70
    13
 71
     2
 72
     2
 73
     0
 90
        0
 40
-0.6
 41
-30.0
 62
     5
 63
     7
421
 16777215
 74
     1
 91
        4
 64
     7
 65
   257
 75
     1
175
     1
 42
1.0
 92
       12
 66
     7
 43
1.0
 76
     1
 77
     6
 78
     2
 67
     7
 79
     5
170
     0
171
     0
290
     0
174
     0
 93
        1
 44
0.0
173
     0
291
     1
 45
0.0
1001
ACAD
1000
AcDbSavedByObjectVersion
1070
     0
  0
DICTIONARY
  5
303
330
3D
100
AcDbDictionary
280
     1
281
     1
  3
ACAD_XREC_ROUNDTRIP
360
304
  0
DICTIONARY
  5
301
330
3C
100
AcDbDictionary
280
     1
281
     1
  3
ACAD_XREC_ROUNDTRIP
360
302
  0
DICTIONARY
  5
305
330
3E
100
AcDbDictionary
280
     1
281
     1
  3
ACAD_XREC_ROUNDTRIP
360
306
  0
DICTIONARY
  5
2E9
330
2F
100
AcDbDictionary
280
     1
281
     1
  3
ACAD_XREC_ROUNDTRIP
360
2EA
  0
DICTIONARY
  5
2ED
330
31
100
AcDbDictionary
280
     1
281
     1
  3
ACAD_XREC_ROUNDTRIP
360
2EE
  0
DICTIONARY
  5
2EB
330
30
100
AcDbDictionary
280
     1
281
     1
  3
ACAD_XREC_ROUNDTRIP
360
2EC
  0
DICTIONARY
  5
2EF
330
32
100
AcDbDictionary
280
     1
281
     1
  3
ACAD_XREC_ROUNDTRIP
360
2F0
  0
DICTIONARY
  5
2F7
330
36
100
AcDbDictionary
280
     1
281
     1
  3
ACAD_XREC_ROUNDTRIP
360
2F8
  0
DICTIONARY
  5
2FF
330
3A
100
AcDbDictionary
280
     1
281
     1
  3
ACAD_XREC_ROUNDTRIP
360
300
  0
DICTIONARY
  5
2F3
330
34
100
AcDbDictionary
280
     1
281
     1
  3
ACAD_XREC_ROUNDTRIP
360
2F4
  0
DICTIONARY
  5
2F5
330
35
100
AcDbDictionary
280
     1
281
     1
  3
ACAD_XREC_ROUNDTRIP
360
2F6
  0
DICTIONARY
  5
2FD
330
39
100
AcDbDictionary
280
     1
281
     1
  3
ACAD_XREC_ROUNDTRIP
360
2FE
  0
DICTIONARY
  5
2E1
330
2B
100
AcDbDictionary
280
     1
281
     1
  3
ACAD_XREC_ROUNDTRIP
360
2E2
  0
DICTIONARY
  5
2E3
330
2C
100
AcDbDictionary
280
     1
281
     1
  3
ACAD_XREC_ROUNDTRIP
360
2E4
  0
DICTIONARY
  5
2E5
330
2D
100
AcDbDictionary
280
     1
281
     1
  3
ACAD_XREC_ROUNDTRIP
360
2E6
  0
DICTIONARY
  5
2E7
330
2E
100
AcDbDictionary
280
     1
281
     1
  3
ACAD_XREC_ROUNDTRIP
360
2E8
  0
DICTIONARY
  5
2FB
330
38
100
AcDbDictionary
280
     1
281
     1
  3
ACAD_XREC_ROUNDTRIP
360
2FC
  0
DICTIONARY
  5
2F1
330
33
100
AcDbDictionary
280
     1
281
     1
  3
ACAD_XREC_ROUNDTRIP
360
2F2
  0
DICTIONARY
  5
2F9
330
37
100
AcDbDictionary
280
     1
281
     1
  3
ACAD_XREC_ROUNDTRIP
360
2FA
  0
XRECORD
  5
304
102
{ACAD_REACTORS
330
303
102
}
330
303
100
AcDbXrecord
280
     1
102
MATERIAL
148
0.0
149
0.0
149
0.0
 93
        0
 94
      127
282
     0
 72
     1
 77
     1
171
     1
175
     1
179
     1
273
     0
  0
XRECORD
  5
302
102
{ACAD_REACTORS
330
301
102
}
330
301
100
AcDbXrecord
280
     1
102
MATERIAL
148
0.0
149
0.0
149
0.0
 93
        0
 94
      127
282
     0
 72
     1
 77
     1
171
     1
175
     1
179
     1
273
     0
  0
XRECORD
  5
306
102
{ACAD_REACTORS
330
305
102
}
330
305
100
AcDbXrecord
280
     1
102
MATERIAL
148
0.0
149
0.0
149
0.0
 93
        0
 94
      127
282
     0
 72
     1
 77
     1
171
     1
175
     1
179
     1
273
     0
  0
XRECORD
  5
2EA
102
{ACAD_REACTORS
330
2E9
102
}
330
2E9
100
AcDbXrecord
280
     1
102
RTVSPropertyOp0
 70
     1
102
RTVSPropertyOp1
 70
     1
102
RTVSPropertyOp2
 70
     1
102
RTVSPropertyOp3
 70
     1
102
RTVSPropertyOp4
 70
     1
102
RTVSPropertyOp5
 70
     1
102
RTVSPropertyOp6
 70
     1
102
RTVSPropertyOp7
 70
     1
102
RTVSPropertyOp8
 70
     1
102
RTVSPropertyOp9
 70
     1
102
RTVSPropertyOp10
 70
     1
102
RTVSPropertyOp11
 70
     1
102
RTVSPropertyOp12
 70
     1
102
RTVSPropertyOp13
 70
     1
102
RTVSPropertyOp14
 70
     1
102
RTVSPropertyOp15
 70
     1
102
RTVSPropertyOp16
 70
     1
102
RTVSPropertyOp17
 70
     1
102
RTVSPropertyOp18
 70
     1
102
RTVSPropertyOp19
 70
     1
102
RTVSPropertyOp20
 70
     1
102
RTVSPropertyOp21
 70
     1
102
RTVSPropertyOp22
 70
     1
102
RTVSPropertyOp23
 70
     1
102
RTVSPropertyOp24
 70
     1
102
RTVSPropertyOp25
 70
     1
102
RTVSPropertyOp26
 70
     1
102
RTVSPropertyOp27
 70
     1
102
RTVSPropertyOp28
 70
     1
102
RTVSPropertyOp29
 70
     1
102
RTVSPropertyOp30
 70
     1
102
RTVSPropertyOp31
 70
     1
102
RTVSPropertyOp32
 70
     1
  0
XRECORD
  5
2EE
102
{ACAD_REACTORS
330
2ED
102
}
330
2ED
100
AcDbXrecord
280
     1
102
RTVSPropertyOp0
 70
     1
102
RTVSPropertyOp1
 70
     1
102
RTVSPropertyOp2
 70
     1
102
RTVSPropertyOp3
 70
     1
102
RTVSPropertyOp4
 70
     1
102
RTVSPropertyOp5
 70
     1
102
RTVSPropertyOp6
 70
     1
102
RTVSPropertyOp7
 70
     1
102
RTVSPropertyOp8
 70
     1
102
RTVSPropertyOp9
 70
     1
102
RTVSPropertyOp10
 70
     1
102
RTVSPropertyOp11
 70
     1
102
RTVSPropertyOp12
 70
     1
102
RTVSPropertyOp13
 70
     1
102
RTVSPropertyOp14
 70
     1
102
RTVSPropertyOp15
 70
     1
102
RTVSPropertyOp16
 70
     1
102
RTVSPropertyOp17
 70
     1
102
RTVSPropertyOp18
 70
     1
102
RTVSPropertyOp19
 70
     1
102
RTVSPropertyOp20
 70
     1
102
RTVSPropertyOp21
 70
     1
102
RTVSPropertyOp22
 70
     1
102
RTVSPropertyOp23
 70
     1
102
RTVSPropertyOp24
 70
     1
102
RTVSPropertyOp25
 70
     1
102
RTVSPropertyOp26
 70
     1
102
RTVSPropertyOp27
 70
     1
102
RTVSPropertyOp28
 70
     1
102
RTVSPropertyOp29
 70
     1
102
RTVSPropertyOp30
 70
     1
102
RTVSPropertyOp31
 70
     1
102
RTVSPropertyOp32
 70
     1
  0
XRECORD
  5
2EC
102
{ACAD_REACTORS
330
2EB
102
}
330
2EB
100
AcDbXrecord
280
     1
102
RTVSPropertyOp0
 70
     1
102
RTVSPropertyOp1
 70
     1
102
RTVSPropertyOp2
 70
     1
102
RTVSPropertyOp3
 70
     1
102
RTVSPropertyOp4
 70
     1
102
RTVSPropertyOp5
 70
     1
102
RTVSPropertyOp6
 70
     1
102
RTVSPropertyOp7
 70
     1
102
RTVSPropertyOp8
 70
     1
102
RTVSPropertyOp9
 70
     1
102
RTVSPropertyOp10
 70
     1
102
RTVSPropertyOp11
 70
     1
102
RTVSPropertyOp12
 70
     1
102
RTVSPropertyOp13
 70
     1
102
RTVSPropertyOp14
 70
     1
102
RTVSPropertyOp15
 70
     1
102
RTVSPropertyOp16
 70
     1
102
RTVSPropertyOp17
 70
     1
102
RTVSPropertyOp18
 70
     1
102
RTVSPropertyOp19
 70
     1
102
RTVSPropertyOp20
 70
     1
102
RTVSPropertyOp21
 70
     1
102
RTVSPropertyOp22
 70
     1
102
RTVSPropertyOp23
 70
     1
102
RTVSPropertyOp24
 70
     1
102
RTVSPropertyOp25
 70
     1
102
RTVSPropertyOp26
 70
     1
102
RTVSPropertyOp27
 70
     1
102
RTVSPropertyOp28
 70
     1
102
RTVSPropertyOp29
 70
     1
102
RTVSPropertyOp30
 70
     1
102
RTVSPropertyOp31
 70
     1
102
RTVSPropertyOp32
 70
     1
  0
XRECORD
  5
2F0
102
{ACAD_REACTORS
330
2EF
102
}
330
2EF
100
AcDbXrecord
280
     1
102
RTVSPropertyOp0
 70
     1
102
RTVSPropertyOp1
 70
     1
102
RTVSPropertyOp2
 70
     1
102
RTVSPropertyOp3
 70
     1
102
RTVSPropertyOp4
 70
     1
102
RTVSPropertyOp5
 70
     1
102
RTVSPropertyOp6
 70
     1
102
RTVSPropertyOp7
 70
     1
102
RTVSPropertyOp8
 70
     1
102
RTVSPropertyOp9
 70
     1
102
RTVSPropertyOp10
 70
     1
102
RTVSPropertyOp11
 70
     1
102
RTVSPropertyOp12
 70
     1
102
RTVSPropertyOp13
 70
     1
102
RTVSPropertyOp14
 70
     1
102
RTVSPropertyOp15
 70
     1
102
RTVSPropertyOp16
 70
     1
102
RTVSPropertyOp17
 70
     1
102
RTVSPropertyOp18
 70
     1
102
RTVSPropertyOp19
 70
     1
102
RTVSPropertyOp20
 70
     1
102
RTVSPropertyOp21
 70
     1
102
RTVSPropertyOp22
 70
     1
102
RTVSPropertyOp23
 70
     1
102
RTVSPropertyOp24
 70
     1
102
RTVSPropertyOp25
 70
     1
102
RTVSPropertyOp26
 70
     1
102
RTVSPropertyOp27
 70
     1
102
RTVSPropertyOp28
 70
     1
102
RTVSPropertyOp29
 70
     1
102
RTVSPropertyOp30
 70
     1
102
RTVSPropertyOp31
 70
     1
102
RTVSPropertyOp32
 70
     1
  0
XRECORD
  5
2F8
102
{ACAD_REACTORS
330
2F7
102
}
330
2F7
100
AcDbXrecord
280
     1
102
RTVSPropertyOp0
 70
     1
102
RTVSPropertyOp1
 70
     1
102
RTVSPropertyOp2
 70
     1
102
RTVSPropertyOp3
 70
     1
102
RTVSPropertyOp4
 70
     1
102
RTVSPropertyOp5
 70
     1
102
RTVSPropertyOp6
 70
     1
102
RTVSPropertyOp7
 70
     1
102
RTVSPropertyOp8
 70
     1
102
RTVSPropertyOp9
 70
     1
102
RTVSPropertyOp10
 70
     1
102
RTVSPropertyOp11
 70
     1
102
RTVSPropertyOp12
 70
     1
102
RTVSPropertyOp13
 70
     1
102
RTVSPropertyOp14
 70
     1
102
RTVSPropertyOp15
 70
     1
102
RTVSPropertyOp16
 70
     1
102
RTVSPropertyOp17
 70
     1
102
RTVSPropertyOp18
 70
     1
102
RTVSPropertyOp19
 70
     1
102
RTVSPropertyOp20
 70
     1
102
RTVSPropertyOp21
 70
     1
102
RTVSPropertyOp22
 70
     1
102
RTVSPropertyOp23
 70
     1
102
RTVSPropertyOp24
 70
     1
102
RTVSPropertyOp25
 70
     1
102
RTVSPropertyOp26
 70
     1
102
RTVSPropertyOp27
 70
     1
102
RTVSPropertyOp28
 70
     1
102
RTVSPropertyOp29
 70
     1
102
RTVSPropertyOp30
 70
     1
102
RTVSPropertyOp31
 70
     1
102
RTVSPropertyOp32
 70
     1
  0
XRECORD
  5
300
102
{ACAD_REACTORS
330
2FF
102
}
330
2FF
100
AcDbXrecord
280
     1
102
RTVSPropertyOp0
 70
     1
102
RTVSPropertyOp1
 70
     1
102
RTVSPropertyOp2
 70
     1
102
RTVSPropertyOp3
 70
     1
102
RTVSPropertyOp4
 70
     1
102
RTVSPropertyOp5
 70
     1
102
RTVSPropertyOp6
 70
     1
102
RTVSPropertyOp7
 70
     1
102
RTVSPropertyOp8
 70
     1
102
RTVSPropertyOp9
 70
     1
102
RTVSPropertyOp10
 70
     1
102
RTVSPropertyOp11
 70
     1
102
RTVSPropertyOp12
 70
     1
102
RTVSPropertyOp13
 70
     1
102
RTVSPropertyOp14
 70
     1
102
RTVSPropertyOp15
 70
     1
102
RTVSPropertyOp16
 70
     1
102
RTVSPropertyOp17
 70
     1
102
RTVSPropertyOp18
 70
     1
102
RTVSPropertyOp19
 70
     1
102
RTVSPropertyOp20
 70
     1
102
RTVSPropertyOp21
 70
     1
102
RTVSPropertyOp22
 70
     1
102
RTVSPropertyOp23
 70
     1
102
RTVSPropertyOp24
 70
     1
102
RTVSPropertyOp25
 70
     1
102
RTVSPropertyOp26
 70
     1
102
RTVSPropertyOp27
 70
     1
102
RTVSPropertyOp28
 70
     1
102
RTVSPropertyOp29
 70
     1
102
RTVSPropertyOp30
 70
     1
102
RTVSPropertyOp31
 70
     1
102
RTVSPropertyOp32
 70
     1
  0
XRECORD
  5
2F4
102
{ACAD_REACTORS
330
2F3
102
}
330
2F3
100
AcDbXrecord
280
     1
102
RTVSPropertyOp0
 70
     1
102
RTVSPropertyOp1
 70
     1
102
RTVSPropertyOp2
 70
     1
102
RTVSPropertyOp3
 70
     1
102
RTVSPropertyOp4
 70
     1
102
RTVSPropertyOp5
 70
     1
102
RTVSPropertyOp6
 70
     1
102
RTVSPropertyOp7
 70
     1
102
RTVSPropertyOp8
 70
     1
102
RTVSPropertyOp9
 70
     1
102
RTVSPropertyOp10
 70
     1
102
RTVSPropertyOp11
 70
     1
102
RTVSPropertyOp12
 70
     1
102
RTVSPropertyOp13
 70
     1
102
RTVSPropertyOp14
 70
     1
102
RTVSPropertyOp15
 70
     1
102
RTVSPropertyOp16
 70
     1
102
RTVSPropertyOp17
 70
     1
102
RTVSPropertyOp18
 70
     1
102
RTVSPropertyOp19
 70
     1
102
RTVSPropertyOp20
 70
     1
102
RTVSPropertyOp21
 70
     1
102
RTVSPropertyOp22
 70
     1
102
RTVSPropertyOp23
 70
     1
102
RTVSPropertyOp24
 70
     1
102
RTVSPropertyOp25
 70
     1
102
RTVSPropertyOp26
 70
     1
102
RTVSPropertyOp27
 70
     1
102
RTVSPropertyOp28
 70
     1
102
RTVSPropertyOp29
 70
     1
102
RTVSPropertyOp30
 70
     1
102
RTVSPropertyOp31
 70
     1
102
RTVSPropertyOp32
 70
     1
  0
XRECORD
  5
2F6
102
{ACAD_REACTORS
330
2F5
102
}
330
2F5
100
AcDbXrecord
280
     1
102
RTVSPropertyOp0
 70
     1
102
RTVSPropertyOp1
 70
     1
102
RTVSPropertyOp2
 70
     1
102
RTVSPropertyOp3
 70
     1
102
RTVSPropertyOp4
 70
     1
102
RTVSPropertyOp5
 70
     1
102
RTVSPropertyOp6
 70
     1
102
RTVSPropertyOp7
 70
     1
102
RTVSPropertyOp8
 70
     1
102
RTVSPropertyOp9
 70
     1
102
RTVSPropertyOp10
 70
     1
102
RTVSPropertyOp11
 70
     1
102
RTVSPropertyOp12
 70
     1
102
RTVSPropertyOp13
 70
     1
102
RTVSPropertyOp14
 70
     1
102
RTVSPropertyOp15
 70
     1
102
RTVSPropertyOp16
 70
     1
102
RTVSPropertyOp17
 70
     1
102
RTVSPropertyOp18
 70
     1
102
RTVSPropertyOp19
 70
     1
102
RTVSPropertyOp20
 70
     1
102
RTVSPropertyOp21
 70
     1
102
RTVSPropertyOp22
 70
     1
102
RTVSPropertyOp23
 70
     1
102
RTVSPropertyOp24
 70
     1
102
RTVSPropertyOp25
 70
     1
102
RTVSPropertyOp26
 70
     1
102
RTVSPropertyOp27
 70
     1
102
RTVSPropertyOp28
 70
     1
102
RTVSPropertyOp29
 70
     1
102
RTVSPropertyOp30
 70
     1
102
RTVSPropertyOp31
 70
     1
102
RTVSPropertyOp32
 70
     1
  0
XRECORD
  5
2FE
102
{ACAD_REACTORS
330
2FD
102
}
330
2FD
100
AcDbXrecord
280
     1
102
RTVSPropertyOp0
 70
     1
102
RTVSPropertyOp1
 70
     1
102
RTVSPropertyOp2
 70
     1
102
RTVSPropertyOp3
 70
     1
102
RTVSPropertyOp4
 70
     1
102
RTVSPropertyOp5
 70
     1
102
RTVSPropertyOp6
 70
     1
102
RTVSPropertyOp7
 70
     1
102
RTVSPropertyOp8
 70
     1
102
RTVSPropertyOp9
 70
     1
102
RTVSPropertyOp10
 70
     1
102
RTVSPropertyOp11
 70
     1
102
RTVSPropertyOp12
 70
     1
102
RTVSPropertyOp13
 70
     1
102
RTVSPropertyOp14
 70
     1
102
RTVSPropertyOp15
 70
     1
102
RTVSPropertyOp16
 70
     1
102
RTVSPropertyOp17
 70
     1
102
RTVSPropertyOp18
 70
     1
102
RTVSPropertyOp19
 70
     1
102
RTVSPropertyOp20
 70
     1
102
RTVSPropertyOp21
 70
     1
102
RTVSPropertyOp22
 70
     1
102
RTVSPropertyOp23
 70
     1
102
RTVSPropertyOp24
 70
     1
102
RTVSPropertyOp25
 70
     1
102
RTVSPropertyOp26
 70
     1
102
RTVSPropertyOp27
 70
     1
102
RTVSPropertyOp28
 70
     1
102
RTVSPropertyOp29
 70
     1
102
RTVSPropertyOp30
 70
     1
102
RTVSPropertyOp31
 70
     1
102
RTVSPropertyOp32
 70
     1
  0
XRECORD
  5
2E2
102
{ACAD_REACTORS
330
2E1
102
}
330
2E1
100
AcDbXrecord
280
     1
102
RTVSPropertyOp0
 70
     1
102
RTVSPropertyOp1
 70
     1
102
RTVSPropertyOp2
 70
     1
102
RTVSPropertyOp3
 70
     1
102
RTVSPropertyOp4
 70
     1
102
RTVSPropertyOp5
 70
     1
102
RTVSPropertyOp6
 70
     1
102
RTVSPropertyOp7
 70
     1
102
RTVSPropertyOp8
 70
     1
102
RTVSPropertyOp9
 70
     1
102
RTVSPropertyOp10
 70
     1
102
RTVSPropertyOp11
 70
     1
102
RTVSPropertyOp12
 70
     1
102
RTVSPropertyOp13
 70
     1
102
RTVSPropertyOp14
 70
     1
102
RTVSPropertyOp15
 70
     1
102
RTVSPropertyOp16
 70
     1
102
RTVSPropertyOp17
 70
     1
102
RTVSPropertyOp18
 70
     1
102
RTVSPropertyOp19
 70
     1
102
RTVSPropertyOp20
 70
     1
102
RTVSPropertyOp21
 70
     1
102
RTVSPropertyOp22
 70
     1
102
RTVSPropertyOp23
 70
     1
102
RTVSPropertyOp24
 70
     1
102
RTVSPropertyOp25
 70
     1
102
RTVSPropertyOp26
 70
     1
102
RTVSPropertyOp27
 70
     1
102
RTVSPropertyOp28
 70
     1
102
RTVSPropertyOp29
 70
     1
102
RTVSPropertyOp30
 70
     1
102
RTVSPropertyOp31
 70
     1
102
RTVSPropertyOp32
 70
     1
  0
XRECORD
  5
2E4
102
{ACAD_REACTORS
330
2E3
102
}
330
2E3
100
AcDbXrecord
280
     1
102
RTVSPropertyOp0
 70
     1
102
RTVSPropertyOp1
 70
     1
102
RTVSPropertyOp2
 70
     1
102
RTVSPropertyOp3
 70
     1
102
RTVSPropertyOp4
 70
     1
102
RTVSPropertyOp5
 70
     1
102
RTVSPropertyOp6
 70
     1
102
RTVSPropertyOp7
 70
     1
102
RTVSPropertyOp8
 70
     1
102
RTVSPropertyOp9
 70
     1
102
RTVSPropertyOp10
 70
     1
102
RTVSPropertyOp11
 70
     1
102
RTVSPropertyOp12
 70
     1
102
RTVSPropertyOp13
 70
     1
102
RTVSPropertyOp14
 70
     1
102
RTVSPropertyOp15
 70
     1
102
RTVSPropertyOp16
 70
     1
102
RTVSPropertyOp17
 70
     1
102
RTVSPropertyOp18
 70
     1
102
RTVSPropertyOp19
 70
     1
102
RTVSPropertyOp20
 70
     1
102
RTVSPropertyOp21
 70
     1
102
RTVSPropertyOp22
 70
     1
102
RTVSPropertyOp23
 70
     1
102
RTVSPropertyOp24
 70
     1
102
RTVSPropertyOp25
 70
     1
102
RTVSPropertyOp26
 70
     1
102
RTVSPropertyOp27
 70
     1
102
RTVSPropertyOp28
 70
     1
102
RTVSPropertyOp29
 70
     1
102
RTVSPropertyOp30
 70
     1
102
RTVSPropertyOp31
 70
     1
102
RTVSPropertyOp32
 70
     1
  0
XRECORD
  5
2E6
102
{ACAD_REACTORS
330
2E5
102
}
330
2E5
100
AcDbXrecord
280
     1
102
RTVSPropertyOp0
 70
     1
102
RTVSPropertyOp1
 70
     1
102
RTVSPropertyOp2
 70
     1
102
RTVSPropertyOp3
 70
     1
102
RTVSPropertyOp4
 70
     1
102
RTVSPropertyOp5
 70
     1
102
RTVSPropertyOp6
 70
     1
102
RTVSPropertyOp7
 70
     1
102
RTVSPropertyOp8
 70
     1
102
RTVSPropertyOp9
 70
     1
102
RTVSPropertyOp10
 70
     1
102
RTVSPropertyOp11
 70
     1
102
RTVSPropertyOp12
 70
     1
102
RTVSPropertyOp13
 70
     1
102
RTVSPropertyOp14
 70
     1
102
RTVSPropertyOp15
 70
     1
102
RTVSPropertyOp16
 70
     1
102
RTVSPropertyOp17
 70
     1
102
RTVSPropertyOp18
 70
     1
102
RTVSPropertyOp19
 70
     1
102
RTVSPropertyOp20
 70
     1
102
RTVSPropertyOp21
 70
     1
102
RTVSPropertyOp22
 70
     1
102
RTVSPropertyOp23
 70
     1
102
RTVSPropertyOp24
 70
     1
102
RTVSPropertyOp25
 70
     1
102
RTVSPropertyOp26
 70
     1
102
RTVSPropertyOp27
 70
     1
102
RTVSPropertyOp28
 70
     1
102
RTVSPropertyOp29
 70
     1
102
RTVSPropertyOp30
 70
     1
102
RTVSPropertyOp31
 70
     1
102
RTVSPropertyOp32
 70
     1
  0
XRECORD
  5
2E8
102
{ACAD_REACTORS
330
2E7
102
}
330
2E7
100
AcDbXrecord
280
     1
102
RTVSPropertyOp0
 70
     1
102
RTVSPropertyOp1
 70
     1
102
RTVSPropertyOp2
 70
     1
102
RTVSPropertyOp3
 70
     1
102
RTVSPropertyOp4
 70
     1
102
RTVSPropertyOp5
 70
     1
102
RTVSPropertyOp6
 70
     1
102
RTVSPropertyOp7
 70
     1
102
RTVSPropertyOp8
 70
     1
102
RTVSPropertyOp9
 70
     1
102
RTVSPropertyOp10
 70
     1
102
RTVSPropertyOp11
 70
     1
102
RTVSPropertyOp12
 70
     1
102
RTVSPropertyOp13
 70
     1
102
RTVSPropertyOp14
 70
     1
102
RTVSPropertyOp15
 70
     1
102
RTVSPropertyOp16
 70
     1
102
RTVSPropertyOp17
 70
     1
102
RTVSPropertyOp18
 70
     1
102
RTVSPropertyOp19
 70
     1
102
RTVSPropertyOp20
 70
     1
102
RTVSPropertyOp21
 70
     1
102
RTVSPropertyOp22
 70
     1
102
RTVSPropertyOp23
 70
     1
102
RTVSPropertyOp24
 70
     1
102
RTVSPropertyOp25
 70
     1
102
RTVSPropertyOp26
 70
     1
102
RTVSPropertyOp27
 70
     1
102
RTVSPropertyOp28
 70
     1
102
RTVSPropertyOp29
 70
     1
102
RTVSPropertyOp30
 70
     1
102
RTVSPropertyOp31
 70
     1
102
RTVSPropertyOp32
 70
     1
  0
XRECORD
  5
2FC
102
{ACAD_REACTORS
330
2FB
102
}
330
2FB
100
AcDbXrecord
280
     1
102
RTVSPropertyOp0
 70
     1
102
RTVSPropertyOp1
 70
     1
102
RTVSPropertyOp2
 70
     1
102
RTVSPropertyOp3
 70
     1
102
RTVSPropertyOp4
 70
     1
102
RTVSPropertyOp5
 70
     1
102
RTVSPropertyOp6
 70
     1
102
RTVSPropertyOp7
 70
     1
102
RTVSPropertyOp8
 70
     1
102
RTVSPropertyOp9
 70
     1
102
RTVSPropertyOp10
 70
     1
102
RTVSPropertyOp11
 70
     1
102
RTVSPropertyOp12
 70
     1
102
RTVSPropertyOp13
 70
     1
102
RTVSPropertyOp14
 70
     1
102
RTVSPropertyOp15
 70
     1
102
RTVSPropertyOp16
 70
     1
102
RTVSPropertyOp17
 70
     1
102
RTVSPropertyOp18
 70
     1
102
RTVSPropertyOp19
 70
     1
102
RTVSPropertyOp20
 70
     1
102
RTVSPropertyOp21
 70
     1
102
RTVSPropertyOp22
 70
     1
102
RTVSPropertyOp23
 70
     1
102
RTVSPropertyOp24
 70
     1
102
RTVSPropertyOp25
 70
     1
102
RTVSPropertyOp26
 70
     1
102
RTVSPropertyOp27
 70
     1
102
RTVSPropertyOp28
 70
     1
102
RTVSPropertyOp29
 70
     1
102
RTVSPropertyOp30
 70
     1
102
RTVSPropertyOp31
 70
     1
102
RTVSPropertyOp32
 70
     1
  0
XRECORD
  5
2F2
102
{ACAD_REACTORS
330
2F1
102
}
330
2F1
100
AcDbXrecord
280
     1
102
RTVSPropertyOp0
 70
     1
102
RTVSPropertyOp1
 70
     1
102
RTVSPropertyOp2
 70
     1
102
RTVSPropertyOp3
 70
     1
102
RTVSPropertyOp4
 70
     1
102
RTVSPropertyOp5
 70
     1
102
RTVSPropertyOp6
 70
     1
102
RTVSPropertyOp7
 70
     1
102
RTVSPropertyOp8
 70
     1
102
RTVSPropertyOp9
 70
     1
102
RTVSPropertyOp10
 70
     1
102
RTVSPropertyOp11
 70
     1
102
RTVSPropertyOp12
 70
     1
102
RTVSPropertyOp13
 70
     1
102
RTVSPropertyOp14
 70
     1
102
RTVSPropertyOp15
 70
     1
102
RTVSPropertyOp16
 70
     1
102
RTVSPropertyOp17
 70
     1
102
RTVSPropertyOp18
 70
     1
102
RTVSPropertyOp19
 70
     1
102
RTVSPropertyOp20
 70
     1
102
RTVSPropertyOp21
 70
     1
102
RTVSPropertyOp22
 70
     1
102
RTVSPropertyOp23
 70
     1
102
RTVSPropertyOp24
 70
     1
102
RTVSPropertyOp25
 70
     1
102
RTVSPropertyOp26
 70
     1
102
RTVSPropertyOp27
 70
     1
102
RTVSPropertyOp28
 70
     1
102
RTVSPropertyOp29
 70
     1
102
RTVSPropertyOp30
 70
     1
102
RTVSPropertyOp31
 70
     1
102
RTVSPropertyOp32
 70
     1
  0
XRECORD
  5
2FA
102
{ACAD_REACTORS
330
2F9
102
}
330
2F9
100
AcDbXrecord
280
     1
102
RTVSPropertyOp0
 70
     1
102
RTVSPropertyOp1
 70
     1
102
RTVSPropertyOp2
 70
     1
102
RTVSPropertyOp3
 70
     1
102
RTVSPropertyOp4
 70
     1
102
RTVSPropertyOp5
 70
     1
102
RTVSPropertyOp6
 70
     1
102
RTVSPropertyOp7
 70
     1
102
RTVSPropertyOp8
 70
     1
102
RTVSPropertyOp9
 70
     1
102
RTVSPropertyOp10
 70
     1
102
RTVSPropertyOp11
 70
     1
102
RTVSPropertyOp12
 70
     1
102
RTVSPropertyOp13
 70
     1
102
RTVSPropertyOp14
 70
     1
102
RTVSPropertyOp15
 70
     1
102
RTVSPropertyOp16
 70
     1
102
RTVSPropertyOp17
 70
     1
102
RTVSPropertyOp18
 70
     1
102
RTVSPropertyOp19
 70
     1
102
RTVSPropertyOp20
 70
     1
102
RTVSPropertyOp21
 70
     1
102
RTVSPropertyOp22
 70
     1
102
RTVSPropertyOp23
 70
     1
102
RTVSPropertyOp24
 70
     1
102
RTVSPropertyOp25
 70
     1
102
RTVSPropertyOp26
 70
     1
102
RTVSPropertyOp27
 70
     1
102
RTVSPropertyOp28
 70
     1
102
RTVSPropertyOp29
 70
     1
102
RTVSPropertyOp30
 70
     1
102
RTVSPropertyOp31
 70
     1
102
RTVSPropertyOp32
 70
     1
  0
ENDSEC
  0
EOF
