  0
SECTION
  2
HEADER
  9
$ACADVER
  1
AC1004
  9
$INSBASE
 10
0.0
 20
0.0
  9
$EXTMIN
 10
-278.2208
 20
-85.1778
  9
$EXTMAX
 10
89.8754
 20
137.7463
  9
$LIMMIN
 10
0.0
 20
0.0
  9
$LIMMAX
 10
12.0
 20
9.0
  9
$ORTHOMODE
 70
     0
  9
$REGENMODE
 70
     1
  9
$FILLMODE
 70
     1
  9
$QTEXTMODE
 70
     0
  9
$DRAGMODE
 70
     2
  9
$LTSCALE
 40
1.0
  9
$OSMODE
 70
    37
  9
$ATTMODE
 70
     1
  9
$TEXTSIZE
 40
0.2
  9
$TRACEWID
 40
0.05
  9
$TEXTSTYLE
  7
STANDARD
  9
$CLAYER
  8
0
  9
$CELTYPE
  6
BYLAYER
  9
$CECOLOR
 62
   256
  9
$DIMSCALE
 40
1.0
  9
$DIMASZ
 40
0.18
  9
$DIMEXO
 40
0.0625
  9
$DIMDLI
 40
0.38
  9
$DIMRND
 40
0.0
  9
$DIMDLE
 40
0.0
  9
$DIMEXE
 40
0.18
  9
$DIMTP
 40
0.0
  9
$DIMTM
 40
0.0
  9
$DIMTXT
 40
0.18
  9
$DIMCEN
 40
0.09
  9
$DIMTSZ
 40
0.0
  9
$DIMTOL
 70
     0
  9
$DIMLIM
 70
     0
  9
$DIMTIH
 70
     1
  9
$DIMTOH
 70
     1
  9
$DIMSE1
 70
     0
  9
$DIMSE2
 70
     0
  9
$DIMTAD
 70
     0
  9
$DIMZIN
 70
     0
  9
$DIMBLK
  1

  9
$DIMASO
 70
     1
  9
$DIMSHO
 70
     1
  9
$DIMPOST
  1

  9
$DIMAPOST
  1

  9
$DIMALT
 70
     0
  9
$DIMALTD
 70
     2
  9
$DIMALTF
 40
25.4
  9
$DIMLFAC
 40
1.0
  9
$DIMTOFL
 70
     0
  9
$DIMTVP
 40
0.0
  9
$DIMTIX
 70
     0
  9
$DIMSOXD
 70
     0
  9
$DIMSAH
 70
     0
  9
$DIMBLK1
  1

  9
$DIMBLK2
  1

  9
$LUNITS
 70
     2
  9
$LUPREC
 70
     4
  9
$SKETCHINC
 40
0.1
  9
$FILLETRAD
 40
0.5
  9
$AUNITS
 70
     0
  9
$AUPREC
 70
     0
  9
$MENU
  1
.
  9
$ELEVATION
 40
0.0
  9
$THICKNESS
 40
0.0
  9
$LIMCHECK
 70
     0
  9
$CHAMFERA
 40
0.0
  9
$CHAMFERB
 40
0.0
  9
$SKPOLY
 70
     0
  9
$TDCREATE
 40
2458087.89498941
  9
$TDUPDATE
 40
2458087.895000069
  9
$TDINDWG
 40
0.0000000116
  9
$TDUSRTIMER
 40
0.0000000116
  9
$USRTIMER
 70
     1
  9
$ANGBASE
 50
0.0
  9
$ANGDIR
 70
     0
  9
$PDMODE
 70
     0
  9
$PDSIZE
 40
0.0
  9
$PLINEWID
 40
0.0
  9
$COORDS
 70
     1
  9
$SPLFRAME
 70
     0
  9
$SPLINETYPE
 70
     6
  9
$SPLINESEGS
 70
     8
  9
$ATTDIA
 70
     0
  9
$ATTREQ
 70
     1
  9
$SURFTAB1
 70
     6
  9
$SURFTAB2
 70
     6
  9
$SURFTYPE
 70
     6
  9
$SURFU
 70
     6
  9
$SURFV
 70
     6
  9
$UCSNAME
  2

  9
$UCSORG
 10
0.0
 20
0.0
 30
0.0
  9
$UCSXDIR
 10
1.0
 20
0.0
 30
0.0
  9
$UCSYDIR
 10
0.0
 20
1.0
 30
0.0
  9
$USERI1
 70
     0
  9
$USERI2
 70
     0
  9
$USERI3
 70
     0
  9
$USERI4
 70
     0
  9
$USERI5
 70
     0
  9
$USERR1
 40
0.0
  9
$USERR2
 40
0.0
  9
$USERR3
 40
0.0
  9
$USERR4
 40
0.0
  9
$USERR5
 40
0.0
  9
$WORLDVIEW
 70
     1
  0
ENDSEC
  0
SECTION
  2
TABLES
  0
TABLE
  2
LTYPE
 70
     1
  0
LTYPE
  2
CONTINUOUS
 70
     0
  3
Solid line
 72
    65
 73
     0
 40
0.0
  0
ENDTAB
  0
TABLE
  2
LAYER
 70
     2
  0
LAYER
  2
0
 70
     0
 62
     7
  6
CONTINUOUS
  0
LAYER
  2
LAYER_1
 70
     0
 62
     7
  6
CONTINUOUS
  0
ENDTAB
  0
TABLE
  2
STYLE
 70
     1
  0
STYLE
  2
STANDARD
 70
     0
 40
0.0
 41
1.0
 50
0.0
 71
     0
 42
0.2
  3
txt
  4

  0
ENDTAB
  0
TABLE
  2
VIEW
 70
     0
  0
ENDTAB
  0
ENDSEC
  0
SECTION
  2
BLOCKS
  0
ENDSEC
  0
SECTION
  2
ENTITIES
  0
POLYLINE
  8
LAYER_1
 66
     1
 70
     1
  0
VERTEX
  8
LAYER_1
 10
-259.0938
 20
-12.328
  0
VERTEX
  8
LAYER_1
 10
-259.0938
 20
-12.328
  0
VERTEX
  8
LAYER_1
 10
-258.9615
 20
-12.3551
  0
VERTEX
  8
LAYER_1
 10
-258.9073
 20
-12.3905
  0
VERTEX
  8
LAYER_1
 10
-258.8666
 20
-12.4275
  0
VERTEX
  8
LAYER_1
 10
-258.8335
 20
-12.4655
  0
VERTEX
  8
LAYER_1
 10
-258.8054
 20
-12.5042
  0
VERTEX
  8
LAYER_1
 10
-258.7812
 20
-12.5432
  0
VERTEX
  8
LAYER_1
 10
-258.7412
 20
-12.6226
  0
VERTEX
  8
LAYER_1
 10
-258.7094
 20
-12.7033
  0
VERTEX
  8
LAYER_1
 10
-258.6846
 20
-12.7853
  0
VERTEX
  8
LAYER_1
 10
-258.6509
 20
-12.951
  0
VERTEX
  8
LAYER_1
 10
-258.6297
 20
-13.1194
  0
VERTEX
  8
LAYER_1
 10
-258.5725
 20
-13.2815
  0
VERTEX
  8
LAYER_1
 10
-258.4968
 20
-13.4402
  0
VERTEX
  8
LAYER_1
 10
-258.4068
 20
-13.5963
  0
VERTEX
  8
LAYER_1
 10
-258.3046
 20
-13.7494
  0
VERTEX
  8
LAYER_1
 10
-258.1915
 20
-13.8996
  0
VERTEX
  8
LAYER_1
 10
-258.0681
 20
-14.0471
  0
VERTEX
  8
LAYER_1
 10
-257.9348
 20
-14.191
  0
VERTEX
  8
LAYER_1
 10
-257.7923
 20
-14.3319
  0
VERTEX
  8
LAYER_1
 10
-257.6408
 20
-14.4688
  0
VERTEX
  8
LAYER_1
 10
-257.4807
 20
-14.6021
  0
VERTEX
  8
LAYER_1
 10
-256.7428
 20
-14.3696
  0
VERTEX
  8
LAYER_1
 10
-256.0281
 20
-14.0733
  0
VERTEX
  8
LAYER_1
 10
-255.9911
 20
-13.8686
  0
VERTEX
  8
LAYER_1
 10
-255.9633
 20
-13.6662
  0
VERTEX
  8
LAYER_1
 10
-255.9444
 20
-13.4668
  0
VERTEX
  8
LAYER_1
 10
-255.9351
 20
-13.271
  0
VERTEX
  8
LAYER_1
 10
-255.9351
 20
-13.0789
  0
VERTEX
  8
LAYER_1
 10
-255.945
 20
-12.8907
  0
VERTEX
  8
LAYER_1
 10
-255.9652
 20
-12.7078
  0
VERTEX
  8
LAYER_1
 10
-255.9966
 20
-12.5305
  0
VERTEX
  8
LAYER_1
 10
-256.0406
 20
-12.3602
  0
VERTEX
  8
LAYER_1
 10
-256.1011
 20
-12.1991
  0
VERTEX
  8
LAYER_1
 10
-256.193
 20
-12.0569
  0
VERTEX
  8
LAYER_1
 10
-256.2737
 20
-11.9077
  0
VERTEX
  8
LAYER_1
 10
-256.3071
 20
-11.8293
  0
VERTEX
  8
LAYER_1
 10
-256.3349
 20
-11.7473
  0
VERTEX
  8
LAYER_1
 10
-256.3551
 20
-11.6606
  0
VERTEX
  8
LAYER_1
 10
-256.3617
 20
-11.615
  0
VERTEX
  8
LAYER_1
 10
-256.365
 20
-11.5674
  0
VERTEX
  8
LAYER_1
 10
-256.3645
 20
-11.5171
  0
VERTEX
  8
LAYER_1
 10
-256.3572
 20
-11.4625
  0
VERTEX
  8
LAYER_1
 10
-256.3384
 20
-11.4003
  0
VERTEX
  8
LAYER_1
 10
-256.2541
 20
-11.2945
  0
VERTEX
  8
LAYER_1
 10
-255.7134
 20
-10.888
  0
VERTEX
  8
LAYER_1
 10
-255.2193
 20
-10.426
  0
VERTEX
  8
LAYER_1
 10
-255.1006
 20
-10.3615
  0
VERTEX
  8
LAYER_1
 10
-255.0361
 20
-10.3538
  0
VERTEX
  8
LAYER_1
 10
-254.9812
 20
-10.3564
  0
VERTEX
  8
LAYER_1
 10
-254.9313
 20
-10.3643
  0
VERTEX
  8
LAYER_1
 10
-254.885
 20
-10.3759
  0
VERTEX
  8
LAYER_1
 10
-254.8413
 20
-10.3902
  0
VERTEX
  8
LAYER_1
 10
-254.7596
 20
-10.4253
  0
VERTEX
  8
LAYER_1
 10
-254.6835
 20
-10.467
  0
VERTEX
  8
LAYER_1
 10
-254.6121
 20
-10.5136
  0
VERTEX
  8
LAYER_1
 10
-254.4795
 20
-10.6191
  0
VERTEX
  8
LAYER_1
 10
-254.3551
 20
-10.7342
  0
VERTEX
  8
LAYER_1
 10
-254.2073
 20
-10.8215
  0
VERTEX
  8
LAYER_1
 10
-254.0469
 20
-10.8946
  0
VERTEX
  8
LAYER_1
 10
-253.8776
 20
-10.9561
  0
VERTEX
  8
LAYER_1
 10
-253.701
 20
-11.0077
  0
VERTEX
  8
LAYER_1
 10
-253.5178
 20
-11.0504
  0
VERTEX
  8
LAYER_1
 10
-253.3286
 20
-11.0838
  0
VERTEX
  8
LAYER_1
 10
-253.1338
 20
-11.1087
  0
VERTEX
  8
LAYER_1
 10
-252.9344
 20
-11.1248
  0
VERTEX
  8
LAYER_1
 10
-252.7303
 20
-11.1325
  0
VERTEX
  8
LAYER_1
 10
-252.5219
 20
-11.1325
  0
VERTEX
  8
LAYER_1
 10
-252.1062
 20
-10.48
  0
VERTEX
  8
LAYER_1
 10
-251.749
 20
-9.7934
  0
VERTEX
  8
LAYER_1
 10
-251.8525
 20
-9.6128
  0
VERTEX
  8
LAYER_1
 10
-251.961
 20
-9.4398
  0
VERTEX
  8
LAYER_1
 10
-252.0748
 20
-9.2751
  0
VERTEX
  8
LAYER_1
 10
-252.1935
 20
-9.119
  0
VERTEX
  8
LAYER_1
 10
-252.3172
 20
-8.9718
  0
VERTEX
  8
LAYER_1
 10
-252.4455
 20
-8.8342
  0
VERTEX
  8
LAYER_1
 10
-252.5788
 20
-8.7069
  0
VERTEX
  8
LAYER_1
 10
-252.7167
 20
-8.5915
  0
VERTEX
  8
LAYER_1
 10
-252.8599
 20
-8.489
  0
VERTEX
  8
LAYER_1
 10
-253.0097
 20
-8.4047
  0
VERTEX
  8
LAYER_1
 10
-253.1718
 20
-8.3547
  0
VERTEX
  8
LAYER_1
 10
-253.3292
 20
-8.2925
  0
VERTEX
  8
LAYER_1
 10
-253.4053
 20
-8.2538
  0
VERTEX
  8
LAYER_1
 10
-253.4794
 20
-8.2088
  0
VERTEX
  8
LAYER_1
 10
-253.5505
 20
-8.1555
  0
VERTEX
  8
LAYER_1
 10
-253.5849
 20
-8.1248
  0
VERTEX
  8
LAYER_1
 10
-253.6182
 20
-8.0903
  0
VERTEX
  8
LAYER_1
 10
-253.6496
 20
-8.0513
  0
VERTEX
  8
LAYER_1
 10
-253.679
 20
-8.0047
  0
VERTEX
  8
LAYER_1
 10
-253.7048
 20
-7.9452
  0
VERTEX
  8
LAYER_1
 10
-253.7081
 20
-7.8099
  0
VERTEX
  8
LAYER_1
 10
-253.5553
 20
-7.1511
  0
VERTEX
  8
LAYER_1
 10
-253.4736
 20
-6.4794
  0
VERTEX
  8
LAYER_1
 10
-253.424
 20
-6.3537
  0
VERTEX
  8
LAYER_1
 10
-253.3797
 20
-6.3064
  0
VERTEX
  8
LAYER_1
 10
-253.336
 20
-6.2727
  0
VERTEX
  8
LAYER_1
 10
-253.293
 20
-6.247
  0
VERTEX
  8
LAYER_1
 10
-253.25
 20
-6.2261
  0
VERTEX
  8
LAYER_1
 10
-253.2073
 20
-6.2089
  0
VERTEX
  8
LAYER_1
 10
-253.122
 20
-6.1832
  0
VERTEX
  8
LAYER_1
 10
-253.037
 20
-6.1663
  0
VERTEX
  8
LAYER_1
 10
-252.9523
 20
-6.156
  0
VERTEX
  8
LAYER_1
 10
-252.783
 20
-6.1515
  0
VERTEX
  8
LAYER_1
 10
-252.6137
 20
-6.1597
  0
VERTEX
  8
LAYER_1
 10
-252.4444
 20
-6.1316
  0
VERTEX
  8
LAYER_1
 10
-252.2747
 20
-6.0846
  0
VERTEX
  8
LAYER_1
 10
-252.1054
 20
-6.0231
  0
VERTEX
  8
LAYER_1
 10
-251.9367
 20
-5.949
  0
VERTEX
  8
LAYER_1
 10
-251.769
 20
-5.8637
  0
VERTEX
  8
LAYER_1
 10
-251.6026
 20
-5.7678
  0
VERTEX
  8
LAYER_1
 10
-251.4376
 20
-5.6616
  0
VERTEX
  8
LAYER_1
 10
-251.2742
 20
-5.5458
  0
VERTEX
  8
LAYER_1
 10
-251.1131
 20
-5.4205
  0
VERTEX
  8
LAYER_1
 10
-250.954
 20
-5.2859
  0
VERTEX
  8
LAYER_1
 10
-251.0549
 20
-4.519
  0
VERTEX
  8
LAYER_1
 10
-251.2226
 20
-3.7636
  0
VERTEX
  8
LAYER_1
 10
-251.4177
 20
-3.6915
  0
VERTEX
  8
LAYER_1
 10
-251.6122
 20
-3.629
  0
VERTEX
  8
LAYER_1
 10
-251.8053
 20
-3.5757
  0
VERTEX
  8
LAYER_1
 10
-251.9968
 20
-3.5324
  0
VERTEX
  8
LAYER_1
 10
-252.186
 20
-3.4993
  0
VERTEX
  8
LAYER_1
 10
-252.3725
 20
-3.4765
  0
VERTEX
  8
LAYER_1
 10
-252.5564
 20
-3.4646
  0
VERTEX
  8
LAYER_1
 10
-252.7366
 20
-3.4646
  0
VERTEX
  8
LAYER_1
 10
-252.9119
 20
-3.4786
  0
VERTEX
  8
LAYER_1
 10
-253.0809
 20
-3.51
  0
VERTEX
  8
LAYER_1
 10
-253.237
 20
-3.5758
  0
VERTEX
  8
LAYER_1
 10
-253.3977
 20
-3.6294
  0
VERTEX
  8
LAYER_1
 10
-253.4807
 20
-3.649
  0
VERTEX
  8
LAYER_1
 10
-253.5664
 20
-3.662
  0
VERTEX
  8
LAYER_1
 10
-253.6554
 20
-3.667
  0
VERTEX
  8
LAYER_1
 10
-253.7014
 20
-3.667
  0
VERTEX
  8
LAYER_1
 10
-253.749
 20
-3.662
  0
VERTEX
  8
LAYER_1
 10
-253.7983
 20
-3.6525
  0
VERTEX
  8
LAYER_1
 10
-253.8509
 20
-3.6361
  0
VERTEX
  8
LAYER_1
 10
-253.9088
 20
-3.6067
  0
VERTEX
  8
LAYER_1
 10
-253.9984
 20
-3.5055
  0
VERTEX
  8
LAYER_1
 10
-254.3047
 20
-2.9022
  0
VERTEX
  8
LAYER_1
 10
-254.6738
 20
-2.3353
  0
VERTEX
  8
LAYER_1
 10
-254.7168
 20
-2.207
  0
VERTEX
  8
LAYER_1
 10
-254.7132
 20
-2.1422
  0
VERTEX
  8
LAYER_1
 10
-254.7013
 20
-2.0886
  0
VERTEX
  8
LAYER_1
 10
-254.6851
 20
-2.041
  0
VERTEX
  8
LAYER_1
 10
-254.6656
 20
-1.9973
  0
VERTEX
  8
LAYER_1
 10
-254.6438
 20
-1.957
  0
VERTEX
  8
LAYER_1
 10
-254.5952
 20
-1.8826
  0
VERTEX
  8
LAYER_1
 10
-254.541
 20
-1.8148
  0
VERTEX
  8
LAYER_1
 10
-254.4828
 20
-1.7523
  0
VERTEX
  8
LAYER_1
 10
-254.3558
 20
-1.6402
  0
VERTEX
  8
LAYER_1
 10
-254.2209
 20
-1.5377
  0
VERTEX
  8
LAYER_1
 10
-254.1091
 20
-1.4074
  0
VERTEX
  8
LAYER_1
 10
-254.0096
 20
-1.2622
  0
VERTEX
  8
LAYER_1
 10
-253.9193
 20
-1.1061
  0
VERTEX
  8
LAYER_1
 10
-253.8379
 20
-0.9411
  0
VERTEX
  8
LAYER_1
 10
-253.7641
 20
-0.7681
  0
VERTEX
  8
LAYER_1
 10
-253.6983
 20
-0.5875
  0
VERTEX
  8
LAYER_1
 10
-253.6401
 20
-0.4
  0
VERTEX
  8
LAYER_1
 10
-253.5895
 20
-0.2065
  0
VERTEX
  8
LAYER_1
 10
-253.5465
 20
-0.0067
  0
VERTEX
  8
LAYER_1
 10
-253.5111
 20
0.1987
  0
VERTEX
  8
LAYER_1
 10
-254.0816
 20
0.7213
  0
VERTEX
  8
LAYER_1
 10
-254.6954
 20
1.1923
  0
VERTEX
  8
LAYER_1
 10
-254.8915
 20
1.1218
  0
VERTEX
  8
LAYER_1
 10
-255.0807
 20
1.0451
  0
VERTEX
  8
LAYER_1
 10
-255.2626
 20
0.9614
  0
VERTEX
  8
LAYER_1
 10
-255.4369
 20
0.8714
  0
VERTEX
  8
LAYER_1
 10
-255.6033
 20
0.7755
  0
VERTEX
  8
LAYER_1
 10
-255.7611
 20
0.6726
  0
VERTEX
  8
LAYER_1
 10
-255.9096
 20
0.5638
  0
VERTEX
  8
LAYER_1
 10
-256.0475
 20
0.448
  0
VERTEX
  8
LAYER_1
 10
-256.1732
 20
0.3246
  0
VERTEX
  8
LAYER_1
 10
-256.2823
 20
0.1916
  0
VERTEX
  8
LAYER_1
 10
-256.3594
 20
0.0411
  0
VERTEX
  8
LAYER_1
 10
-256.448
 20
-0.1034
  0
VERTEX
  8
LAYER_1
 10
-256.4993
 20
-0.1718
  0
VERTEX
  8
LAYER_1
 10
-256.5565
 20
-0.2366
  0
VERTEX
  8
LAYER_1
 10
-256.6217
 20
-0.2975
  0
VERTEX
  8
LAYER_1
 10
-256.6577
 20
-0.326
  0
VERTEX
  8
LAYER_1
 10
-256.6974
 20
-0.3528
  0
VERTEX
  8
LAYER_1
 10
-256.7414
 20
-0.3771
  0
VERTEX
  8
LAYER_1
 10
-256.792
 20
-0.398
  0
VERTEX
  8
LAYER_1
 10
-256.8552
 20
-0.4128
  0
VERTEX
  8
LAYER_1
 10
-256.9891
 20
-0.393
  0
VERTEX
  8
LAYER_1
 10
-257.6115
 20
-0.1278
  0
VERTEX
  8
LAYER_1
 10
-258.2587
 20
0.069
  0
VERTEX
  8
LAYER_1
 10
-258.3738
 20
0.1398
  0
VERTEX
  8
LAYER_1
 10
-258.4128
 20
0.1917
  0
VERTEX
  8
LAYER_1
 10
-258.4383
 20
0.2403
  0
VERTEX
  8
LAYER_1
 10
-258.4562
 20
0.2876
  0
VERTEX
  8
LAYER_1
 10
-258.4694
 20
0.3332
  0
VERTEX
  8
LAYER_1
 10
-258.4787
 20
0.3785
  0
VERTEX
  8
LAYER_1
 10
-258.4893
 20
0.4668
  0
VERTEX
  8
LAYER_1
 10
-258.4912
 20
0.5535
  0
VERTEX
  8
LAYER_1
 10
-258.4866
 20
0.6388
  0
VERTEX
  8
LAYER_1
 10
-258.4618
 20
0.8061
  0
VERTEX
  8
LAYER_1
 10
-258.4241
 20
0.9711
  0
VERTEX
  8
LAYER_1
 10
-258.4225
 20
1.1431
  0
VERTEX
  8
LAYER_1
 10
-258.4394
 20
1.3184
  0
VERTEX
  8
LAYER_1
 10
-258.4708
 20
1.4957
  0
VERTEX
  8
LAYER_1
 10
-258.5141
 20
1.6746
  0
VERTEX
  8
LAYER_1
 10
-258.569
 20
1.8545
  0
VERTEX
  8
LAYER_1
 10
-258.6348
 20
2.0351
  0
VERTEX
  8
LAYER_1
 10
-258.7105
 20
2.2163
  0
VERTEX
  8
LAYER_1
 10
-258.7962
 20
2.3972
  0
VERTEX
  8
LAYER_1
 10
-258.8918
 20
2.5778
  0
VERTEX
  8
LAYER_1
 10
-258.9966
 20
2.7577
  0
VERTEX
  8
LAYER_1
 10
-259.7695
 20
2.7914
  0
VERTEX
  8
LAYER_1
 10
-260.5424
 20
2.7577
  0
VERTEX
  8
LAYER_1
 10
-260.6472
 20
2.5778
  0
VERTEX
  8
LAYER_1
 10
-260.7428
 20
2.3972
  0
VERTEX
  8
LAYER_1
 10
-260.8285
 20
2.2163
  0
VERTEX
  8
LAYER_1
 10
-260.9042
 20
2.0351
  0
VERTEX
  8
LAYER_1
 10
-260.97
 20
1.8545
  0
VERTEX
  8
LAYER_1
 10
-261.0249
 20
1.6746
  0
VERTEX
  8
LAYER_1
 10
-261.0686
 20
1.4957
  0
VERTEX
  8
LAYER_1
 10
-261.0997
 20
1.3184
  0
VERTEX
  8
LAYER_1
 10
-261.1166
 20
1.1431
  0
VERTEX
  8
LAYER_1
 10
-261.115
 20
0.9711
  0
VERTEX
  8
LAYER_1
 10
-261.0773
 20
0.8061
  0
VERTEX
  8
LAYER_1
 10
-261.0525
 20
0.6388
  0
VERTEX
  8
LAYER_1
 10
-261.0479
 20
0.5535
  0
VERTEX
  8
LAYER_1
 10
-261.0498
 20
0.4668
  0
VERTEX
  8
LAYER_1
 10
-261.0604
 20
0.3785
  0
VERTEX
  8
LAYER_1
 10
-261.0697
 20
0.3332
  0
VERTEX
  8
LAYER_1
 10
-261.0829
 20
0.2876
  0
VERTEX
  8
LAYER_1
 10
-261.1011
 20
0.2403
  0
VERTEX
  8
LAYER_1
 10
-261.1266
 20
0.1917
  0
VERTEX
  8
LAYER_1
 10
-261.1653
 20
0.1398
  0
VERTEX
  8
LAYER_1
 10
-261.2807
 20
0.069
  0
VERTEX
  8
LAYER_1
 10
-261.9279
 20
-0.1278
  0
VERTEX
  8
LAYER_1
 10
-262.55
 20
-0.393
  0
VERTEX
  8
LAYER_1
 10
-262.6839
 20
-0.4128
  0
VERTEX
  8
LAYER_1
 10
-262.7471
 20
-0.398
  0
VERTEX
  8
LAYER_1
 10
-262.7977
 20
-0.3771
  0
VERTEX
  8
LAYER_1
 10
-262.842
 20
-0.3528
  0
VERTEX
  8
LAYER_1
 10
-262.8813
 20
-0.326
  0
VERTEX
  8
LAYER_1
 10
-262.9177
 20
-0.2976
  0
VERTEX
  8
LAYER_1
 10
-262.9825
 20
-0.2367
  0
VERTEX
  8
LAYER_1
 10
-263.0397
 20
-0.1719
  0
VERTEX
  8
LAYER_1
 10
-263.091
 20
-0.1035
  0
VERTEX
  8
LAYER_1
 10
-263.1796
 20
0.041
  0
VERTEX
  8
LAYER_1
 10
-263.2567
 20
0.1915
  0
VERTEX
  8
LAYER_1
 10
-263.3662
 20
0.3245
  0
VERTEX
  8
LAYER_1
 10
-263.4915
 20
0.4479
  0
VERTEX
  8
LAYER_1
 10
-263.6294
 20
0.5637
  0
VERTEX
  8
LAYER_1
 10
-263.7779
 20
0.6725
  0
VERTEX
  8
LAYER_1
 10
-263.9357
 20
0.7754
  0
VERTEX
  8
LAYER_1
 10
-264.1021
 20
0.8713
  0
VERTEX
  8
LAYER_1
 10
-264.2764
 20
0.9613
  0
VERTEX
  8
LAYER_1
 10
-264.4586
 20
1.045
  0
VERTEX
  8
LAYER_1
 10
-264.6474
 20
1.1217
  0
VERTEX
  8
LAYER_1
 10
-264.8435
 20
1.1922
  0
VERTEX
  8
LAYER_1
 10
-265.4573
 20
0.7212
  0
VERTEX
  8
LAYER_1
 10
-266.0278
 20
0.1986
  0
VERTEX
  8
LAYER_1
 10
-265.9924
 20
-0.0068
  0
VERTEX
  8
LAYER_1
 10
-265.9494
 20
-0.2066
  0
VERTEX
  8
LAYER_1
 10
-265.8988
 20
-0.4001
  0
VERTEX
  8
LAYER_1
 10
-265.8406
 20
-0.5876
  0
VERTEX
  8
LAYER_1
 10
-265.7748
 20
-0.7682
  0
VERTEX
  8
LAYER_1
 10
-265.701
 20
-0.9412
  0
VERTEX
  8
LAYER_1
 10
-265.6196
 20
-1.1062
  0
VERTEX
  8
LAYER_1
 10
-265.5293
 20
-1.2623
  0
VERTEX
  8
LAYER_1
 10
-265.4298
 20
-1.4075
  0
VERTEX
  8
LAYER_1
 10
-265.318
 20
-1.5378
  0
VERTEX
  8
LAYER_1
 10
-265.1831
 20
-1.6403
  0
VERTEX
  8
LAYER_1
 10
-265.0561
 20
-1.7524
  0
VERTEX
  8
LAYER_1
 10
-264.9979
 20
-1.8149
  0
VERTEX
  8
LAYER_1
 10
-264.9437
 20
-1.8827
  0
VERTEX
  8
LAYER_1
 10
-264.8951
 20
-1.9571
  0
VERTEX
  8
LAYER_1
 10
-264.8733
 20
-1.9974
  0
VERTEX
  8
LAYER_1
 10
-264.8538
 20
-2.0411
  0
VERTEX
  8
LAYER_1
 10
-264.8376
 20
-2.0887
  0
VERTEX
  8
LAYER_1
 10
-264.8257
 20
-2.1423
  0
VERTEX
  8
LAYER_1
 10
-264.8221
 20
-2.2071
  0
VERTEX
  8
LAYER_1
 10
-264.8651
 20
-2.3354
  0
VERTEX
  8
LAYER_1
 10
-265.2342
 20
-2.9023
  0
VERTEX
  8
LAYER_1
 10
-265.5405
 20
-3.5056
  0
VERTEX
  8
LAYER_1
 10
-265.6301
 20
-3.6068
  0
VERTEX
  8
LAYER_1
 10
-265.688
 20
-3.6362
  0
VERTEX
  8
LAYER_1
 10
-265.7406
 20
-3.6526
  0
VERTEX
  8
LAYER_1
 10
-265.7899
 20
-3.6621
  0
VERTEX
  8
LAYER_1
 10
-265.8375
 20
-3.6671
  0
VERTEX
  8
LAYER_1
 10
-265.8835
 20
-3.6671
  0
VERTEX
  8
LAYER_1
 10
-265.9725
 20
-3.6621
  0
VERTEX
  8
LAYER_1
 10
-266.0582
 20
-3.6491
  0
VERTEX
  8
LAYER_1
 10
-266.1412
 20
-3.6295
  0
VERTEX
  8
LAYER_1
 10
-266.3019
 20
-3.5759
  0
VERTEX
  8
LAYER_1
 10
-266.458
 20
-3.51
  0
VERTEX
  8
LAYER_1
 10
-266.627
 20
-3.4786
  0
VERTEX
  8
LAYER_1
 10
-266.8026
 20
-3.4646
  0
VERTEX
  8
LAYER_1
 10
-266.9825
 20
-3.4646
  0
VERTEX
  8
LAYER_1
 10
-267.1664
 20
-3.4765
  0
VERTEX
  8
LAYER_1
 10
-267.3529
 20
-3.4993
  0
VERTEX
  8
LAYER_1
 10
-267.5424
 20
-3.5324
  0
VERTEX
  8
LAYER_1
 10
-267.7336
 20
-3.5757
  0
VERTEX
  8
LAYER_1
 10
-267.9267
 20
-3.629
  0
VERTEX
  8
LAYER_1
 10
-268.1212
 20
-3.6915
  0
VERTEX
  8
LAYER_1
 10
-268.3167
 20
-3.7636
  0
VERTEX
  8
LAYER_1
 10
-268.484
 20
-4.519
  0
VERTEX
  8
LAYER_1
 10
-268.5849
 20
-5.2859
  0
VERTEX
  8
LAYER_1
 10
-268.4262
 20
-5.4205
  0
VERTEX
  8
LAYER_1
 10
-268.2648
 20
-5.5459
  0
VERTEX
  8
LAYER_1
 10
-268.1014
 20
-5.6617
  0
VERTEX
  8
LAYER_1
 10
-267.9364
 20
-5.7679
  0
VERTEX
  8
LAYER_1
 10
-267.77
 20
-5.8638
  0
VERTEX
  8
LAYER_1
 10
-267.6023
 20
-5.9491
  0
VERTEX
  8
LAYER_1
 10
-267.4336
 20
-6.0232
  0
VERTEX
  8
LAYER_1
 10
-267.2643
 20
-6.0847
  0
VERTEX
  8
LAYER_1
 10
-267.095
 20
-6.1317
  0
VERTEX
  8
LAYER_1
 10
-266.9253
 20
-6.1598
  0
VERTEX
  8
LAYER_1
 10
-266.756
 20
-6.1516
  0
VERTEX
  8
LAYER_1
 10
-266.5867
 20
-6.1561
  0
VERTEX
  8
LAYER_1
 10
-266.502
 20
-6.1664
  0
VERTEX
  8
LAYER_1
 10
-266.417
 20
-6.1833
  0
VERTEX
  8
LAYER_1
 10
-266.3317
 20
-6.209
  0
VERTEX
  8
LAYER_1
 10
-266.289
 20
-6.2262
  0
VERTEX
  8
LAYER_1
 10
-266.246
 20
-6.2471
  0
VERTEX
  8
LAYER_1
 10
-266.203
 20
-6.273
  0
VERTEX
  8
LAYER_1
 10
-266.1593
 20
-6.3067
  0
VERTEX
  8
LAYER_1
 10
-266.115
 20
-6.354
  0
VERTEX
  8
LAYER_1
 10
-266.0654
 20
-6.4797
  0
VERTEX
  8
LAYER_1
 10
-265.9837
 20
-7.1514
  0
VERTEX
  8
LAYER_1
 10
-265.8309
 20
-7.8102
  0
VERTEX
  8
LAYER_1
 10
-265.8342
 20
-7.9455
  0
VERTEX
  8
LAYER_1
 10
-265.86
 20
-8.005
  0
VERTEX
  8
LAYER_1
 10
-265.8894
 20
-8.0516
  0
VERTEX
  8
LAYER_1
 10
-265.9212
 20
-8.0906
  0
VERTEX
  8
LAYER_1
 10
-265.9542
 20
-8.1251
  0
VERTEX
  8
LAYER_1
 10
-265.9886
 20
-8.1558
  0
VERTEX
  8
LAYER_1
 10
-266.0597
 20
-8.209
  0
VERTEX
  8
LAYER_1
 10
-266.1338
 20
-8.254
  0
VERTEX
  8
LAYER_1
 10
-266.2099
 20
-8.2927
  0
VERTEX
  8
LAYER_1
 10
-266.3677
 20
-8.3549
  0
VERTEX
  8
LAYER_1
 10
-266.5294
 20
-8.4049
  0
VERTEX
  8
LAYER_1
 10
-266.6792
 20
-8.4892
  0
VERTEX
  8
LAYER_1
 10
-266.8224
 20
-8.5917
  0
VERTEX
  8
LAYER_1
 10
-266.9603
 20
-8.7071
  0
VERTEX
  8
LAYER_1
 10
-267.0936
 20
-8.8344
  0
VERTEX
  8
LAYER_1
 10
-267.2219
 20
-8.972
  0
VERTEX
  8
LAYER_1
 10
-267.3456
 20
-9.1192
  0
VERTEX
  8
LAYER_1
 10
-267.4643
 20
-9.2753
  0
VERTEX
  8
LAYER_1
 10
-267.5781
 20
-9.44
  0
VERTEX
  8
LAYER_1
 10
-267.6869
 20
-9.613
  0
VERTEX
  8
LAYER_1
 10
-267.7901
 20
-9.7936
  0
VERTEX
  8
LAYER_1
 10
-267.4329
 20
-10.4802
  0
VERTEX
  8
LAYER_1
 10
-267.0172
 20
-11.1327
  0
VERTEX
  8
LAYER_1
 10
-266.8088
 20
-11.1327
  0
VERTEX
  8
LAYER_1
 10
-266.6047
 20
-11.125
  0
VERTEX
  8
LAYER_1
 10
-266.4053
 20
-11.1089
  0
VERTEX
  8
LAYER_1
 10
-266.2105
 20
-11.084
  0
VERTEX
  8
LAYER_1
 10
-266.0213
 20
-11.0506
  0
VERTEX
  8
LAYER_1
 10
-265.8381
 20
-11.0079
  0
VERTEX
  8
LAYER_1
 10
-265.6615
 20
-10.9563
  0
VERTEX
  8
LAYER_1
 10
-265.4922
 20
-10.8948
  0
VERTEX
  8
LAYER_1
 10
-265.3321
 20
-10.8217
  0
VERTEX
  8
LAYER_1
 10
-265.1839
 20
-10.7344
  0
VERTEX
  8
LAYER_1
 10
-265.0599
 20
-10.6193
  0
VERTEX
  8
LAYER_1
 10
-264.9273
 20
-10.5138
  0
VERTEX
  8
LAYER_1
 10
-264.8555
 20
-10.4672
  0
VERTEX
  8
LAYER_1
 10
-264.7794
 20
-10.4255
  0
VERTEX
  8
LAYER_1
 10
-264.6977
 20
-10.3904
  0
VERTEX
  8
LAYER_1
 10
-264.6541
 20
-10.3761
  0
VERTEX
  8
LAYER_1
 10
-264.6078
 20
-10.3645
  0
VERTEX
  8
LAYER_1
 10
-264.5579
 20
-10.3566
  0
VERTEX
  8
LAYER_1
 10
-264.503
 20
-10.354
  0
VERTEX
  8
LAYER_1
 10
-264.4385
 20
-10.3617
  0
VERTEX
  8
LAYER_1
 10
-264.3198
 20
-10.4262
  0
VERTEX
  8
LAYER_1
 10
-263.8257
 20
-10.8882
  0
VERTEX
  8
LAYER_1
 10
-263.285
 20
-11.2947
  0
VERTEX
  8
LAYER_1
 10
-263.2007
 20
-11.4005
  0
VERTEX
  8
LAYER_1
 10
-263.1822
 20
-11.4627
  0
VERTEX
  8
LAYER_1
 10
-263.1749
 20
-11.5173
  0
VERTEX
  8
LAYER_1
 10
-263.1738
 20
-11.5676
  0
VERTEX
  8
LAYER_1
 10
-263.1771
 20
-11.6152
  0
VERTEX
  8
LAYER_1
 10
-263.1837
 20
-11.6608
  0
VERTEX
  8
LAYER_1
 10
-263.2039
 20
-11.7475
  0
VERTEX
  8
LAYER_1
 10
-263.2317
 20
-11.8295
  0
VERTEX
  8
LAYER_1
 10
-263.2651
 20
-11.9079
  0
VERTEX
  8
LAYER_1
 10
-263.3461
 20
-12.057
  0
VERTEX
  8
LAYER_1
 10
-263.4377
 20
-12.1992
  0
VERTEX
  8
LAYER_1
 10
-263.4982
 20
-12.3603
  0
VERTEX
  8
LAYER_1
 10
-263.5422
 20
-12.5306
  0
VERTEX
  8
LAYER_1
 10
-263.5736
 20
-12.7079
  0
VERTEX
  8
LAYER_1
 10
-263.5938
 20
-12.8908
  0
VERTEX
  8
LAYER_1
 10
-263.6037
 20
-13.079
  0
VERTEX
  8
LAYER_1
 10
-263.6037
 20
-13.2712
  0
VERTEX
  8
LAYER_1
 10
-263.5944
 20
-13.467
  0
VERTEX
  8
LAYER_1
 10
-263.5759
 20
-13.6664
  0
VERTEX
  8
LAYER_1
 10
-263.5478
 20
-13.8688
  0
VERTEX
  8
LAYER_1
 10
-263.5108
 20
-14.0735
  0
VERTEX
  8
LAYER_1
 10
-262.7961
 20
-14.3698
  0
VERTEX
  8
LAYER_1
 10
-262.0582
 20
-14.6023
  0
VERTEX
  8
LAYER_1
 10
-261.8981
 20
-14.469
  0
VERTEX
  8
LAYER_1
 10
-261.7466
 20
-14.3321
  0
VERTEX
  8
LAYER_1
 10
-261.6041
 20
-14.1911
  0
VERTEX
  8
LAYER_1
 10
-261.4712
 20
-14.0472
  0
VERTEX
  8
LAYER_1
 10
-261.3475
 20
-13.8997
  0
VERTEX
  8
LAYER_1
 10
-261.2344
 20
-13.7495
  0
VERTEX
  8
LAYER_1
 10
-261.1325
 20
-13.5964
  0
VERTEX
  8
LAYER_1
 10
-261.0422
 20
-13.4403
  0
VERTEX
  8
LAYER_1
 10
-260.9665
 20
-13.2815
  0
VERTEX
  8
LAYER_1
 10
-260.9093
 20
-13.1194
  0
VERTEX
  8
LAYER_1
 10
-260.8881
 20
-12.9511
  0
VERTEX
  8
LAYER_1
 10
-260.8544
 20
-12.7854
  0
VERTEX
  8
LAYER_1
 10
-260.8296
 20
-12.7034
  0
VERTEX
  8
LAYER_1
 10
-260.7978
 20
-12.6227
  0
VERTEX
  8
LAYER_1
 10
-260.7578
 20
-12.5433
  0
VERTEX
  8
LAYER_1
 10
-260.7336
 20
-12.5043
  0
VERTEX
  8
LAYER_1
 10
-260.7055
 20
-12.4656
  0
VERTEX
  8
LAYER_1
 10
-260.6724
 20
-12.4276
  0
VERTEX
  8
LAYER_1
 10
-260.6317
 20
-12.3906
  0
VERTEX
  8
LAYER_1
 10
-260.5775
 20
-12.3552
  0
VERTEX
  8
LAYER_1
 10
-260.4452
 20
-12.3281
  0
VERTEX
  8
LAYER_1
 10
-259.7695
 20
-12.3645
  0
VERTEX
  8
LAYER_1
 10
-259.0938
 20
-12.3281
  0
VERTEX
  8
LAYER_1
 10
-259.0938
 20
-12.328
  0
SEQEND
  8
LAYER_1
  0
POLYLINE
  8
LAYER_1
 66
     1
 70
     1
  0
VERTEX
  8
LAYER_1
 10
-258.3638
 20
-5.9038
  0
VERTEX
  8
LAYER_1
 10
-258.3924
 20
-5.6205
  0
VERTEX
  8
LAYER_1
 10
-258.4743
 20
-5.3567
  0
VERTEX
  8
LAYER_1
 10
-258.6039
 20
-5.1179
  0
VERTEX
  8
LAYER_1
 10
-258.7756
 20
-4.9099
  0
VERTEX
  8
LAYER_1
 10
-258.9836
 20
-4.7382
  0
VERTEX
  8
LAYER_1
 10
-259.2224
 20
-4.6086
  0
VERTEX
  8
LAYER_1
 10
-259.4862
 20
-4.5267
  0
VERTEX
  8
LAYER_1
 10
-259.7695
 20
-4.4981
  0
VERTEX
  8
LAYER_1
 10
-260.0528
 20
-4.5267
  0
VERTEX
  8
LAYER_1
 10
-260.3166
 20
-4.6086
  0
VERTEX
  8
LAYER_1
 10
-260.5554
 20
-4.7382
  0
VERTEX
  8
LAYER_1
 10
-260.7634
 20
-4.9099
  0
VERTEX
  8
LAYER_1
 10
-260.9351
 20
-5.1179
  0
VERTEX
  8
LAYER_1
 10
-261.0647
 20
-5.3567
  0
VERTEX
  8
LAYER_1
 10
-261.1466
 20
-5.6205
  0
VERTEX
  8
LAYER_1
 10
-261.1752
 20
-5.9038
  0
VERTEX
  8
LAYER_1
 10
-261.1466
 20
-6.1871
  0
VERTEX
  8
LAYER_1
 10
-261.0647
 20
-6.4509
  0
VERTEX
  8
LAYER_1
 10
-260.9351
 20
-6.6897
  0
VERTEX
  8
LAYER_1
 10
-260.7634
 20
-6.8977
  0
VERTEX
  8
LAYER_1
 10
-260.5554
 20
-7.0694
  0
VERTEX
  8
LAYER_1
 10
-260.3166
 20
-7.199
  0
VERTEX
  8
LAYER_1
 10
-260.0528
 20
-7.2809
  0
VERTEX
  8
LAYER_1
 10
-259.7695
 20
-7.3095
  0
VERTEX
  8
LAYER_1
 10
-259.4862
 20
-7.2809
  0
VERTEX
  8
LAYER_1
 10
-259.2224
 20
-7.199
  0
VERTEX
  8
LAYER_1
 10
-258.9836
 20
-7.0694
  0
VERTEX
  8
LAYER_1
 10
-258.7756
 20
-6.8977
  0
VERTEX
  8
LAYER_1
 10
-258.6039
 20
-6.6897
  0
VERTEX
  8
LAYER_1
 10
-258.4743
 20
-6.4509
  0
VERTEX
  8
LAYER_1
 10
-258.3924
 20
-6.1871
  0
VERTEX
  8
LAYER_1
 10
-258.3638
 20
-5.9038
  0
SEQEND
  8
LAYER_1
  0
POLYLINE
  8
LAYER_1
 66
     1
  0
VERTEX
  8
LAYER_1
 10
-211.6895
 20
-71.4455
  0
VERTEX
  8
LAYER_1
 10
-211.8038
 20
-70.3119
  0
VERTEX
  8
LAYER_1
 10
-212.1315
 20
-69.256
  0
VERTEX
  8
LAYER_1
 10
-212.6502
 20
-68.3005
  0
VERTEX
  8
LAYER_1
 10
-213.337
 20
-67.468
  0
VERTEX
  8
LAYER_1
 10
-214.1695
 20
-66.7812
  0
VERTEX
  8
LAYER_1
 10
-215.125
 20
-66.2625
  0
VERTEX
  8
LAYER_1
 10
-216.1809
 20
-65.9348
  0
VERTEX
  8
LAYER_1
 10
-217.3145
 20
-65.8205
  0
SEQEND
  8
LAYER_1
  0
POLYLINE
  8
LAYER_1
 66
     1
  0
VERTEX
  8
LAYER_1
 10
-217.3145
 20
-65.8205
  0
VERTEX
  8
LAYER_1
 10
-218.4481
 20
-65.9348
  0
VERTEX
  8
LAYER_1
 10
-219.504
 20
-66.2625
  0
VERTEX
  8
LAYER_1
 10
-220.4595
 20
-66.7812
  0
VERTEX
  8
LAYER_1
 10
-221.292
 20
-67.468
  0
VERTEX
  8
LAYER_1
 10
-221.9788
 20
-68.3005
  0
VERTEX
  8
LAYER_1
 10
-222.4975
 20
-69.256
  0
VERTEX
  8
LAYER_1
 10
-222.8252
 20
-70.3119
  0
VERTEX
  8
LAYER_1
 10
-222.9395
 20
-71.4455
  0
SEQEND
  8
LAYER_1
  0
POLYLINE
  8
LAYER_1
 66
     1
  0
VERTEX
  8
LAYER_1
 10
-222.9395
 20
-71.4455
  0
VERTEX
  8
LAYER_1
 10
-222.8252
 20
-72.5791
  0
VERTEX
  8
LAYER_1
 10
-222.4975
 20
-73.635
  0
VERTEX
  8
LAYER_1
 10
-221.9788
 20
-74.5905
  0
VERTEX
  8
LAYER_1
 10
-221.292
 20
-75.423
  0
VERTEX
  8
LAYER_1
 10
-220.4595
 20
-76.1098
  0
VERTEX
  8
LAYER_1
 10
-219.504
 20
-76.6285
  0
VERTEX
  8
LAYER_1
 10
-218.4481
 20
-76.9562
  0
VERTEX
  8
LAYER_1
 10
-217.3145
 20
-77.0705
  0
SEQEND
  8
LAYER_1
  0
POLYLINE
  8
LAYER_1
 66
     1
  0
VERTEX
  8
LAYER_1
 10
-217.3145
 20
-77.0705
  0
VERTEX
  8
LAYER_1
 10
-216.1809
 20
-76.9562
  0
VERTEX
  8
LAYER_1
 10
-215.125
 20
-76.6285
  0
VERTEX
  8
LAYER_1
 10
-214.1695
 20
-76.1098
  0
VERTEX
  8
LAYER_1
 10
-213.337
 20
-75.423
  0
VERTEX
  8
LAYER_1
 10
-212.6502
 20
-74.5905
  0
VERTEX
  8
LAYER_1
 10
-212.1315
 20
-73.635
  0
VERTEX
  8
LAYER_1
 10
-211.8038
 20
-72.5791
  0
VERTEX
  8
LAYER_1
 10
-211.6895
 20
-71.4455
  0
SEQEND
  8
LAYER_1
  0
POLYLINE
  8
LAYER_1
 66
     1
  0
VERTEX
  8
LAYER_1
 10
-211.6895
 20
-8.4455
  0
VERTEX
  8
LAYER_1
 10
-211.8038
 20
-7.3119
  0
VERTEX
  8
LAYER_1
 10
-212.1315
 20
-6.256
  0
VERTEX
  8
LAYER_1
 10
-212.6502
 20
-5.3005
  0
VERTEX
  8
LAYER_1
 10
-213.337
 20
-4.468
  0
VERTEX
  8
LAYER_1
 10
-214.1695
 20
-3.7812
  0
VERTEX
  8
LAYER_1
 10
-215.125
 20
-3.2625
  0
VERTEX
  8
LAYER_1
 10
-216.1809
 20
-2.9348
  0
VERTEX
  8
LAYER_1
 10
-217.3145
 20
-2.8205
  0
SEQEND
  8
LAYER_1
  0
POLYLINE
  8
LAYER_1
 66
     1
  0
VERTEX
  8
LAYER_1
 10
-217.3145
 20
-2.8205
  0
VERTEX
  8
LAYER_1
 10
-218.4481
 20
-2.9348
  0
VERTEX
  8
LAYER_1
 10
-219.504
 20
-3.2625
  0
VERTEX
  8
LAYER_1
 10
-220.4595
 20
-3.7812
  0
VERTEX
  8
LAYER_1
 10
-221.292
 20
-4.468
  0
VERTEX
  8
LAYER_1
 10
-221.9788
 20
-5.3005
  0
VERTEX
  8
LAYER_1
 10
-222.4975
 20
-6.256
  0
VERTEX
  8
LAYER_1
 10
-222.8252
 20
-7.3119
  0
VERTEX
  8
LAYER_1
 10
-222.9395
 20
-8.4455
  0
SEQEND
  8
LAYER_1
  0
POLYLINE
  8
LAYER_1
 66
     1
  0
VERTEX
  8
LAYER_1
 10
-222.9395
 20
-8.4455
  0
VERTEX
  8
LAYER_1
 10
-222.8252
 20
-9.5791
  0
VERTEX
  8
LAYER_1
 10
-222.4975
 20
-10.635
  0
VERTEX
  8
LAYER_1
 10
-221.9788
 20
-11.5905
  0
VERTEX
  8
LAYER_1
 10
-221.292
 20
-12.423
  0
VERTEX
  8
LAYER_1
 10
-220.4595
 20
-13.1098
  0
VERTEX
  8
LAYER_1
 10
-219.504
 20
-13.6285
  0
VERTEX
  8
LAYER_1
 10
-218.4481
 20
-13.9562
  0
VERTEX
  8
LAYER_1
 10
-217.3145
 20
-14.0705
  0
SEQEND
  8
LAYER_1
  0
POLYLINE
  8
LAYER_1
 66
     1
  0
VERTEX
  8
LAYER_1
 10
-217.3145
 20
-14.0705
  0
VERTEX
  8
LAYER_1
 10
-216.1809
 20
-13.9562
  0
VERTEX
  8
LAYER_1
 10
-215.125
 20
-13.6285
  0
VERTEX
  8
LAYER_1
 10
-214.1695
 20
-13.1098
  0
VERTEX
  8
LAYER_1
 10
-213.337
 20
-12.423
  0
VERTEX
  8
LAYER_1
 10
-212.6502
 20
-11.5905
  0
VERTEX
  8
LAYER_1
 10
-212.1315
 20
-10.635
  0
VERTEX
  8
LAYER_1
 10
-211.8038
 20
-9.5791
  0
VERTEX
  8
LAYER_1
 10
-211.6895
 20
-8.4455
  0
SEQEND
  8
LAYER_1
  0
POLYLINE
  8
LAYER_1
 66
     1
  0
VERTEX
  8
LAYER_1
 10
-248.8145
 20
-45.5705
  0
VERTEX
  8
LAYER_1
 10
-247.6809
 20
-45.4562
  0
VERTEX
  8
LAYER_1
 10
-246.625
 20
-45.1285
  0
VERTEX
  8
LAYER_1
 10
-245.6695
 20
-44.6098
  0
VERTEX
  8
LAYER_1
 10
-244.837
 20
-43.923
  0
VERTEX
  8
LAYER_1
 10
-244.1502
 20
-43.0905
  0
VERTEX
  8
LAYER_1
 10
-243.6315
 20
-42.135
  0
VERTEX
  8
LAYER_1
 10
-243.3038
 20
-41.0791
  0
VERTEX
  8
LAYER_1
 10
-243.1895
 20
-39.9455
  0
SEQEND
  8
LAYER_1
  0
POLYLINE
  8
LAYER_1
 66
     1
  0
VERTEX
  8
LAYER_1
 10
-243.1895
 20
-39.9455
  0
VERTEX
  8
LAYER_1
 10
-243.3038
 20
-38.8119
  0
VERTEX
  8
LAYER_1
 10
-243.6315
 20
-37.756
  0
VERTEX
  8
LAYER_1
 10
-244.1502
 20
-36.8005
  0
VERTEX
  8
LAYER_1
 10
-244.837
 20
-35.968
  0
VERTEX
  8
LAYER_1
 10
-245.6695
 20
-35.2812
  0
VERTEX
  8
LAYER_1
 10
-246.625
 20
-34.7625
  0
VERTEX
  8
LAYER_1
 10
-247.6809
 20
-34.4348
  0
VERTEX
  8
LAYER_1
 10
-248.8145
 20
-34.3205
  0
SEQEND
  8
LAYER_1
  0
POLYLINE
  8
LAYER_1
 66
     1
  0
VERTEX
  8
LAYER_1
 10
-248.8145
 20
-34.3205
  0
VERTEX
  8
LAYER_1
 10
-249.9481
 20
-34.4348
  0
VERTEX
  8
LAYER_1
 10
-251.004
 20
-34.7625
  0
VERTEX
  8
LAYER_1
 10
-251.9595
 20
-35.2812
  0
VERTEX
  8
LAYER_1
 10
-252.792
 20
-35.968
  0
VERTEX
  8
LAYER_1
 10
-253.4788
 20
-36.8005
  0
VERTEX
  8
LAYER_1
 10
-253.9975
 20
-37.756
  0
VERTEX
  8
LAYER_1
 10
-254.3252
 20
-38.8119
  0
VERTEX
  8
LAYER_1
 10
-254.4395
 20
-39.9455
  0
SEQEND
  8
LAYER_1
  0
POLYLINE
  8
LAYER_1
 66
     1
  0
VERTEX
  8
LAYER_1
 10
-254.4395
 20
-39.9455
  0
VERTEX
  8
LAYER_1
 10
-254.3252
 20
-41.0791
  0
VERTEX
  8
LAYER_1
 10
-253.9975
 20
-42.135
  0
VERTEX
  8
LAYER_1
 10
-253.4788
 20
-43.0905
  0
VERTEX
  8
LAYER_1
 10
-252.792
 20
-43.923
  0
VERTEX
  8
LAYER_1
 10
-251.9595
 20
-44.6098
  0
VERTEX
  8
LAYER_1
 10
-251.004
 20
-45.1285
  0
VERTEX
  8
LAYER_1
 10
-249.9481
 20
-45.4562
  0
VERTEX
  8
LAYER_1
 10
-248.8145
 20
-45.5705
  0
SEQEND
  8
LAYER_1
  0
POLYLINE
  8
LAYER_1
 66
     1
  0
VERTEX
  8
LAYER_1
 10
-185.8145
 20
-45.5705
  0
VERTEX
  8
LAYER_1
 10
-184.6809
 20
-45.4562
  0
VERTEX
  8
LAYER_1
 10
-183.625
 20
-45.1285
  0
VERTEX
  8
LAYER_1
 10
-182.6695
 20
-44.6098
  0
VERTEX
  8
LAYER_1
 10
-181.837
 20
-43.923
  0
VERTEX
  8
LAYER_1
 10
-181.1502
 20
-43.0905
  0
VERTEX
  8
LAYER_1
 10
-180.6315
 20
-42.135
  0
VERTEX
  8
LAYER_1
 10
-180.3038
 20
-41.0791
  0
VERTEX
  8
LAYER_1
 10
-180.1895
 20
-39.9455
  0
SEQEND
  8
LAYER_1
  0
POLYLINE
  8
LAYER_1
 66
     1
  0
VERTEX
  8
LAYER_1
 10
-180.1895
 20
-39.9455
  0
VERTEX
  8
LAYER_1
 10
-180.3038
 20
-38.8119
  0
VERTEX
  8
LAYER_1
 10
-180.6315
 20
-37.756
  0
VERTEX
  8
LAYER_1
 10
-181.1502
 20
-36.8005
  0
VERTEX
  8
LAYER_1
 10
-181.837
 20
-35.968
  0
VERTEX
  8
LAYER_1
 10
-182.6695
 20
-35.2812
  0
VERTEX
  8
LAYER_1
 10
-183.625
 20
-34.7625
  0
VERTEX
  8
LAYER_1
 10
-184.6809
 20
-34.4348
  0
VERTEX
  8
LAYER_1
 10
-185.8145
 20
-34.3205
  0
SEQEND
  8
LAYER_1
  0
POLYLINE
  8
LAYER_1
 66
     1
  0
VERTEX
  8
LAYER_1
 10
-185.8145
 20
-34.3205
  0
VERTEX
  8
LAYER_1
 10
-186.9481
 20
-34.4348
  0
VERTEX
  8
LAYER_1
 10
-188.004
 20
-34.7625
  0
VERTEX
  8
LAYER_1
 10
-188.9595
 20
-35.2812
  0
VERTEX
  8
LAYER_1
 10
-189.792
 20
-35.968
  0
VERTEX
  8
LAYER_1
 10
-190.4788
 20
-36.8005
  0
VERTEX
  8
LAYER_1
 10
-190.9975
 20
-37.756
  0
VERTEX
  8
LAYER_1
 10
-191.3252
 20
-38.8119
  0
VERTEX
  8
LAYER_1
 10
-191.4395
 20
-39.9455
  0
SEQEND
  8
LAYER_1
  0
POLYLINE
  8
LAYER_1
 66
     1
  0
VERTEX
  8
LAYER_1
 10
-191.4395
 20
-39.9455
  0
VERTEX
  8
LAYER_1
 10
-191.3252
 20
-41.0791
  0
VERTEX
  8
LAYER_1
 10
-190.9975
 20
-42.135
  0
VERTEX
  8
LAYER_1
 10
-190.4788
 20
-43.0905
  0
VERTEX
  8
LAYER_1
 10
-189.792
 20
-43.923
  0
VERTEX
  8
LAYER_1
 10
-188.9595
 20
-44.6098
  0
VERTEX
  8
LAYER_1
 10
-188.004
 20
-45.1285
  0
VERTEX
  8
LAYER_1
 10
-186.9481
 20
-45.4562
  0
VERTEX
  8
LAYER_1
 10
-185.8145
 20
-45.5705
  0
SEQEND
  8
LAYER_1
  0
POLYLINE
  8
LAYER_1
 66
     1
  0
VERTEX
  8
LAYER_1
 10
-191.0632
 20
-58.2419
  0
VERTEX
  8
LAYER_1
 10
-191.9456
 20
-57.5211
  0
VERTEX
  8
LAYER_1
 10
-192.924
 20
-57.0063
  0
VERTEX
  8
LAYER_1
 10
-193.9664
 20
-56.6973
  0
VERTEX
  8
LAYER_1
 10
-195.0407
 20
-56.5944
  0
VERTEX
  8
LAYER_1
 10
-196.115
 20
-56.6973
  0
VERTEX
  8
LAYER_1
 10
-197.1574
 20
-57.0063
  0
VERTEX
  8
LAYER_1
 10
-198.1358
 20
-57.5211
  0
VERTEX
  8
LAYER_1
 10
-199.0182
 20
-58.2419
  0
SEQEND
  8
LAYER_1
  0
POLYLINE
  8
LAYER_1
 66
     1
  0
VERTEX
  8
LAYER_1
 10
-199.0181
 20
-58.2419
  0
VERTEX
  8
LAYER_1
 10
-199.7389
 20
-59.1243
  0
VERTEX
  8
LAYER_1
 10
-200.2537
 20
-60.1027
  0
VERTEX
  8
LAYER_1
 10
-200.5627
 20
-61.1451
  0
VERTEX
  8
LAYER_1
 10
-200.6656
 20
-62.2194
  0
VERTEX
  8
LAYER_1
 10
-200.5627
 20
-63.2937
  0
VERTEX
  8
LAYER_1
 10
-200.2537
 20
-64.3361
  0
VERTEX
  8
LAYER_1
 10
-199.7389
 20
-65.3145
  0
VERTEX
  8
LAYER_1
 10
-199.0181
 20
-66.1969
  0
SEQEND
  8
LAYER_1
  0
POLYLINE
  8
LAYER_1
 66
     1
  0
VERTEX
  8
LAYER_1
 10
-199.0181
 20
-66.1969
  0
VERTEX
  8
LAYER_1
 10
-198.1357
 20
-66.9177
  0
VERTEX
  8
LAYER_1
 10
-197.1573
 20
-67.4325
  0
VERTEX
  8
LAYER_1
 10
-196.1149
 20
-67.7415
  0
VERTEX
  8
LAYER_1
 10
-195.0406
 20
-67.8444
  0
VERTEX
  8
LAYER_1
 10
-193.9663
 20
-67.7415
  0
VERTEX
  8
LAYER_1
 10
-192.9239
 20
-67.4325
  0
VERTEX
  8
LAYER_1
 10
-191.9455
 20
-66.9177
  0
VERTEX
  8
LAYER_1
 10
-191.0631
 20
-66.1969
  0
SEQEND
  8
LAYER_1
  0
POLYLINE
  8
LAYER_1
 66
     1
  0
VERTEX
  8
LAYER_1
 10
-191.0632
 20
-66.1969
  0
VERTEX
  8
LAYER_1
 10
-190.3424
 20
-65.3145
  0
VERTEX
  8
LAYER_1
 10
-189.8276
 20
-64.3361
  0
VERTEX
  8
LAYER_1
 10
-189.5186
 20
-63.2937
  0
VERTEX
  8
LAYER_1
 10
-189.4157
 20
-62.2194
  0
VERTEX
  8
LAYER_1
 10
-189.5186
 20
-61.1451
  0
VERTEX
  8
LAYER_1
 10
-189.8276
 20
-60.1027
  0
VERTEX
  8
LAYER_1
 10
-190.3424
 20
-59.1243
  0
VERTEX
  8
LAYER_1
 10
-191.0632
 20
-58.2419
  0
SEQEND
  8
LAYER_1
  0
POLYLINE
  8
LAYER_1
 66
     1
  0
VERTEX
  8
LAYER_1
 10
-235.6109
 20
-13.6942
  0
VERTEX
  8
LAYER_1
 10
-236.4933
 20
-12.9734
  0
VERTEX
  8
LAYER_1
 10
-237.4717
 20
-12.4586
  0
VERTEX
  8
LAYER_1
 10
-238.5141
 20
-12.1496
  0
VERTEX
  8
LAYER_1
 10
-239.5884
 20
-12.0467
  0
VERTEX
  8
LAYER_1
 10
-240.6627
 20
-12.1496
  0
VERTEX
  8
LAYER_1
 10
-241.7051
 20
-12.4586
  0
VERTEX
  8
LAYER_1
 10
-242.6835
 20
-12.9734
  0
VERTEX
  8
LAYER_1
 10
-243.5659
 20
-13.6942
  0
SEQEND
  8
LAYER_1
  0
POLYLINE
  8
LAYER_1
 66
     1
  0
VERTEX
  8
LAYER_1
 10
-243.5658
 20
-13.6942
  0
VERTEX
  8
LAYER_1
 10
-244.2866
 20
-14.5766
  0
VERTEX
  8
LAYER_1
 10
-244.8014
 20
-15.555
  0
VERTEX
  8
LAYER_1
 10
-245.1104
 20
-16.5973
  0
VERTEX
  8
LAYER_1
 10
-245.2133
 20
-17.6717
  0
VERTEX
  8
LAYER_1
 10
-245.1104
 20
-18.746
  0
VERTEX
  8
LAYER_1
 10
-244.8014
 20
-19.7883
  0
VERTEX
  8
LAYER_1
 10
-244.2866
 20
-20.7667
  0
VERTEX
  8
LAYER_1
 10
-243.5658
 20
-21.6491
  0
SEQEND
  8
LAYER_1
  0
POLYLINE
  8
LAYER_1
 66
     1
  0
VERTEX
  8
LAYER_1
 10
-243.5658
 20
-21.6491
  0
VERTEX
  8
LAYER_1
 10
-242.6834
 20
-22.3699
  0
VERTEX
  8
LAYER_1
 10
-241.705
 20
-22.8847
  0
VERTEX
  8
LAYER_1
 10
-240.6626
 20
-23.1937
  0
VERTEX
  8
LAYER_1
 10
-239.5883
 20
-23.2966
  0
VERTEX
  8
LAYER_1
 10
-238.514
 20
-23.1937
  0
VERTEX
  8
LAYER_1
 10
-237.4716
 20
-22.8847
  0
VERTEX
  8
LAYER_1
 10
-236.4932
 20
-22.3699
  0
VERTEX
  8
LAYER_1
 10
-235.6108
 20
-21.6491
  0
SEQEND
  8
LAYER_1
  0
POLYLINE
  8
LAYER_1
 66
     1
  0
VERTEX
  8
LAYER_1
 10
-235.6109
 20
-21.6491
  0
VERTEX
  8
LAYER_1
 10
-234.8901
 20
-20.7667
  0
VERTEX
  8
LAYER_1
 10
-234.3753
 20
-19.7883
  0
VERTEX
  8
LAYER_1
 10
-234.0663
 20
-18.746
  0
VERTEX
  8
LAYER_1
 10
-233.9634
 20
-17.6717
  0
VERTEX
  8
LAYER_1
 10
-234.0663
 20
-16.5973
  0
VERTEX
  8
LAYER_1
 10
-234.3753
 20
-15.555
  0
VERTEX
  8
LAYER_1
 10
-234.8901
 20
-14.5766
  0
VERTEX
  8
LAYER_1
 10
-235.6109
 20
-13.6942
  0
SEQEND
  8
LAYER_1
  0
POLYLINE
  8
LAYER_1
 66
     1
  0
VERTEX
  8
LAYER_1
 10
-235.6109
 20
-66.1969
  0
VERTEX
  8
LAYER_1
 10
-234.8901
 20
-65.3145
  0
VERTEX
  8
LAYER_1
 10
-234.3753
 20
-64.3361
  0
VERTEX
  8
LAYER_1
 10
-234.0663
 20
-63.2937
  0
VERTEX
  8
LAYER_1
 10
-233.9634
 20
-62.2194
  0
VERTEX
  8
LAYER_1
 10
-234.0663
 20
-61.1451
  0
VERTEX
  8
LAYER_1
 10
-234.3753
 20
-60.1027
  0
VERTEX
  8
LAYER_1
 10
-234.8901
 20
-59.1243
  0
VERTEX
  8
LAYER_1
 10
-235.6109
 20
-58.2419
  0
SEQEND
  8
LAYER_1
  0
POLYLINE
  8
LAYER_1
 66
     1
  0
VERTEX
  8
LAYER_1
 10
-235.6109
 20
-58.2419
  0
VERTEX
  8
LAYER_1
 10
-236.4933
 20
-57.5211
  0
VERTEX
  8
LAYER_1
 10
-237.4717
 20
-57.0063
  0
VERTEX
  8
LAYER_1
 10
-238.5141
 20
-56.6973
  0
VERTEX
  8
LAYER_1
 10
-239.5884
 20
-56.5944
  0
VERTEX
  8
LAYER_1
 10
-240.6627
 20
-56.6973
  0
VERTEX
  8
LAYER_1
 10
-241.7051
 20
-57.0063
  0
VERTEX
  8
LAYER_1
 10
-242.6835
 20
-57.5211
  0
VERTEX
  8
LAYER_1
 10
-243.5659
 20
-58.2419
  0
SEQEND
  8
LAYER_1
  0
POLYLINE
  8
LAYER_1
 66
     1
  0
VERTEX
  8
LAYER_1
 10
-243.5658
 20
-58.2419
  0
VERTEX
  8
LAYER_1
 10
-244.2866
 20
-59.1243
  0
VERTEX
  8
LAYER_1
 10
-244.8014
 20
-60.1027
  0
VERTEX
  8
LAYER_1
 10
-245.1104
 20
-61.1451
  0
VERTEX
  8
LAYER_1
 10
-245.2133
 20
-62.2194
  0
VERTEX
  8
LAYER_1
 10
-245.1104
 20
-63.2937
  0
VERTEX
  8
LAYER_1
 10
-244.8014
 20
-64.3361
  0
VERTEX
  8
LAYER_1
 10
-244.2866
 20
-65.3145
  0
VERTEX
  8
LAYER_1
 10
-243.5658
 20
-66.1969
  0
SEQEND
  8
LAYER_1
  0
POLYLINE
  8
LAYER_1
 66
     1
  0
VERTEX
  8
LAYER_1
 10
-243.5658
 20
-66.1969
  0
VERTEX
  8
LAYER_1
 10
-242.6834
 20
-66.9177
  0
VERTEX
  8
LAYER_1
 10
-241.705
 20
-67.4325
  0
VERTEX
  8
LAYER_1
 10
-240.6626
 20
-67.7415
  0
VERTEX
  8
LAYER_1
 10
-239.5883
 20
-67.8444
  0
VERTEX
  8
LAYER_1
 10
-238.514
 20
-67.7415
  0
VERTEX
  8
LAYER_1
 10
-237.4716
 20
-67.4325
  0
VERTEX
  8
LAYER_1
 10
-236.4932
 20
-66.9177
  0
VERTEX
  8
LAYER_1
 10
-235.6108
 20
-66.1969
  0
SEQEND
  8
LAYER_1
  0
POLYLINE
  8
LAYER_1
 66
     1
  0
VERTEX
  8
LAYER_1
 10
-191.0631
 20
-21.6491
  0
VERTEX
  8
LAYER_1
 10
-190.3423
 20
-20.7667
  0
VERTEX
  8
LAYER_1
 10
-189.8275
 20
-19.7883
  0
VERTEX
  8
LAYER_1
 10
-189.5185
 20
-18.746
  0
VERTEX
  8
LAYER_1
 10
-189.4156
 20
-17.6717
  0
VERTEX
  8
LAYER_1
 10
-189.5185
 20
-16.5973
  0
VERTEX
  8
LAYER_1
 10
-189.8275
 20
-15.555
  0
VERTEX
  8
LAYER_1
 10
-190.3423
 20
-14.5766
  0
VERTEX
  8
LAYER_1
 10
-191.0631
 20
-13.6942
  0
SEQEND
  8
LAYER_1
  0
POLYLINE
  8
LAYER_1
 66
     1
  0
VERTEX
  8
LAYER_1
 10
-191.0631
 20
-13.6942
  0
VERTEX
  8
LAYER_1
 10
-191.9455
 20
-12.9734
  0
VERTEX
  8
LAYER_1
 10
-192.9239
 20
-12.4586
  0
VERTEX
  8
LAYER_1
 10
-193.9663
 20
-12.1496
  0
VERTEX
  8
LAYER_1
 10
-195.0406
 20
-12.0467
  0
VERTEX
  8
LAYER_1
 10
-196.1149
 20
-12.1496
  0
VERTEX
  8
LAYER_1
 10
-197.1573
 20
-12.4586
  0
VERTEX
  8
LAYER_1
 10
-198.1357
 20
-12.9734
  0
VERTEX
  8
LAYER_1
 10
-199.0181
 20
-13.6942
  0
SEQEND
  8
LAYER_1
  0
POLYLINE
  8
LAYER_1
 66
     1
  0
VERTEX
  8
LAYER_1
 10
-199.0181
 20
-13.6942
  0
VERTEX
  8
LAYER_1
 10
-199.7389
 20
-14.5766
  0
VERTEX
  8
LAYER_1
 10
-200.2537
 20
-15.555
  0
VERTEX
  8
LAYER_1
 10
-200.5627
 20
-16.5973
  0
VERTEX
  8
LAYER_1
 10
-200.6656
 20
-17.6717
  0
VERTEX
  8
LAYER_1
 10
-200.5627
 20
-18.746
  0
VERTEX
  8
LAYER_1
 10
-200.2537
 20
-19.7883
  0
VERTEX
  8
LAYER_1
 10
-199.7389
 20
-20.7667
  0
VERTEX
  8
LAYER_1
 10
-199.0181
 20
-21.6491
  0
SEQEND
  8
LAYER_1
  0
POLYLINE
  8
LAYER_1
 66
     1
  0
VERTEX
  8
LAYER_1
 10
-199.0181
 20
-21.6491
  0
VERTEX
  8
LAYER_1
 10
-198.1357
 20
-22.3699
  0
VERTEX
  8
LAYER_1
 10
-197.1573
 20
-22.8847
  0
VERTEX
  8
LAYER_1
 10
-196.1149
 20
-23.1937
  0
VERTEX
  8
LAYER_1
 10
-195.0406
 20
-23.2966
  0
VERTEX
  8
LAYER_1
 10
-193.9663
 20
-23.1937
  0
VERTEX
  8
LAYER_1
 10
-192.9239
 20
-22.8847
  0
VERTEX
  8
LAYER_1
 10
-191.9455
 20
-22.3699
  0
VERTEX
  8
LAYER_1
 10
-191.0631
 20
-21.6491
  0
SEQEND
  8
LAYER_1
  0
POLYLINE
  8
LAYER_1
 66
     1
  0
VERTEX
  8
LAYER_1
 10
-217.3145
 20
2.242
  0
VERTEX
  8
LAYER_1
 10
-208.8133
 20
1.3848
  0
VERTEX
  8
LAYER_1
 10
-200.8947
 20
-1.0738
  0
VERTEX
  8
LAYER_1
 10
-193.7287
 20
-4.9639
  0
VERTEX
  8
LAYER_1
 10
-187.4848
 20
-10.1158
  0
VERTEX
  8
LAYER_1
 10
-182.3329
 20
-16.3597
  0
VERTEX
  8
LAYER_1
 10
-178.4428
 20
-23.5257
  0
VERTEX
  8
LAYER_1
 10
-175.9842
 20
-31.4443
  0
VERTEX
  8
LAYER_1
 10
-175.127
 20
-39.9455
  0
SEQEND
  8
LAYER_1
  0
POLYLINE
  8
LAYER_1
 66
     1
  0
VERTEX
  8
LAYER_1
 10
-175.127
 20
-39.9455
  0
VERTEX
  8
LAYER_1
 10
-175.9842
 20
-48.4467
  0
VERTEX
  8
LAYER_1
 10
-178.4428
 20
-56.3653
  0
VERTEX
  8
LAYER_1
 10
-182.3329
 20
-63.5313
  0
VERTEX
  8
LAYER_1
 10
-187.4848
 20
-69.7752
  0
VERTEX
  8
LAYER_1
 10
-193.7287
 20
-74.9271
  0
VERTEX
  8
LAYER_1
 10
-200.8947
 20
-78.8172
  0
VERTEX
  8
LAYER_1
 10
-208.8133
 20
-81.2758
  0
VERTEX
  8
LAYER_1
 10
-217.3145
 20
-82.133
  0
SEQEND
  8
LAYER_1
  0
POLYLINE
  8
LAYER_1
 66
     1
  0
VERTEX
  8
LAYER_1
 10
-217.3145
 20
-82.133
  0
VERTEX
  8
LAYER_1
 10
-225.8157
 20
-81.2758
  0
VERTEX
  8
LAYER_1
 10
-233.7343
 20
-78.8172
  0
VERTEX
  8
LAYER_1
 10
-240.9003
 20
-74.9271
  0
VERTEX
  8
LAYER_1
 10
-247.1442
 20
-69.7752
  0
VERTEX
  8
LAYER_1
 10
-252.2961
 20
-63.5313
  0
VERTEX
  8
LAYER_1
 10
-256.1862
 20
-56.3653
  0
VERTEX
  8
LAYER_1
 10
-258.6448
 20
-48.4467
  0
VERTEX
  8
LAYER_1
 10
-259.502
 20
-39.9455
  0
SEQEND
  8
LAYER_1
  0
POLYLINE
  8
LAYER_1
 66
     1
  0
VERTEX
  8
LAYER_1
 10
-259.502
 20
-39.9455
  0
VERTEX
  8
LAYER_1
 10
-258.6448
 20
-31.4443
  0
VERTEX
  8
LAYER_1
 10
-256.1862
 20
-23.5257
  0
VERTEX
  8
LAYER_1
 10
-252.2961
 20
-16.3597
  0
VERTEX
  8
LAYER_1
 10
-247.1442
 20
-10.1158
  0
VERTEX
  8
LAYER_1
 10
-240.9003
 20
-4.9639
  0
VERTEX
  8
LAYER_1
 10
-233.7343
 20
-1.0738
  0
VERTEX
  8
LAYER_1
 10
-225.8157
 20
1.3848
  0
VERTEX
  8
LAYER_1
 10
-217.3145
 20
2.242
  0
SEQEND
  8
LAYER_1
  0
POLYLINE
  8
LAYER_1
 66
     1
  0
VERTEX
  8
LAYER_1
 10
-218.3085
 20
-38.9516
  0
VERTEX
  8
LAYER_1
 10
-218.088
 20
-38.7715
  0
VERTEX
  8
LAYER_1
 10
-217.8435
 20
-38.6428
  0
VERTEX
  8
LAYER_1
 10
-217.583
 20
-38.5657
  0
VERTEX
  8
LAYER_1
 10
-217.3145
 20
-38.5399
  0
VERTEX
  8
LAYER_1
 10
-217.046
 20
-38.5657
  0
VERTEX
  8
LAYER_1
 10
-216.7855
 20
-38.6428
  0
VERTEX
  8
LAYER_1
 10
-216.5411
 20
-38.7715
  0
VERTEX
  8
LAYER_1
 10
-216.3206
 20
-38.9516
  0
SEQEND
  8
LAYER_1
  0
POLYLINE
  8
LAYER_1
 66
     1
  0
VERTEX
  8
LAYER_1
 10
-216.3205
 20
-38.9516
  0
VERTEX
  8
LAYER_1
 10
-216.1404
 20
-39.1721
  0
VERTEX
  8
LAYER_1
 10
-216.0117
 20
-39.4166
  0
VERTEX
  8
LAYER_1
 10
-215.9346
 20
-39.6771
  0
VERTEX
  8
LAYER_1
 10
-215.9088
 20
-39.9456
  0
VERTEX
  8
LAYER_1
 10
-215.9346
 20
-40.2141
  0
VERTEX
  8
LAYER_1
 10
-216.0117
 20
-40.4746
  0
VERTEX
  8
LAYER_1
 10
-216.1404
 20
-40.719
  0
VERTEX
  8
LAYER_1
 10
-216.3205
 20
-40.9395
  0
SEQEND
  8
LAYER_1
  0
POLYLINE
  8
LAYER_1
 66
     1
  0
VERTEX
  8
LAYER_1
 10
-216.3205
 20
-40.9395
  0
VERTEX
  8
LAYER_1
 10
-216.541
 20
-41.1196
  0
VERTEX
  8
LAYER_1
 10
-216.7855
 20
-41.2483
  0
VERTEX
  8
LAYER_1
 10
-217.046
 20
-41.3254
  0
VERTEX
  8
LAYER_1
 10
-217.3145
 20
-41.3512
  0
VERTEX
  8
LAYER_1
 10
-217.583
 20
-41.3254
  0
VERTEX
  8
LAYER_1
 10
-217.8435
 20
-41.2483
  0
VERTEX
  8
LAYER_1
 10
-218.0879
 20
-41.1196
  0
VERTEX
  8
LAYER_1
 10
-218.3084
 20
-40.9395
  0
SEQEND
  8
LAYER_1
  0
POLYLINE
  8
LAYER_1
 66
     1
  0
VERTEX
  8
LAYER_1
 10
-218.3085
 20
-40.9395
  0
VERTEX
  8
LAYER_1
 10
-218.4886
 20
-40.719
  0
VERTEX
  8
LAYER_1
 10
-218.6173
 20
-40.4745
  0
VERTEX
  8
LAYER_1
 10
-218.6944
 20
-40.214
  0
VERTEX
  8
LAYER_1
 10
-218.7202
 20
-39.9455
  0
VERTEX
  8
LAYER_1
 10
-218.6944
 20
-39.677
  0
VERTEX
  8
LAYER_1
 10
-218.6173
 20
-39.4165
  0
VERTEX
  8
LAYER_1
 10
-218.4886
 20
-39.1721
  0
VERTEX
  8
LAYER_1
 10
-218.3085
 20
-38.9516
  0
SEQEND
  8
LAYER_1
  0
POLYLINE
  8
LAYER_1
 66
     1
  0
VERTEX
  8
LAYER_1
 10
-123.8591
 20
-73.9766
  0
VERTEX
  8
LAYER_1
 10
-123.9734
 20
-72.843
  0
VERTEX
  8
LAYER_1
 10
-124.3011
 20
-71.7871
  0
VERTEX
  8
LAYER_1
 10
-124.8198
 20
-70.8316
  0
VERTEX
  8
LAYER_1
 10
-125.5066
 20
-69.9991
  0
VERTEX
  8
LAYER_1
 10
-126.3391
 20
-69.3123
  0
VERTEX
  8
LAYER_1
 10
-127.2946
 20
-68.7936
  0
VERTEX
  8
LAYER_1
 10
-128.3505
 20
-68.4659
  0
VERTEX
  8
LAYER_1
 10
-129.4841
 20
-68.3516
  0
SEQEND
  8
LAYER_1
  0
POLYLINE
  8
LAYER_1
 66
     1
  0
VERTEX
  8
LAYER_1
 10
-129.4841
 20
-68.3516
  0
VERTEX
  8
LAYER_1
 10
-130.6177
 20
-68.4659
  0
VERTEX
  8
LAYER_1
 10
-131.6736
 20
-68.7936
  0
VERTEX
  8
LAYER_1
 10
-132.6291
 20
-69.3123
  0
VERTEX
  8
LAYER_1
 10
-133.4616
 20
-69.9991
  0
VERTEX
  8
LAYER_1
 10
-134.1484
 20
-70.8316
  0
VERTEX
  8
LAYER_1
 10
-134.6671
 20
-71.7871
  0
VERTEX
  8
LAYER_1
 10
-134.9948
 20
-72.843
  0
VERTEX
  8
LAYER_1
 10
-135.1091
 20
-73.9766
  0
SEQEND
  8
LAYER_1
  0
POLYLINE
  8
LAYER_1
 66
     1
  0
VERTEX
  8
LAYER_1
 10
-135.1091
 20
-73.9766
  0
VERTEX
  8
LAYER_1
 10
-134.9948
 20
-75.1102
  0
VERTEX
  8
LAYER_1
 10
-134.6671
 20
-76.1661
  0
VERTEX
  8
LAYER_1
 10
-134.1484
 20
-77.1216
  0
VERTEX
  8
LAYER_1
 10
-133.4616
 20
-77.9541
  0
VERTEX
  8
LAYER_1
 10
-132.6291
 20
-78.6409
  0
VERTEX
  8
LAYER_1
 10
-131.6736
 20
-79.1596
  0
VERTEX
  8
LAYER_1
 10
-130.6177
 20
-79.4873
  0
VERTEX
  8
LAYER_1
 10
-129.4841
 20
-79.6016
  0
SEQEND
  8
LAYER_1
  0
POLYLINE
  8
LAYER_1
 66
     1
  0
VERTEX
  8
LAYER_1
 10
-129.4841
 20
-79.6016
  0
VERTEX
  8
LAYER_1
 10
-128.3505
 20
-79.4873
  0
VERTEX
  8
LAYER_1
 10
-127.2946
 20
-79.1596
  0
VERTEX
  8
LAYER_1
 10
-126.3391
 20
-78.6409
  0
VERTEX
  8
LAYER_1
 10
-125.5066
 20
-77.9541
  0
VERTEX
  8
LAYER_1
 10
-124.8198
 20
-77.1216
  0
VERTEX
  8
LAYER_1
 10
-124.3011
 20
-76.1661
  0
VERTEX
  8
LAYER_1
 10
-123.9734
 20
-75.1102
  0
VERTEX
  8
LAYER_1
 10
-123.8591
 20
-73.9766
  0
SEQEND
  8
LAYER_1
  0
POLYLINE
  8
LAYER_1
 66
     1
  0
VERTEX
  8
LAYER_1
 10
-123.8591
 20
-6.4766
  0
VERTEX
  8
LAYER_1
 10
-123.9734
 20
-5.343
  0
VERTEX
  8
LAYER_1
 10
-124.3011
 20
-4.2871
  0
VERTEX
  8
LAYER_1
 10
-124.8198
 20
-3.3316
  0
VERTEX
  8
LAYER_1
 10
-125.5066
 20
-2.4991
  0
VERTEX
  8
LAYER_1
 10
-126.3391
 20
-1.8123
  0
VERTEX
  8
LAYER_1
 10
-127.2946
 20
-1.2936
  0
VERTEX
  8
LAYER_1
 10
-128.3505
 20
-0.9659
  0
VERTEX
  8
LAYER_1
 10
-129.4841
 20
-0.8516
  0
SEQEND
  8
LAYER_1
  0
POLYLINE
  8
LAYER_1
 66
     1
  0
VERTEX
  8
LAYER_1
 10
-129.4841
 20
-0.8516
  0
VERTEX
  8
LAYER_1
 10
-130.6177
 20
-0.9659
  0
VERTEX
  8
LAYER_1
 10
-131.6736
 20
-1.2936
  0
VERTEX
  8
LAYER_1
 10
-132.6291
 20
-1.8123
  0
VERTEX
  8
LAYER_1
 10
-133.4616
 20
-2.4991
  0
VERTEX
  8
LAYER_1
 10
-134.1484
 20
-3.3316
  0
VERTEX
  8
LAYER_1
 10
-134.6671
 20
-4.2871
  0
VERTEX
  8
LAYER_1
 10
-134.9948
 20
-5.343
  0
VERTEX
  8
LAYER_1
 10
-135.1091
 20
-6.4766
  0
SEQEND
  8
LAYER_1
  0
POLYLINE
  8
LAYER_1
 66
     1
  0
VERTEX
  8
LAYER_1
 10
-135.1091
 20
-6.4766
  0
VERTEX
  8
LAYER_1
 10
-134.9948
 20
-7.6102
  0
VERTEX
  8
LAYER_1
 10
-134.6671
 20
-8.6661
  0
VERTEX
  8
LAYER_1
 10
-134.1484
 20
-9.6216
  0
VERTEX
  8
LAYER_1
 10
-133.4616
 20
-10.4541
  0
VERTEX
  8
LAYER_1
 10
-132.6291
 20
-11.1409
  0
VERTEX
  8
LAYER_1
 10
-131.6736
 20
-11.6596
  0
VERTEX
  8
LAYER_1
 10
-130.6177
 20
-11.9873
  0
VERTEX
  8
LAYER_1
 10
-129.4841
 20
-12.1016
  0
SEQEND
  8
LAYER_1
  0
POLYLINE
  8
LAYER_1
 66
     1
  0
VERTEX
  8
LAYER_1
 10
-129.4841
 20
-12.1016
  0
VERTEX
  8
LAYER_1
 10
-128.3505
 20
-11.9873
  0
VERTEX
  8
LAYER_1
 10
-127.2946
 20
-11.6596
  0
VERTEX
  8
LAYER_1
 10
-126.3391
 20
-11.1409
  0
VERTEX
  8
LAYER_1
 10
-125.5066
 20
-10.4541
  0
VERTEX
  8
LAYER_1
 10
-124.8198
 20
-9.6216
  0
VERTEX
  8
LAYER_1
 10
-124.3011
 20
-8.6661
  0
VERTEX
  8
LAYER_1
 10
-123.9734
 20
-7.6102
  0
VERTEX
  8
LAYER_1
 10
-123.8591
 20
-6.4766
  0
SEQEND
  8
LAYER_1
  0
POLYLINE
  8
LAYER_1
 66
     1
  0
VERTEX
  8
LAYER_1
 10
-163.2341
 20
-45.8516
  0
VERTEX
  8
LAYER_1
 10
-162.1005
 20
-45.7373
  0
VERTEX
  8
LAYER_1
 10
-161.0446
 20
-45.4096
  0
VERTEX
  8
LAYER_1
 10
-160.0891
 20
-44.8909
  0
VERTEX
  8
LAYER_1
 10
-159.2566
 20
-44.2041
  0
VERTEX
  8
LAYER_1
 10
-158.5698
 20
-43.3716
  0
VERTEX
  8
LAYER_1
 10
-158.0511
 20
-42.4161
  0
VERTEX
  8
LAYER_1
 10
-157.7234
 20
-41.3602
  0
VERTEX
  8
LAYER_1
 10
-157.6091
 20
-40.2266
  0
SEQEND
  8
LAYER_1
  0
POLYLINE
  8
LAYER_1
 66
     1
  0
VERTEX
  8
LAYER_1
 10
-157.6091
 20
-40.2266
  0
VERTEX
  8
LAYER_1
 10
-157.7234
 20
-39.093
  0
VERTEX
  8
LAYER_1
 10
-158.0511
 20
-38.0371
  0
VERTEX
  8
LAYER_1
 10
-158.5698
 20
-37.0816
  0
VERTEX
  8
LAYER_1
 10
-159.2566
 20
-36.2491
  0
VERTEX
  8
LAYER_1
 10
-160.0891
 20
-35.5623
  0
VERTEX
  8
LAYER_1
 10
-161.0446
 20
-35.0436
  0
VERTEX
  8
LAYER_1
 10
-162.1005
 20
-34.7159
  0
VERTEX
  8
LAYER_1
 10
-163.2341
 20
-34.6016
  0
SEQEND
  8
LAYER_1
  0
POLYLINE
  8
LAYER_1
 66
     1
  0
VERTEX
  8
LAYER_1
 10
-163.2341
 20
-34.6016
  0
VERTEX
  8
LAYER_1
 10
-164.3677
 20
-34.7159
  0
VERTEX
  8
LAYER_1
 10
-165.4236
 20
-35.0436
  0
VERTEX
  8
LAYER_1
 10
-166.3791
 20
-35.5623
  0
VERTEX
  8
LAYER_1
 10
-167.2116
 20
-36.2491
  0
VERTEX
  8
LAYER_1
 10
-167.8984
 20
-37.0816
  0
VERTEX
  8
LAYER_1
 10
-168.4171
 20
-38.0371
  0
VERTEX
  8
LAYER_1
 10
-168.7448
 20
-39.093
  0
VERTEX
  8
LAYER_1
 10
-168.8591
 20
-40.2266
  0
SEQEND
  8
LAYER_1
  0
POLYLINE
  8
LAYER_1
 66
     1
  0
VERTEX
  8
LAYER_1
 10
-168.8591
 20
-40.2266
  0
VERTEX
  8
LAYER_1
 10
-168.7448
 20
-41.3602
  0
VERTEX
  8
LAYER_1
 10
-168.4171
 20
-42.4161
  0
VERTEX
  8
LAYER_1
 10
-167.8984
 20
-43.3716
  0
VERTEX
  8
LAYER_1
 10
-167.2116
 20
-44.2041
  0
VERTEX
  8
LAYER_1
 10
-166.3791
 20
-44.8909
  0
VERTEX
  8
LAYER_1
 10
-165.4236
 20
-45.4096
  0
VERTEX
  8
LAYER_1
 10
-164.3677
 20
-45.7373
  0
VERTEX
  8
LAYER_1
 10
-163.2341
 20
-45.8516
  0
SEQEND
  8
LAYER_1
  0
POLYLINE
  8
LAYER_1
 66
     1
  0
VERTEX
  8
LAYER_1
 10
-95.7341
 20
-45.8516
  0
VERTEX
  8
LAYER_1
 10
-94.6005
 20
-45.7373
  0
VERTEX
  8
LAYER_1
 10
-93.5446
 20
-45.4096
  0
VERTEX
  8
LAYER_1
 10
-92.5891
 20
-44.8909
  0
VERTEX
  8
LAYER_1
 10
-91.7566
 20
-44.2041
  0
VERTEX
  8
LAYER_1
 10
-91.0698
 20
-43.3716
  0
VERTEX
  8
LAYER_1
 10
-90.5511
 20
-42.4161
  0
VERTEX
  8
LAYER_1
 10
-90.2234
 20
-41.3602
  0
VERTEX
  8
LAYER_1
 10
-90.1091
 20
-40.2266
  0
SEQEND
  8
LAYER_1
  0
POLYLINE
  8
LAYER_1
 66
     1
  0
VERTEX
  8
LAYER_1
 10
-90.1091
 20
-40.2266
  0
VERTEX
  8
LAYER_1
 10
-90.2234
 20
-39.093
  0
VERTEX
  8
LAYER_1
 10
-90.5511
 20
-38.0371
  0
VERTEX
  8
LAYER_1
 10
-91.0698
 20
-37.0816
  0
VERTEX
  8
LAYER_1
 10
-91.7566
 20
-36.2491
  0
VERTEX
  8
LAYER_1
 10
-92.5891
 20
-35.5623
  0
VERTEX
  8
LAYER_1
 10
-93.5446
 20
-35.0436
  0
VERTEX
  8
LAYER_1
 10
-94.6005
 20
-34.7159
  0
VERTEX
  8
LAYER_1
 10
-95.7341
 20
-34.6016
  0
SEQEND
  8
LAYER_1
  0
POLYLINE
  8
LAYER_1
 66
     1
  0
VERTEX
  8
LAYER_1
 10
-95.7341
 20
-34.6016
  0
VERTEX
  8
LAYER_1
 10
-96.8677
 20
-34.7159
  0
VERTEX
  8
LAYER_1
 10
-97.9236
 20
-35.0436
  0
VERTEX
  8
LAYER_1
 10
-98.8791
 20
-35.5623
  0
VERTEX
  8
LAYER_1
 10
-99.7116
 20
-36.2491
  0
VERTEX
  8
LAYER_1
 10
-100.3984
 20
-37.0816
  0
VERTEX
  8
LAYER_1
 10
-100.9171
 20
-38.0371
  0
VERTEX
  8
LAYER_1
 10
-101.2448
 20
-39.093
  0
VERTEX
  8
LAYER_1
 10
-101.3591
 20
-40.2266
  0
SEQEND
  8
LAYER_1
  0
POLYLINE
  8
LAYER_1
 66
     1
  0
VERTEX
  8
LAYER_1
 10
-101.3591
 20
-40.2266
  0
VERTEX
  8
LAYER_1
 10
-101.2448
 20
-41.3602
  0
VERTEX
  8
LAYER_1
 10
-100.9171
 20
-42.4161
  0
VERTEX
  8
LAYER_1
 10
-100.3984
 20
-43.3716
  0
VERTEX
  8
LAYER_1
 10
-99.7116
 20
-44.2041
  0
VERTEX
  8
LAYER_1
 10
-98.8791
 20
-44.8909
  0
VERTEX
  8
LAYER_1
 10
-97.9236
 20
-45.4096
  0
VERTEX
  8
LAYER_1
 10
-96.8677
 20
-45.7373
  0
VERTEX
  8
LAYER_1
 10
-95.7341
 20
-45.8516
  0
SEQEND
  8
LAYER_1
  0
POLYLINE
  8
LAYER_1
 66
     1
  0
VERTEX
  8
LAYER_1
 10
-149.3715
 20
-68.069
  0
VERTEX
  8
LAYER_1
 10
-148.6507
 20
-67.1866
  0
VERTEX
  8
LAYER_1
 10
-148.1359
 20
-66.2082
  0
VERTEX
  8
LAYER_1
 10
-147.8269
 20
-65.1659
  0
VERTEX
  8
LAYER_1
 10
-147.724
 20
-64.0915
  0
VERTEX
  8
LAYER_1
 10
-147.8269
 20
-63.0172
  0
VERTEX
  8
LAYER_1
 10
-148.1359
 20
-61.9748
  0
VERTEX
  8
LAYER_1
 10
-148.6507
 20
-60.9965
  0
VERTEX
  8
LAYER_1
 10
-149.3715
 20
-60.1141
  0
SEQEND
  8
LAYER_1
  0
POLYLINE
  8
LAYER_1
 66
     1
  0
VERTEX
  8
LAYER_1
 10
-149.3715
 20
-60.114
  0
VERTEX
  8
LAYER_1
 10
-150.2539
 20
-59.3932
  0
VERTEX
  8
LAYER_1
 10
-151.2323
 20
-58.8784
  0
VERTEX
  8
LAYER_1
 10
-152.2746
 20
-58.5694
  0
VERTEX
  8
LAYER_1
 10
-153.349
 20
-58.4665
  0
VERTEX
  8
LAYER_1
 10
-154.4233
 20
-58.5694
  0
VERTEX
  8
LAYER_1
 10
-155.4656
 20
-58.8784
  0
VERTEX
  8
LAYER_1
 10
-156.444
 20
-59.3932
  0
VERTEX
  8
LAYER_1
 10
-157.3264
 20
-60.114
  0
SEQEND
  8
LAYER_1
  0
POLYLINE
  8
LAYER_1
 66
     1
  0
VERTEX
  8
LAYER_1
 10
-157.3264
 20
-60.114
  0
VERTEX
  8
LAYER_1
 10
-158.0472
 20
-60.9964
  0
VERTEX
  8
LAYER_1
 10
-158.562
 20
-61.9748
  0
VERTEX
  8
LAYER_1
 10
-158.871
 20
-63.0171
  0
VERTEX
  8
LAYER_1
 10
-158.9739
 20
-64.0915
  0
VERTEX
  8
LAYER_1
 10
-158.871
 20
-65.1658
  0
VERTEX
  8
LAYER_1
 10
-158.562
 20
-66.2081
  0
VERTEX
  8
LAYER_1
 10
-158.0472
 20
-67.1865
  0
VERTEX
  8
LAYER_1
 10
-157.3264
 20
-68.0689
  0
SEQEND
  8
LAYER_1
  0
POLYLINE
  8
LAYER_1
 66
     1
  0
VERTEX
  8
LAYER_1
 10
-157.3264
 20
-68.069
  0
VERTEX
  8
LAYER_1
 10
-156.444
 20
-68.7898
  0
VERTEX
  8
LAYER_1
 10
-155.4656
 20
-69.3046
  0
VERTEX
  8
LAYER_1
 10
-154.4233
 20
-69.6136
  0
VERTEX
  8
LAYER_1
 10
-153.349
 20
-69.7165
  0
VERTEX
  8
LAYER_1
 10
-152.2746
 20
-69.6136
  0
VERTEX
  8
LAYER_1
 10
-151.2323
 20
-69.3046
  0
VERTEX
  8
LAYER_1
 10
-150.2539
 20
-68.7898
  0
VERTEX
  8
LAYER_1
 10
-149.3715
 20
-68.069
  0
SEQEND
  8
LAYER_1
  0
POLYLINE
  8
LAYER_1
 66
     1
  0
VERTEX
  8
LAYER_1
 10
-101.6418
 20
-20.3393
  0
VERTEX
  8
LAYER_1
 10
-100.921
 20
-19.4569
  0
VERTEX
  8
LAYER_1
 10
-100.4062
 20
-18.4785
  0
VERTEX
  8
LAYER_1
 10
-100.0972
 20
-17.4361
  0
VERTEX
  8
LAYER_1
 10
-99.9943
 20
-16.3618
  0
VERTEX
  8
LAYER_1
 10
-100.0972
 20
-15.2875
  0
VERTEX
  8
LAYER_1
 10
-100.4062
 20
-14.2451
  0
VERTEX
  8
LAYER_1
 10
-100.921
 20
-13.2667
  0
VERTEX
  8
LAYER_1
 10
-101.6418
 20
-12.3843
  0
SEQEND
  8
LAYER_1
  0
POLYLINE
  8
LAYER_1
 66
     1
  0
VERTEX
  8
LAYER_1
 10
-101.6418
 20
-12.3843
  0
VERTEX
  8
LAYER_1
 10
-102.5242
 20
-11.6635
  0
VERTEX
  8
LAYER_1
 10
-103.5026
 20
-11.1487
  0
VERTEX
  8
LAYER_1
 10
-104.545
 20
-10.8397
  0
VERTEX
  8
LAYER_1
 10
-105.6193
 20
-10.7368
  0
VERTEX
  8
LAYER_1
 10
-106.6936
 20
-10.8397
  0
VERTEX
  8
LAYER_1
 10
-107.736
 20
-11.1487
  0
VERTEX
  8
LAYER_1
 10
-108.7144
 20
-11.6635
  0
VERTEX
  8
LAYER_1
 10
-109.5968
 20
-12.3843
  0
SEQEND
  8
LAYER_1
  0
POLYLINE
  8
LAYER_1
 66
     1
  0
VERTEX
  8
LAYER_1
 10
-109.5967
 20
-12.3843
  0
VERTEX
  8
LAYER_1
 10
-110.3175
 20
-13.2667
  0
VERTEX
  8
LAYER_1
 10
-110.8323
 20
-14.2451
  0
VERTEX
  8
LAYER_1
 10
-111.1413
 20
-15.2875
  0
VERTEX
  8
LAYER_1
 10
-111.2442
 20
-16.3618
  0
VERTEX
  8
LAYER_1
 10
-111.1413
 20
-17.4361
  0
VERTEX
  8
LAYER_1
 10
-110.8323
 20
-18.4785
  0
VERTEX
  8
LAYER_1
 10
-110.3175
 20
-19.4569
  0
VERTEX
  8
LAYER_1
 10
-109.5967
 20
-20.3393
  0
SEQEND
  8
LAYER_1
  0
POLYLINE
  8
LAYER_1
 66
     1
  0
VERTEX
  8
LAYER_1
 10
-109.5967
 20
-20.3393
  0
VERTEX
  8
LAYER_1
 10
-108.7143
 20
-21.0601
  0
VERTEX
  8
LAYER_1
 10
-107.7359
 20
-21.5749
  0
VERTEX
  8
LAYER_1
 10
-106.6935
 20
-21.8839
  0
VERTEX
  8
LAYER_1
 10
-105.6192
 20
-21.9868
  0
VERTEX
  8
LAYER_1
 10
-104.5449
 20
-21.8839
  0
VERTEX
  8
LAYER_1
 10
-103.5025
 20
-21.5749
  0
VERTEX
  8
LAYER_1
 10
-102.5241
 20
-21.0601
  0
VERTEX
  8
LAYER_1
 10
-101.6417
 20
-20.3393
  0
SEQEND
  8
LAYER_1
  0
POLYLINE
  8
LAYER_1
 66
     1
  0
VERTEX
  8
LAYER_1
 10
-157.3264
 20
-20.3393
  0
VERTEX
  8
LAYER_1
 10
-156.444
 20
-21.0601
  0
VERTEX
  8
LAYER_1
 10
-155.4656
 20
-21.5749
  0
VERTEX
  8
LAYER_1
 10
-154.4232
 20
-21.8839
  0
VERTEX
  8
LAYER_1
 10
-153.3489
 20
-21.9868
  0
VERTEX
  8
LAYER_1
 10
-152.2746
 20
-21.8839
  0
VERTEX
  8
LAYER_1
 10
-151.2322
 20
-21.5749
  0
VERTEX
  8
LAYER_1
 10
-150.2538
 20
-21.0601
  0
VERTEX
  8
LAYER_1
 10
-149.3714
 20
-20.3393
  0
SEQEND
  8
LAYER_1
  0
POLYLINE
  8
LAYER_1
 66
     1
  0
VERTEX
  8
LAYER_1
 10
-149.3715
 20
-20.3393
  0
VERTEX
  8
LAYER_1
 10
-148.6507
 20
-19.4569
  0
VERTEX
  8
LAYER_1
 10
-148.1359
 20
-18.4785
  0
VERTEX
  8
LAYER_1
 10
-147.8269
 20
-17.4361
  0
VERTEX
  8
LAYER_1
 10
-147.724
 20
-16.3618
  0
VERTEX
  8
LAYER_1
 10
-147.8269
 20
-15.2875
  0
VERTEX
  8
LAYER_1
 10
-148.1359
 20
-14.2451
  0
VERTEX
  8
LAYER_1
 10
-148.6507
 20
-13.2667
  0
VERTEX
  8
LAYER_1
 10
-149.3715
 20
-12.3843
  0
SEQEND
  8
LAYER_1
  0
POLYLINE
  8
LAYER_1
 66
     1
  0
VERTEX
  8
LAYER_1
 10
-149.3715
 20
-12.3843
  0
VERTEX
  8
LAYER_1
 10
-150.2539
 20
-11.6635
  0
VERTEX
  8
LAYER_1
 10
-151.2323
 20
-11.1487
  0
VERTEX
  8
LAYER_1
 10
-152.2747
 20
-10.8397
  0
VERTEX
  8
LAYER_1
 10
-153.349
 20
-10.7368
  0
VERTEX
  8
LAYER_1
 10
-154.4233
 20
-10.8397
  0
VERTEX
  8
LAYER_1
 10
-155.4657
 20
-11.1487
  0
VERTEX
  8
LAYER_1
 10
-156.4441
 20
-11.6635
  0
VERTEX
  8
LAYER_1
 10
-157.3265
 20
-12.3843
  0
SEQEND
  8
LAYER_1
  0
POLYLINE
  8
LAYER_1
 66
     1
  0
VERTEX
  8
LAYER_1
 10
-157.3264
 20
-12.3843
  0
VERTEX
  8
LAYER_1
 10
-158.0472
 20
-13.2667
  0
VERTEX
  8
LAYER_1
 10
-158.562
 20
-14.2451
  0
VERTEX
  8
LAYER_1
 10
-158.871
 20
-15.2875
  0
VERTEX
  8
LAYER_1
 10
-158.9739
 20
-16.3618
  0
VERTEX
  8
LAYER_1
 10
-158.871
 20
-17.4361
  0
VERTEX
  8
LAYER_1
 10
-158.562
 20
-18.4785
  0
VERTEX
  8
LAYER_1
 10
-158.0472
 20
-19.4569
  0
VERTEX
  8
LAYER_1
 10
-157.3264
 20
-20.3393
  0
SEQEND
  8
LAYER_1
  0
POLYLINE
  8
LAYER_1
 66
     1
  0
VERTEX
  8
LAYER_1
 10
-109.5967
 20
-68.069
  0
VERTEX
  8
LAYER_1
 10
-108.7143
 20
-68.7898
  0
VERTEX
  8
LAYER_1
 10
-107.7359
 20
-69.3046
  0
VERTEX
  8
LAYER_1
 10
-106.6936
 20
-69.6136
  0
VERTEX
  8
LAYER_1
 10
-105.6192
 20
-69.7165
  0
VERTEX
  8
LAYER_1
 10
-104.5449
 20
-69.6136
  0
VERTEX
  8
LAYER_1
 10
-103.5025
 20
-69.3046
  0
VERTEX
  8
LAYER_1
 10
-102.5242
 20
-68.7898
  0
VERTEX
  8
LAYER_1
 10
-101.6418
 20
-68.069
  0
SEQEND
  8
LAYER_1
  0
POLYLINE
  8
LAYER_1
 66
     1
  0
VERTEX
  8
LAYER_1
 10
-101.6418
 20
-68.069
  0
VERTEX
  8
LAYER_1
 10
-100.921
 20
-67.1866
  0
VERTEX
  8
LAYER_1
 10
-100.4062
 20
-66.2082
  0
VERTEX
  8
LAYER_1
 10
-100.0972
 20
-65.1658
  0
VERTEX
  8
LAYER_1
 10
-99.9943
 20
-64.0915
  0
VERTEX
  8
LAYER_1
 10
-100.0972
 20
-63.0172
  0
VERTEX
  8
LAYER_1
 10
-100.4062
 20
-61.9748
  0
VERTEX
  8
LAYER_1
 10
-100.921
 20
-60.9964
  0
VERTEX
  8
LAYER_1
 10
-101.6418
 20
-60.114
  0
SEQEND
  8
LAYER_1
  0
POLYLINE
  8
LAYER_1
 66
     1
  0
VERTEX
  8
LAYER_1
 10
-101.6418
 20
-60.114
  0
VERTEX
  8
LAYER_1
 10
-102.5242
 20
-59.3932
  0
VERTEX
  8
LAYER_1
 10
-103.5026
 20
-58.8784
  0
VERTEX
  8
LAYER_1
 10
-104.5449
 20
-58.5694
  0
VERTEX
  8
LAYER_1
 10
-105.6193
 20
-58.4665
  0
VERTEX
  8
LAYER_1
 10
-106.6936
 20
-58.5694
  0
VERTEX
  8
LAYER_1
 10
-107.7359
 20
-58.8784
  0
VERTEX
  8
LAYER_1
 10
-108.7143
 20
-59.3932
  0
VERTEX
  8
LAYER_1
 10
-109.5967
 20
-60.114
  0
SEQEND
  8
LAYER_1
  0
POLYLINE
  8
LAYER_1
 66
     1
  0
VERTEX
  8
LAYER_1
 10
-109.5967
 20
-60.114
  0
VERTEX
  8
LAYER_1
 10
-110.3175
 20
-60.9964
  0
VERTEX
  8
LAYER_1
 10
-110.8323
 20
-61.9748
  0
VERTEX
  8
LAYER_1
 10
-111.1413
 20
-63.0172
  0
VERTEX
  8
LAYER_1
 10
-111.2442
 20
-64.0915
  0
VERTEX
  8
LAYER_1
 10
-111.1413
 20
-65.1658
  0
VERTEX
  8
LAYER_1
 10
-110.8323
 20
-66.2082
  0
VERTEX
  8
LAYER_1
 10
-110.3175
 20
-67.1866
  0
VERTEX
  8
LAYER_1
 10
-109.5967
 20
-68.069
  0
SEQEND
  8
LAYER_1
  0
POLYLINE
  8
LAYER_1
 66
     1
  0
VERTEX
  8
LAYER_1
 10
-129.4841
 20
1.9609
  0
VERTEX
  8
LAYER_1
 10
-120.9829
 20
1.1037
  0
VERTEX
  8
LAYER_1
 10
-113.0643
 20
-1.3549
  0
VERTEX
  8
LAYER_1
 10
-105.8983
 20
-5.245
  0
VERTEX
  8
LAYER_1
 10
-99.6544
 20
-10.3969
  0
VERTEX
  8
LAYER_1
 10
-94.5025
 20
-16.6408
  0
VERTEX
  8
LAYER_1
 10
-90.6124
 20
-23.8068
  0
VERTEX
  8
LAYER_1
 10
-88.1538
 20
-31.7254
  0
VERTEX
  8
LAYER_1
 10
-87.2966
 20
-40.2266
  0
SEQEND
  8
LAYER_1
  0
POLYLINE
  8
LAYER_1
 66
     1
  0
VERTEX
  8
LAYER_1
 10
-87.2966
 20
-40.2266
  0
VERTEX
  8
LAYER_1
 10
-88.1538
 20
-48.7278
  0
VERTEX
  8
LAYER_1
 10
-90.6124
 20
-56.6464
  0
VERTEX
  8
LAYER_1
 10
-94.5025
 20
-63.8124
  0
VERTEX
  8
LAYER_1
 10
-99.6544
 20
-70.0563
  0
VERTEX
  8
LAYER_1
 10
-105.8983
 20
-75.2082
  0
VERTEX
  8
LAYER_1
 10
-113.0643
 20
-79.0983
  0
VERTEX
  8
LAYER_1
 10
-120.9829
 20
-81.5569
  0
VERTEX
  8
LAYER_1
 10
-129.4841
 20
-82.4141
  0
SEQEND
  8
LAYER_1
  0
POLYLINE
  8
LAYER_1
 66
     1
  0
VERTEX
  8
LAYER_1
 10
-129.4841
 20
-82.4141
  0
VERTEX
  8
LAYER_1
 10
-137.9853
 20
-81.5569
  0
VERTEX
  8
LAYER_1
 10
-145.9039
 20
-79.0983
  0
VERTEX
  8
LAYER_1
 10
-153.0699
 20
-75.2082
  0
VERTEX
  8
LAYER_1
 10
-159.3138
 20
-70.0563
  0
VERTEX
  8
LAYER_1
 10
-164.4657
 20
-63.8124
  0
VERTEX
  8
LAYER_1
 10
-168.3558
 20
-56.6464
  0
VERTEX
  8
LAYER_1
 10
-170.8144
 20
-48.7278
  0
VERTEX
  8
LAYER_1
 10
-171.6716
 20
-40.2266
  0
SEQEND
  8
LAYER_1
  0
POLYLINE
  8
LAYER_1
 66
     1
  0
VERTEX
  8
LAYER_1
 10
-171.6716
 20
-40.2266
  0
VERTEX
  8
LAYER_1
 10
-170.8144
 20
-31.7254
  0
VERTEX
  8
LAYER_1
 10
-168.3558
 20
-23.8068
  0
VERTEX
  8
LAYER_1
 10
-164.4657
 20
-16.6408
  0
VERTEX
  8
LAYER_1
 10
-159.3138
 20
-10.3969
  0
VERTEX
  8
LAYER_1
 10
-153.0699
 20
-5.245
  0
VERTEX
  8
LAYER_1
 10
-145.9039
 20
-1.3549
  0
VERTEX
  8
LAYER_1
 10
-137.9853
 20
1.1037
  0
VERTEX
  8
LAYER_1
 10
-129.4841
 20
1.9609
  0
SEQEND
  8
LAYER_1
  0
POLYLINE
  8
LAYER_1
 66
     1
  0
VERTEX
  8
LAYER_1
 10
-130.4781
 20
-39.2327
  0
VERTEX
  8
LAYER_1
 10
-130.2576
 20
-39.0526
  0
VERTEX
  8
LAYER_1
 10
-130.0131
 20
-38.9239
  0
VERTEX
  8
LAYER_1
 10
-129.7526
 20
-38.8468
  0
VERTEX
  8
LAYER_1
 10
-129.4841
 20
-38.821
  0
VERTEX
  8
LAYER_1
 10
-129.2156
 20
-38.8468
  0
VERTEX
  8
LAYER_1
 10
-128.9551
 20
-38.9239
  0
VERTEX
  8
LAYER_1
 10
-128.7107
 20
-39.0526
  0
VERTEX
  8
LAYER_1
 10
-128.4902
 20
-39.2327
  0
SEQEND
  8
LAYER_1
  0
POLYLINE
  8
LAYER_1
 66
     1
  0
VERTEX
  8
LAYER_1
 10
-128.4901
 20
-39.2327
  0
VERTEX
  8
LAYER_1
 10
-128.31
 20
-39.4532
  0
VERTEX
  8
LAYER_1
 10
-128.1813
 20
-39.6977
  0
VERTEX
  8
LAYER_1
 10
-128.1042
 20
-39.9582
  0
VERTEX
  8
LAYER_1
 10
-128.0784
 20
-40.2267
  0
VERTEX
  8
LAYER_1
 10
-128.1042
 20
-40.4952
  0
VERTEX
  8
LAYER_1
 10
-128.1813
 20
-40.7557
  0
VERTEX
  8
LAYER_1
 10
-128.31
 20
-41.0001
  0
VERTEX
  8
LAYER_1
 10
-128.4901
 20
-41.2206
  0
SEQEND
  8
LAYER_1
  0
POLYLINE
  8
LAYER_1
 66
     1
  0
VERTEX
  8
LAYER_1
 10
-128.4901
 20
-41.2206
  0
VERTEX
  8
LAYER_1
 10
-128.7106
 20
-41.4007
  0
VERTEX
  8
LAYER_1
 10
-128.9551
 20
-41.5294
  0
VERTEX
  8
LAYER_1
 10
-129.2156
 20
-41.6065
  0
VERTEX
  8
LAYER_1
 10
-129.4841
 20
-41.6323
  0
VERTEX
  8
LAYER_1
 10
-129.7526
 20
-41.6065
  0
VERTEX
  8
LAYER_1
 10
-130.0131
 20
-41.5294
  0
VERTEX
  8
LAYER_1
 10
-130.2575
 20
-41.4007
  0
VERTEX
  8
LAYER_1
 10
-130.478
 20
-41.2206
  0
SEQEND
  8
LAYER_1
  0
POLYLINE
  8
LAYER_1
 66
     1
  0
VERTEX
  8
LAYER_1
 10
-130.4781
 20
-41.2206
  0
VERTEX
  8
LAYER_1
 10
-130.6582
 20
-41.0001
  0
VERTEX
  8
LAYER_1
 10
-130.7869
 20
-40.7556
  0
VERTEX
  8
LAYER_1
 10
-130.864
 20
-40.4951
  0
VERTEX
  8
LAYER_1
 10
-130.8898
 20
-40.2266
  0
VERTEX
  8
LAYER_1
 10
-130.864
 20
-39.9581
  0
VERTEX
  8
LAYER_1
 10
-130.7869
 20
-39.6976
  0
VERTEX
  8
LAYER_1
 10
-130.6582
 20
-39.4532
  0
VERTEX
  8
LAYER_1
 10
-130.4781
 20
-39.2327
  0
SEQEND
  8
LAYER_1
  0
POLYLINE
  8
LAYER_1
 66
     1
 70
     1
  0
VERTEX
  8
LAYER_1
 10
-133.4194
 20
136.4895
  0
VERTEX
  8
LAYER_1
 10
-132.4094
 20
136.4379
  0
VERTEX
  8
LAYER_1
 10
-131.4097
 20
136.286
  0
VERTEX
  8
LAYER_1
 10
-130.4291
 20
136.0375
  0
VERTEX
  8
LAYER_1
 10
-129.4767
 20
135.6959
  0
VERTEX
  8
LAYER_1
 10
-128.5613
 20
135.265
  0
VERTEX
  8
LAYER_1
 10
-127.6919
 20
134.7482
  0
VERTEX
  8
LAYER_1
 10
-126.8774
 20
134.1492
  0
VERTEX
  8
LAYER_1
 10
-126.1268
 20
133.4716
  0
VERTEX
  8
LAYER_1
 10
-125.4492
 20
132.721
  0
VERTEX
  8
LAYER_1
 10
-124.8502
 20
131.9065
  0
VERTEX
  8
LAYER_1
 10
-124.3334
 20
131.0372
  0
VERTEX
  8
LAYER_1
 10
-123.9025
 20
130.1218
  0
VERTEX
  8
LAYER_1
 10
-123.5609
 20
129.1693
  0
VERTEX
  8
LAYER_1
 10
-123.3124
 20
128.1888
  0
VERTEX
  8
LAYER_1
 10
-123.1605
 20
127.189
  0
VERTEX
  8
LAYER_1
 10
-123.1089
 20
126.179
  0
VERTEX
  8
LAYER_1
 10
-123.1089
 20
94.6522
  0
VERTEX
  8
LAYER_1
 10
-123.1089
 20
77.1566
  0
VERTEX
  8
LAYER_1
 10
-122.7705
 20
74.3371
  0
VERTEX
  8
LAYER_1
 10
-121.8419
 20
71.4767
  0
VERTEX
  8
LAYER_1
 10
-120.4531
 20
68.7151
  0
VERTEX
  8
LAYER_1
 10
-118.7339
 20
66.1918
  0
VERTEX
  8
LAYER_1
 10
-116.8144
 20
64.0464
  0
VERTEX
  8
LAYER_1
 10
-114.8245
 20
62.4185
  0
VERTEX
  8
LAYER_1
 10
-112.894
 20
61.4476
  0
VERTEX
  8
LAYER_1
 10
-111.153
 20
61.2733
  0
VERTEX
  8
LAYER_1
 10
-108.2088
 20
61.524
  0
VERTEX
  8
LAYER_1
 10
-105.7344
 20
61.1312
  0
VERTEX
  8
LAYER_1
 10
-103.706
 20
60.144
  0
VERTEX
  8
LAYER_1
 10
-102.0997
 20
58.6119
  0
VERTEX
  8
LAYER_1
 10
-100.8918
 20
56.5841
  0
VERTEX
  8
LAYER_1
 10
-100.0585
 20
54.1099
  0
VERTEX
  8
LAYER_1
 10
-99.576
 20
51.2385
  0
VERTEX
  8
LAYER_1
 10
-99.4204
 20
48.0193
  0
VERTEX
  8
LAYER_1
 10
-103.1742
 20
48.0193
  0
VERTEX
  8
LAYER_1
 10
-103.1742
 20
45.0262
  0
VERTEX
  8
LAYER_1
 10
-121.4718
 20
45.0262
  0
VERTEX
  8
LAYER_1
 10
-121.4718
 20
48.0193
  0
VERTEX
  8
LAYER_1
 10
-147.4836
 20
48.0193
  0
VERTEX
  8
LAYER_1
 10
-147.4836
 20
45.0262
  0
VERTEX
  8
LAYER_1
 10
-161.5479
 20
45.0262
  0
VERTEX
  8
LAYER_1
 10
-161.5479
 20
48.0193
  0
VERTEX
  8
LAYER_1
 10
-172.71
 20
48.0193
  0
VERTEX
  8
LAYER_1
 10
-173.363
 20
52.284
  0
VERTEX
  8
LAYER_1
 10
-175.0845
 20
55.1256
  0
VERTEX
  8
LAYER_1
 10
-177.5184
 20
57.0286
  0
VERTEX
  8
LAYER_1
 10
-180.3085
 20
58.4777
  0
VERTEX
  8
LAYER_1
 10
-183.0986
 20
59.9574
  0
VERTEX
  8
LAYER_1
 10
-185.5325
 20
61.9523
  0
VERTEX
  8
LAYER_1
 10
-187.254
 20
64.9468
  0
VERTEX
  8
LAYER_1
 10
-187.907
 20
69.4257
  0
VERTEX
  8
LAYER_1
 10
-187.2388
 20
73.3901
  0
VERTEX
  8
LAYER_1
 10
-185.4862
 20
76.2563
  0
VERTEX
  8
LAYER_1
 10
-183.0274
 20
78.2615
  0
VERTEX
  8
LAYER_1
 10
-180.2408
 20
79.6431
  0
VERTEX
  8
LAYER_1
 10
-177.5045
 20
80.6385
  0
VERTEX
  8
LAYER_1
 10
-175.1968
 20
81.4849
  0
VERTEX
  8
LAYER_1
 10
-173.6957
 20
82.4196
  0
VERTEX
  8
LAYER_1
 10
-173.3797
 20
83.6801
  0
VERTEX
  8
LAYER_1
 10
-173.8578
 20
85.5723
  0
VERTEX
  8
LAYER_1
 10
-174.256
 20
87.3556
  0
VERTEX
  8
LAYER_1
 10
-174.5795
 20
89.0102
  0
VERTEX
  8
LAYER_1
 10
-174.8333
 20
90.516
  0
VERTEX
  8
LAYER_1
 10
-175.0228
 20
91.8531
  0
VERTEX
  8
LAYER_1
 10
-175.153
 20
93.0014
  0
VERTEX
  8
LAYER_1
 10
-175.2292
 20
93.941
  0
VERTEX
  8
LAYER_1
 10
-175.2566
 20
94.652
  0
VERTEX
  8
LAYER_1
 10
-174.4017
 20
103.0494
  0
VERTEX
  8
LAYER_1
 10
-171.952
 20
110.8866
  0
VERTEX
  8
LAYER_1
 10
-168.08
 20
117.9911
  0
VERTEX
  8
LAYER_1
 10
-162.958
 20
124.1906
  0
VERTEX
  8
LAYER_1
 10
-156.7585
 20
129.3126
  0
VERTEX
  8
LAYER_1
 10
-149.6539
 20
133.1846
  0
VERTEX
  8
LAYER_1
 10
-141.8168
 20
135.6343
  0
VERTEX
  8
LAYER_1
 10
-133.4194
 20
136.4892
  0
VERTEX
  8
LAYER_1
 10
-133.4194
 20
136.4895
  0
SEQEND
  8
LAYER_1
  0
POLYLINE
  8
LAYER_1
 66
     1
 70
     1
  0
VERTEX
  8
LAYER_1
 10
-133.4194
 20
133.4137
  0
VERTEX
  8
LAYER_1
 10
-135.0251
 20
133.2521
  0
VERTEX
  8
LAYER_1
 10
-136.5202
 20
132.7885
  0
VERTEX
  8
LAYER_1
 10
-137.8728
 20
132.0548
  0
VERTEX
  8
LAYER_1
 10
-139.0509
 20
131.0829
  0
VERTEX
  8
LAYER_1
 10
-140.0228
 20
129.9048
  0
VERTEX
  8
LAYER_1
 10
-140.7565
 20
128.5522
  0
VERTEX
  8
LAYER_1
 10
-141.2201
 20
127.0571
  0
VERTEX
  8
LAYER_1
 10
-141.3817
 20
125.4514
  0
VERTEX
  8
LAYER_1
 10
-141.3269
 20
124.5105
  0
VERTEX
  8
LAYER_1
 10
-141.1664
 20
123.6017
  0
VERTEX
  8
LAYER_1
 10
-140.9065
 20
122.7314
  0
VERTEX
  8
LAYER_1
 10
-140.5534
 20
121.9058
  0
VERTEX
  8
LAYER_1
 10
-140.113
 20
121.1311
  0
VERTEX
  8
LAYER_1
 10
-139.5917
 20
120.4137
  0
VERTEX
  8
LAYER_1
 10
-138.9956
 20
119.7598
  0
VERTEX
  8
LAYER_1
 10
-138.3307
 20
119.1758
  0
VERTEX
  8
LAYER_1
 10
-141.3817
 20
119.1758
  0
VERTEX
  8
LAYER_1
 10
-141.3817
 20
116.3563
  0
VERTEX
  8
LAYER_1
 10
-125.4488
 20
116.3563
  0
VERTEX
  8
LAYER_1
 10
-125.4488
 20
119.1758
  0
VERTEX
  8
LAYER_1
 10
-128.508
 20
119.1758
  0
VERTEX
  8
LAYER_1
 10
-127.8424
 20
119.7598
  0
VERTEX
  8
LAYER_1
 10
-127.2451
 20
120.4135
  0
VERTEX
  8
LAYER_1
 10
-126.7224
 20
121.1308
  0
VERTEX
  8
LAYER_1
 10
-126.2807
 20
121.9053
  0
VERTEX
  8
LAYER_1
 10
-125.9262
 20
122.7309
  0
VERTEX
  8
LAYER_1
 10
-125.6652
 20
123.6012
  0
VERTEX
  8
LAYER_1
 10
-125.5039
 20
124.5101
  0
VERTEX
  8
LAYER_1
 10
-125.4488
 20
125.4514
  0
VERTEX
  8
LAYER_1
 10
-125.6108
 20
127.0571
  0
VERTEX
  8
LAYER_1
 10
-126.0753
 20
128.5522
  0
VERTEX
  8
LAYER_1
 10
-126.8103
 20
129.9048
  0
VERTEX
  8
LAYER_1
 10
-127.7837
 20
131.0829
  0
VERTEX
  8
LAYER_1
 10
-128.9634
 20
132.0548
  0
VERTEX
  8
LAYER_1
 10
-130.3173
 20
132.7885
  0
VERTEX
  8
LAYER_1
 10
-131.8133
 20
133.2521
  0
VERTEX
  8
LAYER_1
 10
-133.4194
 20
133.4137
  0
SEQEND
  8
LAYER_1
  0
POLYLINE
  8
LAYER_1
 66
     1
 70
     1
  0
VERTEX
  8
LAYER_1
 10
-149.4185
 20
124.1781
  0
VERTEX
  8
LAYER_1
 10
-149.724
 20
124.1508
  0
VERTEX
  8
LAYER_1
 10
-150.0237
 20
124.0846
  0
VERTEX
  8
LAYER_1
 10
-150.1697
 20
124.0372
  0
VERTEX
  8
LAYER_1
 10
-150.3123
 20
123.9804
  0
VERTEX
  8
LAYER_1
 10
-150.4507
 20
123.9143
  0
VERTEX
  8
LAYER_1
 10
-150.5843
 20
123.8391
  0
VERTEX
  8
LAYER_1
 10
-156.1083
 20
119.782
  0
VERTEX
  8
LAYER_1
 10
-160.5791
 20
114.851
  0
VERTEX
  8
LAYER_1
 10
-163.948
 20
109.2342
  0
VERTEX
  8
LAYER_1
 10
-166.1666
 20
103.1196
  0
VERTEX
  8
LAYER_1
 10
-167.1861
 20
96.6954
  0
VERTEX
  8
LAYER_1
 10
-166.9581
 20
90.1497
  0
VERTEX
  8
LAYER_1
 10
-165.4339
 20
83.6706
  0
VERTEX
  8
LAYER_1
 10
-162.565
 20
77.4461
  0
VERTEX
  8
LAYER_1
 10
-161.4109
 20
75.624
  0
VERTEX
  8
LAYER_1
 10
-160.147
 20
73.8844
  0
VERTEX
  8
LAYER_1
 10
-158.7779
 20
72.2318
  0
VERTEX
  8
LAYER_1
 10
-157.3084
 20
70.6707
  0
VERTEX
  8
LAYER_1
 10
-155.7429
 20
69.2057
  0
VERTEX
  8
LAYER_1
 10
-154.0863
 20
67.8414
  0
VERTEX
  8
LAYER_1
 10
-152.3432
 20
66.5821
  0
VERTEX
  8
LAYER_1
 10
-150.5182
 20
65.4324
  0
VERTEX
  8
LAYER_1
 10
-150.3134
 20
65.3155
  0
VERTEX
  8
LAYER_1
 10
-150.0978
 20
65.2203
  0
VERTEX
  8
LAYER_1
 10
-149.8739
 20
65.1473
  0
VERTEX
  8
LAYER_1
 10
-149.6438
 20
65.0967
  0
VERTEX
  8
LAYER_1
 10
-149.4098
 20
65.069
  0
VERTEX
  8
LAYER_1
 10
-149.1743
 20
65.0645
  0
VERTEX
  8
LAYER_1
 10
-148.9394
 20
65.0835
  0
VERTEX
  8
LAYER_1
 10
-148.7075
 20
65.1265
  0
VERTEX
  8
LAYER_1
 10
-148.4811
 20
65.1933
  0
VERTEX
  8
LAYER_1
 10
-148.2626
 20
65.2825
  0
VERTEX
  8
LAYER_1
 10
-148.0539
 20
65.393
  0
VERTEX
  8
LAYER_1
 10
-147.8571
 20
65.5234
  0
VERTEX
  8
LAYER_1
 10
-147.674
 20
65.6724
  0
VERTEX
  8
LAYER_1
 10
-147.5068
 20
65.8387
  0
VERTEX
  8
LAYER_1
 10
-147.3573
 20
66.0209
  0
VERTEX
  8
LAYER_1
 10
-147.2275
 20
66.2179
  0
VERTEX
  8
LAYER_1
 10
-147.1192
 20
66.4277
  0
VERTEX
  8
LAYER_1
 10
-147.0329
 20
66.6476
  0
VERTEX
  8
LAYER_1
 10
-146.9691
 20
66.8752
  0
VERTEX
  8
LAYER_1
 10
-146.9279
 20
67.1082
  0
VERTEX
  8
LAYER_1
 10
-146.9097
 20
67.3441
  0
VERTEX
  8
LAYER_1
 10
-146.9148
 20
67.5805
  0
VERTEX
  8
LAYER_1
 10
-146.9434
 20
67.815
  0
VERTEX
  8
LAYER_1
 10
-146.996
 20
68.0452
  0
VERTEX
  8
LAYER_1
 10
-147.0724
 20
68.2685
  0
VERTEX
  8
LAYER_1
 10
-147.1713
 20
68.4828
  0
VERTEX
  8
LAYER_1
 10
-147.2913
 20
68.6862
  0
VERTEX
  8
LAYER_1
 10
-147.4307
 20
68.877
  0
VERTEX
  8
LAYER_1
 10
-147.5882
 20
69.0531
  0
VERTEX
  8
LAYER_1
 10
-147.7622
 20
69.2128
  0
VERTEX
  8
LAYER_1
 10
-147.9512
 20
69.3543
  0
VERTEX
  8
LAYER_1
 10
-148.1536
 20
69.4756
  0
VERTEX
  8
LAYER_1
 10
-149.7259
 20
70.4662
  0
VERTEX
  8
LAYER_1
 10
-151.2275
 20
71.5513
  0
VERTEX
  8
LAYER_1
 10
-152.6544
 20
72.727
  0
VERTEX
  8
LAYER_1
 10
-154.0026
 20
73.9893
  0
VERTEX
  8
LAYER_1
 10
-155.2682
 20
75.3344
  0
VERTEX
  8
LAYER_1
 10
-156.4473
 20
76.7584
  0
VERTEX
  8
LAYER_1
 10
-157.5359
 20
78.2574
  0
VERTEX
  8
LAYER_1
 10
-158.5302
 20
79.8274
  0
VERTEX
  8
LAYER_1
 10
-161.0113
 20
85.2017
  0
VERTEX
  8
LAYER_1
 10
-162.332
 20
90.7862
  0
VERTEX
  8
LAYER_1
 10
-162.5338
 20
96.4216
  0
VERTEX
  8
LAYER_1
 10
-161.6578
 20
101.9487
  0
VERTEX
  8
LAYER_1
 10
-159.7455
 20
107.2081
  0
VERTEX
  8
LAYER_1
 10
-156.838
 20
112.0406
  0
VERTEX
  8
LAYER_1
 10
-152.9768
 20
116.2869
  0
VERTEX
  8
LAYER_1
 10
-148.2032
 20
119.7878
  0
VERTEX
  8
LAYER_1
 10
-147.8934
 20
120.0011
  0
VERTEX
  8
LAYER_1
 10
-147.6245
 20
120.2634
  0
VERTEX
  8
LAYER_1
 10
-147.4003
 20
120.566
  0
VERTEX
  8
LAYER_1
 10
-147.2245
 20
120.9
  0
VERTEX
  8
LAYER_1
 10
-147.1007
 20
121.2567
  0
VERTEX
  8
LAYER_1
 10
-147.0327
 20
121.6275
  0
VERTEX
  8
LAYER_1
 10
-147.0241
 20
122.0034
  0
VERTEX
  8
LAYER_1
 10
-147.0787
 20
122.3758
  0
VERTEX
  8
LAYER_1
 10
-147.1974
 20
122.7324
  0
VERTEX
  8
LAYER_1
 10
-147.3739
 20
123.0631
  0
VERTEX
  8
LAYER_1
 10
-147.6011
 20
123.3618
  0
VERTEX
  8
LAYER_1
 10
-147.8717
 20
123.6227
  0
VERTEX
  8
LAYER_1
 10
-148.1786
 20
123.8398
  0
VERTEX
  8
LAYER_1
 10
-148.5146
 20
124.0074
  0
VERTEX
  8
LAYER_1
 10
-148.8724
 20
124.1194
  0
VERTEX
  8
LAYER_1
 10
-149.245
 20
124.17
  0
VERTEX
  8
LAYER_1
 10
-149.4186
 20
124.1783
  0
VERTEX
  8
LAYER_1
 10
-149.4185
 20
124.1781
  0
SEQEND
  8
LAYER_1
  0
POLYLINE
  8
LAYER_1
 66
     1
 70
     1
  0
VERTEX
  8
LAYER_1
 10
-143.7299
 20
113.2475
  0
VERTEX
  8
LAYER_1
 10
-146.0756
 20
111.7497
  0
VERTEX
  8
LAYER_1
 10
-148.1921
 20
109.9646
  0
VERTEX
  8
LAYER_1
 10
-150.0536
 20
107.9177
  0
VERTEX
  8
LAYER_1
 10
-151.6345
 20
105.6347
  0
VERTEX
  8
LAYER_1
 10
-152.9089
 20
103.141
  0
VERTEX
  8
LAYER_1
 10
-153.851
 20
100.4623
  0
VERTEX
  8
LAYER_1
 10
-154.4352
 20
97.6242
  0
VERTEX
  8
LAYER_1
 10
-154.6357
 20
94.6523
  0
VERTEX
  8
LAYER_1
 10
-154.4352
 20
91.68
  0
VERTEX
  8
LAYER_1
 10
-153.851
 20
88.841
  0
VERTEX
  8
LAYER_1
 10
-152.9089
 20
86.161
  0
VERTEX
  8
LAYER_1
 10
-151.6345
 20
83.6658
  0
VERTEX
  8
LAYER_1
 10
-150.0536
 20
81.3812
  0
VERTEX
  8
LAYER_1
 10
-148.1921
 20
79.333
  0
VERTEX
  8
LAYER_1
 10
-146.0756
 20
77.5469
  0
VERTEX
  8
LAYER_1
 10
-143.7299
 20
76.0488
  0
VERTEX
  8
LAYER_1
 10
-143.7299
 20
94.6523
  0
VERTEX
  8
LAYER_1
 10
-143.7299
 20
113.2475
  0
SEQEND
  8
LAYER_1
  0
POLYLINE
  8
LAYER_1
 66
     1
 70
     1
  0
VERTEX
  8
LAYER_1
 10
-133.2706
 20
96.0578
  0
VERTEX
  8
LAYER_1
 10
-133.4194
 20
96.0578
  0
VERTEX
  8
LAYER_1
 10
-133.7027
 20
96.0292
  0
VERTEX
  8
LAYER_1
 10
-133.9665
 20
95.9473
  0
VERTEX
  8
LAYER_1
 10
-134.2052
 20
95.8177
  0
VERTEX
  8
LAYER_1
 10
-134.4133
 20
95.6461
  0
VERTEX
  8
LAYER_1
 10
-134.5849
 20
95.438
  0
VERTEX
  8
LAYER_1
 10
-134.7145
 20
95.1993
  0
VERTEX
  8
LAYER_1
 10
-134.7964
 20
94.9355
  0
VERTEX
  8
LAYER_1
 10
-134.825
 20
94.6522
  0
VERTEX
  8
LAYER_1
 10
-134.7964
 20
94.3689
  0
VERTEX
  8
LAYER_1
 10
-134.7145
 20
94.1051
  0
VERTEX
  8
LAYER_1
 10
-134.5849
 20
93.8664
  0
VERTEX
  8
LAYER_1
 10
-134.4133
 20
93.6583
  0
VERTEX
  8
LAYER_1
 10
-134.2052
 20
93.4867
  0
VERTEX
  8
LAYER_1
 10
-133.9665
 20
93.3571
  0
VERTEX
  8
LAYER_1
 10
-133.7027
 20
93.2752
  0
VERTEX
  8
LAYER_1
 10
-133.4194
 20
93.2466
  0
VERTEX
  8
LAYER_1
 10
-133.1361
 20
93.2752
  0
VERTEX
  8
LAYER_1
 10
-132.8723
 20
93.3571
  0
VERTEX
  8
LAYER_1
 10
-132.6336
 20
93.4867
  0
VERTEX
  8
LAYER_1
 10
-132.4255
 20
93.6583
  0
VERTEX
  8
LAYER_1
 10
-132.2539
 20
93.8664
  0
VERTEX
  8
LAYER_1
 10
-132.1243
 20
94.1051
  0
VERTEX
  8
LAYER_1
 10
-132.0424
 20
94.3689
  0
VERTEX
  8
LAYER_1
 10
-132.0138
 20
94.6522
  0
VERTEX
  8
LAYER_1
 10
-132.0387
 20
94.9186
  0
VERTEX
  8
LAYER_1
 10
-132.1105
 20
95.1687
  0
VERTEX
  8
LAYER_1
 10
-132.2246
 20
95.3977
  0
VERTEX
  8
LAYER_1
 10
-132.3764
 20
95.6009
  0
VERTEX
  8
LAYER_1
 10
-132.5615
 20
95.7733
  0
VERTEX
  8
LAYER_1
 10
-132.7752
 20
95.9101
  0
VERTEX
  8
LAYER_1
 10
-133.0131
 20
96.0066
  0
VERTEX
  8
LAYER_1
 10
-133.2706
 20
96.0578
  0
SEQEND
  8
LAYER_1
  0
POLYLINE
  8
LAYER_1
 66
     1
 70
     1
  0
VERTEX
  8
LAYER_1
 10
-140.9162
 20
58.4374
  0
VERTEX
  8
LAYER_1
 10
-140.9162
 20
55.6179
  0
VERTEX
  8
LAYER_1
 10
-125.9143
 20
55.6179
  0
VERTEX
  8
LAYER_1
 10
-125.9143
 20
58.4374
  0
VERTEX
  8
LAYER_1
 10
-126.9702
 20
58.4374
  0
VERTEX
  8
LAYER_1
 10
-126.6299
 20
58.9443
  0
VERTEX
  8
LAYER_1
 10
-126.3285
 20
59.4772
  0
VERTEX
  8
LAYER_1
 10
-126.068
 20
60.0343
  0
VERTEX
  8
LAYER_1
 10
-125.8504
 20
60.6137
  0
VERTEX
  8
LAYER_1
 10
-125.6777
 20
61.2136
  0
VERTEX
  8
LAYER_1
 10
-125.5518
 20
61.8321
  0
VERTEX
  8
LAYER_1
 10
-125.4749
 20
62.4672
  0
VERTEX
  8
LAYER_1
 10
-125.4488
 20
63.1172
  0
VERTEX
  8
LAYER_1
 10
-125.6108
 20
64.7233
  0
VERTEX
  8
LAYER_1
 10
-126.0753
 20
66.2193
  0
VERTEX
  8
LAYER_1
 10
-126.8103
 20
67.5732
  0
VERTEX
  8
LAYER_1
 10
-127.7837
 20
68.7529
  0
VERTEX
  8
LAYER_1
 10
-128.9634
 20
69.7263
  0
VERTEX
  8
LAYER_1
 10
-130.3173
 20
70.4613
  0
VERTEX
  8
LAYER_1
 10
-131.8133
 20
70.9258
  0
VERTEX
  8
LAYER_1
 10
-133.4194
 20
71.0878
  0
VERTEX
  8
LAYER_1
 10
-135.0251
 20
70.9258
  0
VERTEX
  8
LAYER_1
 10
-136.5202
 20
70.4613
  0
VERTEX
  8
LAYER_1
 10
-137.8728
 20
69.7263
  0
VERTEX
  8
LAYER_1
 10
-139.0509
 20
68.7529
  0
VERTEX
  8
LAYER_1
 10
-140.0228
 20
67.5732
  0
VERTEX
  8
LAYER_1
 10
-140.7565
 20
66.2193
  0
VERTEX
  8
LAYER_1
 10
-141.2201
 20
64.7233
  0
VERTEX
  8
LAYER_1
 10
-141.3817
 20
63.1172
  0
VERTEX
  8
LAYER_1
 10
-141.3556
 20
62.4671
  0
VERTEX
  8
LAYER_1
 10
-141.2787
 20
61.8319
  0
VERTEX
  8
LAYER_1
 10
-141.153
 20
61.2134
  0
VERTEX
  8
LAYER_1
 10
-140.9803
 20
60.6136
  0
VERTEX
  8
LAYER_1
 10
-140.7628
 20
60.0342
  0
VERTEX
  8
LAYER_1
 10
-140.5023
 20
59.4772
  0
VERTEX
  8
LAYER_1
 10
-140.2008
 20
58.9443
  0
VERTEX
  8
LAYER_1
 10
-139.8603
 20
58.4374
  0
VERTEX
  8
LAYER_1
 10
-140.9162
 20
58.4374
  0
SEQEND
  8
LAYER_1
  0
POLYLINE
  8
LAYER_1
 66
     1
 70
     1
  0
VERTEX
  8
LAYER_1
 10
-177.0013
 20
70.4759
  0
VERTEX
  8
LAYER_1
 10
-177.1419
 20
70.4759
  0
VERTEX
  8
LAYER_1
 10
-177.4252
 20
70.4473
  0
VERTEX
  8
LAYER_1
 10
-177.689
 20
70.3654
  0
VERTEX
  8
LAYER_1
 10
-177.9277
 20
70.2358
  0
VERTEX
  8
LAYER_1
 10
-178.1358
 20
70.0642
  0
VERTEX
  8
LAYER_1
 10
-178.3074
 20
69.8561
  0
VERTEX
  8
LAYER_1
 10
-178.437
 20
69.6174
  0
VERTEX
  8
LAYER_1
 10
-178.5189
 20
69.3536
  0
VERTEX
  8
LAYER_1
 10
-178.5475
 20
69.0703
  0
VERTEX
  8
LAYER_1
 10
-178.5189
 20
68.787
  0
VERTEX
  8
LAYER_1
 10
-178.437
 20
68.5232
  0
VERTEX
  8
LAYER_1
 10
-178.3074
 20
68.2845
  0
VERTEX
  8
LAYER_1
 10
-178.1358
 20
68.0764
  0
VERTEX
  8
LAYER_1
 10
-177.9277
 20
67.9048
  0
VERTEX
  8
LAYER_1
 10
-177.689
 20
67.7752
  0
VERTEX
  8
LAYER_1
 10
-177.4252
 20
67.6933
  0
VERTEX
  8
LAYER_1
 10
-177.1419
 20
67.6647
  0
VERTEX
  8
LAYER_1
 10
-176.8586
 20
67.6933
  0
VERTEX
  8
LAYER_1
 10
-176.5948
 20
67.7752
  0
VERTEX
  8
LAYER_1
 10
-176.3561
 20
67.9048
  0
VERTEX
  8
LAYER_1
 10
-176.148
 20
68.0764
  0
VERTEX
  8
LAYER_1
 10
-175.9764
 20
68.2845
  0
VERTEX
  8
LAYER_1
 10
-175.8468
 20
68.5232
  0
VERTEX
  8
LAYER_1
 10
-175.7649
 20
68.787
  0
VERTEX
  8
LAYER_1
 10
-175.7363
 20
69.0703
  0
VERTEX
  8
LAYER_1
 10
-175.7616
 20
69.3367
  0
VERTEX
  8
LAYER_1
 10
-175.8343
 20
69.5868
  0
VERTEX
  8
LAYER_1
 10
-175.9497
 20
69.8158
  0
VERTEX
  8
LAYER_1
 10
-176.103
 20
70.019
  0
VERTEX
  8
LAYER_1
 10
-176.2896
 20
70.1914
  0
VERTEX
  8
LAYER_1
 10
-176.5047
 20
70.3282
  0
VERTEX
  8
LAYER_1
 10
-176.7435
 20
70.4247
  0
VERTEX
  8
LAYER_1
 10
-177.0013
 20
70.4759
  0
SEQEND
  8
LAYER_1
  0
POLYLINE
  8
LAYER_1
 66
     1
 70
     1
  0
VERTEX
  8
LAYER_1
 10
-223.5346
 20
117.1319
  0
VERTEX
  8
LAYER_1
 10
-222.5246
 20
117.0803
  0
VERTEX
  8
LAYER_1
 10
-221.5249
 20
116.9284
  0
VERTEX
  8
LAYER_1
 10
-220.5443
 20
116.6799
  0
VERTEX
  8
LAYER_1
 10
-219.5919
 20
116.3383
  0
VERTEX
  8
LAYER_1
 10
-218.6765
 20
115.9074
  0
VERTEX
  8
LAYER_1
 10
-217.8071
 20
115.3906
  0
VERTEX
  8
LAYER_1
 10
-216.9926
 20
114.7916
  0
VERTEX
  8
LAYER_1
 10
-216.242
 20
114.114
  0
VERTEX
  8
LAYER_1
 10
-215.5644
 20
113.3634
  0
VERTEX
  8
LAYER_1
 10
-214.9654
 20
112.5489
  0
VERTEX
  8
LAYER_1
 10
-214.4486
 20
111.6796
  0
VERTEX
  8
LAYER_1
 10
-214.0177
 20
110.7642
  0
VERTEX
  8
LAYER_1
 10
-213.6761
 20
109.8117
  0
VERTEX
  8
LAYER_1
 10
-213.4276
 20
108.8312
  0
VERTEX
  8
LAYER_1
 10
-213.2757
 20
107.8314
  0
VERTEX
  8
LAYER_1
 10
-213.2241
 20
106.8214
  0
VERTEX
  8
LAYER_1
 10
-213.2241
 20
75.2946
  0
VERTEX
  8
LAYER_1
 10
-213.2241
 20
57.799
  0
VERTEX
  8
LAYER_1
 10
-212.8857
 20
54.9795
  0
VERTEX
  8
LAYER_1
 10
-211.9571
 20
52.1191
  0
VERTEX
  8
LAYER_1
 10
-210.5683
 20
49.3575
  0
VERTEX
  8
LAYER_1
 10
-208.8492
 20
46.8342
  0
VERTEX
  8
LAYER_1
 10
-206.9297
 20
44.6888
  0
VERTEX
  8
LAYER_1
 10
-204.9397
 20
43.0609
  0
VERTEX
  8
LAYER_1
 10
-203.0093
 20
42.09
  0
VERTEX
  8
LAYER_1
 10
-201.2683
 20
41.9157
  0
VERTEX
  8
LAYER_1
 10
-198.3241
 20
42.1664
  0
VERTEX
  8
LAYER_1
 10
-195.8497
 20
41.7736
  0
VERTEX
  8
LAYER_1
 10
-193.8213
 20
40.7864
  0
VERTEX
  8
LAYER_1
 10
-192.215
 20
39.2543
  0
VERTEX
  8
LAYER_1
 10
-191.0071
 20
37.2265
  0
VERTEX
  8
LAYER_1
 10
-190.1738
 20
34.7523
  0
VERTEX
  8
LAYER_1
 10
-189.6913
 20
31.8809
  0
VERTEX
  8
LAYER_1
 10
-189.5357
 20
28.6617
  0
VERTEX
  8
LAYER_1
 10
-193.2895
 20
28.6617
  0
VERTEX
  8
LAYER_1
 10
-193.2895
 20
25.6686
  0
VERTEX
  8
LAYER_1
 10
-211.5871
 20
25.6686
  0
VERTEX
  8
LAYER_1
 10
-211.5871
 20
28.6617
  0
VERTEX
  8
LAYER_1
 10
-237.5989
 20
28.6617
  0
VERTEX
  8
LAYER_1
 10
-237.5989
 20
25.6686
  0
VERTEX
  8
LAYER_1
 10
-251.6632
 20
25.6686
  0
VERTEX
  8
LAYER_1
 10
-251.6632
 20
28.6617
  0
VERTEX
  8
LAYER_1
 10
-262.8253
 20
28.6617
  0
VERTEX
  8
LAYER_1
 10
-263.4783
 20
32.9264
  0
VERTEX
  8
LAYER_1
 10
-265.1998
 20
35.768
  0
VERTEX
  8
LAYER_1
 10
-267.6337
 20
37.671
  0
VERTEX
  8
LAYER_1
 10
-270.4238
 20
39.1201
  0
VERTEX
  8
LAYER_1
 10
-273.2139
 20
40.5998
  0
VERTEX
  8
LAYER_1
 10
-275.6478
 20
42.5947
  0
VERTEX
  8
LAYER_1
 10
-277.3693
 20
45.5892
  0
VERTEX
  8
LAYER_1
 10
-278.0223
 20
50.0681
  0
VERTEX
  8
LAYER_1
 10
-277.354
 20
54.0325
  0
VERTEX
  8
LAYER_1
 10
-275.6014
 20
56.8987
  0
VERTEX
  8
LAYER_1
 10
-273.1427
 20
58.9039
  0
VERTEX
  8
LAYER_1
 10
-270.3561
 20
60.2855
  0
VERTEX
  8
LAYER_1
 10
-267.6198
 20
61.2809
  0
VERTEX
  8
LAYER_1
 10
-265.312
 20
62.1273
  0
VERTEX
  8
LAYER_1
 10
-263.811
 20
63.062
  0
VERTEX
  8
LAYER_1
 10
-263.495
 20
64.3225
  0
VERTEX
  8
LAYER_1
 10
-263.9731
 20
66.2147
  0
VERTEX
  8
LAYER_1
 10
-264.3713
 20
67.998
  0
VERTEX
  8
LAYER_1
 10
-264.6948
 20
69.6526
  0
VERTEX
  8
LAYER_1
 10
-264.9486
 20
71.1584
  0
VERTEX
  8
LAYER_1
 10
-265.1381
 20
72.4955
  0
VERTEX
  8
LAYER_1
 10
-265.2683
 20
73.6438
  0
VERTEX
  8
LAYER_1
 10
-265.3445
 20
74.5834
  0
VERTEX
  8
LAYER_1
 10
-265.3719
 20
75.2944
  0
VERTEX
  8
LAYER_1
 10
-264.517
 20
83.6918
  0
VERTEX
  8
LAYER_1
 10
-262.0673
 20
91.529
  0
VERTEX
  8
LAYER_1
 10
-258.1953
 20
98.6335
  0
VERTEX
  8
LAYER_1
 10
-253.0733
 20
104.833
  0
VERTEX
  8
LAYER_1
 10
-246.8738
 20
109.955
  0
VERTEX
  8
LAYER_1
 10
-239.7692
 20
113.827
  0
VERTEX
  8
LAYER_1
 10
-231.9321
 20
116.2767
  0
VERTEX
  8
LAYER_1
 10
-223.5347
 20
117.1316
  0
VERTEX
  8
LAYER_1
 10
-223.5346
 20
117.1319
  0
SEQEND
  8
LAYER_1
  0
POLYLINE
  8
LAYER_1
 66
     1
 70
     1
  0
VERTEX
  8
LAYER_1
 10
-239.5337
 20
104.8205
  0
VERTEX
  8
LAYER_1
 10
-239.8392
 20
104.7932
  0
VERTEX
  8
LAYER_1
 10
-240.1389
 20
104.727
  0
VERTEX
  8
LAYER_1
 10
-240.2849
 20
104.6796
  0
VERTEX
  8
LAYER_1
 10
-240.4275
 20
104.6228
  0
VERTEX
  8
LAYER_1
 10
-240.5659
 20
104.5567
  0
VERTEX
  8
LAYER_1
 10
-240.6995
 20
104.4815
  0
VERTEX
  8
LAYER_1
 10
-246.2235
 20
100.4244
  0
VERTEX
  8
LAYER_1
 10
-250.6943
 20
95.4934
  0
VERTEX
  8
LAYER_1
 10
-254.0632
 20
89.8766
  0
VERTEX
  8
LAYER_1
 10
-256.2818
 20
83.762
  0
VERTEX
  8
LAYER_1
 10
-257.3013
 20
77.3378
  0
VERTEX
  8
LAYER_1
 10
-257.0733
 20
70.7921
  0
VERTEX
  8
LAYER_1
 10
-255.5491
 20
64.313
  0
VERTEX
  8
LAYER_1
 10
-252.6802
 20
58.0885
  0
VERTEX
  8
LAYER_1
 10
-251.5261
 20
56.2664
  0
VERTEX
  8
LAYER_1
 10
-250.2622
 20
54.5268
  0
VERTEX
  8
LAYER_1
 10
-248.8931
 20
52.8742
  0
VERTEX
  8
LAYER_1
 10
-247.4236
 20
51.3131
  0
VERTEX
  8
LAYER_1
 10
-245.8581
 20
49.8481
  0
VERTEX
  8
LAYER_1
 10
-244.2015
 20
48.4838
  0
VERTEX
  8
LAYER_1
 10
-242.4584
 20
47.2245
  0
VERTEX
  8
LAYER_1
 10
-240.6334
 20
46.0748
  0
VERTEX
  8
LAYER_1
 10
-240.4286
 20
45.9579
  0
VERTEX
  8
LAYER_1
 10
-240.213
 20
45.8627
  0
VERTEX
  8
LAYER_1
 10
-239.9891
 20
45.7897
  0
VERTEX
  8
LAYER_1
 10
-239.759
 20
45.7391
  0
VERTEX
  8
LAYER_1
 10
-239.525
 20
45.7114
  0
VERTEX
  8
LAYER_1
 10
-239.2894
 20
45.7069
  0
VERTEX
  8
LAYER_1
 10
-239.0546
 20
45.7259
  0
VERTEX
  8
LAYER_1
 10
-238.8226
 20
45.7689
  0
VERTEX
  8
LAYER_1
 10
-238.5962
 20
45.8357
  0
VERTEX
  8
LAYER_1
 10
-238.3777
 20
45.9249
  0
VERTEX
  8
LAYER_1
 10
-238.169
 20
46.0354
  0
VERTEX
  8
LAYER_1
 10
-237.9722
 20
46.1658
  0
VERTEX
  8
LAYER_1
 10
-237.7891
 20
46.3148
  0
VERTEX
  8
LAYER_1
 10
-237.6219
 20
46.4811
  0
VERTEX
  8
LAYER_1
 10
-237.4724
 20
46.6633
  0
VERTEX
  8
LAYER_1
 10
-237.3426
 20
46.8603
  0
VERTEX
  8
LAYER_1
 10
-237.2343
 20
47.0701
  0
VERTEX
  8
LAYER_1
 10
-237.148
 20
47.29
  0
VERTEX
  8
LAYER_1
 10
-237.0842
 20
47.5176
  0
VERTEX
  8
LAYER_1
 10
-237.043
 20
47.7506
  0
VERTEX
  8
LAYER_1
 10
-237.0248
 20
47.9865
  0
VERTEX
  8
LAYER_1
 10
-237.0299
 20
48.2229
  0
VERTEX
  8
LAYER_1
 10
-237.0585
 20
48.4574
  0
VERTEX
  8
LAYER_1
 10
-237.1111
 20
48.6876
  0
VERTEX
  8
LAYER_1
 10
-237.1875
 20
48.9109
  0
VERTEX
  8
LAYER_1
 10
-237.2864
 20
49.1252
  0
VERTEX
  8
LAYER_1
 10
-237.4064
 20
49.3286
  0
VERTEX
  8
LAYER_1
 10
-237.5458
 20
49.5194
  0
VERTEX
  8
LAYER_1
 10
-237.7033
 20
49.6955
  0
VERTEX
  8
LAYER_1
 10
-237.8773
 20
49.8552
  0
VERTEX
  8
LAYER_1
 10
-238.0663
 20
49.9967
  0
VERTEX
  8
LAYER_1
 10
-238.2687
 20
50.118
  0
VERTEX
  8
LAYER_1
 10
-239.841
 20
51.1086
  0
VERTEX
  8
LAYER_1
 10
-241.3426
 20
52.1937
  0
VERTEX
  8
LAYER_1
 10
-242.7695
 20
53.3694
  0
VERTEX
  8
LAYER_1
 10
-244.1177
 20
54.6317
  0
VERTEX
  8
LAYER_1
 10
-245.3833
 20
55.9768
  0
VERTEX
  8
LAYER_1
 10
-246.5624
 20
57.4008
  0
VERTEX
  8
LAYER_1
 10
-247.651
 20
58.8998
  0
VERTEX
  8
LAYER_1
 10
-248.6453
 20
60.4698
  0
VERTEX
  8
LAYER_1
 10
-251.1264
 20
65.8441
  0
VERTEX
  8
LAYER_1
 10
-252.4471
 20
71.4286
  0
VERTEX
  8
LAYER_1
 10
-252.6489
 20
77.064
  0
VERTEX
  8
LAYER_1
 10
-251.7729
 20
82.5911
  0
VERTEX
  8
LAYER_1
 10
-249.8606
 20
87.8505
  0
VERTEX
  8
LAYER_1
 10
-246.9531
 20
92.683
  0
VERTEX
  8
LAYER_1
 10
-243.0919
 20
96.9293
  0
VERTEX
  8
LAYER_1
 10
-238.3183
 20
100.4302
  0
VERTEX
  8
LAYER_1
 10
-238.0085
 20
100.6435
  0
VERTEX
  8
LAYER_1
 10
-237.7396
 20
100.9058
  0
VERTEX
  8
LAYER_1
 10
-237.5154
 20
101.2084
  0
VERTEX
  8
LAYER_1
 10
-237.3396
 20
101.5424
  0
VERTEX
  8
LAYER_1
 10
-237.2158
 20
101.8991
  0
VERTEX
  8
LAYER_1
 10
-237.1478
 20
102.2699
  0
VERTEX
  8
LAYER_1
 10
-237.1392
 20
102.6458
  0
VERTEX
  8
LAYER_1
 10
-237.1938
 20
103.0182
  0
VERTEX
  8
LAYER_1
 10
-237.3125
 20
103.3748
  0
VERTEX
  8
LAYER_1
 10
-237.489
 20
103.7055
  0
VERTEX
  8
LAYER_1
 10
-237.7162
 20
104.0042
  0
VERTEX
  8
LAYER_1
 10
-237.9868
 20
104.2651
  0
VERTEX
  8
LAYER_1
 10
-238.2937
 20
104.4822
  0
VERTEX
  8
LAYER_1
 10
-238.6297
 20
104.6498
  0
VERTEX
  8
LAYER_1
 10
-238.9875
 20
104.7618
  0
VERTEX
  8
LAYER_1
 10
-239.3601
 20
104.8124
  0
VERTEX
  8
LAYER_1
 10
-239.5337
 20
104.8207
  0
VERTEX
  8
LAYER_1
 10
-239.5337
 20
104.8205
  0
SEQEND
  8
LAYER_1
  0
POLYLINE
  8
LAYER_1
 66
     1
 70
     1
  0
VERTEX
  8
LAYER_1
 10
-233.8451
 20
93.8899
  0
VERTEX
  8
LAYER_1
 10
-236.1908
 20
92.3921
  0
VERTEX
  8
LAYER_1
 10
-238.3073
 20
90.607
  0
VERTEX
  8
LAYER_1
 10
-240.1688
 20
88.5601
  0
VERTEX
  8
LAYER_1
 10
-241.7497
 20
86.2771
  0
VERTEX
  8
LAYER_1
 10
-243.0241
 20
83.7834
  0
VERTEX
  8
LAYER_1
 10
-243.9662
 20
81.1047
  0
VERTEX
  8
LAYER_1
 10
-244.5504
 20
78.2666
  0
VERTEX
  8
LAYER_1
 10
-244.7509
 20
75.2946
  0
VERTEX
  8
LAYER_1
 10
-244.5504
 20
72.3223
  0
VERTEX
  8
LAYER_1
 10
-243.9662
 20
69.4833
  0
VERTEX
  8
LAYER_1
 10
-243.0241
 20
66.8033
  0
VERTEX
  8
LAYER_1
 10
-241.7497
 20
64.3081
  0
VERTEX
  8
LAYER_1
 10
-240.1688
 20
62.0235
  0
VERTEX
  8
LAYER_1
 10
-238.3073
 20
59.9753
  0
VERTEX
  8
LAYER_1
 10
-236.1908
 20
58.1892
  0
VERTEX
  8
LAYER_1
 10
-233.8451
 20
56.6911
  0
VERTEX
  8
LAYER_1
 10
-233.8451
 20
75.2946
  0
VERTEX
  8
LAYER_1
 10
-233.8451
 20
93.8899
  0
SEQEND
  8
LAYER_1
  0
POLYLINE
  8
LAYER_1
 66
     1
 70
     1
  0
VERTEX
  8
LAYER_1
 10
-223.3858
 20
76.7003
  0
VERTEX
  8
LAYER_1
 10
-223.5346
 20
76.7003
  0
VERTEX
  8
LAYER_1
 10
-223.8179
 20
76.6717
  0
VERTEX
  8
LAYER_1
 10
-224.0817
 20
76.5898
  0
VERTEX
  8
LAYER_1
 10
-224.3204
 20
76.4602
  0
VERTEX
  8
LAYER_1
 10
-224.5285
 20
76.2886
  0
VERTEX
  8
LAYER_1
 10
-224.7001
 20
76.0805
  0
VERTEX
  8
LAYER_1
 10
-224.8297
 20
75.8418
  0
VERTEX
  8
LAYER_1
 10
-224.9116
 20
75.578
  0
VERTEX
  8
LAYER_1
 10
-224.9402
 20
75.2947
  0
VERTEX
  8
LAYER_1
 10
-224.9116
 20
75.0114
  0
VERTEX
  8
LAYER_1
 10
-224.8297
 20
74.7476
  0
VERTEX
  8
LAYER_1
 10
-224.7001
 20
74.5089
  0
VERTEX
  8
LAYER_1
 10
-224.5285
 20
74.3008
  0
VERTEX
  8
LAYER_1
 10
-224.3204
 20
74.1292
  0
VERTEX
  8
LAYER_1
 10
-224.0817
 20
73.9996
  0
VERTEX
  8
LAYER_1
 10
-223.8179
 20
73.9177
  0
VERTEX
  8
LAYER_1
 10
-223.5346
 20
73.8891
  0
VERTEX
  8
LAYER_1
 10
-223.2513
 20
73.9177
  0
VERTEX
  8
LAYER_1
 10
-222.9875
 20
73.9996
  0
VERTEX
  8
LAYER_1
 10
-222.7488
 20
74.1292
  0
VERTEX
  8
LAYER_1
 10
-222.5407
 20
74.3008
  0
VERTEX
  8
LAYER_1
 10
-222.3691
 20
74.5089
  0
VERTEX
  8
LAYER_1
 10
-222.2395
 20
74.7476
  0
VERTEX
  8
LAYER_1
 10
-222.1576
 20
75.0114
  0
VERTEX
  8
LAYER_1
 10
-222.129
 20
75.2947
  0
VERTEX
  8
LAYER_1
 10
-222.1539
 20
75.5611
  0
VERTEX
  8
LAYER_1
 10
-222.2257
 20
75.8112
  0
VERTEX
  8
LAYER_1
 10
-222.3398
 20
76.0402
  0
VERTEX
  8
LAYER_1
 10
-222.4916
 20
76.2434
  0
VERTEX
  8
LAYER_1
 10
-222.6767
 20
76.4158
  0
VERTEX
  8
LAYER_1
 10
-222.8904
 20
76.5526
  0
VERTEX
  8
LAYER_1
 10
-223.1283
 20
76.6491
  0
VERTEX
  8
LAYER_1
 10
-223.3858
 20
76.7003
  0
SEQEND
  8
LAYER_1
  0
POLYLINE
  8
LAYER_1
 66
     1
 70
     1
  0
VERTEX
  8
LAYER_1
 10
-267.257
 20
51.1184
  0
VERTEX
  8
LAYER_1
 10
-267.5403
 20
51.0898
  0
VERTEX
  8
LAYER_1
 10
-267.8041
 20
51.0079
  0
VERTEX
  8
LAYER_1
 10
-268.0428
 20
50.8783
  0
VERTEX
  8
LAYER_1
 10
-268.2509
 20
50.7067
  0
VERTEX
  8
LAYER_1
 10
-268.4225
 20
50.4986
  0
VERTEX
  8
LAYER_1
 10
-268.5521
 20
50.2599
  0
VERTEX
  8
LAYER_1
 10
-268.634
 20
49.9961
  0
VERTEX
  8
LAYER_1
 10
-268.6626
 20
49.7128
  0
VERTEX
  8
LAYER_1
 10
-268.634
 20
49.4295
  0
VERTEX
  8
LAYER_1
 10
-268.5521
 20
49.1657
  0
VERTEX
  8
LAYER_1
 10
-268.4225
 20
48.927
  0
VERTEX
  8
LAYER_1
 10
-268.2509
 20
48.7189
  0
VERTEX
  8
LAYER_1
 10
-268.0428
 20
48.5473
  0
VERTEX
  8
LAYER_1
 10
-267.8041
 20
48.4177
  0
VERTEX
  8
LAYER_1
 10
-267.5403
 20
48.3358
  0
VERTEX
  8
LAYER_1
 10
-267.257
 20
48.3072
  0
VERTEX
  8
LAYER_1
 10
-266.9737
 20
48.3358
  0
VERTEX
  8
LAYER_1
 10
-266.7099
 20
48.4177
  0
VERTEX
  8
LAYER_1
 10
-266.4712
 20
48.5473
  0
VERTEX
  8
LAYER_1
 10
-266.2631
 20
48.7189
  0
VERTEX
  8
LAYER_1
 10
-266.0915
 20
48.927
  0
VERTEX
  8
LAYER_1
 10
-265.9619
 20
49.1657
  0
VERTEX
  8
LAYER_1
 10
-265.88
 20
49.4295
  0
VERTEX
  8
LAYER_1
 10
-265.8514
 20
49.7128
  0
VERTEX
  8
LAYER_1
 10
-265.88
 20
49.9961
  0
VERTEX
  8
LAYER_1
 10
-265.9619
 20
50.2599
  0
VERTEX
  8
LAYER_1
 10
-266.0915
 20
50.4986
  0
VERTEX
  8
LAYER_1
 10
-266.2631
 20
50.7067
  0
VERTEX
  8
LAYER_1
 10
-266.4712
 20
50.8783
  0
VERTEX
  8
LAYER_1
 10
-266.7099
 20
51.0079
  0
VERTEX
  8
LAYER_1
 10
-266.9737
 20
51.0898
  0
VERTEX
  8
LAYER_1
 10
-267.257
 20
51.1184
  0
SEQEND
  8
LAYER_1
  0
POLYLINE
  8
LAYER_1
 62
     2
 66
     1
 70
     1
  0
VERTEX
  8
LAYER_1
 62
     2
 10
-245.1692
 20
40.8435
  0
VERTEX
  8
LAYER_1
 62
     2
 10
-245.7359
 20
40.7975
  0
VERTEX
  8
LAYER_1
 62
     2
 10
-246.2685
 20
40.665
  0
VERTEX
  8
LAYER_1
 62
     2
 10
-246.7544
 20
40.4537
  0
VERTEX
  8
LAYER_1
 62
     2
 10
-247.1807
 20
40.1717
  0
VERTEX
  8
LAYER_1
 62
     2
 10
-247.5345
 20
39.8268
  0
VERTEX
  8
LAYER_1
 62
     2
 10
-247.8031
 20
39.427
  0
VERTEX
  8
LAYER_1
 62
     2
 10
-247.9737
 20
38.9802
  0
VERTEX
  8
LAYER_1
 62
     2
 10
-248.0334
 20
38.4943
  0
VERTEX
  8
LAYER_1
 62
     2
 10
-248.0334
 20
34.412
  0
VERTEX
  8
LAYER_1
 62
     2
 10
-247.9737
 20
33.9261
  0
VERTEX
  8
LAYER_1
 62
     2
 10
-247.8031
 20
33.4793
  0
VERTEX
  8
LAYER_1
 62
     2
 10
-247.5345
 20
33.0795
  0
VERTEX
  8
LAYER_1
 62
     2
 10
-247.1807
 20
32.7346
  0
VERTEX
  8
LAYER_1
 62
     2
 10
-246.7544
 20
32.4526
  0
VERTEX
  8
LAYER_1
 62
     2
 10
-246.2685
 20
32.2413
  0
VERTEX
  8
LAYER_1
 62
     2
 10
-245.7359
 20
32.1088
  0
VERTEX
  8
LAYER_1
 62
     2
 10
-245.1692
 20
32.0628
  0
VERTEX
  8
LAYER_1
 62
     2
 10
-211.8041
 20
32.0628
  0
VERTEX
  8
LAYER_1
 62
     2
 10
-211.2375
 20
32.1088
  0
VERTEX
  8
LAYER_1
 62
     2
 10
-210.705
 20
32.2413
  0
VERTEX
  8
LAYER_1
 62
     2
 10
-210.2193
 20
32.4526
  0
VERTEX
  8
LAYER_1
 62
     2
 10
-209.7933
 20
32.7346
  0
VERTEX
  8
LAYER_1
 62
     2
 10
-209.4397
 20
33.0795
  0
VERTEX
  8
LAYER_1
 62
     2
 10
-209.1713
 20
33.4793
  0
VERTEX
  8
LAYER_1
 62
     2
 10
-209.0008
 20
33.9261
  0
VERTEX
  8
LAYER_1
 62
     2
 10
-208.9412
 20
34.412
  0
VERTEX
  8
LAYER_1
 62
     2
 10
-208.9412
 20
38.4943
  0
VERTEX
  8
LAYER_1
 62
     2
 10
-209.0008
 20
38.9802
  0
VERTEX
  8
LAYER_1
 62
     2
 10
-209.1713
 20
39.427
  0
VERTEX
  8
LAYER_1
 62
     2
 10
-209.4397
 20
39.8268
  0
VERTEX
  8
LAYER_1
 62
     2
 10
-209.7933
 20
40.1717
  0
VERTEX
  8
LAYER_1
 62
     2
 10
-210.2193
 20
40.4537
  0
VERTEX
  8
LAYER_1
 62
     2
 10
-210.705
 20
40.665
  0
VERTEX
  8
LAYER_1
 62
     2
 10
-211.2375
 20
40.7975
  0
VERTEX
  8
LAYER_1
 62
     2
 10
-211.8041
 20
40.8435
  0
VERTEX
  8
LAYER_1
 62
     2
 10
-245.1692
 20
40.8435
  0
SEQEND
  8
LAYER_1
 62
     2
  0
POLYLINE
  8
LAYER_1
 62
     2
 66
     1
 70
     1
  0
VERTEX
  8
LAYER_1
 62
     2
 10
-245.1692
 20
40.1872
  0
VERTEX
  8
LAYER_1
 62
     2
 10
-211.8041
 20
40.1872
  0
VERTEX
  8
LAYER_1
 62
     2
 10
-211.3464
 20
40.1513
  0
VERTEX
  8
LAYER_1
 62
     2
 10
-210.926
 20
40.0491
  0
VERTEX
  8
LAYER_1
 62
     2
 10
-210.5504
 20
39.8885
  0
VERTEX
  8
LAYER_1
 62
     2
 10
-210.2268
 20
39.6778
  0
VERTEX
  8
LAYER_1
 62
     2
 10
-209.9624
 20
39.4249
  0
VERTEX
  8
LAYER_1
 62
     2
 10
-209.7646
 20
39.138
  0
VERTEX
  8
LAYER_1
 62
     2
 10
-209.6406
 20
38.8251
  0
VERTEX
  8
LAYER_1
 62
     2
 10
-209.5976
 20
38.4944
  0
VERTEX
  8
LAYER_1
 62
     2
 10
-209.5976
 20
34.4121
  0
VERTEX
  8
LAYER_1
 62
     2
 10
-209.6406
 20
34.0814
  0
VERTEX
  8
LAYER_1
 62
     2
 10
-209.7646
 20
33.7685
  0
VERTEX
  8
LAYER_1
 62
     2
 10
-209.9625
 20
33.4816
  0
VERTEX
  8
LAYER_1
 62
     2
 10
-210.2269
 20
33.2287
  0
VERTEX
  8
LAYER_1
 62
     2
 10
-210.5505
 20
33.018
  0
VERTEX
  8
LAYER_1
 62
     2
 10
-210.9261
 20
32.8574
  0
VERTEX
  8
LAYER_1
 62
     2
 10
-211.3464
 20
32.7552
  0
VERTEX
  8
LAYER_1
 62
     2
 10
-211.8041
 20
32.7193
  0
VERTEX
  8
LAYER_1
 62
     2
 10
-245.1692
 20
32.7193
  0
VERTEX
  8
LAYER_1
 62
     2
 10
-245.627
 20
32.7552
  0
VERTEX
  8
LAYER_1
 62
     2
 10
-246.0475
 20
32.8574
  0
VERTEX
  8
LAYER_1
 62
     2
 10
-246.4233
 20
33.018
  0
VERTEX
  8
LAYER_1
 62
     2
 10
-246.7471
 20
33.2287
  0
VERTEX
  8
LAYER_1
 62
     2
 10
-247.0117
 20
33.4816
  0
VERTEX
  8
LAYER_1
 62
     2
 10
-247.2098
 20
33.7685
  0
VERTEX
  8
LAYER_1
 62
     2
 10
-247.334
 20
34.0814
  0
VERTEX
  8
LAYER_1
 62
     2
 10
-247.377
 20
34.4121
  0
VERTEX
  8
LAYER_1
 62
     2
 10
-247.377
 20
38.4944
  0
VERTEX
  8
LAYER_1
 62
     2
 10
-247.334
 20
38.8251
  0
VERTEX
  8
LAYER_1
 62
     2
 10
-247.2098
 20
39.138
  0
VERTEX
  8
LAYER_1
 62
     2
 10
-247.0117
 20
39.4249
  0
VERTEX
  8
LAYER_1
 62
     2
 10
-246.7471
 20
39.6778
  0
VERTEX
  8
LAYER_1
 62
     2
 10
-246.4232
 20
39.8885
  0
VERTEX
  8
LAYER_1
 62
     2
 10
-246.0474
 20
40.0491
  0
VERTEX
  8
LAYER_1
 62
     2
 10
-245.627
 20
40.1513
  0
VERTEX
  8
LAYER_1
 62
     2
 10
-245.1692
 20
40.1872
  0
SEQEND
  8
LAYER_1
 62
     2
  0
POLYLINE
  8
LAYER_1
 62
     2
 66
     1
 70
     1
  0
VERTEX
  8
LAYER_1
 62
     2
 10
-246.4833
 20
37.3683
  0
VERTEX
  8
LAYER_1
 62
     2
 10
-245.6891
 20
37.3683
  0
VERTEX
  8
LAYER_1
 62
     2
 10
-245.3826
 20
36.1796
  0
VERTEX
  8
LAYER_1
 62
     2
 10
-245.0774
 20
37.3683
  0
VERTEX
  8
LAYER_1
 62
     2
 10
-244.2858
 20
37.3683
  0
VERTEX
  8
LAYER_1
 62
     2
 10
-244.2858
 20
35.4147
  0
VERTEX
  8
LAYER_1
 62
     2
 10
-244.7789
 20
35.4147
  0
VERTEX
  8
LAYER_1
 62
     2
 10
-244.7789
 20
36.9046
  0
VERTEX
  8
LAYER_1
 62
     2
 10
-245.1614
 20
35.4147
  0
VERTEX
  8
LAYER_1
 62
     2
 10
-245.6078
 20
35.4147
  0
VERTEX
  8
LAYER_1
 62
     2
 10
-245.9889
 20
36.9046
  0
VERTEX
  8
LAYER_1
 62
     2
 10
-245.9889
 20
35.4147
  0
VERTEX
  8
LAYER_1
 62
     2
 10
-246.4833
 20
35.4147
  0
VERTEX
  8
LAYER_1
 62
     2
 10
-246.4833
 20
37.3683
  0
SEQEND
  8
LAYER_1
 62
     2
  0
POLYLINE
  8
LAYER_1
 62
     2
 66
     1
 70
     1
  0
VERTEX
  8
LAYER_1
 62
     2
 10
-244.0074
 20
36.061
  0
VERTEX
  8
LAYER_1
 62
     2
 10
-243.433
 20
36.097
  0
VERTEX
  8
LAYER_1
 62
     2
 10
-243.357
 20
35.8838
  0
VERTEX
  8
LAYER_1
 62
     2
 10
-243.3054
 20
35.8319
  0
VERTEX
  8
LAYER_1
 62
     2
 10
-243.2437
 20
35.7948
  0
VERTEX
  8
LAYER_1
 62
     2
 10
-243.1721
 20
35.7726
  0
VERTEX
  8
LAYER_1
 62
     2
 10
-243.0905
 20
35.7652
  0
VERTEX
  8
LAYER_1
 62
     2
 10
-242.8913
 20
35.8258
  0
VERTEX
  8
LAYER_1
 62
     2
 10
-242.8213
 20
35.9664
  0
VERTEX
  8
LAYER_1
 62
     2
 10
-242.8879
 20
36.1023
  0
VERTEX
  8
LAYER_1
 62
     2
 10
-243.1971
 20
36.2156
  0
VERTEX
  8
LAYER_1
 62
     2
 10
-243.3814
 20
36.2639
  0
VERTEX
  8
LAYER_1
 62
     2
 10
-243.5372
 20
36.3195
  0
VERTEX
  8
LAYER_1
 62
     2
 10
-243.6646
 20
36.3825
  0
VERTEX
  8
LAYER_1
 62
     2
 10
-243.7635
 20
36.4528
  0
VERTEX
  8
LAYER_1
 62
     2
 10
-243.8381
 20
36.5318
  0
VERTEX
  8
LAYER_1
 62
     2
 10
-243.8914
 20
36.621
  0
VERTEX
  8
LAYER_1
 62
     2
 10
-243.9234
 20
36.7204
  0
VERTEX
  8
LAYER_1
 62
     2
 10
-243.9341
 20
36.8299
  0
VERTEX
  8
LAYER_1
 62
     2
 10
-243.8468
 20
37.1144
  0
VERTEX
  8
LAYER_1
 62
     2
 10
-243.5843
 20
37.325
  0
VERTEX
  8
LAYER_1
 62
     2
 10
-243.1039
 20
37.4016
  0
VERTEX
  8
LAYER_1
 62
     2
 10
-242.9278
 20
37.3929
  0
VERTEX
  8
LAYER_1
 62
     2
 10
-242.7739
 20
37.3668
  0
VERTEX
  8
LAYER_1
 62
     2
 10
-242.6423
 20
37.3233
  0
VERTEX
  8
LAYER_1
 62
     2
 10
-242.5329
 20
37.2623
  0
VERTEX
  8
LAYER_1
 62
     2
 10
-242.4446
 20
37.1824
  0
VERTEX
  8
LAYER_1
 62
     2
 10
-242.3762
 20
37.0819
  0
VERTEX
  8
LAYER_1
 62
     2
 10
-242.3276
 20
36.9609
  0
VERTEX
  8
LAYER_1
 62
     2
 10
-242.299
 20
36.8192
  0
VERTEX
  8
LAYER_1
 62
     2
 10
-242.868
 20
36.7859
  0
VERTEX
  8
LAYER_1
 62
     2
 10
-242.9633
 20
36.9778
  0
VERTEX
  8
LAYER_1
 62
     2
 10
-243.1639
 20
37.0378
  0
VERTEX
  8
LAYER_1
 62
     2
 10
-243.3225
 20
36.9932
  0
VERTEX
  8
LAYER_1
 62
     2
 10
-243.3758
 20
36.8846
  0
VERTEX
  8
LAYER_1
 62
     2
 10
-243.3318
 20
36.8006
  0
VERTEX
  8
LAYER_1
 62
     2
 10
-243.1292
 20
36.7286
  0
VERTEX
  8
LAYER_1
 62
     2
 10
-242.5622
 20
36.556
  0
VERTEX
  8
LAYER_1
 62
     2
 10
-242.313
 20
36.3395
  0
VERTEX
  8
LAYER_1
 62
     2
 10
-242.235
 20
36.0503
  0
VERTEX
  8
LAYER_1
 62
     2
 10
-242.3389
 20
35.7038
  0
VERTEX
  8
LAYER_1
 62
     2
 10
-242.6294
 20
35.4633
  0
VERTEX
  8
LAYER_1
 62
     2
 10
-243.0998
 20
35.3813
  0
VERTEX
  8
LAYER_1
 62
     2
 10
-243.3299
 20
35.3933
  0
VERTEX
  8
LAYER_1
 62
     2
 10
-243.5216
 20
35.4293
  0
VERTEX
  8
LAYER_1
 62
     2
 10
-243.675
 20
35.4893
  0
VERTEX
  8
LAYER_1
 62
     2
 10
-243.7901
 20
35.5732
  0
VERTEX
  8
LAYER_1
 62
     2
 10
-243.8756
 20
35.6756
  0
VERTEX
  8
LAYER_1
 62
     2
 10
-243.9403
 20
35.7911
  0
VERTEX
  8
LAYER_1
 62
     2
 10
-243.9842
 20
35.9195
  0
VERTEX
  8
LAYER_1
 62
     2
 10
-244.0073
 20
36.0609
  0
VERTEX
  8
LAYER_1
 62
     2
 10
-244.0074
 20
36.061
  0
SEQEND
  8
LAYER_1
 62
     2
  0
POLYLINE
  8
LAYER_1
 62
     2
 66
     1
 70
     1
  0
VERTEX
  8
LAYER_1
 62
     2
 10
-241.9218
 20
35.4147
  0
VERTEX
  8
LAYER_1
 62
     2
 10
-241.9218
 20
37.3683
  0
VERTEX
  8
LAYER_1
 62
     2
 10
-240.9157
 20
37.3683
  0
VERTEX
  8
LAYER_1
 62
     2
 10
-240.4879
 20
37.3203
  0
VERTEX
  8
LAYER_1
 62
     2
 10
-240.2494
 20
37.1424
  0
VERTEX
  8
LAYER_1
 62
     2
 10
-240.1588
 20
36.8259
  0
VERTEX
  8
LAYER_1
 62
     2
 10
-240.2281
 20
36.5454
  0
VERTEX
  8
LAYER_1
 62
     2
 10
-240.4187
 20
36.3542
  0
VERTEX
  8
LAYER_1
 62
     2
 10
-240.6306
 20
36.2769
  0
VERTEX
  8
LAYER_1
 62
     2
 10
-240.4734
 20
36.2049
  0
VERTEX
  8
LAYER_1
 62
     2
 10
-240.3768
 20
36.1023
  0
VERTEX
  8
LAYER_1
 62
     2
 10
-240.2922
 20
35.981
  0
VERTEX
  8
LAYER_1
 62
     2
 10
-240.0004
 20
35.4146
  0
VERTEX
  8
LAYER_1
 62
     2
 10
-240.6827
 20
35.4146
  0
VERTEX
  8
LAYER_1
 62
     2
 10
-241.0052
 20
36.0116
  0
VERTEX
  8
LAYER_1
 62
     2
 10
-241.1145
 20
36.1622
  0
VERTEX
  8
LAYER_1
 62
     2
 10
-241.2624
 20
36.2075
  0
VERTEX
  8
LAYER_1
 62
     2
 10
-241.3157
 20
36.2075
  0
VERTEX
  8
LAYER_1
 62
     2
 10
-241.3157
 20
35.4146
  0
VERTEX
  8
LAYER_1
 62
     2
 10
-241.9218
 20
35.4147
  0
SEQEND
  8
LAYER_1
 62
     2
  0
POLYLINE
  8
LAYER_1
 62
     2
 66
     1
 70
     1
  0
VERTEX
  8
LAYER_1
 62
     2
 10
-241.3155
 20
36.5767
  0
VERTEX
  8
LAYER_1
 62
     2
 10
-241.061
 20
36.5767
  0
VERTEX
  8
LAYER_1
 62
     2
 10
-240.9011
 20
36.6034
  0
VERTEX
  8
LAYER_1
 62
     2
 10
-240.8032
 20
36.6647
  0
VERTEX
  8
LAYER_1
 62
     2
 10
-240.7652
 20
36.778
  0
VERTEX
  8
LAYER_1
 62
     2
 10
-240.8252
 20
36.9233
  0
VERTEX
  8
LAYER_1
 62
     2
 10
-241.0504
 20
36.9739
  0
VERTEX
  8
LAYER_1
 62
     2
 10
-241.3156
 20
36.9739
  0
VERTEX
  8
LAYER_1
 62
     2
 10
-241.3155
 20
36.5767
  0
SEQEND
  8
LAYER_1
 62
     2
  0
POLYLINE
  8
LAYER_1
 62
     2
 66
     1
 70
     1
  0
VERTEX
  8
LAYER_1
 62
     2
 10
-239.3499
 20
36.3715
  0
VERTEX
  8
LAYER_1
 62
     2
 10
-239.8683
 20
36.4261
  0
VERTEX
  8
LAYER_1
 62
     2
 10
-239.7837
 20
36.64
  0
VERTEX
  8
LAYER_1
 62
     2
 10
-239.6245
 20
36.7753
  0
VERTEX
  8
LAYER_1
 62
     2
 10
-239.4193
 20
36.8393
  0
VERTEX
  8
LAYER_1
 62
     2
 10
-239.1368
 20
36.862
  0
VERTEX
  8
LAYER_1
 62
     2
 10
-238.745
 20
36.8347
  0
VERTEX
  8
LAYER_1
 62
     2
 10
-238.4985
 20
36.7208
  0
VERTEX
  8
LAYER_1
 62
     2
 10
-238.3892
 20
36.5509
  0
VERTEX
  8
LAYER_1
 62
     2
 10
-238.3492
 20
36.341
  0
VERTEX
  8
LAYER_1
 62
     2
 10
-238.3492
 20
35.716
  0
VERTEX
  8
LAYER_1
 62
     2
 10
-238.3365
 20
35.5594
  0
VERTEX
  8
LAYER_1
 62
     2
 10
-238.2812
 20
35.4148
  0
VERTEX
  8
LAYER_1
 62
     2
 10
-238.7903
 20
35.4148
  0
VERTEX
  8
LAYER_1
 62
     2
 10
-238.8303
 20
35.4981
  0
VERTEX
  8
LAYER_1
 62
     2
 10
-238.849
 20
35.5881
  0
VERTEX
  8
LAYER_1
 62
     2
 10
-239.0609
 20
35.4415
  0
VERTEX
  8
LAYER_1
 62
     2
 10
-239.3954
 20
35.3829
  0
VERTEX
  8
LAYER_1
 62
     2
 10
-239.5144
 20
35.3902
  0
VERTEX
  8
LAYER_1
 62
     2
 10
-239.6181
 20
35.4122
  0
VERTEX
  8
LAYER_1
 62
     2
 10
-239.7066
 20
35.4489
  0
VERTEX
  8
LAYER_1
 62
     2
 10
-239.7799
 20
35.5002
  0
VERTEX
  8
LAYER_1
 62
     2
 10
-239.8373
 20
35.5623
  0
VERTEX
  8
LAYER_1
 62
     2
 10
-239.8784
 20
35.6312
  0
VERTEX
  8
LAYER_1
 62
     2
 10
-239.903
 20
35.7069
  0
VERTEX
  8
LAYER_1
 62
     2
 10
-239.9112
 20
35.7894
  0
VERTEX
  8
LAYER_1
 62
     2
 10
-239.8166
 20
36.0546
  0
VERTEX
  8
LAYER_1
 62
     2
 10
-239.7593
 20
36.1032
  0
VERTEX
  8
LAYER_1
 62
     2
 10
-239.682
 20
36.1452
  0
VERTEX
  8
LAYER_1
 62
     2
 10
-239.5847
 20
36.1805
  0
VERTEX
  8
LAYER_1
 62
     2
 10
-239.4675
 20
36.2092
  0
VERTEX
  8
LAYER_1
 62
     2
 10
-239.0717
 20
36.2952
  0
VERTEX
  8
LAYER_1
 62
     2
 10
-238.8798
 20
36.3598
  0
VERTEX
  8
LAYER_1
 62
     2
 10
-238.9211
 20
36.4997
  0
VERTEX
  8
LAYER_1
 62
     2
 10
-239.0664
 20
36.5397
  0
VERTEX
  8
LAYER_1
 62
     2
 10
-239.2663
 20
36.4971
  0
VERTEX
  8
LAYER_1
 62
     2
 10
-239.3503
 20
36.3718
  0
VERTEX
  8
LAYER_1
 62
     2
 10
-239.3499
 20
36.3715
  0
SEQEND
  8
LAYER_1
 62
     2
  0
POLYLINE
  8
LAYER_1
 62
     2
 66
     1
 70
     1
  0
VERTEX
  8
LAYER_1
 62
     2
 10
-238.8795
 20
36.0863
  0
VERTEX
  8
LAYER_1
 62
     2
 10
-239.1127
 20
36.0157
  0
VERTEX
  8
LAYER_1
 62
     2
 10
-239.3219
 20
35.9291
  0
VERTEX
  8
LAYER_1
 62
     2
 10
-239.3672
 20
35.8292
  0
VERTEX
  8
LAYER_1
 62
     2
 10
-239.3226
 20
35.7246
  0
VERTEX
  8
LAYER_1
 62
     2
 10
-239.1913
 20
35.684
  0
VERTEX
  8
LAYER_1
 62
     2
 10
-239.0227
 20
35.728
  0
VERTEX
  8
LAYER_1
 62
     2
 10
-238.9121
 20
35.8353
  0
VERTEX
  8
LAYER_1
 62
     2
 10
-238.8795
 20
35.9999
  0
VERTEX
  8
LAYER_1
 62
     2
 10
-238.8795
 20
36.0863
  0
SEQEND
  8
LAYER_1
 62
     2
  0
POLYLINE
  8
LAYER_1
 62
     2
 66
     1
 70
     1
  0
VERTEX
  8
LAYER_1
 62
     2
 10
-238.1785
 20
36.8299
  0
VERTEX
  8
LAYER_1
 62
     2
 10
-237.6055
 20
36.8299
  0
VERTEX
  8
LAYER_1
 62
     2
 10
-237.3137
 20
35.8877
  0
VERTEX
  8
LAYER_1
 62
     2
 10
-237.0432
 20
36.8299
  0
VERTEX
  8
LAYER_1
 62
     2
 10
-236.5088
 20
36.8299
  0
VERTEX
  8
LAYER_1
 62
     2
 10
-237.0698
 20
35.3174
  0
VERTEX
  8
LAYER_1
 62
     2
 10
-237.2657
 20
34.9683
  0
VERTEX
  8
LAYER_1
 62
     2
 10
-237.3456
 20
34.9123
  0
VERTEX
  8
LAYER_1
 62
     2
 10
-237.4439
 20
34.8724
  0
VERTEX
  8
LAYER_1
 62
     2
 10
-237.5608
 20
34.8484
  0
VERTEX
  8
LAYER_1
 62
     2
 10
-237.6961
 20
34.8404
  0
VERTEX
  8
LAYER_1
 62
     2
 10
-238.0586
 20
34.8724
  0
VERTEX
  8
LAYER_1
 62
     2
 10
-238.1012
 20
35.2509
  0
VERTEX
  8
LAYER_1
 62
     2
 10
-237.84
 20
35.2136
  0
VERTEX
  8
LAYER_1
 62
     2
 10
-237.6848
 20
35.2576
  0
VERTEX
  8
LAYER_1
 62
     2
 10
-237.5842
 20
35.4148
  0
VERTEX
  8
LAYER_1
 62
     2
 10
-238.1785
 20
36.8299
  0
SEQEND
  8
LAYER_1
 62
     2
  0
POLYLINE
  8
LAYER_1
 62
     2
 66
     1
 70
     1
  0
VERTEX
  8
LAYER_1
 62
     2
 10
-236.3529
 20
36.8299
  0
VERTEX
  8
LAYER_1
 62
     2
 10
-235.8478
 20
36.8299
  0
VERTEX
  8
LAYER_1
 62
     2
 10
-235.8478
 20
36.5994
  0
VERTEX
  8
LAYER_1
 62
     2
 10
-235.6186
 20
36.8013
  0
VERTEX
  8
LAYER_1
 62
     2
 10
-235.3361
 20
36.8619
  0
VERTEX
  8
LAYER_1
 62
     2
 10
-235.2296
 20
36.8535
  0
VERTEX
  8
LAYER_1
 62
     2
 10
-235.1354
 20
36.8284
  0
VERTEX
  8
LAYER_1
 62
     2
 10
-235.0534
 20
36.7866
  0
VERTEX
  8
LAYER_1
 62
     2
 10
-234.9836
 20
36.728
  0
VERTEX
  8
LAYER_1
 62
     2
 10
-234.9279
 20
36.6519
  0
VERTEX
  8
LAYER_1
 62
     2
 10
-234.8882
 20
36.5576
  0
VERTEX
  8
LAYER_1
 62
     2
 10
-234.8643
 20
36.445
  0
VERTEX
  8
LAYER_1
 62
     2
 10
-234.8563
 20
36.3142
  0
VERTEX
  8
LAYER_1
 62
     2
 10
-234.8563
 20
35.4147
  0
VERTEX
  8
LAYER_1
 62
     2
 10
-235.4013
 20
35.4147
  0
VERTEX
  8
LAYER_1
 62
     2
 10
-235.4013
 20
36.1929
  0
VERTEX
  8
LAYER_1
 62
     2
 10
-235.4506
 20
36.3815
  0
VERTEX
  8
LAYER_1
 62
     2
 10
-235.5892
 20
36.4368
  0
VERTEX
  8
LAYER_1
 62
     2
 10
-235.7491
 20
36.3622
  0
VERTEX
  8
LAYER_1
 62
     2
 10
-235.8104
 20
36.0943
  0
VERTEX
  8
LAYER_1
 62
     2
 10
-235.8104
 20
35.4147
  0
VERTEX
  8
LAYER_1
 62
     2
 10
-236.3528
 20
35.4147
  0
VERTEX
  8
LAYER_1
 62
     2
 10
-236.3529
 20
36.8299
  0
SEQEND
  8
LAYER_1
 62
     2
  0
POLYLINE
  8
LAYER_1
 62
     2
 66
     1
 70
     1
  0
VERTEX
  8
LAYER_1
 62
     2
 10
-234.6258
 20
35.8064
  0
VERTEX
  8
LAYER_1
 62
     2
 10
-234.0874
 20
35.857
  0
VERTEX
  8
LAYER_1
 62
     2
 10
-233.9941
 20
35.7197
  0
VERTEX
  8
LAYER_1
 62
     2
 10
-233.8342
 20
35.6784
  0
VERTEX
  8
LAYER_1
 62
     2
 10
-233.665
 20
35.725
  0
VERTEX
  8
LAYER_1
 62
     2
 10
-233.6184
 20
35.8116
  0
VERTEX
  8
LAYER_1
 62
     2
 10
-233.6797
 20
35.9022
  0
VERTEX
  8
LAYER_1
 62
     2
 10
-233.9129
 20
35.9582
  0
VERTEX
  8
LAYER_1
 62
     2
 10
-234.3054
 20
36.0495
  0
VERTEX
  8
LAYER_1
 62
     2
 10
-234.4906
 20
36.1914
  0
VERTEX
  8
LAYER_1
 62
     2
 10
-234.5659
 20
36.4193
  0
VERTEX
  8
LAYER_1
 62
     2
 10
-234.4846
 20
36.6605
  0
VERTEX
  8
LAYER_1
 62
     2
 10
-234.2607
 20
36.8118
  0
VERTEX
  8
LAYER_1
 62
     2
 10
-233.8782
 20
36.8618
  0
VERTEX
  8
LAYER_1
 62
     2
 10
-233.5044
 20
36.8232
  0
VERTEX
  8
LAYER_1
 62
     2
 10
-233.3032
 20
36.7033
  0
VERTEX
  8
LAYER_1
 62
     2
 10
-233.1693
 20
36.4834
  0
VERTEX
  8
LAYER_1
 62
     2
 10
-233.6837
 20
36.4328
  0
VERTEX
  8
LAYER_1
 62
     2
 10
-233.7503
 20
36.5327
  0
VERTEX
  8
LAYER_1
 62
     2
 10
-233.9049
 20
36.5753
  0
VERTEX
  8
LAYER_1
 62
     2
 10
-234.0388
 20
36.5427
  0
VERTEX
  8
LAYER_1
 62
     2
 10
-234.0808
 20
36.4634
  0
VERTEX
  8
LAYER_1
 62
     2
 10
-234.0275
 20
36.3848
  0
VERTEX
  8
LAYER_1
 62
     2
 10
-233.7956
 20
36.3368
  0
VERTEX
  8
LAYER_1
 62
     2
 10
-233.3932
 20
36.2515
  0
VERTEX
  8
LAYER_1
 62
     2
 10
-233.1913
 20
36.0956
  0
VERTEX
  8
LAYER_1
 62
     2
 10
-233.1213
 20
35.8731
  0
VERTEX
  8
LAYER_1
 62
     2
 10
-233.1953
 20
35.6346
  0
VERTEX
  8
LAYER_1
 62
     2
 10
-233.4285
 20
35.45
  0
VERTEX
  8
LAYER_1
 62
     2
 10
-233.8623
 20
35.3814
  0
VERTEX
  8
LAYER_1
 62
     2
 10
-234.0422
 20
35.3883
  0
VERTEX
  8
LAYER_1
 62
     2
 10
-234.1943
 20
35.4091
  0
VERTEX
  8
LAYER_1
 62
     2
 10
-234.3184
 20
35.4436
  0
VERTEX
  8
LAYER_1
 62
     2
 10
-234.4147
 20
35.492
  0
VERTEX
  8
LAYER_1
 62
     2
 10
-234.4896
 20
35.5531
  0
VERTEX
  8
LAYER_1
 62
     2
 10
-234.5498
 20
35.6259
  0
VERTEX
  8
LAYER_1
 62
     2
 10
-234.5952
 20
35.7104
  0
VERTEX
  8
LAYER_1
 62
     2
 10
-234.6259
 20
35.8065
  0
VERTEX
  8
LAYER_1
 62
     2
 10
-234.6258
 20
35.8064
  0
SEQEND
  8
LAYER_1
 62
     2
  0
POLYLINE
  8
LAYER_1
 62
     2
 66
     1
 70
     1
  0
VERTEX
  8
LAYER_1
 62
     2
 10
-232.2578
 20
36.8299
  0
VERTEX
  8
LAYER_1
 62
     2
 10
-231.9993
 20
36.8299
  0
VERTEX
  8
LAYER_1
 62
     2
 10
-231.9993
 20
36.4328
  0
VERTEX
  8
LAYER_1
 62
     2
 10
-232.2578
 20
36.4328
  0
VERTEX
  8
LAYER_1
 62
     2
 10
-232.2578
 20
35.4147
  0
VERTEX
  8
LAYER_1
 62
     2
 10
-232.8015
 20
35.4147
  0
VERTEX
  8
LAYER_1
 62
     2
 10
-232.8015
 20
36.4328
  0
VERTEX
  8
LAYER_1
 62
     2
 10
-233.0041
 20
36.4328
  0
VERTEX
  8
LAYER_1
 62
     2
 10
-233.0041
 20
36.8299
  0
VERTEX
  8
LAYER_1
 62
     2
 10
-232.8015
 20
36.8299
  0
VERTEX
  8
LAYER_1
 62
     2
 10
-232.8015
 20
36.8939
  0
VERTEX
  8
LAYER_1
 62
     2
 10
-232.7828
 20
37.0845
  0
VERTEX
  8
LAYER_1
 62
     2
 10
-232.7128
 20
37.2544
  0
VERTEX
  8
LAYER_1
 62
     2
 10
-232.5689
 20
37.361
  0
VERTEX
  8
LAYER_1
 62
     2
 10
-232.2977
 20
37.4016
  0
VERTEX
  8
LAYER_1
 62
     2
 10
-231.8833
 20
37.3683
  0
VERTEX
  8
LAYER_1
 62
     2
 10
-231.9433
 20
37.0405
  0
VERTEX
  8
LAYER_1
 62
     2
 10
-232.1005
 20
37.0565
  0
VERTEX
  8
LAYER_1
 62
     2
 10
-232.2058
 20
37.0318
  0
VERTEX
  8
LAYER_1
 62
     2
 10
-232.2511
 20
36.9538
  0
VERTEX
  8
LAYER_1
 62
     2
 10
-232.2578
 20
36.8299
  0
SEQEND
  8
LAYER_1
 62
     2
  0
POLYLINE
  8
LAYER_1
 62
     2
 66
     1
 70
     1
  0
VERTEX
  8
LAYER_1
 62
     2
 10
-231.8673
 20
36.1183
  0
VERTEX
  8
LAYER_1
 62
     2
 10
-231.8536
 20
36.2731
  0
VERTEX
  8
LAYER_1
 62
     2
 10
-231.8127
 20
36.4137
  0
VERTEX
  8
LAYER_1
 62
     2
 10
-231.7444
 20
36.54
  0
VERTEX
  8
LAYER_1
 62
     2
 10
-231.6488
 20
36.652
  0
VERTEX
  8
LAYER_1
 62
     2
 10
-231.5299
 20
36.7438
  0
VERTEX
  8
LAYER_1
 62
     2
 10
-231.3919
 20
36.8094
  0
VERTEX
  8
LAYER_1
 62
     2
 10
-231.2348
 20
36.8488
  0
VERTEX
  8
LAYER_1
 62
     2
 10
-231.0585
 20
36.8619
  0
VERTEX
  8
LAYER_1
 62
     2
 10
-230.8589
 20
36.8465
  0
VERTEX
  8
LAYER_1
 62
     2
 10
-230.6854
 20
36.8003
  0
VERTEX
  8
LAYER_1
 62
     2
 10
-230.6083
 20
36.7656
  0
VERTEX
  8
LAYER_1
 62
     2
 10
-230.5378
 20
36.7232
  0
VERTEX
  8
LAYER_1
 62
     2
 10
-230.4737
 20
36.6732
  0
VERTEX
  8
LAYER_1
 62
     2
 10
-230.4162
 20
36.6154
  0
VERTEX
  8
LAYER_1
 62
     2
 10
-230.3398
 20
36.5104
  0
VERTEX
  8
LAYER_1
 62
     2
 10
-230.2853
 20
36.3938
  0
VERTEX
  8
LAYER_1
 62
     2
 10
-230.2525
 20
36.2658
  0
VERTEX
  8
LAYER_1
 62
     2
 10
-230.2416
 20
36.1263
  0
VERTEX
  8
LAYER_1
 62
     2
 10
-230.2551
 20
35.9704
  0
VERTEX
  8
LAYER_1
 62
     2
 10
-230.2957
 20
35.8293
  0
VERTEX
  8
LAYER_1
 62
     2
 10
-230.3634
 20
35.7029
  0
VERTEX
  8
LAYER_1
 62
     2
 10
-230.4581
 20
35.5913
  0
VERTEX
  8
LAYER_1
 62
     2
 10
-230.5768
 20
35.5001
  0
VERTEX
  8
LAYER_1
 62
     2
 10
-230.7161
 20
35.4349
  0
VERTEX
  8
LAYER_1
 62
     2
 10
-230.8762
 20
35.3957
  0
VERTEX
  8
LAYER_1
 62
     2
 10
-231.0571
 20
35.3827
  0
VERTEX
  8
LAYER_1
 62
     2
 10
-231.2195
 20
35.3935
  0
VERTEX
  8
LAYER_1
 62
     2
 10
-231.3656
 20
35.426
  0
VERTEX
  8
LAYER_1
 62
     2
 10
-231.4953
 20
35.4801
  0
VERTEX
  8
LAYER_1
 62
     2
 10
-231.6088
 20
35.5559
  0
VERTEX
  8
LAYER_1
 62
     2
 10
-231.7219
 20
35.6715
  0
VERTEX
  8
LAYER_1
 62
     2
 10
-231.8027
 20
35.8038
  0
VERTEX
  8
LAYER_1
 62
     2
 10
-231.8512
 20
35.9527
  0
VERTEX
  8
LAYER_1
 62
     2
 10
-231.8673
 20
36.1183
  0
SEQEND
  8
LAYER_1
 62
     2
  0
POLYLINE
  8
LAYER_1
 62
     2
 66
     1
 70
     1
  0
VERTEX
  8
LAYER_1
 62
     2
 10
-231.3236
 20
36.1196
  0
VERTEX
  8
LAYER_1
 62
     2
 10
-231.247
 20
35.8398
  0
VERTEX
  8
LAYER_1
 62
     2
 10
-231.0544
 20
35.7492
  0
VERTEX
  8
LAYER_1
 62
     2
 10
-230.8618
 20
35.8385
  0
VERTEX
  8
LAYER_1
 62
     2
 10
-230.7865
 20
36.125
  0
VERTEX
  8
LAYER_1
 62
     2
 10
-230.8625
 20
36.3989
  0
VERTEX
  8
LAYER_1
 62
     2
 10
-231.0504
 20
36.4889
  0
VERTEX
  8
LAYER_1
 62
     2
 10
-231.2463
 20
36.3976
  0
VERTEX
  8
LAYER_1
 62
     2
 10
-231.3236
 20
36.1198
  0
VERTEX
  8
LAYER_1
 62
     2
 10
-231.3236
 20
36.1196
  0
SEQEND
  8
LAYER_1
 62
     2
  0
POLYLINE
  8
LAYER_1
 62
     2
 66
     1
 70
     1
  0
VERTEX
  8
LAYER_1
 62
     2
 10
-229.9723
 20
36.8299
  0
VERTEX
  8
LAYER_1
 62
     2
 10
-229.4646
 20
36.8299
  0
VERTEX
  8
LAYER_1
 62
     2
 10
-229.4646
 20
36.598
  0
VERTEX
  8
LAYER_1
 62
     2
 10
-229.3133
 20
36.8052
  0
VERTEX
  8
LAYER_1
 62
     2
 10
-229.1207
 20
36.8618
  0
VERTEX
  8
LAYER_1
 62
     2
 10
-228.8582
 20
36.7872
  0
VERTEX
  8
LAYER_1
 62
     2
 10
-229.0261
 20
36.4007
  0
VERTEX
  8
LAYER_1
 62
     2
 10
-229.178
 20
36.4407
  0
VERTEX
  8
LAYER_1
 62
     2
 10
-229.3432
 20
36.3527
  0
VERTEX
  8
LAYER_1
 62
     2
 10
-229.38
 20
36.2773
  0
VERTEX
  8
LAYER_1
 62
     2
 10
-229.4062
 20
36.1748
  0
VERTEX
  8
LAYER_1
 62
     2
 10
-229.422
 20
36.0454
  0
VERTEX
  8
LAYER_1
 62
     2
 10
-229.4272
 20
35.889
  0
VERTEX
  8
LAYER_1
 62
     2
 10
-229.4272
 20
35.4146
  0
VERTEX
  8
LAYER_1
 62
     2
 10
-229.9722
 20
35.4146
  0
VERTEX
  8
LAYER_1
 62
     2
 10
-229.9723
 20
36.8299
  0
SEQEND
  8
LAYER_1
 62
     2
  0
POLYLINE
  8
LAYER_1
 62
     2
 66
     1
 70
     1
  0
VERTEX
  8
LAYER_1
 62
     2
 10
-227.2778
 20
37.3683
  0
VERTEX
  8
LAYER_1
 62
     2
 10
-227.2778
 20
35.4147
  0
VERTEX
  8
LAYER_1
 62
     2
 10
-227.7855
 20
35.4147
  0
VERTEX
  8
LAYER_1
 62
     2
 10
-227.7855
 20
35.6239
  0
VERTEX
  8
LAYER_1
 62
     2
 10
-227.9801
 20
35.444
  0
VERTEX
  8
LAYER_1
 62
     2
 10
-228.2413
 20
35.3827
  0
VERTEX
  8
LAYER_1
 62
     2
 10
-228.3774
 20
35.3964
  0
VERTEX
  8
LAYER_1
 62
     2
 10
-228.4963
 20
35.4377
  0
VERTEX
  8
LAYER_1
 62
     2
 10
-228.5982
 20
35.5064
  0
VERTEX
  8
LAYER_1
 62
     2
 10
-228.6831
 20
35.6026
  0
VERTEX
  8
LAYER_1
 62
     2
 10
-228.7498
 20
35.7185
  0
VERTEX
  8
LAYER_1
 62
     2
 10
-228.7975
 20
35.8461
  0
VERTEX
  8
LAYER_1
 62
     2
 10
-228.8262
 20
35.9856
  0
VERTEX
  8
LAYER_1
 62
     2
 10
-228.8357
 20
36.137
  0
VERTEX
  8
LAYER_1
 62
     2
 10
-228.8252
 20
36.3026
  0
VERTEX
  8
LAYER_1
 62
     2
 10
-228.7936
 20
36.4475
  0
VERTEX
  8
LAYER_1
 62
     2
 10
-228.7409
 20
36.5718
  0
VERTEX
  8
LAYER_1
 62
     2
 10
-228.6671
 20
36.6754
  0
VERTEX
  8
LAYER_1
 62
     2
 10
-228.5771
 20
36.757
  0
VERTEX
  8
LAYER_1
 62
     2
 10
-228.4757
 20
36.8154
  0
VERTEX
  8
LAYER_1
 62
     2
 10
-228.3629
 20
36.8503
  0
VERTEX
  8
LAYER_1
 62
     2
 10
-228.2387
 20
36.862
  0
VERTEX
  8
LAYER_1
 62
     2
 10
-228.0088
 20
36.8194
  0
VERTEX
  8
LAYER_1
 62
     2
 10
-227.8256
 20
36.6915
  0
VERTEX
  8
LAYER_1
 62
     2
 10
-227.8256
 20
37.3685
  0
VERTEX
  8
LAYER_1
 62
     2
 10
-227.2778
 20
37.3683
  0
SEQEND
  8
LAYER_1
 62
     2
  0
POLYLINE
  8
LAYER_1
 62
     2
 66
     1
 70
     1
  0
VERTEX
  8
LAYER_1
 62
     2
 10
-227.8215
 20
36.1263
  0
VERTEX
  8
LAYER_1
 62
     2
 10
-227.8921
 20
36.3748
  0
VERTEX
  8
LAYER_1
 62
     2
 10
-228.0707
 20
36.4568
  0
VERTEX
  8
LAYER_1
 62
     2
 10
-228.2293
 20
36.3782
  0
VERTEX
  8
LAYER_1
 62
     2
 10
-228.2933
 20
36.1143
  0
VERTEX
  8
LAYER_1
 62
     2
 10
-228.2273
 20
35.8604
  0
VERTEX
  8
LAYER_1
 62
     2
 10
-228.0641
 20
35.7798
  0
VERTEX
  8
LAYER_1
 62
     2
 10
-227.8909
 20
35.8611
  0
VERTEX
  8
LAYER_1
 62
     2
 10
-227.8216
 20
36.1263
  0
VERTEX
  8
LAYER_1
 62
     2
 10
-227.8215
 20
36.1263
  0
SEQEND
  8
LAYER_1
 62
     2
  0
POLYLINE
  8
LAYER_1
 62
     2
 66
     1
 70
     1
  0
VERTEX
  8
LAYER_1
 62
     2
 10
-226.9433
 20
35.9584
  0
VERTEX
  8
LAYER_1
 62
     2
 10
-226.3636
 20
35.9584
  0
VERTEX
  8
LAYER_1
 62
     2
 10
-226.3636
 20
35.4147
  0
VERTEX
  8
LAYER_1
 62
     2
 10
-226.9433
 20
35.4147
  0
VERTEX
  8
LAYER_1
 62
     2
 10
-226.9433
 20
35.9584
  0
SEQEND
  8
LAYER_1
 62
     2
  0
POLYLINE
  8
LAYER_1
 62
     2
 66
     1
 70
     1
  0
VERTEX
  8
LAYER_1
 62
     2
 10
-224.9777
 20
35.9677
  0
VERTEX
  8
LAYER_1
 62
     2
 10
-224.462
 20
35.9091
  0
VERTEX
  8
LAYER_1
 62
     2
 10
-224.6019
 20
35.6299
  0
VERTEX
  8
LAYER_1
 62
     2
 10
-224.8504
 20
35.4467
  0
VERTEX
  8
LAYER_1
 62
     2
 10
-225.2349
 20
35.3814
  0
VERTEX
  8
LAYER_1
 62
     2
 10
-225.61
 20
35.4234
  0
VERTEX
  8
LAYER_1
 62
     2
 10
-225.8679
 20
35.5593
  0
VERTEX
  8
LAYER_1
 62
     2
 10
-226.0371
 20
35.7798
  0
VERTEX
  8
LAYER_1
 62
     2
 10
-226.0984
 20
36.1156
  0
VERTEX
  8
LAYER_1
 62
     2
 10
-226.0238
 20
36.4794
  0
VERTEX
  8
LAYER_1
 62
     2
 10
-225.8745
 20
36.6706
  0
VERTEX
  8
LAYER_1
 62
     2
 10
-225.6799
 20
36.7965
  0
VERTEX
  8
LAYER_1
 62
     2
 10
-225.2735
 20
36.8618
  0
VERTEX
  8
LAYER_1
 62
     2
 10
-225.1105
 20
36.8541
  0
VERTEX
  8
LAYER_1
 62
     2
 10
-224.9682
 20
36.8308
  0
VERTEX
  8
LAYER_1
 62
     2
 10
-224.8464
 20
36.7921
  0
VERTEX
  8
LAYER_1
 62
     2
 10
-224.7451
 20
36.7379
  0
VERTEX
  8
LAYER_1
 62
     2
 10
-224.6609
 20
36.6688
  0
VERTEX
  8
LAYER_1
 62
     2
 10
-224.5904
 20
36.5853
  0
VERTEX
  8
LAYER_1
 62
     2
 10
-224.5333
 20
36.4875
  0
VERTEX
  8
LAYER_1
 62
     2
 10
-224.4899
 20
36.3754
  0
VERTEX
  8
LAYER_1
 62
     2
 10
-225.0003
 20
36.3074
  0
VERTEX
  8
LAYER_1
 62
     2
 10
-225.0876
 20
36.444
  0
VERTEX
  8
LAYER_1
 62
     2
 10
-225.2575
 20
36.49
  0
VERTEX
  8
LAYER_1
 62
     2
 10
-225.4754
 20
36.3934
  0
VERTEX
  8
LAYER_1
 62
     2
 10
-225.5118
 20
36.3389
  0
VERTEX
  8
LAYER_1
 62
     2
 10
-225.5379
 20
36.272
  0
VERTEX
  8
LAYER_1
 62
     2
 10
-225.5535
 20
36.1926
  0
VERTEX
  8
LAYER_1
 62
     2
 10
-225.5587
 20
36.1009
  0
VERTEX
  8
LAYER_1
 62
     2
 10
-225.4761
 20
35.8357
  0
VERTEX
  8
LAYER_1
 62
     2
 10
-225.2655
 20
35.7451
  0
VERTEX
  8
LAYER_1
 62
     2
 10
-225.0863
 20
35.7997
  0
VERTEX
  8
LAYER_1
 62
     2
 10
-224.9777
 20
35.9676
  0
VERTEX
  8
LAYER_1
 62
     2
 10
-224.9777
 20
35.9677
  0
SEQEND
  8
LAYER_1
 62
     2
  0
POLYLINE
  8
LAYER_1
 62
     2
 66
     1
 70
     1
  0
VERTEX
  8
LAYER_1
 62
     2
 10
-224.2768
 20
36.1183
  0
VERTEX
  8
LAYER_1
 62
     2
 10
-224.2631
 20
36.2731
  0
VERTEX
  8
LAYER_1
 62
     2
 10
-224.2222
 20
36.4137
  0
VERTEX
  8
LAYER_1
 62
     2
 10
-224.1539
 20
36.54
  0
VERTEX
  8
LAYER_1
 62
     2
 10
-224.0583
 20
36.652
  0
VERTEX
  8
LAYER_1
 62
     2
 10
-223.9394
 20
36.7438
  0
VERTEX
  8
LAYER_1
 62
     2
 10
-223.8014
 20
36.8094
  0
VERTEX
  8
LAYER_1
 62
     2
 10
-223.6443
 20
36.8488
  0
VERTEX
  8
LAYER_1
 62
     2
 10
-223.468
 20
36.8619
  0
VERTEX
  8
LAYER_1
 62
     2
 10
-223.2684
 20
36.8465
  0
VERTEX
  8
LAYER_1
 62
     2
 10
-223.0949
 20
36.8003
  0
VERTEX
  8
LAYER_1
 62
     2
 10
-223.0178
 20
36.7656
  0
VERTEX
  8
LAYER_1
 62
     2
 10
-222.9473
 20
36.7232
  0
VERTEX
  8
LAYER_1
 62
     2
 10
-222.8832
 20
36.6732
  0
VERTEX
  8
LAYER_1
 62
     2
 10
-222.8257
 20
36.6154
  0
VERTEX
  8
LAYER_1
 62
     2
 10
-222.7493
 20
36.5104
  0
VERTEX
  8
LAYER_1
 62
     2
 10
-222.6948
 20
36.3938
  0
VERTEX
  8
LAYER_1
 62
     2
 10
-222.662
 20
36.2658
  0
VERTEX
  8
LAYER_1
 62
     2
 10
-222.6511
 20
36.1263
  0
VERTEX
  8
LAYER_1
 62
     2
 10
-222.6646
 20
35.9704
  0
VERTEX
  8
LAYER_1
 62
     2
 10
-222.7052
 20
35.8293
  0
VERTEX
  8
LAYER_1
 62
     2
 10
-222.7729
 20
35.7029
  0
VERTEX
  8
LAYER_1
 62
     2
 10
-222.8676
 20
35.5913
  0
VERTEX
  8
LAYER_1
 62
     2
 10
-222.9863
 20
35.5001
  0
VERTEX
  8
LAYER_1
 62
     2
 10
-223.1256
 20
35.4349
  0
VERTEX
  8
LAYER_1
 62
     2
 10
-223.2857
 20
35.3957
  0
VERTEX
  8
LAYER_1
 62
     2
 10
-223.4666
 20
35.3827
  0
VERTEX
  8
LAYER_1
 62
     2
 10
-223.629
 20
35.3935
  0
VERTEX
  8
LAYER_1
 62
     2
 10
-223.7751
 20
35.426
  0
VERTEX
  8
LAYER_1
 62
     2
 10
-223.9048
 20
35.4801
  0
VERTEX
  8
LAYER_1
 62
     2
 10
-224.0183
 20
35.5559
  0
VERTEX
  8
LAYER_1
 62
     2
 10
-224.1314
 20
35.6715
  0
VERTEX
  8
LAYER_1
 62
     2
 10
-224.2122
 20
35.8038
  0
VERTEX
  8
LAYER_1
 62
     2
 10
-224.2607
 20
35.9527
  0
VERTEX
  8
LAYER_1
 62
     2
 10
-224.2768
 20
36.1183
  0
SEQEND
  8
LAYER_1
 62
     2
  0
POLYLINE
  8
LAYER_1
 62
     2
 66
     1
 70
     1
  0
VERTEX
  8
LAYER_1
 62
     2
 10
-223.7331
 20
36.1196
  0
VERTEX
  8
LAYER_1
 62
     2
 10
-223.6565
 20
35.8398
  0
VERTEX
  8
LAYER_1
 62
     2
 10
-223.4639
 20
35.7492
  0
VERTEX
  8
LAYER_1
 62
     2
 10
-223.2713
 20
35.8385
  0
VERTEX
  8
LAYER_1
 62
     2
 10
-223.196
 20
36.125
  0
VERTEX
  8
LAYER_1
 62
     2
 10
-223.272
 20
36.3989
  0
VERTEX
  8
LAYER_1
 62
     2
 10
-223.4599
 20
36.4889
  0
VERTEX
  8
LAYER_1
 62
     2
 10
-223.6558
 20
36.3976
  0
VERTEX
  8
LAYER_1
 62
     2
 10
-223.7331
 20
36.1198
  0
VERTEX
  8
LAYER_1
 62
     2
 10
-223.7331
 20
36.1196
  0
SEQEND
  8
LAYER_1
 62
     2
  0
POLYLINE
  8
LAYER_1
 62
     2
 66
     1
 70
     1
  0
VERTEX
  8
LAYER_1
 62
     2
 10
-222.3858
 20
35.9584
  0
VERTEX
  8
LAYER_1
 62
     2
 10
-221.8061
 20
35.9584
  0
VERTEX
  8
LAYER_1
 62
     2
 10
-221.8061
 20
35.4147
  0
VERTEX
  8
LAYER_1
 62
     2
 10
-222.3858
 20
35.4147
  0
VERTEX
  8
LAYER_1
 62
     2
 10
-222.3858
 20
35.9584
  0
SEQEND
  8
LAYER_1
 62
     2
  0
POLYLINE
  8
LAYER_1
 62
     2
 66
     1
 70
     1
  0
VERTEX
  8
LAYER_1
 62
     2
 10
-219.9844
 20
35.4147
  0
VERTEX
  8
LAYER_1
 62
     2
 10
-220.4908
 20
35.4147
  0
VERTEX
  8
LAYER_1
 62
     2
 10
-220.4908
 20
35.6439
  0
VERTEX
  8
LAYER_1
 62
     2
 10
-220.7193
 20
35.4427
  0
VERTEX
  8
LAYER_1
 62
     2
 10
-221.0025
 20
35.3827
  0
VERTEX
  8
LAYER_1
 62
     2
 10
-221.1084
 20
35.3911
  0
VERTEX
  8
LAYER_1
 62
     2
 10
-221.2022
 20
35.4162
  0
VERTEX
  8
LAYER_1
 62
     2
 10
-221.284
 20
35.458
  0
VERTEX
  8
LAYER_1
 62
     2
 10
-221.3536
 20
35.5166
  0
VERTEX
  8
LAYER_1
 62
     2
 10
-221.4093
 20
35.5926
  0
VERTEX
  8
LAYER_1
 62
     2
 10
-221.4491
 20
35.6867
  0
VERTEX
  8
LAYER_1
 62
     2
 10
-221.4729
 20
35.7988
  0
VERTEX
  8
LAYER_1
 62
     2
 10
-221.4809
 20
35.929
  0
VERTEX
  8
LAYER_1
 62
     2
 10
-221.4809
 20
36.8298
  0
VERTEX
  8
LAYER_1
 62
     2
 10
-220.9359
 20
36.8298
  0
VERTEX
  8
LAYER_1
 62
     2
 10
-220.9359
 20
36.0516
  0
VERTEX
  8
LAYER_1
 62
     2
 10
-220.8866
 20
35.8624
  0
VERTEX
  8
LAYER_1
 62
     2
 10
-220.748
 20
35.8064
  0
VERTEX
  8
LAYER_1
 62
     2
 10
-220.5888
 20
35.881
  0
VERTEX
  8
LAYER_1
 62
     2
 10
-220.5268
 20
36.1489
  0
VERTEX
  8
LAYER_1
 62
     2
 10
-220.5268
 20
36.8299
  0
VERTEX
  8
LAYER_1
 62
     2
 10
-219.9844
 20
36.8299
  0
VERTEX
  8
LAYER_1
 62
     2
 10
-219.9844
 20
35.4147
  0
SEQEND
  8
LAYER_1
 62
     2
  0
POLYLINE
  8
LAYER_1
 62
     2
 66
     1
 70
     1
  0
VERTEX
  8
LAYER_1
 62
     2
 10
-219.6526
 20
37.3683
  0
VERTEX
  8
LAYER_1
 62
     2
 10
-219.0982
 20
37.3683
  0
VERTEX
  8
LAYER_1
 62
     2
 10
-219.0982
 20
36.3608
  0
VERTEX
  8
LAYER_1
 62
     2
 10
-218.6931
 20
36.8299
  0
VERTEX
  8
LAYER_1
 62
     2
 10
-218.0255
 20
36.8299
  0
VERTEX
  8
LAYER_1
 62
     2
 10
-218.5332
 20
36.3342
  0
VERTEX
  8
LAYER_1
 62
     2
 10
-217.9962
 20
35.4147
  0
VERTEX
  8
LAYER_1
 62
     2
 10
-218.6079
 20
35.4147
  0
VERTEX
  8
LAYER_1
 62
     2
 10
-218.8944
 20
35.9824
  0
VERTEX
  8
LAYER_1
 62
     2
 10
-219.0983
 20
35.7825
  0
VERTEX
  8
LAYER_1
 62
     2
 10
-219.0983
 20
35.4147
  0
VERTEX
  8
LAYER_1
 62
     2
 10
-219.6527
 20
35.4147
  0
VERTEX
  8
LAYER_1
 62
     2
 10
-219.6526
 20
37.3683
  0
SEQEND
  8
LAYER_1
 62
     2
  0
POLYLINE
  8
LAYER_1
 62
     2
 66
     1
 70
     1
  0
VERTEX
  8
LAYER_1
 62
     2
 10
-266.0284
 20
58.202
  0
VERTEX
  8
LAYER_1
 62
     2
 10
-266.1854
 20
58.1441
  0
VERTEX
  8
LAYER_1
 62
     2
 10
-268.7486
 20
56.5814
  0
VERTEX
  8
LAYER_1
 62
     2
 10
-268.8266
 20
56.5175
  0
VERTEX
  8
LAYER_1
 62
     2
 10
-268.8852
 20
56.4373
  0
VERTEX
  8
LAYER_1
 62
     2
 10
-268.9221
 20
56.3451
  0
VERTEX
  8
LAYER_1
 62
     2
 10
-268.9349
 20
56.245
  0
VERTEX
  8
LAYER_1
 62
     2
 10
-268.9215
 20
56.1425
  0
VERTEX
  8
LAYER_1
 62
     2
 10
-268.8828
 20
56.0485
  0
VERTEX
  8
LAYER_1
 62
     2
 10
-268.8216
 20
55.9673
  0
VERTEX
  8
LAYER_1
 62
     2
 10
-268.7403
 20
55.9035
  0
VERTEX
  8
LAYER_1
 62
     2
 10
-266.1771
 20
54.4235
  0
VERTEX
  8
LAYER_1
 62
     2
 10
-265.9788
 20
54.3703
  0
VERTEX
  8
LAYER_1
 62
     2
 10
-265.8995
 20
54.3782
  0
VERTEX
  8
LAYER_1
 62
     2
 10
-265.8255
 20
54.401
  0
VERTEX
  8
LAYER_1
 62
     2
 10
-265.7584
 20
54.4371
  0
VERTEX
  8
LAYER_1
 62
     2
 10
-265.6999
 20
54.4849
  0
VERTEX
  8
LAYER_1
 62
     2
 10
-265.6514
 20
54.5429
  0
VERTEX
  8
LAYER_1
 62
     2
 10
-265.6145
 20
54.6095
  0
VERTEX
  8
LAYER_1
 62
     2
 10
-265.5909
 20
54.6833
  0
VERTEX
  8
LAYER_1
 62
     2
 10
-265.582
 20
54.7625
  0
VERTEX
  8
LAYER_1
 62
     2
 10
-265.582
 20
55.4984
  0
VERTEX
  8
LAYER_1
 62
     2
 10
-264.6727
 20
55.1547
  0
VERTEX
  8
LAYER_1
 62
     2
 10
-263.841
 20
54.6757
  0
VERTEX
  8
LAYER_1
 62
     2
 10
-263.1002
 20
54.0748
  0
VERTEX
  8
LAYER_1
 62
     2
 10
-262.4639
 20
53.3655
  0
VERTEX
  8
LAYER_1
 62
     2
 10
-261.9456
 20
52.561
  0
VERTEX
  8
LAYER_1
 62
     2
 10
-261.5586
 20
51.6748
  0
VERTEX
  8
LAYER_1
 62
     2
 10
-261.3166
 20
50.7202
  0
VERTEX
  8
LAYER_1
 62
     2
 10
-261.2329
 20
49.7106
  0
VERTEX
  8
LAYER_1
 62
     2
 10
-261.246
 20
49.3151
  0
VERTEX
  8
LAYER_1
 62
     2
 10
-261.2851
 20
48.9228
  0
VERTEX
  8
LAYER_1
 62
     2
 10
-261.3498
 20
48.535
  0
VERTEX
  8
LAYER_1
 62
     2
 10
-261.4397
 20
48.1526
  0
VERTEX
  8
LAYER_1
 62
     2
 10
-261.5543
 20
47.7769
  0
VERTEX
  8
LAYER_1
 62
     2
 10
-261.6934
 20
47.409
  0
VERTEX
  8
LAYER_1
 62
     2
 10
-261.8565
 20
47.05
  0
VERTEX
  8
LAYER_1
 62
     2
 10
-262.0432
 20
46.701
  0
VERTEX
  8
LAYER_1
 62
     2
 10
-262.1314
 20
46.3702
  0
VERTEX
  8
LAYER_1
 62
     2
 10
-262.1179
 20
46.2366
  0
VERTEX
  8
LAYER_1
 62
     2
 10
-262.0793
 20
46.1122
  0
VERTEX
  8
LAYER_1
 62
     2
 10
-262.0182
 20
45.9995
  0
VERTEX
  8
LAYER_1
 62
     2
 10
-261.9372
 20
45.9014
  0
VERTEX
  8
LAYER_1
 62
     2
 10
-261.8391
 20
45.8204
  0
VERTEX
  8
LAYER_1
 62
     2
 10
-261.7264
 20
45.7593
  0
VERTEX
  8
LAYER_1
 62
     2
 10
-261.602
 20
45.7207
  0
VERTEX
  8
LAYER_1
 62
     2
 10
-261.4684
 20
45.7072
  0
VERTEX
  8
LAYER_1
 62
     2
 10
-261.3805
 20
45.713
  0
VERTEX
  8
LAYER_1
 62
     2
 10
-261.2952
 20
45.7302
  0
VERTEX
  8
LAYER_1
 62
     2
 10
-261.2136
 20
45.7582
  0
VERTEX
  8
LAYER_1
 62
     2
 10
-261.1366
 20
45.7963
  0
VERTEX
  8
LAYER_1
 62
     2
 10
-261.0651
 20
45.8441
  0
VERTEX
  8
LAYER_1
 62
     2
 10
-261.0001
 20
45.9009
  0
VERTEX
  8
LAYER_1
 62
     2
 10
-260.9427
 20
45.9662
  0
VERTEX
  8
LAYER_1
 62
     2
 10
-260.8938
 20
46.0395
  0
VERTEX
  8
LAYER_1
 62
     2
 10
-260.6663
 20
46.4651
  0
VERTEX
  8
LAYER_1
 62
     2
 10
-260.4679
 20
46.9031
  0
VERTEX
  8
LAYER_1
 62
     2
 10
-260.299
 20
47.3519
  0
VERTEX
  8
LAYER_1
 62
     2
 10
-260.1599
 20
47.8103
  0
VERTEX
  8
LAYER_1
 62
     2
 10
-260.0511
 20
48.2767
  0
VERTEX
  8
LAYER_1
 62
     2
 10
-259.9729
 20
48.7499
  0
VERTEX
  8
LAYER_1
 62
     2
 10
-259.9257
 20
49.2283
  0
VERTEX
  8
LAYER_1
 62
     2
 10
-259.9099
 20
49.7106
  0
VERTEX
  8
LAYER_1
 62
     2
 10
-260.0205
 20
50.9841
  0
VERTEX
  8
LAYER_1
 62
     2
 10
-260.3397
 20
52.1866
  0
VERTEX
  8
LAYER_1
 62
     2
 10
-260.8487
 20
53.2993
  0
VERTEX
  8
LAYER_1
 62
     2
 10
-261.5287
 20
54.3036
  0
VERTEX
  8
LAYER_1
 62
     2
 10
-262.3609
 20
55.1808
  0
VERTEX
  8
LAYER_1
 62
     2
 10
-263.3263
 20
55.9122
  0
VERTEX
  8
LAYER_1
 62
     2
 10
-264.4063
 20
56.479
  0
VERTEX
  8
LAYER_1
 62
     2
 10
-265.5819
 20
56.8626
  0
VERTEX
  8
LAYER_1
 62
     2
 10
-265.5819
 20
57.8052
  0
VERTEX
  8
LAYER_1
 62
     2
 10
-265.5819
 20
57.8082
  0
VERTEX
  8
LAYER_1
 62
     2
 10
-265.59
 20
57.8882
  0
VERTEX
  8
LAYER_1
 62
     2
 10
-265.6131
 20
57.9627
  0
VERTEX
  8
LAYER_1
 62
     2
 10
-265.6497
 20
58.0301
  0
VERTEX
  8
LAYER_1
 62
     2
 10
-265.6982
 20
58.0889
  0
VERTEX
  8
LAYER_1
 62
     2
 10
-265.7569
 20
58.1373
  0
VERTEX
  8
LAYER_1
 62
     2
 10
-265.8243
 20
58.1739
  0
VERTEX
  8
LAYER_1
 62
     2
 10
-265.8988
 20
58.197
  0
VERTEX
  8
LAYER_1
 62
     2
 10
-265.9788
 20
58.2051
  0
VERTEX
  8
LAYER_1
 62
     2
 10
-266.0284
 20
58.202
  0
SEQEND
  8
LAYER_1
 62
     2
  0
POLYLINE
  8
LAYER_1
 62
     2
 66
     1
 70
     1
  0
VERTEX
  8
LAYER_1
 62
     2
 10
-272.6596
 20
53.332
  0
VERTEX
  8
LAYER_1
 62
     2
 10
-272.8184
 20
53.298
  0
VERTEX
  8
LAYER_1
 62
     2
 10
-272.9623
 20
53.2275
  0
VERTEX
  8
LAYER_1
 62
     2
 10
-273.0849
 20
53.1246
  0
VERTEX
  8
LAYER_1
 62
     2
 10
-273.1804
 20
52.9931
  0
VERTEX
  8
LAYER_1
 62
     2
 10
-273.4079
 20
52.5671
  0
VERTEX
  8
LAYER_1
 62
     2
 10
-273.6063
 20
52.1283
  0
VERTEX
  8
LAYER_1
 62
     2
 10
-273.7752
 20
51.6781
  0
VERTEX
  8
LAYER_1
 62
     2
 10
-273.9143
 20
51.2182
  0
VERTEX
  8
LAYER_1
 62
     2
 10
-274.0231
 20
50.7503
  0
VERTEX
  8
LAYER_1
 62
     2
 10
-274.1013
 20
50.2758
  0
VERTEX
  8
LAYER_1
 62
     2
 10
-274.1485
 20
49.7964
  0
VERTEX
  8
LAYER_1
 62
     2
 10
-274.1643
 20
49.3137
  0
VERTEX
  8
LAYER_1
 62
     2
 10
-274.0537
 20
48.0402
  0
VERTEX
  8
LAYER_1
 62
     2
 10
-273.7345
 20
46.8377
  0
VERTEX
  8
LAYER_1
 62
     2
 10
-273.2255
 20
45.725
  0
VERTEX
  8
LAYER_1
 62
     2
 10
-272.5455
 20
44.7207
  0
VERTEX
  8
LAYER_1
 62
     2
 10
-271.7133
 20
43.8435
  0
VERTEX
  8
LAYER_1
 62
     2
 10
-270.7479
 20
43.1121
  0
VERTEX
  8
LAYER_1
 62
     2
 10
-269.6679
 20
42.5453
  0
VERTEX
  8
LAYER_1
 62
     2
 10
-268.4923
 20
42.1617
  0
VERTEX
  8
LAYER_1
 62
     2
 10
-268.4923
 20
41.2274
  0
VERTEX
  8
LAYER_1
 62
     2
 10
-268.4923
 20
41.2239
  0
VERTEX
  8
LAYER_1
 62
     2
 10
-268.4842
 20
41.1439
  0
VERTEX
  8
LAYER_1
 62
     2
 10
-268.4611
 20
41.0694
  0
VERTEX
  8
LAYER_1
 62
     2
 10
-268.4245
 20
41.002
  0
VERTEX
  8
LAYER_1
 62
     2
 10
-268.3761
 20
40.9433
  0
VERTEX
  8
LAYER_1
 62
     2
 10
-268.3173
 20
40.8948
  0
VERTEX
  8
LAYER_1
 62
     2
 10
-268.2499
 20
40.8582
  0
VERTEX
  8
LAYER_1
 62
     2
 10
-268.1754
 20
40.8351
  0
VERTEX
  8
LAYER_1
 62
     2
 10
-268.0954
 20
40.827
  0
VERTEX
  8
LAYER_1
 62
     2
 10
-267.897
 20
40.8802
  0
VERTEX
  8
LAYER_1
 62
     2
 10
-265.3338
 20
42.3685
  0
VERTEX
  8
LAYER_1
 62
     2
 10
-265.2526
 20
42.4323
  0
VERTEX
  8
LAYER_1
 62
     2
 10
-265.1913
 20
42.5134
  0
VERTEX
  8
LAYER_1
 62
     2
 10
-265.1527
 20
42.6075
  0
VERTEX
  8
LAYER_1
 62
     2
 10
-265.1392
 20
42.7099
  0
VERTEX
  8
LAYER_1
 62
     2
 10
-265.152
 20
42.81
  0
VERTEX
  8
LAYER_1
 62
     2
 10
-265.1889
 20
42.9022
  0
VERTEX
  8
LAYER_1
 62
     2
 10
-265.2476
 20
42.9824
  0
VERTEX
  8
LAYER_1
 62
     2
 10
-265.3256
 20
43.0464
  0
VERTEX
  8
LAYER_1
 62
     2
 10
-267.8887
 20
44.6091
  0
VERTEX
  8
LAYER_1
 62
     2
 10
-267.9661
 20
44.5982
  0
VERTEX
  8
LAYER_1
 62
     2
 10
-268.0378
 20
44.5733
  0
VERTEX
  8
LAYER_1
 62
     2
 10
-268.1024
 20
44.5358
  0
VERTEX
  8
LAYER_1
 62
     2
 10
-268.1585
 20
44.4872
  0
VERTEX
  8
LAYER_1
 62
     2
 10
-268.2047
 20
44.4291
  0
VERTEX
  8
LAYER_1
 62
     2
 10
-268.2395
 20
44.363
  0
VERTEX
  8
LAYER_1
 62
     2
 10
-268.2614
 20
44.2902
  0
VERTEX
  8
LAYER_1
 62
     2
 10
-268.269
 20
44.2125
  0
VERTEX
  8
LAYER_1
 62
     2
 10
-268.269
 20
44.2122
  0
VERTEX
  8
LAYER_1
 62
     2
 10
-268.269
 20
43.4681
  0
VERTEX
  8
LAYER_1
 62
     2
 10
-269.1778
 20
43.8122
  0
VERTEX
  8
LAYER_1
 62
     2
 10
-270.0094
 20
44.2914
  0
VERTEX
  8
LAYER_1
 62
     2
 10
-270.7501
 20
44.8924
  0
VERTEX
  8
LAYER_1
 62
     2
 10
-271.3865
 20
45.6018
  0
VERTEX
  8
LAYER_1
 62
     2
 10
-271.905
 20
46.4062
  0
VERTEX
  8
LAYER_1
 62
     2
 10
-272.2922
 20
47.2923
  0
VERTEX
  8
LAYER_1
 62
     2
 10
-272.5344
 20
48.2467
  0
VERTEX
  8
LAYER_1
 62
     2
 10
-272.6181
 20
49.2559
  0
VERTEX
  8
LAYER_1
 62
     2
 10
-272.605
 20
49.6518
  0
VERTEX
  8
LAYER_1
 62
     2
 10
-272.5659
 20
50.045
  0
VERTEX
  8
LAYER_1
 62
     2
 10
-272.5012
 20
50.4341
  0
VERTEX
  8
LAYER_1
 62
     2
 10
-272.4113
 20
50.818
  0
VERTEX
  8
LAYER_1
 62
     2
 10
-272.2967
 20
51.1953
  0
VERTEX
  8
LAYER_1
 62
     2
 10
-272.1576
 20
51.5645
  0
VERTEX
  8
LAYER_1
 62
     2
 10
-271.9945
 20
51.9245
  0
VERTEX
  8
LAYER_1
 62
     2
 10
-271.8078
 20
52.2738
  0
VERTEX
  8
LAYER_1
 62
     2
 10
-271.8409
 20
52.2745
  0
VERTEX
  8
LAYER_1
 62
     2
 10
-271.874
 20
52.2737
  0
VERTEX
  8
LAYER_1
 62
     2
 10
-272.6596
 20
53.332
  0
SEQEND
  8
LAYER_1
 62
     2
  0
POLYLINE
  8
LAYER_1
 66
     1
  0
VERTEX
  8
LAYER_1
 10
-98.7649
 20
132.8631
  0
VERTEX
  8
LAYER_1
 10
-55.4394
 20
132.8631
  0
SEQEND
  8
LAYER_1
  0
POLYLINE
  8
LAYER_1
 66
     1
 70
     1
  0
VERTEX
  8
LAYER_1
 10
-46.7444
 20
102.2433
  0
VERTEX
  8
LAYER_1
 10
-46.9349
 20
100.3539
  0
VERTEX
  8
LAYER_1
 10
-47.4811
 20
98.5941
  0
VERTEX
  8
LAYER_1
 10
-48.3455
 20
97.0016
  0
VERTEX
  8
LAYER_1
 10
-49.4903
 20
95.6142
  0
VERTEX
  8
LAYER_1
 10
-50.8777
 20
94.4694
  0
VERTEX
  8
LAYER_1
 10
-52.4702
 20
93.605
  0
VERTEX
  8
LAYER_1
 10
-54.23
 20
93.0588
  0
VERTEX
  8
LAYER_1
 10
-56.1194
 20
92.8683
  0
VERTEX
  8
LAYER_1
 10
-58.0088
 20
93.0588
  0
VERTEX
  8
LAYER_1
 10
-59.7686
 20
93.605
  0
VERTEX
  8
LAYER_1
 10
-61.3611
 20
94.4694
  0
VERTEX
  8
LAYER_1
 10
-62.7485
 20
95.6142
  0
VERTEX
  8
LAYER_1
 10
-63.8933
 20
97.0016
  0
VERTEX
  8
LAYER_1
 10
-64.7577
 20
98.5941
  0
VERTEX
  8
LAYER_1
 10
-65.3039
 20
100.3539
  0
VERTEX
  8
LAYER_1
 10
-65.4944
 20
102.2433
  0
VERTEX
  8
LAYER_1
 10
-65.3039
 20
104.1327
  0
VERTEX
  8
LAYER_1
 10
-64.7577
 20
105.8925
  0
VERTEX
  8
LAYER_1
 10
-63.8933
 20
107.485
  0
VERTEX
  8
LAYER_1
 10
-62.7485
 20
108.8724
  0
VERTEX
  8
LAYER_1
 10
-61.3611
 20
110.0172
  0
VERTEX
  8
LAYER_1
 10
-59.7686
 20
110.8816
  0
VERTEX
  8
LAYER_1
 10
-58.0088
 20
111.4278
  0
VERTEX
  8
LAYER_1
 10
-56.1194
 20
111.6183
  0
VERTEX
  8
LAYER_1
 10
-54.23
 20
111.4278
  0
VERTEX
  8
LAYER_1
 10
-52.4702
 20
110.8816
  0
VERTEX
  8
LAYER_1
 10
-50.8777
 20
110.0172
  0
VERTEX
  8
LAYER_1
 10
-49.4903
 20
108.8724
  0
VERTEX
  8
LAYER_1
 10
-48.3455
 20
107.485
  0
VERTEX
  8
LAYER_1
 10
-47.4811
 20
105.8925
  0
VERTEX
  8
LAYER_1
 10
-46.9349
 20
104.1327
  0
VERTEX
  8
LAYER_1
 10
-46.7444
 20
102.2433
  0
SEQEND
  8
LAYER_1
  0
POLYLINE
  8
LAYER_1
 66
     1
  0
VERTEX
  8
LAYER_1
 10
-63.1563
 20
91.9699
  0
VERTEX
  8
LAYER_1
 10
-62.3901
 20
91.209
  0
VERTEX
  8
LAYER_1
 10
-61.5544
 20
90.5211
  0
VERTEX
  8
LAYER_1
 10
-60.6557
 20
89.912
  0
VERTEX
  8
LAYER_1
 10
-59.7003
 20
89.3876
  0
VERTEX
  8
LAYER_1
 10
-58.6947
 20
88.9536
  0
VERTEX
  8
LAYER_1
 10
-57.6451
 20
88.6159
  0
VERTEX
  8
LAYER_1
 10
-56.558
 20
88.3803
  0
VERTEX
  8
LAYER_1
 10
-55.4397
 20
88.2525
  0
VERTEX
  8
LAYER_1
 10
-52.9558
 20
88.3599
  0
VERTEX
  8
LAYER_1
 10
-50.6167
 20
88.9676
  0
VERTEX
  8
LAYER_1
 10
-48.474
 20
90.0197
  0
VERTEX
  8
LAYER_1
 10
-46.5792
 20
91.4604
  0
VERTEX
  8
LAYER_1
 10
-44.9836
 20
93.2337
  0
VERTEX
  8
LAYER_1
 10
-43.7388
 20
95.2837
  0
VERTEX
  8
LAYER_1
 10
-42.8962
 20
97.5545
  0
VERTEX
  8
LAYER_1
 10
-42.5073
 20
99.9902
  0
VERTEX
  8
LAYER_1
 10
-42.6397
 20
102.7041
  0
VERTEX
  8
LAYER_1
 10
-43.3181
 20
105.2584
  0
VERTEX
  8
LAYER_1
 10
-44.4815
 20
107.5966
  0
VERTEX
  8
LAYER_1
 10
-46.0689
 20
109.6625
  0
VERTEX
  8
LAYER_1
 10
-48.0193
 20
111.3996
  0
VERTEX
  8
LAYER_1
 10
-50.272
 20
112.7518
  0
VERTEX
  8
LAYER_1
 10
-52.7657
 20
113.6625
  0
VERTEX
  8
LAYER_1
 10
-55.4397
 20
114.0755
  0
VERTEX
  8
LAYER_1
 10
-58.3924
 20
113.9186
  0
VERTEX
  8
LAYER_1
 10
-61.1701
 20
113.1718
  0
VERTEX
  8
LAYER_1
 10
-63.7115
 20
111.9009
  0
VERTEX
  8
LAYER_1
 10
-65.9551
 20
110.1719
  0
VERTEX
  8
LAYER_1
 10
-67.8395
 20
108.0505
  0
VERTEX
  8
LAYER_1
 10
-69.3033
 20
105.6025
  0
VERTEX
  8
LAYER_1
 10
-70.2851
 20
102.8938
  0
VERTEX
  8
LAYER_1
 10
-70.7234
 20
99.9902
  0
VERTEX
  8
LAYER_1
 10
-70.5415
 20
96.8083
  0
VERTEX
  8
LAYER_1
 10
-69.7239
 20
93.8161
  0
VERTEX
  8
LAYER_1
 10
-68.3415
 20
91.0797
  0
VERTEX
  8
LAYER_1
 10
-66.4653
 20
88.6656
  0
VERTEX
  8
LAYER_1
 10
-64.166
 20
86.64
  0
VERTEX
  8
LAYER_1
 10
-61.5147
 20
85.0692
  0
VERTEX
  8
LAYER_1
 10
-58.5823
 20
84.0196
  0
VERTEX
  8
LAYER_1
 10
-55.4397
 20
83.5574
  0
VERTEX
  8
LAYER_1
 10
-52.0183
 20
83.7635
  0
VERTEX
  8
LAYER_1
 10
-48.8018
 20
84.6493
  0
VERTEX
  8
LAYER_1
 10
-45.8616
 20
86.1388
  0
VERTEX
  8
LAYER_1
 10
-43.2691
 20
88.1563
  0
VERTEX
  8
LAYER_1
 10
-41.0958
 20
90.6259
  0
VERTEX
  8
LAYER_1
 10
-39.413
 20
93.472
  0
VERTEX
  8
LAYER_1
 10
-38.2921
 20
96.6187
  0
VERTEX
  8
LAYER_1
 10
-37.8046
 20
99.9902
  0
VERTEX
  8
LAYER_1
 10
-38.0357
 20
103.6401
  0
VERTEX
  8
LAYER_1
 10
-38.9924
 20
107.0704
  0
VERTEX
  8
LAYER_1
 10
-40.5938
 20
110.205
  0
VERTEX
  8
LAYER_1
 10
-42.759
 20
112.9674
  0
VERTEX
  8
LAYER_1
 10
-45.4071
 20
115.2815
  0
VERTEX
  8
LAYER_1
 10
-48.4572
 20
117.0709
  0
VERTEX
  8
LAYER_1
 10
-51.8284
 20
118.2593
  0
VERTEX
  8
LAYER_1
 10
-55.4397
 20
118.7705
  0
VERTEX
  8
LAYER_1
 10
-59.3299
 20
118.5153
  0
VERTEX
  8
LAYER_1
 10
-62.9852
 20
117.4908
  0
VERTEX
  8
LAYER_1
 10
-66.3242
 20
115.7826
  0
VERTEX
  8
LAYER_1
 10
-69.2656
 20
113.4767
  0
VERTEX
  8
LAYER_1
 10
-71.7279
 20
110.6586
  0
VERTEX
  8
LAYER_1
 10
-73.6297
 20
107.4144
  0
VERTEX
  8
LAYER_1
 10
-74.8896
 20
103.8296
  0
VERTEX
  8
LAYER_1
 10
-75.4261
 20
99.9902
  0
VERTEX
  8
LAYER_1
 10
-75.146
 20
95.8723
  0
VERTEX
  8
LAYER_1
 10
-74.0503
 20
92.0039
  0
VERTEX
  8
LAYER_1
 10
-72.2299
 20
88.4711
  0
VERTEX
  8
LAYER_1
 10
-69.7757
 20
85.3602
  0
VERTEX
  8
LAYER_1
 10
-66.7786
 20
82.7577
  0
VERTEX
  8
LAYER_1
 10
-63.3296
 20
80.7496
  0
VERTEX
  8
LAYER_1
 10
-59.5197
 20
79.4224
  0
VERTEX
  8
LAYER_1
 10
-55.4397
 20
78.8623
  0
VERTEX
  8
LAYER_1
 10
-51.0808
 20
79.1663
  0
VERTEX
  8
LAYER_1
 10
-46.9867
 20
80.3297
  0
VERTEX
  8
LAYER_1
 10
-43.2487
 20
82.2565
  0
VERTEX
  8
LAYER_1
 10
-39.9583
 20
84.851
  0
VERTEX
  8
LAYER_1
 10
-37.207
 20
88.0174
  0
VERTEX
  8
LAYER_1
 10
-35.0862
 20
91.6599
  0
VERTEX
  8
LAYER_1
 10
-33.6874
 20
95.6828
  0
VERTEX
  8
LAYER_1
 10
-33.1019
 20
99.9902
  0
VERTEX
  8
LAYER_1
 10
-33.4309
 20
104.576
  0
VERTEX
  8
LAYER_1
 10
-34.6656
 20
108.8827
  0
VERTEX
  8
LAYER_1
 10
-36.705
 20
112.8138
  0
VERTEX
  8
LAYER_1
 10
-39.4483
 20
116.273
  0
VERTEX
  8
LAYER_1
 10
-42.7943
 20
119.1641
  0
VERTEX
  8
LAYER_1
 10
-46.6421
 20
121.3908
  0
VERTEX
  8
LAYER_1
 10
-50.8909
 20
122.8567
  0
VERTEX
  8
LAYER_1
 10
-55.4396
 20
123.4656
  0
VERTEX
  8
LAYER_1
 10
-60.2673
 20
123.1128
  0
VERTEX
  8
LAYER_1
 10
-64.8003
 20
121.8107
  0
VERTEX
  8
LAYER_1
 10
-68.9372
 20
119.6652
  0
VERTEX
  8
LAYER_1
 10
-72.5766
 20
116.7822
  0
VERTEX
  8
LAYER_1
 10
-75.6169
 20
113.2673
  0
VERTEX
  8
LAYER_1
 10
-77.9567
 20
109.2265
  0
VERTEX
  8
LAYER_1
 10
-79.4944
 20
104.7655
  0
VERTEX
  8
LAYER_1
 10
-80.1287
 20
99.9902
  0
VERTEX
  8
LAYER_1
 10
-79.7509
 20
94.9363
  0
VERTEX
  8
LAYER_1
 10
-78.3773
 20
90.1915
  0
VERTEX
  8
LAYER_1
 10
-76.1188
 20
85.8621
  0
VERTEX
  8
LAYER_1
 10
-73.0866
 20
82.0544
  0
VERTEX
  8
LAYER_1
 10
-69.3915
 20
78.8747
  0
VERTEX
  8
LAYER_1
 10
-65.1447
 20
76.4294
  0
VERTEX
  8
LAYER_1
 10
-60.457
 20
74.8248
  0
VERTEX
  8
LAYER_1
 10
-55.4396
 20
74.1672
  0
VERTEX
  8
LAYER_1
 10
-50.1432
 20
74.5688
  0
VERTEX
  8
LAYER_1
 10
-45.1713
 20
76.0095
  0
VERTEX
  8
LAYER_1
 10
-40.6353
 20
78.3736
  0
VERTEX
  8
LAYER_1
 10
-36.647
 20
81.5452
  0
VERTEX
  8
LAYER_1
 10
-33.3176
 20
85.4085
  0
VERTEX
  8
LAYER_1
 10
-30.7589
 20
89.8476
  0
VERTEX
  8
LAYER_1
 10
-29.0822
 20
94.7468
  0
VERTEX
  8
LAYER_1
 10
-28.3991
 20
99.9901
  0
VERTEX
  8
LAYER_1
 10
-28.8257
 20
105.5119
  0
VERTEX
  8
LAYER_1
 10
-30.3382
 20
110.6949
  0
VERTEX
  8
LAYER_1
 10
-32.8157
 20
115.4227
  0
VERTEX
  8
LAYER_1
 10
-36.1369
 20
119.5789
  0
VERTEX
  8
LAYER_1
 10
-40.181
 20
123.0471
  0
VERTEX
  8
LAYER_1
 10
-44.8268
 20
125.711
  0
VERTEX
  8
LAYER_1
 10
-49.9533
 20
127.4543
  0
VERTEX
  8
LAYER_1
 10
-55.4395
 20
128.1606
  0
VERTEX
  8
LAYER_1
 10
-61.2047
 20
127.7104
  0
VERTEX
  8
LAYER_1
 10
-66.6155
 20
126.1309
  0
VERTEX
  8
LAYER_1
 10
-71.5504
 20
123.5482
  0
VERTEX
  8
LAYER_1
 10
-75.8879
 20
120.088
  0
VERTEX
  8
LAYER_1
 10
-79.5062
 20
115.8762
  0
VERTEX
  8
LAYER_1
 10
-82.284
 20
111.0387
  0
VERTEX
  8
LAYER_1
 10
-84.0995
 20
105.7014
  0
VERTEX
  8
LAYER_1
 10
-84.8313
 20
99.9901
  0
VERTEX
  8
LAYER_1
 10
-84.356
 20
94.0003
  0
VERTEX
  8
LAYER_1
 10
-82.7046
 20
88.3791
  0
VERTEX
  8
LAYER_1
 10
-80.0081
 20
83.253
  0
VERTEX
  8
LAYER_1
 10
-76.3978
 20
78.7483
  0
VERTEX
  8
LAYER_1
 10
-72.0047
 20
74.9915
  0
VERTEX
  8
LAYER_1
 10
-66.9599
 20
72.1089
  0
VERTEX
  8
LAYER_1
 10
-61.3945
 20
70.227
  0
VERTEX
  8
LAYER_1
 10
-55.4395
 20
69.4721
  0
VERTEX
  8
LAYER_1
 10
-49.2056
 20
69.971
  0
VERTEX
  8
LAYER_1
 10
-43.3558
 20
71.689
  0
VERTEX
  8
LAYER_1
 10
-38.0219
 20
74.4904
  0
VERTEX
  8
LAYER_1
 10
-33.3354
 20
78.2392
  0
VERTEX
  8
LAYER_1
 10
-29.428
 20
82.7994
  0
VERTEX
  8
LAYER_1
 10
-26.4313
 20
88.0353
  0
VERTEX
  8
LAYER_1
 10
-24.4769
 20
93.8108
  0
VERTEX
  8
LAYER_1
 10
-23.6964
 20
99.9901
  0
VERTEX
  8
LAYER_1
 10
-24.2204
 20
106.4479
  0
VERTEX
  8
LAYER_1
 10
-26.0107
 20
112.5073
  0
VERTEX
  8
LAYER_1
 10
-28.9261
 20
118.0318
  0
VERTEX
  8
LAYER_1
 10
-32.8255
 20
122.885
  0
VERTEX
  8
LAYER_1
 10
-37.5677
 20
126.9304
  0
VERTEX
  8
LAYER_1
 10
-43.0115
 20
130.0316
  0
VERTEX
  8
LAYER_1
 10
-49.0158
 20
132.0522
  0
VERTEX
  8
LAYER_1
 10
-55.4395
 20
132.8557
  0
VERTEX
  8
LAYER_1
 10
-62.1422
 20
132.3082
  0
VERTEX
  8
LAYER_1
 10
-68.4308
 20
130.4515
  0
VERTEX
  8
LAYER_1
 10
-74.1638
 20
127.4316
  0
VERTEX
  8
LAYER_1
 10
-79.1994
 20
123.3944
  0
VERTEX
  8
LAYER_1
 10
-83.3959
 20
118.4858
  0
VERTEX
  8
LAYER_1
 10
-86.6116
 20
112.8519
  0
VERTEX
  8
LAYER_1
 10
-88.7049
 20
106.6386
  0
VERTEX
  8
LAYER_1
 10
-89.534
 20
99.9918
  0
VERTEX
  8
LAYER_1
 10
-89.0616
 20
93.6216
  0
VERTEX
  8
LAYER_1
 10
-87.4363
 20
87.6018
  0
VERTEX
  8
LAYER_1
 10
-84.7748
 20
82.0455
  0
VERTEX
  8
LAYER_1
 10
-81.1941
 20
77.0662
  0
VERTEX
  8
LAYER_1
 10
-76.8111
 20
72.7771
  0
VERTEX
  8
LAYER_1
 10
-71.7425
 20
69.2915
  0
VERTEX
  8
LAYER_1
 10
-66.1054
 20
66.7228
  0
VERTEX
  8
LAYER_1
 10
-60.0165
 20
65.1842
  0
VERTEX
  8
LAYER_1
 10
-60.0165
 20
66.5154
  0
VERTEX
  8
LAYER_1
 10
-57.2053
 20
66.5154
  0
VERTEX
  8
LAYER_1
 10
-57.2053
 20
64.8618
  0
VERTEX
  8
LAYER_1
 10
-55.4359
 20
64.7791
  0
VERTEX
  8
LAYER_1
 10
-48.2648
 20
65.3752
  0
VERTEX
  8
LAYER_1
 10
-41.5381
 20
67.3707
  0
VERTEX
  8
LAYER_1
 10
-35.4073
 20
70.6096
  0
VERTEX
  8
LAYER_1
 10
-30.0241
 20
74.9358
  0
VERTEX
  8
LAYER_1
 10
-25.54
 20
80.1933
  0
VERTEX
  8
LAYER_1
 10
-22.1065
 20
86.2261
  0
VERTEX
  8
LAYER_1
 10
-19.8753
 20
92.8781
  0
VERTEX
  8
LAYER_1
 10
-18.9978
 20
99.9935
  0
VERTEX
  8
LAYER_1
 10
-18.9895
 20
100.9361
  0
VERTEX
  8
LAYER_1
 10
-19.7762
 20
108.1695
  0
VERTEX
  8
LAYER_1
 10
-21.9471
 20
114.9422
  0
VERTEX
  8
LAYER_1
 10
-25.3486
 20
121.1049
  0
VERTEX
  8
LAYER_1
 10
-29.827
 20
126.5084
  0
VERTEX
  8
LAYER_1
 10
-35.2286
 20
131.0036
  0
VERTEX
  8
LAYER_1
 10
-41.3998
 20
134.4414
  0
VERTEX
  8
LAYER_1
 10
-48.1867
 20
136.6725
  0
VERTEX
  8
LAYER_1
 10
-55.4359
 20
137.5478
  0
VERTEX
  8
LAYER_1
 10
-57.2053
 20
137.5478
  0
VERTEX
  8
LAYER_1
 10
-57.2053
 20
135.8115
  0
VERTEX
  8
LAYER_1
 10
-60.0165
 20
135.8115
  0
VERTEX
  8
LAYER_1
 10
-60.0165
 20
137.5478
  0
VERTEX
  8
LAYER_1
 10
-78.4795
 20
137.5478
  0
VERTEX
  8
LAYER_1
 10
-78.4795
 20
135.6709
  0
VERTEX
  8
LAYER_1
 10
-81.299
 20
135.6709
  0
VERTEX
  8
LAYER_1
 10
-81.299
 20
137.5478
  0
VERTEX
  8
LAYER_1
 10
-98.7615
 20
137.5478
  0
VERTEX
  8
LAYER_1
 10
-98.7615
 20
132.8597
  0
SEQEND
  8
LAYER_1
  0
POLYLINE
  8
LAYER_1
 66
     1
 70
     1
  0
VERTEX
  8
LAYER_1
 10
-2.4885
 20
60.0393
  0
VERTEX
  8
LAYER_1
 10
-2.4885
 20
62.8505
  0
VERTEX
  8
LAYER_1
 10
-2.4885
 20
65.6617
  0
VERTEX
  8
LAYER_1
 10
-2.7195
 20
65.7299
  0
VERTEX
  8
LAYER_1
 10
-3.3517
 20
65.9097
  0
VERTEX
  8
LAYER_1
 10
-4.2937
 20
66.164
  0
VERTEX
  8
LAYER_1
 10
-5.454
 20
66.4555
  0
VERTEX
  8
LAYER_1
 10
-6.7413
 20
66.7469
  0
VERTEX
  8
LAYER_1
 10
-8.0641
 20
67.0012
  0
VERTEX
  8
LAYER_1
 10
-9.3311
 20
67.181
  0
VERTEX
  8
LAYER_1
 10
-10.4508
 20
67.2492
  0
VERTEX
  8
LAYER_1
 10
-11.5709
 20
67.181
  0
VERTEX
  8
LAYER_1
 10
-12.8389
 20
67.0012
  0
VERTEX
  8
LAYER_1
 10
-14.163
 20
66.7469
  0
VERTEX
  8
LAYER_1
 10
-15.4518
 20
66.4555
  0
VERTEX
  8
LAYER_1
 10
-16.6136
 20
66.164
  0
VERTEX
  8
LAYER_1
 10
-17.5569
 20
65.9097
  0
VERTEX
  8
LAYER_1
 10
-18.19
 20
65.7299
  0
VERTEX
  8
LAYER_1
 10
-18.4214
 20
65.6617
  0
VERTEX
  8
LAYER_1
 10
-18.4214
 20
62.8505
  0
VERTEX
  8
LAYER_1
 10
-18.4214
 20
60.0393
  0
VERTEX
  8
LAYER_1
 10
-16.5445
 20
60.0393
  0
VERTEX
  8
LAYER_1
 10
-16.5445
 20
62.8505
  0
VERTEX
  8
LAYER_1
 10
-4.3571
 20
62.8505
  0
VERTEX
  8
LAYER_1
 10
-4.3571
 20
60.0393
  0
VERTEX
  8
LAYER_1
 10
-2.4885
 20
60.0393
  0
SEQEND
  8
LAYER_1
  0
POLYLINE
  8
LAYER_1
 66
     1
 70
     1
  0
VERTEX
  8
LAYER_1
 10
-0.5393
 20
55.9554
  0
VERTEX
  8
LAYER_1
 10
-0.6113
 20
55.2373
  0
VERTEX
  8
LAYER_1
 10
-0.8178
 20
54.5692
  0
VERTEX
  8
LAYER_1
 10
-1.1448
 20
53.9653
  0
VERTEX
  8
LAYER_1
 10
-1.5782
 20
53.4396
  0
VERTEX
  8
LAYER_1
 10
-2.1039
 20
53.0062
  0
VERTEX
  8
LAYER_1
 10
-2.7078
 20
52.6792
  0
VERTEX
  8
LAYER_1
 10
-3.3759
 20
52.4727
  0
VERTEX
  8
LAYER_1
 10
-4.094
 20
52.4007
  0
VERTEX
  8
LAYER_1
 10
-16.816
 20
52.4007
  0
VERTEX
  8
LAYER_1
 10
-17.5341
 20
52.4727
  0
VERTEX
  8
LAYER_1
 10
-18.2022
 20
52.6792
  0
VERTEX
  8
LAYER_1
 10
-18.8061
 20
53.0062
  0
VERTEX
  8
LAYER_1
 10
-19.3318
 20
53.4396
  0
VERTEX
  8
LAYER_1
 10
-19.7652
 20
53.9653
  0
VERTEX
  8
LAYER_1
 10
-20.0922
 20
54.5692
  0
VERTEX
  8
LAYER_1
 10
-20.2987
 20
55.2373
  0
VERTEX
  8
LAYER_1
 10
-20.3707
 20
55.9554
  0
VERTEX
  8
LAYER_1
 10
-20.2987
 20
56.6735
  0
VERTEX
  8
LAYER_1
 10
-20.0922
 20
57.3416
  0
VERTEX
  8
LAYER_1
 10
-19.7652
 20
57.9455
  0
VERTEX
  8
LAYER_1
 10
-19.3318
 20
58.4712
  0
VERTEX
  8
LAYER_1
 10
-18.8061
 20
58.9046
  0
VERTEX
  8
LAYER_1
 10
-18.2022
 20
59.2316
  0
VERTEX
  8
LAYER_1
 10
-17.5341
 20
59.4381
  0
VERTEX
  8
LAYER_1
 10
-16.816
 20
59.5101
  0
VERTEX
  8
LAYER_1
 10
-4.094
 20
59.5101
  0
VERTEX
  8
LAYER_1
 10
-3.3759
 20
59.4381
  0
VERTEX
  8
LAYER_1
 10
-2.7078
 20
59.2316
  0
VERTEX
  8
LAYER_1
 10
-2.1039
 20
58.9046
  0
VERTEX
  8
LAYER_1
 10
-1.5782
 20
58.4712
  0
VERTEX
  8
LAYER_1
 10
-1.1448
 20
57.9455
  0
VERTEX
  8
LAYER_1
 10
-0.8178
 20
57.3416
  0
VERTEX
  8
LAYER_1
 10
-0.6113
 20
56.6735
  0
VERTEX
  8
LAYER_1
 10
-0.5393
 20
55.9554
  0
SEQEND
  8
LAYER_1
  0
POLYLINE
  8
LAYER_1
 66
     1
 70
     1
  0
VERTEX
  8
LAYER_1
 10
-17.941
 20
55.9554
  0
VERTEX
  8
LAYER_1
 10
-17.9124
 20
55.6721
  0
VERTEX
  8
LAYER_1
 10
-17.8305
 20
55.4083
  0
VERTEX
  8
LAYER_1
 10
-17.7009
 20
55.1695
  0
VERTEX
  8
LAYER_1
 10
-17.5292
 20
54.9615
  0
VERTEX
  8
LAYER_1
 10
-17.3212
 20
54.7898
  0
VERTEX
  8
LAYER_1
 10
-17.0824
 20
54.6602
  0
VERTEX
  8
LAYER_1
 10
-16.8186
 20
54.5783
  0
VERTEX
  8
LAYER_1
 10
-16.5353
 20
54.5497
  0
VERTEX
  8
LAYER_1
 10
-16.252
 20
54.5783
  0
VERTEX
  8
LAYER_1
 10
-15.9882
 20
54.6602
  0
VERTEX
  8
LAYER_1
 10
-15.7494
 20
54.7898
  0
VERTEX
  8
LAYER_1
 10
-15.5414
 20
54.9615
  0
VERTEX
  8
LAYER_1
 10
-15.3697
 20
55.1695
  0
VERTEX
  8
LAYER_1
 10
-15.2401
 20
55.4083
  0
VERTEX
  8
LAYER_1
 10
-15.1582
 20
55.6721
  0
VERTEX
  8
LAYER_1
 10
-15.1296
 20
55.9554
  0
VERTEX
  8
LAYER_1
 10
-15.1582
 20
56.2387
  0
VERTEX
  8
LAYER_1
 10
-15.2401
 20
56.5025
  0
VERTEX
  8
LAYER_1
 10
-15.3697
 20
56.7413
  0
VERTEX
  8
LAYER_1
 10
-15.5414
 20
56.9493
  0
VERTEX
  8
LAYER_1
 10
-15.7494
 20
57.121
  0
VERTEX
  8
LAYER_1
 10
-15.9882
 20
57.2506
  0
VERTEX
  8
LAYER_1
 10
-16.252
 20
57.3325
  0
VERTEX
  8
LAYER_1
 10
-16.5353
 20
57.3611
  0
VERTEX
  8
LAYER_1
 10
-16.8186
 20
57.3325
  0
VERTEX
  8
LAYER_1
 10
-17.0824
 20
57.2506
  0
VERTEX
  8
LAYER_1
 10
-17.3212
 20
57.121
  0
VERTEX
  8
LAYER_1
 10
-17.5292
 20
56.9493
  0
VERTEX
  8
LAYER_1
 10
-17.7009
 20
56.7413
  0
VERTEX
  8
LAYER_1
 10
-17.8305
 20
56.5025
  0
VERTEX
  8
LAYER_1
 10
-17.9124
 20
56.2387
  0
VERTEX
  8
LAYER_1
 10
-17.941
 20
55.9554
  0
SEQEND
  8
LAYER_1
  0
POLYLINE
  8
LAYER_1
 66
     1
 70
     1
  0
VERTEX
  8
LAYER_1
 10
-5.7803
 20
55.9554
  0
VERTEX
  8
LAYER_1
 10
-5.7517
 20
55.6721
  0
VERTEX
  8
LAYER_1
 10
-5.6698
 20
55.4083
  0
VERTEX
  8
LAYER_1
 10
-5.5402
 20
55.1695
  0
VERTEX
  8
LAYER_1
 10
-5.3685
 20
54.9615
  0
VERTEX
  8
LAYER_1
 10
-5.1605
 20
54.7898
  0
VERTEX
  8
LAYER_1
 10
-4.9217
 20
54.6602
  0
VERTEX
  8
LAYER_1
 10
-4.6579
 20
54.5783
  0
VERTEX
  8
LAYER_1
 10
-4.3746
 20
54.5497
  0
VERTEX
  8
LAYER_1
 10
-4.0913
 20
54.5783
  0
VERTEX
  8
LAYER_1
 10
-3.8275
 20
54.6602
  0
VERTEX
  8
LAYER_1
 10
-3.5887
 20
54.7898
  0
VERTEX
  8
LAYER_1
 10
-3.3807
 20
54.9615
  0
VERTEX
  8
LAYER_1
 10
-3.209
 20
55.1695
  0
VERTEX
  8
LAYER_1
 10
-3.0794
 20
55.4083
  0
VERTEX
  8
LAYER_1
 10
-2.9975
 20
55.6721
  0
VERTEX
  8
LAYER_1
 10
-2.9689
 20
55.9554
  0
VERTEX
  8
LAYER_1
 10
-2.9975
 20
56.2387
  0
VERTEX
  8
LAYER_1
 10
-3.0794
 20
56.5025
  0
VERTEX
  8
LAYER_1
 10
-3.209
 20
56.7413
  0
VERTEX
  8
LAYER_1
 10
-3.3807
 20
56.9493
  0
VERTEX
  8
LAYER_1
 10
-3.5887
 20
57.121
  0
VERTEX
  8
LAYER_1
 10
-3.8275
 20
57.2506
  0
VERTEX
  8
LAYER_1
 10
-4.0913
 20
57.3325
  0
VERTEX
  8
LAYER_1
 10
-4.3746
 20
57.3611
  0
VERTEX
  8
LAYER_1
 10
-4.6579
 20
57.3325
  0
VERTEX
  8
LAYER_1
 10
-4.9217
 20
57.2506
  0
VERTEX
  8
LAYER_1
 10
-5.1605
 20
57.121
  0
VERTEX
  8
LAYER_1
 10
-5.3685
 20
56.9493
  0
VERTEX
  8
LAYER_1
 10
-5.5402
 20
56.7413
  0
VERTEX
  8
LAYER_1
 10
-5.6698
 20
56.5025
  0
VERTEX
  8
LAYER_1
 10
-5.7517
 20
56.2387
  0
VERTEX
  8
LAYER_1
 10
-5.7803
 20
55.9554
  0
SEQEND
  8
LAYER_1
  0
POLYLINE
  8
LAYER_1
 66
     1
 70
     1
  0
VERTEX
  8
LAYER_1
 10
8.2871
 20
127.8513
  0
VERTEX
  8
LAYER_1
 10
8.2871
 20
124.792
  0
VERTEX
  8
LAYER_1
 10
14.5875
 20
124.792
  0
VERTEX
  8
LAYER_1
 10
14.5875
 20
121.9808
  0
VERTEX
  8
LAYER_1
 10
8.2871
 20
121.9808
  0
VERTEX
  8
LAYER_1
 10
8.2871
 20
117.888
  0
VERTEX
  8
LAYER_1
 10
8.3202
 20
90.1895
  0
VERTEX
  8
LAYER_1
 10
8.3202
 20
64.7068
  0
VERTEX
  8
LAYER_1
 10
81.2956
 20
64.7068
  0
VERTEX
  8
LAYER_1
 10
81.2956
 20
90.1895
  0
VERTEX
  8
LAYER_1
 10
59.4096
 20
117.888
  0
VERTEX
  8
LAYER_1
 10
59.4096
 20
127.8512
  0
VERTEX
  8
LAYER_1
 10
18.1594
 20
127.8512
  0
VERTEX
  8
LAYER_1
 10
8.2871
 20
127.8513
  0
SEQEND
  8
LAYER_1
  0
POLYLINE
  8
LAYER_1
 66
     1
 70
     1
  0
VERTEX
  8
LAYER_1
 10
32.1244
 20
124.8913
  0
VERTEX
  8
LAYER_1
 10
46.1886
 20
124.8913
  0
VERTEX
  8
LAYER_1
 10
46.1886
 20
121.9809
  0
VERTEX
  8
LAYER_1
 10
32.1244
 20
121.9809
  0
VERTEX
  8
LAYER_1
 10
32.1244
 20
124.8913
  0
SEQEND
  8
LAYER_1
  0
POLYLINE
  8
LAYER_1
 66
     1
 70
     1
  0
VERTEX
  8
LAYER_1
 10
19.3334
 20
85.1707
  0
VERTEX
  8
LAYER_1
 10
33.3977
 20
85.1707
  0
VERTEX
  8
LAYER_1
 10
33.3977
 20
82.2686
  0
VERTEX
  8
LAYER_1
 10
19.3334
 20
82.2686
  0
VERTEX
  8
LAYER_1
 10
19.3334
 20
85.1707
  0
SEQEND
  8
LAYER_1
  0
POLYLINE
  8
LAYER_1
 66
     1
 70
     1
  0
VERTEX
  8
LAYER_1
 10
59.4013
 20
85.1707
  0
VERTEX
  8
LAYER_1
 10
77.6989
 20
85.1707
  0
VERTEX
  8
LAYER_1
 10
77.6989
 20
82.2686
  0
VERTEX
  8
LAYER_1
 10
59.4013
 20
82.2686
  0
VERTEX
  8
LAYER_1
 10
59.4013
 20
85.1707
  0
SEQEND
  8
LAYER_1
  0
POLYLINE
  8
LAYER_1
 66
     1
 70
     1
  0
VERTEX
  8
LAYER_1
 10
19.3334
 20
70.9825
  0
VERTEX
  8
LAYER_1
 10
33.3977
 20
70.9825
  0
VERTEX
  8
LAYER_1
 10
33.3977
 20
68.0721
  0
VERTEX
  8
LAYER_1
 10
19.3334
 20
68.0721
  0
VERTEX
  8
LAYER_1
 10
19.3334
 20
70.9825
  0
SEQEND
  8
LAYER_1
  0
POLYLINE
  8
LAYER_1
 66
     1
 70
     1
  0
VERTEX
  8
LAYER_1
 10
59.4013
 20
70.9825
  0
VERTEX
  8
LAYER_1
 10
77.6989
 20
70.9825
  0
VERTEX
  8
LAYER_1
 10
77.6989
 20
68.0721
  0
VERTEX
  8
LAYER_1
 10
59.4013
 20
68.0721
  0
VERTEX
  8
LAYER_1
 10
59.4013
 20
70.9825
  0
SEQEND
  8
LAYER_1
  0
POLYLINE
  8
LAYER_1
 66
     1
 70
     1
  0
VERTEX
  8
LAYER_1
 10
-84.9111
 20
52.7031
  0
VERTEX
  8
LAYER_1
 10
-81.412
 20
50.5549
  0
VERTEX
  8
LAYER_1
 10
-77.9746
 20
48.8454
  0
VERTEX
  8
LAYER_1
 10
-74.5981
 20
47.5405
  0
VERTEX
  8
LAYER_1
 10
-71.2815
 20
46.6065
  0
VERTEX
  8
LAYER_1
 10
-68.0238
 20
46.0092
  0
VERTEX
  8
LAYER_1
 10
-64.8242
 20
45.7149
  0
VERTEX
  8
LAYER_1
 10
-61.6816
 20
45.6895
  0
VERTEX
  8
LAYER_1
 10
-58.5953
 20
45.8991
  0
VERTEX
  8
LAYER_1
 10
-55.5613
 20
46.2987
  0
VERTEX
  8
LAYER_1
 10
-52.5685
 20
46.8419
  0
VERTEX
  8
LAYER_1
 10
-49.6051
 20
47.4931
  0
VERTEX
  8
LAYER_1
 10
-46.6591
 20
48.2164
  0
VERTEX
  8
LAYER_1
 10
-43.7186
 20
48.976
  0
VERTEX
  8
LAYER_1
 10
-40.7719
 20
49.7362
  0
VERTEX
  8
LAYER_1
 10
-37.807
 20
50.4612
  0
VERTEX
  8
LAYER_1
 10
-34.812
 20
51.1152
  0
VERTEX
  8
LAYER_1
 10
-34.5487
 20
51.1779
  0
VERTEX
  8
LAYER_1
 10
-34.293
 20
51.2661
  0
VERTEX
  8
LAYER_1
 10
-34.0467
 20
51.3784
  0
VERTEX
  8
LAYER_1
 10
-33.8121
 20
51.5135
  0
VERTEX
  8
LAYER_1
 10
-33.5912
 20
51.67
  0
VERTEX
  8
LAYER_1
 10
-33.3861
 20
51.8466
  0
VERTEX
  8
LAYER_1
 10
-33.1988
 20
52.042
  0
VERTEX
  8
LAYER_1
 10
-33.0316
 20
52.2548
  0
VERTEX
  8
LAYER_1
 10
-32.8174
 20
52.6164
  0
VERTEX
  8
LAYER_1
 10
-32.6623
 20
53.0063
  0
VERTEX
  8
LAYER_1
 10
-32.5665
 20
53.4156
  0
VERTEX
  8
LAYER_1
 10
-32.53
 20
53.8349
  0
VERTEX
  8
LAYER_1
 10
-32.553
 20
54.2552
  0
VERTEX
  8
LAYER_1
 10
-32.6358
 20
54.6673
  0
VERTEX
  8
LAYER_1
 10
-32.7783
 20
55.062
  0
VERTEX
  8
LAYER_1
 10
-32.9808
 20
55.4303
  0
VERTEX
  8
LAYER_1
 10
-33.2401
 20
55.761
  0
VERTEX
  8
LAYER_1
 10
-33.5474
 20
56.0469
  0
VERTEX
  8
LAYER_1
 10
-33.894
 20
56.2847
  0
VERTEX
  8
LAYER_1
 10
-34.2716
 20
56.4707
  0
VERTEX
  8
LAYER_1
 10
-34.6716
 20
56.6016
  0
VERTEX
  8
LAYER_1
 10
-35.0856
 20
56.6739
  0
VERTEX
  8
LAYER_1
 10
-35.5052
 20
56.6842
  0
VERTEX
  8
LAYER_1
 10
-35.9218
 20
56.629
  0
VERTEX
  8
LAYER_1
 10
-39.0784
 20
55.9452
  0
VERTEX
  8
LAYER_1
 10
-42.1442
 20
55.2062
  0
VERTEX
  8
LAYER_1
 10
-45.129
 20
54.4457
  0
VERTEX
  8
LAYER_1
 10
-48.0422
 20
53.6973
  0
VERTEX
  8
LAYER_1
 10
-50.8937
 20
52.9946
  0
VERTEX
  8
LAYER_1
 10
-53.6929
 20
52.371
  0
VERTEX
  8
LAYER_1
 10
-56.4495
 20
51.8603
  0
VERTEX
  8
LAYER_1
 10
-59.1732
 20
51.496
  0
VERTEX
  8
LAYER_1
 10
-61.8742
 20
51.3014
  0
VERTEX
  8
LAYER_1
 10
-64.5698
 20
51.301
  0
VERTEX
  8
LAYER_1
 10
-67.2805
 20
51.5304
  0
VERTEX
  8
LAYER_1
 10
-70.0265
 20
52.025
  0
VERTEX
  8
LAYER_1
 10
-72.8282
 20
52.8205
  0
VERTEX
  8
LAYER_1
 10
-75.7059
 20
53.9522
  0
VERTEX
  8
LAYER_1
 10
-78.6799
 20
55.4557
  0
VERTEX
  8
LAYER_1
 10
-81.7706
 20
57.3666
  0
VERTEX
  8
LAYER_1
 10
-79.1473
 20
61.2522
  0
VERTEX
  8
LAYER_1
 10
-76.3974
 20
59.5389
  0
VERTEX
  8
LAYER_1
 10
-73.8106
 20
58.2068
  0
VERTEX
  8
LAYER_1
 10
-71.3502
 20
57.2191
  0
VERTEX
  8
LAYER_1
 10
-68.9793
 20
56.5389
  0
VERTEX
  8
LAYER_1
 10
-66.6614
 20
56.1294
  0
VERTEX
  8
LAYER_1
 10
-64.3597
 20
55.9539
  0
VERTEX
  8
LAYER_1
 10
-62.0375
 20
55.9755
  0
VERTEX
  8
LAYER_1
 10
-59.6581
 20
56.1575
  0
VERTEX
  8
LAYER_1
 10
-57.1929
 20
56.4925
  0
VERTEX
  8
LAYER_1
 10
-54.6327
 20
56.9766
  0
VERTEX
  8
LAYER_1
 10
-51.9699
 20
57.5778
  0
VERTEX
  8
LAYER_1
 10
-49.1967
 20
58.2643
  0
VERTEX
  8
LAYER_1
 10
-46.3055
 20
59.0042
  0
VERTEX
  8
LAYER_1
 10
-43.2886
 20
59.7657
  0
VERTEX
  8
LAYER_1
 10
-40.1383
 20
60.5168
  0
VERTEX
  8
LAYER_1
 10
-36.847
 20
61.2257
  0
VERTEX
  8
LAYER_1
 10
-36.2934
 20
61.323
  0
VERTEX
  8
LAYER_1
 10
-35.7341
 20
61.3781
  0
VERTEX
  8
LAYER_1
 10
-35.1722
 20
61.3913
  0
VERTEX
  8
LAYER_1
 10
-34.6107
 20
61.3629
  0
VERTEX
  8
LAYER_1
 10
-34.0529
 20
61.2931
  0
VERTEX
  8
LAYER_1
 10
-33.5019
 20
61.1822
  0
VERTEX
  8
LAYER_1
 10
-32.9607
 20
61.0305
  0
VERTEX
  8
LAYER_1
 10
-32.4325
 20
60.8382
  0
VERTEX
  8
LAYER_1
 10
-31.9206
 20
60.6061
  0
VERTEX
  8
LAYER_1
 10
-31.4278
 20
60.3359
  0
VERTEX
  8
LAYER_1
 10
-30.9564
 20
60.0296
  0
VERTEX
  8
LAYER_1
 10
-30.509
 20
59.6893
  0
VERTEX
  8
LAYER_1
 10
-30.088
 20
59.3168
  0
VERTEX
  8
LAYER_1
 10
-29.6957
 20
58.9142
  0
VERTEX
  8
LAYER_1
 10
-29.3346
 20
58.4835
  0
VERTEX
  8
LAYER_1
 10
-29.0072
 20
58.0267
  0
VERTEX
  8
LAYER_1
 10
-28.7157
 20
57.5461
  0
VERTEX
  8
LAYER_1
 10
-28.4614
 20
57.0449
  0
VERTEX
  8
LAYER_1
 10
-28.2452
 20
56.5261
  0
VERTEX
  8
LAYER_1
 10
-28.068
 20
55.9926
  0
VERTEX
  8
LAYER_1
 10
-27.9307
 20
55.4475
  0
VERTEX
  8
LAYER_1
 10
-27.8341
 20
54.8938
  0
VERTEX
  8
LAYER_1
 10
-27.7791
 20
54.3344
  0
VERTEX
  8
LAYER_1
 10
-27.7666
 20
53.7725
  0
VERTEX
  8
LAYER_1
 10
-27.7972
 20
53.2112
  0
VERTEX
  8
LAYER_1
 10
-27.8701
 20
52.6539
  0
VERTEX
  8
LAYER_1
 10
-27.9845
 20
52.1036
  0
VERTEX
  8
LAYER_1
 10
-28.1394
 20
51.5632
  0
VERTEX
  8
LAYER_1
 10
-28.3337
 20
51.0357
  0
VERTEX
  8
LAYER_1
 10
-28.5665
 20
50.5241
  0
VERTEX
  8
LAYER_1
 10
-28.8368
 20
50.0313
  0
VERTEX
  8
LAYER_1
 10
-29.1437
 20
49.5604
  0
VERTEX
  8
LAYER_1
 10
-29.589
 20
48.9928
  0
VERTEX
  8
LAYER_1
 10
-30.0876
 20
48.4717
  0
VERTEX
  8
LAYER_1
 10
-30.6339
 20
48.0005
  0
VERTEX
  8
LAYER_1
 10
-31.2224
 20
47.5828
  0
VERTEX
  8
LAYER_1
 10
-31.8475
 20
47.2222
  0
VERTEX
  8
LAYER_1
 10
-32.5036
 20
46.9222
  0
VERTEX
  8
LAYER_1
 10
-33.1852
 20
46.6864
  0
VERTEX
  8
LAYER_1
 10
-33.8868
 20
46.5184
  0
VERTEX
  8
LAYER_1
 10
-36.7473
 20
45.8896
  0
VERTEX
  8
LAYER_1
 10
-39.6286
 20
45.1773
  0
VERTEX
  8
LAYER_1
 10
-42.5443
 20
44.4188
  0
VERTEX
  8
LAYER_1
 10
-45.508
 20
43.6515
  0
VERTEX
  8
LAYER_1
 10
-48.5335
 20
42.9128
  0
VERTEX
  8
LAYER_1
 10
-51.6345
 20
42.2401
  0
VERTEX
  8
LAYER_1
 10
-54.8245
 20
41.6707
  0
VERTEX
  8
LAYER_1
 10
-58.1173
 20
41.2421
  0
VERTEX
  8
LAYER_1
 10
-61.5249
 20
41.0197
  0
VERTEX
  8
LAYER_1
 10
-65.0401
 20
41.0658
  0
VERTEX
  8
LAYER_1
 10
-68.6476
 20
41.4133
  0
VERTEX
  8
LAYER_1
 10
-72.3321
 20
42.0949
  0
VERTEX
  8
LAYER_1
 10
-76.0784
 20
43.1433
  0
VERTEX
  8
LAYER_1
 10
-79.871
 20
44.5913
  0
VERTEX
  8
LAYER_1
 10
-83.6948
 20
46.4718
  0
VERTEX
  8
LAYER_1
 10
-87.5344
 20
48.8174
  0
VERTEX
  8
LAYER_1
 10
-84.9111
 20
52.7031
  0
SEQEND
  8
LAYER_1
  0
POLYLINE
  8
LAYER_1
 66
     1
  0
VERTEX
  8
LAYER_1
 10
47.0322
 20
3.7739
  0
VERTEX
  8
LAYER_1
 10
47.0322
 20
5.6508
  0
VERTEX
  8
LAYER_1
 10
49.8517
 20
5.6508
  0
VERTEX
  8
LAYER_1
 10
49.8517
 20
3.7739
  0
SEQEND
  8
LAYER_1
  0
POLYLINE
  8
LAYER_1
 66
     1
  0
VERTEX
  8
LAYER_1
 10
65.2881
 20
3.7739
  0
VERTEX
  8
LAYER_1
 10
64.6787
 20
3.9757
  0
VERTEX
  8
LAYER_1
 10
63.0277
 20
4.5077
  0
VERTEX
  8
LAYER_1
 10
60.6007
 20
5.2599
  0
VERTEX
  8
LAYER_1
 10
57.6635
 20
6.1221
  0
VERTEX
  8
LAYER_1
 10
54.4818
 20
6.9843
  0
VERTEX
  8
LAYER_1
 10
51.3213
 20
7.7365
  0
VERTEX
  8
LAYER_1
 10
48.4477
 20
8.2685
  0
VERTEX
  8
LAYER_1
 10
46.1266
 20
8.4703
  0
VERTEX
  8
LAYER_1
 10
29.6192
 20
8.4703
  0
VERTEX
  8
LAYER_1
 10
29.6192
 20
3.7822
  0
SEQEND
  8
LAYER_1
  0
POLYLINE
  8
LAYER_1
 66
     1
 70
     1
  0
VERTEX
  8
LAYER_1
 10
29.6193
 20
1.8989
  0
VERTEX
  8
LAYER_1
 10
29.6193
 20
3.7739
  0
VERTEX
  8
LAYER_1
 10
67.2339
 20
3.7739
  0
VERTEX
  8
LAYER_1
 10
67.2339
 20
1.8989
  0
VERTEX
  8
LAYER_1
 10
29.6193
 20
1.8989
  0
SEQEND
  8
LAYER_1
  0
POLYLINE
  8
LAYER_1
 66
     1
 70
     1
  0
VERTEX
  8
LAYER_1
 10
36.539
 20
12.3618
  0
VERTEX
  8
LAYER_1
 10
39.0149
 20
12.118
  0
VERTEX
  8
LAYER_1
 10
41.6176
 20
11.9973
  0
VERTEX
  8
LAYER_1
 10
44.3473
 20
11.9669
  0
VERTEX
  8
LAYER_1
 10
47.2041
 20
11.9939
  0
VERTEX
  8
LAYER_1
 10
50.188
 20
12.0456
  0
VERTEX
  8
LAYER_1
 10
53.2992
 20
12.0892
  0
VERTEX
  8
LAYER_1
 10
56.5378
 20
12.0919
  0
VERTEX
  8
LAYER_1
 10
59.9039
 20
12.0209
  0
VERTEX
  8
LAYER_1
 10
60.465
 20
11.9879
  0
VERTEX
  8
LAYER_1
 10
61.0218
 20
11.9129
  0
VERTEX
  8
LAYER_1
 10
61.5715
 20
11.7968
  0
VERTEX
  8
LAYER_1
 10
62.111
 20
11.6404
  0
VERTEX
  8
LAYER_1
 10
62.6375
 20
11.4446
  0
VERTEX
  8
LAYER_1
 10
63.1479
 20
11.2102
  0
VERTEX
  8
LAYER_1
 10
63.6393
 20
10.9382
  0
VERTEX
  8
LAYER_1
 10
64.1087
 20
10.6293
  0
VERTEX
  8
LAYER_1
 10
64.5532
 20
10.2849
  0
VERTEX
  8
LAYER_1
 10
64.9706
 20
9.9074
  0
VERTEX
  8
LAYER_1
 10
65.3588
 20
9.4996
  0
VERTEX
  8
LAYER_1
 10
65.716
 20
9.064
  0
VERTEX
  8
LAYER_1
 10
66.0401
 20
8.6033
  0
VERTEX
  8
LAYER_1
 10
66.3292
 20
8.12
  0
VERTEX
  8
LAYER_1
 10
66.5813
 20
7.6169
  0
VERTEX
  8
LAYER_1
 10
66.7944
 20
7.0965
  0
VERTEX
  8
LAYER_1
 10
66.8857
 20
6.8307
  0
VERTEX
  8
LAYER_1
 10
66.9666
 20
6.5616
  0
VERTEX
  8
LAYER_1
 10
67.0371
 20
6.2897
  0
VERTEX
  8
LAYER_1
 10
67.0973
 20
6.0154
  0
VERTEX
  8
LAYER_1
 10
67.147
 20
5.739
  0
VERTEX
  8
LAYER_1
 10
67.1863
 20
5.4609
  0
VERTEX
  8
LAYER_1
 10
67.2153
 20
5.1815
  0
VERTEX
  8
LAYER_1
 10
67.2339
 20
4.9012
  0
VERTEX
  8
LAYER_1
 10
65.3315
 20
4.805
  0
VERTEX
  8
LAYER_1
 10
65.295
 20
5.2245
  0
VERTEX
  8
LAYER_1
 10
65.2275
 20
5.6402
  0
VERTEX
  8
LAYER_1
 10
65.129
 20
6.0497
  0
VERTEX
  8
LAYER_1
 10
64.9996
 20
6.4508
  0
VERTEX
  8
LAYER_1
 10
64.8399
 20
6.8411
  0
VERTEX
  8
LAYER_1
 10
64.6515
 20
7.2185
  0
VERTEX
  8
LAYER_1
 10
64.4357
 20
7.5809
  0
VERTEX
  8
LAYER_1
 10
64.1937
 20
7.9265
  0
VERTEX
  8
LAYER_1
 10
63.927
 20
8.2531
  0
VERTEX
  8
LAYER_1
 10
63.6368
 20
8.559
  0
VERTEX
  8
LAYER_1
 10
63.3244
 20
8.842
  0
VERTEX
  8
LAYER_1
 10
62.9912
 20
9.1002
  0
VERTEX
  8
LAYER_1
 10
62.6388
 20
9.3319
  0
VERTEX
  8
LAYER_1
 10
62.2697
 20
9.5361
  0
VERTEX
  8
LAYER_1
 10
61.8863
 20
9.7122
  0
VERTEX
  8
LAYER_1
 10
61.4907
 20
9.8594
  0
VERTEX
  8
LAYER_1
 10
61.0853
 20
9.9771
  0
VERTEX
  8
LAYER_1
 10
60.6724
 20
10.0645
  0
VERTEX
  8
LAYER_1
 10
60.2543
 20
10.1208
  0
VERTEX
  8
LAYER_1
 10
59.8333
 20
10.1455
  0
VERTEX
  8
LAYER_1
 10
56.5221
 20
10.2138
  0
VERTEX
  8
LAYER_1
 10
53.3177
 20
10.2083
  0
VERTEX
  8
LAYER_1
 10
50.2195
 20
10.1625
  0
VERTEX
  8
LAYER_1
 10
47.2267
 20
10.1099
  0
VERTEX
  8
LAYER_1
 10
44.3384
 20
10.0843
  0
VERTEX
  8
LAYER_1
 10
41.5539
 20
10.119
  0
VERTEX
  8
LAYER_1
 10
38.8726
 20
10.2478
  0
VERTEX
  8
LAYER_1
 10
36.2935
 20
10.5042
  0
VERTEX
  8
LAYER_1
 10
36.539
 20
12.3618
  0
SEQEND
  8
LAYER_1
  0
POLYLINE
  8
LAYER_1
 66
     1
 70
     1
  0
VERTEX
  8
LAYER_1
 10
56.7711
 20
42.2553
  0
VERTEX
  8
LAYER_1
 10
56.8854
 20
43.3889
  0
VERTEX
  8
LAYER_1
 10
57.2131
 20
44.4448
  0
VERTEX
  8
LAYER_1
 10
57.7318
 20
45.4003
  0
VERTEX
  8
LAYER_1
 10
58.4186
 20
46.2328
  0
VERTEX
  8
LAYER_1
 10
59.2511
 20
46.9196
  0
VERTEX
  8
LAYER_1
 10
60.2066
 20
47.4383
  0
VERTEX
  8
LAYER_1
 10
61.2625
 20
47.766
  0
VERTEX
  8
LAYER_1
 10
62.3961
 20
47.8803
  0
VERTEX
  8
LAYER_1
 10
63.5297
 20
47.766
  0
VERTEX
  8
LAYER_1
 10
64.5856
 20
47.4383
  0
VERTEX
  8
LAYER_1
 10
65.5411
 20
46.9196
  0
VERTEX
  8
LAYER_1
 10
66.3736
 20
46.2328
  0
VERTEX
  8
LAYER_1
 10
67.0604
 20
45.4003
  0
VERTEX
  8
LAYER_1
 10
67.5791
 20
44.4448
  0
VERTEX
  8
LAYER_1
 10
67.9068
 20
43.3889
  0
VERTEX
  8
LAYER_1
 10
68.0211
 20
42.2553
  0
VERTEX
  8
LAYER_1
 10
67.9068
 20
41.1217
  0
VERTEX
  8
LAYER_1
 10
67.5791
 20
40.0658
  0
VERTEX
  8
LAYER_1
 10
67.0604
 20
39.1103
  0
VERTEX
  8
LAYER_1
 10
66.3736
 20
38.2778
  0
VERTEX
  8
LAYER_1
 10
65.5411
 20
37.591
  0
VERTEX
  8
LAYER_1
 10
64.5856
 20
37.0723
  0
VERTEX
  8
LAYER_1
 10
63.5297
 20
36.7446
  0
VERTEX
  8
LAYER_1
 10
62.3961
 20
36.6303
  0
VERTEX
  8
LAYER_1
 10
61.2625
 20
36.7446
  0
VERTEX
  8
LAYER_1
 10
60.2066
 20
37.0723
  0
VERTEX
  8
LAYER_1
 10
59.2511
 20
37.591
  0
VERTEX
  8
LAYER_1
 10
58.4186
 20
38.2778
  0
VERTEX
  8
LAYER_1
 10
57.7318
 20
39.1103
  0
VERTEX
  8
LAYER_1
 10
57.2131
 20
40.0658
  0
VERTEX
  8
LAYER_1
 10
56.8854
 20
41.1217
  0
VERTEX
  8
LAYER_1
 10
56.7711
 20
42.2553
  0
SEQEND
  8
LAYER_1
  0
POLYLINE
  8
LAYER_1
 66
     1
 70
     1
  0
VERTEX
  8
LAYER_1
 10
47.9857
 20
44.9469
  0
VERTEX
  8
LAYER_1
 10
48.2238
 20
47.3086
  0
VERTEX
  8
LAYER_1
 10
48.9066
 20
49.5084
  0
VERTEX
  8
LAYER_1
 10
49.9871
 20
51.499
  0
VERTEX
  8
LAYER_1
 10
51.4181
 20
53.2333
  0
VERTEX
  8
LAYER_1
 10
53.1524
 20
54.6643
  0
VERTEX
  8
LAYER_1
 10
55.143
 20
55.7448
  0
VERTEX
  8
LAYER_1
 10
57.3428
 20
56.4276
  0
VERTEX
  8
LAYER_1
 10
59.7045
 20
56.6657
  0
VERTEX
  8
LAYER_1
 10
62.0662
 20
56.4276
  0
VERTEX
  8
LAYER_1
 10
64.266
 20
55.7448
  0
VERTEX
  8
LAYER_1
 10
66.2566
 20
54.6643
  0
VERTEX
  8
LAYER_1
 10
67.9909
 20
53.2333
  0
VERTEX
  8
LAYER_1
 10
69.4219
 20
51.499
  0
VERTEX
  8
LAYER_1
 10
70.5024
 20
49.5084
  0
VERTEX
  8
LAYER_1
 10
71.1852
 20
47.3086
  0
VERTEX
  8
LAYER_1
 10
71.4233
 20
44.9469
  0
VERTEX
  8
LAYER_1
 10
71.1852
 20
42.5852
  0
VERTEX
  8
LAYER_1
 10
70.5024
 20
40.3854
  0
VERTEX
  8
LAYER_1
 10
69.4219
 20
38.3948
  0
VERTEX
  8
LAYER_1
 10
67.9909
 20
36.6605
  0
VERTEX
  8
LAYER_1
 10
66.2566
 20
35.2296
  0
VERTEX
  8
LAYER_1
 10
64.266
 20
34.1491
  0
VERTEX
  8
LAYER_1
 10
62.0662
 20
33.4663
  0
VERTEX
  8
LAYER_1
 10
59.7045
 20
33.2282
  0
VERTEX
  8
LAYER_1
 10
57.3428
 20
33.4663
  0
VERTEX
  8
LAYER_1
 10
55.143
 20
34.1491
  0
VERTEX
  8
LAYER_1
 10
53.1524
 20
35.2296
  0
VERTEX
  8
LAYER_1
 10
51.4181
 20
36.6606
  0
VERTEX
  8
LAYER_1
 10
49.9871
 20
38.3949
  0
VERTEX
  8
LAYER_1
 10
48.9066
 20
40.3855
  0
VERTEX
  8
LAYER_1
 10
48.2238
 20
42.5852
  0
VERTEX
  8
LAYER_1
 10
47.9857
 20
44.9469
  0
SEQEND
  8
LAYER_1
  0
POLYLINE
  8
LAYER_1
 66
     1
 70
     1
  0
VERTEX
  8
LAYER_1
 10
41.8388
 20
22.8834
  0
VERTEX
  8
LAYER_1
 10
41.9912
 20
24.3949
  0
VERTEX
  8
LAYER_1
 10
42.4282
 20
25.8027
  0
VERTEX
  8
LAYER_1
 10
43.1197
 20
27.0767
  0
VERTEX
  8
LAYER_1
 10
44.0355
 20
28.1867
  0
VERTEX
  8
LAYER_1
 10
45.1455
 20
29.1025
  0
VERTEX
  8
LAYER_1
 10
46.4195
 20
29.794
  0
VERTEX
  8
LAYER_1
 10
47.8273
 20
30.231
  0
VERTEX
  8
LAYER_1
 10
49.3388
 20
30.3834
  0
VERTEX
  8
LAYER_1
 10
50.8503
 20
30.231
  0
VERTEX
  8
LAYER_1
 10
52.2581
 20
29.794
  0
VERTEX
  8
LAYER_1
 10
53.5321
 20
29.1025
  0
VERTEX
  8
LAYER_1
 10
54.6421
 20
28.1867
  0
VERTEX
  8
LAYER_1
 10
55.5579
 20
27.0767
  0
VERTEX
  8
LAYER_1
 10
56.2494
 20
25.8027
  0
VERTEX
  8
LAYER_1
 10
56.6864
 20
24.3949
  0
VERTEX
  8
LAYER_1
 10
56.8388
 20
22.8834
  0
VERTEX
  8
LAYER_1
 10
56.6864
 20
21.3719
  0
VERTEX
  8
LAYER_1
 10
56.2494
 20
19.9641
  0
VERTEX
  8
LAYER_1
 10
55.5579
 20
18.6901
  0
VERTEX
  8
LAYER_1
 10
54.6421
 20
17.5801
  0
VERTEX
  8
LAYER_1
 10
53.5321
 20
16.6643
  0
VERTEX
  8
LAYER_1
 10
52.2581
 20
15.9728
  0
VERTEX
  8
LAYER_1
 10
50.8503
 20
15.5358
  0
VERTEX
  8
LAYER_1
 10
49.3388
 20
15.3834
  0
VERTEX
  8
LAYER_1
 10
47.8273
 20
15.5358
  0
VERTEX
  8
LAYER_1
 10
46.4195
 20
15.9728
  0
VERTEX
  8
LAYER_1
 10
45.1455
 20
16.6643
  0
VERTEX
  8
LAYER_1
 10
44.0355
 20
17.5801
  0
VERTEX
  8
LAYER_1
 10
43.1197
 20
18.6901
  0
VERTEX
  8
LAYER_1
 10
42.4282
 20
19.9641
  0
VERTEX
  8
LAYER_1
 10
41.9912
 20
21.3719
  0
VERTEX
  8
LAYER_1
 10
41.8388
 20
22.8834
  0
SEQEND
  8
LAYER_1
  0
POLYLINE
  8
LAYER_1
 66
     1
 70
     1
  0
VERTEX
  8
LAYER_1
 10
36.2742
 20
24.2292
  0
VERTEX
  8
LAYER_1
 10
36.5123
 20
26.5909
  0
VERTEX
  8
LAYER_1
 10
37.1951
 20
28.7907
  0
VERTEX
  8
LAYER_1
 10
38.2756
 20
30.7813
  0
VERTEX
  8
LAYER_1
 10
39.7066
 20
32.5156
  0
VERTEX
  8
LAYER_1
 10
41.4409
 20
33.9466
  0
VERTEX
  8
LAYER_1
 10
43.4315
 20
35.0271
  0
VERTEX
  8
LAYER_1
 10
45.6313
 20
35.7099
  0
VERTEX
  8
LAYER_1
 10
47.993
 20
35.948
  0
VERTEX
  8
LAYER_1
 10
50.3547
 20
35.7099
  0
VERTEX
  8
LAYER_1
 10
52.5545
 20
35.0271
  0
VERTEX
  8
LAYER_1
 10
54.5451
 20
33.9466
  0
VERTEX
  8
LAYER_1
 10
56.2794
 20
32.5156
  0
VERTEX
  8
LAYER_1
 10
57.7104
 20
30.7813
  0
VERTEX
  8
LAYER_1
 10
58.7909
 20
28.7907
  0
VERTEX
  8
LAYER_1
 10
59.4737
 20
26.5909
  0
VERTEX
  8
LAYER_1
 10
59.7118
 20
24.2292
  0
VERTEX
  8
LAYER_1
 10
59.4737
 20
21.8675
  0
VERTEX
  8
LAYER_1
 10
58.7909
 20
19.6677
  0
VERTEX
  8
LAYER_1
 10
57.7104
 20
17.6771
  0
VERTEX
  8
LAYER_1
 10
56.2794
 20
15.9428
  0
VERTEX
  8
LAYER_1
 10
54.5451
 20
14.5119
  0
VERTEX
  8
LAYER_1
 10
52.5545
 20
13.4314
  0
VERTEX
  8
LAYER_1
 10
50.3547
 20
12.7486
  0
VERTEX
  8
LAYER_1
 10
47.993
 20
12.5105
  0
VERTEX
  8
LAYER_1
 10
45.6313
 20
12.7486
  0
VERTEX
  8
LAYER_1
 10
43.4315
 20
13.4314
  0
VERTEX
  8
LAYER_1
 10
41.4409
 20
14.5119
  0
VERTEX
  8
LAYER_1
 10
39.7066
 20
15.9429
  0
VERTEX
  8
LAYER_1
 10
38.2756
 20
17.6772
  0
VERTEX
  8
LAYER_1
 10
37.1951
 20
19.6678
  0
VERTEX
  8
LAYER_1
 10
36.5123
 20
21.8675
  0
VERTEX
  8
LAYER_1
 10
36.2742
 20
24.2292
  0
SEQEND
  8
LAYER_1
  0
POLYLINE
  8
LAYER_1
 66
     1
 70
     1
  0
VERTEX
  8
LAYER_1
 10
7.1764
 20
54.5394
  0
VERTEX
  8
LAYER_1
 10
11.8645
 20
54.5394
  0
VERTEX
  8
LAYER_1
 10
13.7414
 20
54.5394
  0
VERTEX
  8
LAYER_1
 10
13.7414
 20
51.7282
  0
VERTEX
  8
LAYER_1
 10
16.5526
 20
51.7282
  0
VERTEX
  8
LAYER_1
 10
16.5526
 20
50.1076
  0
VERTEX
  8
LAYER_1
 10
17.9582
 20
48.6855
  0
VERTEX
  8
LAYER_1
 10
17.9582
 20
47.9827
  0
VERTEX
  8
LAYER_1
 10
16.5526
 20
47.9827
  0
VERTEX
  8
LAYER_1
 10
16.5526
 20
44.9069
  0
VERTEX
  8
LAYER_1
 10
21.2407
 20
44.9069
  0
VERTEX
  8
LAYER_1
 10
21.2407
 20
43.2946
  0
VERTEX
  8
LAYER_1
 10
22.6463
 20
41.8642
  0
VERTEX
  8
LAYER_1
 10
22.6463
 20
41.1614
  0
VERTEX
  8
LAYER_1
 10
21.2407
 20
41.1614
  0
VERTEX
  8
LAYER_1
 10
21.2407
 20
38.1022
  0
VERTEX
  8
LAYER_1
 10
25.9205
 20
38.1022
  0
VERTEX
  8
LAYER_1
 10
25.9205
 20
36.4816
  0
VERTEX
  8
LAYER_1
 10
27.3261
 20
35.0512
  0
VERTEX
  8
LAYER_1
 10
27.3261
 20
34.3484
  0
VERTEX
  8
LAYER_1
 10
25.9205
 20
34.3484
  0
VERTEX
  8
LAYER_1
 10
25.9205
 20
31.2892
  0
VERTEX
  8
LAYER_1
 10
30.6086
 20
31.2892
  0
VERTEX
  8
LAYER_1
 10
30.6086
 20
29.6686
  0
VERTEX
  8
LAYER_1
 10
32.0142
 20
28.2465
  0
VERTEX
  8
LAYER_1
 10
32.0142
 20
27.5437
  0
VERTEX
  8
LAYER_1
 10
30.6086
 20
27.5437
  0
VERTEX
  8
LAYER_1
 10
30.6086
 20
24.4762
  0
VERTEX
  8
LAYER_1
 10
35.2967
 20
24.4762
  0
VERTEX
  8
LAYER_1
 10
35.2967
 20
18.2518
  0
VERTEX
  8
LAYER_1
 10
29.0724
 20
18.2518
  0
VERTEX
  8
LAYER_1
 10
29.0724
 20
1.5402
  0
VERTEX
  8
LAYER_1
 10
67.8828
 20
1.5402
  0
VERTEX
  8
LAYER_1
 10
67.8828
 20
18.2518
  0
VERTEX
  8
LAYER_1
 10
61.5649
 20
18.2518
  0
VERTEX
  8
LAYER_1
 10
61.5649
 20
24.2199
  0
VERTEX
  8
LAYER_1
 10
60.151
 20
24.2199
  0
VERTEX
  8
LAYER_1
 10
60.151
 20
24.9227
  0
VERTEX
  8
LAYER_1
 10
61.5649
 20
26.3531
  0
VERTEX
  8
LAYER_1
 10
66.253
 20
26.3531
  0
VERTEX
  8
LAYER_1
 10
66.253
 20
29.4206
  0
VERTEX
  8
LAYER_1
 10
64.8474
 20
29.4206
  0
VERTEX
  8
LAYER_1
 10
64.8474
 20
30.1234
  0
VERTEX
  8
LAYER_1
 10
66.253
 20
31.5455
  0
VERTEX
  8
LAYER_1
 10
66.253
 20
33.1661
  0
VERTEX
  8
LAYER_1
 10
70.9411
 20
33.1661
  0
VERTEX
  8
LAYER_1
 10
70.9411
 20
36.2253
  0
VERTEX
  8
LAYER_1
 10
69.5355
 20
36.2253
  0
VERTEX
  8
LAYER_1
 10
69.5355
 20
36.9281
  0
VERTEX
  8
LAYER_1
 10
70.9411
 20
38.3585
  0
VERTEX
  8
LAYER_1
 10
70.9411
 20
39.9791
  0
VERTEX
  8
LAYER_1
 10
75.6209
 20
39.9791
  0
VERTEX
  8
LAYER_1
 10
75.6209
 20
43.0383
  0
VERTEX
  8
LAYER_1
 10
74.207
 20
43.0383
  0
VERTEX
  8
LAYER_1
 10
74.207
 20
43.7411
  0
VERTEX
  8
LAYER_1
 10
75.6209
 20
45.1715
  0
VERTEX
  8
LAYER_1
 10
75.6209
 20
46.7838
  0
VERTEX
  8
LAYER_1
 10
80.3007
 20
46.7838
  0
VERTEX
  8
LAYER_1
 10
80.3007
 20
49.8513
  0
VERTEX
  8
LAYER_1
 10
78.8951
 20
49.8513
  0
VERTEX
  8
LAYER_1
 10
78.8951
 20
50.5541
  0
VERTEX
  8
LAYER_1
 10
80.3007
 20
51.9762
  0
VERTEX
  8
LAYER_1
 10
80.3007
 20
53.5968
  0
VERTEX
  8
LAYER_1
 10
83.1119
 20
53.5968
  0
VERTEX
  8
LAYER_1
 10
83.1119
 20
56.408
  0
VERTEX
  8
LAYER_1
 10
84.9888
 20
56.408
  0
VERTEX
  8
LAYER_1
 10
89.6769
 20
56.408
  0
VERTEX
  8
LAYER_1
 10
89.6769
 20
53.5968
  0
VERTEX
  8
LAYER_1
 10
89.6605
 20
-11.8214
  0
VERTEX
  8
LAYER_1
 10
76.5389
 20
-11.8214
  0
VERTEX
  8
LAYER_1
 10
76.5389
 20
-14.8559
  0
VERTEX
  8
LAYER_1
 10
62.4746
 20
-14.8559
  0
VERTEX
  8
LAYER_1
 10
62.4746
 20
-11.8214
  0
VERTEX
  8
LAYER_1
 10
44.9377
 20
-11.8214
  0
VERTEX
  8
LAYER_1
 10
44.9377
 20
-14.8559
  0
VERTEX
  8
LAYER_1
 10
7.1767
 20
-14.8559
  0
VERTEX
  8
LAYER_1
 10
7.1767
 20
51.7282
  0
VERTEX
  8
LAYER_1
 10
7.1767
 20
54.5394
  0
VERTEX
  8
LAYER_1
 10
7.1764
 20
54.5394
  0
SEQEND
  8
LAYER_1
  0
POLYLINE
  8
LAYER_1
 66
     1
 70
     1
  0
VERTEX
  8
LAYER_1
 10
33.3336
 20
42.2553
  0
VERTEX
  8
LAYER_1
 10
33.4479
 20
43.3889
  0
VERTEX
  8
LAYER_1
 10
33.7756
 20
44.4448
  0
VERTEX
  8
LAYER_1
 10
34.2943
 20
45.4003
  0
VERTEX
  8
LAYER_1
 10
34.9811
 20
46.2328
  0
VERTEX
  8
LAYER_1
 10
35.8136
 20
46.9196
  0
VERTEX
  8
LAYER_1
 10
36.7691
 20
47.4383
  0
VERTEX
  8
LAYER_1
 10
37.825
 20
47.766
  0
VERTEX
  8
LAYER_1
 10
38.9586
 20
47.8803
  0
VERTEX
  8
LAYER_1
 10
40.0922
 20
47.766
  0
VERTEX
  8
LAYER_1
 10
41.1481
 20
47.4383
  0
VERTEX
  8
LAYER_1
 10
42.1036
 20
46.9196
  0
VERTEX
  8
LAYER_1
 10
42.9361
 20
46.2328
  0
VERTEX
  8
LAYER_1
 10
43.6229
 20
45.4003
  0
VERTEX
  8
LAYER_1
 10
44.1416
 20
44.4448
  0
VERTEX
  8
LAYER_1
 10
44.4693
 20
43.3889
  0
VERTEX
  8
LAYER_1
 10
44.5836
 20
42.2553
  0
VERTEX
  8
LAYER_1
 10
44.4693
 20
41.1217
  0
VERTEX
  8
LAYER_1
 10
44.1416
 20
40.0658
  0
VERTEX
  8
LAYER_1
 10
43.6229
 20
39.1103
  0
VERTEX
  8
LAYER_1
 10
42.9361
 20
38.2778
  0
VERTEX
  8
LAYER_1
 10
42.1036
 20
37.591
  0
VERTEX
  8
LAYER_1
 10
41.1481
 20
37.0723
  0
VERTEX
  8
LAYER_1
 10
40.0922
 20
36.7446
  0
VERTEX
  8
LAYER_1
 10
38.9586
 20
36.6303
  0
VERTEX
  8
LAYER_1
 10
37.825
 20
36.7446
  0
VERTEX
  8
LAYER_1
 10
36.7691
 20
37.0723
  0
VERTEX
  8
LAYER_1
 10
35.8136
 20
37.591
  0
VERTEX
  8
LAYER_1
 10
34.9811
 20
38.2778
  0
VERTEX
  8
LAYER_1
 10
34.2943
 20
39.1103
  0
VERTEX
  8
LAYER_1
 10
33.7756
 20
40.0658
  0
VERTEX
  8
LAYER_1
 10
33.4479
 20
41.1217
  0
VERTEX
  8
LAYER_1
 10
33.3336
 20
42.2553
  0
SEQEND
  8
LAYER_1
  0
POLYLINE
  8
LAYER_1
 66
     1
 70
     1
  0
VERTEX
  8
LAYER_1
 10
24.5482
 20
44.9469
  0
VERTEX
  8
LAYER_1
 10
24.7863
 20
47.3086
  0
VERTEX
  8
LAYER_1
 10
25.4691
 20
49.5084
  0
VERTEX
  8
LAYER_1
 10
26.5496
 20
51.499
  0
VERTEX
  8
LAYER_1
 10
27.9806
 20
53.2333
  0
VERTEX
  8
LAYER_1
 10
29.7149
 20
54.6643
  0
VERTEX
  8
LAYER_1
 10
31.7055
 20
55.7448
  0
VERTEX
  8
LAYER_1
 10
33.9053
 20
56.4276
  0
VERTEX
  8
LAYER_1
 10
36.267
 20
56.6657
  0
VERTEX
  8
LAYER_1
 10
38.6287
 20
56.4276
  0
VERTEX
  8
LAYER_1
 10
40.8285
 20
55.7448
  0
VERTEX
  8
LAYER_1
 10
42.8191
 20
54.6643
  0
VERTEX
  8
LAYER_1
 10
44.5534
 20
53.2333
  0
VERTEX
  8
LAYER_1
 10
45.9844
 20
51.499
  0
VERTEX
  8
LAYER_1
 10
47.0649
 20
49.5084
  0
VERTEX
  8
LAYER_1
 10
47.7477
 20
47.3086
  0
VERTEX
  8
LAYER_1
 10
47.9858
 20
44.9469
  0
VERTEX
  8
LAYER_1
 10
47.7477
 20
42.5852
  0
VERTEX
  8
LAYER_1
 10
47.0649
 20
40.3854
  0
VERTEX
  8
LAYER_1
 10
45.9844
 20
38.3948
  0
VERTEX
  8
LAYER_1
 10
44.5534
 20
36.6605
  0
VERTEX
  8
LAYER_1
 10
42.8191
 20
35.2296
  0
VERTEX
  8
LAYER_1
 10
40.8285
 20
34.1491
  0
VERTEX
  8
LAYER_1
 10
38.6287
 20
33.4663
  0
VERTEX
  8
LAYER_1
 10
36.267
 20
33.2282
  0
VERTEX
  8
LAYER_1
 10
33.9053
 20
33.4663
  0
VERTEX
  8
LAYER_1
 10
31.7055
 20
34.1491
  0
VERTEX
  8
LAYER_1
 10
29.7149
 20
35.2296
  0
VERTEX
  8
LAYER_1
 10
27.9806
 20
36.6606
  0
VERTEX
  8
LAYER_1
 10
26.5496
 20
38.3949
  0
VERTEX
  8
LAYER_1
 10
25.4691
 20
40.3855
  0
VERTEX
  8
LAYER_1
 10
24.7863
 20
42.5852
  0
VERTEX
  8
LAYER_1
 10
24.5482
 20
44.9469
  0
SEQEND
  8
LAYER_1
  0
POLYLINE
  8
LAYER_1
 66
     1
  0
VERTEX
  8
LAYER_1
 10
-81.622
 20
-41.61
  0
VERTEX
  8
LAYER_1
 10
-81.622
 20
-42.5026
  0
SEQEND
  8
LAYER_1
  0
POLYLINE
  8
LAYER_1
 66
     1
  0
VERTEX
  8
LAYER_1
 10
0.0362
 20
-42.5021
  0
VERTEX
  8
LAYER_1
 10
0.0362
 20
-41.6095
  0
SEQEND
  8
LAYER_1
  0
POLYLINE
  8
LAYER_1
 66
     1
  0
VERTEX
  8
LAYER_1
 10
0.1414
 20
-42.5319
  0
VERTEX
  8
LAYER_1
 10
0.0362
 20
-42.5021
  0
SEQEND
  8
LAYER_1
  0
POLYLINE
  8
LAYER_1
 66
     1
  0
VERTEX
  8
LAYER_1
 10
0.2466
 20
-42.563
  0
VERTEX
  8
LAYER_1
 10
0.1414
 20
-42.5319
  0
SEQEND
  8
LAYER_1
  0
POLYLINE
  8
LAYER_1
 66
     1
  0
VERTEX
  8
LAYER_1
 10
0.4566
 20
-42.6284
  0
VERTEX
  8
LAYER_1
 10
0.2465
 20
-42.5629
  0
SEQEND
  8
LAYER_1
  0
POLYLINE
  8
LAYER_1
 66
     1
  0
VERTEX
  8
LAYER_1
 10
0.8759
 20
-42.7723
  0
VERTEX
  8
LAYER_1
 10
0.4565
 20
-42.6284
  0
SEQEND
  8
LAYER_1
  0
POLYLINE
  8
LAYER_1
 66
     1
  0
VERTEX
  8
LAYER_1
 10
1.2947
 20
-42.9321
  0
VERTEX
  8
LAYER_1
 10
0.876
 20
-42.7724
  0
SEQEND
  8
LAYER_1
  0
POLYLINE
  8
LAYER_1
 66
     1
  0
VERTEX
  8
LAYER_1
 10
1.712
 20
-43.1067
  0
VERTEX
  8
LAYER_1
 10
1.2946
 20
-42.9321
  0
SEQEND
  8
LAYER_1
  0
POLYLINE
  8
LAYER_1
 66
     1
  0
VERTEX
  8
LAYER_1
 10
2.1288
 20
-43.2949
  0
VERTEX
  8
LAYER_1
 10
1.7121
 20
-43.1067
  0
SEQEND
  8
LAYER_1
  0
POLYLINE
  8
LAYER_1
 66
     1
  0
VERTEX
  8
LAYER_1
 10
2.5438
 20
-43.4969
  0
VERTEX
  8
LAYER_1
 10
2.1288
 20
-43.2948
  0
SEQEND
  8
LAYER_1
  0
POLYLINE
  8
LAYER_1
 66
     1
  0
VERTEX
  8
LAYER_1
 10
2.4386
 20
-45.1684
  0
VERTEX
  8
LAYER_1
 10
2.5438
 20
-43.4969
  0
SEQEND
  8
LAYER_1
  0
POLYLINE
  8
LAYER_1
 66
     1
  0
VERTEX
  8
LAYER_1
 10
2.0014
 20
-45.3166
  0
VERTEX
  8
LAYER_1
 10
2.4386
 20
-45.1684
  0
SEQEND
  8
LAYER_1
  0
POLYLINE
  8
LAYER_1
 66
     1
  0
VERTEX
  8
LAYER_1
 10
1.5645
 20
-45.4515
  0
VERTEX
  8
LAYER_1
 10
2.0014
 20
-45.3166
  0
SEQEND
  8
LAYER_1
  0
POLYLINE
  8
LAYER_1
 66
     1
  0
VERTEX
  8
LAYER_1
 10
1.1286
 20
-45.5723
  0
VERTEX
  8
LAYER_1
 10
1.5645
 20
-45.4516
  0
SEQEND
  8
LAYER_1
  0
POLYLINE
  8
LAYER_1
 66
     1
  0
VERTEX
  8
LAYER_1
 10
0.6934
 20
-45.6781
  0
VERTEX
  8
LAYER_1
 10
1.1286
 20
-45.5723
  0
SEQEND
  8
LAYER_1
  0
POLYLINE
  8
LAYER_1
 66
     1
  0
VERTEX
  8
LAYER_1
 10
0.2592
 20
-45.7684
  0
VERTEX
  8
LAYER_1
 10
0.6934
 20
-45.6781
  0
SEQEND
  8
LAYER_1
  0
POLYLINE
  8
LAYER_1
 66
     1
  0
VERTEX
  8
LAYER_1
 10
0.0425
 20
-45.8071
  0
VERTEX
  8
LAYER_1
 10
0.2591
 20
-45.7684
  0
SEQEND
  8
LAYER_1
  0
POLYLINE
  8
LAYER_1
 66
     1
  0
VERTEX
  8
LAYER_1
 10
-0.0656
 20
-45.8246
  0
VERTEX
  8
LAYER_1
 10
0.0426
 20
-45.8071
  0
SEQEND
  8
LAYER_1
  0
POLYLINE
  8
LAYER_1
 66
     1
  0
VERTEX
  8
LAYER_1
 10
-0.1738
 20
-45.841
  0
VERTEX
  8
LAYER_1
 10
-0.0657
 20
-45.8246
  0
SEQEND
  8
LAYER_1
  0
POLYLINE
  8
LAYER_1
 66
     1
  0
VERTEX
  8
LAYER_1
 10
-0.3977
 20
-47.612
  0
VERTEX
  8
LAYER_1
 10
-0.1738
 20
-45.841
  0
SEQEND
  8
LAYER_1
  0
POLYLINE
  8
LAYER_1
 66
     1
  0
VERTEX
  8
LAYER_1
 10
-0.2971
 20
-47.6547
  0
VERTEX
  8
LAYER_1
 10
-0.3977
 20
-47.612
  0
SEQEND
  8
LAYER_1
  0
POLYLINE
  8
LAYER_1
 66
     1
  0
VERTEX
  8
LAYER_1
 10
-0.1966
 20
-47.6987
  0
VERTEX
  8
LAYER_1
 10
-0.2971
 20
-47.6547
  0
SEQEND
  8
LAYER_1
  0
POLYLINE
  8
LAYER_1
 66
     1
  0
VERTEX
  8
LAYER_1
 10
0.0035
 20
-47.7903
  0
VERTEX
  8
LAYER_1
 10
-0.1966
 20
-47.6987
  0
SEQEND
  8
LAYER_1
  0
POLYLINE
  8
LAYER_1
 66
     1
  0
VERTEX
  8
LAYER_1
 10
0.4017
 20
-47.9854
  0
VERTEX
  8
LAYER_1
 10
0.0035
 20
-47.7903
  0
SEQEND
  8
LAYER_1
  0
POLYLINE
  8
LAYER_1
 66
     1
  0
VERTEX
  8
LAYER_1
 10
0.7969
 20
-48.1964
  0
VERTEX
  8
LAYER_1
 10
0.4017
 20
-47.9854
  0
SEQEND
  8
LAYER_1
  0
POLYLINE
  8
LAYER_1
 66
     1
  0
VERTEX
  8
LAYER_1
 10
1.1895
 20
-48.422
  0
VERTEX
  8
LAYER_1
 10
0.7969
 20
-48.1964
  0
SEQEND
  8
LAYER_1
  0
POLYLINE
  8
LAYER_1
 66
     1
  0
VERTEX
  8
LAYER_1
 10
1.5788
 20
-48.6611
  0
VERTEX
  8
LAYER_1
 10
1.1895
 20
-48.422
  0
SEQEND
  8
LAYER_1
  0
POLYLINE
  8
LAYER_1
 66
     1
  0
VERTEX
  8
LAYER_1
 10
1.9654
 20
-48.9131
  0
VERTEX
  8
LAYER_1
 10
1.5788
 20
-48.6611
  0
SEQEND
  8
LAYER_1
  0
POLYLINE
  8
LAYER_1
 66
     1
  0
VERTEX
  8
LAYER_1
 10
1.6515
 20
-50.5585
  0
VERTEX
  8
LAYER_1
 10
1.9654
 20
-48.9131
  0
SEQEND
  8
LAYER_1
  0
POLYLINE
  8
LAYER_1
 66
     1
  0
VERTEX
  8
LAYER_1
 10
1.1994
 20
-50.6507
  0
VERTEX
  8
LAYER_1
 10
1.6515
 20
-50.5584
  0
SEQEND
  8
LAYER_1
  0
POLYLINE
  8
LAYER_1
 66
     1
  0
VERTEX
  8
LAYER_1
 10
0.7493
 20
-50.7298
  0
VERTEX
  8
LAYER_1
 10
1.1994
 20
-50.6507
  0
SEQEND
  8
LAYER_1
  0
POLYLINE
  8
LAYER_1
 66
     1
  0
VERTEX
  8
LAYER_1
 10
0.3015
 20
-50.7949
  0
VERTEX
  8
LAYER_1
 10
0.7493
 20
-50.7298
  0
SEQEND
  8
LAYER_1
  0
POLYLINE
  8
LAYER_1
 66
     1
  0
VERTEX
  8
LAYER_1
 10
-0.1437
 20
-50.8456
  0
VERTEX
  8
LAYER_1
 10
0.3014
 20
-50.795
  0
SEQEND
  8
LAYER_1
  0
POLYLINE
  8
LAYER_1
 66
     1
  0
VERTEX
  8
LAYER_1
 10
-0.5859
 20
-50.8803
  0
VERTEX
  8
LAYER_1
 10
-0.1437
 20
-50.8456
  0
SEQEND
  8
LAYER_1
  0
POLYLINE
  8
LAYER_1
 66
     1
  0
VERTEX
  8
LAYER_1
 10
-0.8058
 20
-50.8919
  0
VERTEX
  8
LAYER_1
 10
-0.5859
 20
-50.8803
  0
SEQEND
  8
LAYER_1
  0
POLYLINE
  8
LAYER_1
 66
     1
  0
VERTEX
  8
LAYER_1
 10
-0.9153
 20
-50.8959
  0
VERTEX
  8
LAYER_1
 10
-0.8058
 20
-50.8919
  0
SEQEND
  8
LAYER_1
  0
POLYLINE
  8
LAYER_1
 66
     1
  0
VERTEX
  8
LAYER_1
 10
-1.0244
 20
-50.8985
  0
VERTEX
  8
LAYER_1
 10
-0.9153
 20
-50.8959
  0
SEQEND
  8
LAYER_1
  0
POLYLINE
  8
LAYER_1
 66
     1
  0
VERTEX
  8
LAYER_1
 10
-1.4686
 20
-52.6276
  0
VERTEX
  8
LAYER_1
 10
-1.0244
 20
-50.8985
  0
SEQEND
  8
LAYER_1
  0
POLYLINE
  8
LAYER_1
 66
     1
  0
VERTEX
  8
LAYER_1
 10
-1.374
 20
-52.6825
  0
VERTEX
  8
LAYER_1
 10
-1.4686
 20
-52.6276
  0
SEQEND
  8
LAYER_1
  0
POLYLINE
  8
LAYER_1
 66
     1
  0
VERTEX
  8
LAYER_1
 10
-1.2801
 20
-52.739
  0
VERTEX
  8
LAYER_1
 10
-1.374
 20
-52.6825
  0
SEQEND
  8
LAYER_1
  0
POLYLINE
  8
LAYER_1
 66
     1
  0
VERTEX
  8
LAYER_1
 10
-1.0929
 20
-52.8548
  0
VERTEX
  8
LAYER_1
 10
-1.2801
 20
-52.739
  0
SEQEND
  8
LAYER_1
  0
POLYLINE
  8
LAYER_1
 66
     1
  0
VERTEX
  8
LAYER_1
 10
-0.7221
 20
-53.0982
  0
VERTEX
  8
LAYER_1
 10
-1.0929
 20
-52.8548
  0
SEQEND
  8
LAYER_1
  0
POLYLINE
  8
LAYER_1
 66
     1
  0
VERTEX
  8
LAYER_1
 10
-0.3567
 20
-53.3572
  0
VERTEX
  8
LAYER_1
 10
-0.7221
 20
-53.0982
  0
SEQEND
  8
LAYER_1
  0
POLYLINE
  8
LAYER_1
 66
     1
  0
VERTEX
  8
LAYER_1
 10
0.0045
 20
-53.63
  0
VERTEX
  8
LAYER_1
 10
-0.3567
 20
-53.3572
  0
SEQEND
  8
LAYER_1
  0
POLYLINE
  8
LAYER_1
 66
     1
  0
VERTEX
  8
LAYER_1
 10
0.361
 20
-53.9161
  0
VERTEX
  8
LAYER_1
 10
0.0045
 20
-53.63
  0
SEQEND
  8
LAYER_1
  0
POLYLINE
  8
LAYER_1
 66
     1
  0
VERTEX
  8
LAYER_1
 10
0.7129
 20
-54.2147
  0
VERTEX
  8
LAYER_1
 10
0.361
 20
-53.9161
  0
SEQEND
  8
LAYER_1
  0
POLYLINE
  8
LAYER_1
 66
     1
  0
VERTEX
  8
LAYER_1
 10
0.1953
 20
-55.8075
  0
VERTEX
  8
LAYER_1
 10
0.7129
 20
-54.2147
  0
SEQEND
  8
LAYER_1
  0
POLYLINE
  8
LAYER_1
 66
     1
  0
VERTEX
  8
LAYER_1
 10
-0.2651
 20
-55.8426
  0
VERTEX
  8
LAYER_1
 10
0.1953
 20
-55.8075
  0
SEQEND
  8
LAYER_1
  0
POLYLINE
  8
LAYER_1
 66
     1
  0
VERTEX
  8
LAYER_1
 10
-0.7215
 20
-55.8643
  0
VERTEX
  8
LAYER_1
 10
-0.2651
 20
-55.8426
  0
SEQEND
  8
LAYER_1
  0
POLYLINE
  8
LAYER_1
 66
     1
  0
VERTEX
  8
LAYER_1
 10
-1.1739
 20
-55.873
  0
VERTEX
  8
LAYER_1
 10
-0.7215
 20
-55.8643
  0
SEQEND
  8
LAYER_1
  0
POLYLINE
  8
LAYER_1
 66
     1
  0
VERTEX
  8
LAYER_1
 10
-1.6221
 20
-55.8675
  0
VERTEX
  8
LAYER_1
 10
-1.1739
 20
-55.8731
  0
SEQEND
  8
LAYER_1
  0
POLYLINE
  8
LAYER_1
 66
     1
  0
VERTEX
  8
LAYER_1
 10
-2.0649
 20
-55.8466
  0
VERTEX
  8
LAYER_1
 10
-1.6221
 20
-55.8675
  0
SEQEND
  8
LAYER_1
  0
POLYLINE
  8
LAYER_1
 66
     1
  0
VERTEX
  8
LAYER_1
 10
-2.2845
 20
-55.8304
  0
VERTEX
  8
LAYER_1
 10
-2.0649
 20
-55.8465
  0
SEQEND
  8
LAYER_1
  0
POLYLINE
  8
LAYER_1
 66
     1
  0
VERTEX
  8
LAYER_1
 10
-2.3936
 20
-55.8206
  0
VERTEX
  8
LAYER_1
 10
-2.2845
 20
-55.8304
  0
SEQEND
  8
LAYER_1
  0
POLYLINE
  8
LAYER_1
 66
     1
  0
VERTEX
  8
LAYER_1
 10
-2.5024
 20
-55.8098
  0
VERTEX
  8
LAYER_1
 10
-2.3936
 20
-55.8206
  0
SEQEND
  8
LAYER_1
  0
POLYLINE
  8
LAYER_1
 66
     1
  0
VERTEX
  8
LAYER_1
 10
-3.1596
 20
-57.4694
  0
VERTEX
  8
LAYER_1
 10
-2.5025
 20
-55.8098
  0
SEQEND
  8
LAYER_1
  0
POLYLINE
  8
LAYER_1
 66
     1
  0
VERTEX
  8
LAYER_1
 10
-3.0726
 20
-57.5362
  0
VERTEX
  8
LAYER_1
 10
-3.1596
 20
-57.4694
  0
SEQEND
  8
LAYER_1
  0
POLYLINE
  8
LAYER_1
 66
     1
  0
VERTEX
  8
LAYER_1
 10
-2.9863
 20
-57.6036
  0
VERTEX
  8
LAYER_1
 10
-3.0726
 20
-57.5362
  0
SEQEND
  8
LAYER_1
  0
POLYLINE
  8
LAYER_1
 66
     1
  0
VERTEX
  8
LAYER_1
 10
-2.8153
 20
-57.7419
  0
VERTEX
  8
LAYER_1
 10
-2.9863
 20
-57.6037
  0
SEQEND
  8
LAYER_1
  0
POLYLINE
  8
LAYER_1
 66
     1
  0
VERTEX
  8
LAYER_1
 10
-2.4783
 20
-58.03
  0
VERTEX
  8
LAYER_1
 10
-2.8153
 20
-57.7419
  0
SEQEND
  8
LAYER_1
  0
POLYLINE
  8
LAYER_1
 66
     1
  0
VERTEX
  8
LAYER_1
 10
-2.1479
 20
-58.3326
  0
VERTEX
  8
LAYER_1
 10
-2.4783
 20
-58.03
  0
SEQEND
  8
LAYER_1
  0
POLYLINE
  8
LAYER_1
 66
     1
  0
VERTEX
  8
LAYER_1
 10
-1.8238
 20
-58.6488
  0
VERTEX
  8
LAYER_1
 10
-2.1479
 20
-58.3326
  0
SEQEND
  8
LAYER_1
  0
POLYLINE
  8
LAYER_1
 66
     1
  0
VERTEX
  8
LAYER_1
 10
-1.506
 20
-58.9772
  0
VERTEX
  8
LAYER_1
 10
-1.8238
 20
-58.6488
  0
SEQEND
  8
LAYER_1
  0
POLYLINE
  8
LAYER_1
 66
     1
  0
VERTEX
  8
LAYER_1
 10
-1.1944
 20
-59.3175
  0
VERTEX
  8
LAYER_1
 10
-1.5059
 20
-58.9772
  0
SEQEND
  8
LAYER_1
  0
POLYLINE
  8
LAYER_1
 66
     1
  0
VERTEX
  8
LAYER_1
 10
-1.9075
 20
-60.8333
  0
VERTEX
  8
LAYER_1
 10
-1.1944
 20
-59.3176
  0
SEQEND
  8
LAYER_1
  0
POLYLINE
  8
LAYER_1
 66
     1
  0
VERTEX
  8
LAYER_1
 10
-2.3685
 20
-60.8102
  0
VERTEX
  8
LAYER_1
 10
-1.9075
 20
-60.8332
  0
SEQEND
  8
LAYER_1
  0
POLYLINE
  8
LAYER_1
 66
     1
  0
VERTEX
  8
LAYER_1
 10
-2.8242
 20
-60.7745
  0
VERTEX
  8
LAYER_1
 10
-2.3685
 20
-60.8102
  0
SEQEND
  8
LAYER_1
  0
POLYLINE
  8
LAYER_1
 66
     1
  0
VERTEX
  8
LAYER_1
 10
-3.2741
 20
-60.7262
  0
VERTEX
  8
LAYER_1
 10
-2.8243
 20
-60.7745
  0
SEQEND
  8
LAYER_1
  0
POLYLINE
  8
LAYER_1
 66
     1
  0
VERTEX
  8
LAYER_1
 10
-3.7179
 20
-60.6647
  0
VERTEX
  8
LAYER_1
 10
-3.2741
 20
-60.7262
  0
SEQEND
  8
LAYER_1
  0
POLYLINE
  8
LAYER_1
 66
     1
  0
VERTEX
  8
LAYER_1
 10
-4.1548
 20
-60.5887
  0
VERTEX
  8
LAYER_1
 10
-3.7179
 20
-60.6648
  0
SEQEND
  8
LAYER_1
  0
POLYLINE
  8
LAYER_1
 66
     1
  0
VERTEX
  8
LAYER_1
 10
-4.3704
 20
-60.545
  0
VERTEX
  8
LAYER_1
 10
-4.1548
 20
-60.5887
  0
SEQEND
  8
LAYER_1
  0
POLYLINE
  8
LAYER_1
 66
     1
  0
VERTEX
  8
LAYER_1
 10
-4.4776
 20
-60.5214
  0
VERTEX
  8
LAYER_1
 10
-4.3704
 20
-60.5449
  0
SEQEND
  8
LAYER_1
  0
POLYLINE
  8
LAYER_1
 66
     1
  0
VERTEX
  8
LAYER_1
 10
-4.5841
 20
-60.4971
  0
VERTEX
  8
LAYER_1
 10
-4.4776
 20
-60.5214
  0
SEQEND
  8
LAYER_1
  0
POLYLINE
  8
LAYER_1
 66
     1
  0
VERTEX
  8
LAYER_1
 10
-5.444
 20
-62.0615
  0
VERTEX
  8
LAYER_1
 10
-4.5841
 20
-60.4972
  0
SEQEND
  8
LAYER_1
  0
POLYLINE
  8
LAYER_1
 66
     1
  0
VERTEX
  8
LAYER_1
 10
-5.3662
 20
-62.1381
  0
VERTEX
  8
LAYER_1
 10
-5.444
 20
-62.0615
  0
SEQEND
  8
LAYER_1
  0
POLYLINE
  8
LAYER_1
 66
     1
  0
VERTEX
  8
LAYER_1
 10
-5.2892
 20
-62.2162
  0
VERTEX
  8
LAYER_1
 10
-5.3662
 20
-62.1381
  0
SEQEND
  8
LAYER_1
  0
POLYLINE
  8
LAYER_1
 66
     1
  0
VERTEX
  8
LAYER_1
 10
-5.1367
 20
-62.3746
  0
VERTEX
  8
LAYER_1
 10
-5.2891
 20
-62.2162
  0
SEQEND
  8
LAYER_1
  0
POLYLINE
  8
LAYER_1
 66
     1
  0
VERTEX
  8
LAYER_1
 10
-4.8384
 20
-62.703
  0
VERTEX
  8
LAYER_1
 10
-5.1368
 20
-62.3746
  0
SEQEND
  8
LAYER_1
  0
POLYLINE
  8
LAYER_1
 66
     1
  0
VERTEX
  8
LAYER_1
 10
-4.5484
 20
-63.0444
  0
VERTEX
  8
LAYER_1
 10
-4.8384
 20
-62.7031
  0
SEQEND
  8
LAYER_1
  0
POLYLINE
  8
LAYER_1
 66
     1
  0
VERTEX
  8
LAYER_1
 10
-4.2665
 20
-63.3986
  0
VERTEX
  8
LAYER_1
 10
-4.5483
 20
-63.0444
  0
SEQEND
  8
LAYER_1
  0
POLYLINE
  8
LAYER_1
 66
     1
  0
VERTEX
  8
LAYER_1
 10
-3.9924
 20
-63.7644
  0
VERTEX
  8
LAYER_1
 10
-4.2666
 20
-63.3986
  0
SEQEND
  8
LAYER_1
  0
POLYLINE
  8
LAYER_1
 66
     1
  0
VERTEX
  8
LAYER_1
 10
-3.7258
 20
-64.1411
  0
VERTEX
  8
LAYER_1
 10
-3.9923
 20
-63.7644
  0
SEQEND
  8
LAYER_1
  0
POLYLINE
  8
LAYER_1
 66
     1
  0
VERTEX
  8
LAYER_1
 10
-4.6234
 20
-65.5553
  0
VERTEX
  8
LAYER_1
 10
-3.7258
 20
-64.1411
  0
SEQEND
  8
LAYER_1
  0
POLYLINE
  8
LAYER_1
 66
     1
  0
VERTEX
  8
LAYER_1
 10
-5.0778
 20
-65.4746
  0
VERTEX
  8
LAYER_1
 10
-4.6234
 20
-65.5553
  0
SEQEND
  8
LAYER_1
  0
POLYLINE
  8
LAYER_1
 66
     1
  0
VERTEX
  8
LAYER_1
 10
-5.5256
 20
-65.3823
  0
VERTEX
  8
LAYER_1
 10
-5.0778
 20
-65.4746
  0
SEQEND
  8
LAYER_1
  0
POLYLINE
  8
LAYER_1
 66
     1
  0
VERTEX
  8
LAYER_1
 10
-5.9659
 20
-65.2781
  0
VERTEX
  8
LAYER_1
 10
-5.5257
 20
-65.3823
  0
SEQEND
  8
LAYER_1
  0
POLYLINE
  8
LAYER_1
 66
     1
  0
VERTEX
  8
LAYER_1
 10
-6.3984
 20
-65.161
  0
VERTEX
  8
LAYER_1
 10
-5.9658
 20
-65.2781
  0
SEQEND
  8
LAYER_1
  0
POLYLINE
  8
LAYER_1
 66
     1
  0
VERTEX
  8
LAYER_1
 10
-6.8224
 20
-65.0311
  0
VERTEX
  8
LAYER_1
 10
-6.3984
 20
-65.1611
  0
SEQEND
  8
LAYER_1
  0
POLYLINE
  8
LAYER_1
 66
     1
  0
VERTEX
  8
LAYER_1
 10
-7.0308
 20
-64.9606
  0
VERTEX
  8
LAYER_1
 10
-6.8224
 20
-65.0311
  0
SEQEND
  8
LAYER_1
  0
POLYLINE
  8
LAYER_1
 66
     1
  0
VERTEX
  8
LAYER_1
 10
-7.134
 20
-64.9239
  0
VERTEX
  8
LAYER_1
 10
-7.0308
 20
-64.9606
  0
SEQEND
  8
LAYER_1
  0
POLYLINE
  8
LAYER_1
 66
     1
  0
VERTEX
  8
LAYER_1
 10
-7.2368
 20
-64.8862
  0
VERTEX
  8
LAYER_1
 10
-7.134
 20
-64.9239
  0
SEQEND
  8
LAYER_1
  0
POLYLINE
  8
LAYER_1
 66
     1
  0
VERTEX
  8
LAYER_1
 10
-8.2859
 20
-66.3305
  0
VERTEX
  8
LAYER_1
 10
-7.2369
 20
-64.8862
  0
SEQEND
  8
LAYER_1
  0
POLYLINE
  8
LAYER_1
 66
     1
  0
VERTEX
  8
LAYER_1
 10
-8.2184
 20
-66.4165
  0
VERTEX
  8
LAYER_1
 10
-8.2858
 20
-66.3305
  0
SEQEND
  8
LAYER_1
  0
POLYLINE
  8
LAYER_1
 66
     1
  0
VERTEX
  8
LAYER_1
 10
-8.1516
 20
-66.5035
  0
VERTEX
  8
LAYER_1
 10
-8.2184
 20
-66.4165
  0
SEQEND
  8
LAYER_1
  0
POLYLINE
  8
LAYER_1
 66
     1
  0
VERTEX
  8
LAYER_1
 10
-8.0203
 20
-66.6797
  0
VERTEX
  8
LAYER_1
 10
-8.1516
 20
-66.5034
  0
SEQEND
  8
LAYER_1
  0
POLYLINE
  8
LAYER_1
 66
     1
  0
VERTEX
  8
LAYER_1
 10
-7.7657
 20
-67.0429
  0
VERTEX
  8
LAYER_1
 10
-8.0204
 20
-66.6798
  0
SEQEND
  8
LAYER_1
  0
POLYLINE
  8
LAYER_1
 66
     1
  0
VERTEX
  8
LAYER_1
 10
-7.5206
 20
-67.4183
  0
VERTEX
  8
LAYER_1
 10
-7.7657
 20
-67.0429
  0
SEQEND
  8
LAYER_1
  0
POLYLINE
  8
LAYER_1
 66
     1
  0
VERTEX
  8
LAYER_1
 10
-7.2854
 20
-67.8046
  0
VERTEX
  8
LAYER_1
 10
-7.5205
 20
-67.4183
  0
SEQEND
  8
LAYER_1
  0
POLYLINE
  8
LAYER_1
 66
     1
  0
VERTEX
  8
LAYER_1
 10
-7.0592
 20
-68.2017
  0
VERTEX
  8
LAYER_1
 10
-7.2854
 20
-67.8045
  0
SEQEND
  8
LAYER_1
  0
POLYLINE
  8
LAYER_1
 66
     1
  0
VERTEX
  8
LAYER_1
 10
-6.8423
 20
-68.6092
  0
VERTEX
  8
LAYER_1
 10
-7.0593
 20
-68.2017
  0
SEQEND
  8
LAYER_1
  0
POLYLINE
  8
LAYER_1
 66
     1
  0
VERTEX
  8
LAYER_1
 10
-7.9099
 20
-69.8997
  0
VERTEX
  8
LAYER_1
 10
-6.8423
 20
-68.6092
  0
SEQEND
  8
LAYER_1
  0
POLYLINE
  8
LAYER_1
 66
     1
  0
VERTEX
  8
LAYER_1
 10
-8.3504
 20
-69.7628
  0
VERTEX
  8
LAYER_1
 10
-7.9099
 20
-69.8997
  0
SEQEND
  8
LAYER_1
  0
POLYLINE
  8
LAYER_1
 66
     1
  0
VERTEX
  8
LAYER_1
 10
-8.783
 20
-69.615
  0
VERTEX
  8
LAYER_1
 10
-8.3504
 20
-69.7628
  0
SEQEND
  8
LAYER_1
  0
POLYLINE
  8
LAYER_1
 66
     1
  0
VERTEX
  8
LAYER_1
 10
-9.207
 20
-69.4562
  0
VERTEX
  8
LAYER_1
 10
-8.783
 20
-69.615
  0
SEQEND
  8
LAYER_1
  0
POLYLINE
  8
LAYER_1
 66
     1
  0
VERTEX
  8
LAYER_1
 10
-9.6214
 20
-69.2862
  0
VERTEX
  8
LAYER_1
 10
-9.207
 20
-69.4562
  0
SEQEND
  8
LAYER_1
  0
POLYLINE
  8
LAYER_1
 66
     1
  0
VERTEX
  8
LAYER_1
 10
-10.0255
 20
-69.104
  0
VERTEX
  8
LAYER_1
 10
-9.6214
 20
-69.2862
  0
SEQEND
  8
LAYER_1
  0
POLYLINE
  8
LAYER_1
 66
     1
  0
VERTEX
  8
LAYER_1
 10
-10.2237
 20
-69.0081
  0
VERTEX
  8
LAYER_1
 10
-10.0256
 20
-69.104
  0
SEQEND
  8
LAYER_1
  0
POLYLINE
  8
LAYER_1
 66
     1
  0
VERTEX
  8
LAYER_1
 10
-10.3216
 20
-68.9585
  0
VERTEX
  8
LAYER_1
 10
-10.2237
 20
-69.0081
  0
SEQEND
  8
LAYER_1
  0
POLYLINE
  8
LAYER_1
 66
     1
  0
VERTEX
  8
LAYER_1
 10
-10.4188
 20
-68.9085
  0
VERTEX
  8
LAYER_1
 10
-10.3216
 20
-68.9584
  0
SEQEND
  8
LAYER_1
  0
POLYLINE
  8
LAYER_1
 66
     1
  0
VERTEX
  8
LAYER_1
 10
-11.6405
 20
-70.2096
  0
VERTEX
  8
LAYER_1
 10
-10.4188
 20
-68.9085
  0
SEQEND
  8
LAYER_1
  0
POLYLINE
  8
LAYER_1
 66
     1
  0
VERTEX
  8
LAYER_1
 10
-11.5846
 20
-70.3035
  0
VERTEX
  8
LAYER_1
 10
-11.6405
 20
-70.2096
  0
SEQEND
  8
LAYER_1
  0
POLYLINE
  8
LAYER_1
 66
     1
  0
VERTEX
  8
LAYER_1
 10
-11.529
 20
-70.3981
  0
VERTEX
  8
LAYER_1
 10
-11.5846
 20
-70.3035
  0
SEQEND
  8
LAYER_1
  0
POLYLINE
  8
LAYER_1
 66
     1
  0
VERTEX
  8
LAYER_1
 10
-11.4209
 20
-70.5896
  0
VERTEX
  8
LAYER_1
 10
-11.529
 20
-70.3981
  0
SEQEND
  8
LAYER_1
  0
POLYLINE
  8
LAYER_1
 66
     1
  0
VERTEX
  8
LAYER_1
 10
-11.2135
 20
-70.9819
  0
VERTEX
  8
LAYER_1
 10
-11.4209
 20
-70.5897
  0
SEQEND
  8
LAYER_1
  0
POLYLINE
  8
LAYER_1
 66
     1
  0
VERTEX
  8
LAYER_1
 10
-11.0177
 20
-71.3847
  0
VERTEX
  8
LAYER_1
 10
-11.2135
 20
-70.9819
  0
SEQEND
  8
LAYER_1
  0
POLYLINE
  8
LAYER_1
 66
     1
  0
VERTEX
  8
LAYER_1
 10
-10.8329
 20
-71.7978
  0
VERTEX
  8
LAYER_1
 10
-11.0178
 20
-71.3847
  0
SEQEND
  8
LAYER_1
  0
POLYLINE
  8
LAYER_1
 66
     1
  0
VERTEX
  8
LAYER_1
 10
-10.6582
 20
-72.2201
  0
VERTEX
  8
LAYER_1
 10
-10.8328
 20
-71.7978
  0
SEQEND
  8
LAYER_1
  0
POLYLINE
  8
LAYER_1
 66
     1
  0
VERTEX
  8
LAYER_1
 10
-10.4939
 20
-72.6514
  0
VERTEX
  8
LAYER_1
 10
-10.6583
 20
-72.2201
  0
SEQEND
  8
LAYER_1
  0
POLYLINE
  8
LAYER_1
 66
     1
  0
VERTEX
  8
LAYER_1
 10
-11.7149
 20
-73.798
  0
VERTEX
  8
LAYER_1
 10
-10.4938
 20
-72.6513
  0
SEQEND
  8
LAYER_1
  0
POLYLINE
  8
LAYER_1
 66
     1
  0
VERTEX
  8
LAYER_1
 10
-12.1349
 20
-73.6069
  0
VERTEX
  8
LAYER_1
 10
-11.7149
 20
-73.7981
  0
SEQEND
  8
LAYER_1
  0
POLYLINE
  8
LAYER_1
 66
     1
  0
VERTEX
  8
LAYER_1
 10
-12.5454
 20
-73.4061
  0
VERTEX
  8
LAYER_1
 10
-12.135
 20
-73.6069
  0
SEQEND
  8
LAYER_1
  0
POLYLINE
  8
LAYER_1
 66
     1
  0
VERTEX
  8
LAYER_1
 10
-12.9462
 20
-73.1954
  0
VERTEX
  8
LAYER_1
 10
-12.5454
 20
-73.4061
  0
SEQEND
  8
LAYER_1
  0
POLYLINE
  8
LAYER_1
 66
     1
  0
VERTEX
  8
LAYER_1
 10
-13.3358
 20
-72.9748
  0
VERTEX
  8
LAYER_1
 10
-12.9462
 20
-73.1954
  0
SEQEND
  8
LAYER_1
  0
POLYLINE
  8
LAYER_1
 66
     1
  0
VERTEX
  8
LAYER_1
 10
-13.7142
 20
-72.7433
  0
VERTEX
  8
LAYER_1
 10
-13.3358
 20
-72.9748
  0
SEQEND
  8
LAYER_1
  0
POLYLINE
  8
LAYER_1
 66
     1
  0
VERTEX
  8
LAYER_1
 10
-13.8987
 20
-72.6233
  0
VERTEX
  8
LAYER_1
 10
-13.7142
 20
-72.7433
  0
SEQEND
  8
LAYER_1
  0
POLYLINE
  8
LAYER_1
 66
     1
  0
VERTEX
  8
LAYER_1
 10
-13.9897
 20
-72.5621
  0
VERTEX
  8
LAYER_1
 10
-13.8988
 20
-72.6233
  0
SEQEND
  8
LAYER_1
  0
POLYLINE
  8
LAYER_1
 66
     1
  0
VERTEX
  8
LAYER_1
 10
-14.0796
 20
-72.4999
  0
VERTEX
  8
LAYER_1
 10
-13.9896
 20
-72.5621
  0
SEQEND
  8
LAYER_1
  0
POLYLINE
  8
LAYER_1
 66
     1
  0
VERTEX
  8
LAYER_1
 10
-15.4551
 20
-73.638
  0
VERTEX
  8
LAYER_1
 10
-14.0796
 20
-72.4999
  0
SEQEND
  8
LAYER_1
  0
POLYLINE
  8
LAYER_1
 66
     1
  0
VERTEX
  8
LAYER_1
 10
-15.4111
 20
-73.7378
  0
VERTEX
  8
LAYER_1
 10
-15.4551
 20
-73.6379
  0
SEQEND
  8
LAYER_1
  0
POLYLINE
  8
LAYER_1
 66
     1
  0
VERTEX
  8
LAYER_1
 10
-15.3681
 20
-73.8387
  0
VERTEX
  8
LAYER_1
 10
-15.4111
 20
-73.7378
  0
SEQEND
  8
LAYER_1
  0
POLYLINE
  8
LAYER_1
 66
     1
  0
VERTEX
  8
LAYER_1
 10
-15.2848
 20
-74.0424
  0
VERTEX
  8
LAYER_1
 10
-15.3681
 20
-73.8387
  0
SEQEND
  8
LAYER_1
  0
POLYLINE
  8
LAYER_1
 66
     1
  0
VERTEX
  8
LAYER_1
 10
-15.128
 20
-74.4575
  0
VERTEX
  8
LAYER_1
 10
-15.2848
 20
-74.0424
  0
SEQEND
  8
LAYER_1
  0
POLYLINE
  8
LAYER_1
 66
     1
  0
VERTEX
  8
LAYER_1
 10
-14.9842
 20
-74.8818
  0
VERTEX
  8
LAYER_1
 10
-15.1281
 20
-74.4575
  0
SEQEND
  8
LAYER_1
  0
POLYLINE
  8
LAYER_1
 66
     1
  0
VERTEX
  8
LAYER_1
 10
-14.8526
 20
-75.3148
  0
VERTEX
  8
LAYER_1
 10
-14.9842
 20
-74.8819
  0
SEQEND
  8
LAYER_1
  0
POLYLINE
  8
LAYER_1
 66
     1
  0
VERTEX
  8
LAYER_1
 10
-14.7325
 20
-75.7556
  0
VERTEX
  8
LAYER_1
 10
-14.8526
 20
-75.3148
  0
SEQEND
  8
LAYER_1
  0
POLYLINE
  8
LAYER_1
 66
     1
  0
VERTEX
  8
LAYER_1
 10
-14.6233
 20
-76.2041
  0
VERTEX
  8
LAYER_1
 10
-14.7324
 20
-75.7556
  0
SEQEND
  8
LAYER_1
  0
POLYLINE
  8
LAYER_1
 66
     1
  0
VERTEX
  8
LAYER_1
 10
-15.9784
 20
-77.1887
  0
VERTEX
  8
LAYER_1
 10
-14.6234
 20
-76.2041
  0
SEQEND
  8
LAYER_1
  0
POLYLINE
  8
LAYER_1
 66
     1
  0
VERTEX
  8
LAYER_1
 10
-16.3713
 20
-76.9462
  0
VERTEX
  8
LAYER_1
 10
-15.9784
 20
-77.1886
  0
SEQEND
  8
LAYER_1
  0
POLYLINE
  8
LAYER_1
 66
     1
  0
VERTEX
  8
LAYER_1
 10
-16.7532
 20
-76.6955
  0
VERTEX
  8
LAYER_1
 10
-16.3712
 20
-76.9462
  0
SEQEND
  8
LAYER_1
  0
POLYLINE
  8
LAYER_1
 66
     1
  0
VERTEX
  8
LAYER_1
 10
-17.1243
 20
-76.4366
  0
VERTEX
  8
LAYER_1
 10
-16.7532
 20
-76.6955
  0
SEQEND
  8
LAYER_1
  0
POLYLINE
  8
LAYER_1
 66
     1
  0
VERTEX
  8
LAYER_1
 10
-17.4835
 20
-76.1687
  0
VERTEX
  8
LAYER_1
 10
-17.1243
 20
-76.4366
  0
SEQEND
  8
LAYER_1
  0
POLYLINE
  8
LAYER_1
 66
     1
  0
VERTEX
  8
LAYER_1
 10
-17.8298
 20
-75.8915
  0
VERTEX
  8
LAYER_1
 10
-17.4835
 20
-76.1687
  0
SEQEND
  8
LAYER_1
  0
POLYLINE
  8
LAYER_1
 66
     1
  0
VERTEX
  8
LAYER_1
 10
-17.9978
 20
-75.7493
  0
VERTEX
  8
LAYER_1
 10
-17.8298
 20
-75.8915
  0
SEQEND
  8
LAYER_1
  0
POLYLINE
  8
LAYER_1
 66
     1
  0
VERTEX
  8
LAYER_1
 10
-18.0801
 20
-75.6772
  0
VERTEX
  8
LAYER_1
 10
-17.9977
 20
-75.7493
  0
SEQEND
  8
LAYER_1
  0
POLYLINE
  8
LAYER_1
 66
     1
  0
VERTEX
  8
LAYER_1
 10
-18.1618
 20
-75.6045
  0
VERTEX
  8
LAYER_1
 10
-18.0801
 20
-75.6772
  0
SEQEND
  8
LAYER_1
  0
POLYLINE
  8
LAYER_1
 66
     1
  0
VERTEX
  8
LAYER_1
 10
-19.6689
 20
-76.5609
  0
VERTEX
  8
LAYER_1
 10
-18.1618
 20
-75.6044
  0
SEQEND
  8
LAYER_1
  0
POLYLINE
  8
LAYER_1
 66
     1
  0
VERTEX
  8
LAYER_1
 10
-19.6379
 20
-76.6658
  0
VERTEX
  8
LAYER_1
 10
-19.669
 20
-76.561
  0
SEQEND
  8
LAYER_1
  0
POLYLINE
  8
LAYER_1
 66
     1
  0
VERTEX
  8
LAYER_1
 10
-19.6078
 20
-76.7713
  0
VERTEX
  8
LAYER_1
 10
-19.6379
 20
-76.6658
  0
SEQEND
  8
LAYER_1
  0
POLYLINE
  8
LAYER_1
 66
     1
  0
VERTEX
  8
LAYER_1
 10
-19.5505
 20
-76.9836
  0
VERTEX
  8
LAYER_1
 10
-19.6077
 20
-76.7713
  0
SEQEND
  8
LAYER_1
  0
POLYLINE
  8
LAYER_1
 66
     1
  0
VERTEX
  8
LAYER_1
 10
-19.4474
 20
-77.4149
  0
VERTEX
  8
LAYER_1
 10
-19.5506
 20
-76.9836
  0
SEQEND
  8
LAYER_1
  0
POLYLINE
  8
LAYER_1
 66
     1
  0
VERTEX
  8
LAYER_1
 10
-19.3581
 20
-77.8541
  0
VERTEX
  8
LAYER_1
 10
-19.4474
 20
-77.4149
  0
SEQEND
  8
LAYER_1
  0
POLYLINE
  8
LAYER_1
 66
     1
  0
VERTEX
  8
LAYER_1
 10
-19.2813
 20
-78.2999
  0
VERTEX
  8
LAYER_1
 10
-19.358
 20
-77.8541
  0
SEQEND
  8
LAYER_1
  0
POLYLINE
  8
LAYER_1
 66
     1
  0
VERTEX
  8
LAYER_1
 10
-19.2175
 20
-78.7527
  0
VERTEX
  8
LAYER_1
 10
-19.2813
 20
-78.2999
  0
SEQEND
  8
LAYER_1
  0
POLYLINE
  8
LAYER_1
 66
     1
  0
VERTEX
  8
LAYER_1
 10
-19.1653
 20
-79.2111
  0
VERTEX
  8
LAYER_1
 10
-19.2176
 20
-78.7527
  0
SEQEND
  8
LAYER_1
  0
POLYLINE
  8
LAYER_1
 66
     1
  0
VERTEX
  8
LAYER_1
 10
-20.633
 20
-80.018
  0
VERTEX
  8
LAYER_1
 10
-19.1652
 20
-79.211
  0
SEQEND
  8
LAYER_1
  0
POLYLINE
  8
LAYER_1
 66
     1
  0
VERTEX
  8
LAYER_1
 10
-20.9925
 20
-79.7283
  0
VERTEX
  8
LAYER_1
 10
-20.633
 20
-80.018
  0
SEQEND
  8
LAYER_1
  0
POLYLINE
  8
LAYER_1
 66
     1
  0
VERTEX
  8
LAYER_1
 10
-21.3405
 20
-79.432
  0
VERTEX
  8
LAYER_1
 10
-20.9926
 20
-79.7283
  0
SEQEND
  8
LAYER_1
  0
POLYLINE
  8
LAYER_1
 66
     1
  0
VERTEX
  8
LAYER_1
 10
-21.6761
 20
-79.1284
  0
VERTEX
  8
LAYER_1
 10
-21.3404
 20
-79.432
  0
SEQEND
  8
LAYER_1
  0
POLYLINE
  8
LAYER_1
 66
     1
  0
VERTEX
  8
LAYER_1
 10
-21.9986
 20
-78.8175
  0
VERTEX
  8
LAYER_1
 10
-21.6761
 20
-79.1284
  0
SEQEND
  8
LAYER_1
  0
POLYLINE
  8
LAYER_1
 66
     1
  0
VERTEX
  8
LAYER_1
 10
-22.3075
 20
-78.4993
  0
VERTEX
  8
LAYER_1
 10
-21.9986
 20
-78.8175
  0
SEQEND
  8
LAYER_1
  0
POLYLINE
  8
LAYER_1
 66
     1
  0
VERTEX
  8
LAYER_1
 10
-22.4563
 20
-78.337
  0
VERTEX
  8
LAYER_1
 10
-22.3075
 20
-78.4994
  0
SEQEND
  8
LAYER_1
  0
POLYLINE
  8
LAYER_1
 66
     1
  0
VERTEX
  8
LAYER_1
 10
-22.5291
 20
-78.2553
  0
VERTEX
  8
LAYER_1
 10
-22.4563
 20
-78.337
  0
SEQEND
  8
LAYER_1
  0
POLYLINE
  8
LAYER_1
 66
     1
  0
VERTEX
  8
LAYER_1
 10
-22.6008
 20
-78.1729
  0
VERTEX
  8
LAYER_1
 10
-22.529
 20
-78.2553
  0
SEQEND
  8
LAYER_1
  0
POLYLINE
  8
LAYER_1
 66
     1
  0
VERTEX
  8
LAYER_1
 10
-24.2161
 20
-78.9329
  0
VERTEX
  8
LAYER_1
 10
-22.6008
 20
-78.1729
  0
SEQEND
  8
LAYER_1
  0
POLYLINE
  8
LAYER_1
 66
     1
  0
VERTEX
  8
LAYER_1
 10
-24.1981
 20
-79.0407
  0
VERTEX
  8
LAYER_1
 10
-24.2161
 20
-78.9329
  0
SEQEND
  8
LAYER_1
  0
POLYLINE
  8
LAYER_1
 66
     1
  0
VERTEX
  8
LAYER_1
 10
-24.1817
 20
-79.1492
  0
VERTEX
  8
LAYER_1
 10
-24.1981
 20
-79.0407
  0
SEQEND
  8
LAYER_1
  0
POLYLINE
  8
LAYER_1
 66
     1
  0
VERTEX
  8
LAYER_1
 10
-24.1516
 20
-79.3672
  0
VERTEX
  8
LAYER_1
 10
-24.1817
 20
-79.1492
  0
SEQEND
  8
LAYER_1
  0
POLYLINE
  8
LAYER_1
 66
     1
  0
VERTEX
  8
LAYER_1
 10
-24.1034
 20
-79.808
  0
VERTEX
  8
LAYER_1
 10
-24.1517
 20
-79.3672
  0
SEQEND
  8
LAYER_1
  0
POLYLINE
  8
LAYER_1
 66
     1
  0
VERTEX
  8
LAYER_1
 10
-24.0696
 20
-80.2545
  0
VERTEX
  8
LAYER_1
 10
-24.1033
 20
-79.808
  0
SEQEND
  8
LAYER_1
  0
POLYLINE
  8
LAYER_1
 66
     1
  0
VERTEX
  8
LAYER_1
 10
-24.0495
 20
-80.7066
  0
VERTEX
  8
LAYER_1
 10
-24.0696
 20
-80.2545
  0
SEQEND
  8
LAYER_1
  0
POLYLINE
  8
LAYER_1
 66
     1
  0
VERTEX
  8
LAYER_1
 10
-24.0429
 20
-81.1637
  0
VERTEX
  8
LAYER_1
 10
-24.0495
 20
-80.7066
  0
SEQEND
  8
LAYER_1
  0
POLYLINE
  8
LAYER_1
 66
     1
  0
VERTEX
  8
LAYER_1
 10
-24.0495
 20
-81.6254
  0
VERTEX
  8
LAYER_1
 10
-24.0434
 20
-81.1637
  0
SEQEND
  8
LAYER_1
  0
POLYLINE
  8
LAYER_1
 66
     1
  0
VERTEX
  8
LAYER_1
 10
-25.6066
 20
-82.2419
  0
VERTEX
  8
LAYER_1
 10
-24.0495
 20
-81.6254
  0
SEQEND
  8
LAYER_1
  0
POLYLINE
  8
LAYER_1
 66
     1
  0
VERTEX
  8
LAYER_1
 10
-25.9271
 20
-81.9095
  0
VERTEX
  8
LAYER_1
 10
-25.6066
 20
-82.2419
  0
SEQEND
  8
LAYER_1
  0
POLYLINE
  8
LAYER_1
 66
     1
  0
VERTEX
  8
LAYER_1
 10
-26.235
 20
-81.5718
  0
VERTEX
  8
LAYER_1
 10
-25.9271
 20
-81.9095
  0
SEQEND
  8
LAYER_1
  0
POLYLINE
  8
LAYER_1
 66
     1
  0
VERTEX
  8
LAYER_1
 10
-26.5296
 20
-81.2285
  0
VERTEX
  8
LAYER_1
 10
-26.2349
 20
-81.5718
  0
SEQEND
  8
LAYER_1
  0
POLYLINE
  8
LAYER_1
 66
     1
  0
VERTEX
  8
LAYER_1
 10
-26.8111
 20
-80.8796
  0
VERTEX
  8
LAYER_1
 10
-26.5297
 20
-81.2285
  0
SEQEND
  8
LAYER_1
  0
POLYLINE
  8
LAYER_1
 66
     1
  0
VERTEX
  8
LAYER_1
 10
-27.0773
 20
-80.525
  0
VERTEX
  8
LAYER_1
 10
-26.811
 20
-80.8795
  0
SEQEND
  8
LAYER_1
  0
POLYLINE
  8
LAYER_1
 66
     1
  0
VERTEX
  8
LAYER_1
 10
-27.2047
 20
-80.3458
  0
VERTEX
  8
LAYER_1
 10
-27.0774
 20
-80.5251
  0
SEQEND
  8
LAYER_1
  0
POLYLINE
  8
LAYER_1
 66
     1
  0
VERTEX
  8
LAYER_1
 10
-27.2669
 20
-80.2552
  0
VERTEX
  8
LAYER_1
 10
-27.2047
 20
-80.3458
  0
SEQEND
  8
LAYER_1
  0
POLYLINE
  8
LAYER_1
 66
     1
  0
VERTEX
  8
LAYER_1
 10
-27.3277
 20
-80.1645
  0
VERTEX
  8
LAYER_1
 10
-27.2669
 20
-80.2551
  0
SEQEND
  8
LAYER_1
  0
POLYLINE
  8
LAYER_1
 66
     1
  0
VERTEX
  8
LAYER_1
 10
-29.0253
 20
-80.7162
  0
VERTEX
  8
LAYER_1
 10
-27.3277
 20
-80.1645
  0
SEQEND
  8
LAYER_1
  0
POLYLINE
  8
LAYER_1
 66
     1
  0
VERTEX
  8
LAYER_1
 10
-29.0214
 20
-80.8253
  0
VERTEX
  8
LAYER_1
 10
-29.0254
 20
-80.7162
  0
SEQEND
  8
LAYER_1
  0
POLYLINE
  8
LAYER_1
 66
     1
  0
VERTEX
  8
LAYER_1
 10
-29.0184
 20
-80.9348
  0
VERTEX
  8
LAYER_1
 10
-29.0213
 20
-80.8253
  0
SEQEND
  8
LAYER_1
  0
POLYLINE
  8
LAYER_1
 66
     1
  0
VERTEX
  8
LAYER_1
 10
-29.0158
 20
-81.1551
  0
VERTEX
  8
LAYER_1
 10
-29.0184
 20
-80.9348
  0
SEQEND
  8
LAYER_1
  0
POLYLINE
  8
LAYER_1
 66
     1
  0
VERTEX
  8
LAYER_1
 10
-29.0229
 20
-81.5982
  0
VERTEX
  8
LAYER_1
 10
-29.0158
 20
-81.155
  0
SEQEND
  8
LAYER_1
  0
POLYLINE
  8
LAYER_1
 66
     1
  0
VERTEX
  8
LAYER_1
 10
-29.0454
 20
-82.0457
  0
VERTEX
  8
LAYER_1
 10
-29.0229
 20
-81.5982
  0
SEQEND
  8
LAYER_1
  0
POLYLINE
  8
LAYER_1
 66
     1
  0
VERTEX
  8
LAYER_1
 10
-29.0825
 20
-82.4968
  0
VERTEX
  8
LAYER_1
 10
-29.0455
 20
-82.0457
  0
SEQEND
  8
LAYER_1
  0
POLYLINE
  8
LAYER_1
 66
     1
  0
VERTEX
  8
LAYER_1
 10
-29.1331
 20
-82.9513
  0
VERTEX
  8
LAYER_1
 10
-29.0825
 20
-82.4969
  0
SEQEND
  8
LAYER_1
  0
POLYLINE
  8
LAYER_1
 66
     1
  0
VERTEX
  8
LAYER_1
 10
-29.1966
 20
-83.4083
  0
VERTEX
  8
LAYER_1
 10
-29.1331
 20
-82.9512
  0
SEQEND
  8
LAYER_1
  0
POLYLINE
  8
LAYER_1
 66
     1
  0
VERTEX
  8
LAYER_1
 10
-30.8188
 20
-83.825
  0
VERTEX
  8
LAYER_1
 10
-29.1966
 20
-83.4083
  0
SEQEND
  8
LAYER_1
  0
POLYLINE
  8
LAYER_1
 66
     1
  0
VERTEX
  8
LAYER_1
 10
-31.095
 20
-83.4549
  0
VERTEX
  8
LAYER_1
 10
-30.8189
 20
-83.825
  0
SEQEND
  8
LAYER_1
  0
POLYLINE
  8
LAYER_1
 66
     1
  0
VERTEX
  8
LAYER_1
 10
-31.3582
 20
-83.0812
  0
VERTEX
  8
LAYER_1
 10
-31.0949
 20
-83.4549
  0
SEQEND
  8
LAYER_1
  0
POLYLINE
  8
LAYER_1
 66
     1
  0
VERTEX
  8
LAYER_1
 10
-31.6076
 20
-82.7039
  0
VERTEX
  8
LAYER_1
 10
-31.3582
 20
-83.0812
  0
SEQEND
  8
LAYER_1
  0
POLYLINE
  8
LAYER_1
 66
     1
  0
VERTEX
  8
LAYER_1
 10
-31.8431
 20
-82.3225
  0
VERTEX
  8
LAYER_1
 10
-31.6076
 20
-82.7038
  0
SEQEND
  8
LAYER_1
  0
POLYLINE
  8
LAYER_1
 66
     1
  0
VERTEX
  8
LAYER_1
 10
-32.063
 20
-81.9372
  0
VERTEX
  8
LAYER_1
 10
-31.8431
 20
-82.3225
  0
SEQEND
  8
LAYER_1
  0
POLYLINE
  8
LAYER_1
 66
     1
  0
VERTEX
  8
LAYER_1
 10
-32.1669
 20
-81.7434
  0
VERTEX
  8
LAYER_1
 10
-32.0631
 20
-81.9372
  0
SEQEND
  8
LAYER_1
  0
POLYLINE
  8
LAYER_1
 66
     1
  0
VERTEX
  8
LAYER_1
 10
-32.2168
 20
-81.6459
  0
VERTEX
  8
LAYER_1
 10
-32.1669
 20
-81.7435
  0
SEQEND
  8
LAYER_1
  0
POLYLINE
  8
LAYER_1
 66
     1
  0
VERTEX
  8
LAYER_1
 10
-32.2661
 20
-81.5483
  0
VERTEX
  8
LAYER_1
 10
-32.2168
 20
-81.6459
  0
SEQEND
  8
LAYER_1
  0
POLYLINE
  8
LAYER_1
 66
     1
  0
VERTEX
  8
LAYER_1
 10
-34.0193
 20
-81.8827
  0
VERTEX
  8
LAYER_1
 10
-32.2661
 20
-81.5483
  0
SEQEND
  8
LAYER_1
  0
POLYLINE
  8
LAYER_1
 66
     1
  0
VERTEX
  8
LAYER_1
 10
-34.029
 20
-81.9915
  0
VERTEX
  8
LAYER_1
 10
-34.0192
 20
-81.8827
  0
SEQEND
  8
LAYER_1
  0
POLYLINE
  8
LAYER_1
 66
     1
  0
VERTEX
  8
LAYER_1
 10
-34.0399
 20
-82.1006
  0
VERTEX
  8
LAYER_1
 10
-34.0291
 20
-81.9915
  0
SEQEND
  8
LAYER_1
  0
POLYLINE
  8
LAYER_1
 66
     1
  0
VERTEX
  8
LAYER_1
 10
-34.0648
 20
-82.3192
  0
VERTEX
  8
LAYER_1
 10
-34.0399
 20
-82.1006
  0
SEQEND
  8
LAYER_1
  0
POLYLINE
  8
LAYER_1
 66
     1
  0
VERTEX
  8
LAYER_1
 10
-34.1276
 20
-82.7584
  0
VERTEX
  8
LAYER_1
 10
-34.0648
 20
-82.3192
  0
SEQEND
  8
LAYER_1
  0
POLYLINE
  8
LAYER_1
 66
     1
  0
VERTEX
  8
LAYER_1
 10
-34.206
 20
-83.1993
  0
VERTEX
  8
LAYER_1
 10
-34.1276
 20
-82.7584
  0
SEQEND
  8
LAYER_1
  0
POLYLINE
  8
LAYER_1
 66
     1
  0
VERTEX
  8
LAYER_1
 10
-34.2993
 20
-83.6421
  0
VERTEX
  8
LAYER_1
 10
-34.206
 20
-83.1993
  0
SEQEND
  8
LAYER_1
  0
POLYLINE
  8
LAYER_1
 66
     1
  0
VERTEX
  8
LAYER_1
 10
-34.4061
 20
-84.0866
  0
VERTEX
  8
LAYER_1
 10
-34.2993
 20
-83.6421
  0
SEQEND
  8
LAYER_1
  0
POLYLINE
  8
LAYER_1
 66
     1
  0
VERTEX
  8
LAYER_1
 10
-34.5268
 20
-84.5321
  0
VERTEX
  8
LAYER_1
 10
-34.4061
 20
-84.0866
  0
SEQEND
  8
LAYER_1
  0
POLYLINE
  8
LAYER_1
 66
     1
  0
VERTEX
  8
LAYER_1
 10
-36.1884
 20
-84.7421
  0
VERTEX
  8
LAYER_1
 10
-34.5268
 20
-84.5321
  0
SEQEND
  8
LAYER_1
  0
POLYLINE
  8
LAYER_1
 66
     1
  0
VERTEX
  8
LAYER_1
 10
-36.4159
 20
-84.3403
  0
VERTEX
  8
LAYER_1
 10
-36.1884
 20
-84.7421
  0
SEQEND
  8
LAYER_1
  0
POLYLINE
  8
LAYER_1
 66
     1
  0
VERTEX
  8
LAYER_1
 10
-36.6302
 20
-83.9368
  0
VERTEX
  8
LAYER_1
 10
-36.4159
 20
-84.3403
  0
SEQEND
  8
LAYER_1
  0
POLYLINE
  8
LAYER_1
 66
     1
  0
VERTEX
  8
LAYER_1
 10
-36.8303
 20
-83.531
  0
VERTEX
  8
LAYER_1
 10
-36.6302
 20
-83.9368
  0
SEQEND
  8
LAYER_1
  0
POLYLINE
  8
LAYER_1
 66
     1
  0
VERTEX
  8
LAYER_1
 10
-37.0162
 20
-83.1232
  0
VERTEX
  8
LAYER_1
 10
-36.8303
 20
-83.531
  0
SEQEND
  8
LAYER_1
  0
POLYLINE
  8
LAYER_1
 66
     1
  0
VERTEX
  8
LAYER_1
 10
-37.1859
 20
-82.7135
  0
VERTEX
  8
LAYER_1
 10
-37.0162
 20
-83.1233
  0
SEQEND
  8
LAYER_1
  0
POLYLINE
  8
LAYER_1
 66
     1
  0
VERTEX
  8
LAYER_1
 10
-37.2646
 20
-82.5081
  0
VERTEX
  8
LAYER_1
 10
-37.1859
 20
-82.7135
  0
SEQEND
  8
LAYER_1
  0
POLYLINE
  8
LAYER_1
 66
     1
  0
VERTEX
  8
LAYER_1
 10
-37.3023
 20
-82.4052
  0
VERTEX
  8
LAYER_1
 10
-37.2646
 20
-82.5081
  0
SEQEND
  8
LAYER_1
  0
POLYLINE
  8
LAYER_1
 66
     1
  0
VERTEX
  8
LAYER_1
 10
-37.3387
 20
-82.302
  0
VERTEX
  8
LAYER_1
 10
-37.3023
 20
-82.4052
  0
SEQEND
  8
LAYER_1
  0
POLYLINE
  8
LAYER_1
 66
     1
  0
VERTEX
  8
LAYER_1
 10
-39.1203
 20
-82.4142
  0
VERTEX
  8
LAYER_1
 10
-37.3387
 20
-82.3021
  0
SEQEND
  8
LAYER_1
  0
POLYLINE
  8
LAYER_1
 66
     1
  0
VERTEX
  8
LAYER_1
 10
-39.1433
 20
-82.521
  0
VERTEX
  8
LAYER_1
 10
-39.1203
 20
-82.4142
  0
SEQEND
  8
LAYER_1
  0
POLYLINE
  8
LAYER_1
 66
     1
  0
VERTEX
  8
LAYER_1
 10
-39.1679
 20
-82.6278
  0
VERTEX
  8
LAYER_1
 10
-39.1433
 20
-82.521
  0
SEQEND
  8
LAYER_1
  0
POLYLINE
  8
LAYER_1
 66
     1
  0
VERTEX
  8
LAYER_1
 10
-39.2202
 20
-82.8415
  0
VERTEX
  8
LAYER_1
 10
-39.1679
 20
-82.6278
  0
SEQEND
  8
LAYER_1
  0
POLYLINE
  8
LAYER_1
 66
     1
  0
VERTEX
  8
LAYER_1
 10
-39.3373
 20
-83.2691
  0
VERTEX
  8
LAYER_1
 10
-39.2202
 20
-82.8415
  0
SEQEND
  8
LAYER_1
  0
POLYLINE
  8
LAYER_1
 66
     1
  0
VERTEX
  8
LAYER_1
 10
-39.4705
 20
-83.697
  0
VERTEX
  8
LAYER_1
 10
-39.3372
 20
-83.269
  0
SEQEND
  8
LAYER_1
  0
POLYLINE
  8
LAYER_1
 66
     1
  0
VERTEX
  8
LAYER_1
 10
-39.6184
 20
-84.1247
  0
VERTEX
  8
LAYER_1
 10
-39.4706
 20
-83.6971
  0
SEQEND
  8
LAYER_1
  0
POLYLINE
  8
LAYER_1
 66
     1
  0
VERTEX
  8
LAYER_1
 10
-39.7804
 20
-84.552
  0
VERTEX
  8
LAYER_1
 10
-39.6183
 20
-84.1247
  0
SEQEND
  8
LAYER_1
  0
POLYLINE
  8
LAYER_1
 66
     1
  0
VERTEX
  8
LAYER_1
 10
-39.9557
 20
-84.9793
  0
VERTEX
  8
LAYER_1
 10
-39.7804
 20
-84.552
  0
SEQEND
  8
LAYER_1
  0
POLYLINE
  8
LAYER_1
 66
     1
  0
VERTEX
  8
LAYER_1
 10
-41.6305
 20
-84.9793
  0
VERTEX
  8
LAYER_1
 10
-39.9557
 20
-84.9793
  0
SEQEND
  8
LAYER_1
  0
POLYLINE
  8
LAYER_1
 66
     1
  0
VERTEX
  8
LAYER_1
 10
-41.8058
 20
-84.552
  0
VERTEX
  8
LAYER_1
 10
-41.6305
 20
-84.9793
  0
SEQEND
  8
LAYER_1
  0
POLYLINE
  8
LAYER_1
 66
     1
  0
VERTEX
  8
LAYER_1
 10
-41.9679
 20
-84.1247
  0
VERTEX
  8
LAYER_1
 10
-41.8058
 20
-84.552
  0
SEQEND
  8
LAYER_1
  0
POLYLINE
  8
LAYER_1
 66
     1
  0
VERTEX
  8
LAYER_1
 10
-42.1157
 20
-83.697
  0
VERTEX
  8
LAYER_1
 10
-41.9679
 20
-84.1246
  0
SEQEND
  8
LAYER_1
  0
POLYLINE
  8
LAYER_1
 66
     1
  0
VERTEX
  8
LAYER_1
 10
-42.249
 20
-83.2691
  0
VERTEX
  8
LAYER_1
 10
-42.1157
 20
-83.6971
  0
SEQEND
  8
LAYER_1
  0
POLYLINE
  8
LAYER_1
 66
     1
  0
VERTEX
  8
LAYER_1
 10
-42.3661
 20
-82.8415
  0
VERTEX
  8
LAYER_1
 10
-42.249
 20
-83.2691
  0
SEQEND
  8
LAYER_1
  0
POLYLINE
  8
LAYER_1
 66
     1
  0
VERTEX
  8
LAYER_1
 10
-42.4183
 20
-82.6278
  0
VERTEX
  8
LAYER_1
 10
-42.366
 20
-82.8415
  0
SEQEND
  8
LAYER_1
  0
POLYLINE
  8
LAYER_1
 66
     1
  0
VERTEX
  8
LAYER_1
 10
-42.4429
 20
-82.521
  0
VERTEX
  8
LAYER_1
 10
-42.4183
 20
-82.6278
  0
SEQEND
  8
LAYER_1
  0
POLYLINE
  8
LAYER_1
 66
     1
  0
VERTEX
  8
LAYER_1
 10
-42.4662
 20
-82.4142
  0
VERTEX
  8
LAYER_1
 10
-42.4429
 20
-82.521
  0
SEQEND
  8
LAYER_1
  0
POLYLINE
  8
LAYER_1
 66
     1
  0
VERTEX
  8
LAYER_1
 10
-44.2479
 20
-82.302
  0
VERTEX
  8
LAYER_1
 10
-42.4662
 20
-82.4141
  0
SEQEND
  8
LAYER_1
  0
POLYLINE
  8
LAYER_1
 66
     1
  0
VERTEX
  8
LAYER_1
 10
-44.2842
 20
-82.4052
  0
VERTEX
  8
LAYER_1
 10
-44.2478
 20
-82.302
  0
SEQEND
  8
LAYER_1
  0
POLYLINE
  8
LAYER_1
 66
     1
  0
VERTEX
  8
LAYER_1
 10
-44.3219
 20
-82.5081
  0
VERTEX
  8
LAYER_1
 10
-44.2842
 20
-82.4052
  0
SEQEND
  8
LAYER_1
  0
POLYLINE
  8
LAYER_1
 66
     1
  0
VERTEX
  8
LAYER_1
 10
-44.4007
 20
-82.7135
  0
VERTEX
  8
LAYER_1
 10
-44.322
 20
-82.5081
  0
SEQEND
  8
LAYER_1
  0
POLYLINE
  8
LAYER_1
 66
     1
  0
VERTEX
  8
LAYER_1
 10
-44.5703
 20
-83.1232
  0
VERTEX
  8
LAYER_1
 10
-44.4006
 20
-82.7134
  0
SEQEND
  8
LAYER_1
  0
POLYLINE
  8
LAYER_1
 66
     1
  0
VERTEX
  8
LAYER_1
 10
-44.7562
 20
-83.531
  0
VERTEX
  8
LAYER_1
 10
-44.5703
 20
-83.1232
  0
SEQEND
  8
LAYER_1
  0
POLYLINE
  8
LAYER_1
 66
     1
  0
VERTEX
  8
LAYER_1
 10
-44.9566
 20
-83.9368
  0
VERTEX
  8
LAYER_1
 10
-44.7562
 20
-83.531
  0
SEQEND
  8
LAYER_1
  0
POLYLINE
  8
LAYER_1
 66
     1
  0
VERTEX
  8
LAYER_1
 10
-45.1706
 20
-84.3403
  0
VERTEX
  8
LAYER_1
 10
-44.9566
 20
-83.9368
  0
SEQEND
  8
LAYER_1
  0
POLYLINE
  8
LAYER_1
 66
     1
  0
VERTEX
  8
LAYER_1
 10
-45.3981
 20
-84.7421
  0
VERTEX
  8
LAYER_1
 10
-45.1706
 20
-84.3403
  0
SEQEND
  8
LAYER_1
  0
POLYLINE
  8
LAYER_1
 66
     1
  0
VERTEX
  8
LAYER_1
 10
-47.06
 20
-84.5321
  0
VERTEX
  8
LAYER_1
 10
-45.3981
 20
-84.7421
  0
SEQEND
  8
LAYER_1
  0
POLYLINE
  8
LAYER_1
 66
     1
  0
VERTEX
  8
LAYER_1
 10
-47.1804
 20
-84.0866
  0
VERTEX
  8
LAYER_1
 10
-47.06
 20
-84.5321
  0
SEQEND
  8
LAYER_1
  0
POLYLINE
  8
LAYER_1
 66
     1
  0
VERTEX
  8
LAYER_1
 10
-47.2876
 20
-83.6421
  0
VERTEX
  8
LAYER_1
 10
-47.1804
 20
-84.0866
  0
SEQEND
  8
LAYER_1
  0
POLYLINE
  8
LAYER_1
 66
     1
  0
VERTEX
  8
LAYER_1
 10
-47.3805
 20
-83.1993
  0
VERTEX
  8
LAYER_1
 10
-47.2876
 20
-83.6421
  0
SEQEND
  8
LAYER_1
  0
POLYLINE
  8
LAYER_1
 66
     1
  0
VERTEX
  8
LAYER_1
 10
-47.4589
 20
-82.7584
  0
VERTEX
  8
LAYER_1
 10
-47.3805
 20
-83.1993
  0
SEQEND
  8
LAYER_1
  0
POLYLINE
  8
LAYER_1
 66
     1
  0
VERTEX
  8
LAYER_1
 10
-47.5217
 20
-82.3192
  0
VERTEX
  8
LAYER_1
 10
-47.4589
 20
-82.7584
  0
SEQEND
  8
LAYER_1
  0
POLYLINE
  8
LAYER_1
 66
     1
  0
VERTEX
  8
LAYER_1
 10
-47.5469
 20
-82.1006
  0
VERTEX
  8
LAYER_1
 10
-47.5218
 20
-82.3192
  0
SEQEND
  8
LAYER_1
  0
POLYLINE
  8
LAYER_1
 66
     1
  0
VERTEX
  8
LAYER_1
 10
-47.5575
 20
-81.9915
  0
VERTEX
  8
LAYER_1
 10
-47.5469
 20
-82.1006
  0
SEQEND
  8
LAYER_1
  0
POLYLINE
  8
LAYER_1
 66
     1
  0
VERTEX
  8
LAYER_1
 10
-47.5672
 20
-81.8827
  0
VERTEX
  8
LAYER_1
 10
-47.5574
 20
-81.9915
  0
SEQEND
  8
LAYER_1
  0
POLYLINE
  8
LAYER_1
 66
     1
  0
VERTEX
  8
LAYER_1
 10
-49.3205
 20
-81.5483
  0
VERTEX
  8
LAYER_1
 10
-47.5673
 20
-81.8827
  0
SEQEND
  8
LAYER_1
  0
POLYLINE
  8
LAYER_1
 66
     1
  0
VERTEX
  8
LAYER_1
 10
-49.3697
 20
-81.6459
  0
VERTEX
  8
LAYER_1
 10
-49.3204
 20
-81.5483
  0
SEQEND
  8
LAYER_1
  0
POLYLINE
  8
LAYER_1
 66
     1
  0
VERTEX
  8
LAYER_1
 10
-49.42
 20
-81.7434
  0
VERTEX
  8
LAYER_1
 10
-49.3697
 20
-81.6458
  0
SEQEND
  8
LAYER_1
  0
POLYLINE
  8
LAYER_1
 66
     1
  0
VERTEX
  8
LAYER_1
 10
-49.5235
 20
-81.9372
  0
VERTEX
  8
LAYER_1
 10
-49.42
 20
-81.7434
  0
SEQEND
  8
LAYER_1
  0
POLYLINE
  8
LAYER_1
 66
     1
  0
VERTEX
  8
LAYER_1
 10
-49.7434
 20
-82.3225
  0
VERTEX
  8
LAYER_1
 10
-49.5235
 20
-81.9372
  0
SEQEND
  8
LAYER_1
  0
POLYLINE
  8
LAYER_1
 66
     1
  0
VERTEX
  8
LAYER_1
 10
-49.9789
 20
-82.7039
  0
VERTEX
  8
LAYER_1
 10
-49.7434
 20
-82.3226
  0
SEQEND
  8
LAYER_1
  0
POLYLINE
  8
LAYER_1
 66
     1
  0
VERTEX
  8
LAYER_1
 10
-50.2286
 20
-83.0812
  0
VERTEX
  8
LAYER_1
 10
-49.9789
 20
-82.7039
  0
SEQEND
  8
LAYER_1
  0
POLYLINE
  8
LAYER_1
 66
     1
  0
VERTEX
  8
LAYER_1
 10
-50.4916
 20
-83.4549
  0
VERTEX
  8
LAYER_1
 10
-50.2287
 20
-83.0812
  0
SEQEND
  8
LAYER_1
  0
POLYLINE
  8
LAYER_1
 66
     1
  0
VERTEX
  8
LAYER_1
 10
-50.7677
 20
-83.825
  0
VERTEX
  8
LAYER_1
 10
-50.4915
 20
-83.4549
  0
SEQEND
  8
LAYER_1
  0
POLYLINE
  8
LAYER_1
 66
     1
  0
VERTEX
  8
LAYER_1
 10
-52.3899
 20
-83.4083
  0
VERTEX
  8
LAYER_1
 10
-50.7677
 20
-83.825
  0
SEQEND
  8
LAYER_1
  0
POLYLINE
  8
LAYER_1
 66
     1
  0
VERTEX
  8
LAYER_1
 10
-52.4538
 20
-82.9513
  0
VERTEX
  8
LAYER_1
 10
-52.39
 20
-83.4084
  0
SEQEND
  8
LAYER_1
  0
POLYLINE
  8
LAYER_1
 66
     1
  0
VERTEX
  8
LAYER_1
 10
-52.5041
 20
-82.4968
  0
VERTEX
  8
LAYER_1
 10
-52.4538
 20
-82.9512
  0
SEQEND
  8
LAYER_1
  0
POLYLINE
  8
LAYER_1
 66
     1
  0
VERTEX
  8
LAYER_1
 10
-52.5411
 20
-82.0457
  0
VERTEX
  8
LAYER_1
 10
-52.5041
 20
-82.4968
  0
SEQEND
  8
LAYER_1
  0
POLYLINE
  8
LAYER_1
 66
     1
  0
VERTEX
  8
LAYER_1
 10
-52.5636
 20
-81.5982
  0
VERTEX
  8
LAYER_1
 10
-52.5411
 20
-82.0457
  0
SEQEND
  8
LAYER_1
  0
POLYLINE
  8
LAYER_1
 66
     1
  0
VERTEX
  8
LAYER_1
 10
-52.571
 20
-81.1551
  0
VERTEX
  8
LAYER_1
 10
-52.5636
 20
-81.5983
  0
SEQEND
  8
LAYER_1
  0
POLYLINE
  8
LAYER_1
 66
     1
  0
VERTEX
  8
LAYER_1
 10
-52.5683
 20
-80.9348
  0
VERTEX
  8
LAYER_1
 10
-52.5709
 20
-81.1551
  0
SEQEND
  8
LAYER_1
  0
POLYLINE
  8
LAYER_1
 66
     1
  0
VERTEX
  8
LAYER_1
 10
-52.5654
 20
-80.8253
  0
VERTEX
  8
LAYER_1
 10
-52.5683
 20
-80.9348
  0
SEQEND
  8
LAYER_1
  0
POLYLINE
  8
LAYER_1
 66
     1
  0
VERTEX
  8
LAYER_1
 10
-52.5615
 20
-80.7162
  0
VERTEX
  8
LAYER_1
 10
-52.5655
 20
-80.8253
  0
SEQEND
  8
LAYER_1
  0
POLYLINE
  8
LAYER_1
 66
     1
  0
VERTEX
  8
LAYER_1
 10
-54.2591
 20
-80.1645
  0
VERTEX
  8
LAYER_1
 10
-52.5615
 20
-80.7162
  0
SEQEND
  8
LAYER_1
  0
POLYLINE
  8
LAYER_1
 66
     1
  0
VERTEX
  8
LAYER_1
 10
-54.3199
 20
-80.2552
  0
VERTEX
  8
LAYER_1
 10
-54.259
 20
-80.1646
  0
SEQEND
  8
LAYER_1
  0
POLYLINE
  8
LAYER_1
 66
     1
  0
VERTEX
  8
LAYER_1
 10
-54.3821
 20
-80.3458
  0
VERTEX
  8
LAYER_1
 10
-54.3199
 20
-80.2552
  0
SEQEND
  8
LAYER_1
  0
POLYLINE
  8
LAYER_1
 66
     1
  0
VERTEX
  8
LAYER_1
 10
-54.5095
 20
-80.525
  0
VERTEX
  8
LAYER_1
 10
-54.3822
 20
-80.3457
  0
SEQEND
  8
LAYER_1
  0
POLYLINE
  8
LAYER_1
 66
     1
  0
VERTEX
  8
LAYER_1
 10
-54.7757
 20
-80.8795
  0
VERTEX
  8
LAYER_1
 10
-54.5095
 20
-80.525
  0
SEQEND
  8
LAYER_1
  0
POLYLINE
  8
LAYER_1
 66
     1
  0
VERTEX
  8
LAYER_1
 10
-55.0572
 20
-81.2285
  0
VERTEX
  8
LAYER_1
 10
-54.7757
 20
-80.8796
  0
SEQEND
  8
LAYER_1
  0
POLYLINE
  8
LAYER_1
 66
     1
  0
VERTEX
  8
LAYER_1
 10
-55.3522
 20
-81.5718
  0
VERTEX
  8
LAYER_1
 10
-55.0572
 20
-81.2285
  0
SEQEND
  8
LAYER_1
  0
POLYLINE
  8
LAYER_1
 66
     1
  0
VERTEX
  8
LAYER_1
 10
-55.6601
 20
-81.9094
  0
VERTEX
  8
LAYER_1
 10
-55.3522
 20
-81.5717
  0
SEQEND
  8
LAYER_1
  0
POLYLINE
  8
LAYER_1
 66
     1
  0
VERTEX
  8
LAYER_1
 10
-55.9802
 20
-82.2418
  0
VERTEX
  8
LAYER_1
 10
-55.6601
 20
-81.9094
  0
SEQEND
  8
LAYER_1
  0
POLYLINE
  8
LAYER_1
 66
     1
  0
VERTEX
  8
LAYER_1
 10
-57.5376
 20
-81.6254
  0
VERTEX
  8
LAYER_1
 10
-55.9802
 20
-82.2419
  0
SEQEND
  8
LAYER_1
  0
POLYLINE
  8
LAYER_1
 66
     1
  0
VERTEX
  8
LAYER_1
 10
-57.5432
 20
-81.1637
  0
VERTEX
  8
LAYER_1
 10
-57.5376
 20
-81.6254
  0
SEQEND
  8
LAYER_1
  0
POLYLINE
  8
LAYER_1
 66
     1
  0
VERTEX
  8
LAYER_1
 10
-57.5376
 20
-80.7066
  0
VERTEX
  8
LAYER_1
 10
-57.5442
 20
-81.1637
  0
SEQEND
  8
LAYER_1
  0
POLYLINE
  8
LAYER_1
 66
     1
  0
VERTEX
  8
LAYER_1
 10
-57.5175
 20
-80.2545
  0
VERTEX
  8
LAYER_1
 10
-57.5376
 20
-80.7066
  0
SEQEND
  8
LAYER_1
  0
POLYLINE
  8
LAYER_1
 66
     1
  0
VERTEX
  8
LAYER_1
 10
-57.4838
 20
-79.808
  0
VERTEX
  8
LAYER_1
 10
-57.5175
 20
-80.2545
  0
SEQEND
  8
LAYER_1
  0
POLYLINE
  8
LAYER_1
 66
     1
  0
VERTEX
  8
LAYER_1
 10
-57.4355
 20
-79.3671
  0
VERTEX
  8
LAYER_1
 10
-57.4838
 20
-79.8079
  0
SEQEND
  8
LAYER_1
  0
POLYLINE
  8
LAYER_1
 66
     1
  0
VERTEX
  8
LAYER_1
 10
-57.4054
 20
-79.1492
  0
VERTEX
  8
LAYER_1
 10
-57.4355
 20
-79.3672
  0
SEQEND
  8
LAYER_1
  0
POLYLINE
  8
LAYER_1
 66
     1
  0
VERTEX
  8
LAYER_1
 10
-57.389
 20
-79.0407
  0
VERTEX
  8
LAYER_1
 10
-57.4054
 20
-79.1492
  0
SEQEND
  8
LAYER_1
  0
POLYLINE
  8
LAYER_1
 66
     1
  0
VERTEX
  8
LAYER_1
 10
-57.3713
 20
-78.9329
  0
VERTEX
  8
LAYER_1
 10
-57.389
 20
-79.0407
  0
SEQEND
  8
LAYER_1
  0
POLYLINE
  8
LAYER_1
 66
     1
  0
VERTEX
  8
LAYER_1
 10
-58.9866
 20
-78.1729
  0
VERTEX
  8
LAYER_1
 10
-57.3713
 20
-78.9329
  0
SEQEND
  8
LAYER_1
  0
POLYLINE
  8
LAYER_1
 66
     1
  0
VERTEX
  8
LAYER_1
 10
-59.0583
 20
-78.2552
  0
VERTEX
  8
LAYER_1
 10
-58.9865
 20
-78.1728
  0
SEQEND
  8
LAYER_1
  0
POLYLINE
  8
LAYER_1
 66
     1
  0
VERTEX
  8
LAYER_1
 10
-59.1311
 20
-78.3369
  0
VERTEX
  8
LAYER_1
 10
-59.0583
 20
-78.2552
  0
SEQEND
  8
LAYER_1
  0
POLYLINE
  8
LAYER_1
 66
     1
  0
VERTEX
  8
LAYER_1
 10
-59.2799
 20
-78.4993
  0
VERTEX
  8
LAYER_1
 10
-59.1311
 20
-78.3369
  0
SEQEND
  8
LAYER_1
  0
POLYLINE
  8
LAYER_1
 66
     1
  0
VERTEX
  8
LAYER_1
 10
-59.5888
 20
-78.8175
  0
VERTEX
  8
LAYER_1
 10
-59.2799
 20
-78.4993
  0
SEQEND
  8
LAYER_1
  0
POLYLINE
  8
LAYER_1
 66
     1
  0
VERTEX
  8
LAYER_1
 10
-59.9116
 20
-79.1284
  0
VERTEX
  8
LAYER_1
 10
-59.5888
 20
-78.8175
  0
SEQEND
  8
LAYER_1
  0
POLYLINE
  8
LAYER_1
 66
     1
  0
VERTEX
  8
LAYER_1
 10
-60.2469
 20
-79.432
  0
VERTEX
  8
LAYER_1
 10
-59.9115
 20
-79.1284
  0
SEQEND
  8
LAYER_1
  0
POLYLINE
  8
LAYER_1
 66
     1
  0
VERTEX
  8
LAYER_1
 10
-60.5949
 20
-79.7283
  0
VERTEX
  8
LAYER_1
 10
-60.247
 20
-79.432
  0
SEQEND
  8
LAYER_1
  0
POLYLINE
  8
LAYER_1
 66
     1
  0
VERTEX
  8
LAYER_1
 10
-60.9544
 20
-80.018
  0
VERTEX
  8
LAYER_1
 10
-60.5949
 20
-79.7283
  0
SEQEND
  8
LAYER_1
  0
POLYLINE
  8
LAYER_1
 66
     1
  0
VERTEX
  8
LAYER_1
 10
-62.4221
 20
-79.2111
  0
VERTEX
  8
LAYER_1
 10
-60.9543
 20
-80.0181
  0
SEQEND
  8
LAYER_1
  0
POLYLINE
  8
LAYER_1
 66
     1
  0
VERTEX
  8
LAYER_1
 10
-62.3699
 20
-78.7527
  0
VERTEX
  8
LAYER_1
 10
-62.4222
 20
-79.2111
  0
SEQEND
  8
LAYER_1
  0
POLYLINE
  8
LAYER_1
 66
     1
  0
VERTEX
  8
LAYER_1
 10
-62.306
 20
-78.2999
  0
VERTEX
  8
LAYER_1
 10
-62.3698
 20
-78.7527
  0
SEQEND
  8
LAYER_1
  0
POLYLINE
  8
LAYER_1
 66
     1
  0
VERTEX
  8
LAYER_1
 10
-62.2297
 20
-77.8541
  0
VERTEX
  8
LAYER_1
 10
-62.3061
 20
-78.2999
  0
SEQEND
  8
LAYER_1
  0
POLYLINE
  8
LAYER_1
 66
     1
  0
VERTEX
  8
LAYER_1
 10
-62.14
 20
-77.4149
  0
VERTEX
  8
LAYER_1
 10
-62.2296
 20
-77.8541
  0
SEQEND
  8
LAYER_1
  0
POLYLINE
  8
LAYER_1
 66
     1
  0
VERTEX
  8
LAYER_1
 10
-62.0368
 20
-76.9836
  0
VERTEX
  8
LAYER_1
 10
-62.14
 20
-77.4149
  0
SEQEND
  8
LAYER_1
  0
POLYLINE
  8
LAYER_1
 66
     1
  0
VERTEX
  8
LAYER_1
 10
-61.9796
 20
-76.7713
  0
VERTEX
  8
LAYER_1
 10
-62.0368
 20
-76.9836
  0
SEQEND
  8
LAYER_1
  0
POLYLINE
  8
LAYER_1
 66
     1
  0
VERTEX
  8
LAYER_1
 10
-61.9495
 20
-76.6658
  0
VERTEX
  8
LAYER_1
 10
-61.9796
 20
-76.7713
  0
SEQEND
  8
LAYER_1
  0
POLYLINE
  8
LAYER_1
 66
     1
  0
VERTEX
  8
LAYER_1
 10
-61.9184
 20
-76.5609
  0
VERTEX
  8
LAYER_1
 10
-61.9495
 20
-76.6658
  0
SEQEND
  8
LAYER_1
  0
POLYLINE
  8
LAYER_1
 66
     1
  0
VERTEX
  8
LAYER_1
 10
-63.4256
 20
-75.6044
  0
VERTEX
  8
LAYER_1
 10
-61.9185
 20
-76.5609
  0
SEQEND
  8
LAYER_1
  0
POLYLINE
  8
LAYER_1
 66
     1
  0
VERTEX
  8
LAYER_1
 10
-63.5073
 20
-75.6772
  0
VERTEX
  8
LAYER_1
 10
-63.4256
 20
-75.6044
  0
SEQEND
  8
LAYER_1
  0
POLYLINE
  8
LAYER_1
 66
     1
  0
VERTEX
  8
LAYER_1
 10
-63.5896
 20
-75.7493
  0
VERTEX
  8
LAYER_1
 10
-63.5072
 20
-75.6772
  0
SEQEND
  8
LAYER_1
  0
POLYLINE
  8
LAYER_1
 66
     1
  0
VERTEX
  8
LAYER_1
 10
-63.7576
 20
-75.8915
  0
VERTEX
  8
LAYER_1
 10
-63.5896
 20
-75.7493
  0
SEQEND
  8
LAYER_1
  0
POLYLINE
  8
LAYER_1
 66
     1
  0
VERTEX
  8
LAYER_1
 10
-64.1039
 20
-76.1686
  0
VERTEX
  8
LAYER_1
 10
-63.7576
 20
-75.8914
  0
SEQEND
  8
LAYER_1
  0
POLYLINE
  8
LAYER_1
 66
     1
  0
VERTEX
  8
LAYER_1
 10
-64.4631
 20
-76.4365
  0
VERTEX
  8
LAYER_1
 10
-64.1039
 20
-76.1686
  0
SEQEND
  8
LAYER_1
  0
POLYLINE
  8
LAYER_1
 66
     1
  0
VERTEX
  8
LAYER_1
 10
-64.8342
 20
-76.6955
  0
VERTEX
  8
LAYER_1
 10
-64.4631
 20
-76.4365
  0
SEQEND
  8
LAYER_1
  0
POLYLINE
  8
LAYER_1
 66
     1
  0
VERTEX
  8
LAYER_1
 10
-65.2165
 20
-76.9462
  0
VERTEX
  8
LAYER_1
 10
-64.8342
 20
-76.6955
  0
SEQEND
  8
LAYER_1
  0
POLYLINE
  8
LAYER_1
 66
     1
  0
VERTEX
  8
LAYER_1
 10
-65.6091
 20
-77.1886
  0
VERTEX
  8
LAYER_1
 10
-65.2165
 20
-76.9462
  0
SEQEND
  8
LAYER_1
  0
POLYLINE
  8
LAYER_1
 66
     1
  0
VERTEX
  8
LAYER_1
 10
-66.9644
 20
-76.204
  0
VERTEX
  8
LAYER_1
 10
-65.6091
 20
-77.1886
  0
SEQEND
  8
LAYER_1
  0
POLYLINE
  8
LAYER_1
 66
     1
  0
VERTEX
  8
LAYER_1
 10
-66.8552
 20
-75.7556
  0
VERTEX
  8
LAYER_1
 10
-66.9643
 20
-76.2041
  0
SEQEND
  8
LAYER_1
  0
POLYLINE
  8
LAYER_1
 66
     1
  0
VERTEX
  8
LAYER_1
 10
-66.7349
 20
-75.3147
  0
VERTEX
  8
LAYER_1
 10
-66.8553
 20
-75.7556
  0
SEQEND
  8
LAYER_1
  0
POLYLINE
  8
LAYER_1
 66
     1
  0
VERTEX
  8
LAYER_1
 10
-66.6032
 20
-74.8818
  0
VERTEX
  8
LAYER_1
 10
-66.7348
 20
-75.3147
  0
SEQEND
  8
LAYER_1
  0
POLYLINE
  8
LAYER_1
 66
     1
  0
VERTEX
  8
LAYER_1
 10
-66.4594
 20
-74.4574
  0
VERTEX
  8
LAYER_1
 10
-66.6033
 20
-74.8817
  0
SEQEND
  8
LAYER_1
  0
POLYLINE
  8
LAYER_1
 66
     1
  0
VERTEX
  8
LAYER_1
 10
-66.3029
 20
-74.0424
  0
VERTEX
  8
LAYER_1
 10
-66.4593
 20
-74.4575
  0
SEQEND
  8
LAYER_1
  0
POLYLINE
  8
LAYER_1
 66
     1
  0
VERTEX
  8
LAYER_1
 10
-66.2196
 20
-73.8387
  0
VERTEX
  8
LAYER_1
 10
-66.3029
 20
-74.0424
  0
SEQEND
  8
LAYER_1
  0
POLYLINE
  8
LAYER_1
 66
     1
  0
VERTEX
  8
LAYER_1
 10
-66.1763
 20
-73.7378
  0
VERTEX
  8
LAYER_1
 10
-66.2196
 20
-73.8387
  0
SEQEND
  8
LAYER_1
  0
POLYLINE
  8
LAYER_1
 66
     1
  0
VERTEX
  8
LAYER_1
 10
-66.1323
 20
-73.6379
  0
VERTEX
  8
LAYER_1
 10
-66.1763
 20
-73.7378
  0
SEQEND
  8
LAYER_1
  0
POLYLINE
  8
LAYER_1
 66
     1
  0
VERTEX
  8
LAYER_1
 10
-67.5078
 20
-72.4999
  0
VERTEX
  8
LAYER_1
 10
-66.1323
 20
-73.6379
  0
SEQEND
  8
LAYER_1
  0
POLYLINE
  8
LAYER_1
 66
     1
  0
VERTEX
  8
LAYER_1
 10
-67.5977
 20
-72.5621
  0
VERTEX
  8
LAYER_1
 10
-67.5078
 20
-72.4999
  0
SEQEND
  8
LAYER_1
  0
POLYLINE
  8
LAYER_1
 66
     1
  0
VERTEX
  8
LAYER_1
 10
-67.6887
 20
-72.6232
  0
VERTEX
  8
LAYER_1
 10
-67.5977
 20
-72.562
  0
SEQEND
  8
LAYER_1
  0
POLYLINE
  8
LAYER_1
 66
     1
  0
VERTEX
  8
LAYER_1
 10
-67.8732
 20
-72.7433
  0
VERTEX
  8
LAYER_1
 10
-67.6887
 20
-72.6232
  0
SEQEND
  8
LAYER_1
  0
POLYLINE
  8
LAYER_1
 66
     1
  0
VERTEX
  8
LAYER_1
 10
-68.2516
 20
-72.9748
  0
VERTEX
  8
LAYER_1
 10
-67.8732
 20
-72.7433
  0
SEQEND
  8
LAYER_1
  0
POLYLINE
  8
LAYER_1
 66
     1
  0
VERTEX
  8
LAYER_1
 10
-68.6415
 20
-73.1954
  0
VERTEX
  8
LAYER_1
 10
-68.2516
 20
-72.9748
  0
SEQEND
  8
LAYER_1
  0
POLYLINE
  8
LAYER_1
 66
     1
  0
VERTEX
  8
LAYER_1
 10
-69.042
 20
-73.4061
  0
VERTEX
  8
LAYER_1
 10
-68.6415
 20
-73.1954
  0
SEQEND
  8
LAYER_1
  0
POLYLINE
  8
LAYER_1
 66
     1
  0
VERTEX
  8
LAYER_1
 10
-69.4525
 20
-73.6068
  0
VERTEX
  8
LAYER_1
 10
-69.0421
 20
-73.4061
  0
SEQEND
  8
LAYER_1
  0
POLYLINE
  8
LAYER_1
 66
     1
  0
VERTEX
  8
LAYER_1
 10
-69.8728
 20
-73.798
  0
VERTEX
  8
LAYER_1
 10
-69.4525
 20
-73.6068
  0
SEQEND
  8
LAYER_1
  0
POLYLINE
  8
LAYER_1
 66
     1
  0
VERTEX
  8
LAYER_1
 10
-71.0935
 20
-72.6514
  0
VERTEX
  8
LAYER_1
 10
-69.8728
 20
-73.798
  0
SEQEND
  8
LAYER_1
  0
POLYLINE
  8
LAYER_1
 66
     1
  0
VERTEX
  8
LAYER_1
 10
-70.9292
 20
-72.2201
  0
VERTEX
  8
LAYER_1
 10
-71.0936
 20
-72.6514
  0
SEQEND
  8
LAYER_1
  0
POLYLINE
  8
LAYER_1
 66
     1
  0
VERTEX
  8
LAYER_1
 10
-70.7545
 20
-71.7977
  0
VERTEX
  8
LAYER_1
 10
-70.9291
 20
-72.2201
  0
SEQEND
  8
LAYER_1
  0
POLYLINE
  8
LAYER_1
 66
     1
  0
VERTEX
  8
LAYER_1
 10
-70.5697
 20
-71.3847
  0
VERTEX
  8
LAYER_1
 10
-70.7546
 20
-71.7978
  0
SEQEND
  8
LAYER_1
  0
POLYLINE
  8
LAYER_1
 66
     1
  0
VERTEX
  8
LAYER_1
 10
-70.3739
 20
-70.9818
  0
VERTEX
  8
LAYER_1
 10
-70.5697
 20
-71.3846
  0
SEQEND
  8
LAYER_1
  0
POLYLINE
  8
LAYER_1
 66
     1
  0
VERTEX
  8
LAYER_1
 10
-70.1665
 20
-70.5896
  0
VERTEX
  8
LAYER_1
 10
-70.3739
 20
-70.9818
  0
SEQEND
  8
LAYER_1
  0
POLYLINE
  8
LAYER_1
 66
     1
  0
VERTEX
  8
LAYER_1
 10
-70.0584
 20
-70.3981
  0
VERTEX
  8
LAYER_1
 10
-70.1665
 20
-70.5896
  0
SEQEND
  8
LAYER_1
  0
POLYLINE
  8
LAYER_1
 66
     1
  0
VERTEX
  8
LAYER_1
 10
-70.0031
 20
-70.3035
  0
VERTEX
  8
LAYER_1
 10
-70.0583
 20
-70.3981
  0
SEQEND
  8
LAYER_1
  0
POLYLINE
  8
LAYER_1
 66
     1
  0
VERTEX
  8
LAYER_1
 10
-69.9469
 20
-70.2096
  0
VERTEX
  8
LAYER_1
 10
-70.0031
 20
-70.3035
  0
SEQEND
  8
LAYER_1
  0
POLYLINE
  8
LAYER_1
 66
     1
  0
VERTEX
  8
LAYER_1
 10
-71.1686
 20
-68.9085
  0
VERTEX
  8
LAYER_1
 10
-69.9469
 20
-70.2096
  0
SEQEND
  8
LAYER_1
  0
POLYLINE
  8
LAYER_1
 66
     1
  0
VERTEX
  8
LAYER_1
 10
-71.2658
 20
-68.9584
  0
VERTEX
  8
LAYER_1
 10
-71.1686
 20
-68.9084
  0
SEQEND
  8
LAYER_1
  0
POLYLINE
  8
LAYER_1
 66
     1
  0
VERTEX
  8
LAYER_1
 10
-71.3637
 20
-69.008
  0
VERTEX
  8
LAYER_1
 10
-71.2658
 20
-68.9584
  0
SEQEND
  8
LAYER_1
  0
POLYLINE
  8
LAYER_1
 66
     1
  0
VERTEX
  8
LAYER_1
 10
-71.5619
 20
-69.1039
  0
VERTEX
  8
LAYER_1
 10
-71.3638
 20
-69.008
  0
SEQEND
  8
LAYER_1
  0
POLYLINE
  8
LAYER_1
 66
     1
  0
VERTEX
  8
LAYER_1
 10
-71.966
 20
-69.2862
  0
VERTEX
  8
LAYER_1
 10
-71.5618
 20
-69.104
  0
SEQEND
  8
LAYER_1
  0
POLYLINE
  8
LAYER_1
 66
     1
  0
VERTEX
  8
LAYER_1
 10
-72.3804
 20
-69.4562
  0
VERTEX
  8
LAYER_1
 10
-71.966
 20
-69.2862
  0
SEQEND
  8
LAYER_1
  0
POLYLINE
  8
LAYER_1
 66
     1
  0
VERTEX
  8
LAYER_1
 10
-72.8044
 20
-69.6149
  0
VERTEX
  8
LAYER_1
 10
-72.3804
 20
-69.4561
  0
SEQEND
  8
LAYER_1
  0
POLYLINE
  8
LAYER_1
 66
     1
  0
VERTEX
  8
LAYER_1
 10
-73.237
 20
-69.7628
  0
VERTEX
  8
LAYER_1
 10
-72.8044
 20
-69.615
  0
SEQEND
  8
LAYER_1
  0
POLYLINE
  8
LAYER_1
 66
     1
  0
VERTEX
  8
LAYER_1
 10
-73.6775
 20
-69.8997
  0
VERTEX
  8
LAYER_1
 10
-73.237
 20
-69.7628
  0
SEQEND
  8
LAYER_1
  0
POLYLINE
  8
LAYER_1
 66
     1
  0
VERTEX
  8
LAYER_1
 10
-74.7455
 20
-68.6092
  0
VERTEX
  8
LAYER_1
 10
-73.6776
 20
-69.8997
  0
SEQEND
  8
LAYER_1
  0
POLYLINE
  8
LAYER_1
 66
     1
  0
VERTEX
  8
LAYER_1
 10
-74.5282
 20
-68.2017
  0
VERTEX
  8
LAYER_1
 10
-74.7455
 20
-68.6092
  0
SEQEND
  8
LAYER_1
  0
POLYLINE
  8
LAYER_1
 66
     1
  0
VERTEX
  8
LAYER_1
 10
-74.3019
 20
-67.8045
  0
VERTEX
  8
LAYER_1
 10
-74.5281
 20
-68.2017
  0
SEQEND
  8
LAYER_1
  0
POLYLINE
  8
LAYER_1
 66
     1
  0
VERTEX
  8
LAYER_1
 10
-74.0668
 20
-67.4182
  0
VERTEX
  8
LAYER_1
 10
-74.3019
 20
-67.8045
  0
SEQEND
  8
LAYER_1
  0
POLYLINE
  8
LAYER_1
 66
     1
  0
VERTEX
  8
LAYER_1
 10
-73.8221
 20
-67.0428
  0
VERTEX
  8
LAYER_1
 10
-74.0668
 20
-67.4182
  0
SEQEND
  8
LAYER_1
  0
POLYLINE
  8
LAYER_1
 66
     1
  0
VERTEX
  8
LAYER_1
 10
-73.5671
 20
-66.6797
  0
VERTEX
  8
LAYER_1
 10
-73.8221
 20
-67.0428
  0
SEQEND
  8
LAYER_1
  0
POLYLINE
  8
LAYER_1
 66
     1
  0
VERTEX
  8
LAYER_1
 10
-73.4358
 20
-66.5034
  0
VERTEX
  8
LAYER_1
 10
-73.5671
 20
-66.6797
  0
SEQEND
  8
LAYER_1
  0
POLYLINE
  8
LAYER_1
 66
     1
  0
VERTEX
  8
LAYER_1
 10
-73.369
 20
-66.4164
  0
VERTEX
  8
LAYER_1
 10
-73.4358
 20
-66.5034
  0
SEQEND
  8
LAYER_1
  0
POLYLINE
  8
LAYER_1
 66
     1
  0
VERTEX
  8
LAYER_1
 10
-73.3015
 20
-66.3305
  0
VERTEX
  8
LAYER_1
 10
-73.369
 20
-66.4165
  0
SEQEND
  8
LAYER_1
  0
POLYLINE
  8
LAYER_1
 66
     1
  0
VERTEX
  8
LAYER_1
 10
-74.3506
 20
-64.8861
  0
VERTEX
  8
LAYER_1
 10
-73.3015
 20
-66.3304
  0
SEQEND
  8
LAYER_1
  0
POLYLINE
  8
LAYER_1
 66
     1
  0
VERTEX
  8
LAYER_1
 10
-74.4534
 20
-64.9239
  0
VERTEX
  8
LAYER_1
 10
-74.3506
 20
-64.8862
  0
SEQEND
  8
LAYER_1
  0
POLYLINE
  8
LAYER_1
 66
     1
  0
VERTEX
  8
LAYER_1
 10
-74.5566
 20
-64.9606
  0
VERTEX
  8
LAYER_1
 10
-74.4534
 20
-64.9239
  0
SEQEND
  8
LAYER_1
  0
POLYLINE
  8
LAYER_1
 66
     1
  0
VERTEX
  8
LAYER_1
 10
-74.765
 20
-65.031
  0
VERTEX
  8
LAYER_1
 10
-74.5566
 20
-64.9605
  0
SEQEND
  8
LAYER_1
  0
POLYLINE
  8
LAYER_1
 66
     1
  0
VERTEX
  8
LAYER_1
 10
-75.189
 20
-65.161
  0
VERTEX
  8
LAYER_1
 10
-74.765
 20
-65.031
  0
SEQEND
  8
LAYER_1
  0
POLYLINE
  8
LAYER_1
 66
     1
  0
VERTEX
  8
LAYER_1
 10
-75.6215
 20
-65.2781
  0
VERTEX
  8
LAYER_1
 10
-75.1889
 20
-65.161
  0
SEQEND
  8
LAYER_1
  0
POLYLINE
  8
LAYER_1
 66
     1
  0
VERTEX
  8
LAYER_1
 10
-76.0618
 20
-65.3823
  0
VERTEX
  8
LAYER_1
 10
-75.6216
 20
-65.2781
  0
SEQEND
  8
LAYER_1
  0
POLYLINE
  8
LAYER_1
 66
     1
  0
VERTEX
  8
LAYER_1
 10
-76.5096
 20
-65.4745
  0
VERTEX
  8
LAYER_1
 10
-76.0618
 20
-65.3822
  0
SEQEND
  8
LAYER_1
  0
POLYLINE
  8
LAYER_1
 66
     1
  0
VERTEX
  8
LAYER_1
 10
-76.964
 20
-65.5552
  0
VERTEX
  8
LAYER_1
 10
-76.5096
 20
-65.4745
  0
SEQEND
  8
LAYER_1
  0
POLYLINE
  8
LAYER_1
 66
     1
  0
VERTEX
  8
LAYER_1
 10
-77.8616
 20
-64.141
  0
VERTEX
  8
LAYER_1
 10
-76.964
 20
-65.5552
  0
SEQEND
  8
LAYER_1
  0
POLYLINE
  8
LAYER_1
 66
     1
  0
VERTEX
  8
LAYER_1
 10
-77.595
 20
-63.7643
  0
VERTEX
  8
LAYER_1
 10
-77.8616
 20
-64.141
  0
SEQEND
  8
LAYER_1
  0
POLYLINE
  8
LAYER_1
 66
     1
  0
VERTEX
  8
LAYER_1
 10
-77.3209
 20
-63.3986
  0
VERTEX
  8
LAYER_1
 10
-77.5951
 20
-63.7644
  0
SEQEND
  8
LAYER_1
  0
POLYLINE
  8
LAYER_1
 66
     1
  0
VERTEX
  8
LAYER_1
 10
-77.0391
 20
-63.0443
  0
VERTEX
  8
LAYER_1
 10
-77.3209
 20
-63.3985
  0
SEQEND
  8
LAYER_1
  0
POLYLINE
  8
LAYER_1
 66
     1
  0
VERTEX
  8
LAYER_1
 10
-76.749
 20
-62.703
  0
VERTEX
  8
LAYER_1
 10
-77.0391
 20
-63.0443
  0
SEQEND
  8
LAYER_1
  0
POLYLINE
  8
LAYER_1
 66
     1
  0
VERTEX
  8
LAYER_1
 10
-76.4507
 20
-62.3746
  0
VERTEX
  8
LAYER_1
 10
-76.749
 20
-62.703
  0
SEQEND
  8
LAYER_1
  0
POLYLINE
  8
LAYER_1
 66
     1
  0
VERTEX
  8
LAYER_1
 10
-76.2982
 20
-62.2162
  0
VERTEX
  8
LAYER_1
 10
-76.4507
 20
-62.3746
  0
SEQEND
  8
LAYER_1
  0
POLYLINE
  8
LAYER_1
 66
     1
  0
VERTEX
  8
LAYER_1
 10
-76.2212
 20
-62.1381
  0
VERTEX
  8
LAYER_1
 10
-76.2982
 20
-62.2162
  0
SEQEND
  8
LAYER_1
  0
POLYLINE
  8
LAYER_1
 66
     1
  0
VERTEX
  8
LAYER_1
 10
-76.1434
 20
-62.0614
  0
VERTEX
  8
LAYER_1
 10
-76.2212
 20
-62.1381
  0
SEQEND
  8
LAYER_1
  0
POLYLINE
  8
LAYER_1
 66
     1
  0
VERTEX
  8
LAYER_1
 10
-77.0033
 20
-60.4971
  0
VERTEX
  8
LAYER_1
 10
-76.1434
 20
-62.0614
  0
SEQEND
  8
LAYER_1
  0
POLYLINE
  8
LAYER_1
 66
     1
  0
VERTEX
  8
LAYER_1
 10
-77.1098
 20
-60.5217
  0
VERTEX
  8
LAYER_1
 10
-77.0033
 20
-60.4971
  0
SEQEND
  8
LAYER_1
  0
POLYLINE
  8
LAYER_1
 66
     1
  0
VERTEX
  8
LAYER_1
 10
-77.217
 20
-60.5452
  0
VERTEX
  8
LAYER_1
 10
-77.1098
 20
-60.5217
  0
SEQEND
  8
LAYER_1
  0
POLYLINE
  8
LAYER_1
 66
     1
  0
VERTEX
  8
LAYER_1
 10
-77.4326
 20
-60.5889
  0
VERTEX
  8
LAYER_1
 10
-77.217
 20
-60.5452
  0
SEQEND
  8
LAYER_1
  0
POLYLINE
  8
LAYER_1
 66
     1
  0
VERTEX
  8
LAYER_1
 10
-77.8695
 20
-60.6649
  0
VERTEX
  8
LAYER_1
 10
-77.4326
 20
-60.5888
  0
SEQEND
  8
LAYER_1
  0
POLYLINE
  8
LAYER_1
 66
     1
  0
VERTEX
  8
LAYER_1
 10
-78.3134
 20
-60.7264
  0
VERTEX
  8
LAYER_1
 10
-77.8696
 20
-60.6649
  0
SEQEND
  8
LAYER_1
  0
POLYLINE
  8
LAYER_1
 66
     1
  0
VERTEX
  8
LAYER_1
 10
-78.7632
 20
-60.7747
  0
VERTEX
  8
LAYER_1
 10
-78.3134
 20
-60.7264
  0
SEQEND
  8
LAYER_1
  0
POLYLINE
  8
LAYER_1
 66
     1
  0
VERTEX
  8
LAYER_1
 10
-79.2189
 20
-60.8105
  0
VERTEX
  8
LAYER_1
 10
-78.7632
 20
-60.7748
  0
SEQEND
  8
LAYER_1
  0
POLYLINE
  8
LAYER_1
 66
     1
  0
VERTEX
  8
LAYER_1
 10
-79.6799
 20
-60.8337
  0
VERTEX
  8
LAYER_1
 10
-79.2189
 20
-60.8104
  0
SEQEND
  8
LAYER_1
  0
POLYLINE
  8
LAYER_1
 66
     1
  0
VERTEX
  8
LAYER_1
 10
-80.3933
 20
-59.318
  0
VERTEX
  8
LAYER_1
 10
-79.6799
 20
-60.8337
  0
SEQEND
  8
LAYER_1
  0
POLYLINE
  8
LAYER_1
 66
     1
  0
VERTEX
  8
LAYER_1
 10
-80.0814
 20
-58.9777
  0
VERTEX
  8
LAYER_1
 10
-80.3933
 20
-59.318
  0
SEQEND
  8
LAYER_1
  0
POLYLINE
  8
LAYER_1
 66
     1
  0
VERTEX
  8
LAYER_1
 10
-79.7636
 20
-58.6493
  0
VERTEX
  8
LAYER_1
 10
-80.0814
 20
-58.9777
  0
SEQEND
  8
LAYER_1
  0
POLYLINE
  8
LAYER_1
 66
     1
  0
VERTEX
  8
LAYER_1
 10
-79.4398
 20
-58.3331
  0
VERTEX
  8
LAYER_1
 10
-79.7636
 20
-58.6493
  0
SEQEND
  8
LAYER_1
  0
POLYLINE
  8
LAYER_1
 66
     1
  0
VERTEX
  8
LAYER_1
 10
-79.1091
 20
-58.0305
  0
VERTEX
  8
LAYER_1
 10
-79.4398
 20
-58.3331
  0
SEQEND
  8
LAYER_1
  0
POLYLINE
  8
LAYER_1
 66
     1
  0
VERTEX
  8
LAYER_1
 10
-78.7721
 20
-57.7424
  0
VERTEX
  8
LAYER_1
 10
-79.1091
 20
-58.0305
  0
SEQEND
  8
LAYER_1
  0
POLYLINE
  8
LAYER_1
 66
     1
  0
VERTEX
  8
LAYER_1
 10
-78.6011
 20
-57.6042
  0
VERTEX
  8
LAYER_1
 10
-78.7721
 20
-57.7424
  0
SEQEND
  8
LAYER_1
  0
POLYLINE
  8
LAYER_1
 66
     1
  0
VERTEX
  8
LAYER_1
 10
-78.5148
 20
-57.5367
  0
VERTEX
  8
LAYER_1
 10
-78.6011
 20
-57.6042
  0
SEQEND
  8
LAYER_1
  0
POLYLINE
  8
LAYER_1
 66
     1
  0
VERTEX
  8
LAYER_1
 10
-78.4281
 20
-57.4699
  0
VERTEX
  8
LAYER_1
 10
-78.5148
 20
-57.5367
  0
SEQEND
  8
LAYER_1
  0
POLYLINE
  8
LAYER_1
 66
     1
  0
VERTEX
  8
LAYER_1
 10
-79.085
 20
-55.8103
  0
VERTEX
  8
LAYER_1
 10
-78.4282
 20
-57.4699
  0
SEQEND
  8
LAYER_1
  0
POLYLINE
  8
LAYER_1
 66
     1
  0
VERTEX
  8
LAYER_1
 10
-79.1938
 20
-55.8211
  0
VERTEX
  8
LAYER_1
 10
-79.085
 20
-55.8103
  0
SEQEND
  8
LAYER_1
  0
POLYLINE
  8
LAYER_1
 66
     1
  0
VERTEX
  8
LAYER_1
 10
-79.3029
 20
-55.8309
  0
VERTEX
  8
LAYER_1
 10
-79.1938
 20
-55.8211
  0
SEQEND
  8
LAYER_1
  0
POLYLINE
  8
LAYER_1
 66
     1
  0
VERTEX
  8
LAYER_1
 10
-79.5225
 20
-55.8471
  0
VERTEX
  8
LAYER_1
 10
-79.3029
 20
-55.831
  0
SEQEND
  8
LAYER_1
  0
POLYLINE
  8
LAYER_1
 66
     1
  0
VERTEX
  8
LAYER_1
 10
-79.9654
 20
-55.868
  0
VERTEX
  8
LAYER_1
 10
-79.5225
 20
-55.8471
  0
SEQEND
  8
LAYER_1
  0
POLYLINE
  8
LAYER_1
 66
     1
  0
VERTEX
  8
LAYER_1
 10
-80.4135
 20
-55.8735
  0
VERTEX
  8
LAYER_1
 10
-79.9654
 20
-55.8679
  0
SEQEND
  8
LAYER_1
  0
POLYLINE
  8
LAYER_1
 66
     1
  0
VERTEX
  8
LAYER_1
 10
-80.8659
 20
-55.8648
  0
VERTEX
  8
LAYER_1
 10
-80.4135
 20
-55.8735
  0
SEQEND
  8
LAYER_1
  0
POLYLINE
  8
LAYER_1
 66
     1
  0
VERTEX
  8
LAYER_1
 10
-81.3223
 20
-55.8431
  0
VERTEX
  8
LAYER_1
 10
-80.8659
 20
-55.8648
  0
SEQEND
  8
LAYER_1
  0
POLYLINE
  8
LAYER_1
 66
     1
  0
VERTEX
  8
LAYER_1
 10
-81.7827
 20
-55.808
  0
VERTEX
  8
LAYER_1
 10
-81.3223
 20
-55.8431
  0
SEQEND
  8
LAYER_1
  0
POLYLINE
  8
LAYER_1
 66
     1
  0
VERTEX
  8
LAYER_1
 10
-82.3003
 20
-54.2152
  0
VERTEX
  8
LAYER_1
 10
-81.7827
 20
-55.808
  0
SEQEND
  8
LAYER_1
  0
POLYLINE
  8
LAYER_1
 66
     1
  0
VERTEX
  8
LAYER_1
 10
-81.9484
 20
-53.9166
  0
VERTEX
  8
LAYER_1
 10
-82.3003
 20
-54.2152
  0
SEQEND
  8
LAYER_1
  0
POLYLINE
  8
LAYER_1
 66
     1
  0
VERTEX
  8
LAYER_1
 10
-81.5919
 20
-53.6305
  0
VERTEX
  8
LAYER_1
 10
-81.9484
 20
-53.9166
  0
SEQEND
  8
LAYER_1
  0
POLYLINE
  8
LAYER_1
 66
     1
  0
VERTEX
  8
LAYER_1
 10
-81.2311
 20
-53.3577
  0
VERTEX
  8
LAYER_1
 10
-81.5919
 20
-53.6305
  0
SEQEND
  8
LAYER_1
  0
POLYLINE
  8
LAYER_1
 66
     1
  0
VERTEX
  8
LAYER_1
 10
-80.8653
 20
-53.0987
  0
VERTEX
  8
LAYER_1
 10
-81.2311
 20
-53.3577
  0
SEQEND
  8
LAYER_1
  0
POLYLINE
  8
LAYER_1
 66
     1
  0
VERTEX
  8
LAYER_1
 10
-80.4945
 20
-52.8553
  0
VERTEX
  8
LAYER_1
 10
-80.8652
 20
-53.0987
  0
SEQEND
  8
LAYER_1
  0
POLYLINE
  8
LAYER_1
 66
     1
  0
VERTEX
  8
LAYER_1
 10
-80.3073
 20
-52.7395
  0
VERTEX
  8
LAYER_1
 10
-80.4945
 20
-52.8553
  0
SEQEND
  8
LAYER_1
  0
POLYLINE
  8
LAYER_1
 66
     1
  0
VERTEX
  8
LAYER_1
 10
-80.2134
 20
-52.683
  0
VERTEX
  8
LAYER_1
 10
-80.3073
 20
-52.7395
  0
SEQEND
  8
LAYER_1
  0
POLYLINE
  8
LAYER_1
 66
     1
  0
VERTEX
  8
LAYER_1
 10
-80.1191
 20
-52.6281
  0
VERTEX
  8
LAYER_1
 10
-80.2134
 20
-52.683
  0
SEQEND
  8
LAYER_1
  0
POLYLINE
  8
LAYER_1
 66
     1
  0
VERTEX
  8
LAYER_1
 10
-80.563
 20
-50.899
  0
VERTEX
  8
LAYER_1
 10
-80.1192
 20
-52.6281
  0
SEQEND
  8
LAYER_1
  0
POLYLINE
  8
LAYER_1
 66
     1
  0
VERTEX
  8
LAYER_1
 10
-80.6721
 20
-50.8964
  0
VERTEX
  8
LAYER_1
 10
-80.563
 20
-50.899
  0
SEQEND
  8
LAYER_1
  0
POLYLINE
  8
LAYER_1
 66
     1
  0
VERTEX
  8
LAYER_1
 10
-80.7816
 20
-50.8924
  0
VERTEX
  8
LAYER_1
 10
-80.6721
 20
-50.8964
  0
SEQEND
  8
LAYER_1
  0
POLYLINE
  8
LAYER_1
 66
     1
  0
VERTEX
  8
LAYER_1
 10
-81.0015
 20
-50.8808
  0
VERTEX
  8
LAYER_1
 10
-80.7816
 20
-50.8924
  0
SEQEND
  8
LAYER_1
  0
POLYLINE
  8
LAYER_1
 66
     1
  0
VERTEX
  8
LAYER_1
 10
-81.4437
 20
-50.846
  0
VERTEX
  8
LAYER_1
 10
-81.0015
 20
-50.8807
  0
SEQEND
  8
LAYER_1
  0
POLYLINE
  8
LAYER_1
 66
     1
  0
VERTEX
  8
LAYER_1
 10
-81.8889
 20
-50.7954
  0
VERTEX
  8
LAYER_1
 10
-81.4437
 20
-50.846
  0
SEQEND
  8
LAYER_1
  0
POLYLINE
  8
LAYER_1
 66
     1
  0
VERTEX
  8
LAYER_1
 10
-82.3367
 20
-50.7303
  0
VERTEX
  8
LAYER_1
 10
-81.8889
 20
-50.7955
  0
SEQEND
  8
LAYER_1
  0
POLYLINE
  8
LAYER_1
 66
     1
  0
VERTEX
  8
LAYER_1
 10
-82.7868
 20
-50.6512
  0
VERTEX
  8
LAYER_1
 10
-82.3367
 20
-50.7302
  0
SEQEND
  8
LAYER_1
  0
POLYLINE
  8
LAYER_1
 66
     1
  0
VERTEX
  8
LAYER_1
 10
-83.2389
 20
-50.559
  0
VERTEX
  8
LAYER_1
 10
-82.7868
 20
-50.6513
  0
SEQEND
  8
LAYER_1
  0
POLYLINE
  8
LAYER_1
 66
     1
  0
VERTEX
  8
LAYER_1
 10
-83.5528
 20
-48.9136
  0
VERTEX
  8
LAYER_1
 10
-83.239
 20
-50.559
  0
SEQEND
  8
LAYER_1
  0
POLYLINE
  8
LAYER_1
 66
     1
  0
VERTEX
  8
LAYER_1
 10
-83.1665
 20
-48.6616
  0
VERTEX
  8
LAYER_1
 10
-83.5528
 20
-48.9136
  0
SEQEND
  8
LAYER_1
  0
POLYLINE
  8
LAYER_1
 66
     1
  0
VERTEX
  8
LAYER_1
 10
-82.7769
 20
-48.4224
  0
VERTEX
  8
LAYER_1
 10
-83.1665
 20
-48.6615
  0
SEQEND
  8
LAYER_1
  0
POLYLINE
  8
LAYER_1
 66
     1
  0
VERTEX
  8
LAYER_1
 10
-82.3843
 20
-48.1969
  0
VERTEX
  8
LAYER_1
 10
-82.7769
 20
-48.4225
  0
SEQEND
  8
LAYER_1
  0
POLYLINE
  8
LAYER_1
 66
     1
  0
VERTEX
  8
LAYER_1
 10
-81.9891
 20
-47.9859
  0
VERTEX
  8
LAYER_1
 10
-82.3843
 20
-48.1969
  0
SEQEND
  8
LAYER_1
  0
POLYLINE
  8
LAYER_1
 66
     1
  0
VERTEX
  8
LAYER_1
 10
-81.5909
 20
-47.7908
  0
VERTEX
  8
LAYER_1
 10
-81.9891
 20
-47.9859
  0
SEQEND
  8
LAYER_1
  0
POLYLINE
  8
LAYER_1
 66
     1
  0
VERTEX
  8
LAYER_1
 10
-81.3908
 20
-47.6992
  0
VERTEX
  8
LAYER_1
 10
-81.5909
 20
-47.7908
  0
SEQEND
  8
LAYER_1
  0
POLYLINE
  8
LAYER_1
 66
     1
  0
VERTEX
  8
LAYER_1
 10
-81.2906
 20
-47.6552
  0
VERTEX
  8
LAYER_1
 10
-81.3908
 20
-47.6992
  0
SEQEND
  8
LAYER_1
  0
POLYLINE
  8
LAYER_1
 66
     1
  0
VERTEX
  8
LAYER_1
 10
-81.1897
 20
-47.6125
  0
VERTEX
  8
LAYER_1
 10
-81.2906
 20
-47.6552
  0
SEQEND
  8
LAYER_1
  0
POLYLINE
  8
LAYER_1
 66
     1
  0
VERTEX
  8
LAYER_1
 10
-81.4136
 20
-45.8415
  0
VERTEX
  8
LAYER_1
 10
-81.1897
 20
-47.6125
  0
SEQEND
  8
LAYER_1
  0
POLYLINE
  8
LAYER_1
 66
     1
  0
VERTEX
  8
LAYER_1
 10
-81.5218
 20
-45.8251
  0
VERTEX
  8
LAYER_1
 10
-81.4136
 20
-45.8415
  0
SEQEND
  8
LAYER_1
  0
POLYLINE
  8
LAYER_1
 66
     1
  0
VERTEX
  8
LAYER_1
 10
-81.6299
 20
-45.8076
  0
VERTEX
  8
LAYER_1
 10
-81.5218
 20
-45.8251
  0
SEQEND
  8
LAYER_1
  0
POLYLINE
  8
LAYER_1
 66
     1
  0
VERTEX
  8
LAYER_1
 10
-81.8466
 20
-45.7689
  0
VERTEX
  8
LAYER_1
 10
-81.63
 20
-45.8076
  0
SEQEND
  8
LAYER_1
  0
POLYLINE
  8
LAYER_1
 66
     1
  0
VERTEX
  8
LAYER_1
 10
-82.2808
 20
-45.6786
  0
VERTEX
  8
LAYER_1
 10
-81.8466
 20
-45.7689
  0
SEQEND
  8
LAYER_1
  0
POLYLINE
  8
LAYER_1
 66
     1
  0
VERTEX
  8
LAYER_1
 10
-82.716
 20
-45.5728
  0
VERTEX
  8
LAYER_1
 10
-82.2808
 20
-45.6786
  0
SEQEND
  8
LAYER_1
  0
POLYLINE
  8
LAYER_1
 66
     1
  0
VERTEX
  8
LAYER_1
 10
-83.1523
 20
-45.4521
  0
VERTEX
  8
LAYER_1
 10
-82.7161
 20
-45.5728
  0
SEQEND
  8
LAYER_1
  0
POLYLINE
  8
LAYER_1
 66
     1
  0
VERTEX
  8
LAYER_1
 10
-83.5888
 20
-45.3171
  0
VERTEX
  8
LAYER_1
 10
-83.1522
 20
-45.452
  0
SEQEND
  8
LAYER_1
  0
POLYLINE
  8
LAYER_1
 66
     1
  0
VERTEX
  8
LAYER_1
 10
-84.0261
 20
-45.1689
  0
VERTEX
  8
LAYER_1
 10
-83.5889
 20
-45.3171
  0
SEQEND
  8
LAYER_1
  0
POLYLINE
  8
LAYER_1
 66
     1
  0
VERTEX
  8
LAYER_1
 10
-84.1312
 20
-43.4974
  0
VERTEX
  8
LAYER_1
 10
-84.026
 20
-45.1689
  0
SEQEND
  8
LAYER_1
  0
POLYLINE
  8
LAYER_1
 66
     1
  0
VERTEX
  8
LAYER_1
 10
-83.7162
 20
-43.2954
  0
VERTEX
  8
LAYER_1
 10
-84.1313
 20
-43.4975
  0
SEQEND
  8
LAYER_1
  0
POLYLINE
  8
LAYER_1
 66
     1
  0
VERTEX
  8
LAYER_1
 10
-83.2998
 20
-43.1072
  0
VERTEX
  8
LAYER_1
 10
-83.7162
 20
-43.2954
  0
SEQEND
  8
LAYER_1
  0
POLYLINE
  8
LAYER_1
 66
     1
  0
VERTEX
  8
LAYER_1
 10
-82.8821
 20
-42.9326
  0
VERTEX
  8
LAYER_1
 10
-83.2998
 20
-43.1072
  0
SEQEND
  8
LAYER_1
  0
POLYLINE
  8
LAYER_1
 66
     1
  0
VERTEX
  8
LAYER_1
 10
-82.4634
 20
-42.7728
  0
VERTEX
  8
LAYER_1
 10
-82.8821
 20
-42.9325
  0
SEQEND
  8
LAYER_1
  0
POLYLINE
  8
LAYER_1
 66
     1
  0
VERTEX
  8
LAYER_1
 10
-82.044
 20
-42.6289
  0
VERTEX
  8
LAYER_1
 10
-82.4634
 20
-42.7728
  0
SEQEND
  8
LAYER_1
  0
POLYLINE
  8
LAYER_1
 66
     1
  0
VERTEX
  8
LAYER_1
 10
-81.834
 20
-42.5635
  0
VERTEX
  8
LAYER_1
 10
-82.044
 20
-42.629
  0
SEQEND
  8
LAYER_1
  0
POLYLINE
  8
LAYER_1
 66
     1
  0
VERTEX
  8
LAYER_1
 10
-81.7288
 20
-42.5324
  0
VERTEX
  8
LAYER_1
 10
-81.834
 20
-42.5635
  0
SEQEND
  8
LAYER_1
  0
POLYLINE
  8
LAYER_1
 66
     1
  0
VERTEX
  8
LAYER_1
 10
-81.6236
 20
-42.5026
  0
VERTEX
  8
LAYER_1
 10
-81.7288
 20
-42.5324
  0
SEQEND
  8
LAYER_1
  0
POLYLINE
  8
LAYER_1
 66
     1
  0
VERTEX
  8
LAYER_1
 10
-40.7948
 20
-40.1701
  0
VERTEX
  8
LAYER_1
 10
-41.0781
 20
-40.1987
  0
VERTEX
  8
LAYER_1
 10
-41.3419
 20
-40.2806
  0
VERTEX
  8
LAYER_1
 10
-41.5807
 20
-40.4102
  0
VERTEX
  8
LAYER_1
 10
-41.7887
 20
-40.5819
  0
VERTEX
  8
LAYER_1
 10
-41.9604
 20
-40.7899
  0
VERTEX
  8
LAYER_1
 10
-42.09
 20
-41.0287
  0
VERTEX
  8
LAYER_1
 10
-42.1719
 20
-41.2925
  0
VERTEX
  8
LAYER_1
 10
-42.2005
 20
-41.5758
  0
SEQEND
  8
LAYER_1
  0
POLYLINE
  8
LAYER_1
 66
     1
  0
VERTEX
  8
LAYER_1
 10
-39.3891
 20
-41.5758
  0
VERTEX
  8
LAYER_1
 10
-39.4177
 20
-41.2925
  0
VERTEX
  8
LAYER_1
 10
-39.4996
 20
-41.0287
  0
VERTEX
  8
LAYER_1
 10
-39.6292
 20
-40.7899
  0
VERTEX
  8
LAYER_1
 10
-39.8009
 20
-40.5819
  0
VERTEX
  8
LAYER_1
 10
-40.0089
 20
-40.4102
  0
VERTEX
  8
LAYER_1
 10
-40.2477
 20
-40.2806
  0
VERTEX
  8
LAYER_1
 10
-40.5115
 20
-40.1987
  0
VERTEX
  8
LAYER_1
 10
-40.7948
 20
-40.1701
  0
SEQEND
  8
LAYER_1
  0
POLYLINE
  8
LAYER_1
 66
     1
 70
     1
  0
VERTEX
  8
LAYER_1
 10
-67.8417
 20
-14.529
  0
VERTEX
  8
LAYER_1
 10
-66.9593
 20
-13.8082
  0
VERTEX
  8
LAYER_1
 10
-65.9809
 20
-13.2934
  0
VERTEX
  8
LAYER_1
 10
-64.9385
 20
-12.9844
  0
VERTEX
  8
LAYER_1
 10
-63.8642
 20
-12.8815
  0
VERTEX
  8
LAYER_1
 10
-62.7899
 20
-12.9844
  0
VERTEX
  8
LAYER_1
 10
-61.7475
 20
-13.2934
  0
VERTEX
  8
LAYER_1
 10
-60.7691
 20
-13.8082
  0
VERTEX
  8
LAYER_1
 10
-59.8867
 20
-14.529
  0
VERTEX
  8
LAYER_1
 10
-59.1659
 20
-15.4114
  0
VERTEX
  8
LAYER_1
 10
-58.6511
 20
-16.3898
  0
VERTEX
  8
LAYER_1
 10
-58.3421
 20
-17.4321
  0
VERTEX
  8
LAYER_1
 10
-58.2392
 20
-18.5065
  0
VERTEX
  8
LAYER_1
 10
-58.3421
 20
-19.5808
  0
VERTEX
  8
LAYER_1
 10
-58.6511
 20
-20.6231
  0
VERTEX
  8
LAYER_1
 10
-59.1659
 20
-21.6015
  0
VERTEX
  8
LAYER_1
 10
-59.8867
 20
-22.4839
  0
VERTEX
  8
LAYER_1
 10
-60.7691
 20
-23.2047
  0
VERTEX
  8
LAYER_1
 10
-61.7475
 20
-23.7195
  0
VERTEX
  8
LAYER_1
 10
-62.7899
 20
-24.0285
  0
VERTEX
  8
LAYER_1
 10
-63.8642
 20
-24.1314
  0
VERTEX
  8
LAYER_1
 10
-64.9385
 20
-24.0285
  0
VERTEX
  8
LAYER_1
 10
-65.9809
 20
-23.7195
  0
VERTEX
  8
LAYER_1
 10
-66.9593
 20
-23.2047
  0
VERTEX
  8
LAYER_1
 10
-67.8417
 20
-22.4839
  0
VERTEX
  8
LAYER_1
 10
-68.5625
 20
-21.6015
  0
VERTEX
  8
LAYER_1
 10
-69.0773
 20
-20.6231
  0
VERTEX
  8
LAYER_1
 10
-69.3863
 20
-19.5808
  0
VERTEX
  8
LAYER_1
 10
-69.4892
 20
-18.5064
  0
VERTEX
  8
LAYER_1
 10
-69.3863
 20
-17.4321
  0
VERTEX
  8
LAYER_1
 10
-69.0773
 20
-16.3897
  0
VERTEX
  8
LAYER_1
 10
-68.5625
 20
-15.4114
  0
VERTEX
  8
LAYER_1
 10
-67.8417
 20
-14.529
  0
SEQEND
  8
LAYER_1
  0
POLYLINE
  8
LAYER_1
 66
     1
 70
     1
  0
VERTEX
  8
LAYER_1
 10
-13.748
 20
-22.4839
  0
VERTEX
  8
LAYER_1
 10
-14.6304
 20
-23.2047
  0
VERTEX
  8
LAYER_1
 10
-15.6088
 20
-23.7195
  0
VERTEX
  8
LAYER_1
 10
-16.6512
 20
-24.0285
  0
VERTEX
  8
LAYER_1
 10
-17.7255
 20
-24.1314
  0
VERTEX
  8
LAYER_1
 10
-18.7998
 20
-24.0285
  0
VERTEX
  8
LAYER_1
 10
-19.8422
 20
-23.7195
  0
VERTEX
  8
LAYER_1
 10
-20.8206
 20
-23.2047
  0
VERTEX
  8
LAYER_1
 10
-21.703
 20
-22.4839
  0
VERTEX
  8
LAYER_1
 10
-22.4238
 20
-21.6015
  0
VERTEX
  8
LAYER_1
 10
-22.9386
 20
-20.6231
  0
VERTEX
  8
LAYER_1
 10
-23.2476
 20
-19.5807
  0
VERTEX
  8
LAYER_1
 10
-23.3505
 20
-18.5064
  0
VERTEX
  8
LAYER_1
 10
-23.2476
 20
-17.4321
  0
VERTEX
  8
LAYER_1
 10
-22.9386
 20
-16.3897
  0
VERTEX
  8
LAYER_1
 10
-22.4238
 20
-15.4113
  0
VERTEX
  8
LAYER_1
 10
-21.703
 20
-14.5289
  0
VERTEX
  8
LAYER_1
 10
-20.8206
 20
-13.8081
  0
VERTEX
  8
LAYER_1
 10
-19.8422
 20
-13.2933
  0
VERTEX
  8
LAYER_1
 10
-18.7998
 20
-12.9843
  0
VERTEX
  8
LAYER_1
 10
-17.7255
 20
-12.8814
  0
VERTEX
  8
LAYER_1
 10
-16.6512
 20
-12.9843
  0
VERTEX
  8
LAYER_1
 10
-15.6088
 20
-13.2933
  0
VERTEX
  8
LAYER_1
 10
-14.6304
 20
-13.8081
  0
VERTEX
  8
LAYER_1
 10
-13.748
 20
-14.5289
  0
VERTEX
  8
LAYER_1
 10
-13.0272
 20
-15.4113
  0
VERTEX
  8
LAYER_1
 10
-12.5124
 20
-16.3897
  0
VERTEX
  8
LAYER_1
 10
-12.2034
 20
-17.4321
  0
VERTEX
  8
LAYER_1
 10
-12.1005
 20
-18.5064
  0
VERTEX
  8
LAYER_1
 10
-12.2034
 20
-19.5807
  0
VERTEX
  8
LAYER_1
 10
-12.5124
 20
-20.6231
  0
VERTEX
  8
LAYER_1
 10
-13.0272
 20
-21.6015
  0
VERTEX
  8
LAYER_1
 10
-13.748
 20
-22.4839
  0
SEQEND
  8
LAYER_1
  0
POLYLINE
  8
LAYER_1
 66
     1
 70
     1
  0
VERTEX
  8
LAYER_1
 10
-35.1698
 20
-8.9508
  0
VERTEX
  8
LAYER_1
 10
-35.2841
 20
-10.0844
  0
VERTEX
  8
LAYER_1
 10
-35.6118
 20
-11.1403
  0
VERTEX
  8
LAYER_1
 10
-36.1305
 20
-12.0958
  0
VERTEX
  8
LAYER_1
 10
-36.8173
 20
-12.9283
  0
VERTEX
  8
LAYER_1
 10
-37.6498
 20
-13.6151
  0
VERTEX
  8
LAYER_1
 10
-38.6053
 20
-14.1338
  0
VERTEX
  8
LAYER_1
 10
-39.6612
 20
-14.4615
  0
VERTEX
  8
LAYER_1
 10
-40.7948
 20
-14.5758
  0
VERTEX
  8
LAYER_1
 10
-41.9284
 20
-14.4615
  0
VERTEX
  8
LAYER_1
 10
-42.9843
 20
-14.1338
  0
VERTEX
  8
LAYER_1
 10
-43.9398
 20
-13.6151
  0
VERTEX
  8
LAYER_1
 10
-44.7723
 20
-12.9283
  0
VERTEX
  8
LAYER_1
 10
-45.4591
 20
-12.0958
  0
VERTEX
  8
LAYER_1
 10
-45.9778
 20
-11.1403
  0
VERTEX
  8
LAYER_1
 10
-46.3055
 20
-10.0844
  0
VERTEX
  8
LAYER_1
 10
-46.4198
 20
-8.9508
  0
VERTEX
  8
LAYER_1
 10
-46.3055
 20
-7.8172
  0
VERTEX
  8
LAYER_1
 10
-45.9778
 20
-6.7613
  0
VERTEX
  8
LAYER_1
 10
-45.4591
 20
-5.8058
  0
VERTEX
  8
LAYER_1
 10
-44.7723
 20
-4.9733
  0
VERTEX
  8
LAYER_1
 10
-43.9398
 20
-4.2865
  0
VERTEX
  8
LAYER_1
 10
-42.9843
 20
-3.7678
  0
VERTEX
  8
LAYER_1
 10
-41.9284
 20
-3.4401
  0
VERTEX
  8
LAYER_1
 10
-40.7948
 20
-3.3258
  0
VERTEX
  8
LAYER_1
 10
-39.6612
 20
-3.4401
  0
VERTEX
  8
LAYER_1
 10
-38.6053
 20
-3.7678
  0
VERTEX
  8
LAYER_1
 10
-37.6498
 20
-4.2865
  0
VERTEX
  8
LAYER_1
 10
-36.8173
 20
-4.9733
  0
VERTEX
  8
LAYER_1
 10
-36.1305
 20
-5.8058
  0
VERTEX
  8
LAYER_1
 10
-35.6118
 20
-6.7613
  0
VERTEX
  8
LAYER_1
 10
-35.2841
 20
-7.8172
  0
VERTEX
  8
LAYER_1
 10
-35.1698
 20
-8.9508
  0
SEQEND
  8
LAYER_1
  0
POLYLINE
  8
LAYER_1
 66
     1
  0
VERTEX
  8
LAYER_1
 10
-79.0448
 20
-41.5758
  0
VERTEX
  8
LAYER_1
 10
-78.9305
 20
-40.4422
  0
VERTEX
  8
LAYER_1
 10
-78.6028
 20
-39.3863
  0
VERTEX
  8
LAYER_1
 10
-78.0841
 20
-38.4308
  0
VERTEX
  8
LAYER_1
 10
-77.3973
 20
-37.5983
  0
VERTEX
  8
LAYER_1
 10
-76.5648
 20
-36.9115
  0
VERTEX
  8
LAYER_1
 10
-75.6093
 20
-36.3928
  0
VERTEX
  8
LAYER_1
 10
-74.5534
 20
-36.0651
  0
VERTEX
  8
LAYER_1
 10
-73.4198
 20
-35.9508
  0
VERTEX
  8
LAYER_1
 10
-72.2862
 20
-36.0651
  0
VERTEX
  8
LAYER_1
 10
-71.2303
 20
-36.3928
  0
VERTEX
  8
LAYER_1
 10
-70.2748
 20
-36.9115
  0
VERTEX
  8
LAYER_1
 10
-69.4423
 20
-37.5983
  0
VERTEX
  8
LAYER_1
 10
-68.7555
 20
-38.4308
  0
VERTEX
  8
LAYER_1
 10
-68.2368
 20
-39.3863
  0
VERTEX
  8
LAYER_1
 10
-67.9091
 20
-40.4422
  0
VERTEX
  8
LAYER_1
 10
-67.7948
 20
-41.5758
  0
SEQEND
  8
LAYER_1
  0
POLYLINE
  8
LAYER_1
 66
     1
  0
VERTEX
  8
LAYER_1
 10
-13.7948
 20
-41.5758
  0
VERTEX
  8
LAYER_1
 10
-13.6805
 20
-40.4422
  0
VERTEX
  8
LAYER_1
 10
-13.3528
 20
-39.3863
  0
VERTEX
  8
LAYER_1
 10
-12.8341
 20
-38.4308
  0
VERTEX
  8
LAYER_1
 10
-12.1473
 20
-37.5983
  0
VERTEX
  8
LAYER_1
 10
-11.3148
 20
-36.9115
  0
VERTEX
  8
LAYER_1
 10
-10.3593
 20
-36.3928
  0
VERTEX
  8
LAYER_1
 10
-9.3034
 20
-36.0651
  0
VERTEX
  8
LAYER_1
 10
-8.1698
 20
-35.9508
  0
VERTEX
  8
LAYER_1
 10
-7.0362
 20
-36.0651
  0
VERTEX
  8
LAYER_1
 10
-5.9803
 20
-36.3928
  0
VERTEX
  8
LAYER_1
 10
-5.0248
 20
-36.9115
  0
VERTEX
  8
LAYER_1
 10
-4.1923
 20
-37.5983
  0
VERTEX
  8
LAYER_1
 10
-3.5055
 20
-38.4308
  0
VERTEX
  8
LAYER_1
 10
-2.9868
 20
-39.3863
  0
VERTEX
  8
LAYER_1
 10
-2.6591
 20
-40.4422
  0
VERTEX
  8
LAYER_1
 10
-2.5448
 20
-41.5758
  0
SEQEND
  8
LAYER_1
  0
POLYLINE
  8
LAYER_1
 66
     1
  0
VERTEX
  8
LAYER_1
 10
0.0346
 20
-41.5759
  0
VERTEX
  8
LAYER_1
 10
0.0346
 20
-40.6833
  0
SEQEND
  8
LAYER_1
  0
POLYLINE
  8
LAYER_1
 66
     1
  0
VERTEX
  8
LAYER_1
 10
-81.6236
 20
-40.6838
  0
VERTEX
  8
LAYER_1
 10
-81.6236
 20
-41.5764
  0
SEQEND
  8
LAYER_1
  0
POLYLINE
  8
LAYER_1
 66
     1
  0
VERTEX
  8
LAYER_1
 10
-81.7288
 20
-40.654
  0
VERTEX
  8
LAYER_1
 10
-81.6236
 20
-40.6838
  0
SEQEND
  8
LAYER_1
  0
POLYLINE
  8
LAYER_1
 66
     1
  0
VERTEX
  8
LAYER_1
 10
-81.834
 20
-40.6229
  0
VERTEX
  8
LAYER_1
 10
-81.7288
 20
-40.654
  0
SEQEND
  8
LAYER_1
  0
POLYLINE
  8
LAYER_1
 66
     1
  0
VERTEX
  8
LAYER_1
 10
-82.044
 20
-40.5574
  0
VERTEX
  8
LAYER_1
 10
-81.834
 20
-40.6229
  0
SEQEND
  8
LAYER_1
  0
POLYLINE
  8
LAYER_1
 66
     1
  0
VERTEX
  8
LAYER_1
 10
-82.4634
 20
-40.4135
  0
VERTEX
  8
LAYER_1
 10
-82.044
 20
-40.5574
  0
SEQEND
  8
LAYER_1
  0
POLYLINE
  8
LAYER_1
 66
     1
  0
VERTEX
  8
LAYER_1
 10
-82.8821
 20
-40.2538
  0
VERTEX
  8
LAYER_1
 10
-82.4634
 20
-40.4135
  0
SEQEND
  8
LAYER_1
  0
POLYLINE
  8
LAYER_1
 66
     1
  0
VERTEX
  8
LAYER_1
 10
-83.2995
 20
-40.0792
  0
VERTEX
  8
LAYER_1
 10
-82.8821
 20
-40.2538
  0
SEQEND
  8
LAYER_1
  0
POLYLINE
  8
LAYER_1
 66
     1
  0
VERTEX
  8
LAYER_1
 10
-83.7162
 20
-39.891
  0
VERTEX
  8
LAYER_1
 10
-83.2995
 20
-40.0792
  0
SEQEND
  8
LAYER_1
  0
POLYLINE
  8
LAYER_1
 66
     1
  0
VERTEX
  8
LAYER_1
 10
-84.1312
 20
-39.6889
  0
VERTEX
  8
LAYER_1
 10
-83.7161
 20
-39.891
  0
SEQEND
  8
LAYER_1
  0
POLYLINE
  8
LAYER_1
 66
     1
  0
VERTEX
  8
LAYER_1
 10
-84.0261
 20
-38.0174
  0
VERTEX
  8
LAYER_1
 10
-84.1313
 20
-39.6889
  0
SEQEND
  8
LAYER_1
  0
POLYLINE
  8
LAYER_1
 66
     1
  0
VERTEX
  8
LAYER_1
 10
-83.5888
 20
-37.8693
  0
VERTEX
  8
LAYER_1
 10
-84.026
 20
-38.0175
  0
SEQEND
  8
LAYER_1
  0
POLYLINE
  8
LAYER_1
 66
     1
  0
VERTEX
  8
LAYER_1
 10
-83.152
 20
-37.7343
  0
VERTEX
  8
LAYER_1
 10
-83.5889
 20
-37.8692
  0
SEQEND
  8
LAYER_1
  0
POLYLINE
  8
LAYER_1
 66
     1
  0
VERTEX
  8
LAYER_1
 10
-82.7161
 20
-37.6136
  0
VERTEX
  8
LAYER_1
 10
-83.152
 20
-37.7343
  0
SEQEND
  8
LAYER_1
  0
POLYLINE
  8
LAYER_1
 66
     1
  0
VERTEX
  8
LAYER_1
 10
-82.2808
 20
-37.5078
  0
VERTEX
  8
LAYER_1
 10
-82.716
 20
-37.6136
  0
SEQEND
  8
LAYER_1
  0
POLYLINE
  8
LAYER_1
 66
     1
  0
VERTEX
  8
LAYER_1
 10
-81.8466
 20
-37.4175
  0
VERTEX
  8
LAYER_1
 10
-82.2809
 20
-37.5078
  0
SEQEND
  8
LAYER_1
  0
POLYLINE
  8
LAYER_1
 66
     1
  0
VERTEX
  8
LAYER_1
 10
-81.6299
 20
-37.3788
  0
VERTEX
  8
LAYER_1
 10
-81.8465
 20
-37.4175
  0
SEQEND
  8
LAYER_1
  0
POLYLINE
  8
LAYER_1
 66
     1
  0
VERTEX
  8
LAYER_1
 10
-81.5218
 20
-37.3613
  0
VERTEX
  8
LAYER_1
 10
-81.63
 20
-37.3788
  0
SEQEND
  8
LAYER_1
  0
POLYLINE
  8
LAYER_1
 66
     1
  0
VERTEX
  8
LAYER_1
 10
-81.4136
 20
-37.3449
  0
VERTEX
  8
LAYER_1
 10
-81.5217
 20
-37.3613
  0
SEQEND
  8
LAYER_1
  0
POLYLINE
  8
LAYER_1
 66
     1
  0
VERTEX
  8
LAYER_1
 10
-81.1897
 20
-35.5739
  0
VERTEX
  8
LAYER_1
 10
-81.4136
 20
-37.3449
  0
SEQEND
  8
LAYER_1
  0
POLYLINE
  8
LAYER_1
 66
     1
  0
VERTEX
  8
LAYER_1
 10
-81.2903
 20
-35.5312
  0
VERTEX
  8
LAYER_1
 10
-81.1898
 20
-35.5739
  0
SEQEND
  8
LAYER_1
  0
POLYLINE
  8
LAYER_1
 66
     1
  0
VERTEX
  8
LAYER_1
 10
-81.3908
 20
-35.4872
  0
VERTEX
  8
LAYER_1
 10
-81.2903
 20
-35.5312
  0
SEQEND
  8
LAYER_1
  0
POLYLINE
  8
LAYER_1
 66
     1
  0
VERTEX
  8
LAYER_1
 10
-81.5909
 20
-35.3956
  0
VERTEX
  8
LAYER_1
 10
-81.3908
 20
-35.4872
  0
SEQEND
  8
LAYER_1
  0
POLYLINE
  8
LAYER_1
 66
     1
  0
VERTEX
  8
LAYER_1
 10
-81.9891
 20
-35.2005
  0
VERTEX
  8
LAYER_1
 10
-81.5909
 20
-35.3956
  0
SEQEND
  8
LAYER_1
  0
POLYLINE
  8
LAYER_1
 66
     1
  0
VERTEX
  8
LAYER_1
 10
-82.3843
 20
-34.9894
  0
VERTEX
  8
LAYER_1
 10
-81.9891
 20
-35.2004
  0
SEQEND
  8
LAYER_1
  0
POLYLINE
  8
LAYER_1
 66
     1
  0
VERTEX
  8
LAYER_1
 10
-82.7769
 20
-34.7639
  0
VERTEX
  8
LAYER_1
 10
-82.3843
 20
-34.9895
  0
SEQEND
  8
LAYER_1
  0
POLYLINE
  8
LAYER_1
 66
     1
  0
VERTEX
  8
LAYER_1
 10
-83.1662
 20
-34.5248
  0
VERTEX
  8
LAYER_1
 10
-82.7769
 20
-34.7639
  0
SEQEND
  8
LAYER_1
  0
POLYLINE
  8
LAYER_1
 66
     1
  0
VERTEX
  8
LAYER_1
 10
-83.5528
 20
-34.2728
  0
VERTEX
  8
LAYER_1
 10
-83.1662
 20
-34.5248
  0
SEQEND
  8
LAYER_1
  0
POLYLINE
  8
LAYER_1
 66
     1
  0
VERTEX
  8
LAYER_1
 10
-83.2389
 20
-32.6274
  0
VERTEX
  8
LAYER_1
 10
-83.5528
 20
-34.2728
  0
SEQEND
  8
LAYER_1
  0
POLYLINE
  8
LAYER_1
 66
     1
  0
VERTEX
  8
LAYER_1
 10
-82.7868
 20
-32.5351
  0
VERTEX
  8
LAYER_1
 10
-83.2389
 20
-32.6274
  0
SEQEND
  8
LAYER_1
  0
POLYLINE
  8
LAYER_1
 66
     1
  0
VERTEX
  8
LAYER_1
 10
-82.3367
 20
-32.4561
  0
VERTEX
  8
LAYER_1
 10
-82.7868
 20
-32.5352
  0
SEQEND
  8
LAYER_1
  0
POLYLINE
  8
LAYER_1
 66
     1
  0
VERTEX
  8
LAYER_1
 10
-81.8889
 20
-32.3909
  0
VERTEX
  8
LAYER_1
 10
-82.3367
 20
-32.456
  0
SEQEND
  8
LAYER_1
  0
POLYLINE
  8
LAYER_1
 66
     1
  0
VERTEX
  8
LAYER_1
 10
-81.4437
 20
-32.3403
  0
VERTEX
  8
LAYER_1
 10
-81.8889
 20
-32.3909
  0
SEQEND
  8
LAYER_1
  0
POLYLINE
  8
LAYER_1
 66
     1
  0
VERTEX
  8
LAYER_1
 10
-81.0016
 20
-32.3056
  0
VERTEX
  8
LAYER_1
 10
-81.4438
 20
-32.3403
  0
SEQEND
  8
LAYER_1
  0
POLYLINE
  8
LAYER_1
 66
     1
  0
VERTEX
  8
LAYER_1
 10
-80.7816
 20
-32.294
  0
VERTEX
  8
LAYER_1
 10
-81.0015
 20
-32.3056
  0
SEQEND
  8
LAYER_1
  0
POLYLINE
  8
LAYER_1
 66
     1
  0
VERTEX
  8
LAYER_1
 10
-80.6722
 20
-32.29
  0
VERTEX
  8
LAYER_1
 10
-80.7817
 20
-32.294
  0
SEQEND
  8
LAYER_1
  0
POLYLINE
  8
LAYER_1
 66
     1
  0
VERTEX
  8
LAYER_1
 10
-80.563
 20
-32.2873
  0
VERTEX
  8
LAYER_1
 10
-80.6721
 20
-32.2899
  0
SEQEND
  8
LAYER_1
  0
POLYLINE
  8
LAYER_1
 66
     1
  0
VERTEX
  8
LAYER_1
 10
-80.1188
 20
-30.5583
  0
VERTEX
  8
LAYER_1
 10
-80.563
 20
-32.2874
  0
SEQEND
  8
LAYER_1
  0
POLYLINE
  8
LAYER_1
 66
     1
  0
VERTEX
  8
LAYER_1
 10
-80.2134
 20
-30.5034
  0
VERTEX
  8
LAYER_1
 10
-80.1188
 20
-30.5583
  0
SEQEND
  8
LAYER_1
  0
POLYLINE
  8
LAYER_1
 66
     1
  0
VERTEX
  8
LAYER_1
 10
-80.3073
 20
-30.4468
  0
VERTEX
  8
LAYER_1
 10
-80.2134
 20
-30.5033
  0
SEQEND
  8
LAYER_1
  0
POLYLINE
  8
LAYER_1
 66
     1
  0
VERTEX
  8
LAYER_1
 10
-80.4945
 20
-30.3311
  0
VERTEX
  8
LAYER_1
 10
-80.3073
 20
-30.4469
  0
SEQEND
  8
LAYER_1
  0
POLYLINE
  8
LAYER_1
 66
     1
  0
VERTEX
  8
LAYER_1
 10
-80.8653
 20
-30.0877
  0
VERTEX
  8
LAYER_1
 10
-80.4945
 20
-30.3311
  0
SEQEND
  8
LAYER_1
  0
POLYLINE
  8
LAYER_1
 66
     1
  0
VERTEX
  8
LAYER_1
 10
-81.2307
 20
-29.8287
  0
VERTEX
  8
LAYER_1
 10
-80.8653
 20
-30.0877
  0
SEQEND
  8
LAYER_1
  0
POLYLINE
  8
LAYER_1
 66
     1
  0
VERTEX
  8
LAYER_1
 10
-81.5919
 20
-29.5559
  0
VERTEX
  8
LAYER_1
 10
-81.2307
 20
-29.8287
  0
SEQEND
  8
LAYER_1
  0
POLYLINE
  8
LAYER_1
 66
     1
  0
VERTEX
  8
LAYER_1
 10
-81.9484
 20
-29.2698
  0
VERTEX
  8
LAYER_1
 10
-81.5919
 20
-29.5559
  0
SEQEND
  8
LAYER_1
  0
POLYLINE
  8
LAYER_1
 66
     1
  0
VERTEX
  8
LAYER_1
 10
-82.3003
 20
-28.9711
  0
VERTEX
  8
LAYER_1
 10
-81.9484
 20
-29.2697
  0
SEQEND
  8
LAYER_1
  0
POLYLINE
  8
LAYER_1
 66
     1
  0
VERTEX
  8
LAYER_1
 10
-81.7827
 20
-27.3783
  0
VERTEX
  8
LAYER_1
 10
-82.3003
 20
-28.9711
  0
SEQEND
  8
LAYER_1
  0
POLYLINE
  8
LAYER_1
 66
     1
  0
VERTEX
  8
LAYER_1
 10
-81.3224
 20
-27.3433
  0
VERTEX
  8
LAYER_1
 10
-81.7828
 20
-27.3784
  0
SEQEND
  8
LAYER_1
  0
POLYLINE
  8
LAYER_1
 66
     1
  0
VERTEX
  8
LAYER_1
 10
-80.866
 20
-27.3216
  0
VERTEX
  8
LAYER_1
 10
-81.3224
 20
-27.3433
  0
SEQEND
  8
LAYER_1
  0
POLYLINE
  8
LAYER_1
 66
     1
  0
VERTEX
  8
LAYER_1
 10
-80.4135
 20
-27.3128
  0
VERTEX
  8
LAYER_1
 10
-80.8659
 20
-27.3215
  0
SEQEND
  8
LAYER_1
  0
POLYLINE
  8
LAYER_1
 66
     1
  0
VERTEX
  8
LAYER_1
 10
-79.9654
 20
-27.3184
  0
VERTEX
  8
LAYER_1
 10
-80.4136
 20
-27.3128
  0
SEQEND
  8
LAYER_1
  0
POLYLINE
  8
LAYER_1
 66
     1
  0
VERTEX
  8
LAYER_1
 10
-79.5225
 20
-27.3393
  0
VERTEX
  8
LAYER_1
 10
-79.9653
 20
-27.3184
  0
SEQEND
  8
LAYER_1
  0
POLYLINE
  8
LAYER_1
 66
     1
  0
VERTEX
  8
LAYER_1
 10
-79.3029
 20
-27.3554
  0
VERTEX
  8
LAYER_1
 10
-79.5225
 20
-27.3393
  0
SEQEND
  8
LAYER_1
  0
POLYLINE
  8
LAYER_1
 66
     1
  0
VERTEX
  8
LAYER_1
 10
-79.1938
 20
-27.3652
  0
VERTEX
  8
LAYER_1
 10
-79.3029
 20
-27.3554
  0
SEQEND
  8
LAYER_1
  0
POLYLINE
  8
LAYER_1
 66
     1
  0
VERTEX
  8
LAYER_1
 10
-79.085
 20
-27.3761
  0
VERTEX
  8
LAYER_1
 10
-79.1938
 20
-27.3653
  0
SEQEND
  8
LAYER_1
  0
POLYLINE
  8
LAYER_1
 66
     1
  0
VERTEX
  8
LAYER_1
 10
-78.4278
 20
-25.7165
  0
VERTEX
  8
LAYER_1
 10
-79.0849
 20
-27.3761
  0
SEQEND
  8
LAYER_1
  0
POLYLINE
  8
LAYER_1
 66
     1
  0
VERTEX
  8
LAYER_1
 10
-78.5148
 20
-25.6497
  0
VERTEX
  8
LAYER_1
 10
-78.4278
 20
-25.7165
  0
SEQEND
  8
LAYER_1
  0
POLYLINE
  8
LAYER_1
 66
     1
  0
VERTEX
  8
LAYER_1
 10
-78.6011
 20
-25.5822
  0
VERTEX
  8
LAYER_1
 10
-78.5148
 20
-25.6496
  0
SEQEND
  8
LAYER_1
  0
POLYLINE
  8
LAYER_1
 66
     1
  0
VERTEX
  8
LAYER_1
 10
-78.7721
 20
-25.444
  0
VERTEX
  8
LAYER_1
 10
-78.6011
 20
-25.5822
  0
SEQEND
  8
LAYER_1
  0
POLYLINE
  8
LAYER_1
 66
     1
  0
VERTEX
  8
LAYER_1
 10
-79.1091
 20
-25.1559
  0
VERTEX
  8
LAYER_1
 10
-78.7721
 20
-25.444
  0
SEQEND
  8
LAYER_1
  0
POLYLINE
  8
LAYER_1
 66
     1
  0
VERTEX
  8
LAYER_1
 10
-79.4395
 20
-24.8533
  0
VERTEX
  8
LAYER_1
 10
-79.1091
 20
-25.1559
  0
SEQEND
  8
LAYER_1
  0
POLYLINE
  8
LAYER_1
 66
     1
  0
VERTEX
  8
LAYER_1
 10
-79.7636
 20
-24.5371
  0
VERTEX
  8
LAYER_1
 10
-79.4395
 20
-24.8533
  0
SEQEND
  8
LAYER_1
  0
POLYLINE
  8
LAYER_1
 66
     1
  0
VERTEX
  8
LAYER_1
 10
-80.0814
 20
-24.2087
  0
VERTEX
  8
LAYER_1
 10
-79.7636
 20
-24.5371
  0
SEQEND
  8
LAYER_1
  0
POLYLINE
  8
LAYER_1
 66
     1
  0
VERTEX
  8
LAYER_1
 10
-80.393
 20
-23.8683
  0
VERTEX
  8
LAYER_1
 10
-80.0815
 20
-24.2086
  0
SEQEND
  8
LAYER_1
  0
POLYLINE
  8
LAYER_1
 66
     1
  0
VERTEX
  8
LAYER_1
 10
-79.6799
 20
-22.3526
  0
VERTEX
  8
LAYER_1
 10
-80.393
 20
-23.8683
  0
SEQEND
  8
LAYER_1
  0
POLYLINE
  8
LAYER_1
 66
     1
  0
VERTEX
  8
LAYER_1
 10
-79.2189
 20
-22.3756
  0
VERTEX
  8
LAYER_1
 10
-79.6799
 20
-22.3526
  0
SEQEND
  8
LAYER_1
  0
POLYLINE
  8
LAYER_1
 66
     1
  0
VERTEX
  8
LAYER_1
 10
-78.7632
 20
-22.4113
  0
VERTEX
  8
LAYER_1
 10
-79.2189
 20
-22.3756
  0
SEQEND
  8
LAYER_1
  0
POLYLINE
  8
LAYER_1
 66
     1
  0
VERTEX
  8
LAYER_1
 10
-78.3134
 20
-22.4596
  0
VERTEX
  8
LAYER_1
 10
-78.7632
 20
-22.4113
  0
SEQEND
  8
LAYER_1
  0
POLYLINE
  8
LAYER_1
 66
     1
  0
VERTEX
  8
LAYER_1
 10
-77.8695
 20
-22.5211
  0
VERTEX
  8
LAYER_1
 10
-78.3133
 20
-22.4596
  0
SEQEND
  8
LAYER_1
  0
POLYLINE
  8
LAYER_1
 66
     1
  0
VERTEX
  8
LAYER_1
 10
-77.4326
 20
-22.5972
  0
VERTEX
  8
LAYER_1
 10
-77.8695
 20
-22.5211
  0
SEQEND
  8
LAYER_1
  0
POLYLINE
  8
LAYER_1
 66
     1
  0
VERTEX
  8
LAYER_1
 10
-77.217
 20
-22.6409
  0
VERTEX
  8
LAYER_1
 10
-77.4326
 20
-22.5972
  0
SEQEND
  8
LAYER_1
  0
POLYLINE
  8
LAYER_1
 66
     1
  0
VERTEX
  8
LAYER_1
 10
-77.1099
 20
-22.6644
  0
VERTEX
  8
LAYER_1
 10
-77.2171
 20
-22.6409
  0
SEQEND
  8
LAYER_1
  0
POLYLINE
  8
LAYER_1
 66
     1
  0
VERTEX
  8
LAYER_1
 10
-77.0034
 20
-22.6888
  0
VERTEX
  8
LAYER_1
 10
-77.1099
 20
-22.6645
  0
SEQEND
  8
LAYER_1
  0
POLYLINE
  8
LAYER_1
 66
     1
  0
VERTEX
  8
LAYER_1
 10
-76.1435
 20
-21.1244
  0
VERTEX
  8
LAYER_1
 10
-77.0034
 20
-22.6887
  0
SEQEND
  8
LAYER_1
  0
POLYLINE
  8
LAYER_1
 66
     1
  0
VERTEX
  8
LAYER_1
 10
-76.2213
 20
-21.0478
  0
VERTEX
  8
LAYER_1
 10
-76.1435
 20
-21.1244
  0
SEQEND
  8
LAYER_1
  0
POLYLINE
  8
LAYER_1
 66
     1
  0
VERTEX
  8
LAYER_1
 10
-76.2982
 20
-20.9696
  0
VERTEX
  8
LAYER_1
 10
-76.2212
 20
-21.0477
  0
SEQEND
  8
LAYER_1
  0
POLYLINE
  8
LAYER_1
 66
     1
  0
VERTEX
  8
LAYER_1
 10
-76.4507
 20
-20.8112
  0
VERTEX
  8
LAYER_1
 10
-76.2982
 20
-20.9696
  0
SEQEND
  8
LAYER_1
  0
POLYLINE
  8
LAYER_1
 66
     1
  0
VERTEX
  8
LAYER_1
 10
-76.749
 20
-20.4828
  0
VERTEX
  8
LAYER_1
 10
-76.4507
 20
-20.8112
  0
SEQEND
  8
LAYER_1
  0
POLYLINE
  8
LAYER_1
 66
     1
  0
VERTEX
  8
LAYER_1
 10
-77.0391
 20
-20.1415
  0
VERTEX
  8
LAYER_1
 10
-76.7491
 20
-20.4828
  0
SEQEND
  8
LAYER_1
  0
POLYLINE
  8
LAYER_1
 66
     1
  0
VERTEX
  8
LAYER_1
 10
-77.3209
 20
-19.7873
  0
VERTEX
  8
LAYER_1
 10
-77.0391
 20
-20.1415
  0
SEQEND
  8
LAYER_1
  0
POLYLINE
  8
LAYER_1
 66
     1
  0
VERTEX
  8
LAYER_1
 10
-77.595
 20
-19.4215
  0
VERTEX
  8
LAYER_1
 10
-77.3208
 20
-19.7873
  0
SEQEND
  8
LAYER_1
  0
POLYLINE
  8
LAYER_1
 66
     1
  0
VERTEX
  8
LAYER_1
 10
-77.8616
 20
-19.0448
  0
VERTEX
  8
LAYER_1
 10
-77.595
 20
-19.4215
  0
SEQEND
  8
LAYER_1
  0
POLYLINE
  8
LAYER_1
 66
     1
  0
VERTEX
  8
LAYER_1
 10
-76.964
 20
-17.6306
  0
VERTEX
  8
LAYER_1
 10
-77.8616
 20
-19.0448
  0
SEQEND
  8
LAYER_1
  0
POLYLINE
  8
LAYER_1
 66
     1
  0
VERTEX
  8
LAYER_1
 10
-76.5096
 20
-17.7113
  0
VERTEX
  8
LAYER_1
 10
-76.964
 20
-17.6306
  0
SEQEND
  8
LAYER_1
  0
POLYLINE
  8
LAYER_1
 66
     1
  0
VERTEX
  8
LAYER_1
 10
-76.0618
 20
-17.8036
  0
VERTEX
  8
LAYER_1
 10
-76.5096
 20
-17.7113
  0
SEQEND
  8
LAYER_1
  0
POLYLINE
  8
LAYER_1
 66
     1
  0
VERTEX
  8
LAYER_1
 10
-75.6216
 20
-17.9078
  0
VERTEX
  8
LAYER_1
 10
-76.0618
 20
-17.8036
  0
SEQEND
  8
LAYER_1
  0
POLYLINE
  8
LAYER_1
 66
     1
  0
VERTEX
  8
LAYER_1
 10
-75.189
 20
-18.0248
  0
VERTEX
  8
LAYER_1
 10
-75.6216
 20
-17.9077
  0
SEQEND
  8
LAYER_1
  0
POLYLINE
  8
LAYER_1
 66
     1
  0
VERTEX
  8
LAYER_1
 10
-74.765
 20
-18.1548
  0
VERTEX
  8
LAYER_1
 10
-75.189
 20
-18.0248
  0
SEQEND
  8
LAYER_1
  0
POLYLINE
  8
LAYER_1
 66
     1
  0
VERTEX
  8
LAYER_1
 10
-74.5566
 20
-18.2253
  0
VERTEX
  8
LAYER_1
 10
-74.765
 20
-18.1548
  0
SEQEND
  8
LAYER_1
  0
POLYLINE
  8
LAYER_1
 66
     1
  0
VERTEX
  8
LAYER_1
 10
-74.4534
 20
-18.262
  0
VERTEX
  8
LAYER_1
 10
-74.5566
 20
-18.2253
  0
SEQEND
  8
LAYER_1
  0
POLYLINE
  8
LAYER_1
 66
     1
  0
VERTEX
  8
LAYER_1
 10
-74.3506
 20
-18.2997
  0
VERTEX
  8
LAYER_1
 10
-74.4534
 20
-18.262
  0
SEQEND
  8
LAYER_1
  0
POLYLINE
  8
LAYER_1
 66
     1
  0
VERTEX
  8
LAYER_1
 10
-73.3015
 20
-16.8554
  0
VERTEX
  8
LAYER_1
 10
-74.3506
 20
-18.2997
  0
SEQEND
  8
LAYER_1
  0
POLYLINE
  8
LAYER_1
 66
     1
  0
VERTEX
  8
LAYER_1
 10
-73.369
 20
-16.7694
  0
VERTEX
  8
LAYER_1
 10
-73.3015
 20
-16.8554
  0
SEQEND
  8
LAYER_1
  0
POLYLINE
  8
LAYER_1
 66
     1
  0
VERTEX
  8
LAYER_1
 10
-73.4358
 20
-16.6824
  0
VERTEX
  8
LAYER_1
 10
-73.369
 20
-16.7694
  0
SEQEND
  8
LAYER_1
  0
POLYLINE
  8
LAYER_1
 66
     1
  0
VERTEX
  8
LAYER_1
 10
-73.5671
 20
-16.5061
  0
VERTEX
  8
LAYER_1
 10
-73.4358
 20
-16.6824
  0
SEQEND
  8
LAYER_1
  0
POLYLINE
  8
LAYER_1
 66
     1
  0
VERTEX
  8
LAYER_1
 10
-73.8217
 20
-16.143
  0
VERTEX
  8
LAYER_1
 10
-73.567
 20
-16.5061
  0
SEQEND
  8
LAYER_1
  0
POLYLINE
  8
LAYER_1
 66
     1
  0
VERTEX
  8
LAYER_1
 10
-74.0668
 20
-15.7676
  0
VERTEX
  8
LAYER_1
 10
-73.8217
 20
-16.143
  0
SEQEND
  8
LAYER_1
  0
POLYLINE
  8
LAYER_1
 66
     1
  0
VERTEX
  8
LAYER_1
 10
-74.302
 20
-15.3813
  0
VERTEX
  8
LAYER_1
 10
-74.0669
 20
-15.7676
  0
SEQEND
  8
LAYER_1
  0
POLYLINE
  8
LAYER_1
 66
     1
  0
VERTEX
  8
LAYER_1
 10
-74.5282
 20
-14.9841
  0
VERTEX
  8
LAYER_1
 10
-74.302
 20
-15.3813
  0
SEQEND
  8
LAYER_1
  0
POLYLINE
  8
LAYER_1
 66
     1
  0
VERTEX
  8
LAYER_1
 10
-74.7451
 20
-14.5767
  0
VERTEX
  8
LAYER_1
 10
-74.5281
 20
-14.9842
  0
SEQEND
  8
LAYER_1
  0
POLYLINE
  8
LAYER_1
 66
     1
  0
VERTEX
  8
LAYER_1
 10
-73.6775
 20
-13.2862
  0
VERTEX
  8
LAYER_1
 10
-74.7451
 20
-14.5767
  0
SEQEND
  8
LAYER_1
  0
POLYLINE
  8
LAYER_1
 66
     1
  0
VERTEX
  8
LAYER_1
 10
-73.237
 20
-13.4231
  0
VERTEX
  8
LAYER_1
 10
-73.6775
 20
-13.2862
  0
SEQEND
  8
LAYER_1
  0
POLYLINE
  8
LAYER_1
 66
     1
  0
VERTEX
  8
LAYER_1
 10
-72.8044
 20
-13.5709
  0
VERTEX
  8
LAYER_1
 10
-73.237
 20
-13.4231
  0
SEQEND
  8
LAYER_1
  0
POLYLINE
  8
LAYER_1
 66
     1
  0
VERTEX
  8
LAYER_1
 10
-72.3804
 20
-13.7296
  0
VERTEX
  8
LAYER_1
 10
-72.8044
 20
-13.5708
  0
SEQEND
  8
LAYER_1
  0
POLYLINE
  8
LAYER_1
 66
     1
  0
VERTEX
  8
LAYER_1
 10
-71.966
 20
-13.8996
  0
VERTEX
  8
LAYER_1
 10
-72.3804
 20
-13.7296
  0
SEQEND
  8
LAYER_1
  0
POLYLINE
  8
LAYER_1
 66
     1
  0
VERTEX
  8
LAYER_1
 10
-71.5619
 20
-14.0819
  0
VERTEX
  8
LAYER_1
 10
-71.9661
 20
-13.8997
  0
SEQEND
  8
LAYER_1
  0
POLYLINE
  8
LAYER_1
 66
     1
  0
VERTEX
  8
LAYER_1
 10
-71.3638
 20
-14.1778
  0
VERTEX
  8
LAYER_1
 10
-71.5619
 20
-14.0819
  0
SEQEND
  8
LAYER_1
  0
POLYLINE
  8
LAYER_1
 66
     1
  0
VERTEX
  8
LAYER_1
 10
-71.2659
 20
-14.2274
  0
VERTEX
  8
LAYER_1
 10
-71.3638
 20
-14.1778
  0
SEQEND
  8
LAYER_1
  0
POLYLINE
  8
LAYER_1
 66
     1
  0
VERTEX
  8
LAYER_1
 10
-71.1686
 20
-14.2773
  0
VERTEX
  8
LAYER_1
 10
-71.2658
 20
-14.2274
  0
SEQEND
  8
LAYER_1
  0
POLYLINE
  8
LAYER_1
 66
     1
  0
VERTEX
  8
LAYER_1
 10
-69.9469
 20
-12.9762
  0
VERTEX
  8
LAYER_1
 10
-71.1686
 20
-14.2773
  0
SEQEND
  8
LAYER_1
  0
POLYLINE
  8
LAYER_1
 66
     1
  0
VERTEX
  8
LAYER_1
 10
-70.0028
 20
-12.8823
  0
VERTEX
  8
LAYER_1
 10
-69.9469
 20
-12.9762
  0
SEQEND
  8
LAYER_1
  0
POLYLINE
  8
LAYER_1
 66
     1
  0
VERTEX
  8
LAYER_1
 10
-70.0584
 20
-12.7877
  0
VERTEX
  8
LAYER_1
 10
-70.0028
 20
-12.8823
  0
SEQEND
  8
LAYER_1
  0
POLYLINE
  8
LAYER_1
 66
     1
  0
VERTEX
  8
LAYER_1
 10
-70.1665
 20
-12.5963
  0
VERTEX
  8
LAYER_1
 10
-70.0584
 20
-12.7878
  0
SEQEND
  8
LAYER_1
  0
POLYLINE
  8
LAYER_1
 66
     1
  0
VERTEX
  8
LAYER_1
 10
-70.3739
 20
-12.204
  0
VERTEX
  8
LAYER_1
 10
-70.1665
 20
-12.5962
  0
SEQEND
  8
LAYER_1
  0
POLYLINE
  8
LAYER_1
 66
     1
  0
VERTEX
  8
LAYER_1
 10
-70.5697
 20
-11.8012
  0
VERTEX
  8
LAYER_1
 10
-70.3739
 20
-12.204
  0
SEQEND
  8
LAYER_1
  0
POLYLINE
  8
LAYER_1
 66
     1
  0
VERTEX
  8
LAYER_1
 10
-70.7546
 20
-11.3881
  0
VERTEX
  8
LAYER_1
 10
-70.5697
 20
-11.8012
  0
SEQEND
  8
LAYER_1
  0
POLYLINE
  8
LAYER_1
 66
     1
  0
VERTEX
  8
LAYER_1
 10
-70.9292
 20
-10.9658
  0
VERTEX
  8
LAYER_1
 10
-70.7546
 20
-11.3881
  0
SEQEND
  8
LAYER_1
  0
POLYLINE
  8
LAYER_1
 66
     1
  0
VERTEX
  8
LAYER_1
 10
-71.0936
 20
-10.5345
  0
VERTEX
  8
LAYER_1
 10
-70.9292
 20
-10.9658
  0
SEQEND
  8
LAYER_1
  0
POLYLINE
  8
LAYER_1
 66
     1
  0
VERTEX
  8
LAYER_1
 10
-69.8725
 20
-9.3878
  0
VERTEX
  8
LAYER_1
 10
-71.0936
 20
-10.5345
  0
SEQEND
  8
LAYER_1
  0
POLYLINE
  8
LAYER_1
 66
     1
  0
VERTEX
  8
LAYER_1
 10
-69.4525
 20
-9.579
  0
VERTEX
  8
LAYER_1
 10
-69.8725
 20
-9.3878
  0
SEQEND
  8
LAYER_1
  0
POLYLINE
  8
LAYER_1
 66
     1
  0
VERTEX
  8
LAYER_1
 10
-69.042
 20
-9.7798
  0
VERTEX
  8
LAYER_1
 10
-69.4524
 20
-9.579
  0
SEQEND
  8
LAYER_1
  0
POLYLINE
  8
LAYER_1
 66
     1
  0
VERTEX
  8
LAYER_1
 10
-68.6412
 20
-9.9904
  0
VERTEX
  8
LAYER_1
 10
-69.042
 20
-9.7797
  0
SEQEND
  8
LAYER_1
  0
POLYLINE
  8
LAYER_1
 66
     1
  0
VERTEX
  8
LAYER_1
 10
-68.2516
 20
-10.211
  0
VERTEX
  8
LAYER_1
 10
-68.6412
 20
-9.9904
  0
SEQEND
  8
LAYER_1
  0
POLYLINE
  8
LAYER_1
 66
     1
  0
VERTEX
  8
LAYER_1
 10
-67.8733
 20
-10.4425
  0
VERTEX
  8
LAYER_1
 10
-68.2517
 20
-10.211
  0
SEQEND
  8
LAYER_1
  0
POLYLINE
  8
LAYER_1
 66
     1
  0
VERTEX
  8
LAYER_1
 10
-67.6887
 20
-10.5626
  0
VERTEX
  8
LAYER_1
 10
-67.8732
 20
-10.4426
  0
SEQEND
  8
LAYER_1
  0
POLYLINE
  8
LAYER_1
 66
     1
  0
VERTEX
  8
LAYER_1
 10
-67.5978
 20
-10.6238
  0
VERTEX
  8
LAYER_1
 10
-67.6887
 20
-10.5626
  0
SEQEND
  8
LAYER_1
  0
POLYLINE
  8
LAYER_1
 66
     1
  0
VERTEX
  8
LAYER_1
 10
-67.5078
 20
-10.686
  0
VERTEX
  8
LAYER_1
 10
-67.5978
 20
-10.6238
  0
SEQEND
  8
LAYER_1
  0
POLYLINE
  8
LAYER_1
 66
     1
  0
VERTEX
  8
LAYER_1
 10
-66.1323
 20
-9.5479
  0
VERTEX
  8
LAYER_1
 10
-67.5078
 20
-10.686
  0
SEQEND
  8
LAYER_1
  0
POLYLINE
  8
LAYER_1
 66
     1
  0
VERTEX
  8
LAYER_1
 10
-66.1763
 20
-9.448
  0
VERTEX
  8
LAYER_1
 10
-66.1323
 20
-9.5479
  0
SEQEND
  8
LAYER_1
  0
POLYLINE
  8
LAYER_1
 66
     1
  0
VERTEX
  8
LAYER_1
 10
-66.2193
 20
-9.3472
  0
VERTEX
  8
LAYER_1
 10
-66.1763
 20
-9.4481
  0
SEQEND
  8
LAYER_1
  0
POLYLINE
  8
LAYER_1
 66
     1
  0
VERTEX
  8
LAYER_1
 10
-66.3026
 20
-9.1434
  0
VERTEX
  8
LAYER_1
 10
-66.2193
 20
-9.3471
  0
SEQEND
  8
LAYER_1
  0
POLYLINE
  8
LAYER_1
 66
     1
  0
VERTEX
  8
LAYER_1
 10
-66.4594
 20
-8.7284
  0
VERTEX
  8
LAYER_1
 10
-66.3026
 20
-9.1435
  0
SEQEND
  8
LAYER_1
  0
POLYLINE
  8
LAYER_1
 66
     1
  0
VERTEX
  8
LAYER_1
 10
-66.6033
 20
-8.304
  0
VERTEX
  8
LAYER_1
 10
-66.4594
 20
-8.7283
  0
SEQEND
  8
LAYER_1
  0
POLYLINE
  8
LAYER_1
 66
     1
  0
VERTEX
  8
LAYER_1
 10
-66.7349
 20
-7.8711
  0
VERTEX
  8
LAYER_1
 10
-66.6033
 20
-8.304
  0
SEQEND
  8
LAYER_1
  0
POLYLINE
  8
LAYER_1
 66
     1
  0
VERTEX
  8
LAYER_1
 10
-66.8549
 20
-7.4303
  0
VERTEX
  8
LAYER_1
 10
-66.7348
 20
-7.8711
  0
SEQEND
  8
LAYER_1
  0
POLYLINE
  8
LAYER_1
 66
     1
  0
VERTEX
  8
LAYER_1
 10
-66.9641
 20
-6.9818
  0
VERTEX
  8
LAYER_1
 10
-66.855
 20
-7.4303
  0
SEQEND
  8
LAYER_1
  0
POLYLINE
  8
LAYER_1
 66
     1
  0
VERTEX
  8
LAYER_1
 10
-65.6091
 20
-5.9972
  0
VERTEX
  8
LAYER_1
 10
-66.9641
 20
-6.9818
  0
SEQEND
  8
LAYER_1
  0
POLYLINE
  8
LAYER_1
 66
     1
  0
VERTEX
  8
LAYER_1
 10
-65.2162
 20
-6.2396
  0
VERTEX
  8
LAYER_1
 10
-65.6091
 20
-5.9972
  0
SEQEND
  8
LAYER_1
  0
POLYLINE
  8
LAYER_1
 66
     1
  0
VERTEX
  8
LAYER_1
 10
-64.8342
 20
-6.4903
  0
VERTEX
  8
LAYER_1
 10
-65.2162
 20
-6.2396
  0
SEQEND
  8
LAYER_1
  0
POLYLINE
  8
LAYER_1
 66
     1
  0
VERTEX
  8
LAYER_1
 10
-64.4631
 20
-6.7493
  0
VERTEX
  8
LAYER_1
 10
-64.8342
 20
-6.4904
  0
SEQEND
  8
LAYER_1
  0
POLYLINE
  8
LAYER_1
 66
     1
  0
VERTEX
  8
LAYER_1
 10
-64.1039
 20
-7.0172
  0
VERTEX
  8
LAYER_1
 10
-64.4631
 20
-6.7493
  0
SEQEND
  8
LAYER_1
  0
POLYLINE
  8
LAYER_1
 66
     1
  0
VERTEX
  8
LAYER_1
 10
-63.7577
 20
-7.2943
  0
VERTEX
  8
LAYER_1
 10
-64.104
 20
-7.0171
  0
SEQEND
  8
LAYER_1
  0
POLYLINE
  8
LAYER_1
 66
     1
  0
VERTEX
  8
LAYER_1
 10
-63.5897
 20
-7.4366
  0
VERTEX
  8
LAYER_1
 10
-63.7577
 20
-7.2944
  0
SEQEND
  8
LAYER_1
  0
POLYLINE
  8
LAYER_1
 66
     1
  0
VERTEX
  8
LAYER_1
 10
-63.5073
 20
-7.5087
  0
VERTEX
  8
LAYER_1
 10
-63.5897
 20
-7.4366
  0
SEQEND
  8
LAYER_1
  0
POLYLINE
  8
LAYER_1
 66
     1
  0
VERTEX
  8
LAYER_1
 10
-63.4256
 20
-7.5814
  0
VERTEX
  8
LAYER_1
 10
-63.5073
 20
-7.5087
  0
SEQEND
  8
LAYER_1
  0
POLYLINE
  8
LAYER_1
 66
     1
  0
VERTEX
  8
LAYER_1
 10
-61.9185
 20
-6.6249
  0
VERTEX
  8
LAYER_1
 10
-63.4256
 20
-7.5814
  0
SEQEND
  8
LAYER_1
  0
POLYLINE
  8
LAYER_1
 66
     1
  0
VERTEX
  8
LAYER_1
 10
-61.9496
 20
-6.5201
  0
VERTEX
  8
LAYER_1
 10
-61.9185
 20
-6.6249
  0
SEQEND
  8
LAYER_1
  0
POLYLINE
  8
LAYER_1
 66
     1
  0
VERTEX
  8
LAYER_1
 10
-61.9797
 20
-6.4146
  0
VERTEX
  8
LAYER_1
 10
-61.9496
 20
-6.5201
  0
SEQEND
  8
LAYER_1
  0
POLYLINE
  8
LAYER_1
 66
     1
  0
VERTEX
  8
LAYER_1
 10
-62.0369
 20
-6.2023
  0
VERTEX
  8
LAYER_1
 10
-61.9797
 20
-6.4146
  0
SEQEND
  8
LAYER_1
  0
POLYLINE
  8
LAYER_1
 66
     1
  0
VERTEX
  8
LAYER_1
 10
-62.1401
 20
-5.771
  0
VERTEX
  8
LAYER_1
 10
-62.0369
 20
-6.2023
  0
SEQEND
  8
LAYER_1
  0
POLYLINE
  8
LAYER_1
 66
     1
  0
VERTEX
  8
LAYER_1
 10
-62.2294
 20
-5.3318
  0
VERTEX
  8
LAYER_1
 10
-62.1401
 20
-5.771
  0
SEQEND
  8
LAYER_1
  0
POLYLINE
  8
LAYER_1
 66
     1
  0
VERTEX
  8
LAYER_1
 10
-62.3061
 20
-4.8859
  0
VERTEX
  8
LAYER_1
 10
-62.2294
 20
-5.3317
  0
SEQEND
  8
LAYER_1
  0
POLYLINE
  8
LAYER_1
 66
     1
  0
VERTEX
  8
LAYER_1
 10
-62.3699
 20
-4.4332
  0
VERTEX
  8
LAYER_1
 10
-62.3061
 20
-4.886
  0
SEQEND
  8
LAYER_1
  0
POLYLINE
  8
LAYER_1
 66
     1
  0
VERTEX
  8
LAYER_1
 10
-62.4222
 20
-3.9748
  0
VERTEX
  8
LAYER_1
 10
-62.3699
 20
-4.4332
  0
SEQEND
  8
LAYER_1
  0
POLYLINE
  8
LAYER_1
 66
     1
  0
VERTEX
  8
LAYER_1
 10
-60.9544
 20
-3.1678
  0
VERTEX
  8
LAYER_1
 10
-62.4222
 20
-3.9748
  0
SEQEND
  8
LAYER_1
  0
POLYLINE
  8
LAYER_1
 66
     1
  0
VERTEX
  8
LAYER_1
 10
-60.5949
 20
-3.4575
  0
VERTEX
  8
LAYER_1
 10
-60.9544
 20
-3.1678
  0
SEQEND
  8
LAYER_1
  0
POLYLINE
  8
LAYER_1
 66
     1
  0
VERTEX
  8
LAYER_1
 10
-60.247
 20
-3.7539
  0
VERTEX
  8
LAYER_1
 10
-60.5949
 20
-3.4576
  0
SEQEND
  8
LAYER_1
  0
POLYLINE
  8
LAYER_1
 66
     1
  0
VERTEX
  8
LAYER_1
 10
-59.9113
 20
-4.0575
  0
VERTEX
  8
LAYER_1
 10
-60.247
 20
-3.7539
  0
SEQEND
  8
LAYER_1
  0
POLYLINE
  8
LAYER_1
 66
     1
  0
VERTEX
  8
LAYER_1
 10
-59.5888
 20
-4.3684
  0
VERTEX
  8
LAYER_1
 10
-59.9113
 20
-4.0575
  0
SEQEND
  8
LAYER_1
  0
POLYLINE
  8
LAYER_1
 66
     1
  0
VERTEX
  8
LAYER_1
 10
-59.2799
 20
-4.6865
  0
VERTEX
  8
LAYER_1
 10
-59.5888
 20
-4.3683
  0
SEQEND
  8
LAYER_1
  0
POLYLINE
  8
LAYER_1
 66
     1
  0
VERTEX
  8
LAYER_1
 10
-59.1311
 20
-4.8489
  0
VERTEX
  8
LAYER_1
 10
-59.2799
 20
-4.6865
  0
SEQEND
  8
LAYER_1
  0
POLYLINE
  8
LAYER_1
 66
     1
  0
VERTEX
  8
LAYER_1
 10
-59.0583
 20
-4.9306
  0
VERTEX
  8
LAYER_1
 10
-59.1311
 20
-4.8489
  0
SEQEND
  8
LAYER_1
  0
POLYLINE
  8
LAYER_1
 66
     1
  0
VERTEX
  8
LAYER_1
 10
-58.9866
 20
-5.013
  0
VERTEX
  8
LAYER_1
 10
-59.0584
 20
-4.9306
  0
SEQEND
  8
LAYER_1
  0
POLYLINE
  8
LAYER_1
 66
     1
  0
VERTEX
  8
LAYER_1
 10
-57.3713
 20
-4.253
  0
VERTEX
  8
LAYER_1
 10
-58.9866
 20
-5.013
  0
SEQEND
  8
LAYER_1
  0
POLYLINE
  8
LAYER_1
 66
     1
  0
VERTEX
  8
LAYER_1
 10
-57.3893
 20
-4.1451
  0
VERTEX
  8
LAYER_1
 10
-57.3713
 20
-4.2529
  0
SEQEND
  8
LAYER_1
  0
POLYLINE
  8
LAYER_1
 66
     1
  0
VERTEX
  8
LAYER_1
 10
-57.4057
 20
-4.0367
  0
VERTEX
  8
LAYER_1
 10
-57.3893
 20
-4.1452
  0
SEQEND
  8
LAYER_1
  0
POLYLINE
  8
LAYER_1
 66
     1
  0
VERTEX
  8
LAYER_1
 10
-57.4358
 20
-3.8187
  0
VERTEX
  8
LAYER_1
 10
-57.4057
 20
-4.0367
  0
SEQEND
  8
LAYER_1
  0
POLYLINE
  8
LAYER_1
 66
     1
  0
VERTEX
  8
LAYER_1
 10
-57.4841
 20
-3.3779
  0
VERTEX
  8
LAYER_1
 10
-57.4358
 20
-3.8187
  0
SEQEND
  8
LAYER_1
  0
POLYLINE
  8
LAYER_1
 66
     1
  0
VERTEX
  8
LAYER_1
 10
-57.5178
 20
-2.9314
  0
VERTEX
  8
LAYER_1
 10
-57.4841
 20
-3.3779
  0
SEQEND
  8
LAYER_1
  0
POLYLINE
  8
LAYER_1
 66
     1
  0
VERTEX
  8
LAYER_1
 10
-57.5379
 20
-2.4792
  0
VERTEX
  8
LAYER_1
 10
-57.5178
 20
-2.9313
  0
SEQEND
  8
LAYER_1
  0
POLYLINE
  8
LAYER_1
 66
     1
  0
VERTEX
  8
LAYER_1
 10
-57.5445
 20
-2.0222
  0
VERTEX
  8
LAYER_1
 10
-57.5379
 20
-2.4793
  0
SEQEND
  8
LAYER_1
  0
POLYLINE
  8
LAYER_1
 66
     1
  0
VERTEX
  8
LAYER_1
 10
-57.5379
 20
-1.5605
  0
VERTEX
  8
LAYER_1
 10
-57.544
 20
-2.0222
  0
SEQEND
  8
LAYER_1
  0
POLYLINE
  8
LAYER_1
 66
     1
  0
VERTEX
  8
LAYER_1
 10
-55.9808
 20
-0.944
  0
VERTEX
  8
LAYER_1
 10
-57.5379
 20
-1.5605
  0
SEQEND
  8
LAYER_1
  0
POLYLINE
  8
LAYER_1
 66
     1
  0
VERTEX
  8
LAYER_1
 10
-55.6604
 20
-1.2764
  0
VERTEX
  8
LAYER_1
 10
-55.9809
 20
-0.944
  0
SEQEND
  8
LAYER_1
  0
POLYLINE
  8
LAYER_1
 66
     1
  0
VERTEX
  8
LAYER_1
 10
-55.3525
 20
-1.6141
  0
VERTEX
  8
LAYER_1
 10
-55.6604
 20
-1.2764
  0
SEQEND
  8
LAYER_1
  0
POLYLINE
  8
LAYER_1
 66
     1
  0
VERTEX
  8
LAYER_1
 10
-55.0578
 20
-1.9574
  0
VERTEX
  8
LAYER_1
 10
-55.3525
 20
-1.6141
  0
SEQEND
  8
LAYER_1
  0
POLYLINE
  8
LAYER_1
 66
     1
  0
VERTEX
  8
LAYER_1
 10
-54.7764
 20
-2.3063
  0
VERTEX
  8
LAYER_1
 10
-55.0578
 20
-1.9574
  0
SEQEND
  8
LAYER_1
  0
POLYLINE
  8
LAYER_1
 66
     1
  0
VERTEX
  8
LAYER_1
 10
-54.5101
 20
-2.6608
  0
VERTEX
  8
LAYER_1
 10
-54.7764
 20
-2.3063
  0
SEQEND
  8
LAYER_1
  0
POLYLINE
  8
LAYER_1
 66
     1
  0
VERTEX
  8
LAYER_1
 10
-54.3828
 20
-2.8401
  0
VERTEX
  8
LAYER_1
 10
-54.5101
 20
-2.6608
  0
SEQEND
  8
LAYER_1
  0
POLYLINE
  8
LAYER_1
 66
     1
  0
VERTEX
  8
LAYER_1
 10
-54.3206
 20
-2.9307
  0
VERTEX
  8
LAYER_1
 10
-54.3828
 20
-2.8401
  0
SEQEND
  8
LAYER_1
  0
POLYLINE
  8
LAYER_1
 66
     1
  0
VERTEX
  8
LAYER_1
 10
-54.2598
 20
-3.0213
  0
VERTEX
  8
LAYER_1
 10
-54.3206
 20
-2.9307
  0
SEQEND
  8
LAYER_1
  0
POLYLINE
  8
LAYER_1
 66
     1
  0
VERTEX
  8
LAYER_1
 10
-52.5621
 20
-2.4697
  0
VERTEX
  8
LAYER_1
 10
-54.2597
 20
-3.0214
  0
SEQEND
  8
LAYER_1
  0
POLYLINE
  8
LAYER_1
 66
     1
  0
VERTEX
  8
LAYER_1
 10
-52.5661
 20
-2.3605
  0
VERTEX
  8
LAYER_1
 10
-52.5621
 20
-2.4696
  0
SEQEND
  8
LAYER_1
  0
POLYLINE
  8
LAYER_1
 66
     1
  0
VERTEX
  8
LAYER_1
 10
-52.569
 20
-2.2511
  0
VERTEX
  8
LAYER_1
 10
-52.5661
 20
-2.3606
  0
SEQEND
  8
LAYER_1
  0
POLYLINE
  8
LAYER_1
 66
     1
  0
VERTEX
  8
LAYER_1
 10
-52.5716
 20
-2.0308
  0
VERTEX
  8
LAYER_1
 10
-52.569
 20
-2.2511
  0
SEQEND
  8
LAYER_1
  0
POLYLINE
  8
LAYER_1
 66
     1
  0
VERTEX
  8
LAYER_1
 10
-52.5645
 20
-1.5876
  0
VERTEX
  8
LAYER_1
 10
-52.5716
 20
-2.0308
  0
SEQEND
  8
LAYER_1
  0
POLYLINE
  8
LAYER_1
 66
     1
  0
VERTEX
  8
LAYER_1
 10
-52.542
 20
-1.1401
  0
VERTEX
  8
LAYER_1
 10
-52.5645
 20
-1.5876
  0
SEQEND
  8
LAYER_1
  0
POLYLINE
  8
LAYER_1
 66
     1
  0
VERTEX
  8
LAYER_1
 10
-52.505
 20
-0.689
  0
VERTEX
  8
LAYER_1
 10
-52.542
 20
-1.1401
  0
SEQEND
  8
LAYER_1
  0
POLYLINE
  8
LAYER_1
 66
     1
  0
VERTEX
  8
LAYER_1
 10
-52.4544
 20
-0.2346
  0
VERTEX
  8
LAYER_1
 10
-52.505
 20
-0.689
  0
SEQEND
  8
LAYER_1
  0
POLYLINE
  8
LAYER_1
 66
     1
  0
VERTEX
  8
LAYER_1
 10
-52.3909
 20
0.2225
  0
VERTEX
  8
LAYER_1
 10
-52.4544
 20
-0.2346
  0
SEQEND
  8
LAYER_1
  0
POLYLINE
  8
LAYER_1
 66
     1
  0
VERTEX
  8
LAYER_1
 10
-50.7686
 20
0.6392
  0
VERTEX
  8
LAYER_1
 10
-52.3908
 20
0.2225
  0
SEQEND
  8
LAYER_1
  0
POLYLINE
  8
LAYER_1
 66
     1
  0
VERTEX
  8
LAYER_1
 10
-50.4925
 20
0.2691
  0
VERTEX
  8
LAYER_1
 10
-50.7686
 20
0.6392
  0
SEQEND
  8
LAYER_1
  0
POLYLINE
  8
LAYER_1
 66
     1
  0
VERTEX
  8
LAYER_1
 10
-50.2292
 20
-0.1046
  0
VERTEX
  8
LAYER_1
 10
-50.4925
 20
0.2691
  0
SEQEND
  8
LAYER_1
  0
POLYLINE
  8
LAYER_1
 66
     1
  0
VERTEX
  8
LAYER_1
 10
-49.9799
 20
-0.482
  0
VERTEX
  8
LAYER_1
 10
-50.2293
 20
-0.1047
  0
SEQEND
  8
LAYER_1
  0
POLYLINE
  8
LAYER_1
 66
     1
  0
VERTEX
  8
LAYER_1
 10
-49.7444
 20
-0.8633
  0
VERTEX
  8
LAYER_1
 10
-49.9799
 20
-0.482
  0
SEQEND
  8
LAYER_1
  0
POLYLINE
  8
LAYER_1
 66
     1
  0
VERTEX
  8
LAYER_1
 10
-49.5244
 20
-1.2486
  0
VERTEX
  8
LAYER_1
 10
-49.7443
 20
-0.8633
  0
SEQEND
  8
LAYER_1
  0
POLYLINE
  8
LAYER_1
 66
     1
  0
VERTEX
  8
LAYER_1
 10
-49.4206
 20
-1.4424
  0
VERTEX
  8
LAYER_1
 10
-49.5244
 20
-1.2486
  0
SEQEND
  8
LAYER_1
  0
POLYLINE
  8
LAYER_1
 66
     1
  0
VERTEX
  8
LAYER_1
 10
-49.3706
 20
-1.54
  0
VERTEX
  8
LAYER_1
 10
-49.4205
 20
-1.4424
  0
SEQEND
  8
LAYER_1
  0
POLYLINE
  8
LAYER_1
 66
     1
  0
VERTEX
  8
LAYER_1
 10
-49.3214
 20
-1.6376
  0
VERTEX
  8
LAYER_1
 10
-49.3707
 20
-1.54
  0
SEQEND
  8
LAYER_1
  0
POLYLINE
  8
LAYER_1
 66
     1
  0
VERTEX
  8
LAYER_1
 10
-47.5682
 20
-1.3032
  0
VERTEX
  8
LAYER_1
 10
-49.3214
 20
-1.6376
  0
SEQEND
  8
LAYER_1
  0
POLYLINE
  8
LAYER_1
 66
     1
  0
VERTEX
  8
LAYER_1
 10
-47.5584
 20
-1.1944
  0
VERTEX
  8
LAYER_1
 10
-47.5682
 20
-1.3032
  0
SEQEND
  8
LAYER_1
  0
POLYLINE
  8
LAYER_1
 66
     1
  0
VERTEX
  8
LAYER_1
 10
-47.5475
 20
-1.0852
  0
VERTEX
  8
LAYER_1
 10
-47.5583
 20
-1.1943
  0
SEQEND
  8
LAYER_1
  0
POLYLINE
  8
LAYER_1
 66
     1
  0
VERTEX
  8
LAYER_1
 10
-47.5227
 20
-0.8666
  0
VERTEX
  8
LAYER_1
 10
-47.5476
 20
-1.0852
  0
SEQEND
  8
LAYER_1
  0
POLYLINE
  8
LAYER_1
 66
     1
  0
VERTEX
  8
LAYER_1
 10
-47.4598
 20
-0.4274
  0
VERTEX
  8
LAYER_1
 10
-47.5226
 20
-0.8666
  0
SEQEND
  8
LAYER_1
  0
POLYLINE
  8
LAYER_1
 66
     1
  0
VERTEX
  8
LAYER_1
 10
-47.3814
 20
0.0134
  0
VERTEX
  8
LAYER_1
 10
-47.4598
 20
-0.4275
  0
SEQEND
  8
LAYER_1
  0
POLYLINE
  8
LAYER_1
 66
     1
  0
VERTEX
  8
LAYER_1
 10
-47.2882
 20
0.4563
  0
VERTEX
  8
LAYER_1
 10
-47.3815
 20
0.0135
  0
SEQEND
  8
LAYER_1
  0
POLYLINE
  8
LAYER_1
 66
     1
  0
VERTEX
  8
LAYER_1
 10
-47.1814
 20
0.9008
  0
VERTEX
  8
LAYER_1
 10
-47.2882
 20
0.4563
  0
SEQEND
  8
LAYER_1
  0
POLYLINE
  8
LAYER_1
 66
     1
  0
VERTEX
  8
LAYER_1
 10
-47.0606
 20
1.3463
  0
VERTEX
  8
LAYER_1
 10
-47.1813
 20
0.9008
  0
SEQEND
  8
LAYER_1
  0
POLYLINE
  8
LAYER_1
 66
     1
  0
VERTEX
  8
LAYER_1
 10
-45.399
 20
1.5563
  0
VERTEX
  8
LAYER_1
 10
-47.0606
 20
1.3463
  0
SEQEND
  8
LAYER_1
  0
POLYLINE
  8
LAYER_1
 66
     1
  0
VERTEX
  8
LAYER_1
 10
-45.1715
 20
1.1545
  0
VERTEX
  8
LAYER_1
 10
-45.399
 20
1.5563
  0
SEQEND
  8
LAYER_1
  0
POLYLINE
  8
LAYER_1
 66
     1
  0
VERTEX
  8
LAYER_1
 10
-44.9572
 20
0.751
  0
VERTEX
  8
LAYER_1
 10
-45.1715
 20
1.1545
  0
SEQEND
  8
LAYER_1
  0
POLYLINE
  8
LAYER_1
 66
     1
  0
VERTEX
  8
LAYER_1
 10
-44.7571
 20
0.3452
  0
VERTEX
  8
LAYER_1
 10
-44.9572
 20
0.751
  0
SEQEND
  8
LAYER_1
  0
POLYLINE
  8
LAYER_1
 66
     1
  0
VERTEX
  8
LAYER_1
 10
-44.5712
 20
-0.0626
  0
VERTEX
  8
LAYER_1
 10
-44.7571
 20
0.3452
  0
SEQEND
  8
LAYER_1
  0
POLYLINE
  8
LAYER_1
 66
     1
  0
VERTEX
  8
LAYER_1
 10
-44.4016
 20
-0.4724
  0
VERTEX
  8
LAYER_1
 10
-44.5713
 20
-0.0626
  0
SEQEND
  8
LAYER_1
  0
POLYLINE
  8
LAYER_1
 66
     1
  0
VERTEX
  8
LAYER_1
 10
-44.3228
 20
-0.6778
  0
VERTEX
  8
LAYER_1
 10
-44.4015
 20
-0.4724
  0
SEQEND
  8
LAYER_1
  0
POLYLINE
  8
LAYER_1
 66
     1
  0
VERTEX
  8
LAYER_1
 10
-44.2851
 20
-0.7806
  0
VERTEX
  8
LAYER_1
 10
-44.3228
 20
-0.6777
  0
SEQEND
  8
LAYER_1
  0
POLYLINE
  8
LAYER_1
 66
     1
  0
VERTEX
  8
LAYER_1
 10
-44.2488
 20
-0.8838
  0
VERTEX
  8
LAYER_1
 10
-44.2852
 20
-0.7806
  0
SEQEND
  8
LAYER_1
  0
POLYLINE
  8
LAYER_1
 66
     1
  0
VERTEX
  8
LAYER_1
 10
-42.4671
 20
-0.7717
  0
VERTEX
  8
LAYER_1
 10
-44.2487
 20
-0.8838
  0
SEQEND
  8
LAYER_1
  0
POLYLINE
  8
LAYER_1
 66
     1
  0
VERTEX
  8
LAYER_1
 10
-42.4441
 20
-0.6649
  0
VERTEX
  8
LAYER_1
 10
-42.4671
 20
-0.7717
  0
SEQEND
  8
LAYER_1
  0
POLYLINE
  8
LAYER_1
 66
     1
  0
VERTEX
  8
LAYER_1
 10
-42.4195
 20
-0.5581
  0
VERTEX
  8
LAYER_1
 10
-42.4441
 20
-0.6649
  0
SEQEND
  8
LAYER_1
  0
POLYLINE
  8
LAYER_1
 66
     1
  0
VERTEX
  8
LAYER_1
 10
-42.3673
 20
-0.3444
  0
VERTEX
  8
LAYER_1
 10
-42.4196
 20
-0.5581
  0
SEQEND
  8
LAYER_1
  0
POLYLINE
  8
LAYER_1
 66
     1
  0
VERTEX
  8
LAYER_1
 10
-42.2502
 20
0.0832
  0
VERTEX
  8
LAYER_1
 10
-42.3673
 20
-0.3444
  0
SEQEND
  8
LAYER_1
  0
POLYLINE
  8
LAYER_1
 66
     1
  0
VERTEX
  8
LAYER_1
 10
-42.1169
 20
0.5112
  0
VERTEX
  8
LAYER_1
 10
-42.2502
 20
0.0832
  0
SEQEND
  8
LAYER_1
  0
POLYLINE
  8
LAYER_1
 66
     1
  0
VERTEX
  8
LAYER_1
 10
-41.9691
 20
0.9388
  0
VERTEX
  8
LAYER_1
 10
-42.1169
 20
0.5112
  0
SEQEND
  8
LAYER_1
  0
POLYLINE
  8
LAYER_1
 66
     1
  0
VERTEX
  8
LAYER_1
 10
-41.807
 20
1.3661
  0
VERTEX
  8
LAYER_1
 10
-41.9691
 20
0.9388
  0
SEQEND
  8
LAYER_1
  0
POLYLINE
  8
LAYER_1
 66
     1
  0
VERTEX
  8
LAYER_1
 10
-41.6317
 20
1.7934
  0
VERTEX
  8
LAYER_1
 10
-41.807
 20
1.3661
  0
SEQEND
  8
LAYER_1
  0
POLYLINE
  8
LAYER_1
 66
     1
  0
VERTEX
  8
LAYER_1
 10
-39.9569
 20
1.7934
  0
VERTEX
  8
LAYER_1
 10
-41.6317
 20
1.7934
  0
SEQEND
  8
LAYER_1
  0
POLYLINE
  8
LAYER_1
 66
     1
  0
VERTEX
  8
LAYER_1
 10
-39.7816
 20
1.3661
  0
VERTEX
  8
LAYER_1
 10
-39.9569
 20
1.7934
  0
SEQEND
  8
LAYER_1
  0
POLYLINE
  8
LAYER_1
 66
     1
  0
VERTEX
  8
LAYER_1
 10
-39.6196
 20
0.9388
  0
VERTEX
  8
LAYER_1
 10
-39.7817
 20
1.3661
  0
SEQEND
  8
LAYER_1
  0
POLYLINE
  8
LAYER_1
 66
     1
  0
VERTEX
  8
LAYER_1
 10
-39.4717
 20
0.5112
  0
VERTEX
  8
LAYER_1
 10
-39.6195
 20
0.9388
  0
SEQEND
  8
LAYER_1
  0
POLYLINE
  8
LAYER_1
 66
     1
  0
VERTEX
  8
LAYER_1
 10
-39.3384
 20
0.0832
  0
VERTEX
  8
LAYER_1
 10
-39.4717
 20
0.5112
  0
SEQEND
  8
LAYER_1
  0
POLYLINE
  8
LAYER_1
 66
     1
  0
VERTEX
  8
LAYER_1
 10
-39.2214
 20
-0.3444
  0
VERTEX
  8
LAYER_1
 10
-39.3385
 20
0.0832
  0
SEQEND
  8
LAYER_1
  0
POLYLINE
  8
LAYER_1
 66
     1
  0
VERTEX
  8
LAYER_1
 10
-39.1691
 20
-0.5581
  0
VERTEX
  8
LAYER_1
 10
-39.2214
 20
-0.3444
  0
SEQEND
  8
LAYER_1
  0
POLYLINE
  8
LAYER_1
 66
     1
  0
VERTEX
  8
LAYER_1
 10
-39.1445
 20
-0.6649
  0
VERTEX
  8
LAYER_1
 10
-39.1691
 20
-0.5581
  0
SEQEND
  8
LAYER_1
  0
POLYLINE
  8
LAYER_1
 66
     1
  0
VERTEX
  8
LAYER_1
 10
-39.1212
 20
-0.7717
  0
VERTEX
  8
LAYER_1
 10
-39.1445
 20
-0.6649
  0
SEQEND
  8
LAYER_1
  0
POLYLINE
  8
LAYER_1
 66
     1
  0
VERTEX
  8
LAYER_1
 10
-37.3396
 20
-0.8838
  0
VERTEX
  8
LAYER_1
 10
-39.1213
 20
-0.7717
  0
SEQEND
  8
LAYER_1
  0
POLYLINE
  8
LAYER_1
 66
     1
  0
VERTEX
  8
LAYER_1
 10
-37.3032
 20
-0.7806
  0
VERTEX
  8
LAYER_1
 10
-37.3396
 20
-0.8838
  0
SEQEND
  8
LAYER_1
  0
POLYLINE
  8
LAYER_1
 66
     1
  0
VERTEX
  8
LAYER_1
 10
-37.2655
 20
-0.6778
  0
VERTEX
  8
LAYER_1
 10
-37.3032
 20
-0.7807
  0
SEQEND
  8
LAYER_1
  0
POLYLINE
  8
LAYER_1
 66
     1
  0
VERTEX
  8
LAYER_1
 10
-37.1868
 20
-0.4724
  0
VERTEX
  8
LAYER_1
 10
-37.2655
 20
-0.6778
  0
SEQEND
  8
LAYER_1
  0
POLYLINE
  8
LAYER_1
 66
     1
  0
VERTEX
  8
LAYER_1
 10
-37.0171
 20
-0.0626
  0
VERTEX
  8
LAYER_1
 10
-37.1868
 20
-0.4724
  0
SEQEND
  8
LAYER_1
  0
POLYLINE
  8
LAYER_1
 66
     1
  0
VERTEX
  8
LAYER_1
 10
-36.8313
 20
0.3452
  0
VERTEX
  8
LAYER_1
 10
-37.0172
 20
-0.0626
  0
SEQEND
  8
LAYER_1
  0
POLYLINE
  8
LAYER_1
 66
     1
  0
VERTEX
  8
LAYER_1
 10
-36.6308
 20
0.751
  0
VERTEX
  8
LAYER_1
 10
-36.8312
 20
0.3452
  0
SEQEND
  8
LAYER_1
  0
POLYLINE
  8
LAYER_1
 66
     1
  0
VERTEX
  8
LAYER_1
 10
-36.4168
 20
1.1545
  0
VERTEX
  8
LAYER_1
 10
-36.6308
 20
0.751
  0
SEQEND
  8
LAYER_1
  0
POLYLINE
  8
LAYER_1
 66
     1
  0
VERTEX
  8
LAYER_1
 10
-36.1893
 20
1.5563
  0
VERTEX
  8
LAYER_1
 10
-36.4168
 20
1.1545
  0
SEQEND
  8
LAYER_1
  0
POLYLINE
  8
LAYER_1
 66
     1
  0
VERTEX
  8
LAYER_1
 10
-34.5274
 20
1.3463
  0
VERTEX
  8
LAYER_1
 10
-36.1893
 20
1.5563
  0
SEQEND
  8
LAYER_1
  0
POLYLINE
  8
LAYER_1
 66
     1
  0
VERTEX
  8
LAYER_1
 10
-34.407
 20
0.9008
  0
VERTEX
  8
LAYER_1
 10
-34.5274
 20
1.3463
  0
SEQEND
  8
LAYER_1
  0
POLYLINE
  8
LAYER_1
 66
     1
  0
VERTEX
  8
LAYER_1
 10
-34.2998
 20
0.4563
  0
VERTEX
  8
LAYER_1
 10
-34.407
 20
0.9008
  0
SEQEND
  8
LAYER_1
  0
POLYLINE
  8
LAYER_1
 66
     1
  0
VERTEX
  8
LAYER_1
 10
-34.2069
 20
0.0134
  0
VERTEX
  8
LAYER_1
 10
-34.2998
 20
0.4562
  0
SEQEND
  8
LAYER_1
  0
POLYLINE
  8
LAYER_1
 66
     1
  0
VERTEX
  8
LAYER_1
 10
-34.1285
 20
-0.4274
  0
VERTEX
  8
LAYER_1
 10
-34.2069
 20
0.0135
  0
SEQEND
  8
LAYER_1
  0
POLYLINE
  8
LAYER_1
 66
     1
  0
VERTEX
  8
LAYER_1
 10
-34.0657
 20
-0.8666
  0
VERTEX
  8
LAYER_1
 10
-34.1285
 20
-0.4274
  0
SEQEND
  8
LAYER_1
  0
POLYLINE
  8
LAYER_1
 66
     1
  0
VERTEX
  8
LAYER_1
 10
-34.0406
 20
-1.0852
  0
VERTEX
  8
LAYER_1
 10
-34.0657
 20
-0.8666
  0
SEQEND
  8
LAYER_1
  0
POLYLINE
  8
LAYER_1
 66
     1
  0
VERTEX
  8
LAYER_1
 10
-34.03
 20
-1.1944
  0
VERTEX
  8
LAYER_1
 10
-34.0406
 20
-1.0853
  0
SEQEND
  8
LAYER_1
  0
POLYLINE
  8
LAYER_1
 66
     1
  0
VERTEX
  8
LAYER_1
 10
-34.0202
 20
-1.3032
  0
VERTEX
  8
LAYER_1
 10
-34.03
 20
-1.1944
  0
SEQEND
  8
LAYER_1
  0
POLYLINE
  8
LAYER_1
 66
     1
  0
VERTEX
  8
LAYER_1
 10
-32.267
 20
-1.6376
  0
VERTEX
  8
LAYER_1
 10
-34.0202
 20
-1.3032
  0
SEQEND
  8
LAYER_1
  0
POLYLINE
  8
LAYER_1
 66
     1
  0
VERTEX
  8
LAYER_1
 10
-32.2177
 20
-1.54
  0
VERTEX
  8
LAYER_1
 10
-32.267
 20
-1.6376
  0
SEQEND
  8
LAYER_1
  0
POLYLINE
  8
LAYER_1
 66
     1
  0
VERTEX
  8
LAYER_1
 10
-32.1674
 20
-1.4424
  0
VERTEX
  8
LAYER_1
 10
-32.2177
 20
-1.54
  0
SEQEND
  8
LAYER_1
  0
POLYLINE
  8
LAYER_1
 66
     1
  0
VERTEX
  8
LAYER_1
 10
-32.0639
 20
-1.2486
  0
VERTEX
  8
LAYER_1
 10
-32.1674
 20
-1.4424
  0
SEQEND
  8
LAYER_1
  0
POLYLINE
  8
LAYER_1
 66
     1
  0
VERTEX
  8
LAYER_1
 10
-31.844
 20
-0.8633
  0
VERTEX
  8
LAYER_1
 10
-32.0639
 20
-1.2486
  0
SEQEND
  8
LAYER_1
  0
POLYLINE
  8
LAYER_1
 66
     1
  0
VERTEX
  8
LAYER_1
 10
-31.6085
 20
-0.482
  0
VERTEX
  8
LAYER_1
 10
-31.844
 20
-0.8633
  0
SEQEND
  8
LAYER_1
  0
POLYLINE
  8
LAYER_1
 66
     1
  0
VERTEX
  8
LAYER_1
 10
-31.3588
 20
-0.1046
  0
VERTEX
  8
LAYER_1
 10
-31.6085
 20
-0.4819
  0
SEQEND
  8
LAYER_1
  0
POLYLINE
  8
LAYER_1
 66
     1
  0
VERTEX
  8
LAYER_1
 10
-31.0959
 20
0.2691
  0
VERTEX
  8
LAYER_1
 10
-31.3588
 20
-0.1046
  0
SEQEND
  8
LAYER_1
  0
POLYLINE
  8
LAYER_1
 66
     1
  0
VERTEX
  8
LAYER_1
 10
-30.8197
 20
0.6392
  0
VERTEX
  8
LAYER_1
 10
-31.0959
 20
0.2691
  0
SEQEND
  8
LAYER_1
  0
POLYLINE
  8
LAYER_1
 66
     1
  0
VERTEX
  8
LAYER_1
 10
-29.1975
 20
0.2225
  0
VERTEX
  8
LAYER_1
 10
-30.8197
 20
0.6392
  0
SEQEND
  8
LAYER_1
  0
POLYLINE
  8
LAYER_1
 66
     1
  0
VERTEX
  8
LAYER_1
 10
-29.1336
 20
-0.2346
  0
VERTEX
  8
LAYER_1
 10
-29.1974
 20
0.2225
  0
SEQEND
  8
LAYER_1
  0
POLYLINE
  8
LAYER_1
 66
     1
  0
VERTEX
  8
LAYER_1
 10
-29.0834
 20
-0.689
  0
VERTEX
  8
LAYER_1
 10
-29.1337
 20
-0.2346
  0
SEQEND
  8
LAYER_1
  0
POLYLINE
  8
LAYER_1
 66
     1
  0
VERTEX
  8
LAYER_1
 10
-29.0463
 20
-1.1401
  0
VERTEX
  8
LAYER_1
 10
-29.0833
 20
-0.689
  0
SEQEND
  8
LAYER_1
  0
POLYLINE
  8
LAYER_1
 66
     1
  0
VERTEX
  8
LAYER_1
 10
-29.0238
 20
-1.5876
  0
VERTEX
  8
LAYER_1
 10
-29.0463
 20
-1.1401
  0
SEQEND
  8
LAYER_1
  0
POLYLINE
  8
LAYER_1
 66
     1
  0
VERTEX
  8
LAYER_1
 10
-29.0164
 20
-2.0308
  0
VERTEX
  8
LAYER_1
 10
-29.0238
 20
-1.5876
  0
SEQEND
  8
LAYER_1
  0
POLYLINE
  8
LAYER_1
 66
     1
  0
VERTEX
  8
LAYER_1
 10
-29.0191
 20
-2.2511
  0
VERTEX
  8
LAYER_1
 10
-29.0165
 20
-2.0308
  0
SEQEND
  8
LAYER_1
  0
POLYLINE
  8
LAYER_1
 66
     1
  0
VERTEX
  8
LAYER_1
 10
-29.022
 20
-2.3605
  0
VERTEX
  8
LAYER_1
 10
-29.0191
 20
-2.251
  0
SEQEND
  8
LAYER_1
  0
POLYLINE
  8
LAYER_1
 66
     1
  0
VERTEX
  8
LAYER_1
 10
-29.026
 20
-2.4697
  0
VERTEX
  8
LAYER_1
 10
-29.022
 20
-2.3606
  0
SEQEND
  8
LAYER_1
  0
POLYLINE
  8
LAYER_1
 66
     1
  0
VERTEX
  8
LAYER_1
 10
-27.3283
 20
-3.0213
  0
VERTEX
  8
LAYER_1
 10
-29.0259
 20
-2.4696
  0
SEQEND
  8
LAYER_1
  0
POLYLINE
  8
LAYER_1
 66
     1
  0
VERTEX
  8
LAYER_1
 10
-27.2675
 20
-2.9307
  0
VERTEX
  8
LAYER_1
 10
-27.3284
 20
-3.0213
  0
SEQEND
  8
LAYER_1
  0
POLYLINE
  8
LAYER_1
 66
     1
  0
VERTEX
  8
LAYER_1
 10
-27.2053
 20
-2.8401
  0
VERTEX
  8
LAYER_1
 10
-27.2675
 20
-2.9307
  0
SEQEND
  8
LAYER_1
  0
POLYLINE
  8
LAYER_1
 66
     1
  0
VERTEX
  8
LAYER_1
 10
-27.078
 20
-2.6609
  0
VERTEX
  8
LAYER_1
 10
-27.2053
 20
-2.8402
  0
SEQEND
  8
LAYER_1
  0
POLYLINE
  8
LAYER_1
 66
     1
  0
VERTEX
  8
LAYER_1
 10
-26.8117
 20
-2.3063
  0
VERTEX
  8
LAYER_1
 10
-27.0779
 20
-2.6608
  0
SEQEND
  8
LAYER_1
  0
POLYLINE
  8
LAYER_1
 66
     1
  0
VERTEX
  8
LAYER_1
 10
-26.5303
 20
-1.9574
  0
VERTEX
  8
LAYER_1
 10
-26.8118
 20
-2.3063
  0
SEQEND
  8
LAYER_1
  0
POLYLINE
  8
LAYER_1
 66
     1
  0
VERTEX
  8
LAYER_1
 10
-26.2353
 20
-1.6141
  0
VERTEX
  8
LAYER_1
 10
-26.5303
 20
-1.9574
  0
SEQEND
  8
LAYER_1
  0
POLYLINE
  8
LAYER_1
 66
     1
  0
VERTEX
  8
LAYER_1
 10
-25.9273
 20
-1.2764
  0
VERTEX
  8
LAYER_1
 10
-26.2352
 20
-1.6141
  0
SEQEND
  8
LAYER_1
  0
POLYLINE
  8
LAYER_1
 66
     1
  0
VERTEX
  8
LAYER_1
 10
-25.6072
 20
-0.944
  0
VERTEX
  8
LAYER_1
 10
-25.9273
 20
-1.2764
  0
SEQEND
  8
LAYER_1
  0
POLYLINE
  8
LAYER_1
 66
     1
  0
VERTEX
  8
LAYER_1
 10
-24.0498
 20
-1.5605
  0
VERTEX
  8
LAYER_1
 10
-25.6072
 20
-0.944
  0
SEQEND
  8
LAYER_1
  0
POLYLINE
  8
LAYER_1
 66
     1
  0
VERTEX
  8
LAYER_1
 10
-24.0443
 20
-2.0222
  0
VERTEX
  8
LAYER_1
 10
-24.0499
 20
-1.5605
  0
SEQEND
  8
LAYER_1
  0
POLYLINE
  8
LAYER_1
 66
     1
  0
VERTEX
  8
LAYER_1
 10
-24.0498
 20
-2.4793
  0
VERTEX
  8
LAYER_1
 10
-24.0432
 20
-2.0222
  0
SEQEND
  8
LAYER_1
  0
POLYLINE
  8
LAYER_1
 66
     1
  0
VERTEX
  8
LAYER_1
 10
-24.0699
 20
-2.9314
  0
VERTEX
  8
LAYER_1
 10
-24.0498
 20
-2.4793
  0
SEQEND
  8
LAYER_1
  0
POLYLINE
  8
LAYER_1
 66
     1
  0
VERTEX
  8
LAYER_1
 10
-24.1037
 20
-3.3779
  0
VERTEX
  8
LAYER_1
 10
-24.07
 20
-2.9314
  0
SEQEND
  8
LAYER_1
  0
POLYLINE
  8
LAYER_1
 66
     1
  0
VERTEX
  8
LAYER_1
 10
-24.1519
 20
-3.8187
  0
VERTEX
  8
LAYER_1
 10
-24.1036
 20
-3.3779
  0
SEQEND
  8
LAYER_1
  0
POLYLINE
  8
LAYER_1
 66
     1
  0
VERTEX
  8
LAYER_1
 10
-24.182
 20
-4.0367
  0
VERTEX
  8
LAYER_1
 10
-24.1519
 20
-3.8187
  0
SEQEND
  8
LAYER_1
  0
POLYLINE
  8
LAYER_1
 66
     1
  0
VERTEX
  8
LAYER_1
 10
-24.1984
 20
-4.1452
  0
VERTEX
  8
LAYER_1
 10
-24.182
 20
-4.0367
  0
SEQEND
  8
LAYER_1
  0
POLYLINE
  8
LAYER_1
 66
     1
  0
VERTEX
  8
LAYER_1
 10
-24.2162
 20
-4.253
  0
VERTEX
  8
LAYER_1
 10
-24.1985
 20
-4.1452
  0
SEQEND
  8
LAYER_1
  0
POLYLINE
  8
LAYER_1
 66
     1
  0
VERTEX
  8
LAYER_1
 10
-22.6009
 20
-5.013
  0
VERTEX
  8
LAYER_1
 10
-24.2162
 20
-4.253
  0
SEQEND
  8
LAYER_1
  0
POLYLINE
  8
LAYER_1
 66
     1
  0
VERTEX
  8
LAYER_1
 10
-22.5291
 20
-4.9306
  0
VERTEX
  8
LAYER_1
 10
-22.6009
 20
-5.013
  0
SEQEND
  8
LAYER_1
  0
POLYLINE
  8
LAYER_1
 66
     1
  0
VERTEX
  8
LAYER_1
 10
-22.4564
 20
-4.849
  0
VERTEX
  8
LAYER_1
 10
-22.5292
 20
-4.9307
  0
SEQEND
  8
LAYER_1
  0
POLYLINE
  8
LAYER_1
 66
     1
  0
VERTEX
  8
LAYER_1
 10
-22.3075
 20
-4.6866
  0
VERTEX
  8
LAYER_1
 10
-22.4563
 20
-4.849
  0
SEQEND
  8
LAYER_1
  0
POLYLINE
  8
LAYER_1
 66
     1
  0
VERTEX
  8
LAYER_1
 10
-21.9986
 20
-4.3684
  0
VERTEX
  8
LAYER_1
 10
-22.3075
 20
-4.6866
  0
SEQEND
  8
LAYER_1
  0
POLYLINE
  8
LAYER_1
 66
     1
  0
VERTEX
  8
LAYER_1
 10
-21.6759
 20
-4.0575
  0
VERTEX
  8
LAYER_1
 10
-21.9987
 20
-4.3684
  0
SEQEND
  8
LAYER_1
  0
POLYLINE
  8
LAYER_1
 66
     1
  0
VERTEX
  8
LAYER_1
 10
-21.3405
 20
-3.7539
  0
VERTEX
  8
LAYER_1
 10
-21.6759
 20
-4.0575
  0
SEQEND
  8
LAYER_1
  0
POLYLINE
  8
LAYER_1
 66
     1
  0
VERTEX
  8
LAYER_1
 10
-20.9926
 20
-3.4575
  0
VERTEX
  8
LAYER_1
 10
-21.3405
 20
-3.7538
  0
SEQEND
  8
LAYER_1
  0
POLYLINE
  8
LAYER_1
 66
     1
  0
VERTEX
  8
LAYER_1
 10
-20.6331
 20
-3.1678
  0
VERTEX
  8
LAYER_1
 10
-20.9926
 20
-3.4575
  0
SEQEND
  8
LAYER_1
  0
POLYLINE
  8
LAYER_1
 66
     1
  0
VERTEX
  8
LAYER_1
 10
-19.1653
 20
-3.9748
  0
VERTEX
  8
LAYER_1
 10
-20.6331
 20
-3.1678
  0
SEQEND
  8
LAYER_1
  0
POLYLINE
  8
LAYER_1
 66
     1
  0
VERTEX
  8
LAYER_1
 10
-19.2175
 20
-4.4332
  0
VERTEX
  8
LAYER_1
 10
-19.1652
 20
-3.9748
  0
SEQEND
  8
LAYER_1
  0
POLYLINE
  8
LAYER_1
 66
     1
  0
VERTEX
  8
LAYER_1
 10
-19.2814
 20
-4.886
  0
VERTEX
  8
LAYER_1
 10
-19.2176
 20
-4.4332
  0
SEQEND
  8
LAYER_1
  0
POLYLINE
  8
LAYER_1
 66
     1
  0
VERTEX
  8
LAYER_1
 10
-19.3578
 20
-5.3318
  0
VERTEX
  8
LAYER_1
 10
-19.2814
 20
-4.886
  0
SEQEND
  8
LAYER_1
  0
POLYLINE
  8
LAYER_1
 66
     1
  0
VERTEX
  8
LAYER_1
 10
-19.4474
 20
-5.771
  0
VERTEX
  8
LAYER_1
 10
-19.3578
 20
-5.3318
  0
SEQEND
  8
LAYER_1
  0
POLYLINE
  8
LAYER_1
 66
     1
  0
VERTEX
  8
LAYER_1
 10
-19.5506
 20
-6.2023
  0
VERTEX
  8
LAYER_1
 10
-19.4474
 20
-5.771
  0
SEQEND
  8
LAYER_1
  0
POLYLINE
  8
LAYER_1
 66
     1
  0
VERTEX
  8
LAYER_1
 10
-19.6078
 20
-6.4146
  0
VERTEX
  8
LAYER_1
 10
-19.5506
 20
-6.2023
  0
SEQEND
  8
LAYER_1
  0
POLYLINE
  8
LAYER_1
 66
     1
  0
VERTEX
  8
LAYER_1
 10
-19.6379
 20
-6.5201
  0
VERTEX
  8
LAYER_1
 10
-19.6078
 20
-6.4146
  0
SEQEND
  8
LAYER_1
  0
POLYLINE
  8
LAYER_1
 66
     1
  0
VERTEX
  8
LAYER_1
 10
-19.669
 20
-6.625
  0
VERTEX
  8
LAYER_1
 10
-19.6379
 20
-6.5201
  0
SEQEND
  8
LAYER_1
  0
POLYLINE
  8
LAYER_1
 66
     1
  0
VERTEX
  8
LAYER_1
 10
-18.1619
 20
-7.5814
  0
VERTEX
  8
LAYER_1
 10
-19.669
 20
-6.6249
  0
SEQEND
  8
LAYER_1
  0
POLYLINE
  8
LAYER_1
 66
     1
  0
VERTEX
  8
LAYER_1
 10
-18.0802
 20
-7.5087
  0
VERTEX
  8
LAYER_1
 10
-18.1619
 20
-7.5815
  0
SEQEND
  8
LAYER_1
  0
POLYLINE
  8
LAYER_1
 66
     1
  0
VERTEX
  8
LAYER_1
 10
-17.9978
 20
-7.4366
  0
VERTEX
  8
LAYER_1
 10
-18.0802
 20
-7.5087
  0
SEQEND
  8
LAYER_1
  0
POLYLINE
  8
LAYER_1
 66
     1
  0
VERTEX
  8
LAYER_1
 10
-17.8298
 20
-7.2944
  0
VERTEX
  8
LAYER_1
 10
-17.9978
 20
-7.4366
  0
SEQEND
  8
LAYER_1
  0
POLYLINE
  8
LAYER_1
 66
     1
  0
VERTEX
  8
LAYER_1
 10
-17.4835
 20
-7.0172
  0
VERTEX
  8
LAYER_1
 10
-17.8298
 20
-7.2944
  0
SEQEND
  8
LAYER_1
  0
POLYLINE
  8
LAYER_1
 66
     1
  0
VERTEX
  8
LAYER_1
 10
-17.1243
 20
-6.7493
  0
VERTEX
  8
LAYER_1
 10
-17.4835
 20
-7.0172
  0
SEQEND
  8
LAYER_1
  0
POLYLINE
  8
LAYER_1
 66
     1
  0
VERTEX
  8
LAYER_1
 10
-16.7533
 20
-6.4904
  0
VERTEX
  8
LAYER_1
 10
-17.1244
 20
-6.7494
  0
SEQEND
  8
LAYER_1
  0
POLYLINE
  8
LAYER_1
 66
     1
  0
VERTEX
  8
LAYER_1
 10
-16.3709
 20
-6.2397
  0
VERTEX
  8
LAYER_1
 10
-16.7532
 20
-6.4904
  0
SEQEND
  8
LAYER_1
  0
POLYLINE
  8
LAYER_1
 66
     1
  0
VERTEX
  8
LAYER_1
 10
-15.9784
 20
-5.9973
  0
VERTEX
  8
LAYER_1
 10
-16.371
 20
-6.2397
  0
SEQEND
  8
LAYER_1
  0
POLYLINE
  8
LAYER_1
 66
     1
  0
VERTEX
  8
LAYER_1
 10
-14.6231
 20
-6.9818
  0
VERTEX
  8
LAYER_1
 10
-15.9784
 20
-5.9972
  0
SEQEND
  8
LAYER_1
  0
POLYLINE
  8
LAYER_1
 66
     1
  0
VERTEX
  8
LAYER_1
 10
-14.7322
 20
-7.4303
  0
VERTEX
  8
LAYER_1
 10
-14.6231
 20
-6.9818
  0
SEQEND
  8
LAYER_1
  0
POLYLINE
  8
LAYER_1
 66
     1
  0
VERTEX
  8
LAYER_1
 10
-14.8526
 20
-7.8712
  0
VERTEX
  8
LAYER_1
 10
-14.7322
 20
-7.4303
  0
SEQEND
  8
LAYER_1
  0
POLYLINE
  8
LAYER_1
 66
     1
  0
VERTEX
  8
LAYER_1
 10
-14.9842
 20
-8.3041
  0
VERTEX
  8
LAYER_1
 10
-14.8526
 20
-7.8712
  0
SEQEND
  8
LAYER_1
  0
POLYLINE
  8
LAYER_1
 66
     1
  0
VERTEX
  8
LAYER_1
 10
-15.1281
 20
-8.7284
  0
VERTEX
  8
LAYER_1
 10
-14.9842
 20
-8.3041
  0
SEQEND
  8
LAYER_1
  0
POLYLINE
  8
LAYER_1
 66
     1
  0
VERTEX
  8
LAYER_1
 10
-15.2845
 20
-9.1435
  0
VERTEX
  8
LAYER_1
 10
-15.1281
 20
-8.7284
  0
SEQEND
  8
LAYER_1
  0
POLYLINE
  8
LAYER_1
 66
     1
  0
VERTEX
  8
LAYER_1
 10
-15.3679
 20
-9.3472
  0
VERTEX
  8
LAYER_1
 10
-15.2846
 20
-9.1435
  0
SEQEND
  8
LAYER_1
  0
POLYLINE
  8
LAYER_1
 66
     1
  0
VERTEX
  8
LAYER_1
 10
-15.4112
 20
-9.4481
  0
VERTEX
  8
LAYER_1
 10
-15.3679
 20
-9.3472
  0
SEQEND
  8
LAYER_1
  0
POLYLINE
  8
LAYER_1
 66
     1
  0
VERTEX
  8
LAYER_1
 10
-15.4552
 20
-9.548
  0
VERTEX
  8
LAYER_1
 10
-15.4112
 20
-9.4481
  0
SEQEND
  8
LAYER_1
  0
POLYLINE
  8
LAYER_1
 66
     1
  0
VERTEX
  8
LAYER_1
 10
-14.0797
 20
-10.686
  0
VERTEX
  8
LAYER_1
 10
-15.4552
 20
-9.548
  0
SEQEND
  8
LAYER_1
  0
POLYLINE
  8
LAYER_1
 66
     1
  0
VERTEX
  8
LAYER_1
 10
-13.9897
 20
-10.6238
  0
VERTEX
  8
LAYER_1
 10
-14.0796
 20
-10.686
  0
SEQEND
  8
LAYER_1
  0
POLYLINE
  8
LAYER_1
 66
     1
  0
VERTEX
  8
LAYER_1
 10
-13.8988
 20
-10.5626
  0
VERTEX
  8
LAYER_1
 10
-13.9898
 20
-10.6238
  0
SEQEND
  8
LAYER_1
  0
POLYLINE
  8
LAYER_1
 66
     1
  0
VERTEX
  8
LAYER_1
 10
-13.7142
 20
-10.4426
  0
VERTEX
  8
LAYER_1
 10
-13.8987
 20
-10.5627
  0
SEQEND
  8
LAYER_1
  0
POLYLINE
  8
LAYER_1
 66
     1
  0
VERTEX
  8
LAYER_1
 10
-13.3359
 20
-10.2111
  0
VERTEX
  8
LAYER_1
 10
-13.7143
 20
-10.4426
  0
SEQEND
  8
LAYER_1
  0
POLYLINE
  8
LAYER_1
 66
     1
  0
VERTEX
  8
LAYER_1
 10
-12.9459
 20
-9.9905
  0
VERTEX
  8
LAYER_1
 10
-13.3358
 20
-10.2111
  0
SEQEND
  8
LAYER_1
  0
POLYLINE
  8
LAYER_1
 66
     1
  0
VERTEX
  8
LAYER_1
 10
-12.5454
 20
-9.7798
  0
VERTEX
  8
LAYER_1
 10
-12.9459
 20
-9.9905
  0
SEQEND
  8
LAYER_1
  0
POLYLINE
  8
LAYER_1
 66
     1
  0
VERTEX
  8
LAYER_1
 10
-12.135
 20
-9.579
  0
VERTEX
  8
LAYER_1
 10
-12.5454
 20
-9.7797
  0
SEQEND
  8
LAYER_1
  0
POLYLINE
  8
LAYER_1
 66
     1
  0
VERTEX
  8
LAYER_1
 10
-11.7146
 20
-9.3879
  0
VERTEX
  8
LAYER_1
 10
-12.1349
 20
-9.5791
  0
SEQEND
  8
LAYER_1
  0
POLYLINE
  8
LAYER_1
 66
     1
  0
VERTEX
  8
LAYER_1
 10
-10.4939
 20
-10.5345
  0
VERTEX
  8
LAYER_1
 10
-11.7146
 20
-9.3879
  0
SEQEND
  8
LAYER_1
  0
POLYLINE
  8
LAYER_1
 66
     1
  0
VERTEX
  8
LAYER_1
 10
-10.6583
 20
-10.9658
  0
VERTEX
  8
LAYER_1
 10
-10.4939
 20
-10.5345
  0
SEQEND
  8
LAYER_1
  0
POLYLINE
  8
LAYER_1
 66
     1
  0
VERTEX
  8
LAYER_1
 10
-10.8329
 20
-11.3881
  0
VERTEX
  8
LAYER_1
 10
-10.6583
 20
-10.9657
  0
SEQEND
  8
LAYER_1
  0
POLYLINE
  8
LAYER_1
 66
     1
  0
VERTEX
  8
LAYER_1
 10
-11.0178
 20
-11.8012
  0
VERTEX
  8
LAYER_1
 10
-10.8329
 20
-11.3881
  0
SEQEND
  8
LAYER_1
  0
POLYLINE
  8
LAYER_1
 66
     1
  0
VERTEX
  8
LAYER_1
 10
-11.2136
 20
-12.204
  0
VERTEX
  8
LAYER_1
 10
-11.0178
 20
-11.8012
  0
SEQEND
  8
LAYER_1
  0
POLYLINE
  8
LAYER_1
 66
     1
  0
VERTEX
  8
LAYER_1
 10
-11.4209
 20
-12.5963
  0
VERTEX
  8
LAYER_1
 10
-11.2135
 20
-12.2041
  0
SEQEND
  8
LAYER_1
  0
POLYLINE
  8
LAYER_1
 66
     1
  0
VERTEX
  8
LAYER_1
 10
-11.5291
 20
-12.7878
  0
VERTEX
  8
LAYER_1
 10
-11.421
 20
-12.5963
  0
SEQEND
  8
LAYER_1
  0
POLYLINE
  8
LAYER_1
 66
     1
  0
VERTEX
  8
LAYER_1
 10
-11.5843
 20
-12.8824
  0
VERTEX
  8
LAYER_1
 10
-11.5291
 20
-12.7878
  0
SEQEND
  8
LAYER_1
  0
POLYLINE
  8
LAYER_1
 66
     1
  0
VERTEX
  8
LAYER_1
 10
-11.6405
 20
-12.9763
  0
VERTEX
  8
LAYER_1
 10
-11.5843
 20
-12.8824
  0
SEQEND
  8
LAYER_1
  0
POLYLINE
  8
LAYER_1
 66
     1
  0
VERTEX
  8
LAYER_1
 10
-10.4188
 20
-14.2774
  0
VERTEX
  8
LAYER_1
 10
-11.6405
 20
-12.9763
  0
SEQEND
  8
LAYER_1
  0
POLYLINE
  8
LAYER_1
 66
     1
  0
VERTEX
  8
LAYER_1
 10
-10.3216
 20
-14.2274
  0
VERTEX
  8
LAYER_1
 10
-10.4188
 20
-14.2774
  0
SEQEND
  8
LAYER_1
  0
POLYLINE
  8
LAYER_1
 66
     1
  0
VERTEX
  8
LAYER_1
 10
-10.2237
 20
-14.1778
  0
VERTEX
  8
LAYER_1
 10
-10.3216
 20
-14.2274
  0
SEQEND
  8
LAYER_1
  0
POLYLINE
  8
LAYER_1
 66
     1
  0
VERTEX
  8
LAYER_1
 10
-10.0256
 20
-14.0819
  0
VERTEX
  8
LAYER_1
 10
-10.2237
 20
-14.1778
  0
SEQEND
  8
LAYER_1
  0
POLYLINE
  8
LAYER_1
 66
     1
  0
VERTEX
  8
LAYER_1
 10
-9.6214
 20
-13.8997
  0
VERTEX
  8
LAYER_1
 10
-10.0256
 20
-14.0819
  0
SEQEND
  8
LAYER_1
  0
POLYLINE
  8
LAYER_1
 66
     1
  0
VERTEX
  8
LAYER_1
 10
-9.207
 20
-13.7297
  0
VERTEX
  8
LAYER_1
 10
-9.6214
 20
-13.8997
  0
SEQEND
  8
LAYER_1
  0
POLYLINE
  8
LAYER_1
 66
     1
  0
VERTEX
  8
LAYER_1
 10
-8.783
 20
-13.571
  0
VERTEX
  8
LAYER_1
 10
-9.207
 20
-13.7298
  0
SEQEND
  8
LAYER_1
  0
POLYLINE
  8
LAYER_1
 66
     1
  0
VERTEX
  8
LAYER_1
 10
-8.3504
 20
-13.4231
  0
VERTEX
  8
LAYER_1
 10
-8.783
 20
-13.5709
  0
SEQEND
  8
LAYER_1
  0
POLYLINE
  8
LAYER_1
 66
     1
  0
VERTEX
  8
LAYER_1
 10
-7.9099
 20
-13.2862
  0
VERTEX
  8
LAYER_1
 10
-8.3504
 20
-13.4231
  0
SEQEND
  8
LAYER_1
  0
POLYLINE
  8
LAYER_1
 66
     1
  0
VERTEX
  8
LAYER_1
 10
-6.842
 20
-14.5767
  0
VERTEX
  8
LAYER_1
 10
-7.9099
 20
-13.2862
  0
SEQEND
  8
LAYER_1
  0
POLYLINE
  8
LAYER_1
 66
     1
  0
VERTEX
  8
LAYER_1
 10
-7.0593
 20
-14.9841
  0
VERTEX
  8
LAYER_1
 10
-6.842
 20
-14.5766
  0
SEQEND
  8
LAYER_1
  0
POLYLINE
  8
LAYER_1
 66
     1
  0
VERTEX
  8
LAYER_1
 10
-7.2855
 20
-15.3814
  0
VERTEX
  8
LAYER_1
 10
-7.0593
 20
-14.9842
  0
SEQEND
  8
LAYER_1
  0
POLYLINE
  8
LAYER_1
 66
     1
  0
VERTEX
  8
LAYER_1
 10
-7.5206
 20
-15.7677
  0
VERTEX
  8
LAYER_1
 10
-7.2855
 20
-15.3814
  0
SEQEND
  8
LAYER_1
  0
POLYLINE
  8
LAYER_1
 66
     1
  0
VERTEX
  8
LAYER_1
 10
-7.7654
 20
-16.143
  0
VERTEX
  8
LAYER_1
 10
-7.5207
 20
-15.7676
  0
SEQEND
  8
LAYER_1
  0
POLYLINE
  8
LAYER_1
 66
     1
  0
VERTEX
  8
LAYER_1
 10
-8.0204
 20
-16.5062
  0
VERTEX
  8
LAYER_1
 10
-7.7654
 20
-16.1431
  0
SEQEND
  8
LAYER_1
  0
POLYLINE
  8
LAYER_1
 66
     1
  0
VERTEX
  8
LAYER_1
 10
-8.1517
 20
-16.6825
  0
VERTEX
  8
LAYER_1
 10
-8.0204
 20
-16.5062
  0
SEQEND
  8
LAYER_1
  0
POLYLINE
  8
LAYER_1
 66
     1
  0
VERTEX
  8
LAYER_1
 10
-8.2185
 20
-16.7694
  0
VERTEX
  8
LAYER_1
 10
-8.1517
 20
-16.6824
  0
SEQEND
  8
LAYER_1
  0
POLYLINE
  8
LAYER_1
 66
     1
  0
VERTEX
  8
LAYER_1
 10
-8.2859
 20
-16.8554
  0
VERTEX
  8
LAYER_1
 10
-8.2184
 20
-16.7694
  0
SEQEND
  8
LAYER_1
  0
POLYLINE
  8
LAYER_1
 66
     1
  0
VERTEX
  8
LAYER_1
 10
-7.2369
 20
-18.2997
  0
VERTEX
  8
LAYER_1
 10
-8.286
 20
-16.8554
  0
SEQEND
  8
LAYER_1
  0
POLYLINE
  8
LAYER_1
 66
     1
  0
VERTEX
  8
LAYER_1
 10
-7.134
 20
-18.262
  0
VERTEX
  8
LAYER_1
 10
-7.2368
 20
-18.2997
  0
SEQEND
  8
LAYER_1
  0
POLYLINE
  8
LAYER_1
 66
     1
  0
VERTEX
  8
LAYER_1
 10
-7.0308
 20
-18.2253
  0
VERTEX
  8
LAYER_1
 10
-7.134
 20
-18.262
  0
SEQEND
  8
LAYER_1
  0
POLYLINE
  8
LAYER_1
 66
     1
  0
VERTEX
  8
LAYER_1
 10
-6.8225
 20
-18.1548
  0
VERTEX
  8
LAYER_1
 10
-7.0309
 20
-18.2253
  0
SEQEND
  8
LAYER_1
  0
POLYLINE
  8
LAYER_1
 66
     1
  0
VERTEX
  8
LAYER_1
 10
-6.3985
 20
-18.0249
  0
VERTEX
  8
LAYER_1
 10
-6.8225
 20
-18.1549
  0
SEQEND
  8
LAYER_1
  0
POLYLINE
  8
LAYER_1
 66
     1
  0
VERTEX
  8
LAYER_1
 10
-5.9659
 20
-17.9078
  0
VERTEX
  8
LAYER_1
 10
-6.3985
 20
-18.0249
  0
SEQEND
  8
LAYER_1
  0
POLYLINE
  8
LAYER_1
 66
     1
  0
VERTEX
  8
LAYER_1
 10
-5.5257
 20
-17.8036
  0
VERTEX
  8
LAYER_1
 10
-5.9659
 20
-17.9078
  0
SEQEND
  8
LAYER_1
  0
POLYLINE
  8
LAYER_1
 66
     1
  0
VERTEX
  8
LAYER_1
 10
-5.0779
 20
-17.7113
  0
VERTEX
  8
LAYER_1
 10
-5.5257
 20
-17.8036
  0
SEQEND
  8
LAYER_1
  0
POLYLINE
  8
LAYER_1
 66
     1
  0
VERTEX
  8
LAYER_1
 10
-4.6234
 20
-17.6306
  0
VERTEX
  8
LAYER_1
 10
-5.0778
 20
-17.7113
  0
SEQEND
  8
LAYER_1
  0
POLYLINE
  8
LAYER_1
 66
     1
  0
VERTEX
  8
LAYER_1
 10
-3.7258
 20
-19.0448
  0
VERTEX
  8
LAYER_1
 10
-4.6234
 20
-17.6306
  0
SEQEND
  8
LAYER_1
  0
POLYLINE
  8
LAYER_1
 66
     1
  0
VERTEX
  8
LAYER_1
 10
-3.9924
 20
-19.4215
  0
VERTEX
  8
LAYER_1
 10
-3.7258
 20
-19.0448
  0
SEQEND
  8
LAYER_1
  0
POLYLINE
  8
LAYER_1
 66
     1
  0
VERTEX
  8
LAYER_1
 10
-4.2666
 20
-19.7873
  0
VERTEX
  8
LAYER_1
 10
-3.9924
 20
-19.4215
  0
SEQEND
  8
LAYER_1
  0
POLYLINE
  8
LAYER_1
 66
     1
  0
VERTEX
  8
LAYER_1
 10
-4.5484
 20
-20.1415
  0
VERTEX
  8
LAYER_1
 10
-4.2666
 20
-19.7873
  0
SEQEND
  8
LAYER_1
  0
POLYLINE
  8
LAYER_1
 66
     1
  0
VERTEX
  8
LAYER_1
 10
-4.8384
 20
-20.4828
  0
VERTEX
  8
LAYER_1
 10
-4.5483
 20
-20.1415
  0
SEQEND
  8
LAYER_1
  0
POLYLINE
  8
LAYER_1
 66
     1
  0
VERTEX
  8
LAYER_1
 10
-5.1368
 20
-20.8112
  0
VERTEX
  8
LAYER_1
 10
-4.8385
 20
-20.4828
  0
SEQEND
  8
LAYER_1
  0
POLYLINE
  8
LAYER_1
 66
     1
  0
VERTEX
  8
LAYER_1
 10
-5.2892
 20
-20.9697
  0
VERTEX
  8
LAYER_1
 10
-5.1367
 20
-20.8113
  0
SEQEND
  8
LAYER_1
  0
POLYLINE
  8
LAYER_1
 66
     1
  0
VERTEX
  8
LAYER_1
 10
-5.3662
 20
-21.0478
  0
VERTEX
  8
LAYER_1
 10
-5.2892
 20
-20.9697
  0
SEQEND
  8
LAYER_1
  0
POLYLINE
  8
LAYER_1
 66
     1
  0
VERTEX
  8
LAYER_1
 10
-5.444
 20
-21.1245
  0
VERTEX
  8
LAYER_1
 10
-5.3662
 20
-21.0478
  0
SEQEND
  8
LAYER_1
  0
POLYLINE
  8
LAYER_1
 66
     1
  0
VERTEX
  8
LAYER_1
 10
-4.5841
 20
-22.6888
  0
VERTEX
  8
LAYER_1
 10
-5.444
 20
-21.1245
  0
SEQEND
  8
LAYER_1
  0
POLYLINE
  8
LAYER_1
 66
     1
  0
VERTEX
  8
LAYER_1
 10
-4.4776
 20
-22.6642
  0
VERTEX
  8
LAYER_1
 10
-4.5841
 20
-22.6888
  0
SEQEND
  8
LAYER_1
  0
POLYLINE
  8
LAYER_1
 66
     1
  0
VERTEX
  8
LAYER_1
 10
-4.3704
 20
-22.6407
  0
VERTEX
  8
LAYER_1
 10
-4.4776
 20
-22.6642
  0
SEQEND
  8
LAYER_1
  0
POLYLINE
  8
LAYER_1
 66
     1
  0
VERTEX
  8
LAYER_1
 10
-4.1548
 20
-22.597
  0
VERTEX
  8
LAYER_1
 10
-4.3704
 20
-22.6407
  0
SEQEND
  8
LAYER_1
  0
POLYLINE
  8
LAYER_1
 66
     1
  0
VERTEX
  8
LAYER_1
 10
-3.7179
 20
-22.5209
  0
VERTEX
  8
LAYER_1
 10
-4.1548
 20
-22.597
  0
SEQEND
  8
LAYER_1
  0
POLYLINE
  8
LAYER_1
 66
     1
  0
VERTEX
  8
LAYER_1
 10
-3.2741
 20
-22.4594
  0
VERTEX
  8
LAYER_1
 10
-3.7179
 20
-22.5209
  0
SEQEND
  8
LAYER_1
  0
POLYLINE
  8
LAYER_1
 66
     1
  0
VERTEX
  8
LAYER_1
 10
-2.8243
 20
-22.4111
  0
VERTEX
  8
LAYER_1
 10
-3.2741
 20
-22.4594
  0
SEQEND
  8
LAYER_1
  0
POLYLINE
  8
LAYER_1
 66
     1
  0
VERTEX
  8
LAYER_1
 10
-2.3685
 20
-22.3754
  0
VERTEX
  8
LAYER_1
 10
-2.8242
 20
-22.4111
  0
SEQEND
  8
LAYER_1
  0
POLYLINE
  8
LAYER_1
 66
     1
  0
VERTEX
  8
LAYER_1
 10
-1.9075
 20
-22.3521
  0
VERTEX
  8
LAYER_1
 10
-2.3685
 20
-22.3754
  0
SEQEND
  8
LAYER_1
  0
POLYLINE
  8
LAYER_1
 66
     1
  0
VERTEX
  8
LAYER_1
 10
-1.1941
 20
-23.8678
  0
VERTEX
  8
LAYER_1
 10
-1.9075
 20
-22.3521
  0
SEQEND
  8
LAYER_1
  0
POLYLINE
  8
LAYER_1
 66
     1
  0
VERTEX
  8
LAYER_1
 10
-1.506
 20
-24.2082
  0
VERTEX
  8
LAYER_1
 10
-1.1941
 20
-23.8679
  0
SEQEND
  8
LAYER_1
  0
POLYLINE
  8
LAYER_1
 66
     1
  0
VERTEX
  8
LAYER_1
 10
-1.8238
 20
-24.5366
  0
VERTEX
  8
LAYER_1
 10
-1.506
 20
-24.2082
  0
SEQEND
  8
LAYER_1
  0
POLYLINE
  8
LAYER_1
 66
     1
  0
VERTEX
  8
LAYER_1
 10
-2.1476
 20
-24.8528
  0
VERTEX
  8
LAYER_1
 10
-1.8238
 20
-24.5366
  0
SEQEND
  8
LAYER_1
  0
POLYLINE
  8
LAYER_1
 66
     1
  0
VERTEX
  8
LAYER_1
 10
-2.4783
 20
-25.1554
  0
VERTEX
  8
LAYER_1
 10
-2.1476
 20
-24.8528
  0
SEQEND
  8
LAYER_1
  0
POLYLINE
  8
LAYER_1
 66
     1
  0
VERTEX
  8
LAYER_1
 10
-2.8153
 20
-25.4435
  0
VERTEX
  8
LAYER_1
 10
-2.4783
 20
-25.1554
  0
SEQEND
  8
LAYER_1
  0
POLYLINE
  8
LAYER_1
 66
     1
  0
VERTEX
  8
LAYER_1
 10
-2.9863
 20
-25.5817
  0
VERTEX
  8
LAYER_1
 10
-2.8153
 20
-25.4435
  0
SEQEND
  8
LAYER_1
  0
POLYLINE
  8
LAYER_1
 66
     1
  0
VERTEX
  8
LAYER_1
 10
-3.0726
 20
-25.6492
  0
VERTEX
  8
LAYER_1
 10
-2.9863
 20
-25.5817
  0
SEQEND
  8
LAYER_1
  0
POLYLINE
  8
LAYER_1
 66
     1
  0
VERTEX
  8
LAYER_1
 10
-3.1593
 20
-25.716
  0
VERTEX
  8
LAYER_1
 10
-3.0726
 20
-25.6492
  0
SEQEND
  8
LAYER_1
  0
POLYLINE
  8
LAYER_1
 66
     1
  0
VERTEX
  8
LAYER_1
 10
-2.5025
 20
-27.3756
  0
VERTEX
  8
LAYER_1
 10
-3.1593
 20
-25.716
  0
SEQEND
  8
LAYER_1
  0
POLYLINE
  8
LAYER_1
 66
     1
  0
VERTEX
  8
LAYER_1
 10
-2.3937
 20
-27.3647
  0
VERTEX
  8
LAYER_1
 10
-2.5025
 20
-27.3755
  0
SEQEND
  8
LAYER_1
  0
POLYLINE
  8
LAYER_1
 66
     1
  0
VERTEX
  8
LAYER_1
 10
-2.2845
 20
-27.3549
  0
VERTEX
  8
LAYER_1
 10
-2.3936
 20
-27.3647
  0
SEQEND
  8
LAYER_1
  0
POLYLINE
  8
LAYER_1
 66
     1
  0
VERTEX
  8
LAYER_1
 10
-2.0649
 20
-27.3388
  0
VERTEX
  8
LAYER_1
 10
-2.2845
 20
-27.3549
  0
SEQEND
  8
LAYER_1
  0
POLYLINE
  8
LAYER_1
 66
     1
  0
VERTEX
  8
LAYER_1
 10
-1.6221
 20
-27.3179
  0
VERTEX
  8
LAYER_1
 10
-2.065
 20
-27.3388
  0
SEQEND
  8
LAYER_1
  0
POLYLINE
  8
LAYER_1
 66
     1
  0
VERTEX
  8
LAYER_1
 10
-1.1739
 20
-27.3124
  0
VERTEX
  8
LAYER_1
 10
-1.622
 20
-27.318
  0
SEQEND
  8
LAYER_1
  0
POLYLINE
  8
LAYER_1
 66
     1
  0
VERTEX
  8
LAYER_1
 10
-0.7215
 20
-27.3211
  0
VERTEX
  8
LAYER_1
 10
-1.1739
 20
-27.3124
  0
SEQEND
  8
LAYER_1
  0
POLYLINE
  8
LAYER_1
 66
     1
  0
VERTEX
  8
LAYER_1
 10
-0.2651
 20
-27.3428
  0
VERTEX
  8
LAYER_1
 10
-0.7215
 20
-27.3211
  0
SEQEND
  8
LAYER_1
  0
POLYLINE
  8
LAYER_1
 66
     1
  0
VERTEX
  8
LAYER_1
 10
0.1953
 20
-27.3778
  0
VERTEX
  8
LAYER_1
 10
-0.2651
 20
-27.3427
  0
SEQEND
  8
LAYER_1
  0
POLYLINE
  8
LAYER_1
 66
     1
  0
VERTEX
  8
LAYER_1
 10
0.7129
 20
-28.9706
  0
VERTEX
  8
LAYER_1
 10
0.1953
 20
-27.3778
  0
SEQEND
  8
LAYER_1
  0
POLYLINE
  8
LAYER_1
 66
     1
  0
VERTEX
  8
LAYER_1
 10
0.361
 20
-29.2693
  0
VERTEX
  8
LAYER_1
 10
0.7129
 20
-28.9707
  0
SEQEND
  8
LAYER_1
  0
POLYLINE
  8
LAYER_1
 66
     1
  0
VERTEX
  8
LAYER_1
 10
0.0045
 20
-29.5554
  0
VERTEX
  8
LAYER_1
 10
0.361
 20
-29.2693
  0
SEQEND
  8
LAYER_1
  0
POLYLINE
  8
LAYER_1
 66
     1
  0
VERTEX
  8
LAYER_1
 10
-0.3564
 20
-29.8282
  0
VERTEX
  8
LAYER_1
 10
0.0044
 20
-29.5554
  0
SEQEND
  8
LAYER_1
  0
POLYLINE
  8
LAYER_1
 66
     1
  0
VERTEX
  8
LAYER_1
 10
-0.7222
 20
-30.0872
  0
VERTEX
  8
LAYER_1
 10
-0.3564
 20
-29.8282
  0
SEQEND
  8
LAYER_1
  0
POLYLINE
  8
LAYER_1
 66
     1
  0
VERTEX
  8
LAYER_1
 10
-1.0929
 20
-30.3306
  0
VERTEX
  8
LAYER_1
 10
-0.7222
 20
-30.0872
  0
SEQEND
  8
LAYER_1
  0
POLYLINE
  8
LAYER_1
 66
     1
  0
VERTEX
  8
LAYER_1
 10
-1.2801
 20
-30.4463
  0
VERTEX
  8
LAYER_1
 10
-1.0929
 20
-30.3305
  0
SEQEND
  8
LAYER_1
  0
POLYLINE
  8
LAYER_1
 66
     1
  0
VERTEX
  8
LAYER_1
 10
-1.374
 20
-30.5029
  0
VERTEX
  8
LAYER_1
 10
-1.2801
 20
-30.4464
  0
SEQEND
  8
LAYER_1
  0
POLYLINE
  8
LAYER_1
 66
     1
  0
VERTEX
  8
LAYER_1
 10
-1.4683
 20
-30.5578
  0
VERTEX
  8
LAYER_1
 10
-1.374
 20
-30.5029
  0
SEQEND
  8
LAYER_1
  0
POLYLINE
  8
LAYER_1
 66
     1
  0
VERTEX
  8
LAYER_1
 10
-1.0244
 20
-32.2868
  0
VERTEX
  8
LAYER_1
 10
-1.4682
 20
-30.5577
  0
SEQEND
  8
LAYER_1
  0
POLYLINE
  8
LAYER_1
 66
     1
  0
VERTEX
  8
LAYER_1
 10
-0.9153
 20
-32.2895
  0
VERTEX
  8
LAYER_1
 10
-1.0244
 20
-32.2869
  0
SEQEND
  8
LAYER_1
  0
POLYLINE
  8
LAYER_1
 66
     1
  0
VERTEX
  8
LAYER_1
 10
-0.8058
 20
-32.2934
  0
VERTEX
  8
LAYER_1
 10
-0.9153
 20
-32.2894
  0
SEQEND
  8
LAYER_1
  0
POLYLINE
  8
LAYER_1
 66
     1
  0
VERTEX
  8
LAYER_1
 10
-0.5859
 20
-32.3051
  0
VERTEX
  8
LAYER_1
 10
-0.8058
 20
-32.2935
  0
SEQEND
  8
LAYER_1
  0
POLYLINE
  8
LAYER_1
 66
     1
  0
VERTEX
  8
LAYER_1
 10
-0.1437
 20
-32.3398
  0
VERTEX
  8
LAYER_1
 10
-0.5859
 20
-32.3051
  0
SEQEND
  8
LAYER_1
  0
POLYLINE
  8
LAYER_1
 66
     1
  0
VERTEX
  8
LAYER_1
 10
0.3015
 20
-32.3904
  0
VERTEX
  8
LAYER_1
 10
-0.1437
 20
-32.3398
  0
SEQEND
  8
LAYER_1
  0
POLYLINE
  8
LAYER_1
 66
     1
  0
VERTEX
  8
LAYER_1
 10
0.7493
 20
-32.4556
  0
VERTEX
  8
LAYER_1
 10
0.3015
 20
-32.3904
  0
SEQEND
  8
LAYER_1
  0
POLYLINE
  8
LAYER_1
 66
     1
  0
VERTEX
  8
LAYER_1
 10
1.1994
 20
-32.5346
  0
VERTEX
  8
LAYER_1
 10
0.7493
 20
-32.4556
  0
SEQEND
  8
LAYER_1
  0
POLYLINE
  8
LAYER_1
 66
     1
  0
VERTEX
  8
LAYER_1
 10
1.6515
 20
-32.6269
  0
VERTEX
  8
LAYER_1
 10
1.1994
 20
-32.5346
  0
SEQEND
  8
LAYER_1
  0
POLYLINE
  8
LAYER_1
 66
     1
  0
VERTEX
  8
LAYER_1
 10
1.9653
 20
-34.2723
  0
VERTEX
  8
LAYER_1
 10
1.6515
 20
-32.6269
  0
SEQEND
  8
LAYER_1
  0
POLYLINE
  8
LAYER_1
 66
     1
  0
VERTEX
  8
LAYER_1
 10
1.5791
 20
-34.5243
  0
VERTEX
  8
LAYER_1
 10
1.9654
 20
-34.2723
  0
SEQEND
  8
LAYER_1
  0
POLYLINE
  8
LAYER_1
 66
     1
  0
VERTEX
  8
LAYER_1
 10
1.1895
 20
-34.7634
  0
VERTEX
  8
LAYER_1
 10
1.5791
 20
-34.5243
  0
SEQEND
  8
LAYER_1
  0
POLYLINE
  8
LAYER_1
 66
     1
  0
VERTEX
  8
LAYER_1
 10
0.7969
 20
-34.989
  0
VERTEX
  8
LAYER_1
 10
1.1895
 20
-34.7634
  0
SEQEND
  8
LAYER_1
  0
POLYLINE
  8
LAYER_1
 66
     1
  0
VERTEX
  8
LAYER_1
 10
0.4017
 20
-35.2
  0
VERTEX
  8
LAYER_1
 10
0.7969
 20
-34.989
  0
SEQEND
  8
LAYER_1
  0
POLYLINE
  8
LAYER_1
 66
     1
  0
VERTEX
  8
LAYER_1
 10
0.0035
 20
-35.3951
  0
VERTEX
  8
LAYER_1
 10
0.4017
 20
-35.2
  0
SEQEND
  8
LAYER_1
  0
POLYLINE
  8
LAYER_1
 66
     1
  0
VERTEX
  8
LAYER_1
 10
-0.1966
 20
-35.4867
  0
VERTEX
  8
LAYER_1
 10
0.0035
 20
-35.3951
  0
SEQEND
  8
LAYER_1
  0
POLYLINE
  8
LAYER_1
 66
     1
  0
VERTEX
  8
LAYER_1
 10
-0.2968
 20
-35.5307
  0
VERTEX
  8
LAYER_1
 10
-0.1966
 20
-35.4867
  0
SEQEND
  8
LAYER_1
  0
POLYLINE
  8
LAYER_1
 66
     1
  0
VERTEX
  8
LAYER_1
 10
-0.3977
 20
-35.5734
  0
VERTEX
  8
LAYER_1
 10
-0.2968
 20
-35.5307
  0
SEQEND
  8
LAYER_1
  0
POLYLINE
  8
LAYER_1
 66
     1
  0
VERTEX
  8
LAYER_1
 10
-0.1738
 20
-37.3444
  0
VERTEX
  8
LAYER_1
 10
-0.3977
 20
-35.5734
  0
SEQEND
  8
LAYER_1
  0
POLYLINE
  8
LAYER_1
 66
     1
  0
VERTEX
  8
LAYER_1
 10
-0.0656
 20
-37.3608
  0
VERTEX
  8
LAYER_1
 10
-0.1738
 20
-37.3444
  0
SEQEND
  8
LAYER_1
  0
POLYLINE
  8
LAYER_1
 66
     1
  0
VERTEX
  8
LAYER_1
 10
0.0425
 20
-37.3783
  0
VERTEX
  8
LAYER_1
 10
-0.0656
 20
-37.3608
  0
SEQEND
  8
LAYER_1
  0
POLYLINE
  8
LAYER_1
 66
     1
  0
VERTEX
  8
LAYER_1
 10
0.2591
 20
-37.417
  0
VERTEX
  8
LAYER_1
 10
0.0425
 20
-37.3783
  0
SEQEND
  8
LAYER_1
  0
POLYLINE
  8
LAYER_1
 66
     1
  0
VERTEX
  8
LAYER_1
 10
0.6934
 20
-37.5072
  0
VERTEX
  8
LAYER_1
 10
0.2592
 20
-37.4169
  0
SEQEND
  8
LAYER_1
  0
POLYLINE
  8
LAYER_1
 66
     1
  0
VERTEX
  8
LAYER_1
 10
1.1286
 20
-37.6131
  0
VERTEX
  8
LAYER_1
 10
0.6934
 20
-37.5073
  0
SEQEND
  8
LAYER_1
  0
POLYLINE
  8
LAYER_1
 66
     1
  0
VERTEX
  8
LAYER_1
 10
1.5648
 20
-37.7338
  0
VERTEX
  8
LAYER_1
 10
1.1286
 20
-37.6131
  0
SEQEND
  8
LAYER_1
  0
POLYLINE
  8
LAYER_1
 66
     1
  0
VERTEX
  8
LAYER_1
 10
2.0014
 20
-37.8687
  0
VERTEX
  8
LAYER_1
 10
1.5648
 20
-37.7338
  0
SEQEND
  8
LAYER_1
  0
POLYLINE
  8
LAYER_1
 66
     1
  0
VERTEX
  8
LAYER_1
 10
2.4386
 20
-38.0169
  0
VERTEX
  8
LAYER_1
 10
2.0014
 20
-37.8687
  0
SEQEND
  8
LAYER_1
  0
POLYLINE
  8
LAYER_1
 66
     1
  0
VERTEX
  8
LAYER_1
 10
2.5438
 20
-39.6884
  0
VERTEX
  8
LAYER_1
 10
2.4386
 20
-38.0169
  0
SEQEND
  8
LAYER_1
  0
POLYLINE
  8
LAYER_1
 66
     1
  0
VERTEX
  8
LAYER_1
 10
2.1287
 20
-39.8905
  0
VERTEX
  8
LAYER_1
 10
2.5438
 20
-39.6884
  0
SEQEND
  8
LAYER_1
  0
POLYLINE
  8
LAYER_1
 66
     1
  0
VERTEX
  8
LAYER_1
 10
1.7124
 20
-40.0787
  0
VERTEX
  8
LAYER_1
 10
2.1288
 20
-39.8905
  0
SEQEND
  8
LAYER_1
  0
POLYLINE
  8
LAYER_1
 66
     1
  0
VERTEX
  8
LAYER_1
 10
1.2946
 20
-40.2533
  0
VERTEX
  8
LAYER_1
 10
1.7123
 20
-40.0787
  0
SEQEND
  8
LAYER_1
  0
POLYLINE
  8
LAYER_1
 66
     1
  0
VERTEX
  8
LAYER_1
 10
0.8759
 20
-40.413
  0
VERTEX
  8
LAYER_1
 10
1.2946
 20
-40.2533
  0
SEQEND
  8
LAYER_1
  0
POLYLINE
  8
LAYER_1
 66
     1
  0
VERTEX
  8
LAYER_1
 10
0.4566
 20
-40.5569
  0
VERTEX
  8
LAYER_1
 10
0.876
 20
-40.413
  0
SEQEND
  8
LAYER_1
  0
POLYLINE
  8
LAYER_1
 66
     1
  0
VERTEX
  8
LAYER_1
 10
0.2466
 20
-40.6224
  0
VERTEX
  8
LAYER_1
 10
0.4566
 20
-40.5569
  0
SEQEND
  8
LAYER_1
  0
POLYLINE
  8
LAYER_1
 66
     1
  0
VERTEX
  8
LAYER_1
 10
0.1414
 20
-40.6535
  0
VERTEX
  8
LAYER_1
 10
0.2466
 20
-40.6224
  0
SEQEND
  8
LAYER_1
  0
POLYLINE
  8
LAYER_1
 66
     1
  0
VERTEX
  8
LAYER_1
 10
0.0362
 20
-40.6833
  0
VERTEX
  8
LAYER_1
 10
0.1414
 20
-40.6535
  0
SEQEND
  8
LAYER_1
  0
POLYLINE
  8
LAYER_1
 66
     1
  0
VERTEX
  8
LAYER_1
 10
-67.7926
 20
-41.6101
  0
VERTEX
  8
LAYER_1
 10
-67.9069
 20
-42.7437
  0
VERTEX
  8
LAYER_1
 10
-68.2346
 20
-43.7996
  0
VERTEX
  8
LAYER_1
 10
-68.7533
 20
-44.7551
  0
VERTEX
  8
LAYER_1
 10
-69.4401
 20
-45.5876
  0
VERTEX
  8
LAYER_1
 10
-70.2726
 20
-46.2744
  0
VERTEX
  8
LAYER_1
 10
-71.2281
 20
-46.7931
  0
VERTEX
  8
LAYER_1
 10
-72.284
 20
-47.1208
  0
VERTEX
  8
LAYER_1
 10
-73.4176
 20
-47.2351
  0
VERTEX
  8
LAYER_1
 10
-74.5512
 20
-47.1208
  0
VERTEX
  8
LAYER_1
 10
-75.6071
 20
-46.7931
  0
VERTEX
  8
LAYER_1
 10
-76.5626
 20
-46.2744
  0
VERTEX
  8
LAYER_1
 10
-77.3951
 20
-45.5876
  0
VERTEX
  8
LAYER_1
 10
-78.0819
 20
-44.7551
  0
VERTEX
  8
LAYER_1
 10
-78.6006
 20
-43.7996
  0
VERTEX
  8
LAYER_1
 10
-78.9283
 20
-42.7437
  0
VERTEX
  8
LAYER_1
 10
-79.0426
 20
-41.6101
  0
SEQEND
  8
LAYER_1
  0
POLYLINE
  8
LAYER_1
 66
     1
  0
VERTEX
  8
LAYER_1
 10
-2.5426
 20
-41.6101
  0
VERTEX
  8
LAYER_1
 10
-2.6569
 20
-42.7437
  0
VERTEX
  8
LAYER_1
 10
-2.9846
 20
-43.7996
  0
VERTEX
  8
LAYER_1
 10
-3.5033
 20
-44.7551
  0
VERTEX
  8
LAYER_1
 10
-4.1901
 20
-45.5876
  0
VERTEX
  8
LAYER_1
 10
-5.0226
 20
-46.2744
  0
VERTEX
  8
LAYER_1
 10
-5.9781
 20
-46.7931
  0
VERTEX
  8
LAYER_1
 10
-7.034
 20
-47.1208
  0
VERTEX
  8
LAYER_1
 10
-8.1676
 20
-47.2351
  0
VERTEX
  8
LAYER_1
 10
-9.3012
 20
-47.1208
  0
VERTEX
  8
LAYER_1
 10
-10.3571
 20
-46.7931
  0
VERTEX
  8
LAYER_1
 10
-11.3126
 20
-46.2744
  0
VERTEX
  8
LAYER_1
 10
-12.1451
 20
-45.5876
  0
VERTEX
  8
LAYER_1
 10
-12.8319
 20
-44.7551
  0
VERTEX
  8
LAYER_1
 10
-13.3506
 20
-43.7996
  0
VERTEX
  8
LAYER_1
 10
-13.6783
 20
-42.7437
  0
VERTEX
  8
LAYER_1
 10
-13.7926
 20
-41.6101
  0
SEQEND
  8
LAYER_1
  0
POLYLINE
  8
LAYER_1
 66
     1
 70
     1
  0
VERTEX
  8
LAYER_1
 10
-46.4176
 20
-74.2351
  0
VERTEX
  8
LAYER_1
 10
-46.3033
 20
-73.1015
  0
VERTEX
  8
LAYER_1
 10
-45.9756
 20
-72.0456
  0
VERTEX
  8
LAYER_1
 10
-45.4569
 20
-71.0901
  0
VERTEX
  8
LAYER_1
 10
-44.7701
 20
-70.2576
  0
VERTEX
  8
LAYER_1
 10
-43.9376
 20
-69.5708
  0
VERTEX
  8
LAYER_1
 10
-42.9821
 20
-69.0521
  0
VERTEX
  8
LAYER_1
 10
-41.9262
 20
-68.7244
  0
VERTEX
  8
LAYER_1
 10
-40.7926
 20
-68.6101
  0
VERTEX
  8
LAYER_1
 10
-39.659
 20
-68.7244
  0
VERTEX
  8
LAYER_1
 10
-38.6031
 20
-69.0521
  0
VERTEX
  8
LAYER_1
 10
-37.6476
 20
-69.5708
  0
VERTEX
  8
LAYER_1
 10
-36.8151
 20
-70.2576
  0
VERTEX
  8
LAYER_1
 10
-36.1283
 20
-71.0901
  0
VERTEX
  8
LAYER_1
 10
-35.6096
 20
-72.0456
  0
VERTEX
  8
LAYER_1
 10
-35.2819
 20
-73.1015
  0
VERTEX
  8
LAYER_1
 10
-35.1676
 20
-74.2351
  0
VERTEX
  8
LAYER_1
 10
-35.2819
 20
-75.3687
  0
VERTEX
  8
LAYER_1
 10
-35.6096
 20
-76.4246
  0
VERTEX
  8
LAYER_1
 10
-36.1283
 20
-77.3801
  0
VERTEX
  8
LAYER_1
 10
-36.8151
 20
-78.2126
  0
VERTEX
  8
LAYER_1
 10
-37.6476
 20
-78.8994
  0
VERTEX
  8
LAYER_1
 10
-38.6031
 20
-79.4181
  0
VERTEX
  8
LAYER_1
 10
-39.659
 20
-79.7458
  0
VERTEX
  8
LAYER_1
 10
-40.7926
 20
-79.8601
  0
VERTEX
  8
LAYER_1
 10
-41.9262
 20
-79.7458
  0
VERTEX
  8
LAYER_1
 10
-42.9821
 20
-79.4181
  0
VERTEX
  8
LAYER_1
 10
-43.9376
 20
-78.8994
  0
VERTEX
  8
LAYER_1
 10
-44.7701
 20
-78.2126
  0
VERTEX
  8
LAYER_1
 10
-45.4569
 20
-77.3801
  0
VERTEX
  8
LAYER_1
 10
-45.9756
 20
-76.4246
  0
VERTEX
  8
LAYER_1
 10
-46.3033
 20
-75.3687
  0
VERTEX
  8
LAYER_1
 10
-46.4176
 20
-74.2351
  0
SEQEND
  8
LAYER_1
  0
POLYLINE
  8
LAYER_1
 66
     1
 70
     1
  0
VERTEX
  8
LAYER_1
 10
-67.8394
 20
-60.7019
  0
VERTEX
  8
LAYER_1
 10
-66.957
 20
-59.9811
  0
VERTEX
  8
LAYER_1
 10
-65.9786
 20
-59.4663
  0
VERTEX
  8
LAYER_1
 10
-64.9362
 20
-59.1573
  0
VERTEX
  8
LAYER_1
 10
-63.8619
 20
-59.0544
  0
VERTEX
  8
LAYER_1
 10
-62.7876
 20
-59.1573
  0
VERTEX
  8
LAYER_1
 10
-61.7452
 20
-59.4663
  0
VERTEX
  8
LAYER_1
 10
-60.7668
 20
-59.9811
  0
VERTEX
  8
LAYER_1
 10
-59.8844
 20
-60.7019
  0
VERTEX
  8
LAYER_1
 10
-59.1636
 20
-61.5843
  0
VERTEX
  8
LAYER_1
 10
-58.6488
 20
-62.5627
  0
VERTEX
  8
LAYER_1
 10
-58.3398
 20
-63.6051
  0
VERTEX
  8
LAYER_1
 10
-58.2369
 20
-64.6794
  0
VERTEX
  8
LAYER_1
 10
-58.3398
 20
-65.7537
  0
VERTEX
  8
LAYER_1
 10
-58.6488
 20
-66.7961
  0
VERTEX
  8
LAYER_1
 10
-59.1636
 20
-67.7745
  0
VERTEX
  8
LAYER_1
 10
-59.8844
 20
-68.6569
  0
VERTEX
  8
LAYER_1
 10
-60.7668
 20
-69.3777
  0
VERTEX
  8
LAYER_1
 10
-61.7452
 20
-69.8925
  0
VERTEX
  8
LAYER_1
 10
-62.7876
 20
-70.2015
  0
VERTEX
  8
LAYER_1
 10
-63.8619
 20
-70.3044
  0
VERTEX
  8
LAYER_1
 10
-64.9362
 20
-70.2015
  0
VERTEX
  8
LAYER_1
 10
-65.9786
 20
-69.8925
  0
VERTEX
  8
LAYER_1
 10
-66.957
 20
-69.3777
  0
VERTEX
  8
LAYER_1
 10
-67.8394
 20
-68.6569
  0
VERTEX
  8
LAYER_1
 10
-68.5602
 20
-67.7745
  0
VERTEX
  8
LAYER_1
 10
-69.075
 20
-66.7961
  0
VERTEX
  8
LAYER_1
 10
-69.384
 20
-65.7537
  0
VERTEX
  8
LAYER_1
 10
-69.4869
 20
-64.6794
  0
VERTEX
  8
LAYER_1
 10
-69.384
 20
-63.6051
  0
VERTEX
  8
LAYER_1
 10
-69.075
 20
-62.5627
  0
VERTEX
  8
LAYER_1
 10
-68.5602
 20
-61.5843
  0
VERTEX
  8
LAYER_1
 10
-67.8394
 20
-60.7019
  0
SEQEND
  8
LAYER_1
  0
POLYLINE
  8
LAYER_1
 66
     1
 70
     1
  0
VERTEX
  8
LAYER_1
 10
-13.7458
 20
-68.6569
  0
VERTEX
  8
LAYER_1
 10
-14.6282
 20
-69.3777
  0
VERTEX
  8
LAYER_1
 10
-15.6066
 20
-69.8925
  0
VERTEX
  8
LAYER_1
 10
-16.649
 20
-70.2015
  0
VERTEX
  8
LAYER_1
 10
-17.7233
 20
-70.3044
  0
VERTEX
  8
LAYER_1
 10
-18.7976
 20
-70.2015
  0
VERTEX
  8
LAYER_1
 10
-19.84
 20
-69.8925
  0
VERTEX
  8
LAYER_1
 10
-20.8184
 20
-69.3777
  0
VERTEX
  8
LAYER_1
 10
-21.7008
 20
-68.6569
  0
VERTEX
  8
LAYER_1
 10
-22.4216
 20
-67.7745
  0
VERTEX
  8
LAYER_1
 10
-22.9364
 20
-66.7961
  0
VERTEX
  8
LAYER_1
 10
-23.2454
 20
-65.7538
  0
VERTEX
  8
LAYER_1
 10
-23.3483
 20
-64.6795
  0
VERTEX
  8
LAYER_1
 10
-23.2454
 20
-63.6051
  0
VERTEX
  8
LAYER_1
 10
-22.9364
 20
-62.5628
  0
VERTEX
  8
LAYER_1
 10
-22.4216
 20
-61.5844
  0
VERTEX
  8
LAYER_1
 10
-21.7008
 20
-60.702
  0
VERTEX
  8
LAYER_1
 10
-20.8184
 20
-59.9812
  0
VERTEX
  8
LAYER_1
 10
-19.84
 20
-59.4664
  0
VERTEX
  8
LAYER_1
 10
-18.7976
 20
-59.1574
  0
VERTEX
  8
LAYER_1
 10
-17.7233
 20
-59.0545
  0
VERTEX
  8
LAYER_1
 10
-16.649
 20
-59.1574
  0
VERTEX
  8
LAYER_1
 10
-15.6066
 20
-59.4664
  0
VERTEX
  8
LAYER_1
 10
-14.6282
 20
-59.9812
  0
VERTEX
  8
LAYER_1
 10
-13.7458
 20
-60.702
  0
VERTEX
  8
LAYER_1
 10
-13.025
 20
-61.5844
  0
VERTEX
  8
LAYER_1
 10
-12.5102
 20
-62.5628
  0
VERTEX
  8
LAYER_1
 10
-12.2012
 20
-63.6051
  0
VERTEX
  8
LAYER_1
 10
-12.0983
 20
-64.6795
  0
VERTEX
  8
LAYER_1
 10
-12.2012
 20
-65.7538
  0
VERTEX
  8
LAYER_1
 10
-12.5102
 20
-66.7962
  0
VERTEX
  8
LAYER_1
 10
-13.025
 20
-67.7745
  0
VERTEX
  8
LAYER_1
 10
-13.7458
 20
-68.6569
  0
SEQEND
  8
LAYER_1
  0
POLYLINE
  8
LAYER_1
 66
     1
  0
VERTEX
  8
LAYER_1
 10
-42.1983
 20
-41.6101
  0
VERTEX
  8
LAYER_1
 10
-42.1697
 20
-41.8934
  0
VERTEX
  8
LAYER_1
 10
-42.0878
 20
-42.1572
  0
VERTEX
  8
LAYER_1
 10
-41.9582
 20
-42.396
  0
VERTEX
  8
LAYER_1
 10
-41.7865
 20
-42.604
  0
VERTEX
  8
LAYER_1
 10
-41.5785
 20
-42.7757
  0
VERTEX
  8
LAYER_1
 10
-41.3397
 20
-42.9053
  0
VERTEX
  8
LAYER_1
 10
-41.0759
 20
-42.9872
  0
VERTEX
  8
LAYER_1
 10
-40.7926
 20
-43.0158
  0
SEQEND
  8
LAYER_1
  0
POLYLINE
  8
LAYER_1
 66
     1
  0
VERTEX
  8
LAYER_1
 10
-40.7926
 20
-43.0158
  0
VERTEX
  8
LAYER_1
 10
-40.5093
 20
-42.9872
  0
VERTEX
  8
LAYER_1
 10
-40.2455
 20
-42.9053
  0
VERTEX
  8
LAYER_1
 10
-40.0067
 20
-42.7757
  0
VERTEX
  8
LAYER_1
 10
-39.7987
 20
-42.604
  0
VERTEX
  8
LAYER_1
 10
-39.627
 20
-42.396
  0
VERTEX
  8
LAYER_1
 10
-39.4974
 20
-42.1572
  0
VERTEX
  8
LAYER_1
 10
-39.4155
 20
-41.8934
  0
VERTEX
  8
LAYER_1
 10
-39.3869
 20
-41.6101
  0
SEQEND
  8
LAYER_1
  0
ENDSEC
  0
EOF
