  0
SECTION
  2
HEADER
  9
$ACADVER
  1
AC1015
  9
$ACADMAINTVER
 70
     6
  9
$DWGCODEPAGE
  3
ANSI_1252
  9
$INSBASE
 10
0.0
 20
0.0
 30
0.0
  9
$EXTMIN
 10
1.000000000000000E+20
 20
1.000000000000000E+20
 30
1.000000000000000E+20
  9
$EXTMAX
 10
-1.000000000000000E+20
 20
-1.000000000000000E+20
 30
-1.000000000000000E+20
  9
$LIMMIN
 10
0.0
 20
0.0
  9
$LIMMAX
 10
12.0
 20
9.0
  9
$ORTHOMODE
 70
     0
  9
$REGENMODE
 70
     1
  9
$FILLMODE
 70
     1
  9
$QTEXTMODE
 70
     0
  9
$MIRRTEXT
 70
     1
  9
$LTSCALE
 40
1.0
  9
$ATTMODE
 70
     1
  9
$TEXTSIZE
 40
0.2
  9
$TRACEWID
 40
0.05
  9
$TEXTSTYLE
  7
Standard
  9
$CLAYER
  8
0
  9
$CELTYPE
  6
ByLayer
  9
$CECOLOR
 62
   256
  9
$CELTSCALE
 40
1.0
  9
$DISPSILH
 70
     0
  9
$DIMSCALE
 40
1.0
  9
$DIMASZ
 40
0.18
  9
$DIMEXO
 40
0.0625
  9
$DIMDLI
 40
0.38
  9
$DIMRND
 40
0.0
  9
$DIMDLE
 40
0.0
  9
$DIMEXE
 40
0.18
  9
$DIMTP
 40
0.0
  9
$DIMTM
 40
0.0
  9
$DIMTXT
 40
0.18
  9
$DIMCEN
 40
0.09
  9
$DIMTSZ
 40
0.0
  9
$DIMTOL
 70
     0
  9
$DIMLIM
 70
     0
  9
$DIMTIH
 70
     1
  9
$DIMTOH
 70
     1
  9
$DIMSE1
 70
     0
  9
$DIMSE2
 70
     0
  9
$DIMTAD
 70
     0
  9
$DIMZIN
 70
     0
  9
$DIMBLK
  1

  9
$DIMASO
 70
     1
  9
$DIMSHO
 70
     1
  9
$DIMPOST
  1

  9
$DIMAPOST
  1

  9
$DIMALT
 70
     0
  9
$DIMALTD
 70
     2
  9
$DIMALTF
 40
25.4
  9
$DIMLFAC
 40
1.0
  9
$DIMTOFL
 70
     0
  9
$DIMTVP
 40
0.0
  9
$DIMTIX
 70
     0
  9
$DIMSOXD
 70
     0
  9
$DIMSAH
 70
     0
  9
$DIMBLK1
  1

  9
$DIMBLK2
  1

  9
$DIMSTYLE
  2
Standard
  9
$DIMCLRD
 70
     0
  9
$DIMCLRE
 70
     0
  9
$DIMCLRT
 70
     0
  9
$DIMTFAC
 40
1.0
  9
$DIMGAP
 40
0.09
  9
$DIMJUST
 70
     0
  9
$DIMSD1
 70
     0
  9
$DIMSD2
 70
     0
  9
$DIMTOLJ
 70
     1
  9
$DIMTZIN
 70
     0
  9
$DIMALTZ
 70
     0
  9
$DIMALTTZ
 70
     0
  9
$DIMUPT
 70
     0
  9
$DIMDEC
 70
     4
  9
$DIMTDEC
 70
     4
  9
$DIMALTU
 70
     2
  9
$DIMALTTD
 70
     2
  9
$DIMTXSTY
  7
Standard
  9
$DIMAUNIT
 70
     0
  9
$DIMADEC
 70
     0
  9
$DIMALTRND
 40
0.0
  9
$DIMAZIN
 70
     0
  9
$DIMDSEP
 70
    46
  9
$DIMATFIT
 70
     3
  9
$DIMFRAC
 70
     0
  9
$DIMLDRBLK
  1

  9
$DIMLUNIT
 70
     2
  9
$DIMLWD
 70
    -2
  9
$DIMLWE
 70
    -2
  9
$DIMTMOVE
 70
     0
  9
$LUNITS
 70
     2
  9
$LUPREC
 70
     4
  9
$SKETCHINC
 40
0.1
  9
$FILLETRAD
 40
0.5
  9
$AUNITS
 70
     0
  9
$AUPREC
 70
     0
  9
$MENU
  1
.
  9
$ELEVATION
 40
0.0
  9
$PELEVATION
 40
0.0
  9
$THICKNESS
 40
0.0
  9
$LIMCHECK
 70
     0
  9
$CHAMFERA
 40
0.5
  9
$CHAMFERB
 40
0.5
  9
$CHAMFERC
 40
1.0
  9
$CHAMFERD
 40
0.0
  9
$SKPOLY
 70
     0
  9
$TDCREATE
 40
2458449.495079954
  9
$TDUCREATE
 40
2458449.703413287
  9
$TDUPDATE
 40
2458449.495079965
  9
$TDUUPDATE
 40
2458449.703413299
  9
$TDINDWG
 40
0.0000000116
  9
$TDUSRTIMER
 40
0.0000000116
  9
$USRTIMER
 70
     1
  9
$ANGBASE
 50
0.0
  9
$ANGDIR
 70
     0
  9
$PDMODE
 70
     0
  9
$PDSIZE
 40
0.0
  9
$PLINEWID
 40
0.0
  9
$SPLFRAME
 70
     0
  9
$SPLINETYPE
 70
     6
  9
$SPLINESEGS
 70
     8
  9
$HANDSEED
  5
60
  9
$SURFTAB1
 70
     6
  9
$SURFTAB2
 70
     6
  9
$SURFTYPE
 70
     6
  9
$SURFU
 70
     6
  9
$SURFV
 70
     6
  9
$UCSBASE
  2

  9
$UCSNAME
  2

  9
$UCSORG
 10
0.0
 20
0.0
 30
0.0
  9
$UCSXDIR
 10
1.0
 20
0.0
 30
0.0
  9
$UCSYDIR
 10
0.0
 20
1.0
 30
0.0
  9
$UCSORTHOREF
  2

  9
$UCSORTHOVIEW
 70
     0
  9
$UCSORGTOP
 10
0.0
 20
0.0
 30
0.0
  9
$UCSORGBOTTOM
 10
0.0
 20
0.0
 30
0.0
  9
$UCSORGLEFT
 10
0.0
 20
0.0
 30
0.0
  9
$UCSORGRIGHT
 10
0.0
 20
0.0
 30
0.0
  9
$UCSORGFRONT
 10
0.0
 20
0.0
 30
0.0
  9
$UCSORGBACK
 10
0.0
 20
0.0
 30
0.0
  9
$PUCSBASE
  2

  9
$PUCSNAME
  2

  9
$PUCSORG
 10
0.0
 20
0.0
 30
0.0
  9
$PUCSXDIR
 10
1.0
 20
0.0
 30
0.0
  9
$PUCSYDIR
 10
0.0
 20
1.0
 30
0.0
  9
$PUCSORTHOREF
  2

  9
$PUCSORTHOVIEW
 70
     0
  9
$PUCSORGTOP
 10
0.0
 20
0.0
 30
0.0
  9
$PUCSORGBOTTOM
 10
0.0
 20
0.0
 30
0.0
  9
$PUCSORGLEFT
 10
0.0
 20
0.0
 30
0.0
  9
$PUCSORGRIGHT
 10
0.0
 20
0.0
 30
0.0
  9
$PUCSORGFRONT
 10
0.0
 20
0.0
 30
0.0
  9
$PUCSORGBACK
 10
0.0
 20
0.0
 30
0.0
  9
$USERI1
 70
     0
  9
$USERI2
 70
     0
  9
$USERI3
 70
     0
  9
$USERI4
 70
     0
  9
$USERI5
 70
     0
  9
$USERR1
 40
0.0
  9
$USERR2
 40
0.0
  9
$USERR3
 40
0.0
  9
$USERR4
 40
0.0
  9
$USERR5
 40
0.0
  9
$WORLDVIEW
 70
     1
  9
$SHADEDGE
 70
     3
  9
$SHADEDIF
 70
    70
  9
$TILEMODE
 70
     1
  9
$MAXACTVP
 70
    64
  9
$PINSBASE
 10
0.0
 20
0.0
 30
0.0
  9
$PLIMCHECK
 70
     0
  9
$PEXTMIN
 10
1.000000000000000E+20
 20
1.000000000000000E+20
 30
1.000000000000000E+20
  9
$PEXTMAX
 10
-1.000000000000000E+20
 20
-1.000000000000000E+20
 30
-1.000000000000000E+20
  9
$PLIMMIN
 10
0.0
 20
0.0
  9
$PLIMMAX
 10
12.0
 20
9.0
  9
$UNITMODE
 70
     0
  9
$VISRETAIN
 70
     1
  9
$PLINEGEN
 70
     0
  9
$PSLTSCALE
 70
     1
  9
$TREEDEPTH
 70
  3020
  9
$CMLSTYLE
  2
Standard
  9
$CMLJUST
 70
     0
  9
$CMLSCALE
 40
1.0
  9
$PROXYGRAPHICS
 70
     1
  9
$MEASUREMENT
 70
     0
  9
$CELWEIGHT
370
    -1
  9
$ENDCAPS
280
     0
  9
$JOINSTYLE
280
     0
  9
$LWDISPLAY
290
     1
  9
$INSUNITS
 70
     1
  9
$HYPERLINKBASE
  1

  9
$STYLESHEET
  1

  9
$XEDIT
290
     1
  9
$CEPSNTYPE
380
     0
  9
$PSTYLEMODE
290
     1
  9
$FINGERPRINTGUID
  2
{E2BD7E46-2695-4932-A696-2075401FC28D}
  9
$VERSIONGUID
  2
{FAEB1C32-E019-11D5-929B-00C0DF256EC4}
  9
$EXTNAMES
290
     1
  9
$PSVPSCALE
 40
0.0
  9
$OLESTARTUP
290
     0
  0
ENDSEC
  0
SECTION
  2
CLASSES
  0
CLASS
  1
ACDBDICTIONARYWDFLT
  2
AcDbDictionaryWithDefault
  3
ObjectDBX Classes
 90
        0
280
     0
281
     0
  0
CLASS
  1
VISUALSTYLE
  2
AcDbVisualStyle
  3
ObjectDBX Classes
 90
     4095
280
     0
281
     0
  0
CLASS
  1
ACDBPLACEHOLDER
  2
AcDbPlaceHolder
  3
ObjectDBX Classes
 90
        0
280
     0
281
     0
  0
CLASS
  1
LAYOUT
  2
AcDbLayout
  3
ObjectDBX Classes
 90
        0
280
     0
281
     0
  0
ENDSEC
  0
SECTION
  2
TABLES
  0
TABLE
  2
VPORT
  5
8
330
0
100
AcDbSymbolTable
 70
     1
  0
VPORT
  5
29
330
8
100
AcDbSymbolTableRecord
100
AcDbViewportTableRecord
  2
*Active
 70
     0
 10
0.0
 20
0.0
 11
1.0
 21
1.0
 12
0.0
 22
0.0
 13
0.0
 23
0.0
 14
0.5
 24
0.5
 15
0.5
 25
0.5
 16
0.0
 26
0.0
 36
1.0
 17
500.0
 27
-500.0
 37
0.0
 40
1000.0
 41
1.0
 42
50.0
 43
0.0
 44
0.0
 50
0.0
 51
0.0
 71
     0
 72
   100
 73
     1
 74
     3
 75
     0
 76
     0
 77
     0
 78
     0
281
     0
 65
     1
110
0.0
120
0.0
130
0.0
111
1.0
121
0.0
131
0.0
112
0.0
122
1.0
132
0.0
 79
     0
146
0.0
  0
ENDTAB
  0
TABLE
  2
LTYPE
  5
5
330
0
100
AcDbSymbolTable
 70
     1
  0
LTYPE
  5
14
330
5
100
AcDbSymbolTableRecord
100
AcDbLinetypeTableRecord
  2
ByBlock
 70
     0
  3

 72
    65
 73
     0
 40
0.0
  0
LTYPE
  5
15
330
5
100
AcDbSymbolTableRecord
100
AcDbLinetypeTableRecord
  2
ByLayer
 70
     0
  3

 72
    65
 73
     0
 40
0.0
  0
LTYPE
  5
16
330
5
100
AcDbSymbolTableRecord
100
AcDbLinetypeTableRecord
  2
Continuous
 70
     0
  3
Solid line
 72
    65
 73
     0
 40
0.0
  0
ENDTAB
  0
TABLE
  2
LAYER
  5
2
330
0
100
AcDbSymbolTable
 70
     2
  0
LAYER
  5
10
330
2
100
AcDbSymbolTableRecord
100
AcDbLayerTableRecord
  2
0
 70
     0
 62
     7
  6
Continuous
370
    -3
390
F
  0
LAYER
  5
3B
330
2
100
AcDbSymbolTableRecord
100
AcDbLayerTableRecord
  2
Layer 1
 70
     0
 62
     7
  6
Continuous
370
    -3
390
F
  0
ENDTAB
  0
TABLE
  2
STYLE
  5
3
330
0
100
AcDbSymbolTable
 70
     1
  0
STYLE
  5
11
330
3
100
AcDbSymbolTableRecord
100
AcDbTextStyleTableRecord
  2
Standard
 70
     0
 40
0.0
 41
1.0
 50
0.0
 71
     0
 42
0.2
  3
txt
  4

  0
ENDTAB
  0
TABLE
  2
VIEW
  5
6
330
0
100
AcDbSymbolTable
 70
     0
  0
ENDTAB
  0
TABLE
  2
UCS
  5
7
330
0
100
AcDbSymbolTable
 70
     0
  0
ENDTAB
  0
TABLE
  2
APPID
  5
9
330
0
100
AcDbSymbolTable
 70
     1
  0
APPID
  5
12
330
9
100
AcDbSymbolTableRecord
100
AcDbRegAppTableRecord
  2
ACAD
 70
     0
  0
ENDTAB
  0
TABLE
  2
DIMSTYLE
  5
A
330
0
100
AcDbSymbolTable
 70
     1
100
AcDbDimStyleTable
  0
DIMSTYLE
105
27
330
A
100
AcDbSymbolTableRecord
100
AcDbDimStyleTableRecord
  2
Standard
 70
     0
340
11
  0
ENDTAB
  0
TABLE
  2
BLOCK_RECORD
  5
1
330
0
100
AcDbSymbolTable
 70
     2
  0
BLOCK_RECORD
  5
1F
330
1
100
AcDbSymbolTableRecord
100
AcDbBlockTableRecord
  2
*Model_Space
340
22
  0
BLOCK_RECORD
  5
1B
330
1
100
AcDbSymbolTableRecord
100
AcDbBlockTableRecord
  2
*Paper_Space
340
1E
  0
BLOCK_RECORD
  5
23
330
1
100
AcDbSymbolTableRecord
100
AcDbBlockTableRecord
  2
*Paper_Space0
340
26
  0
BLOCK_RECORD
  5
3C
330
1
100
AcDbSymbolTableRecord
100
AcDbBlockTableRecord
  2
block 2
340
0
102
{BLKREFS
331
3D
102
}
  0
ENDTAB
  0
ENDSEC
  0
SECTION
  2
BLOCKS
  0
BLOCK
  5
20
330
1F
100
AcDbEntity
  8
0
100
AcDbBlockBegin
  2
*Model_Space
 70
     0
 71
     0
 10
0.0
 20
0.0
 30
0.0
  3
*Model_Space
  1

  0
ENDBLK
  5
21
330
1F
100
AcDbEntity
  8
0
100
AcDbBlockEnd
  0
BLOCK
  5
1C
330
1B
100
AcDbEntity
 67
     1
  8
0
100
AcDbBlockBegin
  2
*Paper_Space
 70
     0
 71
     0
 10
0.0
 20
0.0
 30
0.0
  3
*Paper_Space
  1

  0
ENDBLK
  5
1D
330
1B
100
AcDbEntity
 67
     1
  8
0
100
AcDbBlockEnd
  0
BLOCK
  5
24
330
23
100
AcDbEntity
  8
0
100
AcDbBlockBegin
  2
*Paper_Space0
 70
     0
 71
     0
 10
0.0
 20
0.0
 30
0.0
  3
*Paper_Space0
  1

  0
ENDBLK
  5
25
330
23
100
AcDbEntity
  8
0
100
AcDbBlockEnd
  0
BLOCK
  5
3E
330
3C
100
AcDbEntity
  8
0
100
AcDbBlockBegin
  2
block 2
 70
     0
 71
     0
 10
0.0
 20
0.0
 30
0.0
  3
block 2
  1

  0
SPLINE
  5
40
330
3C
100
AcDbEntity
  8
Layer 1
370
     0
100
AcDbSpline
210
0.0
220
0.0
230
1.0
 70
    11
 71
     3
 72
    23
 73
    19
 74
     0
 42
0.0000000001
 43
0.0000000001
 40
0.0
 40
0.0
 40
0.0
 40
0.0
 40
1.0
 40
1.0
 40
1.0
 40
2.0
 40
2.0
 40
2.0
 40
3.0
 40
3.0
 40
3.0
 40
4.0
 40
4.0
 40
4.0
 40
5.0
 40
5.0
 40
5.0
 40
6.0
 40
6.0
 40
6.0
 40
6.0
 10
314.8017578125
 20
-406.236328125
 30
0.0
 10
325.7509765625
 20
-402.69189453125
 30
0.0
 10
336.6708984375
 20
-398.0849609375
 30
0.0
 10
347.27978515625
 20
-393.29931640625
 30
0.0
 10
355.134765625
 20
-389.7509765625
 30
0.0
 10
363.76171875
 20
-385.3798828125
 30
0.0
 10
372.904296875
 20
-380.75146484375
 30
0.0
 10
375.1865234375
 20
-379.5927734375
 30
0.0
 10
377.50390625
 20
-378.41943359375
 30
0.0
 10
379.84375
 20
-377.2392578125
 30
0.0
 10
374.1279296875
 20
-363.16064453125
 30
0.0
 10
367.7392578125
 20
-352.12255859375
 30
0.0
 10
360.3642578125
 20
-343.57373046875
 30
0.0
 10
347.623046875
 20
-328.7978515625
 30
0.0
 10
331.970703125
 20
-318.43212890625
 30
0.0
 10
314.8017578125
 20
-313.0703125
 30
0.0
 10
314.8017578125
 20
-313.0703125
 30
0.0
 10
314.8017578125
 20
-406.236328125
 30
0.0
 10
314.8017578125
 20
-406.236328125
 30
0.0
  0
SPLINE
  5
41
330
3C
100
AcDbEntity
  8
Layer 1
370
     0
100
AcDbSpline
210
0.0
220
0.0
230
1.0
 70
    11
 71
     3
 72
    20
 73
    16
 74
     0
 42
0.0000000001
 43
0.0000000001
 40
0.0
 40
0.0
 40
0.0
 40
0.0
 40
1.0
 40
1.0
 40
1.0
 40
2.0
 40
2.0
 40
2.0
 40
3.0
 40
3.0
 40
3.0
 40
4.0
 40
4.0
 40
4.0
 40
5.0
 40
5.0
 40
5.0
 40
5.0
 10
458.7841796875
 20
-377.013671875
 30
0.0
 10
459.013671875
 20
-375.79052734375
 30
0.0
 10
459.1884765625
 20
-374.5634765625
 30
0.0
 10
459.5
 20
-373.34765625
 30
0.0
 10
460.201171875
 20
-370.63623046875
 30
0.0
 10
461.0947265625
 20
-367.95361328125
 30
0.0
 10
462.1826171875
 20
-365.328125
 30
0.0
 10
440.263671875
 20
-368.61181640625
 30
0.0
 10
420.5048828125
 20
-377.05322265625
 30
0.0
 10
403.658203125
 20
-385.3583984375
 30
0.0
 10
408.283203125
 20
-397.2158203125
 30
0.0
 10
411.041015625
 20
-408.5224609375
 30
0.0
 10
412.013671875
 20
-419.14892578125
 30
0.0
 10
412.013671875
 20
-419.14892578125
 30
0.0
 10
458.7841796875
 20
-377.013671875
 30
0.0
 10
458.7841796875
 20
-377.013671875
 30
0.0
  0
SPLINE
  5
42
330
3C
100
AcDbEntity
  8
Layer 1
370
     0
100
AcDbSpline
210
0.0
220
0.0
230
1.0
 70
    11
 71
     3
 72
    20
 73
    16
 74
     0
 42
0.0000000001
 43
0.0000000001
 40
0.0
 40
0.0
 40
0.0
 40
0.0
 40
1.0
 40
1.0
 40
1.0
 40
2.0
 40
2.0
 40
2.0
 40
3.0
 40
3.0
 40
3.0
 40
4.0
 40
4.0
 40
4.0
 40
5.0
 40
5.0
 40
5.0
 40
5.0
 10
332.8505859375
 20
-420.98388671875
 30
0.0
 10
332.8505859375
 20
-420.98388671875
 30
0.0
 10
393.986328125
 20
-420.98388671875
 30
0.0
 10
393.986328125
 20
-420.98388671875
 30
0.0
 10
393.986328125
 20
-420.98388671875
 30
0.0
 10
393.513671875
 20
-419.35302734375
 30
0.0
 10
393.513671875
 20
-419.35302734375
 30
0.0
 10
391.1748046875
 20
-411.15478515625
 30
0.0
 10
388.763671875
 20
-402.720703125
 30
0.0
 10
386.0673828125
 20
-394.4150390625
 30
0.0
 10
383.3701171875
 20
-395.845703125
 30
0.0
 10
380.6806640625
 20
-397.291015625
 30
0.0
 10
377.9833984375
 20
-398.728515625
 30
0.0
 10
363.3681640625
 20
-406.54052734375
 30
0.0
 10
348.4033203125
 20
-414.5458984375
 30
0.0
 10
332.8505859375
 20
-420.98388671875
 30
0.0
  0
SPLINE
  5
43
330
3C
100
AcDbEntity
  8
Layer 1
370
     0
100
AcDbSpline
210
0.0
220
0.0
230
1.0
 70
    11
 71
     3
 72
    14
 73
    10
 74
     0
 42
0.0000000001
 43
0.0000000001
 40
0.0
 40
0.0
 40
0.0
 40
0.0
 40
1.0
 40
1.0
 40
1.0
 40
2.0
 40
2.0
 40
2.0
 40
3.0
 40
3.0
 40
3.0
 40
3.0
 10
453.7158203125
 20
-420.98388671875
 30
0.0
 10
453.7158203125
 20
-420.98388671875
 30
0.0
 10
469.0068359375
 20
-420.98388671875
 30
0.0
 10
469.0068359375
 20
-420.98388671875
 30
0.0
 10
466.814453125
 20
-418.25830078125
 30
0.0
 10
464.9794921875
 20
-415.228515625
 30
0.0
 10
463.3984375
 20
-412.04541015625
 30
0.0
 10
463.3984375
 20
-412.04541015625
 30
0.0
 10
453.7158203125
 20
-420.98388671875
 30
0.0
 10
453.7158203125
 20
-420.98388671875
 30
0.0
  0
SPLINE
  5
44
330
3C
100
AcDbEntity
  8
Layer 1
370
     0
100
AcDbSpline
210
0.0
220
0.0
230
1.0
 70
    11
 71
     3
 72
    23
 73
    19
 74
     0
 42
0.0000000001
 43
0.0000000001
 40
0.0
 40
0.0
 40
0.0
 40
0.0
 40
1.0
 40
1.0
 40
1.0
 40
2.0
 40
2.0
 40
2.0
 40
3.0
 40
3.0
 40
3.0
 40
4.0
 40
4.0
 40
4.0
 40
5.0
 40
5.0
 40
5.0
 40
6.0
 40
6.0
 40
6.0
 40
6.0
 10
508.087890625
 20
-370.79345703125
 30
0.0
 10
508.087890625
 20
-370.79345703125
 30
0.0
 10
477.01953125
 20
-399.47265625
 30
0.0
 10
477.01953125
 20
-399.47265625
 30
0.0
 10
481.08984375
 20
-411.119140625
 30
0.0
 10
492.1455078125
 20
-419.810546875
 30
0.0
 10
503.630859375
 20
-419.810546875
 30
0.0
 10
507.81640625
 20
-419.810546875
 30
0.0
 10
511.84375
 20
-418.67333984375
 30
0.0
 10
515.61328125
 20
-416.4267578125
 30
0.0
 10
521.1142578125
 20
-413.150390625
 30
0.0
 10
524.3046875
 20
-408.3291015625
 30
0.0
 10
525.0849609375
 20
-402.09814453125
 30
0.0
 10
526.158203125
 20
-393.59228515625
 30
0.0
 10
522.2802734375
 20
-383.26953125
 30
0.0
 10
515.4560546875
 20
-376.4091796875
 30
0.0
 10
513.302734375
 20
-374.2451171875
 30
0.0
 10
510.8203125
 20
-372.39599609375
 30
0.0
 10
508.087890625
 20
-370.79345703125
 30
0.0
  0
SPLINE
  5
45
330
3C
100
AcDbEntity
  8
Layer 1
370
     0
100
AcDbSpline
210
0.0
220
0.0
230
1.0
 70
    11
 71
     3
 72
    20
 73
    16
 74
     0
 42
0.0000000001
 43
0.0000000001
 40
0.0
 40
0.0
 40
0.0
 40
0.0
 40
1.0
 40
1.0
 40
1.0
 40
2.0
 40
2.0
 40
2.0
 40
3.0
 40
3.0
 40
3.0
 40
4.0
 40
4.0
 40
4.0
 40
5.0
 40
5.0
 40
5.0
 40
5.0
 10
341.1064453125
 20
-656.568359375
 30
0.0
 10
338.6455078125
 20
-656.275390625
 30
0.0
 10
336.1484375
 20
-655.982421875
 30
0.0
 10
333.64501953125
 20
-655.66796875
 30
0.0
 10
345.5126953125
 20
-665.875
 30
0.0
 10
357.9814453125
 20
-673.365234375
 30
0.0
 10
368.3115234375
 20
-676.333984375
 30
0.0
 10
383.7705078125
 20
-680.76953125
 30
0.0
 10
403.421875
 20
-680.7265625
 30
0.0
 10
421.943359375
 20
-676.3203125
 30
0.0
 10
401.3330078125
 20
-667.45703125
 30
0.0
 10
377.7119140625
 20
-661.25390625
 30
0.0
 10
351.56494140625
 20
-657.857421875
 30
0.0
 10
348.109375
 20
-657.40625
 30
0.0
 10
344.61865234375
 20
-656.990234375
 30
0.0
 10
341.1064453125
 20
-656.568359375
 30
0.0
  0
SPLINE
  5
46
330
3C
100
AcDbEntity
  8
Layer 1
370
     0
100
AcDbSpline
210
0.0
220
0.0
230
1.0
 70
    11
 71
     3
 72
    29
 73
    25
 74
     0
 42
0.0000000001
 43
0.0000000001
 40
0.0
 40
0.0
 40
0.0
 40
0.0
 40
1.0
 40
1.0
 40
1.0
 40
2.0
 40
2.0
 40
2.0
 40
3.0
 40
3.0
 40
3.0
 40
4.0
 40
4.0
 40
4.0
 40
5.0
 40
5.0
 40
5.0
 40
6.0
 40
6.0
 40
6.0
 40
7.0
 40
7.0
 40
7.0
 40
8.0
 40
8.0
 40
8.0
 40
8.0
 10
482.5634765625
 20
-610.291015625
 30
0.0
 10
482.5634765625
 20
-610.291015625
 30
0.0
 10
459.857421875
 20
-587.41015625
 30
0.0
 10
459.857421875
 20
-587.41015625
 30
0.0
 10
458.2763671875
 20
-587.08203125
 30
0.0
 10
456.669921875
 20
-586.90625
 30
0.0
 10
455.0576171875
 20
-586.90625
 30
0.0
 10
450.8798828125
 20
-586.90625
 30
0.0
 10
446.8447265625
 20
-588.04296875
 30
0.0
 10
443.08203125
 20
-590.2890625
 30
0.0
 10
437.57421875
 20
-593.57421875
 30
0.0
 10
434.3828125
 20
-598.388671875
 30
0.0
 10
433.603515625
 20
-604.619140625
 30
0.0
 10
432.5302734375
 20
-613.125
 30
0.0
 10
436.408203125
 20
-623.447265625
 30
0.0
 10
443.2392578125
 20
-630.30859375
 30
0.0
 10
450.7509765625
 20
-637.861328125
 30
0.0
 10
461.845703125
 20
-641.99609375
 30
0.0
 10
476.2392578125
 20
-642.619140625
 30
0.0
 10
481.0107421875
 20
-635.1796875
 30
0.0
 10
485.5322265625
 20
-624.048828125
 30
0.0
 10
482.69921875
 20
-610.814453125
 30
0.0
 10
482.66015625
 20
-610.638671875
 30
0.0
 10
482.6025390625
 20
-610.466796875
 30
0.0
 10
482.5634765625
 20
-610.291015625
 30
0.0
  0
SPLINE
  5
47
330
3C
100
AcDbEntity
  8
Layer 1
370
     0
100
AcDbSpline
210
0.0
220
0.0
230
1.0
 70
    11
 71
     3
 72
    38
 73
    34
 74
     0
 42
0.0000000001
 43
0.0000000001
 40
0.0
 40
0.0
 40
0.0
 40
0.0
 40
1.0
 40
1.0
 40
1.0
 40
2.0
 40
2.0
 40
2.0
 40
3.0
 40
3.0
 40
3.0
 40
4.0
 40
4.0
 40
4.0
 40
5.0
 40
5.0
 40
5.0
 40
6.0
 40
6.0
 40
6.0
 40
7.0
 40
7.0
 40
7.0
 40
8.0
 40
8.0
 40
8.0
 40
9.0
 40
9.0
 40
9.0
 40
10.0
 40
10.0
 40
10.0
 40
11.0
 40
11.0
 40
11.0
 40
11.0
 10
419.181640625
 20
-591.591796875
 30
0.0
 10
420.119140625
 20
-589.525390625
 30
0.0
 10
421.2421875
 20
-587.572265625
 30
0.0
 10
422.5439453125
 20
-585.740234375
 30
0.0
 10
422.5439453125
 20
-585.740234375
 30
0.0
 10
314.8017578125
 20
-585.740234375
 30
0.0
 10
314.8017578125
 20
-585.740234375
 30
0.0
 10
314.8017578125
 20
-585.740234375
 30
0.0
 10
314.8017578125
 20
-636.337890625
 30
0.0
 10
314.8017578125
 20
-636.337890625
 30
0.0
 10
315.79638671875
 20
-637.55859375
 30
0.0
 10
316.8193359375
 20
-638.77734375
 30
0.0
 10
317.8779296875
 20
-639.994140625
 30
0.0
 10
319.7666015625
 20
-640.34375
 30
0.0
 10
321.6552734375
 20
-640.666015625
 30
0.0
 10
323.55078125
 20
-640.958984375
 30
0.0
 10
333.201171875
 20
-642.4609375
 30
0.0
 10
342.9521484375
 20
-643.7421875
 30
0.0
 10
352.38037109375
 20
-644.986328125
 30
0.0
 10
380.873046875
 20
-648.728515625
 30
0.0
 10
410.33203125
 20
-652.591796875
 30
0.0
 10
438.9404296875
 20
-663.05078125
 30
0.0
 10
442.080078125
 20
-664.1953125
 30
0.0
 10
445.185546875
 20
-665.42578125
 30
0.0
 10
448.1826171875
 20
-666.712890625
 30
0.0
 10
452.9541015625
 20
-664.251953125
 30
0.0
 10
457.33203125
 20
-661.51171875
 30
0.0
 10
461.251953125
 20
-658.537109375
 30
0.0
 10
452.75390625
 20
-656.396484375
 30
0.0
 10
444.86328125
 20
-652.849609375
 30
0.0
 10
437.7236328125
 20
-647.94140625
 30
0.0
 10
421.1845703125
 20
-636.587890625
 30
0.0
 10
409.7314453125
 20
-612.40234375
 30
0.0
 10
419.181640625
 20
-591.591796875
 30
0.0
  0
SPLINE
  5
48
330
3C
100
AcDbEntity
  8
Layer 1
370
     0
100
AcDbSpline
210
0.0
220
0.0
230
1.0
 70
    11
 71
     3
 72
   410
 73
   406
 74
     0
 42
0.0000000001
 43
0.0000000001
 40
0.0
 40
0.0
 40
0.0
 40
0.0
 40
1.0
 40
1.0
 40
1.0
 40
2.0
 40
2.0
 40
2.0
 40
3.0
 40
3.0
 40
3.0
 40
4.0
 40
4.0
 40
4.0
 40
5.0
 40
5.0
 40
5.0
 40
6.0
 40
6.0
 40
6.0
 40
7.0
 40
7.0
 40
7.0
 40
8.0
 40
8.0
 40
8.0
 40
9.0
 40
9.0
 40
9.0
 40
10.0
 40
10.0
 40
10.0
 40
11.0
 40
11.0
 40
11.0
 40
12.0
 40
12.0
 40
12.0
 40
13.0
 40
13.0
 40
13.0
 40
14.0
 40
14.0
 40
14.0
 40
15.0
 40
15.0
 40
15.0
 40
16.0
 40
16.0
 40
16.0
 40
17.0
 40
17.0
 40
17.0
 40
18.0
 40
18.0
 40
18.0
 40
19.0
 40
19.0
 40
19.0
 40
20.0
 40
20.0
 40
20.0
 40
21.0
 40
21.0
 40
21.0
 40
22.0
 40
22.0
 40
22.0
 40
23.0
 40
23.0
 40
23.0
 40
24.0
 40
24.0
 40
24.0
 40
25.0
 40
25.0
 40
25.0
 40
26.0
 40
26.0
 40
26.0
 40
27.0
 40
27.0
 40
27.0
 40
28.0
 40
28.0
 40
28.0
 40
29.0
 40
29.0
 40
29.0
 40
30.0
 40
30.0
 40
30.0
 40
31.0
 40
31.0
 40
31.0
 40
32.0
 40
32.0
 40
32.0
 40
33.0
 40
33.0
 40
33.0
 40
34.0
 40
34.0
 40
34.0
 40
35.0
 40
35.0
 40
35.0
 40
36.0
 40
36.0
 40
36.0
 40
37.0
 40
37.0
 40
37.0
 40
38.0
 40
38.0
 40
38.0
 40
39.0
 40
39.0
 40
39.0
 40
40.0
 40
40.0
 40
40.0
 40
41.0
 40
41.0
 40
41.0
 40
42.0
 40
42.0
 40
42.0
 40
43.0
 40
43.0
 40
43.0
 40
44.0
 40
44.0
 40
44.0
 40
45.0
 40
45.0
 40
45.0
 40
46.0
 40
46.0
 40
46.0
 40
47.0
 40
47.0
 40
47.0
 40
48.0
 40
48.0
 40
48.0
 40
49.0
 40
49.0
 40
49.0
 40
50.0
 40
50.0
 40
50.0
 40
51.0
 40
51.0
 40
51.0
 40
52.0
 40
52.0
 40
52.0
 40
53.0
 40
53.0
 40
53.0
 40
54.0
 40
54.0
 40
54.0
 40
55.0
 40
55.0
 40
55.0
 40
56.0
 40
56.0
 40
56.0
 40
57.0
 40
57.0
 40
57.0
 40
58.0
 40
58.0
 40
58.0
 40
59.0
 40
59.0
 40
59.0
 40
60.0
 40
60.0
 40
60.0
 40
61.0
 40
61.0
 40
61.0
 40
62.0
 40
62.0
 40
62.0
 40
63.0
 40
63.0
 40
63.0
 40
64.0
 40
64.0
 40
64.0
 40
65.0
 40
65.0
 40
65.0
 40
66.0
 40
66.0
 40
66.0
 40
67.0
 40
67.0
 40
67.0
 40
68.0
 40
68.0
 40
68.0
 40
69.0
 40
69.0
 40
69.0
 40
70.0
 40
70.0
 40
70.0
 40
71.0
 40
71.0
 40
71.0
 40
72.0
 40
72.0
 40
72.0
 40
73.0
 40
73.0
 40
73.0
 40
74.0
 40
74.0
 40
74.0
 40
75.0
 40
75.0
 40
75.0
 40
76.0
 40
76.0
 40
76.0
 40
77.0
 40
77.0
 40
77.0
 40
78.0
 40
78.0
 40
78.0
 40
79.0
 40
79.0
 40
79.0
 40
80.0
 40
80.0
 40
80.0
 40
81.0
 40
81.0
 40
81.0
 40
82.0
 40
82.0
 40
82.0
 40
83.0
 40
83.0
 40
83.0
 40
84.0
 40
84.0
 40
84.0
 40
85.0
 40
85.0
 40
85.0
 40
86.0
 40
86.0
 40
86.0
 40
87.0
 40
87.0
 40
87.0
 40
88.0
 40
88.0
 40
88.0
 40
89.0
 40
89.0
 40
89.0
 40
90.0
 40
90.0
 40
90.0
 40
91.0
 40
91.0
 40
91.0
 40
92.0
 40
92.0
 40
92.0
 40
93.0
 40
93.0
 40
93.0
 40
94.0
 40
94.0
 40
94.0
 40
95.0
 40
95.0
 40
95.0
 40
96.0
 40
96.0
 40
96.0
 40
97.0
 40
97.0
 40
97.0
 40
98.0
 40
98.0
 40
98.0
 40
99.0
 40
99.0
 40
99.0
 40
100.0
 40
100.0
 40
100.0
 40
101.0
 40
101.0
 40
101.0
 40
102.0
 40
102.0
 40
102.0
 40
103.0
 40
103.0
 40
103.0
 40
104.0
 40
104.0
 40
104.0
 40
105.0
 40
105.0
 40
105.0
 40
106.0
 40
106.0
 40
106.0
 40
107.0
 40
107.0
 40
107.0
 40
108.0
 40
108.0
 40
108.0
 40
109.0
 40
109.0
 40
109.0
 40
110.0
 40
110.0
 40
110.0
 40
111.0
 40
111.0
 40
111.0
 40
112.0
 40
112.0
 40
112.0
 40
113.0
 40
113.0
 40
113.0
 40
114.0
 40
114.0
 40
114.0
 40
115.0
 40
115.0
 40
115.0
 40
116.0
 40
116.0
 40
116.0
 40
117.0
 40
117.0
 40
117.0
 40
118.0
 40
118.0
 40
118.0
 40
119.0
 40
119.0
 40
119.0
 40
120.0
 40
120.0
 40
120.0
 40
121.0
 40
121.0
 40
121.0
 40
122.0
 40
122.0
 40
122.0
 40
123.0
 40
123.0
 40
123.0
 40
124.0
 40
124.0
 40
124.0
 40
125.0
 40
125.0
 40
125.0
 40
126.0
 40
126.0
 40
126.0
 40
127.0
 40
127.0
 40
127.0
 40
128.0
 40
128.0
 40
128.0
 40
129.0
 40
129.0
 40
129.0
 40
130.0
 40
130.0
 40
130.0
 40
131.0
 40
131.0
 40
131.0
 40
132.0
 40
132.0
 40
132.0
 40
133.0
 40
133.0
 40
133.0
 40
134.0
 40
134.0
 40
134.0
 40
135.0
 40
135.0
 40
135.0
 40
135.0
 10
649.794921875
 20
-843.974609375
 30
0.0
 10
639.322265625
 20
-851.083984375
 30
0.0
 10
612.7607421875
 20
-854.6328125
 30
0.0
 10
570.1171875
 20
-854.6328125
 30
0.0
 10
570.1171875
 20
-854.6328125
 30
0.0
 10
554.9658203125
 20
-854.6328125
 30
0.0
 10
554.9658203125
 20
-854.6328125
 30
0.0
 10
554.9658203125
 20
-854.6328125
 30
0.0
 10
554.9658203125
 20
-880.443359375
 30
0.0
 10
554.9658203125
 20
-880.443359375
 30
0.0
 10
554.9658203125
 20
-880.443359375
 30
0.0
 10
950.0
 20
-880.443359375
 30
0.0
 10
950.0
 20
-880.443359375
 30
0.0
 10
950.0
 20
-880.443359375
 30
0.0
 10
950.0
 20
-854.6328125
 30
0.0
 10
950.0
 20
-854.6328125
 30
0.0
 10
914.83203125
 20
-854.6328125
 30
0.0
 10
886.2177734375
 20
-847.71484375
 30
0.0
 10
864.1484375
 20
-833.873046875
 30
0.0
 10
842.072265625
 20
-820.037109375
 30
0.0
 10
798.4921875
 20
-780.005859375
 30
0.0
 10
733.4072265625
 20
-713.791015625
 30
0.0
 10
733.4072265625
 20
-713.791015625
 30
0.0
 10
721.625
 20
-701.89453125
 30
0.0
 10
721.625
 20
-701.89453125
 30
0.0
 10
727.3623046875
 20
-698.685546875
 30
0.0
 10
732.9033203125
 20
-694.791015625
 30
0.0
 10
738.3291015625
 20
-690.0546875
 30
0.0
 10
737.01953125
 20
-699.791015625
 30
0.0
 10
736.626953125
 20
-711.30859375
 30
0.0
 10
741.333984375
 20
-720.9375
 30
0.0
 10
743.072265625
 20
-724.470703125
 30
0.0
 10
746.333984375
 20
-726.49609375
 30
0.0
 10
750.296875
 20
-726.49609375
 30
0.0
 10
753.7099609375
 20
-726.49609375
 30
0.0
 10
757.1435546875
 20
-724.958984375
 30
0.0
 10
759.490234375
 20
-722.3828125
 30
0.0
 10
761.5712890625
 20
-720.1015625
 30
0.0
 10
762.56640625
 20
-717.232421875
 30
0.0
 10
762.287109375
 20
-714.3125
 30
0.0
 10
761.8505859375
 20
-709.65625
 30
0.0
 10
760.669921875
 20
-705.263671875
 30
0.0
 10
759.525390625
 20
-701.0078125
 30
0.0
 10
758.2666015625
 20
-696.322265625
 30
0.0
 10
757.0791015625
 20
-691.89453125
 30
0.0
 10
756.8427734375
 20
-687.23046875
 30
0.0
 10
756.6572265625
 20
-683.48046875
 30
0.0
 10
757.34375
 20
-679.66796875
 30
0.0
 10
758.0732421875
 20
-675.6328125
 30
0.0
 10
758.56640625
 20
-672.921875
 30
0.0
 10
759.0751953125
 20
-670.125
 30
0.0
 10
759.310546875
 20
-667.28515625
 30
0.0
 10
763.3388671875
 20
-662.126953125
 30
0.0
 10
767.251953125
 20
-656.740234375
 30
0.0
 10
771.0576171875
 20
-651.453125
 30
0.0
 10
771.107421875
 20
-658.435546875
 30
0.0
 10
772.109375
 20
-664.595703125
 30
0.0
 10
772.724609375
 20
-667.75
 30
0.0
 10
773.58203125
 20
-672.12109375
 30
0.0
 10
777.0947265625
 20
-674.947265625
 30
0.0
 10
781.673828125
 20
-674.947265625
 30
0.0
 10
785.3076171875
 20
-674.947265625
 30
0.0
 10
788.9130859375
 20
-673.123046875
 30
0.0
 10
790.8447265625
 20
-670.296875
 30
0.0
 10
792.576171875
 20
-667.779296875
 30
0.0
 10
792.890625
 20
-664.74609375
 30
0.0
 10
791.7314453125
 20
-661.755859375
 30
0.0
 10
789.564453125
 20
-656.146484375
 30
0.0
 10
787.75390625
 20
-651.0390625
 30
0.0
 10
787.5107421875
 20
-645.2734375
 30
0.0
 10
787.41796875
 20
-643.11328125
 30
0.0
 10
787.517578125
 20
-640.91015625
 30
0.0
 10
787.625
 20
-638.578125
 30
0.0
 10
787.76171875
 20
-635.494140625
 30
0.0
 10
787.904296875
 20
-632.32421875
 30
0.0
 10
787.58984375
 20
-629.12109375
 30
0.0
 10
790.6513671875
 20
-625.263671875
 30
0.0
 10
793.5556640625
 20
-621.845703125
 30
0.0
 10
796.41015625
 20
-618.740234375
 30
0.0
 10
796.3525390625
 20
-626.31640625
 30
0.0
 10
798.3701171875
 20
-633.78515625
 30
0.0
 10
802.21875
 20
-639.25
 30
0.0
 10
804.150390625
 20
-642.00390625
 30
0.0
 10
807.970703125
 20
-643.255859375
 30
0.0
 10
810.91015625
 20
-642.060546875
 30
0.0
 10
812.169921875
 20
-641.552734375
 30
0.0
 10
812.978515625
 20
-640.90234375
 30
0.0
 10
813.6787109375
 20
-640.265625
 30
0.0
 10
815.681640625
 20
-638.419921875
 30
0.0
 10
816.390625
 20
-635.0859375
 30
0.0
 10
815.33203125
 20
-632.51171875
 30
0.0
 10
815.33203125
 20
-632.51171875
 30
0.0
 10
815.1455078125
 20
-632.046875
 30
0.0
 10
815.1455078125
 20
-632.046875
 30
0.0
 10
813.0712890625
 20
-626.98828125
 30
0.0
 10
811.275390625
 20
-622.6171875
 30
0.0
 10
811.3466796875
 20
-617.423828125
 30
0.0
 10
811.41796875
 20
-611.98046875
 30
0.0
 10
813.4716796875
 20
-606.857421875
 30
0.0
 10
815.5029296875
 20
-601.892578125
 30
0.0
 10
816.7978515625
 20
-601.005859375
 30
0.0
 10
818.107421875
 20
-600.1484375
 30
0.0
 10
819.458984375
 20
-599.33203125
 30
0.0
 10
828.9306640625
 20
-593.630859375
 30
0.0
 10
840.455078125
 20
-590.353515625
 30
0.0
 10
851.0712890625
 20
-590.353515625
 30
0.0
 10
861.708984375
 20
-590.353515625
 30
0.0
 10
880.5517578125
 20
-593.623046875
 30
0.0
 10
887.1904296875
 20
-615.52734375
 30
0.0
 10
891.16015625
 20
-628.6328125
 30
0.0
 10
886.388671875
 20
-643.306640625
 30
0.0
 10
875.8515625
 20
-650.41015625
 30
0.0
 10
869.3994140625
 20
-654.751953125
 30
0.0
 10
862.216796875
 20
-655.16015625
 30
0.0
 10
856.400390625
 20
-651.482421875
 30
0.0
 10
853.353515625
 20
-649.515625
 30
0.0
 10
851.0283203125
 20
-646.91796875
 30
0.0
 10
849.240234375
 20
-643.45703125
 30
0.0
 10
849.0615234375
 20
-643.126953125
 30
0.0
 10
848.896484375
 20
-642.8046875
 30
0.0
 10
848.75390625
 20
-642.482421875
 30
0.0
 10
848.7822265625
 20
-642.482421875
 30
0.0
 10
848.818359375
 20
-642.482421875
 30
0.0
 10
848.853515625
 20
-642.482421875
 30
0.0
 10
854.140625
 20
-642.482421875
 30
0.0
 10
859.1337890625
 20
-640.0859375
 30
0.0
 10
862.203125
 20
-636.06640625
 30
0.0
 10
865.3359375
 20
-631.966796875
 30
0.0
 10
866.1796875
 20
-626.509765625
 30
0.0
 10
864.599609375
 20
-620.685546875
 30
0.0
 10
862.6103515625
 20
-613.3828125
 30
0.0
 10
856.451171875
 20
-608.66796875
 30
0.0
 10
848.904296875
 20
-608.66796875
 30
0.0
 10
846.220703125
 20
-608.66796875
 30
0.0
 10
843.474609375
 20
-609.275390625
 30
0.0
 10
840.94921875
 20
-610.44140625
 30
0.0
 10
829.6103515625
 20
-615.671875
 30
0.0
 10
826.34765625
 20
-629.1484375
 30
0.0
 10
826.9990234375
 20
-639.099609375
 30
0.0
 10
828.30078125
 20
-659.130859375
 30
0.0
 10
845.126953125
 20
-675.41796875
 30
0.0
 10
864.513671875
 20
-675.41796875
 30
0.0
 10
866.73828125
 20
-675.41796875
 30
0.0
 10
868.9765625
 20
-675.197265625
 30
0.0
 10
871.1591796875
 20
-674.759765625
 30
0.0
 10
891.6474609375
 20
-670.67578125
 30
0.0
 10
908.12890625
 20
-649.38671875
 30
0.0
 10
908.6796875
 20
-626.294921875
 30
0.0
 10
909.23828125
 20
-603.224609375
 30
0.0
 10
894.787109375
 20
-581.46875
 30
0.0
 10
873.5341796875
 20
-573.400390625
 30
0.0
 10
869.7421875
 20
-571.962890625
 30
0.0
 10
865.779296875
 20
-570.91796875
 30
0.0
 10
861.708984375
 20
-570.28125
 30
0.0
 10
861.708984375
 20
-570.28125
 30
0.0
 10
861.708984375
 20
-569.373046875
 30
0.0
 10
861.708984375
 20
-569.373046875
 30
0.0
 10
861.708984375
 20
-569.373046875
 30
0.0
 10
94.546875
 20
-569.373046875
 30
0.0
 10
94.546875
 20
-569.373046875
 30
0.0
 10
94.546875
 20
-569.373046875
 30
0.0
 10
94.546875
 20
-585.740234375
 30
0.0
 10
94.546875
 20
-585.740234375
 30
0.0
 10
94.546875
 20
-585.740234375
 30
0.0
 10
205.38671875
 20
-585.740234375
 30
0.0
 10
205.38671875
 20
-585.740234375
 30
0.0
 10
205.38671875
 20
-585.740234375
 30
0.0
 10
205.38671875
 20
-601.263671875
 30
0.0
 10
205.38671875
 20
-601.263671875
 30
0.0
 10
204.69970703125
 20
-601.775390625
 30
0.0
 10
203.9912109375
 20
-602.25
 30
0.0
 10
203.3115234375
 20
-602.7734375
 30
0.0
 10
195.11376953125
 20
-606.572265625
 30
0.0
 10
188.21044921875
 20
-609.455078125
 30
0.0
 10
180.8134765625
 20
-609.455078125
 30
0.0
 10
177.2939453125
 20
-609.455078125
 30
0.0
 10
173.87451171875
 20
-608.802734375
 30
0.0
 10
170.3544921875
 20
-607.458984375
 30
0.0
 10
166.1123046875
 20
-605.833984375
 30
0.0
 10
160.59716796875
 20
-603.595703125
 30
0.0
 10
155.6181640625
 20
-600.65625
 30
0.0
 10
155.6181640625
 20
-600.65625
 30
0.0
 10
153.77978515625
 20
-599.5546875
 30
0.0
 10
153.77978515625
 20
-599.5546875
 30
0.0
 10
150.13134765625
 20
-597.322265625
 30
0.0
 10
146.68310546875
 20
-595.21875
 30
0.0
 10
140.94580078125
 20
-595.060546875
 30
0.0
 10
138.2705078125
 20
-595.060546875
 30
0.0
 10
135.759765625
 20
-596.298828125
 30
0.0
 10
134.056640625
 20
-598.4453125
 30
0.0
 10
132.26123046875
 20
-600.712890625
 30
0.0
 10
131.58203125
 20
-603.732421875
 30
0.0
 10
132.2470703125
 20
-606.513671875
 30
0.0
 10
136.4462890625
 20
-624.09765625
 30
0.0
 10
160.22509765625
 20
-625.46484375
 30
0.0
 10
167.41455078125
 20
-625.46484375
 30
0.0
 10
169.7822265625
 20
-625.46484375
 30
0.0
 10
172.07861328125
 20
-625.34375
 30
0.0
 10
174.24609375
 20
-625.099609375
 30
0.0
 10
176.01318359375
 20
-624.90625
 30
0.0
 10
178.14501953125
 20
-624.60546875
 30
0.0
 10
180.5126953125
 20
-624.140625
 30
0.0
 10
179.50439453125
 20
-625.314453125
 30
0.0
 10
178.51708984375
 20
-626.509765625
 30
0.0
 10
177.55126953125
 20
-627.724609375
 30
0.0
 10
176.7646484375
 20
-628.01171875
 30
0.0
 10
176.07763671875
 20
-628.51171875
 30
0.0
 10
175.5625
 20
-629.19921875
 30
0.0
 10
172.9013671875
 20
-632.7265625
 30
0.0
 10
170.1689453125
 20
-636.544921875
 30
0.0
 10
167.3359375
 20
-640.494140625
 30
0.0
 10
149.6162109375
 20
-665.232421875
 30
0.0
 10
129.5283203125
 20
-693.423828125
 30
0.0
 10
99.18994140625
 20
-691.15625
 30
0.0
 10
92.494140625
 20
-690.634765625
 30
0.0
 10
87.7080078125
 20
-695.119140625
 30
0.0
 10
87.40771484375
 20
-701.666015625
 30
0.0
 10
87.1357421875
 20
-707.568359375
 30
0.0
 10
90.99169921875
 20
-714.228515625
 30
0.0
 10
98.6748046875
 20
-714.935546875
 30
0.0
 10
118.5478515625
 20
-716.78125
 30
0.0
 10
132.50439453125
 20
-704.333984375
 30
0.0
 10
143.3349609375
 20
-692.193359375
 30
0.0
 10
145.7744140625
 20
-689.4609375
 30
0.0
 10
148.271484375
 20
-686.650390625
 30
0.0
 10
150.7822265625
 20
-683.767578125
 30
0.0
 10
145.9248046875
 20
-707.83203125
 30
0.0
 10
149.25146484375
 20
-731.267578125
 30
0.0
 10
160.5830078125
 20
-751.126953125
 30
0.0
 10
163.58740234375
 20
-756.3984375
 30
0.0
 10
167.2431640625
 20
-761.4140625
 30
0.0
 10
171.470703125
 20
-766.048828125
 30
0.0
 10
171.599609375
 20
-768.57421875
 30
0.0
 10
171.9140625
 20
-771.056640625
 30
0.0
 10
172.21484375
 20
-773.474609375
 30
0.0
 10
172.59375
 20
-776.46484375
 30
0.0
 10
172.95166015625
 20
-779.283203125
 30
0.0
 10
172.958984375
 20
-782.080078125
 30
0.0
 10
172.9873046875
 20
-790.8359375
 30
0.0
 10
170.93408203125
 20
-798.43359375
 30
0.0
 10
166.298828125
 20
-806.716796875
 30
0.0
 10
166.01953125
 20
-807.224609375
 30
0.0
 10
165.6044921875
 20
-807.904296875
 30
0.0
 10
165.111328125
 20
-808.728515625
 30
0.0
 10
159.66015625
 20
-817.76953125
 30
0.0
 10
154.1513671875
 20
-827.96484375
 30
0.0
 10
157.7998046875
 20
-834.416015625
 30
0.0
 10
158.958984375
 20
-836.470703125
 30
0.0
 10
161.505859375
 20
-838.91015625
 30
0.0
 10
167.078125
 20
-838.91015625
 30
0.0
 10
167.421875
 20
-838.91015625
 30
0.0
 10
167.7724609375
 20
-838.90234375
 30
0.0
 10
168.1298828125
 20
-838.880859375
 30
0.0
 10
185.298828125
 20
-838.037109375
 30
0.0
 10
187.9814453125
 20
-809.943359375
 30
0.0
 10
188.9970703125
 20
-799.37109375
 30
0.0
 10
189.46240234375
 20
-794.548828125
 30
0.0
 10
190.0986328125
 20
-787.9609375
 30
0.0
 10
189.8486328125
 20
-781.244140625
 30
0.0
 10
193.8330078125
 20
-783.685546875
 30
0.0
 10
198.00732421875
 20
-785.740234375
 30
0.0
 10
202.28173828125
 20
-787.474609375
 30
0.0
 10
201.6376953125
 20
-794.224609375
 30
0.0
 10
200.8974609375
 20
-799.7109375
 30
0.0
 10
200.05322265625
 20
-803.849609375
 30
0.0
 10
196.494140625
 20
-821.24609375
 30
0.0
 10
188.45361328125
 20
-834.06640625
 30
0.0
 10
175.927734375
 20
-842.28515625
 30
0.0
 10
163.38720703125
 20
-850.51953125
 30
0.0
 10
140.85302734375
 20
-854.6328125
 30
0.0
 10
108.310546875
 20
-854.6328125
 30
0.0
 10
108.310546875
 20
-854.6328125
 30
0.0
 10
84.7431640625
 20
-854.6328125
 30
0.0
 10
84.7431640625
 20
-854.6328125
 30
0.0
 10
84.7431640625
 20
-854.6328125
 30
0.0
 10
84.7431640625
 20
-880.443359375
 30
0.0
 10
84.7431640625
 20
-880.443359375
 30
0.0
 10
84.7431640625
 20
-880.443359375
 30
0.0
 10
426.470703125
 20
-880.443359375
 30
0.0
 10
426.470703125
 20
-880.443359375
 30
0.0
 10
426.470703125
 20
-880.443359375
 30
0.0
 10
426.470703125
 20
-854.6328125
 30
0.0
 10
426.470703125
 20
-854.6328125
 30
0.0
 10
426.470703125
 20
-854.6328125
 30
0.0
 10
411.8779296875
 20
-854.6328125
 30
0.0
 10
411.8779296875
 20
-854.6328125
 30
0.0
 10
377.4609375
 20
-854.6328125
 30
0.0
 10
354.1689453125
 20
-850.140625
 30
0.0
 10
342.02197265625
 20
-841.162109375
 30
0.0
 10
329.8603515625
 20
-832.185546875
 30
0.0
 10
322.28515625
 20
-818.443359375
 30
0.0
 10
319.294921875
 20
-799.921875
 30
0.0
 10
318.8798828125
 20
-797.375
 30
0.0
 10
318.50048828125
 20
-794.39453125
 30
0.0
 10
318.142578125
 20
-791.064453125
 30
0.0
 10
318.2646484375
 20
-790.4921875
 30
0.0
 10
318.3505859375
 20
-789.90625
 30
0.0
 10
318.3642578125
 20
-789.298828125
 30
0.0
 10
318.421875
 20
-787.14453125
 30
0.0
 10
318.08203125
 20
-785.259765625
 30
0.0
 10
317.44921875
 20
-783.5859375
 30
0.0
 10
315.685546875
 20
-762.0
 30
0.0
 10
314.8017578125
 20
-728.291015625
 30
0.0
 10
314.8017578125
 20
-682.365234375
 30
0.0
 10
314.8017578125
 20
-682.365234375
 30
0.0
 10
314.8017578125
 20
-659.380859375
 30
0.0
 10
314.8017578125
 20
-659.380859375
 30
0.0
 10
337.486328125
 20
-681.228515625
 30
0.0
 10
367.328125
 20
-693.57421875
 30
0.0
 10
398.4287109375
 20
-693.57421875
 30
0.0
 10
412.5859375
 20
-693.57421875
 30
0.0
 10
427.0
 20
-691.099609375
 30
0.0
 10
441.265625
 20
-686.212890625
 30
0.0
 10
441.265625
 20
-686.212890625
 30
0.0
 10
441.55078125
 20
-686.11328125
 30
0.0
 10
441.55078125
 20
-686.11328125
 30
0.0
 10
445.9580078125
 20
-688.646484375
 30
0.0
 10
449.935546875
 20
-691.1640625
 30
0.0
 10
453.669921875
 20
-693.783203125
 30
0.0
 10
470.0302734375
 20
-705.2578125
 30
0.0
 10
480.552734375
 20
-720.3515625
 30
0.0
 10
482.53515625
 20
-735.1875
 30
0.0
 10
484.587890625
 20
-750.603515625
 30
0.0
 10
476.017578125
 20
-764.76171875
 30
0.0
 10
462.154296875
 20
-768.845703125
 30
0.0
 10
456.1162109375
 20
-770.619140625
 30
0.0
 10
452.66796875
 20
-776.02734375
 30
0.0
 10
453.5693359375
 20
-782.294921875
 30
0.0
 10
454.36328125
 20
-787.802734375
 30
0.0
 10
458.748046875
 20
-793.376953125
 30
0.0
 10
465.580078125
 20
-793.376953125
 30
0.0
 10
466.8037109375
 20
-793.376953125
 30
0.0
 10
468.0556640625
 20
-793.189453125
 30
0.0
 10
469.30078125
 20
-792.818359375
 30
0.0
 10
488.2431640625
 20
-787.23828125
 30
0.0
 10
502.228515625
 20
-771.46484375
 30
0.0
 10
506.3203125
 20
-751.69140625
 30
0.0
 10
507.279296875
 20
-752.435546875
 30
0.0
 10
508.216796875
 20
-753.14453125
 30
0.0
 10
509.1103515625
 20
-753.822265625
 30
0.0
 10
509.1103515625
 20
-753.822265625
 30
0.0
 10
510.0625
 20
-754.544921875
 30
0.0
 10
510.0625
 20
-754.544921875
 30
0.0
 10
517.115234375
 20
-759.92578125
 30
0.0
 10
526.529296875
 20
-766.1484375
 30
0.0
 10
537.16796875
 20
-766.513671875
 30
0.0
 10
541.53125
 20
-766.513671875
 30
0.0
 10
545.0791015625
 20
-763.458984375
 30
0.0
 10
545.9951171875
 20
-758.91015625
 30
0.0
 10
546.982421875
 20
-754.001953125
 30
0.0
 10
544.642578125
 20
-749.158203125
 30
0.0
 10
540.4365234375
 20
-747.392578125
 30
0.0
 10
536.802734375
 20
-745.875
 30
0.0
 10
533.0966796875
 20
-745.009765625
 30
0.0
 10
529.5126953125
 20
-744.1796875
 30
0.0
 10
525.62890625
 20
-743.279296875
 30
0.0
 10
521.958984375
 20
-742.419921875
 30
0.0
 10
518.517578125
 20
-740.802734375
 30
0.0
 10
515.755859375
 20
-739.501953125
 30
0.0
 10
513.259765625
 20
-737.51953125
 30
0.0
 10
510.61328125
 20
-735.423828125
 30
0.0
 10
509.4609375
 20
-734.515625
 30
0.0
 10
508.3095703125
 20
-733.607421875
 30
0.0
 10
507.13671875
 20
-732.748046875
 30
0.0
 10
506.9072265625
 20
-730.759765625
 30
0.0
 10
506.578125
 20
-728.798828125
 30
0.0
 10
506.1630859375
 20
-726.904296875
 30
0.0
 10
505.705078125
 20
-724.84375
 30
0.0
 10
505.154296875
 20
-722.8046875
 30
0.0
 10
504.5107421875
 20
-720.794921875
 30
0.0
 10
506.3349609375
 20
-721.509765625
 30
0.0
 10
508.1875
 20
-722.16015625
 30
0.0
 10
510.0263671875
 20
-722.7265625
 30
0.0
 10
515.2841796875
 20
-724.3359375
 30
0.0
 10
520.341796875
 20
-720.322265625
 30
0.0
 10
520.69921875
 20
-714.484375
 30
0.0
 10
521.0
 20
-709.626953125
 30
0.0
 10
517.966796875
 20
-705.830078125
 30
0.0
 10
513.3310546875
 20
-705.2578125
 30
0.0
 10
508.4384765625
 20
-704.6640625
 30
0.0
 10
504.0458984375
 20
-703.998046875
 30
0.0
 10
499.818359375
 20
-701.966796875
 30
0.0
 10
498.22265625
 20
-701.193359375
 30
0.0
 10
496.65625
 20
-700.263671875
 30
0.0
 10
494.99609375
 20
-699.283203125
 30
0.0
 10
493.8515625
 20
-698.603515625
 30
0.0
 10
492.70703125
 20
-697.931640625
 30
0.0
 10
491.548828125
 20
-697.294921875
 30
0.0
 10
484.82421875
 20
-689.125
 30
0.0
 10
476.0322265625
 20
-681.79296875
 30
0.0
 10
465.3515625
 20
-675.42578125
 30
0.0
 10
472.6337890625
 20
-671.154296875
 30
0.0
 10
478.814453125
 20
-666.3046875
 30
0.0
 10
483.80078125
 20
-660.9609375
 30
0.0
 10
497.46484375
 20
-660.671875
 30
0.0
 10
511.4072265625
 20
-657.5625
 30
0.0
 10
524.9990234375
 20
-653.060546875
 30
0.0
 10
524.9990234375
 20
-653.060546875
 30
0.0
 10
584.1455078125
 20
-712.66796875
 30
0.0
 10
584.1455078125
 20
-712.66796875
 30
0.0
 10
638.3779296875
 20
-766.9140625
 30
0.0
 10
665.5048828125
 20
-801.888671875
 30
0.0
 10
665.5048828125
 20
-817.59765625
 30
0.0
 10
665.5048828125
 20
-828.078125
 30
0.0
 10
660.267578125
 20
-836.87109375
 30
0.0
 10
649.794921875
 20
-843.974609375
 30
0.0
  0
SPLINE
  5
49
330
3C
100
AcDbEntity
  8
Layer 1
370
     0
100
AcDbSpline
210
0.0
220
0.0
230
1.0
 70
    11
 71
     3
 72
    32
 73
    28
 74
     0
 42
0.0000000001
 43
0.0000000001
 40
0.0
 40
0.0
 40
0.0
 40
0.0
 40
1.0
 40
1.0
 40
1.0
 40
2.0
 40
2.0
 40
2.0
 40
3.0
 40
3.0
 40
3.0
 40
4.0
 40
4.0
 40
4.0
 40
5.0
 40
5.0
 40
5.0
 40
6.0
 40
6.0
 40
6.0
 40
7.0
 40
7.0
 40
7.0
 40
8.0
 40
8.0
 40
8.0
 40
9.0
 40
9.0
 40
9.0
 40
9.0
 10
805.57421875
 20
-585.740234375
 30
0.0
 10
804.1005859375
 20
-586.77734375
 30
0.0
 10
802.6552734375
 20
-587.865234375
 30
0.0
 10
801.2314453125
 20
-588.994140625
 30
0.0
 10
784.857421875
 20
-601.978515625
 30
0.0
 10
773.052734375
 20
-619.3203125
 30
0.0
 10
761.642578125
 20
-636.095703125
 30
0.0
 10
756.2705078125
 20
-643.986328125
 30
0.0
 10
750.7197265625
 20
-652.1484375
 30
0.0
 10
744.78125
 20
-659.703125
 30
0.0
 10
734.3876953125
 20
-672.935546875
 30
0.0
 10
722.3623046875
 20
-682.826171875
 30
0.0
 10
709.087890625
 20
-689.236328125
 30
0.0
 10
709.087890625
 20
-689.236328125
 30
0.0
 10
704.8212890625
 20
-684.92578125
 30
0.0
 10
704.8212890625
 20
-684.92578125
 30
0.0
 10
723.013671875
 20
-682.8984375
 30
0.0
 10
740.310546875
 20
-668.666015625
 30
0.0
 10
747.03515625
 20
-649.564453125
 30
0.0
 10
754.8828125
 20
-627.28125
 30
0.0
 10
748.6162109375
 20
-602.494140625
 30
0.0
 10
731.43359375
 20
-587.87109375
 30
0.0
 10
730.57421875
 20
-587.134765625
 30
0.0
 10
729.6875
 20
-586.427734375
 30
0.0
 10
728.771484375
 20
-585.740234375
 30
0.0
 10
728.771484375
 20
-585.740234375
 30
0.0
 10
805.57421875
 20
-585.740234375
 30
0.0
 10
805.57421875
 20
-585.740234375
 30
0.0
  0
SPLINE
  5
4A
330
3C
100
AcDbEntity
  8
Layer 1
370
     0
100
AcDbSpline
210
0.0
220
0.0
230
1.0
 70
    11
 71
     3
 72
    41
 73
    37
 74
     0
 42
0.0000000001
 43
0.0000000001
 40
0.0
 40
0.0
 40
0.0
 40
0.0
 40
1.0
 40
1.0
 40
1.0
 40
2.0
 40
2.0
 40
2.0
 40
3.0
 40
3.0
 40
3.0
 40
4.0
 40
4.0
 40
4.0
 40
5.0
 40
5.0
 40
5.0
 40
6.0
 40
6.0
 40
6.0
 40
7.0
 40
7.0
 40
7.0
 40
8.0
 40
8.0
 40
8.0
 40
9.0
 40
9.0
 40
9.0
 40
10.0
 40
10.0
 40
10.0
 40
11.0
 40
11.0
 40
11.0
 40
12.0
 40
12.0
 40
12.0
 40
12.0
 10
709.349609375
 20
-600.7265625
 30
0.0
 10
724.0078125
 20
-608.82421875
 30
0.0
 10
730.1884765625
 20
-625.650390625
 30
0.0
 10
724.38671875
 20
-641.6328125
 30
0.0
 10
721.267578125
 20
-650.216796875
 30
0.0
 10
715.3515625
 20
-656.482421875
 30
0.0
 10
707.71875
 20
-659.265625
 30
0.0
 10
702.08203125
 20
-661.326171875
 30
0.0
 10
697.904296875
 20
-661.576171875
 30
0.0
 10
694.7490234375
 20
-660.0390625
 30
0.0
 10
692.431640625
 20
-658.916015625
 30
0.0
 10
689.6337890625
 20
-655.96875
 30
0.0
 10
689.1474609375
 20
-653.15625
 30
0.0
 10
688.904296875
 20
-651.76171875
 30
0.0
 10
689.291015625
 20
-650.603515625
 30
0.0
 10
690.349609375
 20
-649.5234375
 30
0.0
 10
694.5126953125
 20
-645.265625
 30
0.0
 10
695.6787109375
 20
-639.9296875
 30
0.0
 10
693.5546875
 20
-634.87890625
 30
0.0
 10
691.3291015625
 20
-629.5859375
 30
0.0
 10
685.9140625
 20
-625.88671875
 30
0.0
 10
680.384765625
 20
-625.88671875
 30
0.0
 10
676.0634765625
 20
-625.88671875
 30
0.0
 10
672.322265625
 20
-628.08984375
 30
0.0
 10
669.853515625
 20
-632.095703125
 30
0.0
 10
667.4140625
 20
-636.048828125
 30
0.0
 10
665.85546875
 20
-640.380859375
 30
0.0
 10
665.103515625
 20
-644.818359375
 30
0.0
 10
665.103515625
 20
-644.818359375
 30
0.0
 10
627.25390625
 20
-606.59375
 30
0.0
 10
627.25390625
 20
-606.59375
 30
0.0
 10
644.9521484375
 20
-599.408203125
 30
0.0
 10
663.115234375
 20
-593.845703125
 30
0.0
 10
680.462890625
 20
-593.845703125
 30
0.0
 10
691.3720703125
 20
-593.845703125
 30
0.0
 10
701.09375
 20
-596.1640625
 30
0.0
 10
709.349609375
 20
-600.7265625
 30
0.0
  0
SPLINE
  5
4B
330
3C
100
AcDbEntity
  8
Layer 1
370
     0
100
AcDbSpline
210
0.0
220
0.0
230
1.0
 70
    11
 71
     3
 72
    14
 73
    10
 74
     0
 42
0.0000000001
 43
0.0000000001
 40
0.0
 40
0.0
 40
0.0
 40
0.0
 40
1.0
 40
1.0
 40
1.0
 40
2.0
 40
2.0
 40
2.0
 40
3.0
 40
3.0
 40
3.0
 40
3.0
 10
625.837890625
 20
-585.740234375
 30
0.0
 10
621.337890625
 20
-587.599609375
 30
0.0
 10
616.90234375
 20
-589.61328125
 30
0.0
 10
612.4990234375
 20
-591.6953125
 30
0.0
 10
612.4990234375
 20
-591.6953125
 30
0.0
 10
606.6015625
 20
-585.740234375
 30
0.0
 10
606.6015625
 20
-585.740234375
 30
0.0
 10
606.6015625
 20
-585.740234375
 30
0.0
 10
625.837890625
 20
-585.740234375
 30
0.0
 10
625.837890625
 20
-585.740234375
 30
0.0
  0
SPLINE
  5
4C
330
3C
100
AcDbEntity
  8
Layer 1
370
     0
100
AcDbSpline
210
0.0
220
0.0
230
1.0
 70
    11
 71
     3
 72
    29
 73
    25
 74
     0
 42
0.0000000001
 43
0.0000000001
 40
0.0
 40
0.0
 40
0.0
 40
0.0
 40
1.0
 40
1.0
 40
1.0
 40
2.0
 40
2.0
 40
2.0
 40
3.0
 40
3.0
 40
3.0
 40
4.0
 40
4.0
 40
4.0
 40
5.0
 40
5.0
 40
5.0
 40
6.0
 40
6.0
 40
6.0
 40
7.0
 40
7.0
 40
7.0
 40
8.0
 40
8.0
 40
8.0
 40
8.0
 10
189.669921875
 20
-745.732421875
 30
0.0
 10
184.56201171875
 20
-746.783203125
 30
0.0
 10
179.6328125
 20
-745.189453125
 30
0.0
 10
174.27490234375
 20
-740.732421875
 30
0.0
 10
164.9462890625
 20
-724.75
 30
0.0
 10
161.30517578125
 20
-704.76953125
 30
0.0
 10
164.28125
 20
-685.8125
 30
0.0
 10
168.47314453125
 20
-659.109375
 30
0.0
 10
182.9736328125
 20
-635.248046875
 30
0.0
 10
205.38671875
 20
-616.998046875
 30
0.0
 10
205.38671875
 20
-616.998046875
 30
0.0
 10
205.38671875
 20
-628.794921875
 30
0.0
 10
205.38671875
 20
-628.794921875
 30
0.0
 10
203.2978515625
 20
-636.78515625
 30
0.0
 10
203.07568359375
 20
-645.126953125
 30
0.0
 10
205.38671875
 20
-652.587890625
 30
0.0
 10
205.38671875
 20
-652.587890625
 30
0.0
 10
205.38671875
 20
-682.365234375
 30
0.0
 10
205.38671875
 20
-682.365234375
 30
0.0
 10
205.38671875
 20
-702.599609375
 30
0.0
 10
205.2001953125
 20
-720.47265625
 30
0.0
 10
204.8427734375
 20
-736.03125
 30
0.0
 10
200.25
 20
-740.822265625
 30
0.0
 10
195.53564453125
 20
-744.51953125
 30
0.0
 10
189.669921875
 20
-745.732421875
 30
0.0
  0
SPLINE
  5
4D
330
3C
100
AcDbEntity
  8
Layer 1
370
     0
100
AcDbSpline
210
0.0
220
0.0
230
1.0
 70
    11
 71
     3
 72
    14
 73
    10
 74
     0
 42
0.0000000001
 43
0.0000000001
 40
0.0
 40
0.0
 40
0.0
 40
0.0
 40
1.0
 40
1.0
 40
1.0
 40
2.0
 40
2.0
 40
2.0
 40
3.0
 40
3.0
 40
3.0
 40
3.0
 10
193.57568359375
 20
-762.09375
 30
0.0
 10
197.2099609375
 20
-762.21484375
 30
0.0
 10
200.70068359375
 20
-761.888671875
 30
0.0
 10
204.0126953125
 20
-761.212890625
 30
0.0
 10
203.9091796875
 20
-763.52734375
 30
0.0
 10
203.8017578125
 20
-765.78515625
 30
0.0
 10
203.68359375
 20
-767.9453125
 30
0.0
 10
200.142578125
 20
-766.306640625
 30
0.0
 10
196.7626953125
 20
-764.36328125
 30
0.0
 10
193.57568359375
 20
-762.09375
 30
0.0
  0
SPLINE
  5
4E
330
3C
100
AcDbEntity
  8
Layer 1
370
     0
100
AcDbSpline
210
0.0
220
0.0
230
1.0
 70
    11
 71
     3
 72
    20
 73
    16
 74
     0
 42
0.0000000001
 43
0.0000000001
 40
0.0
 40
0.0
 40
0.0
 40
0.0
 40
1.0
 40
1.0
 40
1.0
 40
2.0
 40
2.0
 40
2.0
 40
3.0
 40
3.0
 40
3.0
 40
4.0
 40
4.0
 40
4.0
 40
5.0
 40
5.0
 40
5.0
 40
5.0
 10
368.3115234375
 20
-676.333984375
 30
0.0
 10
357.9814453125
 20
-673.365234375
 30
0.0
 10
345.5126953125
 20
-665.875
 30
0.0
 10
333.64501953125
 20
-655.66796875
 30
0.0
 10
336.1484375
 20
-655.982421875
 30
0.0
 10
338.6455078125
 20
-656.275390625
 30
0.0
 10
341.1064453125
 20
-656.568359375
 30
0.0
 10
344.61865234375
 20
-656.990234375
 30
0.0
 10
348.109375
 20
-657.40625
 30
0.0
 10
351.56494140625
 20
-657.857421875
 30
0.0
 10
377.7119140625
 20
-661.25390625
 30
0.0
 10
401.3330078125
 20
-667.45703125
 30
0.0
 10
421.943359375
 20
-676.3203125
 30
0.0
 10
403.421875
 20
-680.7265625
 30
0.0
 10
383.7705078125
 20
-680.76953125
 30
0.0
 10
368.3115234375
 20
-676.333984375
 30
0.0
  0
SPLINE
  5
4F
330
3C
100
AcDbEntity
  8
Layer 1
370
     0
100
AcDbSpline
210
0.0
220
0.0
230
1.0
 70
    11
 71
     3
 72
    38
 73
    34
 74
     0
 42
0.0000000001
 43
0.0000000001
 40
0.0
 40
0.0
 40
0.0
 40
0.0
 40
1.0
 40
1.0
 40
1.0
 40
2.0
 40
2.0
 40
2.0
 40
3.0
 40
3.0
 40
3.0
 40
4.0
 40
4.0
 40
4.0
 40
5.0
 40
5.0
 40
5.0
 40
6.0
 40
6.0
 40
6.0
 40
7.0
 40
7.0
 40
7.0
 40
8.0
 40
8.0
 40
8.0
 40
9.0
 40
9.0
 40
9.0
 40
10.0
 40
10.0
 40
10.0
 40
11.0
 40
11.0
 40
11.0
 40
11.0
 10
448.1826171875
 20
-666.712890625
 30
0.0
 10
445.185546875
 20
-665.42578125
 30
0.0
 10
442.080078125
 20
-664.1953125
 30
0.0
 10
438.9404296875
 20
-663.05078125
 30
0.0
 10
410.33203125
 20
-652.591796875
 30
0.0
 10
380.873046875
 20
-648.728515625
 30
0.0
 10
352.38037109375
 20
-644.986328125
 30
0.0
 10
342.9521484375
 20
-643.7421875
 30
0.0
 10
333.201171875
 20
-642.4609375
 30
0.0
 10
323.55078125
 20
-640.958984375
 30
0.0
 10
321.6552734375
 20
-640.666015625
 30
0.0
 10
319.7666015625
 20
-640.34375
 30
0.0
 10
317.8779296875
 20
-639.994140625
 30
0.0
 10
316.8193359375
 20
-638.77734375
 30
0.0
 10
315.79638671875
 20
-637.55859375
 30
0.0
 10
314.8017578125
 20
-636.337890625
 30
0.0
 10
314.8017578125
 20
-636.337890625
 30
0.0
 10
314.8017578125
 20
-585.740234375
 30
0.0
 10
314.8017578125
 20
-585.740234375
 30
0.0
 10
314.8017578125
 20
-585.740234375
 30
0.0
 10
422.5439453125
 20
-585.740234375
 30
0.0
 10
422.5439453125
 20
-585.740234375
 30
0.0
 10
421.2421875
 20
-587.572265625
 30
0.0
 10
420.119140625
 20
-589.525390625
 30
0.0
 10
419.181640625
 20
-591.591796875
 30
0.0
 10
409.7314453125
 20
-612.40234375
 30
0.0
 10
421.1845703125
 20
-636.587890625
 30
0.0
 10
437.7236328125
 20
-647.94140625
 30
0.0
 10
444.86328125
 20
-652.849609375
 30
0.0
 10
452.75390625
 20
-656.396484375
 30
0.0
 10
461.251953125
 20
-658.537109375
 30
0.0
 10
457.33203125
 20
-661.51171875
 30
0.0
 10
452.9541015625
 20
-664.251953125
 30
0.0
 10
448.1826171875
 20
-666.712890625
 30
0.0
  0
SPLINE
  5
50
330
3C
100
AcDbEntity
  8
Layer 1
370
     0
100
AcDbSpline
210
0.0
220
0.0
230
1.0
 70
    11
 71
     3
 72
    29
 73
    25
 74
     0
 42
0.0000000001
 43
0.0000000001
 40
0.0
 40
0.0
 40
0.0
 40
0.0
 40
1.0
 40
1.0
 40
1.0
 40
2.0
 40
2.0
 40
2.0
 40
3.0
 40
3.0
 40
3.0
 40
4.0
 40
4.0
 40
4.0
 40
5.0
 40
5.0
 40
5.0
 40
6.0
 40
6.0
 40
6.0
 40
7.0
 40
7.0
 40
7.0
 40
8.0
 40
8.0
 40
8.0
 40
8.0
 10
476.2392578125
 20
-642.619140625
 30
0.0
 10
461.845703125
 20
-641.99609375
 30
0.0
 10
450.7509765625
 20
-637.861328125
 30
0.0
 10
443.2392578125
 20
-630.30859375
 30
0.0
 10
436.408203125
 20
-623.447265625
 30
0.0
 10
432.5302734375
 20
-613.125
 30
0.0
 10
433.603515625
 20
-604.619140625
 30
0.0
 10
434.3828125
 20
-598.388671875
 30
0.0
 10
437.57421875
 20
-593.57421875
 30
0.0
 10
443.08203125
 20
-590.2890625
 30
0.0
 10
446.8447265625
 20
-588.04296875
 30
0.0
 10
450.8798828125
 20
-586.90625
 30
0.0
 10
455.0576171875
 20
-586.90625
 30
0.0
 10
456.669921875
 20
-586.90625
 30
0.0
 10
458.2763671875
 20
-587.08203125
 30
0.0
 10
459.857421875
 20
-587.41015625
 30
0.0
 10
459.857421875
 20
-587.41015625
 30
0.0
 10
482.5634765625
 20
-610.291015625
 30
0.0
 10
482.5634765625
 20
-610.291015625
 30
0.0
 10
482.6025390625
 20
-610.466796875
 30
0.0
 10
482.66015625
 20
-610.638671875
 30
0.0
 10
482.69921875
 20
-610.814453125
 30
0.0
 10
485.5322265625
 20
-624.048828125
 30
0.0
 10
481.0107421875
 20
-635.1796875
 30
0.0
 10
476.2392578125
 20
-642.619140625
 30
0.0
  0
SPLINE
  5
51
330
3C
100
AcDbEntity
  8
Layer 1
370
     0
100
AcDbSpline
210
0.0
220
0.0
230
1.0
 70
    11
 71
     3
 72
    17
 73
    13
 74
     0
 42
0.0000000001
 43
0.0000000001
 40
0.0
 40
0.0
 40
0.0
 40
0.0
 40
1.0
 40
1.0
 40
1.0
 40
2.0
 40
2.0
 40
2.0
 40
3.0
 40
3.0
 40
3.0
 40
4.0
 40
4.0
 40
4.0
 40
4.0
 10
496.505859375
 20
-641.388671875
 30
0.0
 10
497.5859375
 20
-638.76953125
 30
0.0
 10
498.4873046875
 20
-636.087890625
 30
0.0
 10
499.1884765625
 20
-633.369140625
 30
0.0
 10
499.6357421875
 20
-631.62109375
 30
0.0
 10
499.947265625
 20
-629.857421875
 30
0.0
 10
500.2255859375
 20
-628.08984375
 30
0.0
 10
500.2255859375
 20
-628.08984375
 30
0.0
 10
510.5625
 20
-638.513671875
 30
0.0
 10
510.5625
 20
-638.513671875
 30
0.0
 10
505.9775390625
 20
-639.66796875
 30
0.0
 10
501.3056640625
 20
-640.669921875
 30
0.0
 10
496.505859375
 20
-641.388671875
 30
0.0
  0
HATCH
  5
52
330
3C
100
AcDbEntity
  8
Layer 1
 62
     7
100
AcDbHatch
 10
0.0
 20
0.0
 30
0.0
210
0.0
220
0.0
230
1.0
  2
SOLID
 70
     1
 71
     0
 91
       10
 92
        1
 93
        1
 72
     4
 94
        3
 73
     0
 74
     1
 95
      410
 96
      406
 40
0.0
 40
0.0
 40
0.0
 40
0.0
 40
1.0
 40
1.0
 40
1.0
 40
2.0
 40
2.0
 40
2.0
 40
3.0
 40
3.0
 40
3.0
 40
4.0
 40
4.0
 40
4.0
 40
5.0
 40
5.0
 40
5.0
 40
6.0
 40
6.0
 40
6.0
 40
7.0
 40
7.0
 40
7.0
 40
8.0
 40
8.0
 40
8.0
 40
9.0
 40
9.0
 40
9.0
 40
10.0
 40
10.0
 40
10.0
 40
11.0
 40
11.0
 40
11.0
 40
12.0
 40
12.0
 40
12.0
 40
13.0
 40
13.0
 40
13.0
 40
14.0
 40
14.0
 40
14.0
 40
15.0
 40
15.0
 40
15.0
 40
16.0
 40
16.0
 40
16.0
 40
17.0
 40
17.0
 40
17.0
 40
18.0
 40
18.0
 40
18.0
 40
19.0
 40
19.0
 40
19.0
 40
20.0
 40
20.0
 40
20.0
 40
21.0
 40
21.0
 40
21.0
 40
22.0
 40
22.0
 40
22.0
 40
23.0
 40
23.0
 40
23.0
 40
24.0
 40
24.0
 40
24.0
 40
25.0
 40
25.0
 40
25.0
 40
26.0
 40
26.0
 40
26.0
 40
27.0
 40
27.0
 40
27.0
 40
28.0
 40
28.0
 40
28.0
 40
29.0
 40
29.0
 40
29.0
 40
30.0
 40
30.0
 40
30.0
 40
31.0
 40
31.0
 40
31.0
 40
32.0
 40
32.0
 40
32.0
 40
33.0
 40
33.0
 40
33.0
 40
34.0
 40
34.0
 40
34.0
 40
35.0
 40
35.0
 40
35.0
 40
36.0
 40
36.0
 40
36.0
 40
37.0
 40
37.0
 40
37.0
 40
38.0
 40
38.0
 40
38.0
 40
39.0
 40
39.0
 40
39.0
 40
40.0
 40
40.0
 40
40.0
 40
41.0
 40
41.0
 40
41.0
 40
42.0
 40
42.0
 40
42.0
 40
43.0
 40
43.0
 40
43.0
 40
44.0
 40
44.0
 40
44.0
 40
45.0
 40
45.0
 40
45.0
 40
46.0
 40
46.0
 40
46.0
 40
47.0
 40
47.0
 40
47.0
 40
48.0
 40
48.0
 40
48.0
 40
49.0
 40
49.0
 40
49.0
 40
50.0
 40
50.0
 40
50.0
 40
51.0
 40
51.0
 40
51.0
 40
52.0
 40
52.0
 40
52.0
 40
53.0
 40
53.0
 40
53.0
 40
54.0
 40
54.0
 40
54.0
 40
55.0
 40
55.0
 40
55.0
 40
56.0
 40
56.0
 40
56.0
 40
57.0
 40
57.0
 40
57.0
 40
58.0
 40
58.0
 40
58.0
 40
59.0
 40
59.0
 40
59.0
 40
60.0
 40
60.0
 40
60.0
 40
61.0
 40
61.0
 40
61.0
 40
62.0
 40
62.0
 40
62.0
 40
63.0
 40
63.0
 40
63.0
 40
64.0
 40
64.0
 40
64.0
 40
65.0
 40
65.0
 40
65.0
 40
66.0
 40
66.0
 40
66.0
 40
67.0
 40
67.0
 40
67.0
 40
68.0
 40
68.0
 40
68.0
 40
69.0
 40
69.0
 40
69.0
 40
70.0
 40
70.0
 40
70.0
 40
71.0
 40
71.0
 40
71.0
 40
72.0
 40
72.0
 40
72.0
 40
73.0
 40
73.0
 40
73.0
 40
74.0
 40
74.0
 40
74.0
 40
75.0
 40
75.0
 40
75.0
 40
76.0
 40
76.0
 40
76.0
 40
77.0
 40
77.0
 40
77.0
 40
78.0
 40
78.0
 40
78.0
 40
79.0
 40
79.0
 40
79.0
 40
80.0
 40
80.0
 40
80.0
 40
81.0
 40
81.0
 40
81.0
 40
82.0
 40
82.0
 40
82.0
 40
83.0
 40
83.0
 40
83.0
 40
84.0
 40
84.0
 40
84.0
 40
85.0
 40
85.0
 40
85.0
 40
86.0
 40
86.0
 40
86.0
 40
87.0
 40
87.0
 40
87.0
 40
88.0
 40
88.0
 40
88.0
 40
89.0
 40
89.0
 40
89.0
 40
90.0
 40
90.0
 40
90.0
 40
91.0
 40
91.0
 40
91.0
 40
92.0
 40
92.0
 40
92.0
 40
93.0
 40
93.0
 40
93.0
 40
94.0
 40
94.0
 40
94.0
 40
95.0
 40
95.0
 40
95.0
 40
96.0
 40
96.0
 40
96.0
 40
97.0
 40
97.0
 40
97.0
 40
98.0
 40
98.0
 40
98.0
 40
99.0
 40
99.0
 40
99.0
 40
100.0
 40
100.0
 40
100.0
 40
101.0
 40
101.0
 40
101.0
 40
102.0
 40
102.0
 40
102.0
 40
103.0
 40
103.0
 40
103.0
 40
104.0
 40
104.0
 40
104.0
 40
105.0
 40
105.0
 40
105.0
 40
106.0
 40
106.0
 40
106.0
 40
107.0
 40
107.0
 40
107.0
 40
108.0
 40
108.0
 40
108.0
 40
109.0
 40
109.0
 40
109.0
 40
110.0
 40
110.0
 40
110.0
 40
111.0
 40
111.0
 40
111.0
 40
112.0
 40
112.0
 40
112.0
 40
113.0
 40
113.0
 40
113.0
 40
114.0
 40
114.0
 40
114.0
 40
115.0
 40
115.0
 40
115.0
 40
116.0
 40
116.0
 40
116.0
 40
117.0
 40
117.0
 40
117.0
 40
118.0
 40
118.0
 40
118.0
 40
119.0
 40
119.0
 40
119.0
 40
120.0
 40
120.0
 40
120.0
 40
121.0
 40
121.0
 40
121.0
 40
122.0
 40
122.0
 40
122.0
 40
123.0
 40
123.0
 40
123.0
 40
124.0
 40
124.0
 40
124.0
 40
125.0
 40
125.0
 40
125.0
 40
126.0
 40
126.0
 40
126.0
 40
127.0
 40
127.0
 40
127.0
 40
128.0
 40
128.0
 40
128.0
 40
129.0
 40
129.0
 40
129.0
 40
130.0
 40
130.0
 40
130.0
 40
131.0
 40
131.0
 40
131.0
 40
132.0
 40
132.0
 40
132.0
 40
133.0
 40
133.0
 40
133.0
 40
134.0
 40
134.0
 40
134.0
 40
135.0
 40
135.0
 40
135.0
 40
135.0
 10
649.794921875
 20
-843.974609375
 10
639.322265625
 20
-851.083984375
 10
612.7607421875
 20
-854.6328125
 10
570.1171875
 20
-854.6328125
 10
570.1171875
 20
-854.6328125
 10
554.9658203125
 20
-854.6328125
 10
554.9658203125
 20
-854.6328125
 10
554.9658203125
 20
-854.6328125
 10
554.9658203125
 20
-880.443359375
 10
554.9658203125
 20
-880.443359375
 10
554.9658203125
 20
-880.443359375
 10
950.0
 20
-880.443359375
 10
950.0
 20
-880.443359375
 10
950.0
 20
-880.443359375
 10
950.0
 20
-854.6328125
 10
950.0
 20
-854.6328125
 10
914.83203125
 20
-854.6328125
 10
886.2177734375
 20
-847.71484375
 10
864.1484375
 20
-833.873046875
 10
842.072265625
 20
-820.037109375
 10
798.4921875
 20
-780.005859375
 10
733.4072265625
 20
-713.791015625
 10
733.4072265625
 20
-713.791015625
 10
721.625
 20
-701.89453125
 10
721.625
 20
-701.89453125
 10
727.3623046875
 20
-698.685546875
 10
732.9033203125
 20
-694.791015625
 10
738.3291015625
 20
-690.0546875
 10
737.01953125
 20
-699.791015625
 10
736.626953125
 20
-711.30859375
 10
741.333984375
 20
-720.9375
 10
743.072265625
 20
-724.470703125
 10
746.333984375
 20
-726.49609375
 10
750.296875
 20
-726.49609375
 10
753.7099609375
 20
-726.49609375
 10
757.1435546875
 20
-724.958984375
 10
759.490234375
 20
-722.3828125
 10
761.5712890625
 20
-720.1015625
 10
762.56640625
 20
-717.232421875
 10
762.287109375
 20
-714.3125
 10
761.8505859375
 20
-709.65625
 10
760.669921875
 20
-705.263671875
 10
759.525390625
 20
-701.0078125
 10
758.2666015625
 20
-696.322265625
 10
757.0791015625
 20
-691.89453125
 10
756.8427734375
 20
-687.23046875
 10
756.6572265625
 20
-683.48046875
 10
757.34375
 20
-679.66796875
 10
758.0732421875
 20
-675.6328125
 10
758.56640625
 20
-672.921875
 10
759.0751953125
 20
-670.125
 10
759.310546875
 20
-667.28515625
 10
763.3388671875
 20
-662.126953125
 10
767.251953125
 20
-656.740234375
 10
771.0576171875
 20
-651.453125
 10
771.107421875
 20
-658.435546875
 10
772.109375
 20
-664.595703125
 10
772.724609375
 20
-667.75
 10
773.58203125
 20
-672.12109375
 10
777.0947265625
 20
-674.947265625
 10
781.673828125
 20
-674.947265625
 10
785.3076171875
 20
-674.947265625
 10
788.9130859375
 20
-673.123046875
 10
790.8447265625
 20
-670.296875
 10
792.576171875
 20
-667.779296875
 10
792.890625
 20
-664.74609375
 10
791.7314453125
 20
-661.755859375
 10
789.564453125
 20
-656.146484375
 10
787.75390625
 20
-651.0390625
 10
787.5107421875
 20
-645.2734375
 10
787.41796875
 20
-643.11328125
 10
787.517578125
 20
-640.91015625
 10
787.625
 20
-638.578125
 10
787.76171875
 20
-635.494140625
 10
787.904296875
 20
-632.32421875
 10
787.58984375
 20
-629.12109375
 10
790.6513671875
 20
-625.263671875
 10
793.5556640625
 20
-621.845703125
 10
796.41015625
 20
-618.740234375
 10
796.3525390625
 20
-626.31640625
 10
798.3701171875
 20
-633.78515625
 10
802.21875
 20
-639.25
 10
804.150390625
 20
-642.00390625
 10
807.970703125
 20
-643.255859375
 10
810.91015625
 20
-642.060546875
 10
812.169921875
 20
-641.552734375
 10
812.978515625
 20
-640.90234375
 10
813.6787109375
 20
-640.265625
 10
815.681640625
 20
-638.419921875
 10
816.390625
 20
-635.0859375
 10
815.33203125
 20
-632.51171875
 10
815.33203125
 20
-632.51171875
 10
815.1455078125
 20
-632.046875
 10
815.1455078125
 20
-632.046875
 10
813.0712890625
 20
-626.98828125
 10
811.275390625
 20
-622.6171875
 10
811.3466796875
 20
-617.423828125
 10
811.41796875
 20
-611.98046875
 10
813.4716796875
 20
-606.857421875
 10
815.5029296875
 20
-601.892578125
 10
816.7978515625
 20
-601.005859375
 10
818.107421875
 20
-600.1484375
 10
819.458984375
 20
-599.33203125
 10
828.9306640625
 20
-593.630859375
 10
840.455078125
 20
-590.353515625
 10
851.0712890625
 20
-590.353515625
 10
861.708984375
 20
-590.353515625
 10
880.5517578125
 20
-593.623046875
 10
887.1904296875
 20
-615.52734375
 10
891.16015625
 20
-628.6328125
 10
886.388671875
 20
-643.306640625
 10
875.8515625
 20
-650.41015625
 10
869.3994140625
 20
-654.751953125
 10
862.216796875
 20
-655.16015625
 10
856.400390625
 20
-651.482421875
 10
853.353515625
 20
-649.515625
 10
851.0283203125
 20
-646.91796875
 10
849.240234375
 20
-643.45703125
 10
849.0615234375
 20
-643.126953125
 10
848.896484375
 20
-642.8046875
 10
848.75390625
 20
-642.482421875
 10
848.7822265625
 20
-642.482421875
 10
848.818359375
 20
-642.482421875
 10
848.853515625
 20
-642.482421875
 10
854.140625
 20
-642.482421875
 10
859.1337890625
 20
-640.0859375
 10
862.203125
 20
-636.06640625
 10
865.3359375
 20
-631.966796875
 10
866.1796875
 20
-626.509765625
 10
864.599609375
 20
-620.685546875
 10
862.6103515625
 20
-613.3828125
 10
856.451171875
 20
-608.66796875
 10
848.904296875
 20
-608.66796875
 10
846.220703125
 20
-608.66796875
 10
843.474609375
 20
-609.275390625
 10
840.94921875
 20
-610.44140625
 10
829.6103515625
 20
-615.671875
 10
826.34765625
 20
-629.1484375
 10
826.9990234375
 20
-639.099609375
 10
828.30078125
 20
-659.130859375
 10
845.126953125
 20
-675.41796875
 10
864.513671875
 20
-675.41796875
 10
866.73828125
 20
-675.41796875
 10
868.9765625
 20
-675.197265625
 10
871.1591796875
 20
-674.759765625
 10
891.6474609375
 20
-670.67578125
 10
908.12890625
 20
-649.38671875
 10
908.6796875
 20
-626.294921875
 10
909.23828125
 20
-603.224609375
 10
894.787109375
 20
-581.46875
 10
873.5341796875
 20
-573.400390625
 10
869.7421875
 20
-571.962890625
 10
865.779296875
 20
-570.91796875
 10
861.708984375
 20
-570.28125
 10
861.708984375
 20
-570.28125
 10
861.708984375
 20
-569.373046875
 10
861.708984375
 20
-569.373046875
 10
861.708984375
 20
-569.373046875
 10
94.546875
 20
-569.373046875
 10
94.546875
 20
-569.373046875
 10
94.546875
 20
-569.373046875
 10
94.546875
 20
-585.740234375
 10
94.546875
 20
-585.740234375
 10
94.546875
 20
-585.740234375
 10
205.38671875
 20
-585.740234375
 10
205.38671875
 20
-585.740234375
 10
205.38671875
 20
-585.740234375
 10
205.38671875
 20
-601.263671875
 10
205.38671875
 20
-601.263671875
 10
204.69970703125
 20
-601.775390625
 10
203.9912109375
 20
-602.25
 10
203.3115234375
 20
-602.7734375
 10
195.11376953125
 20
-606.572265625
 10
188.21044921875
 20
-609.455078125
 10
180.8134765625
 20
-609.455078125
 10
177.2939453125
 20
-609.455078125
 10
173.87451171875
 20
-608.802734375
 10
170.3544921875
 20
-607.458984375
 10
166.1123046875
 20
-605.833984375
 10
160.59716796875
 20
-603.595703125
 10
155.6181640625
 20
-600.65625
 10
155.6181640625
 20
-600.65625
 10
153.77978515625
 20
-599.5546875
 10
153.77978515625
 20
-599.5546875
 10
150.13134765625
 20
-597.322265625
 10
146.68310546875
 20
-595.21875
 10
140.94580078125
 20
-595.060546875
 10
138.2705078125
 20
-595.060546875
 10
135.759765625
 20
-596.298828125
 10
134.056640625
 20
-598.4453125
 10
132.26123046875
 20
-600.712890625
 10
131.58203125
 20
-603.732421875
 10
132.2470703125
 20
-606.513671875
 10
136.4462890625
 20
-624.09765625
 10
160.22509765625
 20
-625.46484375
 10
167.41455078125
 20
-625.46484375
 10
169.7822265625
 20
-625.46484375
 10
172.07861328125
 20
-625.34375
 10
174.24609375
 20
-625.099609375
 10
176.01318359375
 20
-624.90625
 10
178.14501953125
 20
-624.60546875
 10
180.5126953125
 20
-624.140625
 10
179.50439453125
 20
-625.314453125
 10
178.51708984375
 20
-626.509765625
 10
177.55126953125
 20
-627.724609375
 10
176.7646484375
 20
-628.01171875
 10
176.07763671875
 20
-628.51171875
 10
175.5625
 20
-629.19921875
 10
172.9013671875
 20
-632.7265625
 10
170.1689453125
 20
-636.544921875
 10
167.3359375
 20
-640.494140625
 10
149.6162109375
 20
-665.232421875
 10
129.5283203125
 20
-693.423828125
 10
99.18994140625
 20
-691.15625
 10
92.494140625
 20
-690.634765625
 10
87.7080078125
 20
-695.119140625
 10
87.40771484375
 20
-701.666015625
 10
87.1357421875
 20
-707.568359375
 10
90.99169921875
 20
-714.228515625
 10
98.6748046875
 20
-714.935546875
 10
118.5478515625
 20
-716.78125
 10
132.50439453125
 20
-704.333984375
 10
143.3349609375
 20
-692.193359375
 10
145.7744140625
 20
-689.4609375
 10
148.271484375
 20
-686.650390625
 10
150.7822265625
 20
-683.767578125
 10
145.9248046875
 20
-707.83203125
 10
149.25146484375
 20
-731.267578125
 10
160.5830078125
 20
-751.126953125
 10
163.58740234375
 20
-756.3984375
 10
167.2431640625
 20
-761.4140625
 10
171.470703125
 20
-766.048828125
 10
171.599609375
 20
-768.57421875
 10
171.9140625
 20
-771.056640625
 10
172.21484375
 20
-773.474609375
 10
172.59375
 20
-776.46484375
 10
172.95166015625
 20
-779.283203125
 10
172.958984375
 20
-782.080078125
 10
172.9873046875
 20
-790.8359375
 10
170.93408203125
 20
-798.43359375
 10
166.298828125
 20
-806.716796875
 10
166.01953125
 20
-807.224609375
 10
165.6044921875
 20
-807.904296875
 10
165.111328125
 20
-808.728515625
 10
159.66015625
 20
-817.76953125
 10
154.1513671875
 20
-827.96484375
 10
157.7998046875
 20
-834.416015625
 10
158.958984375
 20
-836.470703125
 10
161.505859375
 20
-838.91015625
 10
167.078125
 20
-838.91015625
 10
167.421875
 20
-838.91015625
 10
167.7724609375
 20
-838.90234375
 10
168.1298828125
 20
-838.880859375
 10
185.298828125
 20
-838.037109375
 10
187.9814453125
 20
-809.943359375
 10
188.9970703125
 20
-799.37109375
 10
189.46240234375
 20
-794.548828125
 10
190.0986328125
 20
-787.9609375
 10
189.8486328125
 20
-781.244140625
 10
193.8330078125
 20
-783.685546875
 10
198.00732421875
 20
-785.740234375
 10
202.28173828125
 20
-787.474609375
 10
201.6376953125
 20
-794.224609375
 10
200.8974609375
 20
-799.7109375
 10
200.05322265625
 20
-803.849609375
 10
196.494140625
 20
-821.24609375
 10
188.45361328125
 20
-834.06640625
 10
175.927734375
 20
-842.28515625
 10
163.38720703125
 20
-850.51953125
 10
140.85302734375
 20
-854.6328125
 10
108.310546875
 20
-854.6328125
 10
108.310546875
 20
-854.6328125
 10
84.7431640625
 20
-854.6328125
 10
84.7431640625
 20
-854.6328125
 10
84.7431640625
 20
-854.6328125
 10
84.7431640625
 20
-880.443359375
 10
84.7431640625
 20
-880.443359375
 10
84.7431640625
 20
-880.443359375
 10
426.470703125
 20
-880.443359375
 10
426.470703125
 20
-880.443359375
 10
426.470703125
 20
-880.443359375
 10
426.470703125
 20
-854.6328125
 10
426.470703125
 20
-854.6328125
 10
426.470703125
 20
-854.6328125
 10
411.8779296875
 20
-854.6328125
 10
411.8779296875
 20
-854.6328125
 10
377.4609375
 20
-854.6328125
 10
354.1689453125
 20
-850.140625
 10
342.02197265625
 20
-841.162109375
 10
329.8603515625
 20
-832.185546875
 10
322.28515625
 20
-818.443359375
 10
319.294921875
 20
-799.921875
 10
318.8798828125
 20
-797.375
 10
318.50048828125
 20
-794.39453125
 10
318.142578125
 20
-791.064453125
 10
318.2646484375
 20
-790.4921875
 10
318.3505859375
 20
-789.90625
 10
318.3642578125
 20
-789.298828125
 10
318.421875
 20
-787.14453125
 10
318.08203125
 20
-785.259765625
 10
317.44921875
 20
-783.5859375
 10
315.685546875
 20
-762.0
 10
314.8017578125
 20
-728.291015625
 10
314.8017578125
 20
-682.365234375
 10
314.8017578125
 20
-682.365234375
 10
314.8017578125
 20
-659.380859375
 10
314.8017578125
 20
-659.380859375
 10
337.486328125
 20
-681.228515625
 10
367.328125
 20
-693.57421875
 10
398.4287109375
 20
-693.57421875
 10
412.5859375
 20
-693.57421875
 10
427.0
 20
-691.099609375
 10
441.265625
 20
-686.212890625
 10
441.265625
 20
-686.212890625
 10
441.55078125
 20
-686.11328125
 10
441.55078125
 20
-686.11328125
 10
445.9580078125
 20
-688.646484375
 10
449.935546875
 20
-691.1640625
 10
453.669921875
 20
-693.783203125
 10
470.0302734375
 20
-705.2578125
 10
480.552734375
 20
-720.3515625
 10
482.53515625
 20
-735.1875
 10
484.587890625
 20
-750.603515625
 10
476.017578125
 20
-764.76171875
 10
462.154296875
 20
-768.845703125
 10
456.1162109375
 20
-770.619140625
 10
452.66796875
 20
-776.02734375
 10
453.5693359375
 20
-782.294921875
 10
454.36328125
 20
-787.802734375
 10
458.748046875
 20
-793.376953125
 10
465.580078125
 20
-793.376953125
 10
466.8037109375
 20
-793.376953125
 10
468.0556640625
 20
-793.189453125
 10
469.30078125
 20
-792.818359375
 10
488.2431640625
 20
-787.23828125
 10
502.228515625
 20
-771.46484375
 10
506.3203125
 20
-751.69140625
 10
507.279296875
 20
-752.435546875
 10
508.216796875
 20
-753.14453125
 10
509.1103515625
 20
-753.822265625
 10
509.1103515625
 20
-753.822265625
 10
510.0625
 20
-754.544921875
 10
510.0625
 20
-754.544921875
 10
517.115234375
 20
-759.92578125
 10
526.529296875
 20
-766.1484375
 10
537.16796875
 20
-766.513671875
 10
541.53125
 20
-766.513671875
 10
545.0791015625
 20
-763.458984375
 10
545.9951171875
 20
-758.91015625
 10
546.982421875
 20
-754.001953125
 10
544.642578125
 20
-749.158203125
 10
540.4365234375
 20
-747.392578125
 10
536.802734375
 20
-745.875
 10
533.0966796875
 20
-745.009765625
 10
529.5126953125
 20
-744.1796875
 10
525.62890625
 20
-743.279296875
 10
521.958984375
 20
-742.419921875
 10
518.517578125
 20
-740.802734375
 10
515.755859375
 20
-739.501953125
 10
513.259765625
 20
-737.51953125
 10
510.61328125
 20
-735.423828125
 10
509.4609375
 20
-734.515625
 10
508.3095703125
 20
-733.607421875
 10
507.13671875
 20
-732.748046875
 10
506.9072265625
 20
-730.759765625
 10
506.578125
 20
-728.798828125
 10
506.1630859375
 20
-726.904296875
 10
505.705078125
 20
-724.84375
 10
505.154296875
 20
-722.8046875
 10
504.5107421875
 20
-720.794921875
 10
506.3349609375
 20
-721.509765625
 10
508.1875
 20
-722.16015625
 10
510.0263671875
 20
-722.7265625
 10
515.2841796875
 20
-724.3359375
 10
520.341796875
 20
-720.322265625
 10
520.69921875
 20
-714.484375
 10
521.0
 20
-709.626953125
 10
517.966796875
 20
-705.830078125
 10
513.3310546875
 20
-705.2578125
 10
508.4384765625
 20
-704.6640625
 10
504.0458984375
 20
-703.998046875
 10
499.818359375
 20
-701.966796875
 10
498.22265625
 20
-701.193359375
 10
496.65625
 20
-700.263671875
 10
494.99609375
 20
-699.283203125
 10
493.8515625
 20
-698.603515625
 10
492.70703125
 20
-697.931640625
 10
491.548828125
 20
-697.294921875
 10
484.82421875
 20
-689.125
 10
476.0322265625
 20
-681.79296875
 10
465.3515625
 20
-675.42578125
 10
472.6337890625
 20
-671.154296875
 10
478.814453125
 20
-666.3046875
 10
483.80078125
 20
-660.9609375
 10
497.46484375
 20
-660.671875
 10
511.4072265625
 20
-657.5625
 10
524.9990234375
 20
-653.060546875
 10
524.9990234375
 20
-653.060546875
 10
584.1455078125
 20
-712.66796875
 10
584.1455078125
 20
-712.66796875
 10
638.3779296875
 20
-766.9140625
 10
665.5048828125
 20
-801.888671875
 10
665.5048828125
 20
-817.59765625
 10
665.5048828125
 20
-828.078125
 10
660.267578125
 20
-836.87109375
 10
649.794921875
 20
-843.974609375
 97
        0
 92
        1
 93
        1
 72
     4
 94
        3
 73
     0
 74
     1
 95
       32
 96
       28
 40
0.0
 40
0.0
 40
0.0
 40
0.0
 40
1.0
 40
1.0
 40
1.0
 40
2.0
 40
2.0
 40
2.0
 40
3.0
 40
3.0
 40
3.0
 40
4.0
 40
4.0
 40
4.0
 40
5.0
 40
5.0
 40
5.0
 40
6.0
 40
6.0
 40
6.0
 40
7.0
 40
7.0
 40
7.0
 40
8.0
 40
8.0
 40
8.0
 40
9.0
 40
9.0
 40
9.0
 40
9.0
 10
805.57421875
 20
-585.740234375
 10
804.1005859375
 20
-586.77734375
 10
802.6552734375
 20
-587.865234375
 10
801.2314453125
 20
-588.994140625
 10
784.857421875
 20
-601.978515625
 10
773.052734375
 20
-619.3203125
 10
761.642578125
 20
-636.095703125
 10
756.2705078125
 20
-643.986328125
 10
750.7197265625
 20
-652.1484375
 10
744.78125
 20
-659.703125
 10
734.3876953125
 20
-672.935546875
 10
722.3623046875
 20
-682.826171875
 10
709.087890625
 20
-689.236328125
 10
709.087890625
 20
-689.236328125
 10
704.8212890625
 20
-684.92578125
 10
704.8212890625
 20
-684.92578125
 10
723.013671875
 20
-682.8984375
 10
740.310546875
 20
-668.666015625
 10
747.03515625
 20
-649.564453125
 10
754.8828125
 20
-627.28125
 10
748.6162109375
 20
-602.494140625
 10
731.43359375
 20
-587.87109375
 10
730.57421875
 20
-587.134765625
 10
729.6875
 20
-586.427734375
 10
728.771484375
 20
-585.740234375
 10
728.771484375
 20
-585.740234375
 10
805.57421875
 20
-585.740234375
 10
805.57421875
 20
-585.740234375
 97
        0
 92
        1
 93
        1
 72
     4
 94
        3
 73
     0
 74
     1
 95
       41
 96
       37
 40
0.0
 40
0.0
 40
0.0
 40
0.0
 40
1.0
 40
1.0
 40
1.0
 40
2.0
 40
2.0
 40
2.0
 40
3.0
 40
3.0
 40
3.0
 40
4.0
 40
4.0
 40
4.0
 40
5.0
 40
5.0
 40
5.0
 40
6.0
 40
6.0
 40
6.0
 40
7.0
 40
7.0
 40
7.0
 40
8.0
 40
8.0
 40
8.0
 40
9.0
 40
9.0
 40
9.0
 40
10.0
 40
10.0
 40
10.0
 40
11.0
 40
11.0
 40
11.0
 40
12.0
 40
12.0
 40
12.0
 40
12.0
 10
709.349609375
 20
-600.7265625
 10
724.0078125
 20
-608.82421875
 10
730.1884765625
 20
-625.650390625
 10
724.38671875
 20
-641.6328125
 10
721.267578125
 20
-650.216796875
 10
715.3515625
 20
-656.482421875
 10
707.71875
 20
-659.265625
 10
702.08203125
 20
-661.326171875
 10
697.904296875
 20
-661.576171875
 10
694.7490234375
 20
-660.0390625
 10
692.431640625
 20
-658.916015625
 10
689.6337890625
 20
-655.96875
 10
689.1474609375
 20
-653.15625
 10
688.904296875
 20
-651.76171875
 10
689.291015625
 20
-650.603515625
 10
690.349609375
 20
-649.5234375
 10
694.5126953125
 20
-645.265625
 10
695.6787109375
 20
-639.9296875
 10
693.5546875
 20
-634.87890625
 10
691.3291015625
 20
-629.5859375
 10
685.9140625
 20
-625.88671875
 10
680.384765625
 20
-625.88671875
 10
676.0634765625
 20
-625.88671875
 10
672.322265625
 20
-628.08984375
 10
669.853515625
 20
-632.095703125
 10
667.4140625
 20
-636.048828125
 10
665.85546875
 20
-640.380859375
 10
665.103515625
 20
-644.818359375
 10
665.103515625
 20
-644.818359375
 10
627.25390625
 20
-606.59375
 10
627.25390625
 20
-606.59375
 10
644.9521484375
 20
-599.408203125
 10
663.115234375
 20
-593.845703125
 10
680.462890625
 20
-593.845703125
 10
691.3720703125
 20
-593.845703125
 10
701.09375
 20
-596.1640625
 10
709.349609375
 20
-600.7265625
 97
        0
 92
        1
 93
        1
 72
     4
 94
        3
 73
     0
 74
     1
 95
       14
 96
       10
 40
0.0
 40
0.0
 40
0.0
 40
0.0
 40
1.0
 40
1.0
 40
1.0
 40
2.0
 40
2.0
 40
2.0
 40
3.0
 40
3.0
 40
3.0
 40
3.0
 10
625.837890625
 20
-585.740234375
 10
621.337890625
 20
-587.599609375
 10
616.90234375
 20
-589.61328125
 10
612.4990234375
 20
-591.6953125
 10
612.4990234375
 20
-591.6953125
 10
606.6015625
 20
-585.740234375
 10
606.6015625
 20
-585.740234375
 10
606.6015625
 20
-585.740234375
 10
625.837890625
 20
-585.740234375
 10
625.837890625
 20
-585.740234375
 97
        0
 92
        1
 93
        1
 72
     4
 94
        3
 73
     0
 74
     1
 95
       29
 96
       25
 40
0.0
 40
0.0
 40
0.0
 40
0.0
 40
1.0
 40
1.0
 40
1.0
 40
2.0
 40
2.0
 40
2.0
 40
3.0
 40
3.0
 40
3.0
 40
4.0
 40
4.0
 40
4.0
 40
5.0
 40
5.0
 40
5.0
 40
6.0
 40
6.0
 40
6.0
 40
7.0
 40
7.0
 40
7.0
 40
8.0
 40
8.0
 40
8.0
 40
8.0
 10
189.669921875
 20
-745.732421875
 10
184.56201171875
 20
-746.783203125
 10
179.6328125
 20
-745.189453125
 10
174.27490234375
 20
-740.732421875
 10
164.9462890625
 20
-724.75
 10
161.30517578125
 20
-704.76953125
 10
164.28125
 20
-685.8125
 10
168.47314453125
 20
-659.109375
 10
182.9736328125
 20
-635.248046875
 10
205.38671875
 20
-616.998046875
 10
205.38671875
 20
-616.998046875
 10
205.38671875
 20
-628.794921875
 10
205.38671875
 20
-628.794921875
 10
203.2978515625
 20
-636.78515625
 10
203.07568359375
 20
-645.126953125
 10
205.38671875
 20
-652.587890625
 10
205.38671875
 20
-652.587890625
 10
205.38671875
 20
-682.365234375
 10
205.38671875
 20
-682.365234375
 10
205.38671875
 20
-702.599609375
 10
205.2001953125
 20
-720.47265625
 10
204.8427734375
 20
-736.03125
 10
200.25
 20
-740.822265625
 10
195.53564453125
 20
-744.51953125
 10
189.669921875
 20
-745.732421875
 97
        0
 92
        1
 93
        1
 72
     4
 94
        3
 73
     0
 74
     1
 95
       14
 96
       10
 40
0.0
 40
0.0
 40
0.0
 40
0.0
 40
1.0
 40
1.0
 40
1.0
 40
2.0
 40
2.0
 40
2.0
 40
3.0
 40
3.0
 40
3.0
 40
3.0
 10
193.57568359375
 20
-762.09375
 10
197.2099609375
 20
-762.21484375
 10
200.70068359375
 20
-761.888671875
 10
204.0126953125
 20
-761.212890625
 10
203.9091796875
 20
-763.52734375
 10
203.8017578125
 20
-765.78515625
 10
203.68359375
 20
-767.9453125
 10
200.142578125
 20
-766.306640625
 10
196.7626953125
 20
-764.36328125
 10
193.57568359375
 20
-762.09375
 97
        0
 92
        1
 93
        1
 72
     4
 94
        3
 73
     0
 74
     1
 95
       20
 96
       16
 40
0.0
 40
0.0
 40
0.0
 40
0.0
 40
1.0
 40
1.0
 40
1.0
 40
2.0
 40
2.0
 40
2.0
 40
3.0
 40
3.0
 40
3.0
 40
4.0
 40
4.0
 40
4.0
 40
5.0
 40
5.0
 40
5.0
 40
5.0
 10
368.3115234375
 20
-676.333984375
 10
357.9814453125
 20
-673.365234375
 10
345.5126953125
 20
-665.875
 10
333.64501953125
 20
-655.66796875
 10
336.1484375
 20
-655.982421875
 10
338.6455078125
 20
-656.275390625
 10
341.1064453125
 20
-656.568359375
 10
344.61865234375
 20
-656.990234375
 10
348.109375
 20
-657.40625
 10
351.56494140625
 20
-657.857421875
 10
377.7119140625
 20
-661.25390625
 10
401.3330078125
 20
-667.45703125
 10
421.943359375
 20
-676.3203125
 10
403.421875
 20
-680.7265625
 10
383.7705078125
 20
-680.76953125
 10
368.3115234375
 20
-676.333984375
 97
        0
 92
        1
 93
        1
 72
     4
 94
        3
 73
     0
 74
     1
 95
       38
 96
       34
 40
0.0
 40
0.0
 40
0.0
 40
0.0
 40
1.0
 40
1.0
 40
1.0
 40
2.0
 40
2.0
 40
2.0
 40
3.0
 40
3.0
 40
3.0
 40
4.0
 40
4.0
 40
4.0
 40
5.0
 40
5.0
 40
5.0
 40
6.0
 40
6.0
 40
6.0
 40
7.0
 40
7.0
 40
7.0
 40
8.0
 40
8.0
 40
8.0
 40
9.0
 40
9.0
 40
9.0
 40
10.0
 40
10.0
 40
10.0
 40
11.0
 40
11.0
 40
11.0
 40
11.0
 10
448.1826171875
 20
-666.712890625
 10
445.185546875
 20
-665.42578125
 10
442.080078125
 20
-664.1953125
 10
438.9404296875
 20
-663.05078125
 10
410.33203125
 20
-652.591796875
 10
380.873046875
 20
-648.728515625
 10
352.38037109375
 20
-644.986328125
 10
342.9521484375
 20
-643.7421875
 10
333.201171875
 20
-642.4609375
 10
323.55078125
 20
-640.958984375
 10
321.6552734375
 20
-640.666015625
 10
319.7666015625
 20
-640.34375
 10
317.8779296875
 20
-639.994140625
 10
316.8193359375
 20
-638.77734375
 10
315.79638671875
 20
-637.55859375
 10
314.8017578125
 20
-636.337890625
 10
314.8017578125
 20
-636.337890625
 10
314.8017578125
 20
-585.740234375
 10
314.8017578125
 20
-585.740234375
 10
314.8017578125
 20
-585.740234375
 10
422.5439453125
 20
-585.740234375
 10
422.5439453125
 20
-585.740234375
 10
421.2421875
 20
-587.572265625
 10
420.119140625
 20
-589.525390625
 10
419.181640625
 20
-591.591796875
 10
409.7314453125
 20
-612.40234375
 10
421.1845703125
 20
-636.587890625
 10
437.7236328125
 20
-647.94140625
 10
444.86328125
 20
-652.849609375
 10
452.75390625
 20
-656.396484375
 10
461.251953125
 20
-658.537109375
 10
457.33203125
 20
-661.51171875
 10
452.9541015625
 20
-664.251953125
 10
448.1826171875
 20
-666.712890625
 97
        0
 92
        1
 93
        1
 72
     4
 94
        3
 73
     0
 74
     1
 95
       29
 96
       25
 40
0.0
 40
0.0
 40
0.0
 40
0.0
 40
1.0
 40
1.0
 40
1.0
 40
2.0
 40
2.0
 40
2.0
 40
3.0
 40
3.0
 40
3.0
 40
4.0
 40
4.0
 40
4.0
 40
5.0
 40
5.0
 40
5.0
 40
6.0
 40
6.0
 40
6.0
 40
7.0
 40
7.0
 40
7.0
 40
8.0
 40
8.0
 40
8.0
 40
8.0
 10
476.2392578125
 20
-642.619140625
 10
461.845703125
 20
-641.99609375
 10
450.7509765625
 20
-637.861328125
 10
443.2392578125
 20
-630.30859375
 10
436.408203125
 20
-623.447265625
 10
432.5302734375
 20
-613.125
 10
433.603515625
 20
-604.619140625
 10
434.3828125
 20
-598.388671875
 10
437.57421875
 20
-593.57421875
 10
443.08203125
 20
-590.2890625
 10
446.8447265625
 20
-588.04296875
 10
450.8798828125
 20
-586.90625
 10
455.0576171875
 20
-586.90625
 10
456.669921875
 20
-586.90625
 10
458.2763671875
 20
-587.08203125
 10
459.857421875
 20
-587.41015625
 10
459.857421875
 20
-587.41015625
 10
482.5634765625
 20
-610.291015625
 10
482.5634765625
 20
-610.291015625
 10
482.6025390625
 20
-610.466796875
 10
482.66015625
 20
-610.638671875
 10
482.69921875
 20
-610.814453125
 10
485.5322265625
 20
-624.048828125
 10
481.0107421875
 20
-635.1796875
 10
476.2392578125
 20
-642.619140625
 97
        0
 92
        1
 93
        1
 72
     4
 94
        3
 73
     0
 74
     1
 95
       17
 96
       13
 40
0.0
 40
0.0
 40
0.0
 40
0.0
 40
1.0
 40
1.0
 40
1.0
 40
2.0
 40
2.0
 40
2.0
 40
3.0
 40
3.0
 40
3.0
 40
4.0
 40
4.0
 40
4.0
 40
4.0
 10
496.505859375
 20
-641.388671875
 10
497.5859375
 20
-638.76953125
 10
498.4873046875
 20
-636.087890625
 10
499.1884765625
 20
-633.369140625
 10
499.6357421875
 20
-631.62109375
 10
499.947265625
 20
-629.857421875
 10
500.2255859375
 20
-628.08984375
 10
500.2255859375
 20
-628.08984375
 10
510.5625
 20
-638.513671875
 10
510.5625
 20
-638.513671875
 10
505.9775390625
 20
-639.66796875
 10
501.3056640625
 20
-640.669921875
 10
496.505859375
 20
-641.388671875
 97
        0
 75
     2
 76
     1
 98
        0
  0
SPLINE
  5
53
330
3C
100
AcDbEntity
  8
Layer 1
370
     0
100
AcDbSpline
210
0.0
220
0.0
230
1.0
 70
    11
 71
     3
 72
   389
 73
   385
 74
     0
 42
0.0000000001
 43
0.0000000001
 40
0.0
 40
0.0
 40
0.0
 40
0.0
 40
1.0
 40
1.0
 40
1.0
 40
2.0
 40
2.0
 40
2.0
 40
3.0
 40
3.0
 40
3.0
 40
4.0
 40
4.0
 40
4.0
 40
5.0
 40
5.0
 40
5.0
 40
6.0
 40
6.0
 40
6.0
 40
7.0
 40
7.0
 40
7.0
 40
8.0
 40
8.0
 40
8.0
 40
9.0
 40
9.0
 40
9.0
 40
10.0
 40
10.0
 40
10.0
 40
11.0
 40
11.0
 40
11.0
 40
12.0
 40
12.0
 40
12.0
 40
13.0
 40
13.0
 40
13.0
 40
14.0
 40
14.0
 40
14.0
 40
15.0
 40
15.0
 40
15.0
 40
16.0
 40
16.0
 40
16.0
 40
17.0
 40
17.0
 40
17.0
 40
18.0
 40
18.0
 40
18.0
 40
19.0
 40
19.0
 40
19.0
 40
20.0
 40
20.0
 40
20.0
 40
21.0
 40
21.0
 40
21.0
 40
22.0
 40
22.0
 40
22.0
 40
23.0
 40
23.0
 40
23.0
 40
24.0
 40
24.0
 40
24.0
 40
25.0
 40
25.0
 40
25.0
 40
26.0
 40
26.0
 40
26.0
 40
27.0
 40
27.0
 40
27.0
 40
28.0
 40
28.0
 40
28.0
 40
29.0
 40
29.0
 40
29.0
 40
30.0
 40
30.0
 40
30.0
 40
31.0
 40
31.0
 40
31.0
 40
32.0
 40
32.0
 40
32.0
 40
33.0
 40
33.0
 40
33.0
 40
34.0
 40
34.0
 40
34.0
 40
35.0
 40
35.0
 40
35.0
 40
36.0
 40
36.0
 40
36.0
 40
37.0
 40
37.0
 40
37.0
 40
38.0
 40
38.0
 40
38.0
 40
39.0
 40
39.0
 40
39.0
 40
40.0
 40
40.0
 40
40.0
 40
41.0
 40
41.0
 40
41.0
 40
42.0
 40
42.0
 40
42.0
 40
43.0
 40
43.0
 40
43.0
 40
44.0
 40
44.0
 40
44.0
 40
45.0
 40
45.0
 40
45.0
 40
46.0
 40
46.0
 40
46.0
 40
47.0
 40
47.0
 40
47.0
 40
48.0
 40
48.0
 40
48.0
 40
49.0
 40
49.0
 40
49.0
 40
50.0
 40
50.0
 40
50.0
 40
51.0
 40
51.0
 40
51.0
 40
52.0
 40
52.0
 40
52.0
 40
53.0
 40
53.0
 40
53.0
 40
54.0
 40
54.0
 40
54.0
 40
55.0
 40
55.0
 40
55.0
 40
56.0
 40
56.0
 40
56.0
 40
57.0
 40
57.0
 40
57.0
 40
58.0
 40
58.0
 40
58.0
 40
59.0
 40
59.0
 40
59.0
 40
60.0
 40
60.0
 40
60.0
 40
61.0
 40
61.0
 40
61.0
 40
62.0
 40
62.0
 40
62.0
 40
63.0
 40
63.0
 40
63.0
 40
64.0
 40
64.0
 40
64.0
 40
65.0
 40
65.0
 40
65.0
 40
66.0
 40
66.0
 40
66.0
 40
67.0
 40
67.0
 40
67.0
 40
68.0
 40
68.0
 40
68.0
 40
69.0
 40
69.0
 40
69.0
 40
70.0
 40
70.0
 40
70.0
 40
71.0
 40
71.0
 40
71.0
 40
72.0
 40
72.0
 40
72.0
 40
73.0
 40
73.0
 40
73.0
 40
74.0
 40
74.0
 40
74.0
 40
75.0
 40
75.0
 40
75.0
 40
76.0
 40
76.0
 40
76.0
 40
77.0
 40
77.0
 40
77.0
 40
78.0
 40
78.0
 40
78.0
 40
79.0
 40
79.0
 40
79.0
 40
80.0
 40
80.0
 40
80.0
 40
81.0
 40
81.0
 40
81.0
 40
82.0
 40
82.0
 40
82.0
 40
83.0
 40
83.0
 40
83.0
 40
84.0
 40
84.0
 40
84.0
 40
85.0
 40
85.0
 40
85.0
 40
86.0
 40
86.0
 40
86.0
 40
87.0
 40
87.0
 40
87.0
 40
88.0
 40
88.0
 40
88.0
 40
89.0
 40
89.0
 40
89.0
 40
90.0
 40
90.0
 40
90.0
 40
91.0
 40
91.0
 40
91.0
 40
92.0
 40
92.0
 40
92.0
 40
93.0
 40
93.0
 40
93.0
 40
94.0
 40
94.0
 40
94.0
 40
95.0
 40
95.0
 40
95.0
 40
96.0
 40
96.0
 40
96.0
 40
97.0
 40
97.0
 40
97.0
 40
98.0
 40
98.0
 40
98.0
 40
99.0
 40
99.0
 40
99.0
 40
100.0
 40
100.0
 40
100.0
 40
101.0
 40
101.0
 40
101.0
 40
102.0
 40
102.0
 40
102.0
 40
103.0
 40
103.0
 40
103.0
 40
104.0
 40
104.0
 40
104.0
 40
105.0
 40
105.0
 40
105.0
 40
106.0
 40
106.0
 40
106.0
 40
107.0
 40
107.0
 40
107.0
 40
108.0
 40
108.0
 40
108.0
 40
109.0
 40
109.0
 40
109.0
 40
110.0
 40
110.0
 40
110.0
 40
111.0
 40
111.0
 40
111.0
 40
112.0
 40
112.0
 40
112.0
 40
113.0
 40
113.0
 40
113.0
 40
114.0
 40
114.0
 40
114.0
 40
115.0
 40
115.0
 40
115.0
 40
116.0
 40
116.0
 40
116.0
 40
117.0
 40
117.0
 40
117.0
 40
118.0
 40
118.0
 40
118.0
 40
119.0
 40
119.0
 40
119.0
 40
120.0
 40
120.0
 40
120.0
 40
121.0
 40
121.0
 40
121.0
 40
122.0
 40
122.0
 40
122.0
 40
123.0
 40
123.0
 40
123.0
 40
124.0
 40
124.0
 40
124.0
 40
125.0
 40
125.0
 40
125.0
 40
126.0
 40
126.0
 40
126.0
 40
127.0
 40
127.0
 40
127.0
 40
128.0
 40
128.0
 40
128.0
 40
128.0
 10
864.140625
 20
-437.3515625
 30
0.0
 10
864.140625
 20
-437.3515625
 30
0.0
 10
864.140625
 20
-420.98388671875
 30
0.0
 10
864.140625
 20
-420.98388671875
 30
0.0
 10
864.140625
 20
-420.98388671875
 30
0.0
 10
728.03515625
 20
-420.98388671875
 30
0.0
 10
728.03515625
 20
-420.98388671875
 30
0.0
 10
737.61328125
 20
-416.2412109375
 30
0.0
 10
746.755859375
 20
-410.53955078125
 30
0.0
 10
755.369140625
 20
-403.94384765625
 30
0.0
 10
763.58203125
 20
-400.1455078125
 30
0.0
 10
770.4853515625
 20
-397.26220703125
 30
0.0
 10
777.875
 20
-397.26220703125
 30
0.0
 10
781.39453125
 20
-397.26220703125
 30
0.0
 10
784.814453125
 20
-397.92041015625
 30
0.0
 10
788.3408203125
 20
-399.265625
 30
0.0
 10
792.5830078125
 20
-400.88916015625
 30
0.0
 10
798.0986328125
 20
-403.12841796875
 30
0.0
 10
803.0703125
 20
-406.0615234375
 30
0.0
 10
803.0703125
 20
-406.0615234375
 30
0.0
 10
804.9013671875
 20
-407.1630859375
 30
0.0
 10
804.9013671875
 20
-407.1630859375
 30
0.0
 10
808.556640625
 20
-409.39501953125
 30
0.0
 10
812.0048828125
 20
-411.498046875
 30
0.0
 10
817.7421875
 20
-411.6552734375
 30
0.0
 10
820.4248046875
 20
-411.6552734375
 30
0.0
 10
822.935546875
 20
-410.41796875
 30
0.0
 10
824.638671875
 20
-408.2646484375
 30
0.0
 10
826.4267578125
 20
-405.9970703125
 30
0.0
 10
827.1064453125
 20
-402.9853515625
 30
0.0
 10
826.44140625
 20
-400.20263671875
 30
0.0
 10
822.2421875
 20
-382.6259765625
 30
0.0
 10
798.4560546875
 20
-381.259765625
 30
0.0
 10
791.2666015625
 20
-381.259765625
 30
0.0
 10
788.90625
 20
-381.259765625
 30
0.0
 10
786.609375
 20
-381.380859375
 30
0.0
 10
784.44140625
 20
-381.6171875
 30
0.0
 10
782.6748046875
 20
-381.810546875
 30
0.0
 10
780.55078125
 20
-382.11083984375
 30
0.0
 10
778.17578125
 20
-382.57568359375
 30
0.0
 10
779.18359375
 20
-381.40234375
 30
0.0
 10
780.1708984375
 20
-380.2080078125
 30
0.0
 10
781.13671875
 20
-378.9990234375
 30
0.0
 10
781.923828125
 20
-378.712890625
 30
0.0
 10
782.6103515625
 20
-378.205078125
 30
0.0
 10
783.1259765625
 20
-377.51806640625
 30
0.0
 10
785.787109375
 20
-373.9912109375
 30
0.0
 10
788.51953125
 20
-370.1787109375
 30
0.0
 10
791.3525390625
 20
-366.22265625
 30
0.0
 10
809.072265625
 20
-341.48486328125
 30
0.0
 10
829.2314453125
 20
-313.3349609375
 30
0.0
 10
859.498046875
 20
-315.552734375
 30
0.0
 10
859.8486328125
 20
-315.58154296875
 30
0.0
 10
860.185546875
 20
-315.595703125
 30
0.0
 10
860.513671875
 20
-315.595703125
 30
0.0
 10
860.513671875
 20
-315.595703125
 30
0.0
 10
860.513671875
 20
-315.595703125
 30
0.0
 10
860.521484375
 20
-315.595703125
 30
0.0
 10
866.56640625
 20
-315.595703125
 30
0.0
 10
870.994140625
 20
-311.2607421875
 30
0.0
 10
871.2802734375
 20
-305.05859375
 30
0.0
 10
871.5595703125
 20
-299.1494140625
 30
0.0
 10
867.703125
 20
-292.4892578125
 30
0.0
 10
860.013671875
 20
-291.77392578125
 30
0.0
 10
840.119140625
 20
-289.92822265625
 30
0.0
 10
826.18359375
 20
-302.3828125
 30
0.0
 10
815.353515625
 20
-314.5224609375
 30
0.0
 10
812.9140625
 20
-317.25537109375
 30
0.0
 10
810.4169921875
 20
-320.0595703125
 30
0.0
 10
807.9130859375
 20
-322.94970703125
 30
0.0
 10
812.7705078125
 20
-298.884765625
 30
0.0
 10
809.4375
 20
-275.44921875
 30
0.0
 10
798.10546875
 20
-255.58349609375
 30
0.0
 10
795.0869140625
 20
-250.296875
 30
0.0
 10
791.423828125
 20
-245.2822265625
 30
0.0
 10
787.2177734375
 20
-240.66796875
 30
0.0
 10
787.0888671875
 20
-238.142578125
 30
0.0
 10
786.7734375
 20
-235.66015625
 30
0.0
 10
786.4736328125
 20
-233.2421875
 30
0.0
 10
786.0947265625
 20
-230.251953125
 30
0.0
 10
785.736328125
 20
-227.43359375
 30
0.0
 10
785.7294921875
 20
-224.63671875
 30
0.0
 10
785.701171875
 20
-215.88037109375
 30
0.0
 10
787.76171875
 20
-208.283203125
 30
0.0
 10
792.3896484375
 20
-199.9921875
 30
0.0
 10
792.67578125
 20
-199.4912109375
 30
0.0
 10
793.0908203125
 20
-198.8046875
 30
0.0
 10
793.583984375
 20
-197.98193359375
 30
0.0
 10
799.0283203125
 20
-188.939453125
 30
0.0
 10
804.537109375
 20
-178.7529296875
 30
0.0
 10
800.888671875
 20
-172.29296875
 30
0.0
 10
799.658203125
 20
-170.12548828125
 30
0.0
 10
796.8818359375
 20
-167.50732421875
 30
0.0
 10
790.55859375
 20
-167.83642578125
 30
0.0
 10
773.404296875
 20
-168.6806640625
 30
0.0
 10
770.70703125
 20
-196.765625
 30
0.0
 10
769.69140625
 20
-207.3388671875
 30
0.0
 10
769.2265625
 20
-212.16796875
 30
0.0
 10
768.58984375
 20
-218.75634765625
 30
0.0
 10
768.83984375
 20
-225.4736328125
 30
0.0
 10
755.919921875
 20
-217.54736328125
 30
0.0
 10
741.1689453125
 20
-213.2548828125
 30
0.0
 10
726.5546875
 20
-213.2548828125
 30
0.0
 10
713.90625
 20
-213.2548828125
 30
0.0
 10
701.5732421875
 20
-216.5244140625
 30
0.0
 10
690.814453125
 20
-222.71923828125
 30
0.0
 10
685.462890625
 20
-223.09130859375
 30
0.0
 10
680.333984375
 20
-222.640625
 30
0.0
 10
675.69140625
 20
-221.28857421875
 30
0.0
 10
674.6181640625
 20
-220.9775390625
 30
0.0
 10
673.5380859375
 20
-220.4228515625
 30
0.0
 10
672.4580078125
 20
-219.78271484375
 30
0.0
 10
682.6162109375
 20
-210.890625
 30
0.0
 10
690.986328125
 20
-203.830078125
 30
0.0
 10
697.48828125
 20
-198.67578125
 30
0.0
 10
717.318359375
 20
-182.96630859375
 30
0.0
 10
739.1015625
 20
-170.25390625
 30
0.0
 10
762.8662109375
 20
-160.51806640625
 30
0.0
 10
786.6171875
 20
-150.7958984375
 30
0.0
 10
810.28125
 20
-145.74560546875
 30
0.0
 10
833.845703125
 20
-145.37353515625
 30
0.0
 10
833.845703125
 20
-145.37353515625
 30
0.0
 10
833.845703125
 20
-119.55615234375
 30
0.0
 10
833.845703125
 20
-119.55615234375
 30
0.0
 10
833.845703125
 20
-119.55615234375
 30
0.0
 10
547.111328125
 20
-119.55615234375
 30
0.0
 10
547.111328125
 20
-119.55615234375
 30
0.0
 10
547.111328125
 20
-119.55615234375
 30
0.0
 10
547.111328125
 20
-145.37353515625
 30
0.0
 10
547.111328125
 20
-145.37353515625
 30
0.0
 10
600.978515625
 20
-146.86865234375
 30
0.0
 10
627.912109375
 20
-163.1435546875
 30
0.0
 10
627.912109375
 20
-194.1904296875
 30
0.0
 10
627.912109375
 20
-214.7646484375
 30
0.0
 10
600.978515625
 20
-249.1806640625
 30
0.0
 10
547.111328125
 20
-297.4326171875
 30
0.0
 10
547.111328125
 20
-297.4326171875
 30
0.0
 10
523.697265625
 20
-318.52880859375
 30
0.0
 10
523.697265625
 20
-318.52880859375
 30
0.0
 10
521.6015625
 20
-319.140625
 30
0.0
 10
519.5048828125
 20
-319.7880859375
 30
0.0
 10
517.416015625
 20
-320.5029296875
 30
0.0
 10
517.416015625
 20
-320.5029296875
 30
0.0
 10
517.13671875
 20
-320.603515625
 30
0.0
 10
517.13671875
 20
-320.603515625
 30
0.0
 10
512.73046875
 20
-318.07080078125
 30
0.0
 10
508.7529296875
 20
-315.552734375
 30
0.0
 10
505.0185546875
 20
-312.9345703125
 30
0.0
 10
488.658203125
 20
-301.4599609375
 30
0.0
 10
478.134765625
 20
-286.36572265625
 30
0.0
 10
476.16015625
 20
-271.529296875
 30
0.0
 10
474.1005859375
 20
-256.11279296875
 30
0.0
 10
482.6708984375
 20
-241.95556640625
 30
0.0
 10
496.5341796875
 20
-237.87109375
 30
0.0
 10
502.572265625
 20
-236.0966796875
 30
0.0
 10
506.02734375
 20
-230.6884765625
 30
0.0
 10
505.119140625
 20
-224.421875
 30
0.0
 10
504.32421875
 20
-218.91357421875
 30
0.0
 10
499.947265625
 20
-213.3408203125
 30
0.0
 10
493.107421875
 20
-213.3408203125
 30
0.0
 10
491.884765625
 20
-213.3408203125
 30
0.0
 10
490.6328125
 20
-213.52685546875
 30
0.0
 10
489.3876953125
 20
-213.8916015625
 30
0.0
 10
470.4453125
 20
-219.478515625
 30
0.0
 10
456.466796875
 20
-235.2529296875
 30
0.0
 10
452.3671875
 20
-255.03271484375
 30
0.0
 10
451.416015625
 20
-254.28125
 30
0.0
 10
450.478515625
 20
-253.56591796875
 30
0.0
 10
449.578125
 20
-252.88671875
 30
0.0
 10
449.578125
 20
-252.88671875
 30
0.0
 10
448.6328125
 20
-252.1640625
 30
0.0
 10
448.6328125
 20
-252.1640625
 30
0.0
 10
441.580078125
 20
-246.79150390625
 30
0.0
 10
432.158203125
 20
-240.56787109375
 30
0.0
 10
421.513671875
 20
-240.203125
 30
0.0
 10
417.1572265625
 20
-240.203125
 30
0.0
 10
413.609375
 20
-243.2578125
 30
0.0
 10
412.693359375
 20
-247.80029296875
 30
0.0
 10
411.7060546875
 20
-252.70751953125
 30
0.0
 10
414.0380859375
 20
-257.55078125
 30
0.0
 10
418.251953125
 20
-259.32470703125
 30
0.0
 10
421.8857421875
 20
-260.84130859375
 30
0.0
 10
425.583984375
 20
-261.69970703125
 30
0.0
 10
429.16796875
 20
-262.537109375
 30
0.0
 10
433.0595703125
 20
-263.4384765625
 30
0.0
 10
436.7294921875
 20
-264.28955078125
 30
0.0
 10
440.177734375
 20
-265.9130859375
 30
0.0
 10
442.9248046875
 20
-267.2080078125
 30
0.0
 10
445.4140625
 20
-269.1826171875
 30
0.0
 10
448.0537109375
 20
-271.271484375
 30
0.0
 10
449.212890625
 20
-272.1943359375
 30
0.0
 10
450.37109375
 20
-273.10986328125
 30
0.0
 10
451.5517578125
 20
-273.96826171875
 30
0.0
 10
451.78125
 20
-275.94287109375
 30
0.0
 10
452.1103515625
 20
-277.8955078125
 30
0.0
 10
452.5322265625
 20
-279.81298828125
 30
0.0
 10
452.982421875
 20
-281.873046875
 30
0.0
 10
453.533203125
 20
-283.912109375
 30
0.0
 10
454.177734375
 20
-285.9296875
 30
0.0
 10
452.353515625
 20
-285.20703125
 30
0.0
 10
450.5
 20
-284.5556640625
 30
0.0
 10
448.662109375
 20
-283.99072265625
 30
0.0
 10
443.4111328125
 20
-282.38818359375
 30
0.0
 10
438.3466796875
 20
-286.39453125
 30
0.0
 10
437.98828125
 20
-292.224609375
 30
0.0
 10
437.6953125
 20
-297.0888671875
 30
0.0
 10
440.7216796875
 20
-300.8876953125
 30
0.0
 10
445.357421875
 20
-301.4599609375
 30
0.0
 10
450.25
 20
-302.06103515625
 30
0.0
 10
454.6494140625
 20
-302.71923828125
 30
0.0
 10
458.8701171875
 20
-304.7509765625
 30
0.0
 10
460.458984375
 20
-305.5234375
 30
0.0
 10
462.025390625
 20
-306.4462890625
 30
0.0
 10
463.677734375
 20
-307.42626953125
 30
0.0
 10
464.8291015625
 20
-308.10595703125
 30
0.0
 10
465.98046875
 20
-308.78515625
 30
0.0
 10
467.146484375
 20
-309.421875
 30
0.0
 10
473.87109375
 20
-317.591796875
 30
0.0
 10
482.65625
 20
-324.92431640625
 30
0.0
 10
493.3369140625
 20
-331.291015625
 30
0.0
 10
486.0546875
 20
-335.5615234375
 30
0.0
 10
479.873046875
 20
-340.412109375
 30
0.0
 10
474.8876953125
 20
-345.755859375
 30
0.0
 10
448.197265625
 20
-346.32080078125
 30
0.0
 10
420.43359375
 20
-357.61669921875
 30
0.0
 10
396.318359375
 20
-369.126953125
 30
0.0
 10
384.830078125
 20
-346.70703125
 30
0.0
 10
368.6767578125
 20
-326.26904296875
 30
0.0
 10
352.630859375
 20
-313.97900390625
 30
0.0
 10
341.4208984375
 20
-305.38037109375
 30
0.0
 10
328.50146484375
 20
-299.16748046875
 30
0.0
 10
314.837890625
 20
-295.56201171875
 30
0.0
 10
315.109375
 20
-240.22802734375
 30
0.0
 10
317.05908203125
 20
-204.720703125
 30
0.0
 10
320.69677734375
 20
-189.14013671875
 30
0.0
 10
324.6240234375
 20
-172.3076171875
 30
0.0
 10
332.3857421875
 20
-160.80419921875
 30
0.0
 10
343.98193359375
 20
-154.63037109375
 30
0.0
 10
355.5712890625
 20
-148.45703125
 30
0.0
 10
380.080078125
 20
-145.37353515625
 30
0.0
 10
417.4931640625
 20
-145.37353515625
 30
0.0
 10
417.4931640625
 20
-145.37353515625
 30
0.0
 10
431.521484375
 20
-145.37353515625
 30
0.0
 10
431.521484375
 20
-145.37353515625
 30
0.0
 10
431.521484375
 20
-145.37353515625
 30
0.0
 10
431.521484375
 20
-119.55615234375
 30
0.0
 10
431.521484375
 20
-119.55615234375
 30
0.0
 10
431.521484375
 20
-119.55615234375
 30
0.0
 10
94.84033203125
 20
-119.55615234375
 30
0.0
 10
94.84033203125
 20
-119.55615234375
 30
0.0
 10
94.84033203125
 20
-119.55615234375
 30
0.0
 10
94.84033203125
 20
-145.37353515625
 30
0.0
 10
94.84033203125
 20
-145.37353515625
 30
0.0
 10
137.49072265625
 20
-145.37353515625
 30
0.0
 10
164.60693359375
 20
-148.37109375
 30
0.0
 10
176.20654296875
 20
-154.3515625
 30
0.0
 10
187.79541015625
 20
-160.33935546875
 30
0.0
 10
195.564453125
 20
-171.935546875
 30
0.0
 10
199.49169921875
 20
-189.14013671875
 30
0.0
 10
202.78955078125
 20
-203.57958984375
 30
0.0
 10
204.6962890625
 20
-234.1435546875
 30
0.0
 10
205.2255859375
 20
-280.70703125
 30
0.0
 10
202.947265625
 20
-281.3330078125
 30
0.0
 10
200.80810546875
 20
-282.5634765625
 30
0.0
 10
199.1982421875
 20
-284.333984375
 30
0.0
 10
197.1240234375
 20
-286.6162109375
 30
0.0
 10
196.12939453125
 20
-289.48486328125
 30
0.0
 10
196.4013671875
 20
-292.4033203125
 30
0.0
 10
196.837890625
 20
-297.06787109375
 30
0.0
 10
198.025390625
 20
-301.46728515625
 30
0.0
 10
199.169921875
 20
-305.7236328125
 30
0.0
 10
200.421875
 20
-310.4091796875
 30
0.0
 10
201.609375
 20
-314.830078125
 30
0.0
 10
201.84521484375
 20
-319.4873046875
 30
0.0
 10
202.0380859375
 20
-323.2431640625
 30
0.0
 10
201.3447265625
 20
-327.06298828125
 30
0.0
 10
200.61474609375
 20
-331.10498046875
 30
0.0
 10
200.12109375
 20
-333.81640625
 30
0.0
 10
199.61328125
 20
-336.59912109375
 30
0.0
 10
199.376953125
 20
-339.431640625
 30
0.0
 10
195.349609375
 20
-344.5966796875
 30
0.0
 10
191.4365234375
 20
-349.9765625
 30
0.0
 10
187.630859375
 20
-355.2626953125
 30
0.0
 10
187.5810546875
 20
-348.28125
 30
0.0
 10
186.5791015625
 20
-342.12890625
 30
0.0
 10
185.9638671875
 20
-338.966796875
 30
0.0
 10
185.10546875
 20
-334.595703125
 30
0.0
 10
181.59326171875
 20
-331.77734375
 30
0.0
 10
177.02197265625
 20
-331.77734375
 30
0.0
 10
173.380859375
 20
-331.77734375
 30
0.0
 10
169.7822265625
 20
-333.6015625
 30
0.0
 10
167.84375
 20
-336.419921875
 30
0.0
 10
166.11962890625
 20
-338.9384765625
 30
0.0
 10
165.80517578125
 20
-341.9716796875
 30
0.0
 10
166.95703125
 20
-344.96875
 30
0.0
 10
169.1240234375
 20
-350.5703125
 30
0.0
 10
170.93408203125
 20
-355.677734375
 30
0.0
 10
171.1845703125
 20
-361.44384765625
 30
0.0
 10
171.2705078125
 20
-363.59716796875
 30
0.0
 10
171.17041015625
 20
-365.80029296875
 30
0.0
 10
171.0703125
 20
-368.12548828125
 30
0.0
 10
170.93408203125
 20
-371.20849609375
 30
0.0
 10
170.791015625
 20
-374.39208984375
 30
0.0
 10
171.10595703125
 20
-377.5966796875
 30
0.0
 10
168.0439453125
 20
-381.45263671875
 30
0.0
 10
165.1328125
 20
-384.87939453125
 30
0.0
 10
162.28515625
 20
-387.9765625
 30
0.0
 10
162.33544921875
 20
-380.408203125
 30
0.0
 10
160.318359375
 20
-372.939453125
 30
0.0
 10
156.4765625
 20
-367.474609375
 30
0.0
 10
154.544921875
 20
-364.712890625
 30
0.0
 10
150.775390625
 20
-363.439453125
 30
0.0
 10
147.75634765625
 20
-364.669921875
 30
0.0
 10
146.4755859375
 20
-365.18505859375
 30
0.0
 10
145.64599609375
 20
-365.86474609375
 30
0.0
 10
145.0234375
 20
-366.4443359375
 30
0.0
 10
143.00634765625
 20
-368.2900390625
 30
0.0
 10
142.291015625
 20
-371.6376953125
 30
0.0
 10
143.3564453125
 20
-374.212890625
 30
0.0
 10
143.3564453125
 20
-374.212890625
 30
0.0
 10
143.5283203125
 20
-374.6279296875
 30
0.0
 10
143.5283203125
 20
-374.6279296875
 30
0.0
 10
145.6103515625
 20
-379.7001953125
 30
0.0
 10
147.4130859375
 20
-384.0849609375
 30
0.0
 10
147.34130859375
 20
-389.30029296875
 30
0.0
 10
147.26953125
 20
-394.7158203125
 30
0.0
 10
145.23828125
 20
-399.8232421875
 30
0.0
 10
143.18505859375
 20
-404.82373046875
 30
0.0
 10
141.89013671875
 20
-405.7109375
 30
0.0
 10
140.5810546875
 20
-406.576171875
 30
0.0
 10
139.22900390625
 20
-407.39208984375
 30
0.0
 10
129.7646484375
 20
-413.09326171875
 30
0.0
 10
118.240234375
 20
-416.36279296875
 30
0.0
 10
107.6240234375
 20
-416.36279296875
 30
0.0
 10
96.986328125
 20
-416.36279296875
 30
0.0
 10
78.1435546875
 20
-413.09326171875
 30
0.0
 10
71.5048828125
 20
-391.18896484375
 30
0.0
 10
67.52734375
 20
-378.0830078125
 30
0.0
 10
72.298828125
 20
-363.41796875
 30
0.0
 10
82.84375
 20
-356.3076171875
 30
0.0
 10
89.2890625
 20
-351.96484375
 30
0.0
 10
96.478515625
 20
-351.5576171875
 30
0.0
 10
102.287109375
 20
-355.234375
 30
0.0
 10
105.341796875
 20
-357.208984375
 30
0.0
 10
107.6669921875
 20
-359.8056640625
 30
0.0
 10
109.4482421875
 20
-363.26806640625
 30
0.0
 10
109.626953125
 20
-363.58984375
 30
0.0
 10
109.79150390625
 20
-363.91162109375
 30
0.0
 10
109.9345703125
 20
-364.2333984375
 30
0.0
 10
104.71240234375
 20
-364.21923828125
 30
0.0
 10
99.576171875
 20
-366.60888671875
 30
0.0
 10
96.48583984375
 20
-370.650390625
 30
0.0
 10
93.359375
 20
-374.74951171875
 30
0.0
 10
92.50830078125
 20
-380.2080078125
 30
0.0
 10
94.0966796875
 20
-386.03125
 30
0.0
 10
96.0849609375
 20
-393.3349609375
 30
0.0
 10
102.24462890625
 20
-398.056640625
 30
0.0
 10
109.7841796875
 20
-398.056640625
 30
0.0
 10
112.466796875
 20
-398.056640625
 30
0.0
 10
115.22119140625
 20
-397.44140625
 30
0.0
 10
117.7392578125
 20
-396.275390625
 30
0.0
 10
129.0849609375
 20
-391.0458984375
 30
0.0
 10
132.33984375
 20
-377.568359375
 30
0.0
 10
131.68896484375
 20
-367.6171875
 30
0.0
 10
130.38720703125
 20
-347.59423828125
 30
0.0
 10
113.5615234375
 20
-331.2978515625
 30
0.0
 10
94.18212890625
 20
-331.2978515625
 30
0.0
 10
91.9501953125
 20
-331.2978515625
 30
0.0
 10
89.7109375
 20
-331.52001953125
 30
0.0
 10
87.529296875
 20
-331.9560546875
 30
0.0
 10
67.04833984375
 20
-336.041015625
 30
0.0
 10
50.56640625
 20
-357.33056640625
 30
0.0
 10
50.015625
 20
-380.42236328125
 30
0.0
 10
49.45751953125
 20
-403.50048828125
 30
0.0
 10
63.90771484375
 20
-425.2548828125
 30
0.0
 10
85.1611328125
 20
-433.32421875
 30
0.0
 10
88.94580078125
 20
-434.76171875
 30
0.0
 10
92.9091796875
 20
-435.79931640625
 30
0.0
 10
96.9794921875
 20
-436.43603515625
 30
0.0
 10
96.9794921875
 20
-436.43603515625
 30
0.0
 10
96.9794921875
 20
-437.3515625
 30
0.0
 10
96.9794921875
 20
-437.3515625
 30
0.0
 10
96.9794921875
 20
-437.3515625
 30
0.0
 10
864.140625
 20
-437.3515625
 30
0.0
 10
864.140625
 20
-437.3515625
 30
0.0
  0
SPLINE
  5
54
330
3C
100
AcDbEntity
  8
Layer 1
370
     0
100
AcDbSpline
210
0.0
220
0.0
230
1.0
 70
    11
 71
     3
 72
    14
 73
    10
 74
     0
 42
0.0000000001
 43
0.0000000001
 40
0.0
 40
0.0
 40
0.0
 40
0.0
 40
1.0
 40
1.0
 40
1.0
 40
2.0
 40
2.0
 40
2.0
 40
3.0
 40
3.0
 40
3.0
 40
3.0
 10
453.7158203125
 20
-420.98388671875
 30
0.0
 10
453.7158203125
 20
-420.98388671875
 30
0.0
 10
463.3984375
 20
-412.04541015625
 30
0.0
 10
463.3984375
 20
-412.04541015625
 30
0.0
 10
464.9794921875
 20
-415.228515625
 30
0.0
 10
466.814453125
 20
-418.25830078125
 30
0.0
 10
469.0068359375
 20
-420.98388671875
 30
0.0
 10
469.0068359375
 20
-420.98388671875
 30
0.0
 10
453.7158203125
 20
-420.98388671875
 30
0.0
 10
453.7158203125
 20
-420.98388671875
 30
0.0
  0
SPLINE
  5
55
330
3C
100
AcDbEntity
  8
Layer 1
370
     0
100
AcDbSpline
210
0.0
220
0.0
230
1.0
 70
    11
 71
     3
 72
    23
 73
    19
 74
     0
 42
0.0000000001
 43
0.0000000001
 40
0.0
 40
0.0
 40
0.0
 40
0.0
 40
1.0
 40
1.0
 40
1.0
 40
2.0
 40
2.0
 40
2.0
 40
3.0
 40
3.0
 40
3.0
 40
4.0
 40
4.0
 40
4.0
 40
5.0
 40
5.0
 40
5.0
 40
6.0
 40
6.0
 40
6.0
 40
6.0
 10
525.0849609375
 20
-402.09814453125
 30
0.0
 10
524.3046875
 20
-408.3291015625
 30
0.0
 10
521.1142578125
 20
-413.150390625
 30
0.0
 10
515.61328125
 20
-416.4267578125
 30
0.0
 10
511.84375
 20
-418.67333984375
 30
0.0
 10
507.81640625
 20
-419.810546875
 30
0.0
 10
503.630859375
 20
-419.810546875
 30
0.0
 10
492.1455078125
 20
-419.810546875
 30
0.0
 10
481.08984375
 20
-411.119140625
 30
0.0
 10
477.01953125
 20
-399.47265625
 30
0.0
 10
477.01953125
 20
-399.47265625
 30
0.0
 10
508.087890625
 20
-370.79345703125
 30
0.0
 10
508.087890625
 20
-370.79345703125
 30
0.0
 10
510.8203125
 20
-372.39599609375
 30
0.0
 10
513.302734375
 20
-374.2451171875
 30
0.0
 10
515.4560546875
 20
-376.4091796875
 30
0.0
 10
522.2802734375
 20
-383.26953125
 30
0.0
 10
526.158203125
 20
-393.59228515625
 30
0.0
 10
525.0849609375
 20
-402.09814453125
 30
0.0
  0
SPLINE
  5
56
330
3C
100
AcDbEntity
  8
Layer 1
370
     0
100
AcDbSpline
210
0.0
220
0.0
230
1.0
 70
    11
 71
     3
 72
    29
 73
    25
 74
     0
 42
0.0000000001
 43
0.0000000001
 40
0.0
 40
0.0
 40
0.0
 40
0.0
 40
1.0
 40
1.0
 40
1.0
 40
2.0
 40
2.0
 40
2.0
 40
3.0
 40
3.0
 40
3.0
 40
4.0
 40
4.0
 40
4.0
 40
5.0
 40
5.0
 40
5.0
 40
6.0
 40
6.0
 40
6.0
 40
7.0
 40
7.0
 40
7.0
 40
8.0
 40
8.0
 40
8.0
 40
8.0
 10
536.14453125
 20
-420.98388671875
 30
0.0
 10
537.4462890625
 20
-419.15234375
 30
0.0
 10
538.5693359375
 20
-417.1923828125
 30
0.0
 10
539.5068359375
 20
-415.125
 30
0.0
 10
548.9423828125
 20
-394.34716796875
 30
0.0
 10
537.5390625
 20
-370.2177734375
 30
0.0
 10
521.04296875
 20
-358.83251953125
 30
0.0
 10
521.04296875
 20
-358.83251953125
 30
0.0
 10
532.828125
 20
-347.95556640625
 30
0.0
 10
532.828125
 20
-347.95556640625
 30
0.0
 10
557.283203125
 20
-355.251953125
 30
0.0
 10
582.1533203125
 20
-358.564453125
 30
0.0
 10
606.322265625
 20
-361.7373046875
 30
0.0
 10
615.7509765625
 20
-362.974609375
 30
0.0
 10
625.494140625
 20
-364.2548828125
 30
0.0
 10
635.13671875
 20
-365.75732421875
 30
0.0
 10
637.033203125
 20
-366.0576171875
 30
0.0
 10
638.921875
 20
-366.37255859375
 30
0.0
 10
640.810546875
 20
-366.72314453125
 30
0.0
 10
657.056640625
 20
-385.416015625
 30
0.0
 10
665.93359375
 20
-404.923828125
 30
0.0
 10
665.5908203125
 20
-420.98388671875
 30
0.0
 10
665.5908203125
 20
-420.98388671875
 30
0.0
 10
536.14453125
 20
-420.98388671875
 30
0.0
 10
536.14453125
 20
-420.98388671875
 30
0.0
  0
SPLINE
  5
57
330
3C
100
AcDbEntity
  8
Layer 1
370
     0
100
AcDbSpline
210
0.0
220
0.0
230
1.0
 70
    11
 71
     3
 72
    23
 73
    19
 74
     0
 42
0.0000000001
 43
0.0000000001
 40
0.0
 40
0.0
 40
0.0
 40
0.0
 40
1.0
 40
1.0
 40
1.0
 40
2.0
 40
2.0
 40
2.0
 40
3.0
 40
3.0
 40
3.0
 40
4.0
 40
4.0
 40
4.0
 40
5.0
 40
5.0
 40
5.0
 40
6.0
 40
6.0
 40
6.0
 40
6.0
 10
554.9443359375
 20
-327.5390625
 30
0.0
 10
567.5703125
 20
-326.4833984375
 30
0.0
 10
579.931640625
 20
-327.384765625
 30
0.0
 10
590.369140625
 20
-330.38232421875
 30
0.0
 10
600.69921875
 20
-333.35107421875
 30
0.0
 10
613.17578125
 20
-340.84130859375
 30
0.0
 10
625.05078125
 20
-351.04931640625
 30
0.0
 10
622.5322265625
 20
-350.73486328125
 30
0.0
 10
620.0361328125
 20
-350.44140625
 30
0.0
 10
617.5751953125
 20
-350.14794921875
 30
0.0
 10
614.0625
 20
-349.7333984375
 30
0.0
 10
610.578125
 20
-349.318359375
 30
0.0
 10
607.123046875
 20
-348.86767578125
 30
0.0
 10
585.3330078125
 20
-346.03125
 30
0.0
 10
565.32421875
 20
-341.22021484375
 30
0.0
 10
547.322265625
 20
-334.57421875
 30
0.0
 10
547.322265625
 20
-334.57421875
 30
0.0
 10
554.9443359375
 20
-327.5390625
 30
0.0
 10
554.9443359375
 20
-327.5390625
 30
0.0
  0
SPLINE
  5
58
330
3C
100
AcDbEntity
  8
Layer 1
370
     0
100
AcDbSpline
210
0.0
220
0.0
230
1.0
 70
    11
 71
     3
 72
    23
 73
    19
 74
     0
 42
0.0000000001
 43
0.0000000001
 40
0.0
 40
0.0
 40
0.0
 40
0.0
 40
1.0
 40
1.0
 40
1.0
 40
2.0
 40
2.0
 40
2.0
 40
3.0
 40
3.0
 40
3.0
 40
4.0
 40
4.0
 40
4.0
 40
5.0
 40
5.0
 40
5.0
 40
6.0
 40
6.0
 40
6.0
 40
6.0
 10
689.18359375
 20
-420.2900390625
 30
0.0
 10
688.125
 20
-420.533203125
 30
0.0
 10
687.0732421875
 20
-420.76220703125
 30
0.0
 10
686.013671875
 20
-420.98388671875
 30
0.0
 10
686.013671875
 20
-420.98388671875
 30
0.0
 10
681.736328125
 20
-420.98388671875
 30
0.0
 10
681.736328125
 20
-420.98388671875
 30
0.0
 10
679.361328125
 20
-404.31591796875
 30
0.0
 10
673.5595703125
 20
-388.13427734375
 30
0.0
 10
664.767578125
 20
-373.5263671875
 30
0.0
 10
672.765625
 20
-376.83837890625
 30
0.0
 10
679.525390625
 20
-381.0302734375
 30
0.0
 10
685.255859375
 20
-386.20263671875
 30
0.0
 10
693.697265625
 20
-393.80712890625
 30
0.0
 10
698.740234375
 20
-402.47021484375
 30
0.0
 10
701.416015625
 20
-414.0234375
 30
0.0
 10
697.1884765625
 20
-416.39111328125
 30
0.0
 10
692.931640625
 20
-418.49462890625
 30
0.0
 10
689.18359375
 20
-420.2900390625
 30
0.0
  0
SPLINE
  5
59
330
3C
100
AcDbEntity
  8
Layer 1
370
     0
100
AcDbSpline
210
0.0
220
0.0
230
1.0
 70
    11
 71
     3
 72
   107
 73
   103
 74
     0
 42
0.0000000001
 43
0.0000000001
 40
0.0
 40
0.0
 40
0.0
 40
0.0
 40
1.0
 40
1.0
 40
1.0
 40
2.0
 40
2.0
 40
2.0
 40
3.0
 40
3.0
 40
3.0
 40
4.0
 40
4.0
 40
4.0
 40
5.0
 40
5.0
 40
5.0
 40
6.0
 40
6.0
 40
6.0
 40
7.0
 40
7.0
 40
7.0
 40
8.0
 40
8.0
 40
8.0
 40
9.0
 40
9.0
 40
9.0
 40
10.0
 40
10.0
 40
10.0
 40
11.0
 40
11.0
 40
11.0
 40
12.0
 40
12.0
 40
12.0
 40
13.0
 40
13.0
 40
13.0
 40
14.0
 40
14.0
 40
14.0
 40
15.0
 40
15.0
 40
15.0
 40
16.0
 40
16.0
 40
16.0
 40
17.0
 40
17.0
 40
17.0
 40
18.0
 40
18.0
 40
18.0
 40
19.0
 40
19.0
 40
19.0
 40
20.0
 40
20.0
 40
20.0
 40
21.0
 40
21.0
 40
21.0
 40
22.0
 40
22.0
 40
22.0
 40
23.0
 40
23.0
 40
23.0
 40
24.0
 40
24.0
 40
24.0
 40
25.0
 40
25.0
 40
25.0
 40
26.0
 40
26.0
 40
26.0
 40
27.0
 40
27.0
 40
27.0
 40
28.0
 40
28.0
 40
28.0
 40
29.0
 40
29.0
 40
29.0
 40
30.0
 40
30.0
 40
30.0
 40
31.0
 40
31.0
 40
31.0
 40
32.0
 40
32.0
 40
32.0
 40
33.0
 40
33.0
 40
33.0
 40
34.0
 40
34.0
 40
34.0
 40
34.0
 10
586.9501953125
 20
-297.99755859375
 30
0.0
 10
614.6240234375
 20
-272.0478515625
 30
0.0
 10
637.7734375
 20
-250.7294921875
 30
0.0
 10
656.462890625
 20
-233.96484375
 30
0.0
 10
662.37890625
 20
-235.474609375
 30
0.0
 10
668.6875
 20
-235.90380859375
 30
0.0
 10
673.0732421875
 20
-236.18994140625
 30
0.0
 10
673.0732421875
 20
-236.18994140625
 30
0.0
 10
673.845703125
 20
-236.23974609375
 30
0.0
 10
673.845703125
 20
-236.23974609375
 30
0.0
 10
660.6044921875
 20
-250.59033203125
 30
0.0
 10
651.197265625
 20
-272.4306640625
 30
0.0
 10
657.349609375
 20
-293.70556640625
 30
0.0
 10
661.90625
 20
-309.4794921875
 30
0.0
 10
677.13671875
 20
-321.3759765625
 30
0.0
 10
692.767578125
 20
-321.3759765625
 30
0.0
 10
699.3271484375
 20
-321.3759765625
 30
0.0
 10
705.623046875
 20
-319.244140625
 30
0.0
 10
710.966796875
 20
-315.2236328125
 30
0.0
 10
716.181640625
 20
-311.29638671875
 30
0.0
 10
718.234375
 20
-305.29443359375
 30
0.0
 10
716.3173828125
 20
-299.564453125
 30
0.0
 10
714.5
 20
-294.1201171875
 30
0.0
 10
709.4423828125
 20
-290.46484375
 30
0.0
 10
703.734375
 20
-290.46484375
 30
0.0
 10
701.65234375
 20
-290.46484375
 30
0.0
 10
699.5419921875
 20
-290.9296875
 30
0.0
 10
697.4599609375
 20
-291.83837890625
 30
0.0
 10
692.853515625
 20
-293.8486328125
 30
0.0
 10
689.333984375
 20
-293.4052734375
 30
0.0
 10
686.607421875
 20
-290.2431640625
 30
0.0
 10
682.623046875
 20
-285.62890625
 30
0.0
 10
681.4072265625
 20
-276.830078125
 30
0.0
 10
682.2802734375
 20
-270.892578125
 30
0.0
 10
683.8037109375
 20
-260.57666015625
 30
0.0
 10
690.2275390625
 20
-252.521484375
 30
0.0
 10
695.3427734375
 20
-247.58544921875
 30
0.0
 10
704.75
 20
-238.5078125
 30
0.0
 10
717.9052734375
 20
-233.2998046875
 30
0.0
 10
731.43359375
 20
-233.2998046875
 30
0.0
 10
735.9609375
 20
-233.2998046875
 30
0.0
 10
740.42578125
 20
-233.88623046875
 30
0.0
 10
744.703125
 20
-235.0380859375
 30
0.0
 10
752.142578125
 20
-237.041015625
 30
0.0
 10
758.974609375
 20
-240.24609375
 30
0.0
 10
765.1123046875
 20
-244.6240234375
 30
0.0
 10
749.681640625
 20
-244.1162109375
 30
0.0
 10
736.69140625
 20
-251.0263671875
 30
0.0
 10
730.8681640625
 20
-262.787109375
 30
0.0
 10
729.0869140625
 20
-266.3857421875
 30
0.0
 10
729.322265625
 20
-270.47021484375
 30
0.0
 10
731.51171875
 20
-273.9970703125
 30
0.0
 10
733.7080078125
 20
-277.5380859375
 30
0.0
 10
737.4423828125
 20
-279.734375
 30
0.0
 10
741.2548828125
 20
-279.734375
 30
0.0
 10
744.216796875
 20
-279.734375
 30
0.0
 10
747.0
 20
-278.396484375
 30
0.0
 10
749.095703125
 20
-275.96435546875
 30
0.0
 10
755.333984375
 20
-268.73193359375
 30
0.0
 10
761.134765625
 20
-262.615234375
 30
0.0
 10
769.0185546875
 20
-260.99169921875
 30
0.0
 10
774.119140625
 20
-259.92578125
 30
0.0
 10
779.0546875
 20
-261.53515625
 30
0.0
 10
784.4130859375
 20
-265.98486328125
 30
0.0
 10
793.7421875
 20
-281.96630859375
 30
0.0
 10
797.3828125
 20
-301.939453125
 30
0.0
 10
794.4072265625
 20
-320.9111328125
 30
0.0
 10
789.7138671875
 20
-350.80615234375
 30
0.0
 10
772.130859375
 20
-377.1533203125
 30
0.0
 10
744.9609375
 20
-396.03173828125
 30
0.0
 10
745.1328125
 20
-395.78857421875
 30
0.0
 10
745.296875
 20
-395.54541015625
 30
0.0
 10
745.46875
 20
-395.294921875
 30
0.0
 10
756.814453125
 20
-378.498046875
 30
0.0
 10
760.0546875
 20
-353.24560546875
 30
0.0
 10
743.72265625
 20
-339.52490234375
 30
0.0
 10
741.6416015625
 20
-337.779296875
 30
0.0
 10
738.951171875
 20
-336.82080078125
 30
0.0
 10
736.1474609375
 20
-336.82080078125
 30
0.0
 10
732.2841796875
 20
-336.82080078125
 30
0.0
 10
728.7216796875
 20
-338.544921875
 30
0.0
 10
726.6044921875
 20
-341.44189453125
 30
0.0
 10
724.666015625
 20
-344.0888671875
 30
0.0
 10
724.1865234375
 20
-347.408203125
 30
0.0
 10
725.259765625
 20
-350.77734375
 30
0.0
 10
731.0751953125
 20
-368.998046875
 30
0.0
 10
735.2744140625
 20
-382.1611328125
 30
0.0
 10
722.1474609375
 20
-397.86328125
 30
0.0
 10
719.5791015625
 20
-400.93212890625
 30
0.0
 10
716.517578125
 20
-403.81494140625
 30
0.0
 10
712.8623046875
 20
-406.6123046875
 30
0.0
 10
709.306640625
 20
-392.61962890625
 30
0.0
 10
698.876953125
 20
-380.193359375
 30
0.0
 10
689.4765625
 20
-372.7109375
 30
0.0
 10
679.404296875
 20
-364.69140625
 30
0.0
 10
667.3720703125
 20
-359.2119140625
 30
0.0
 10
651.69140625
 20
-355.51318359375
 30
0.0
 10
630.5234375
 20
-331.1083984375
 30
0.0
 10
601.2431640625
 20
-316.2001953125
 30
0.0
 10
570.052734375
 20
-313.59619140625
 30
0.0
 10
570.052734375
 20
-313.59619140625
 30
0.0
 10
586.9501953125
 20
-297.99755859375
 30
0.0
 10
586.9501953125
 20
-297.99755859375
 30
0.0
  0
SPLINE
  5
5A
330
3C
100
AcDbEntity
  8
Layer 1
370
     0
100
AcDbSpline
210
0.0
220
0.0
230
1.0
 70
    11
 71
     3
 72
    20
 73
    16
 74
     0
 42
0.0000000001
 43
0.0000000001
 40
0.0
 40
0.0
 40
0.0
 40
0.0
 40
1.0
 40
1.0
 40
1.0
 40
2.0
 40
2.0
 40
2.0
 40
3.0
 40
3.0
 40
3.0
 40
4.0
 40
4.0
 40
4.0
 40
5.0
 40
5.0
 40
5.0
 40
5.0
 10
462.1826171875
 20
-365.328125
 30
0.0
 10
461.0947265625
 20
-367.95361328125
 30
0.0
 10
460.201171875
 20
-370.63623046875
 30
0.0
 10
459.5
 20
-373.34765625
 30
0.0
 10
459.1884765625
 20
-374.5634765625
 30
0.0
 10
459.013671875
 20
-375.79052734375
 30
0.0
 10
458.7841796875
 20
-377.013671875
 30
0.0
 10
458.7841796875
 20
-377.013671875
 30
0.0
 10
412.013671875
 20
-419.14892578125
 30
0.0
 10
412.013671875
 20
-419.14892578125
 30
0.0
 10
411.041015625
 20
-408.5224609375
 30
0.0
 10
408.283203125
 20
-397.2158203125
 30
0.0
 10
403.658203125
 20
-385.3583984375
 30
0.0
 10
420.5048828125
 20
-377.05322265625
 30
0.0
 10
440.263671875
 20
-368.61181640625
 30
0.0
 10
462.1826171875
 20
-365.328125
 30
0.0
  0
SPLINE
  5
5B
330
3C
100
AcDbEntity
  8
Layer 1
370
     0
100
AcDbSpline
210
0.0
220
0.0
230
1.0
 70
    11
 71
     3
 72
    20
 73
    16
 74
     0
 42
0.0000000001
 43
0.0000000001
 40
0.0
 40
0.0
 40
0.0
 40
0.0
 40
1.0
 40
1.0
 40
1.0
 40
2.0
 40
2.0
 40
2.0
 40
3.0
 40
3.0
 40
3.0
 40
4.0
 40
4.0
 40
4.0
 40
5.0
 40
5.0
 40
5.0
 40
5.0
 10
393.513671875
 20
-419.35302734375
 30
0.0
 10
393.513671875
 20
-419.35302734375
 30
0.0
 10
393.986328125
 20
-420.98388671875
 30
0.0
 10
393.986328125
 20
-420.98388671875
 30
0.0
 10
393.986328125
 20
-420.98388671875
 30
0.0
 10
332.8505859375
 20
-420.98388671875
 30
0.0
 10
332.8505859375
 20
-420.98388671875
 30
0.0
 10
348.4033203125
 20
-414.5458984375
 30
0.0
 10
363.3681640625
 20
-406.54052734375
 30
0.0
 10
377.9833984375
 20
-398.728515625
 30
0.0
 10
380.6806640625
 20
-397.291015625
 30
0.0
 10
383.3701171875
 20
-395.845703125
 30
0.0
 10
386.0673828125
 20
-394.4150390625
 30
0.0
 10
388.763671875
 20
-402.720703125
 30
0.0
 10
391.1748046875
 20
-411.15478515625
 30
0.0
 10
393.513671875
 20
-419.35302734375
 30
0.0
  0
SPLINE
  5
5C
330
3C
100
AcDbEntity
  8
Layer 1
370
     0
100
AcDbSpline
210
0.0
220
0.0
230
1.0
 70
    11
 71
     3
 72
    23
 73
    19
 74
     0
 42
0.0000000001
 43
0.0000000001
 40
0.0
 40
0.0
 40
0.0
 40
0.0
 40
1.0
 40
1.0
 40
1.0
 40
2.0
 40
2.0
 40
2.0
 40
3.0
 40
3.0
 40
3.0
 40
4.0
 40
4.0
 40
4.0
 40
5.0
 40
5.0
 40
5.0
 40
6.0
 40
6.0
 40
6.0
 40
6.0
 10
360.3642578125
 20
-343.57373046875
 30
0.0
 10
367.7392578125
 20
-352.12255859375
 30
0.0
 10
374.1279296875
 20
-363.16064453125
 30
0.0
 10
379.84375
 20
-377.2392578125
 30
0.0
 10
377.50390625
 20
-378.41943359375
 30
0.0
 10
375.1865234375
 20
-379.5927734375
 30
0.0
 10
372.904296875
 20
-380.75146484375
 30
0.0
 10
363.76171875
 20
-385.3798828125
 30
0.0
 10
355.134765625
 20
-389.7509765625
 30
0.0
 10
347.27978515625
 20
-393.29931640625
 30
0.0
 10
336.6708984375
 20
-398.0849609375
 30
0.0
 10
325.7509765625
 20
-402.69189453125
 30
0.0
 10
314.8017578125
 20
-406.236328125
 30
0.0
 10
314.8017578125
 20
-406.236328125
 30
0.0
 10
314.8017578125
 20
-313.0703125
 30
0.0
 10
314.8017578125
 20
-313.0703125
 30
0.0
 10
331.970703125
 20
-318.43212890625
 30
0.0
 10
347.623046875
 20
-328.7978515625
 30
0.0
 10
360.3642578125
 20
-343.57373046875
 30
0.0
  0
SPLINE
  5
5D
330
3C
100
AcDbEntity
  8
Layer 1
370
     0
100
AcDbSpline
210
0.0
220
0.0
230
1.0
 70
    11
 71
     3
 72
    20
 73
    16
 74
     0
 42
0.0000000001
 43
0.0000000001
 40
0.0
 40
0.0
 40
0.0
 40
0.0
 40
1.0
 40
1.0
 40
1.0
 40
2.0
 40
2.0
 40
2.0
 40
3.0
 40
3.0
 40
3.0
 40
4.0
 40
4.0
 40
4.0
 40
5.0
 40
5.0
 40
5.0
 40
5.0
 10
157.45654296875
 20
-417.72900390625
 30
0.0
 10
173.8388671875
 20
-404.73779296875
 30
0.0
 10
185.634765625
 20
-387.3974609375
 30
0.0
 10
197.044921875
 20
-370.62890625
 30
0.0
 10
199.76708984375
 20
-366.623046875
 30
0.0
 10
202.5390625
 20
-362.552734375
 30
0.0
 10
205.38671875
 20
-358.52490234375
 30
0.0
 10
205.38671875
 20
-358.52490234375
 30
0.0
 10
205.38671875
 20
-420.98388671875
 30
0.0
 10
205.38671875
 20
-420.98388671875
 30
0.0
 10
205.38671875
 20
-420.98388671875
 30
0.0
 10
153.12158203125
 20
-420.98388671875
 30
0.0
 10
153.12158203125
 20
-420.98388671875
 30
0.0
 10
154.587890625
 20
-419.939453125
 30
0.0
 10
156.033203125
 20
-418.85205078125
 30
0.0
 10
157.45654296875
 20
-417.72900390625
 30
0.0
  0
HATCH
  5
5E
330
3C
100
AcDbEntity
  8
Layer 1
 62
     7
100
AcDbHatch
 10
0.0
 20
0.0
 30
0.0
210
0.0
220
0.0
230
1.0
  2
SOLID
 70
     1
 71
     0
 91
       11
 92
        1
 93
        1
 72
     4
 94
        3
 73
     0
 74
     1
 95
      389
 96
      385
 40
0.0
 40
0.0
 40
0.0
 40
0.0
 40
1.0
 40
1.0
 40
1.0
 40
2.0
 40
2.0
 40
2.0
 40
3.0
 40
3.0
 40
3.0
 40
4.0
 40
4.0
 40
4.0
 40
5.0
 40
5.0
 40
5.0
 40
6.0
 40
6.0
 40
6.0
 40
7.0
 40
7.0
 40
7.0
 40
8.0
 40
8.0
 40
8.0
 40
9.0
 40
9.0
 40
9.0
 40
10.0
 40
10.0
 40
10.0
 40
11.0
 40
11.0
 40
11.0
 40
12.0
 40
12.0
 40
12.0
 40
13.0
 40
13.0
 40
13.0
 40
14.0
 40
14.0
 40
14.0
 40
15.0
 40
15.0
 40
15.0
 40
16.0
 40
16.0
 40
16.0
 40
17.0
 40
17.0
 40
17.0
 40
18.0
 40
18.0
 40
18.0
 40
19.0
 40
19.0
 40
19.0
 40
20.0
 40
20.0
 40
20.0
 40
21.0
 40
21.0
 40
21.0
 40
22.0
 40
22.0
 40
22.0
 40
23.0
 40
23.0
 40
23.0
 40
24.0
 40
24.0
 40
24.0
 40
25.0
 40
25.0
 40
25.0
 40
26.0
 40
26.0
 40
26.0
 40
27.0
 40
27.0
 40
27.0
 40
28.0
 40
28.0
 40
28.0
 40
29.0
 40
29.0
 40
29.0
 40
30.0
 40
30.0
 40
30.0
 40
31.0
 40
31.0
 40
31.0
 40
32.0
 40
32.0
 40
32.0
 40
33.0
 40
33.0
 40
33.0
 40
34.0
 40
34.0
 40
34.0
 40
35.0
 40
35.0
 40
35.0
 40
36.0
 40
36.0
 40
36.0
 40
37.0
 40
37.0
 40
37.0
 40
38.0
 40
38.0
 40
38.0
 40
39.0
 40
39.0
 40
39.0
 40
40.0
 40
40.0
 40
40.0
 40
41.0
 40
41.0
 40
41.0
 40
42.0
 40
42.0
 40
42.0
 40
43.0
 40
43.0
 40
43.0
 40
44.0
 40
44.0
 40
44.0
 40
45.0
 40
45.0
 40
45.0
 40
46.0
 40
46.0
 40
46.0
 40
47.0
 40
47.0
 40
47.0
 40
48.0
 40
48.0
 40
48.0
 40
49.0
 40
49.0
 40
49.0
 40
50.0
 40
50.0
 40
50.0
 40
51.0
 40
51.0
 40
51.0
 40
52.0
 40
52.0
 40
52.0
 40
53.0
 40
53.0
 40
53.0
 40
54.0
 40
54.0
 40
54.0
 40
55.0
 40
55.0
 40
55.0
 40
56.0
 40
56.0
 40
56.0
 40
57.0
 40
57.0
 40
57.0
 40
58.0
 40
58.0
 40
58.0
 40
59.0
 40
59.0
 40
59.0
 40
60.0
 40
60.0
 40
60.0
 40
61.0
 40
61.0
 40
61.0
 40
62.0
 40
62.0
 40
62.0
 40
63.0
 40
63.0
 40
63.0
 40
64.0
 40
64.0
 40
64.0
 40
65.0
 40
65.0
 40
65.0
 40
66.0
 40
66.0
 40
66.0
 40
67.0
 40
67.0
 40
67.0
 40
68.0
 40
68.0
 40
68.0
 40
69.0
 40
69.0
 40
69.0
 40
70.0
 40
70.0
 40
70.0
 40
71.0
 40
71.0
 40
71.0
 40
72.0
 40
72.0
 40
72.0
 40
73.0
 40
73.0
 40
73.0
 40
74.0
 40
74.0
 40
74.0
 40
75.0
 40
75.0
 40
75.0
 40
76.0
 40
76.0
 40
76.0
 40
77.0
 40
77.0
 40
77.0
 40
78.0
 40
78.0
 40
78.0
 40
79.0
 40
79.0
 40
79.0
 40
80.0
 40
80.0
 40
80.0
 40
81.0
 40
81.0
 40
81.0
 40
82.0
 40
82.0
 40
82.0
 40
83.0
 40
83.0
 40
83.0
 40
84.0
 40
84.0
 40
84.0
 40
85.0
 40
85.0
 40
85.0
 40
86.0
 40
86.0
 40
86.0
 40
87.0
 40
87.0
 40
87.0
 40
88.0
 40
88.0
 40
88.0
 40
89.0
 40
89.0
 40
89.0
 40
90.0
 40
90.0
 40
90.0
 40
91.0
 40
91.0
 40
91.0
 40
92.0
 40
92.0
 40
92.0
 40
93.0
 40
93.0
 40
93.0
 40
94.0
 40
94.0
 40
94.0
 40
95.0
 40
95.0
 40
95.0
 40
96.0
 40
96.0
 40
96.0
 40
97.0
 40
97.0
 40
97.0
 40
98.0
 40
98.0
 40
98.0
 40
99.0
 40
99.0
 40
99.0
 40
100.0
 40
100.0
 40
100.0
 40
101.0
 40
101.0
 40
101.0
 40
102.0
 40
102.0
 40
102.0
 40
103.0
 40
103.0
 40
103.0
 40
104.0
 40
104.0
 40
104.0
 40
105.0
 40
105.0
 40
105.0
 40
106.0
 40
106.0
 40
106.0
 40
107.0
 40
107.0
 40
107.0
 40
108.0
 40
108.0
 40
108.0
 40
109.0
 40
109.0
 40
109.0
 40
110.0
 40
110.0
 40
110.0
 40
111.0
 40
111.0
 40
111.0
 40
112.0
 40
112.0
 40
112.0
 40
113.0
 40
113.0
 40
113.0
 40
114.0
 40
114.0
 40
114.0
 40
115.0
 40
115.0
 40
115.0
 40
116.0
 40
116.0
 40
116.0
 40
117.0
 40
117.0
 40
117.0
 40
118.0
 40
118.0
 40
118.0
 40
119.0
 40
119.0
 40
119.0
 40
120.0
 40
120.0
 40
120.0
 40
121.0
 40
121.0
 40
121.0
 40
122.0
 40
122.0
 40
122.0
 40
123.0
 40
123.0
 40
123.0
 40
124.0
 40
124.0
 40
124.0
 40
125.0
 40
125.0
 40
125.0
 40
126.0
 40
126.0
 40
126.0
 40
127.0
 40
127.0
 40
127.0
 40
128.0
 40
128.0
 40
128.0
 40
128.0
 10
864.140625
 20
-437.3515625
 10
864.140625
 20
-437.3515625
 10
864.140625
 20
-420.98388671875
 10
864.140625
 20
-420.98388671875
 10
864.140625
 20
-420.98388671875
 10
728.03515625
 20
-420.98388671875
 10
728.03515625
 20
-420.98388671875
 10
737.61328125
 20
-416.2412109375
 10
746.755859375
 20
-410.53955078125
 10
755.369140625
 20
-403.94384765625
 10
763.58203125
 20
-400.1455078125
 10
770.4853515625
 20
-397.26220703125
 10
777.875
 20
-397.26220703125
 10
781.39453125
 20
-397.26220703125
 10
784.814453125
 20
-397.92041015625
 10
788.3408203125
 20
-399.265625
 10
792.5830078125
 20
-400.88916015625
 10
798.0986328125
 20
-403.12841796875
 10
803.0703125
 20
-406.0615234375
 10
803.0703125
 20
-406.0615234375
 10
804.9013671875
 20
-407.1630859375
 10
804.9013671875
 20
-407.1630859375
 10
808.556640625
 20
-409.39501953125
 10
812.0048828125
 20
-411.498046875
 10
817.7421875
 20
-411.6552734375
 10
820.4248046875
 20
-411.6552734375
 10
822.935546875
 20
-410.41796875
 10
824.638671875
 20
-408.2646484375
 10
826.4267578125
 20
-405.9970703125
 10
827.1064453125
 20
-402.9853515625
 10
826.44140625
 20
-400.20263671875
 10
822.2421875
 20
-382.6259765625
 10
798.4560546875
 20
-381.259765625
 10
791.2666015625
 20
-381.259765625
 10
788.90625
 20
-381.259765625
 10
786.609375
 20
-381.380859375
 10
784.44140625
 20
-381.6171875
 10
782.6748046875
 20
-381.810546875
 10
780.55078125
 20
-382.11083984375
 10
778.17578125
 20
-382.57568359375
 10
779.18359375
 20
-381.40234375
 10
780.1708984375
 20
-380.2080078125
 10
781.13671875
 20
-378.9990234375
 10
781.923828125
 20
-378.712890625
 10
782.6103515625
 20
-378.205078125
 10
783.1259765625
 20
-377.51806640625
 10
785.787109375
 20
-373.9912109375
 10
788.51953125
 20
-370.1787109375
 10
791.3525390625
 20
-366.22265625
 10
809.072265625
 20
-341.48486328125
 10
829.2314453125
 20
-313.3349609375
 10
859.498046875
 20
-315.552734375
 10
859.8486328125
 20
-315.58154296875
 10
860.185546875
 20
-315.595703125
 10
860.513671875
 20
-315.595703125
 10
860.513671875
 20
-315.595703125
 10
860.513671875
 20
-315.595703125
 10
860.521484375
 20
-315.595703125
 10
866.56640625
 20
-315.595703125
 10
870.994140625
 20
-311.2607421875
 10
871.2802734375
 20
-305.05859375
 10
871.5595703125
 20
-299.1494140625
 10
867.703125
 20
-292.4892578125
 10
860.013671875
 20
-291.77392578125
 10
840.119140625
 20
-289.92822265625
 10
826.18359375
 20
-302.3828125
 10
815.353515625
 20
-314.5224609375
 10
812.9140625
 20
-317.25537109375
 10
810.4169921875
 20
-320.0595703125
 10
807.9130859375
 20
-322.94970703125
 10
812.7705078125
 20
-298.884765625
 10
809.4375
 20
-275.44921875
 10
798.10546875
 20
-255.58349609375
 10
795.0869140625
 20
-250.296875
 10
791.423828125
 20
-245.2822265625
 10
787.2177734375
 20
-240.66796875
 10
787.0888671875
 20
-238.142578125
 10
786.7734375
 20
-235.66015625
 10
786.4736328125
 20
-233.2421875
 10
786.0947265625
 20
-230.251953125
 10
785.736328125
 20
-227.43359375
 10
785.7294921875
 20
-224.63671875
 10
785.701171875
 20
-215.88037109375
 10
787.76171875
 20
-208.283203125
 10
792.3896484375
 20
-199.9921875
 10
792.67578125
 20
-199.4912109375
 10
793.0908203125
 20
-198.8046875
 10
793.583984375
 20
-197.98193359375
 10
799.0283203125
 20
-188.939453125
 10
804.537109375
 20
-178.7529296875
 10
800.888671875
 20
-172.29296875
 10
799.658203125
 20
-170.12548828125
 10
796.8818359375
 20
-167.50732421875
 10
790.55859375
 20
-167.83642578125
 10
773.404296875
 20
-168.6806640625
 10
770.70703125
 20
-196.765625
 10
769.69140625
 20
-207.3388671875
 10
769.2265625
 20
-212.16796875
 10
768.58984375
 20
-218.75634765625
 10
768.83984375
 20
-225.4736328125
 10
755.919921875
 20
-217.54736328125
 10
741.1689453125
 20
-213.2548828125
 10
726.5546875
 20
-213.2548828125
 10
713.90625
 20
-213.2548828125
 10
701.5732421875
 20
-216.5244140625
 10
690.814453125
 20
-222.71923828125
 10
685.462890625
 20
-223.09130859375
 10
680.333984375
 20
-222.640625
 10
675.69140625
 20
-221.28857421875
 10
674.6181640625
 20
-220.9775390625
 10
673.5380859375
 20
-220.4228515625
 10
672.4580078125
 20
-219.78271484375
 10
682.6162109375
 20
-210.890625
 10
690.986328125
 20
-203.830078125
 10
697.48828125
 20
-198.67578125
 10
717.318359375
 20
-182.96630859375
 10
739.1015625
 20
-170.25390625
 10
762.8662109375
 20
-160.51806640625
 10
786.6171875
 20
-150.7958984375
 10
810.28125
 20
-145.74560546875
 10
833.845703125
 20
-145.37353515625
 10
833.845703125
 20
-145.37353515625
 10
833.845703125
 20
-119.55615234375
 10
833.845703125
 20
-119.55615234375
 10
833.845703125
 20
-119.55615234375
 10
547.111328125
 20
-119.55615234375
 10
547.111328125
 20
-119.55615234375
 10
547.111328125
 20
-119.55615234375
 10
547.111328125
 20
-145.37353515625
 10
547.111328125
 20
-145.37353515625
 10
600.978515625
 20
-146.86865234375
 10
627.912109375
 20
-163.1435546875
 10
627.912109375
 20
-194.1904296875
 10
627.912109375
 20
-214.7646484375
 10
600.978515625
 20
-249.1806640625
 10
547.111328125
 20
-297.4326171875
 10
547.111328125
 20
-297.4326171875
 10
523.697265625
 20
-318.52880859375
 10
523.697265625
 20
-318.52880859375
 10
521.6015625
 20
-319.140625
 10
519.5048828125
 20
-319.7880859375
 10
517.416015625
 20
-320.5029296875
 10
517.416015625
 20
-320.5029296875
 10
517.13671875
 20
-320.603515625
 10
517.13671875
 20
-320.603515625
 10
512.73046875
 20
-318.07080078125
 10
508.7529296875
 20
-315.552734375
 10
505.0185546875
 20
-312.9345703125
 10
488.658203125
 20
-301.4599609375
 10
478.134765625
 20
-286.36572265625
 10
476.16015625
 20
-271.529296875
 10
474.1005859375
 20
-256.11279296875
 10
482.6708984375
 20
-241.95556640625
 10
496.5341796875
 20
-237.87109375
 10
502.572265625
 20
-236.0966796875
 10
506.02734375
 20
-230.6884765625
 10
505.119140625
 20
-224.421875
 10
504.32421875
 20
-218.91357421875
 10
499.947265625
 20
-213.3408203125
 10
493.107421875
 20
-213.3408203125
 10
491.884765625
 20
-213.3408203125
 10
490.6328125
 20
-213.52685546875
 10
489.3876953125
 20
-213.8916015625
 10
470.4453125
 20
-219.478515625
 10
456.466796875
 20
-235.2529296875
 10
452.3671875
 20
-255.03271484375
 10
451.416015625
 20
-254.28125
 10
450.478515625
 20
-253.56591796875
 10
449.578125
 20
-252.88671875
 10
449.578125
 20
-252.88671875
 10
448.6328125
 20
-252.1640625
 10
448.6328125
 20
-252.1640625
 10
441.580078125
 20
-246.79150390625
 10
432.158203125
 20
-240.56787109375
 10
421.513671875
 20
-240.203125
 10
417.1572265625
 20
-240.203125
 10
413.609375
 20
-243.2578125
 10
412.693359375
 20
-247.80029296875
 10
411.7060546875
 20
-252.70751953125
 10
414.0380859375
 20
-257.55078125
 10
418.251953125
 20
-259.32470703125
 10
421.8857421875
 20
-260.84130859375
 10
425.583984375
 20
-261.69970703125
 10
429.16796875
 20
-262.537109375
 10
433.0595703125
 20
-263.4384765625
 10
436.7294921875
 20
-264.28955078125
 10
440.177734375
 20
-265.9130859375
 10
442.9248046875
 20
-267.2080078125
 10
445.4140625
 20
-269.1826171875
 10
448.0537109375
 20
-271.271484375
 10
449.212890625
 20
-272.1943359375
 10
450.37109375
 20
-273.10986328125
 10
451.5517578125
 20
-273.96826171875
 10
451.78125
 20
-275.94287109375
 10
452.1103515625
 20
-277.8955078125
 10
452.5322265625
 20
-279.81298828125
 10
452.982421875
 20
-281.873046875
 10
453.533203125
 20
-283.912109375
 10
454.177734375
 20
-285.9296875
 10
452.353515625
 20
-285.20703125
 10
450.5
 20
-284.5556640625
 10
448.662109375
 20
-283.99072265625
 10
443.4111328125
 20
-282.38818359375
 10
438.3466796875
 20
-286.39453125
 10
437.98828125
 20
-292.224609375
 10
437.6953125
 20
-297.0888671875
 10
440.7216796875
 20
-300.8876953125
 10
445.357421875
 20
-301.4599609375
 10
450.25
 20
-302.06103515625
 10
454.6494140625
 20
-302.71923828125
 10
458.8701171875
 20
-304.7509765625
 10
460.458984375
 20
-305.5234375
 10
462.025390625
 20
-306.4462890625
 10
463.677734375
 20
-307.42626953125
 10
464.8291015625
 20
-308.10595703125
 10
465.98046875
 20
-308.78515625
 10
467.146484375
 20
-309.421875
 10
473.87109375
 20
-317.591796875
 10
482.65625
 20
-324.92431640625
 10
493.3369140625
 20
-331.291015625
 10
486.0546875
 20
-335.5615234375
 10
479.873046875
 20
-340.412109375
 10
474.8876953125
 20
-345.755859375
 10
448.197265625
 20
-346.32080078125
 10
420.43359375
 20
-357.61669921875
 10
396.318359375
 20
-369.126953125
 10
384.830078125
 20
-346.70703125
 10
368.6767578125
 20
-326.26904296875
 10
352.630859375
 20
-313.97900390625
 10
341.4208984375
 20
-305.38037109375
 10
328.50146484375
 20
-299.16748046875
 10
314.837890625
 20
-295.56201171875
 10
315.109375
 20
-240.22802734375
 10
317.05908203125
 20
-204.720703125
 10
320.69677734375
 20
-189.14013671875
 10
324.6240234375
 20
-172.3076171875
 10
332.3857421875
 20
-160.80419921875
 10
343.98193359375
 20
-154.63037109375
 10
355.5712890625
 20
-148.45703125
 10
380.080078125
 20
-145.37353515625
 10
417.4931640625
 20
-145.37353515625
 10
417.4931640625
 20
-145.37353515625
 10
431.521484375
 20
-145.37353515625
 10
431.521484375
 20
-145.37353515625
 10
431.521484375
 20
-145.37353515625
 10
431.521484375
 20
-119.55615234375
 10
431.521484375
 20
-119.55615234375
 10
431.521484375
 20
-119.55615234375
 10
94.84033203125
 20
-119.55615234375
 10
94.84033203125
 20
-119.55615234375
 10
94.84033203125
 20
-119.55615234375
 10
94.84033203125
 20
-145.37353515625
 10
94.84033203125
 20
-145.37353515625
 10
137.49072265625
 20
-145.37353515625
 10
164.60693359375
 20
-148.37109375
 10
176.20654296875
 20
-154.3515625
 10
187.79541015625
 20
-160.33935546875
 10
195.564453125
 20
-171.935546875
 10
199.49169921875
 20
-189.14013671875
 10
202.78955078125
 20
-203.57958984375
 10
204.6962890625
 20
-234.1435546875
 10
205.2255859375
 20
-280.70703125
 10
202.947265625
 20
-281.3330078125
 10
200.80810546875
 20
-282.5634765625
 10
199.1982421875
 20
-284.333984375
 10
197.1240234375
 20
-286.6162109375
 10
196.12939453125
 20
-289.48486328125
 10
196.4013671875
 20
-292.4033203125
 10
196.837890625
 20
-297.06787109375
 10
198.025390625
 20
-301.46728515625
 10
199.169921875
 20
-305.7236328125
 10
200.421875
 20
-310.4091796875
 10
201.609375
 20
-314.830078125
 10
201.84521484375
 20
-319.4873046875
 10
202.0380859375
 20
-323.2431640625
 10
201.3447265625
 20
-327.06298828125
 10
200.61474609375
 20
-331.10498046875
 10
200.12109375
 20
-333.81640625
 10
199.61328125
 20
-336.59912109375
 10
199.376953125
 20
-339.431640625
 10
195.349609375
 20
-344.5966796875
 10
191.4365234375
 20
-349.9765625
 10
187.630859375
 20
-355.2626953125
 10
187.5810546875
 20
-348.28125
 10
186.5791015625
 20
-342.12890625
 10
185.9638671875
 20
-338.966796875
 10
185.10546875
 20
-334.595703125
 10
181.59326171875
 20
-331.77734375
 10
177.02197265625
 20
-331.77734375
 10
173.380859375
 20
-331.77734375
 10
169.7822265625
 20
-333.6015625
 10
167.84375
 20
-336.419921875
 10
166.11962890625
 20
-338.9384765625
 10
165.80517578125
 20
-341.9716796875
 10
166.95703125
 20
-344.96875
 10
169.1240234375
 20
-350.5703125
 10
170.93408203125
 20
-355.677734375
 10
171.1845703125
 20
-361.44384765625
 10
171.2705078125
 20
-363.59716796875
 10
171.17041015625
 20
-365.80029296875
 10
171.0703125
 20
-368.12548828125
 10
170.93408203125
 20
-371.20849609375
 10
170.791015625
 20
-374.39208984375
 10
171.10595703125
 20
-377.5966796875
 10
168.0439453125
 20
-381.45263671875
 10
165.1328125
 20
-384.87939453125
 10
162.28515625
 20
-387.9765625
 10
162.33544921875
 20
-380.408203125
 10
160.318359375
 20
-372.939453125
 10
156.4765625
 20
-367.474609375
 10
154.544921875
 20
-364.712890625
 10
150.775390625
 20
-363.439453125
 10
147.75634765625
 20
-364.669921875
 10
146.4755859375
 20
-365.18505859375
 10
145.64599609375
 20
-365.86474609375
 10
145.0234375
 20
-366.4443359375
 10
143.00634765625
 20
-368.2900390625
 10
142.291015625
 20
-371.6376953125
 10
143.3564453125
 20
-374.212890625
 10
143.3564453125
 20
-374.212890625
 10
143.5283203125
 20
-374.6279296875
 10
143.5283203125
 20
-374.6279296875
 10
145.6103515625
 20
-379.7001953125
 10
147.4130859375
 20
-384.0849609375
 10
147.34130859375
 20
-389.30029296875
 10
147.26953125
 20
-394.7158203125
 10
145.23828125
 20
-399.8232421875
 10
143.18505859375
 20
-404.82373046875
 10
141.89013671875
 20
-405.7109375
 10
140.5810546875
 20
-406.576171875
 10
139.22900390625
 20
-407.39208984375
 10
129.7646484375
 20
-413.09326171875
 10
118.240234375
 20
-416.36279296875
 10
107.6240234375
 20
-416.36279296875
 10
96.986328125
 20
-416.36279296875
 10
78.1435546875
 20
-413.09326171875
 10
71.5048828125
 20
-391.18896484375
 10
67.52734375
 20
-378.0830078125
 10
72.298828125
 20
-363.41796875
 10
82.84375
 20
-356.3076171875
 10
89.2890625
 20
-351.96484375
 10
96.478515625
 20
-351.5576171875
 10
102.287109375
 20
-355.234375
 10
105.341796875
 20
-357.208984375
 10
107.6669921875
 20
-359.8056640625
 10
109.4482421875
 20
-363.26806640625
 10
109.626953125
 20
-363.58984375
 10
109.79150390625
 20
-363.91162109375
 10
109.9345703125
 20
-364.2333984375
 10
104.71240234375
 20
-364.21923828125
 10
99.576171875
 20
-366.60888671875
 10
96.48583984375
 20
-370.650390625
 10
93.359375
 20
-374.74951171875
 10
92.50830078125
 20
-380.2080078125
 10
94.0966796875
 20
-386.03125
 10
96.0849609375
 20
-393.3349609375
 10
102.24462890625
 20
-398.056640625
 10
109.7841796875
 20
-398.056640625
 10
112.466796875
 20
-398.056640625
 10
115.22119140625
 20
-397.44140625
 10
117.7392578125
 20
-396.275390625
 10
129.0849609375
 20
-391.0458984375
 10
132.33984375
 20
-377.568359375
 10
131.68896484375
 20
-367.6171875
 10
130.38720703125
 20
-347.59423828125
 10
113.5615234375
 20
-331.2978515625
 10
94.18212890625
 20
-331.2978515625
 10
91.9501953125
 20
-331.2978515625
 10
89.7109375
 20
-331.52001953125
 10
87.529296875
 20
-331.9560546875
 10
67.04833984375
 20
-336.041015625
 10
50.56640625
 20
-357.33056640625
 10
50.015625
 20
-380.42236328125
 10
49.45751953125
 20
-403.50048828125
 10
63.90771484375
 20
-425.2548828125
 10
85.1611328125
 20
-433.32421875
 10
88.94580078125
 20
-434.76171875
 10
92.9091796875
 20
-435.79931640625
 10
96.9794921875
 20
-436.43603515625
 10
96.9794921875
 20
-436.43603515625
 10
96.9794921875
 20
-437.3515625
 10
96.9794921875
 20
-437.3515625
 10
96.9794921875
 20
-437.3515625
 10
864.140625
 20
-437.3515625
 10
864.140625
 20
-437.3515625
 97
        0
 92
        1
 93
        1
 72
     4
 94
        3
 73
     0
 74
     1
 95
       14
 96
       10
 40
0.0
 40
0.0
 40
0.0
 40
0.0
 40
1.0
 40
1.0
 40
1.0
 40
2.0
 40
2.0
 40
2.0
 40
3.0
 40
3.0
 40
3.0
 40
3.0
 10
453.7158203125
 20
-420.98388671875
 10
453.7158203125
 20
-420.98388671875
 10
463.3984375
 20
-412.04541015625
 10
463.3984375
 20
-412.04541015625
 10
464.9794921875
 20
-415.228515625
 10
466.814453125
 20
-418.25830078125
 10
469.0068359375
 20
-420.98388671875
 10
469.0068359375
 20
-420.98388671875
 10
453.7158203125
 20
-420.98388671875
 10
453.7158203125
 20
-420.98388671875
 97
        0
 92
        1
 93
        1
 72
     4
 94
        3
 73
     0
 74
     1
 95
       23
 96
       19
 40
0.0
 40
0.0
 40
0.0
 40
0.0
 40
1.0
 40
1.0
 40
1.0
 40
2.0
 40
2.0
 40
2.0
 40
3.0
 40
3.0
 40
3.0
 40
4.0
 40
4.0
 40
4.0
 40
5.0
 40
5.0
 40
5.0
 40
6.0
 40
6.0
 40
6.0
 40
6.0
 10
525.0849609375
 20
-402.09814453125
 10
524.3046875
 20
-408.3291015625
 10
521.1142578125
 20
-413.150390625
 10
515.61328125
 20
-416.4267578125
 10
511.84375
 20
-418.67333984375
 10
507.81640625
 20
-419.810546875
 10
503.630859375
 20
-419.810546875
 10
492.1455078125
 20
-419.810546875
 10
481.08984375
 20
-411.119140625
 10
477.01953125
 20
-399.47265625
 10
477.01953125
 20
-399.47265625
 10
508.087890625
 20
-370.79345703125
 10
508.087890625
 20
-370.79345703125
 10
510.8203125
 20
-372.39599609375
 10
513.302734375
 20
-374.2451171875
 10
515.4560546875
 20
-376.4091796875
 10
522.2802734375
 20
-383.26953125
 10
526.158203125
 20
-393.59228515625
 10
525.0849609375
 20
-402.09814453125
 97
        0
 92
        1
 93
        1
 72
     4
 94
        3
 73
     0
 74
     1
 95
       29
 96
       25
 40
0.0
 40
0.0
 40
0.0
 40
0.0
 40
1.0
 40
1.0
 40
1.0
 40
2.0
 40
2.0
 40
2.0
 40
3.0
 40
3.0
 40
3.0
 40
4.0
 40
4.0
 40
4.0
 40
5.0
 40
5.0
 40
5.0
 40
6.0
 40
6.0
 40
6.0
 40
7.0
 40
7.0
 40
7.0
 40
8.0
 40
8.0
 40
8.0
 40
8.0
 10
536.14453125
 20
-420.98388671875
 10
537.4462890625
 20
-419.15234375
 10
538.5693359375
 20
-417.1923828125
 10
539.5068359375
 20
-415.125
 10
548.9423828125
 20
-394.34716796875
 10
537.5390625
 20
-370.2177734375
 10
521.04296875
 20
-358.83251953125
 10
521.04296875
 20
-358.83251953125
 10
532.828125
 20
-347.95556640625
 10
532.828125
 20
-347.95556640625
 10
557.283203125
 20
-355.251953125
 10
582.1533203125
 20
-358.564453125
 10
606.322265625
 20
-361.7373046875
 10
615.7509765625
 20
-362.974609375
 10
625.494140625
 20
-364.2548828125
 10
635.13671875
 20
-365.75732421875
 10
637.033203125
 20
-366.0576171875
 10
638.921875
 20
-366.37255859375
 10
640.810546875
 20
-366.72314453125
 10
657.056640625
 20
-385.416015625
 10
665.93359375
 20
-404.923828125
 10
665.5908203125
 20
-420.98388671875
 10
665.5908203125
 20
-420.98388671875
 10
536.14453125
 20
-420.98388671875
 10
536.14453125
 20
-420.98388671875
 97
        0
 92
        1
 93
        1
 72
     4
 94
        3
 73
     0
 74
     1
 95
       23
 96
       19
 40
0.0
 40
0.0
 40
0.0
 40
0.0
 40
1.0
 40
1.0
 40
1.0
 40
2.0
 40
2.0
 40
2.0
 40
3.0
 40
3.0
 40
3.0
 40
4.0
 40
4.0
 40
4.0
 40
5.0
 40
5.0
 40
5.0
 40
6.0
 40
6.0
 40
6.0
 40
6.0
 10
554.9443359375
 20
-327.5390625
 10
567.5703125
 20
-326.4833984375
 10
579.931640625
 20
-327.384765625
 10
590.369140625
 20
-330.38232421875
 10
600.69921875
 20
-333.35107421875
 10
613.17578125
 20
-340.84130859375
 10
625.05078125
 20
-351.04931640625
 10
622.5322265625
 20
-350.73486328125
 10
620.0361328125
 20
-350.44140625
 10
617.5751953125
 20
-350.14794921875
 10
614.0625
 20
-349.7333984375
 10
610.578125
 20
-349.318359375
 10
607.123046875
 20
-348.86767578125
 10
585.3330078125
 20
-346.03125
 10
565.32421875
 20
-341.22021484375
 10
547.322265625
 20
-334.57421875
 10
547.322265625
 20
-334.57421875
 10
554.9443359375
 20
-327.5390625
 10
554.9443359375
 20
-327.5390625
 97
        0
 92
        1
 93
        1
 72
     4
 94
        3
 73
     0
 74
     1
 95
       23
 96
       19
 40
0.0
 40
0.0
 40
0.0
 40
0.0
 40
1.0
 40
1.0
 40
1.0
 40
2.0
 40
2.0
 40
2.0
 40
3.0
 40
3.0
 40
3.0
 40
4.0
 40
4.0
 40
4.0
 40
5.0
 40
5.0
 40
5.0
 40
6.0
 40
6.0
 40
6.0
 40
6.0
 10
689.18359375
 20
-420.2900390625
 10
688.125
 20
-420.533203125
 10
687.0732421875
 20
-420.76220703125
 10
686.013671875
 20
-420.98388671875
 10
686.013671875
 20
-420.98388671875
 10
681.736328125
 20
-420.98388671875
 10
681.736328125
 20
-420.98388671875
 10
679.361328125
 20
-404.31591796875
 10
673.5595703125
 20
-388.13427734375
 10
664.767578125
 20
-373.5263671875
 10
672.765625
 20
-376.83837890625
 10
679.525390625
 20
-381.0302734375
 10
685.255859375
 20
-386.20263671875
 10
693.697265625
 20
-393.80712890625
 10
698.740234375
 20
-402.47021484375
 10
701.416015625
 20
-414.0234375
 10
697.1884765625
 20
-416.39111328125
 10
692.931640625
 20
-418.49462890625
 10
689.18359375
 20
-420.2900390625
 97
        0
 92
        1
 93
        1
 72
     4
 94
        3
 73
     0
 74
     1
 95
      107
 96
      103
 40
0.0
 40
0.0
 40
0.0
 40
0.0
 40
1.0
 40
1.0
 40
1.0
 40
2.0
 40
2.0
 40
2.0
 40
3.0
 40
3.0
 40
3.0
 40
4.0
 40
4.0
 40
4.0
 40
5.0
 40
5.0
 40
5.0
 40
6.0
 40
6.0
 40
6.0
 40
7.0
 40
7.0
 40
7.0
 40
8.0
 40
8.0
 40
8.0
 40
9.0
 40
9.0
 40
9.0
 40
10.0
 40
10.0
 40
10.0
 40
11.0
 40
11.0
 40
11.0
 40
12.0
 40
12.0
 40
12.0
 40
13.0
 40
13.0
 40
13.0
 40
14.0
 40
14.0
 40
14.0
 40
15.0
 40
15.0
 40
15.0
 40
16.0
 40
16.0
 40
16.0
 40
17.0
 40
17.0
 40
17.0
 40
18.0
 40
18.0
 40
18.0
 40
19.0
 40
19.0
 40
19.0
 40
20.0
 40
20.0
 40
20.0
 40
21.0
 40
21.0
 40
21.0
 40
22.0
 40
22.0
 40
22.0
 40
23.0
 40
23.0
 40
23.0
 40
24.0
 40
24.0
 40
24.0
 40
25.0
 40
25.0
 40
25.0
 40
26.0
 40
26.0
 40
26.0
 40
27.0
 40
27.0
 40
27.0
 40
28.0
 40
28.0
 40
28.0
 40
29.0
 40
29.0
 40
29.0
 40
30.0
 40
30.0
 40
30.0
 40
31.0
 40
31.0
 40
31.0
 40
32.0
 40
32.0
 40
32.0
 40
33.0
 40
33.0
 40
33.0
 40
34.0
 40
34.0
 40
34.0
 40
34.0
 10
586.9501953125
 20
-297.99755859375
 10
614.6240234375
 20
-272.0478515625
 10
637.7734375
 20
-250.7294921875
 10
656.462890625
 20
-233.96484375
 10
662.37890625
 20
-235.474609375
 10
668.6875
 20
-235.90380859375
 10
673.0732421875
 20
-236.18994140625
 10
673.0732421875
 20
-236.18994140625
 10
673.845703125
 20
-236.23974609375
 10
673.845703125
 20
-236.23974609375
 10
660.6044921875
 20
-250.59033203125
 10
651.197265625
 20
-272.4306640625
 10
657.349609375
 20
-293.70556640625
 10
661.90625
 20
-309.4794921875
 10
677.13671875
 20
-321.3759765625
 10
692.767578125
 20
-321.3759765625
 10
699.3271484375
 20
-321.3759765625
 10
705.623046875
 20
-319.244140625
 10
710.966796875
 20
-315.2236328125
 10
716.181640625
 20
-311.29638671875
 10
718.234375
 20
-305.29443359375
 10
716.3173828125
 20
-299.564453125
 10
714.5
 20
-294.1201171875
 10
709.4423828125
 20
-290.46484375
 10
703.734375
 20
-290.46484375
 10
701.65234375
 20
-290.46484375
 10
699.5419921875
 20
-290.9296875
 10
697.4599609375
 20
-291.83837890625
 10
692.853515625
 20
-293.8486328125
 10
689.333984375
 20
-293.4052734375
 10
686.607421875
 20
-290.2431640625
 10
682.623046875
 20
-285.62890625
 10
681.4072265625
 20
-276.830078125
 10
682.2802734375
 20
-270.892578125
 10
683.8037109375
 20
-260.57666015625
 10
690.2275390625
 20
-252.521484375
 10
695.3427734375
 20
-247.58544921875
 10
704.75
 20
-238.5078125
 10
717.9052734375
 20
-233.2998046875
 10
731.43359375
 20
-233.2998046875
 10
735.9609375
 20
-233.2998046875
 10
740.42578125
 20
-233.88623046875
 10
744.703125
 20
-235.0380859375
 10
752.142578125
 20
-237.041015625
 10
758.974609375
 20
-240.24609375
 10
765.1123046875
 20
-244.6240234375
 10
749.681640625
 20
-244.1162109375
 10
736.69140625
 20
-251.0263671875
 10
730.8681640625
 20
-262.787109375
 10
729.0869140625
 20
-266.3857421875
 10
729.322265625
 20
-270.47021484375
 10
731.51171875
 20
-273.9970703125
 10
733.7080078125
 20
-277.5380859375
 10
737.4423828125
 20
-279.734375
 10
741.2548828125
 20
-279.734375
 10
744.216796875
 20
-279.734375
 10
747.0
 20
-278.396484375
 10
749.095703125
 20
-275.96435546875
 10
755.333984375
 20
-268.73193359375
 10
761.134765625
 20
-262.615234375
 10
769.0185546875
 20
-260.99169921875
 10
774.119140625
 20
-259.92578125
 10
779.0546875
 20
-261.53515625
 10
784.4130859375
 20
-265.98486328125
 10
793.7421875
 20
-281.96630859375
 10
797.3828125
 20
-301.939453125
 10
794.4072265625
 20
-320.9111328125
 10
789.7138671875
 20
-350.80615234375
 10
772.130859375
 20
-377.1533203125
 10
744.9609375
 20
-396.03173828125
 10
745.1328125
 20
-395.78857421875
 10
745.296875
 20
-395.54541015625
 10
745.46875
 20
-395.294921875
 10
756.814453125
 20
-378.498046875
 10
760.0546875
 20
-353.24560546875
 10
743.72265625
 20
-339.52490234375
 10
741.6416015625
 20
-337.779296875
 10
738.951171875
 20
-336.82080078125
 10
736.1474609375
 20
-336.82080078125
 10
732.2841796875
 20
-336.82080078125
 10
728.7216796875
 20
-338.544921875
 10
726.6044921875
 20
-341.44189453125
 10
724.666015625
 20
-344.0888671875
 10
724.1865234375
 20
-347.408203125
 10
725.259765625
 20
-350.77734375
 10
731.0751953125
 20
-368.998046875
 10
735.2744140625
 20
-382.1611328125
 10
722.1474609375
 20
-397.86328125
 10
719.5791015625
 20
-400.93212890625
 10
716.517578125
 20
-403.81494140625
 10
712.8623046875
 20
-406.6123046875
 10
709.306640625
 20
-392.61962890625
 10
698.876953125
 20
-380.193359375
 10
689.4765625
 20
-372.7109375
 10
679.404296875
 20
-364.69140625
 10
667.3720703125
 20
-359.2119140625
 10
651.69140625
 20
-355.51318359375
 10
630.5234375
 20
-331.1083984375
 10
601.2431640625
 20
-316.2001953125
 10
570.052734375
 20
-313.59619140625
 10
570.052734375
 20
-313.59619140625
 10
586.9501953125
 20
-297.99755859375
 10
586.9501953125
 20
-297.99755859375
 97
        0
 92
        1
 93
        1
 72
     4
 94
        3
 73
     0
 74
     1
 95
       20
 96
       16
 40
0.0
 40
0.0
 40
0.0
 40
0.0
 40
1.0
 40
1.0
 40
1.0
 40
2.0
 40
2.0
 40
2.0
 40
3.0
 40
3.0
 40
3.0
 40
4.0
 40
4.0
 40
4.0
 40
5.0
 40
5.0
 40
5.0
 40
5.0
 10
462.1826171875
 20
-365.328125
 10
461.0947265625
 20
-367.95361328125
 10
460.201171875
 20
-370.63623046875
 10
459.5
 20
-373.34765625
 10
459.1884765625
 20
-374.5634765625
 10
459.013671875
 20
-375.79052734375
 10
458.7841796875
 20
-377.013671875
 10
458.7841796875
 20
-377.013671875
 10
412.013671875
 20
-419.14892578125
 10
412.013671875
 20
-419.14892578125
 10
411.041015625
 20
-408.5224609375
 10
408.283203125
 20
-397.2158203125
 10
403.658203125
 20
-385.3583984375
 10
420.5048828125
 20
-377.05322265625
 10
440.263671875
 20
-368.61181640625
 10
462.1826171875
 20
-365.328125
 97
        0
 92
        1
 93
        1
 72
     4
 94
        3
 73
     0
 74
     1
 95
       20
 96
       16
 40
0.0
 40
0.0
 40
0.0
 40
0.0
 40
1.0
 40
1.0
 40
1.0
 40
2.0
 40
2.0
 40
2.0
 40
3.0
 40
3.0
 40
3.0
 40
4.0
 40
4.0
 40
4.0
 40
5.0
 40
5.0
 40
5.0
 40
5.0
 10
393.513671875
 20
-419.35302734375
 10
393.513671875
 20
-419.35302734375
 10
393.986328125
 20
-420.98388671875
 10
393.986328125
 20
-420.98388671875
 10
393.986328125
 20
-420.98388671875
 10
332.8505859375
 20
-420.98388671875
 10
332.8505859375
 20
-420.98388671875
 10
348.4033203125
 20
-414.5458984375
 10
363.3681640625
 20
-406.54052734375
 10
377.9833984375
 20
-398.728515625
 10
380.6806640625
 20
-397.291015625
 10
383.3701171875
 20
-395.845703125
 10
386.0673828125
 20
-394.4150390625
 10
388.763671875
 20
-402.720703125
 10
391.1748046875
 20
-411.15478515625
 10
393.513671875
 20
-419.35302734375
 97
        0
 92
        1
 93
        1
 72
     4
 94
        3
 73
     0
 74
     1
 95
       23
 96
       19
 40
0.0
 40
0.0
 40
0.0
 40
0.0
 40
1.0
 40
1.0
 40
1.0
 40
2.0
 40
2.0
 40
2.0
 40
3.0
 40
3.0
 40
3.0
 40
4.0
 40
4.0
 40
4.0
 40
5.0
 40
5.0
 40
5.0
 40
6.0
 40
6.0
 40
6.0
 40
6.0
 10
360.3642578125
 20
-343.57373046875
 10
367.7392578125
 20
-352.12255859375
 10
374.1279296875
 20
-363.16064453125
 10
379.84375
 20
-377.2392578125
 10
377.50390625
 20
-378.41943359375
 10
375.1865234375
 20
-379.5927734375
 10
372.904296875
 20
-380.75146484375
 10
363.76171875
 20
-385.3798828125
 10
355.134765625
 20
-389.7509765625
 10
347.27978515625
 20
-393.29931640625
 10
336.6708984375
 20
-398.0849609375
 10
325.7509765625
 20
-402.69189453125
 10
314.8017578125
 20
-406.236328125
 10
314.8017578125
 20
-406.236328125
 10
314.8017578125
 20
-313.0703125
 10
314.8017578125
 20
-313.0703125
 10
331.970703125
 20
-318.43212890625
 10
347.623046875
 20
-328.7978515625
 10
360.3642578125
 20
-343.57373046875
 97
        0
 92
        1
 93
        1
 72
     4
 94
        3
 73
     0
 74
     1
 95
       20
 96
       16
 40
0.0
 40
0.0
 40
0.0
 40
0.0
 40
1.0
 40
1.0
 40
1.0
 40
2.0
 40
2.0
 40
2.0
 40
3.0
 40
3.0
 40
3.0
 40
4.0
 40
4.0
 40
4.0
 40
5.0
 40
5.0
 40
5.0
 40
5.0
 10
157.45654296875
 20
-417.72900390625
 10
173.8388671875
 20
-404.73779296875
 10
185.634765625
 20
-387.3974609375
 10
197.044921875
 20
-370.62890625
 10
199.76708984375
 20
-366.623046875
 10
202.5390625
 20
-362.552734375
 10
205.38671875
 20
-358.52490234375
 10
205.38671875
 20
-358.52490234375
 10
205.38671875
 20
-420.98388671875
 10
205.38671875
 20
-420.98388671875
 10
205.38671875
 20
-420.98388671875
 10
153.12158203125
 20
-420.98388671875
 10
153.12158203125
 20
-420.98388671875
 10
154.587890625
 20
-419.939453125
 10
156.033203125
 20
-418.85205078125
 10
157.45654296875
 20
-417.72900390625
 97
        0
 75
     2
 76
     1
 98
        0
  0
ENDBLK
  5
3F
330
3C
100
AcDbEntity
  8
0
100
AcDbBlockEnd
  0
ENDSEC
  0
SECTION
  2
ENTITIES
  0
INSERT
  5
3D
330
1F
100
AcDbEntity
  8
Layer 1
100
AcDbBlockReference
  2
block 2
 10
0.0
 20
0.0
 30
0.0
  0
ENDSEC
  0
SECTION
  2
OBJECTS
  0
DICTIONARY
  5
C
330
0
100
AcDbDictionary
281
     1
  3
ACAD_GROUP
350
D
  3
ACAD_LAYOUT
350
1A
  3
ACAD_MLINESTYLE
350
17
  3
ACAD_PLOTSETTINGS
350
19
  3
ACAD_PLOTSTYLENAME
350
E
  3
ACAD_TABLESTYLE
350
5F
  3
ACAD_VISUALSTYLE
350
2A
  0
DICTIONARY
  5
D
102
{ACAD_REACTORS
330
C
102
}
330
C
100
AcDbDictionary
281
     1
  0
DICTIONARY
  5
1A
102
{ACAD_REACTORS
330
C
102
}
330
C
100
AcDbDictionary
281
     1
  3
Layout1
350
1E
  3
Layout2
350
26
  3
Model
350
22
  0
DICTIONARY
  5
17
102
{ACAD_REACTORS
330
C
102
}
330
C
100
AcDbDictionary
281
     1
  3
Standard
350
18
  0
DICTIONARY
  5
19
102
{ACAD_REACTORS
330
C
102
}
330
C
100
AcDbDictionary
281
     1
  0
ACDBDICTIONARYWDFLT
  5
E
102
{ACAD_REACTORS
330
C
102
}
330
C
100
AcDbDictionary
281
     1
  3
Normal
350
F
100
AcDbDictionaryWithDefault
340
F
  0
DICTIONARY
  5
5F
102
{ACAD_REACTORS
330
C
102
}
330
C
100
AcDbDictionary
281
     1
  0
DICTIONARY
  5
2A
102
{ACAD_REACTORS
330
C
102
}
330
C
100
AcDbDictionary
281
     1
  3
2dWireframe
350
2F
  3
3D Hidden
350
31
  3
3dWireframe
350
30
  3
Basic
350
32
  3
Brighten
350
36
  3
ColorChange
350
3A
  3
Conceptual
350
34
  3
Dim
350
35
  3
Facepattern
350
39
  3
Flat
350
2B
  3
FlatWithEdges
350
2C
  3
Gouraud
350
2D
  3
GouraudWithEdges
350
2E
  3
Linepattern
350
38
  3
Realistic
350
33
  3
Thicken
350
37
  0
LAYOUT
  5
1E
102
{ACAD_REACTORS
330
1A
102
}
330
1A
100
AcDbPlotSettings
  1

  2
none_device
  4

  6

 40
0.0
 41
0.0
 42
0.0
 43
0.0
 44
0.0
 45
0.0
 46
0.0
 47
0.0
 48
0.0
 49
0.0
140
0.0
141
0.0
142
1.0
143
1.0
 70
   688
 72
     0
 73
     0
 74
     5
  7

 75
    16
147
1.0
148
0.0
149
0.0
100
AcDbLayout
  1
Layout1
 70
     1
 71
     1
 10
0.0
 20
0.0
 11
12.0
 21
9.0
 12
0.0
 22
0.0
 32
0.0
 14
1.000000000000000E+20
 24
1.000000000000000E+20
 34
1.000000000000000E+20
 15
-1.000000000000000E+20
 25
-1.000000000000000E+20
 35
-1.000000000000000E+20
146
0.0
 13
0.0
 23
0.0
 33
0.0
 16
1.0
 26
0.0
 36
0.0
 17
0.0
 27
1.0
 37
0.0
 76
     0
330
1B
  0
LAYOUT
  5
26
102
{ACAD_REACTORS
330
1A
102
}
330
1A
100
AcDbPlotSettings
  1

  2
none_device
  4

  6

 40
0.0
 41
0.0
 42
0.0
 43
0.0
 44
0.0
 45
0.0
 46
0.0
 47
0.0
 48
0.0
 49
0.0
140
0.0
141
0.0
142
1.0
143
1.0
 70
   688
 72
     0
 73
     0
 74
     5
  7

 75
    16
147
1.0
148
0.0
149
0.0
100
AcDbLayout
  1
Layout2
 70
     1
 71
     2
 10
0.0
 20
0.0
 11
0.0
 21
0.0
 12
0.0
 22
0.0
 32
0.0
 14
0.0
 24
0.0
 34
0.0
 15
0.0
 25
0.0
 35
0.0
146
0.0
 13
0.0
 23
0.0
 33
0.0
 16
1.0
 26
0.0
 36
0.0
 17
0.0
 27
1.0
 37
0.0
 76
     0
330
23
  0
LAYOUT
  5
22
102
{ACAD_REACTORS
330
1A
102
}
330
1A
100
AcDbPlotSettings
  1

  2
none_device
  4

  6

 40
0.0
 41
0.0
 42
0.0
 43
0.0
 44
0.0
 45
0.0
 46
0.0
 47
0.0
 48
0.0
 49
0.0
140
0.0
141
0.0
142
1.0
143
1.0
 70
  1712
 72
     0
 73
     0
 74
     0
  7

 75
     0
147
1.0
148
0.0
149
0.0
100
AcDbLayout
  1
Model
 70
     1
 71
     0
 10
0.0
 20
0.0
 11
12.0
 21
9.0
 12
0.0
 22
0.0
 32
0.0
 14
1.000000000000000E+20
 24
1.000000000000000E+20
 34
1.000000000000000E+20
 15
-1.000000000000000E+20
 25
-1.000000000000000E+20
 35
-1.000000000000000E+20
146
0.0
 13
0.0
 23
0.0
 33
0.0
 16
1.0
 26
0.0
 36
0.0
 17
0.0
 27
1.0
 37
0.0
 76
     0
330
1F
331
29
  0
MLINESTYLE
  5
18
102
{ACAD_REACTORS
330
17
102
}
330
17
100
AcDbMlineStyle
  2
Standard
 70
     0
  3

 62
   256
 51
90.0
 52
90.0
 71
     2
 49
0.5
 62
   256
  6
BYLAYER
 49
-0.5
 62
   256
  6
BYLAYER
  0
ACDBPLACEHOLDER
  5
F
102
{ACAD_REACTORS
330
E
102
}
330
E
  0
VISUALSTYLE
  5
2F
102
{ACAD_REACTORS
330
2A
102
}
330
2A
100
AcDbVisualStyle
  2
2dWireframe
 70
     4
 71
     0
 72
     2
 73
     0
 90
        0
 40
-0.6
 41
-30.0
 62
     5
 63
     7
 74
     1
 91
        4
 64
     7
 65
   257
 75
     1
175
     1
 42
1.0
 92
        0
 66
   257
 43
1.0
 76
     1
 77
     6
 78
     2
 67
     7
 79
     5
170
     0
171
     0
290
     0
174
     0
 93
        1
 44
0.0
173
     0
291
     0
 45
0.0
1001
ACAD
1000
AcDbSavedByObjectVersion
1070
     0
  0
VISUALSTYLE
  5
31
102
{ACAD_REACTORS
330
2A
102
}
330
2A
100
AcDbVisualStyle
  2
3D Hidden
 70
     6
 71
     1
 72
     2
 73
     2
 90
        0
 40
-0.6
 41
-30.0
 62
     5
 63
     7
 74
     2
 91
        2
 64
     7
 65
   257
 75
     2
175
     1
 42
40.0
 92
        0
 66
   257
 43
1.0
 76
     1
 77
     6
 78
     2
 67
     7
 79
     3
170
     0
171
     0
290
     0
174
     0
 93
        1
 44
0.0
173
     0
291
     0
 45
0.0
1001
ACAD
1000
AcDbSavedByObjectVersion
1070
     0
  0
VISUALSTYLE
  5
30
102
{ACAD_REACTORS
330
2A
102
}
330
2A
100
AcDbVisualStyle
  2
3dWireframe
 70
     5
 71
     0
 72
     2
 73
     0
 90
        0
 40
-0.6
 41
-30.0
 62
     5
 63
     7
 74
     1
 91
        4
 64
     7
 65
   257
 75
     1
175
     1
 42
1.0
 92
        0
 66
   257
 43
1.0
 76
     1
 77
     6
 78
     2
 67
     7
 79
     5
170
     0
171
     0
290
     0
174
     0
 93
        1
 44
0.0
173
     0
291
     0
 45
0.0
1001
ACAD
1000
AcDbSavedByObjectVersion
1070
     0
  0
VISUALSTYLE
  5
32
102
{ACAD_REACTORS
330
2A
102
}
330
2A
100
AcDbVisualStyle
  2
Basic
 70
     7
 71
     1
 72
     0
 73
     1
 90
        0
 40
-0.6
 41
-30.0
 62
     5
 63
     7
 74
     0
 91
        4
 64
     7
 65
   257
 75
     1
175
     1
 42
1.0
 92
        8
 66
     7
 43
1.0
 76
     1
 77
     6
 78
     2
 67
     7
 79
     5
170
     0
171
     0
290
     0
174
     0
 93
        1
 44
0.0
173
     0
291
     1
 45
0.0
1001
ACAD
1000
AcDbSavedByObjectVersion
1070
     0
  0
VISUALSTYLE
  5
36
102
{ACAD_REACTORS
330
2A
102
}
330
2A
100
AcDbVisualStyle
  2
Brighten
 70
    12
 71
     2
 72
     2
 73
     0
 90
        0
 40
-0.6
 41
-30.0
 62
     5
 63
     7
 74
     1
 91
        4
 64
     7
 65
   257
 75
     1
175
     1
 42
1.0
 92
        8
 66
     7
 43
1.0
 76
     1
 77
     6
 78
     2
 67
     7
 79
     5
170
     0
171
     0
290
     0
174
     0
 93
        1
 44
50.0
173
     0
291
     1
 45
0.0
1001
ACAD
1000
AcDbSavedByObjectVersion
1070
     0
  0
VISUALSTYLE
  5
3A
102
{ACAD_REACTORS
330
2A
102
}
330
2A
100
AcDbVisualStyle
  2
ColorChange
 70
    16
 71
     2
 72
     2
 73
     3
 90
        0
 40
-0.6
 41
-30.0
 62
     5
 63
     8
 74
     1
 91
        4
 64
     7
 65
   257
 75
     1
175
     1
 42
1.0
 92
        8
 66
     8
 43
1.0
 76
     1
 77
     6
 78
     2
 67
     7
 79
     5
170
     0
171
     0
290
     0
174
     0
 93
        1
 44
0.0
173
     0
291
     1
 45
0.0
1001
ACAD
1000
AcDbSavedByObjectVersion
1070
     0
  0
VISUALSTYLE
  5
34
102
{ACAD_REACTORS
330
2A
102
}
330
2A
100
AcDbVisualStyle
  2
Conceptual
 70
     9
 71
     3
 72
     2
 73
     0
 90
        0
 40
-0.6
 41
-30.0
 62
     5
 63
     7
 74
     2
 91
        2
 64
     7
 65
   257
 75
     1
175
     1
 42
40.0
 92
        8
 66
     7
 43
1.0
 76
     1
 77
     6
 78
     2
 67
     7
 79
     3
170
     0
171
     0
290
     0
174
     0
 93
        1
 44
0.0
173
     0
291
     0
 45
0.0
1001
ACAD
1000
AcDbSavedByObjectVersion
1070
     0
  0
VISUALSTYLE
  5
35
102
{ACAD_REACTORS
330
2A
102
}
330
2A
100
AcDbVisualStyle
  2
Dim
 70
    11
 71
     2
 72
     2
 73
     0
 90
        0
 40
-0.6
 41
-30.0
 62
     5
 63
     7
 74
     1
 91
        4
 64
     7
 65
   257
 75
     1
175
     1
 42
1.0
 92
        8
 66
     7
 43
1.0
 76
     1
 77
     6
 78
     2
 67
     7
 79
     5
170
     0
171
     0
290
     0
174
     0
 93
        1
 44
-50.0
173
     0
291
     1
 45
0.0
1001
ACAD
1000
AcDbSavedByObjectVersion
1070
     0
  0
VISUALSTYLE
  5
39
102
{ACAD_REACTORS
330
2A
102
}
330
2A
100
AcDbVisualStyle
  2
Facepattern
 70
    15
 71
     2
 72
     2
 73
     0
 90
        0
 40
-0.6
 41
-30.0
 62
     5
 63
     7
 74
     1
 91
        4
 64
     7
 65
   257
 75
     1
175
     1
 42
1.0
 92
        8
 66
     7
 43
1.0
 76
     1
 77
     6
 78
     2
 67
     7
 79
     5
170
     0
171
     0
290
     0
174
     0
 93
        1
 44
0.0
173
     0
291
     1
 45
0.0
1001
ACAD
1000
AcDbSavedByObjectVersion
1070
     0
  0
VISUALSTYLE
  5
2B
102
{ACAD_REACTORS
330
2A
102
}
330
2A
100
AcDbVisualStyle
  2
Flat
 70
     0
 71
     2
 72
     1
 73
     1
 90
        2
 40
-0.6
 41
30.0
 62
     5
 63
     7
 74
     0
 91
        4
 64
     7
 65
   257
 75
     1
175
     1
 42
1.0
 92
        8
 66
     7
 43
1.0
 76
     1
 77
     6
 78
     2
 67
     7
 79
     5
170
     0
171
     0
290
     0
174
     0
 93
       13
 44
0.0
173
     0
291
     1
 45
0.0
1001
ACAD
1000
AcDbSavedByObjectVersion
1070
     0
  0
VISUALSTYLE
  5
2C
102
{ACAD_REACTORS
330
2A
102
}
330
2A
100
AcDbVisualStyle
  2
FlatWithEdges
 70
     1
 71
     2
 72
     1
 73
     1
 90
        2
 40
-0.6
 41
30.0
 62
     5
 63
     7
 74
     1
 91
        4
 64
     7
 65
   257
 75
     1
175
     1
 42
1.0
 92
        0
 66
   257
 43
1.0
 76
     1
 77
     6
 78
     2
 67
     7
 79
     5
170
     0
171
     0
290
     0
174
     0
 93
       13
 44
0.0
173
     0
291
     1
 45
0.0
1001
ACAD
1000
AcDbSavedByObjectVersion
1070
     0
  0
VISUALSTYLE
  5
2D
102
{ACAD_REACTORS
330
2A
102
}
330
2A
100
AcDbVisualStyle
  2
Gouraud
 70
     2
 71
     2
 72
     2
 73
     1
 90
        2
 40
-0.6
 41
30.0
 62
     5
 63
     7
 74
     0
 91
        4
 64
     7
 65
   257
 75
     1
175
     1
 42
1.0
 92
        0
 66
     7
 43
1.0
 76
     1
 77
     6
 78
     2
 67
     7
 79
     5
170
     0
171
     0
290
     0
174
     0
 93
       13
 44
0.0
173
     0
291
     1
 45
0.0
1001
ACAD
1000
AcDbSavedByObjectVersion
1070
     0
  0
VISUALSTYLE
  5
2E
102
{ACAD_REACTORS
330
2A
102
}
330
2A
100
AcDbVisualStyle
  2
GouraudWithEdges
 70
     3
 71
     2
 72
     2
 73
     1
 90
        2
 40
-0.6
 41
30.0
 62
     5
 63
     7
 74
     1
 91
        4
 64
     7
 65
   257
 75
     1
175
     1
 42
1.0
 92
        0
 66
   257
 43
1.0
 76
     1
 77
     6
 78
     2
 67
     7
 79
     5
170
     0
171
     0
290
     0
174
     0
 93
       13
 44
0.0
173
     0
291
     1
 45
0.0
1001
ACAD
1000
AcDbSavedByObjectVersion
1070
     0
  0
VISUALSTYLE
  5
38
102
{ACAD_REACTORS
330
2A
102
}
330
2A
100
AcDbVisualStyle
  2
Linepattern
 70
    14
 71
     2
 72
     2
 73
     0
 90
        0
 40
-0.6
 41
-30.0
 62
     5
 63
     7
 74
     1
 91
        4
 64
     7
 65
   257
 75
     7
175
     7
 42
1.0
 92
        8
 66
     7
 43
1.0
 76
     1
 77
     6
 78
     2
 67
     7
 79
     5
170
     0
171
     0
290
     0
174
     0
 93
        1
 44
0.0
173
     0
291
     1
 45
0.0
1001
ACAD
1000
AcDbSavedByObjectVersion
1070
     0
  0
VISUALSTYLE
  5
33
102
{ACAD_REACTORS
330
2A
102
}
330
2A
100
AcDbVisualStyle
  2
Realistic
 70
     8
 71
     2
 72
     2
 73
     0
 90
        0
 40
-0.6
 41
-30.0
 62
     5
 63
     7
 74
     1
 91
        0
 64
     7
 65
   257
 75
     1
175
     1
 42
1.0
 92
        8
 66
     8
 43
1.0
 76
     1
 77
     6
 78
     2
 67
     7
 79
     5
170
     0
171
     0
290
     0
174
     0
 93
       13
 44
0.0
173
     0
291
     0
 45
0.0
1001
ACAD
1000
AcDbSavedByObjectVersion
1070
     0
  0
VISUALSTYLE
  5
37
102
{ACAD_REACTORS
330
2A
102
}
330
2A
100
AcDbVisualStyle
  2
Thicken
 70
    13
 71
     2
 72
     2
 73
     0
 90
        0
 40
-0.6
 41
-30.0
 62
     5
 63
     7
 74
     1
 91
        4
 64
     7
 65
   257
 75
     1
175
     1
 42
1.0
 92
       12
 66
     7
 43
1.0
 76
     1
 77
     6
 78
     2
 67
     7
 79
     5
170
     0
171
     0
290
     0
174
     0
 93
        1
 44
0.0
173
     0
291
     1
 45
0.0
1001
ACAD
1000
AcDbSavedByObjectVersion
1070
     0
  0
ENDSEC
  0
EOF
