  0
SECTION
  2
HEADER
  9
$ACADVER
  1
AC1014
  9
$HANDSEED
  5
FFFF
  9
$MEASUREMENT
 70
     1
  0
ENDSEC
  0
SECTION
  2
TABLES
  0
TABLE
  2
VPORT
  5
8
330
0
100
AcDbSymbolTable
 70
     4
  0
VPORT
  5
2E
330
8
100
AcDbSymbolTableRecord
100
AcDbViewportTableRecord
  2
*ACTIVE
 70
     0
 10
0.0
 20
0.0
 11
1.0
 21
1.0
 12
210.0
 22
148.5
 13
0.0
 23
0.0
 14
10.0
 24
10.0
 15
10.0
 25
10.0
 16
0.0
 26
0.0
 36
1.0
 17
0.0
 27
0.0
 37
0.0
 40
341.0
 41
1.24
 42
50.0
 43
0.0
 44
0.0
 50
0.0
 51
0.0
 71
     0
 72
   100
 73
     1
 74
     3
 75
     0
 76
     0
 77
     0
 78
     0
  0
ENDTAB
  0
TABLE
  2
LTYPE
  5
5
330
0
100
AcDbSymbolTable
 70
     1
  0
LTYPE
  5
14
330
5
100
AcDbSymbolTableRecord
100
AcDbLinetypeTableRecord
  2
BYBLOCK
 70
     0
  3

 72
    65
 73
     0
 40
0.0
  0
LTYPE
  5
15
330
5
100
AcDbSymbolTableRecord
100
AcDbLinetypeTableRecord
  2
BYLAYER
 70
     0
  3

 72
    65
 73
     0
 40
0.0
  0
LTYPE
  5
16
330
5
100
AcDbSymbolTableRecord
100
AcDbLinetypeTableRecord
  2
CONTINUOUS
 70
     0
  3
Solid line
 72
    65
 73
     0
 40
0.0
  0
ENDTAB
  0
TABLE
  2
LAYER
  5
2
100
AcDbSymbolTable
 70
1
  0
LAYER
  5
50
100
AcDbSymbolTableRecord
100
AcDbLayerTableRecord
  2
0
 70
0
  6
CONTINUOUS
  0
ENDTAB
  0
TABLE
  2
STYLE
  5
3
330
0
100
AcDbSymbolTable
 70
     1
  0
STYLE
  5
11
330
3
100
AcDbSymbolTableRecord
100
AcDbTextStyleTableRecord
  2
STANDARD
 70
     0
 40
0.0
 41
1.0
 50
0.0
 71
     0
 42
2.5
  3
txt
  4

  0
ENDTAB
  0
TABLE
  2
VIEW
  5
6
330
0
100
AcDbSymbolTable
 70
     0
  0
ENDTAB
  0
TABLE
  2
UCS
  5
7
330
0
100
AcDbSymbolTable
 70
     0
  0
ENDTAB
  0
TABLE
  2
APPID
  5
9
330
0
100
AcDbSymbolTable
 70
     2
  0
APPID
  5
12
330
9
100
AcDbSymbolTableRecord
100
AcDbRegAppTableRecord
  2
ACAD
 70
     0
  0
ENDTAB
  0
TABLE
  2
DIMSTYLE
  5
A
330
0
100
AcDbSymbolTable
 70
     1
  0
DIMSTYLE
105
27
330
A
100
AcDbSymbolTableRecord
100
AcDbDimStyleTableRecord
  2
ISO-25
 70
     0
  3

  4

  5

  6

  7

 40
1.0
 41
2.5
 42
0.625
 43
3.75
 44
1.25
 45
0.0
 46
0.0
 47
0.0
 48
0.0
140
2.5
141
2.5
142
0.0
143
0.03937007874016
144
1.0
145
0.0
146
1.0
147
0.625
 71
     0
 72
     0
 73
     0
 74
     0
 75
     0
 76
     0
 77
     1
 78
     8
170
     0
171
     3
172
     1
173
     0
174
     0
175
     0
176
     0
177
     0
178
     0
270
     2
271
     2
272
     2
273
     2
274
     3
340
11
275
     0
280
     0
281
     0
282
     0
283
     0
284
     8
285
     0
286
     0
287
     3
288
     0
  0
ENDTAB
  0
TABLE
  2
BLOCK_RECORD
  5
1
330
0
100
AcDbSymbolTable
 70
     1
  0
BLOCK_RECORD
  5
1F
330
1
100
AcDbSymbolTableRecord
100
AcDbBlockTableRecord
  2
*MODEL_SPACE
  0
BLOCK_RECORD
  5
1B
330
1
100
AcDbSymbolTableRecord
100
AcDbBlockTableRecord
  2
*PAPER_SPACE
  0
ENDTAB
  0
ENDSEC
  0
SECTION
  2
BLOCKS
  0
BLOCK
  5
20
330
1F
100
AcDbEntity
  8
0
100
AcDbBlockBegin
  2
*MODEL_SPACE
 70
     0
 10
0.0
 20
0.0
 30
0.0
  3
*MODEL_SPACE
  1

  0
ENDBLK
  5
21
330
1F
100
AcDbEntity
  8
0
100
AcDbBlockEnd
  0
BLOCK
  5
1C
330
1B
100
AcDbEntity
 67
     1
  8
0
100
AcDbBlockBegin
  2
*PAPER_SPACE
  1

  0
ENDBLK
  5
1D
330
1B
100
AcDbEntity
 67
     1
  8
0
100
AcDbBlockEnd
  0
ENDSEC
  0
SECTION
  2
ENTITIES
  0
SPLINE
  5
100
100
AcDbEntity
  8
0
 62
7
100
AcDbSpline
 70
8
 71
3
 72
8
 73
4
 74
0
 40
0
 40
0
 40
0
 40
0
 40
1
 40
1
 40
1
 40
1
 10
56.936987
 20
7.440930
 30
0.0
 10
52.131645
 20
8.753901
 30
0.0
 10
49.665554
 20
10.254520
 30
0.0
 10
41.180070
 20
17.029025
 30
0.0
  0
SPLINE
  5
101
100
AcDbEntity
  8
0
 62
7
100
AcDbSpline
 70
8
 71
3
 72
8
 73
4
 74
0
 40
0
 40
0
 40
0
 40
0
 40
1
 40
1
 40
1
 40
1
 10
41.180070
 20
17.029025
 30
0.0
 10
38.000570
 20
19.567424
 30
0.0
 10
37.336534
 20
20.245327
 30
0.0
 10
35.323261
 20
23.008135
 30
0.0
  0
SPLINE
  5
102
100
AcDbEntity
  8
0
 62
7
100
AcDbSpline
 70
8
 71
3
 72
8
 73
4
 74
0
 40
0
 40
0
 40
0
 40
0
 40
1
 40
1
 40
1
 40
1
 10
35.323261
 20
23.008135
 30
0.0
 10
33.319707
 20
25.757608
 30
0.0
 10
29.880391
 20
31.867414
 30
0.0
 10
30.579412
 20
31.435397
 30
0.0
  0
SPLINE
  5
103
100
AcDbEntity
  8
0
 62
7
100
AcDbSpline
 70
8
 71
3
 72
8
 73
4
 74
0
 40
0
 40
0
 40
0
 40
0
 40
1
 40
1
 40
1
 40
1
 10
30.579412
 20
31.435397
 30
0.0
 10
30.723930
 20
31.346079
 30
0.0
 10
32.009284
 20
29.876406
 30
0.0
 10
33.435750
 20
28.169455
 30
0.0
  0
SPLINE
  5
104
100
AcDbEntity
  8
0
 62
7
100
AcDbSpline
 70
8
 71
3
 72
8
 73
4
 74
0
 40
0
 40
0
 40
0
 40
0
 40
1
 40
1
 40
1
 40
1
 10
33.435750
 20
28.169455
 30
0.0
 10
34.862220
 20
26.462503
 30
0.0
 10
37.284790
 20
23.637158
 30
0.0
 10
38.819243
 20
21.890908
 30
0.0
  0
SPLINE
  5
105
100
AcDbEntity
  8
0
 62
7
100
AcDbSpline
 70
8
 71
3
 72
8
 73
4
 74
0
 40
0
 40
0
 40
0
 40
0
 40
1
 40
1
 40
1
 40
1
 10
38.819243
 20
21.890908
 30
0.0
 10
40.353694
 20
20.144658
 30
0.0
 10
42.157819
 20
18.036138
 30
0.0
 10
42.828406
 20
17.205309
 30
0.0
  0
SPLINE
  5
106
100
AcDbEntity
  8
0
 62
7
100
AcDbSpline
 70
8
 71
3
 72
8
 73
4
 74
0
 40
0
 40
0
 40
0
 40
0
 40
1
 40
1
 40
1
 40
1
 10
42.828406
 20
17.205309
 30
0.0
 10
45.772882
 20
13.557234
 30
0.0
 10
49.771266
 20
11.030847
 30
0.0
 10
55.142032
 20
9.424916
 30
0.0
  0
SPLINE
  5
107
100
AcDbEntity
  8
0
 62
7
100
AcDbSpline
 70
8
 71
3
 72
8
 73
4
 74
0
 40
0
 40
0
 40
0
 40
0
 40
1
 40
1
 40
1
 40
1
 10
55.142032
 20
9.424916
 30
0.0
 10
56.983704
 20
8.874231
 30
0.0
 10
58.070308
 20
8.723000
 30
0.0
 10
60.376570
 20
8.696383
 30
0.0
  0
SPLINE
  5
108
100
AcDbEntity
  8
0
 62
7
100
AcDbSpline
 70
8
 71
3
 72
8
 73
4
 74
0
 40
0
 40
0
 40
0
 40
0
 40
1
 40
1
 40
1
 40
1
 10
60.376570
 20
8.696383
 30
0.0
 10
63.029272
 20
8.665771
 30
0.0
 10
63.446181
 20
8.730091
 30
0.0
 10
65.084801
 20
9.422762
 30
0.0
  0
SPLINE
  5
109
100
AcDbEntity
  8
0
 62
7
100
AcDbSpline
 70
8
 71
3
 72
8
 73
4
 74
0
 40
0
 40
0
 40
0
 40
0
 40
1
 40
1
 40
1
 40
1
 10
65.084801
 20
9.422762
 30
0.0
 10
66.073597
 20
9.840746
 30
0.0
 10
67.738985
 20
10.763242
 30
0.0
 10
68.785661
 20
11.472757
 30
0.0
  0
SPLINE
  5
10a
100
AcDbEntity
  8
0
 62
7
100
AcDbSpline
 70
8
 71
3
 72
8
 73
4
 74
0
 40
0
 40
0
 40
0
 40
0
 40
1
 40
1
 40
1
 40
1
 10
68.785661
 20
11.472757
 30
0.0
 10
70.029856
 20
12.316166
 30
0.0
 10
70.967171
 20
12.762783
 30
0.0
 10
71.493039
 20
12.762783
 30
0.0
  0
SPLINE
  5
10b
100
AcDbEntity
  8
0
 62
7
100
AcDbSpline
 70
8
 71
3
 72
8
 73
4
 74
0
 40
0
 40
0
 40
0
 40
0
 40
1
 40
1
 40
1
 40
1
 10
71.493039
 20
12.762783
 30
0.0
 10
72.436882
 20
12.762783
 30
0.0
 10
72.604424
 20
12.872577
 30
0.0
 10
76.865618
 20
16.283554
 30
0.0
  0
SPLINE
  5
10c
100
AcDbEntity
  8
0
 62
7
100
AcDbSpline
 70
8
 71
3
 72
8
 73
4
 74
0
 40
0
 40
0
 40
0
 40
0
 40
1
 40
1
 40
1
 40
1
 10
76.865618
 20
16.283554
 30
0.0
 10
80.579841
 20
19.256695
 30
0.0
 10
81.946604
 20
20.557900
 30
0.0
 10
83.263280
 20
22.374349
 30
0.0
  0
SPLINE
  5
10d
100
AcDbEntity
  8
0
 62
7
100
AcDbSpline
 70
8
 71
3
 72
8
 73
4
 74
0
 40
0
 40
0
 40
0
 40
0
 40
1
 40
1
 40
1
 40
1
 10
83.263280
 20
22.374349
 30
0.0
 10
85.909179
 20
26.024554
 30
0.0
 10
85.908862
 20
26.023977
 30
0.0
 10
85.908862
 20
27.200027
 30
0.0
  0
SPLINE
  5
10e
100
AcDbEntity
  8
0
 62
7
100
AcDbSpline
 70
8
 71
3
 72
8
 73
4
 74
0
 40
0
 40
0
 40
0
 40
0
 40
1
 40
1
 40
1
 40
1
 10
85.908862
 20
27.200027
 30
0.0
 10
85.908862
 20
28.614971
 30
0.0
 10
86.372560
 20
29.696116
 30
0.0
 10
86.979421
 20
29.696116
 30
0.0
  0
SPLINE
  5
10f
100
AcDbEntity
  8
0
 62
7
100
AcDbSpline
 70
8
 71
3
 72
8
 73
4
 74
0
 40
0
 40
0
 40
0
 40
0
 40
1
 40
1
 40
1
 40
1
 10
86.979421
 20
29.696116
 30
0.0
 10
87.230471
 20
29.696116
 30
0.0
 10
87.776905
 20
29.518255
 30
0.0
 10
88.193721
 20
29.300871
 30
0.0
  0
SPLINE
  5
110
100
AcDbEntity
  8
0
 62
7
100
AcDbSpline
 70
8
 71
3
 72
8
 73
4
 74
0
 40
0
 40
0
 40
0
 40
0
 40
1
 40
1
 40
1
 40
1
 10
88.193721
 20
29.300871
 30
0.0
 10
89.289221
 20
28.729530
 30
0.0
 10
89.497151
 20
28.784656
 30
0.0
 10
90.809564
 20
29.994397
 30
0.0
  0
SPLINE
  5
111
100
AcDbEntity
  8
0
 62
7
100
AcDbSpline
 70
8
 71
3
 72
8
 73
4
 74
0
 40
0
 40
0
 40
0
 40
0
 40
1
 40
1
 40
1
 40
1
 10
90.809564
 20
29.994397
 30
0.0
 10
91.461156
 20
30.595014
 30
0.0
 10
91.994278
 20
30.967960
 30
0.0
 10
91.994278
 20
30.823165
 30
0.0
  0
SPLINE
  5
112
100
AcDbEntity
  8
0
 62
7
100
AcDbSpline
 70
8
 71
3
 72
8
 73
4
 74
0
 40
0
 40
0
 40
0
 40
0
 40
1
 40
1
 40
1
 40
1
 10
91.994278
 20
30.823165
 30
0.0
 10
91.994278
 20
30.558721
 30
0.0
 10
90.613153
 20
28.022733
 30
0.0
 10
88.858820
 20
25.065908
 30
0.0
  0
SPLINE
  5
113
100
AcDbEntity
  8
0
 62
7
100
AcDbSpline
 70
8
 71
3
 72
8
 73
4
 74
0
 40
0
 40
0
 40
0
 40
0
 40
1
 40
1
 40
1
 40
1
 10
88.858820
 20
25.065908
 30
0.0
 10
87.592641
 20
22.931840
 30
0.0
 10
83.826477
 20
19.082808
 30
0.0
 10
81.545337
 20
17.591500
 30
0.0
  0
SPLINE
  5
114
100
AcDbEntity
  8
0
 62
7
100
AcDbSpline
 70
8
 71
3
 72
8
 73
4
 74
0
 40
0
 40
0
 40
0
 40
0
 40
1
 40
1
 40
1
 40
1
 10
81.545337
 20
17.591500
 30
0.0
 10
80.525535
 20
16.924803
 30
0.0
 10
78.440997
 20
15.461380
 30
0.0
 10
76.913028
 20
14.339448
 30
0.0
  0
SPLINE
  5
115
100
AcDbEntity
  8
0
 62
7
100
AcDbSpline
 70
8
 71
3
 72
8
 73
4
 74
0
 40
0
 40
0
 40
0
 40
0
 40
1
 40
1
 40
1
 40
1
 10
76.913028
 20
14.339448
 30
0.0
 10
73.360632
 20
11.731059
 30
0.0
 10
66.317363
 20
7.938659
 30
0.0
 10
63.689180
 20
7.219159
 30
0.0
  0
SPLINE
  5
116
100
AcDbEntity
  8
0
 62
7
100
AcDbSpline
 70
8
 71
3
 72
8
 73
4
 74
0
 40
0
 40
0
 40
0
 40
0
 40
1
 40
1
 40
1
 40
1
 10
63.689180
 20
7.219159
 30
0.0
 10
61.153347
 20
6.524942
 30
0.0
 10
60.171375
 20
6.557193
 30
0.0
 10
56.936987
 20
7.440930
 30
0.0
  0
SPLINE
  5
117
100
AcDbEntity
  8
0
 62
7
100
AcDbSpline
 70
8
 71
3
 72
8
 73
4
 74
0
 40
0
 40
0
 40
0
 40
0
 40
1
 40
1
 40
1
 40
1
 10
59.979695
 20
20.598773
 30
0.0
 10
56.334070
 20
21.040011
 30
0.0
 10
52.873484
 20
22.287217
 30
0.0
 10
52.294843
 20
23.368421
 30
0.0
  0
SPLINE
  5
118
100
AcDbEntity
  8
0
 62
7
100
AcDbSpline
 70
8
 71
3
 72
8
 73
4
 74
0
 40
0
 40
0
 40
0
 40
0
 40
1
 40
1
 40
1
 40
1
 10
52.294843
 20
23.368421
 30
0.0
 10
51.815669
 20
24.263763
 30
0.0
 10
52.167917
 20
24.242437
 30
0.0
 10
53.940448
 20
23.268797
 30
0.0
  0
SPLINE
  5
119
100
AcDbEntity
  8
0
 62
7
100
AcDbSpline
 70
8
 71
3
 72
8
 73
4
 74
0
 40
0
 40
0
 40
0
 40
0
 40
1
 40
1
 40
1
 40
1
 10
53.940448
 20
23.268797
 30
0.0
 10
56.603199
 20
21.806162
 30
0.0
 10
61.284802
 20
21.064839
 30
0.0
 10
62.837105
 20
21.860026
 30
0.0
  0
SPLINE
  5
11a
100
AcDbEntity
  8
0
 62
7
100
AcDbSpline
 70
8
 71
3
 72
8
 73
4
 74
0
 40
0
 40
0
 40
0
 40
0
 40
1
 40
1
 40
1
 40
1
 10
62.837105
 20
21.860026
 30
0.0
 10
63.230061
 20
22.061323
 30
0.0
 10
64.295525
 20
22.311117
 30
0.0
 10
65.204806
 20
22.415124
 30
0.0
  0
SPLINE
  5
11b
100
AcDbEntity
  8
0
 62
7
100
AcDbSpline
 70
8
 71
3
 72
8
 73
4
 74
0
 40
0
 40
0
 40
0
 40
0
 40
1
 40
1
 40
1
 40
1
 10
65.204806
 20
22.415124
 30
0.0
 10
66.827141
 20
22.600695
 30
0.0
 10
67.275300
 20
23.081533
 30
0.0
 10
65.825920
 20
23.081533
 30
0.0
  0
SPLINE
  5
11c
100
AcDbEntity
  8
0
 62
7
100
AcDbSpline
 70
8
 71
3
 72
8
 73
4
 74
0
 40
0
 40
0
 40
0
 40
0
 40
1
 40
1
 40
1
 40
1
 10
65.825920
 20
23.081533
 30
0.0
 10
65.420499
 20
23.081533
 30
0.0
 10
64.883051
 20
23.308876
 30
0.0
 10
64.631589
 20
23.586739
 30
0.0
  0
SPLINE
  5
11d
100
AcDbEntity
  8
0
 62
7
100
AcDbSpline
 70
8
 71
3
 72
8
 73
4
 74
0
 40
0
 40
0
 40
0
 40
0
 40
1
 40
1
 40
1
 40
1
 10
64.631589
 20
23.586739
 30
0.0
 10
64.198286
 20
24.065532
 30
0.0
 10
64.198466
 20
24.105423
 30
0.0
 10
64.635002
 20
24.349726
 30
0.0
  0
SPLINE
  5
11e
100
AcDbEntity
  8
0
 62
7
100
AcDbSpline
 70
8
 71
3
 72
8
 73
4
 74
0
 40
0
 40
0
 40
0
 40
0
 40
1
 40
1
 40
1
 40
1
 10
64.635002
 20
24.349726
 30
0.0
 10
65.006860
 20
24.557829
 30
0.0
 10
64.870362
 20
24.642270
 30
0.0
 10
63.926720
 20
24.787889
 30
0.0
  0
SPLINE
  5
11f
100
AcDbEntity
  8
0
 62
7
100
AcDbSpline
 70
8
 71
3
 72
8
 73
4
 74
0
 40
0
 40
0
 40
0
 40
0
 40
1
 40
1
 40
1
 40
1
 10
63.926720
 20
24.787889
 30
0.0
 10
61.460039
 20
25.168540
 30
0.0
 10
57.781002
 20
26.020728
 30
0.0
 10
57.109471
 20
26.366991
 30
0.0
  0
SPLINE
  5
120
100
AcDbEntity
  8
0
 62
7
100
AcDbSpline
 70
8
 71
3
 72
8
 73
4
 74
0
 40
0
 40
0
 40
0
 40
0
 40
1
 40
1
 40
1
 40
1
 10
57.109471
 20
26.366991
 30
0.0
 10
56.194629
 20
26.838722
 30
0.0
 10
51.530118
 20
28.637783
 30
0.0
 10
51.221894
 20
28.637783
 30
0.0
  0
SPLINE
  5
121
100
AcDbEntity
  8
0
 62
7
100
AcDbSpline
 70
8
 71
3
 72
8
 73
4
 74
0
 40
0
 40
0
 40
0
 40
0
 40
1
 40
1
 40
1
 40
1
 10
51.221894
 20
28.637783
 30
0.0
 10
51.090976
 20
28.637783
 30
0.0
 10
50.983862
 20
28.459189
 30
0.0
 10
50.983862
 20
28.240908
 30
0.0
  0
SPLINE
  5
122
100
AcDbEntity
  8
0
 62
7
100
AcDbSpline
 70
8
 71
3
 72
8
 73
4
 74
0
 40
0
 40
0
 40
0
 40
0
 40
1
 40
1
 40
1
 40
1
 10
50.983862
 20
28.240908
 30
0.0
 10
50.983862
 20
27.375832
 30
0.0
 10
49.841089
 20
27.938672
 30
0.0
 10
49.075168
 20
29.180980
 30
0.0
  0
SPLINE
  5
123
100
AcDbEntity
  8
0
 62
7
100
AcDbSpline
 70
8
 71
3
 72
8
 73
4
 74
0
 40
0
 40
0
 40
0
 40
0
 40
1
 40
1
 40
1
 40
1
 10
49.075168
 20
29.180980
 30
0.0
 10
48.632835
 20
29.898435
 30
0.0
 10
46.064175
 20
31.381221
 30
0.0
 10
45.677563
 20
31.142281
 30
0.0
  0
SPLINE
  5
124
100
AcDbEntity
  8
0
 62
7
100
AcDbSpline
 70
8
 71
3
 72
8
 73
4
 74
0
 40
0
 40
0
 40
0
 40
0
 40
1
 40
1
 40
1
 40
1
 10
45.677563
 20
31.142281
 30
0.0
 10
45.551363
 20
31.064285
 30
0.0
 10
45.371390
 20
30.558163
 30
0.0
 10
45.277627
 20
30.017564
 30
0.0
  0
SPLINE
  5
125
100
AcDbEntity
  8
0
 62
7
100
AcDbSpline
 70
8
 71
3
 72
8
 73
4
 74
0
 40
0
 40
0
 40
0
 40
0
 40
1
 40
1
 40
1
 40
1
 10
45.277627
 20
30.017564
 30
0.0
 10
45.183862
 20
29.476965
 30
0.0
 10
44.795670
 20
28.558408
 30
0.0
 10
44.414974
 20
27.976325
 30
0.0
  0
LWPOLYLINE
  5
126
100
AcDbEntity
  8
0
 62
7
100
AcDbPolyline
 90
1
 70
1
 10
56.936987
 20
7.440930
 30
0.0
  0
SPLINE
  5
127
100
AcDbEntity
  8
0
 62
7
100
AcDbSpline
 70
8
 71
3
 72
8
 73
4
 74
0
 40
0
 40
0
 40
0
 40
0
 40
1
 40
1
 40
1
 40
1
 10
43.524271
 20
28.373200
 30
0.0
 10
43.260791
 20
30.304454
 30
0.0
 10
43.429716
 20
30.994260
 30
0.0
 10
44.444983
 20
32.132892
 30
0.0
  0
SPLINE
  5
128
100
AcDbEntity
  8
0
 62
7
100
AcDbSpline
 70
8
 71
3
 72
8
 73
4
 74
0
 40
0
 40
0
 40
0
 40
0
 40
1
 40
1
 40
1
 40
1
 10
44.444983
 20
32.132892
 30
0.0
 10
45.450017
 20
33.260043
 30
0.0
 10
46.540237
 20
33.847262
 30
0.0
 10
48.087105
 20
34.094616
 30
0.0
  0
SPLINE
  5
129
100
AcDbEntity
  8
0
 62
7
100
AcDbSpline
 70
8
 71
3
 72
8
 73
4
 74
0
 40
0
 40
0
 40
0
 40
0
 40
1
 40
1
 40
1
 40
1
 10
48.087105
 20
34.094616
 30
0.0
 10
49.278921
 20
34.285195
 30
0.0
 10
49.318180
 20
34.214155
 30
0.0
 10
48.763245
 20
32.871116
 30
0.0
  0
SPLINE
  5
12a
100
AcDbEntity
  8
0
 62
7
100
AcDbSpline
 70
8
 71
3
 72
8
 73
4
 74
0
 40
0
 40
0
 40
0
 40
0
 40
1
 40
1
 40
1
 40
1
 10
48.763245
 20
32.871116
 30
0.0
 10
48.649956
 20
32.596942
 30
0.0
 10
48.974907
 20
32.237331
 30
0.0
 10
49.814300
 20
31.707955
 30
0.0
  0
SPLINE
  5
12b
100
AcDbEntity
  8
0
 62
7
100
AcDbSpline
 70
8
 71
3
 72
8
 73
4
 74
0
 40
0
 40
0
 40
0
 40
0
 40
1
 40
1
 40
1
 40
1
 10
49.814300
 20
31.707955
 30
0.0
 10
50.482574
 20
31.286498
 30
0.0
 10
51.346531
 20
30.614287
 30
0.0
 10
51.734207
 20
30.214155
 30
0.0
  0
SPLINE
  5
12c
100
AcDbEntity
  8
0
 62
7
100
AcDbSpline
 70
8
 71
3
 72
8
 73
4
 74
0
 40
0
 40
0
 40
0
 40
0
 40
1
 40
1
 40
1
 40
1
 10
51.734207
 20
30.214155
 30
0.0
 10
52.175915
 20
29.758251
 30
0.0
 10
54.044387
 20
28.822698
 30
0.0
 10
56.738951
 20
27.708249
 30
0.0
  0
LWPOLYLINE
  5
12d
100
AcDbEntity
  8
0
 62
7
100
AcDbPolyline
 90
3
 70
0
 10
44.414974
 20
27.976325
 30
0.0
 10
43.722803
 20
26.917991
 30
0.0
 10
43.524271
 20
28.373200
 30
0.0
  0
SPLINE
  5
12e
100
AcDbEntity
  8
0
 62
7
100
AcDbSpline
 70
8
 71
3
 72
8
 73
4
 74
0
 40
0
 40
0
 40
0
 40
0
 40
1
 40
1
 40
1
 40
1
 10
63.042482
 20
26.117611
 30
0.0
 10
64.144493
 20
26.220878
 30
0.0
 10
64.998137
 20
26.353368
 30
0.0
 10
64.939474
 20
26.412031
 30
0.0
  0
SPLINE
  5
12f
100
AcDbEntity
  8
0
 62
7
100
AcDbSpline
 70
8
 71
3
 72
8
 73
4
 74
0
 40
0
 40
0
 40
0
 40
0
 40
1
 40
1
 40
1
 40
1
 10
64.939474
 20
26.412031
 30
0.0
 10
64.880810
 20
26.470697
 30
0.0
 10
64.077003
 20
26.671670
 30
0.0
 10
63.153240
 20
26.858635
 30
0.0
  0
SPLINE
  5
130
100
AcDbEntity
  8
0
 62
7
100
AcDbSpline
 70
8
 71
3
 72
8
 73
4
 74
0
 40
0
 40
0
 40
0
 40
0
 40
1
 40
1
 40
1
 40
1
 10
63.153240
 20
26.858635
 30
0.0
 10
60.738578
 20
27.347357
 30
0.0
 10
60.868071
 20
27.739226
 30
0.0
 10
63.430915
 20
27.698954
 30
0.0
  0
SPLINE
  5
131
100
AcDbEntity
  8
0
 62
7
100
AcDbSpline
 70
8
 71
3
 72
8
 73
4
 74
0
 40
0
 40
0
 40
0
 40
0
 40
1
 40
1
 40
1
 40
1
 10
63.430915
 20
27.698954
 30
0.0
 10
65.308491
 20
27.669448
 30
0.0
 10
65.612208
 20
27.731170
 30
0.0
 10
65.947917
 20
28.210462
 30
0.0
  0
SPLINE
  5
132
100
AcDbEntity
  8
0
 62
7
100
AcDbSpline
 70
8
 71
3
 72
8
 73
4
 74
0
 40
0
 40
0
 40
0
 40
0
 40
1
 40
1
 40
1
 40
1
 10
65.947917
 20
28.210462
 30
0.0
 10
66.157896
 20
28.510249
 30
0.0
 10
66.329695
 20
28.833651
 30
0.0
 10
66.329695
 20
28.929139
 30
0.0
  0
SPLINE
  5
133
100
AcDbEntity
  8
0
 62
7
100
AcDbSpline
 70
8
 71
3
 72
8
 73
4
 74
0
 40
0
 40
0
 40
0
 40
0
 40
1
 40
1
 40
1
 40
1
 10
66.329695
 20
28.929139
 30
0.0
 10
66.329695
 20
29.175879
 30
0.0
 10
65.164039
 20
29.590680
 30
0.0
 10
63.042932
 20
30.098741
 30
0.0
  0
SPLINE
  5
134
100
AcDbEntity
  8
0
 62
7
100
AcDbSpline
 70
8
 71
3
 72
8
 73
4
 74
0
 40
0
 40
0
 40
0
 40
0
 40
1
 40
1
 40
1
 40
1
 10
63.042932
 20
30.098741
 30
0.0
 10
62.035579
 20
30.340027
 30
0.0
 10
60.921506
 20
30.727377
 30
0.0
 10
60.567215
 20
30.959518
 30
0.0
  0
SPLINE
  5
135
100
AcDbEntity
  8
0
 62
7
100
AcDbSpline
 70
8
 71
3
 72
8
 73
4
 74
0
 40
0
 40
0
 40
0
 40
0
 40
1
 40
1
 40
1
 40
1
 10
60.567215
 20
30.959518
 30
0.0
 10
59.993168
 20
31.335649
 30
0.0
 10
59.969334
 20
31.415432
 30
0.0
 10
60.348249
 20
31.692501
 30
0.0
  0
SPLINE
  5
136
100
AcDbEntity
  8
0
 62
7
100
AcDbSpline
 70
8
 71
3
 72
8
 73
4
 74
0
 40
0
 40
0
 40
0
 40
0
 40
1
 40
1
 40
1
 40
1
 10
60.348249
 20
31.692501
 30
0.0
 10
60.582106
 20
31.863501
 30
0.0
 10
60.773445
 20
32.258177
 30
0.0
 10
60.773445
 20
32.569555
 30
0.0
  0
SPLINE
  5
137
100
AcDbEntity
  8
0
 62
7
100
AcDbSpline
 70
8
 71
3
 72
8
 73
4
 74
0
 40
0
 40
0
 40
0
 40
0
 40
1
 40
1
 40
1
 40
1
 10
60.773445
 20
32.569555
 30
0.0
 10
60.773445
 20
33.065678
 30
0.0
 10
60.923432
 20
33.135700
 30
0.0
 10
61.986118
 20
33.135700
 30
0.0
  0
SPLINE
  5
138
100
AcDbEntity
  8
0
 62
7
100
AcDbSpline
 70
8
 71
3
 72
8
 73
4
 74
0
 40
0
 40
0
 40
0
 40
0
 40
1
 40
1
 40
1
 40
1
 10
61.986118
 20
33.135700
 30
0.0
 10
62.673497
 20
33.135700
 30
0.0
 10
63.160590
 20
33.249780
 30
0.0
 10
63.110597
 20
33.399061
 30
0.0
  0
SPLINE
  5
139
100
AcDbEntity
  8
0
 62
7
100
AcDbSpline
 70
8
 71
3
 72
8
 73
4
 74
0
 40
0
 40
0
 40
0
 40
0
 40
1
 40
1
 40
1
 40
1
 10
63.110597
 20
33.399061
 30
0.0
 10
62.831742
 20
34.231768
 30
0.0
 10
61.105402
 20
36.027177
 30
0.0
 10
60.575007
 20
36.036099
 30
0.0
  0
SPLINE
  5
13a
100
AcDbEntity
  8
0
 62
7
100
AcDbSpline
 70
8
 71
3
 72
8
 73
4
 74
0
 40
0
 40
0
 40
0
 40
0
 40
1
 40
1
 40
1
 40
1
 10
60.575007
 20
36.036099
 30
0.0
 10
60.247586
 20
36.041603
 30
0.0
 10
59.979695
 20
35.927054
 30
0.0
 10
59.979695
 20
35.781533
 30
0.0
  0
SPLINE
  5
13b
100
AcDbEntity
  8
0
 62
7
100
AcDbSpline
 70
8
 71
3
 72
8
 73
4
 74
0
 40
0
 40
0
 40
0
 40
0
 40
1
 40
1
 40
1
 40
1
 10
59.979695
 20
35.781533
 30
0.0
 10
59.979695
 20
35.315165
 30
0.0
 10
59.491909
 20
35.498926
 30
0.0
 10
59.323785
 20
36.028630
 30
0.0
  0
SPLINE
  5
13c
100
AcDbEntity
  8
0
 62
7
100
AcDbSpline
 70
8
 71
3
 72
8
 73
4
 74
0
 40
0
 40
0
 40
0
 40
0
 40
1
 40
1
 40
1
 40
1
 10
59.323785
 20
36.028630
 30
0.0
 10
59.215083
 20
36.371128
 30
0.0
 10
58.589751
 20
36.730540
 30
0.0
 10
57.432551
 20
37.115631
 30
0.0
  0
SPLINE
  5
13d
100
AcDbEntity
  8
0
 62
7
100
AcDbSpline
 70
8
 71
3
 72
8
 73
4
 74
0
 40
0
 40
0
 40
0
 40
0
 40
1
 40
1
 40
1
 40
1
 10
57.432551
 20
37.115631
 30
0.0
 10
56.097091
 20
37.560044
 30
0.0
 10
55.588389
 20
37.880086
 30
0.0
 10
55.196862
 20
38.522180
 30
0.0
  0
SPLINE
  5
13e
100
AcDbEntity
  8
0
 62
7
100
AcDbSpline
 70
8
 71
3
 72
8
 73
4
 74
0
 40
0
 40
0
 40
0
 40
0
 40
1
 40
1
 40
1
 40
1
 10
55.196862
 20
38.522180
 30
0.0
 10
54.521380
 20
39.629950
 30
0.0
 10
54.554467
 20
39.791532
 30
0.0
 10
55.415632
 20
39.590575
 30
0.0
  0
SPLINE
  5
13f
100
AcDbEntity
  8
0
 62
7
100
AcDbSpline
 70
8
 71
3
 72
8
 73
4
 74
0
 40
0
 40
0
 40
0
 40
0
 40
1
 40
1
 40
1
 40
1
 10
55.415632
 20
39.590575
 30
0.0
 10
56.856347
 20
39.254380
 30
0.0
 10
61.161488
 20
37.345387
 30
0.0
 10
61.780661
 20
36.768185
 30
0.0
  0
SPLINE
  5
140
100
AcDbEntity
  8
0
 62
7
100
AcDbSpline
 70
8
 71
3
 72
8
 73
4
 74
0
 40
0
 40
0
 40
0
 40
0
 40
1
 40
1
 40
1
 40
1
 10
61.780661
 20
36.768185
 30
0.0
 10
62.128625
 20
36.443809
 30
0.0
 10
62.692600
 20
35.629834
 30
0.0
 10
63.033936
 20
34.959356
 30
0.0
  0
SPLINE
  5
141
100
AcDbEntity
  8
0
 62
7
100
AcDbSpline
 70
8
 71
3
 72
8
 73
4
 74
0
 40
0
 40
0
 40
0
 40
0
 40
1
 40
1
 40
1
 40
1
 10
63.033936
 20
34.959356
 30
0.0
 10
63.982854
 20
33.095425
 30
0.0
 10
64.921905
 20
32.117265
 30
0.0
 10
65.947031
 20
31.924953
 30
0.0
  0
SPLINE
  5
142
100
AcDbEntity
  8
0
 62
7
100
AcDbSpline
 70
8
 71
3
 72
8
 73
4
 74
0
 40
0
 40
0
 40
0
 40
0
 40
1
 40
1
 40
1
 40
1
 10
65.947031
 20
31.924953
 30
0.0
 10
67.398260
 20
31.652699
 30
0.0
 10
67.951596
 20
31.937521
 30
0.0
 10
70.315825
 20
34.173610
 30
0.0
  0
SPLINE
  5
143
100
AcDbEntity
  8
0
 62
7
100
AcDbSpline
 70
8
 71
3
 72
8
 73
4
 74
0
 40
0
 40
0
 40
0
 40
0
 40
1
 40
1
 40
1
 40
1
 10
70.315825
 20
34.173610
 30
0.0
 10
71.543193
 20
35.334461
 30
0.0
 10
73.309549
 20
36.733141
 30
0.0
 10
74.241057
 20
37.281787
 30
0.0
  0
SPLINE
  5
144
100
AcDbEntity
  8
0
 62
7
100
AcDbSpline
 70
8
 71
3
 72
8
 73
4
 74
0
 40
0
 40
0
 40
0
 40
0
 40
1
 40
1
 40
1
 40
1
 10
74.241057
 20
37.281787
 30
0.0
 10
75.174898
 20
37.831805
 30
0.0
 10
76.001232
 20
38.520254
 30
0.0
 10
76.082988
 20
38.816367
 30
0.0
  0
SPLINE
  5
145
100
AcDbEntity
  8
0
 62
7
100
AcDbSpline
 70
8
 71
3
 72
8
 73
4
 74
0
 40
0
 40
0
 40
0
 40
0
 40
1
 40
1
 40
1
 40
1
 10
76.082988
 20
38.816367
 30
0.0
 10
76.207961
 20
39.269014
 30
0.0
 10
76.256020
 20
39.228673
 30
0.0
 10
76.388796
 20
38.559658
 30
0.0
  0
SPLINE
  5
146
100
AcDbEntity
  8
0
 62
7
100
AcDbSpline
 70
8
 71
3
 72
8
 73
4
 74
0
 40
0
 40
0
 40
0
 40
0
 40
1
 40
1
 40
1
 40
1
 10
76.388796
 20
38.559658
 30
0.0
 10
76.504406
 20
37.977151
 30
0.0
 10
76.348675
 20
37.408141
 30
0.0
 10
75.803638
 20
36.421597
 30
0.0
  0
SPLINE
  5
147
100
AcDbEntity
  8
0
 62
7
100
AcDbSpline
 70
8
 71
3
 72
8
 73
4
 74
0
 40
0
 40
0
 40
0
 40
0
 40
1
 40
1
 40
1
 40
1
 10
75.803638
 20
36.421597
 30
0.0
 10
75.395156
 20
35.682227
 30
0.0
 10
75.060945
 20
34.888204
 30
0.0
 10
75.060945
 20
34.657101
 30
0.0
  0
SPLINE
  5
148
100
AcDbEntity
  8
0
 62
7
100
AcDbSpline
 70
8
 71
3
 72
8
 73
4
 74
0
 40
0
 40
0
 40
0
 40
0
 40
1
 40
1
 40
1
 40
1
 10
75.060945
 20
34.657101
 30
0.0
 10
75.060945
 20
34.426001
 30
0.0
 10
74.858930
 20
33.884926
 30
0.0
 10
74.612024
 20
33.454716
 30
0.0
  0
SPLINE
  5
149
100
AcDbEntity
  8
0
 62
7
100
AcDbSpline
 70
8
 71
3
 72
8
 73
4
 74
0
 40
0
 40
0
 40
0
 40
0
 40
1
 40
1
 40
1
 40
1
 10
74.612024
 20
33.454716
 30
0.0
 10
74.193260
 20
32.725064
 30
0.0
 10
74.192580
 20
32.627525
 30
0.0
 10
74.601917
 20
32.002804
 30
0.0
  0
SPLINE
  5
14a
100
AcDbEntity
  8
0
 62
7
100
AcDbSpline
 70
8
 71
3
 72
8
 73
4
 74
0
 40
0
 40
0
 40
0
 40
0
 40
1
 40
1
 40
1
 40
1
 10
74.601917
 20
32.002804
 30
0.0
 10
75.011735
 20
31.377342
 30
0.0
 10
75.171983
 20
31.335829
 30
0.0
 10
77.027320
 20
31.374501
 30
0.0
  0
SPLINE
  5
14b
100
AcDbEntity
  8
0
 62
7
100
AcDbSpline
 70
8
 71
3
 72
8
 73
4
 74
0
 40
0
 40
0
 40
0
 40
0
 40
1
 40
1
 40
1
 40
1
 10
77.027320
 20
31.374501
 30
0.0
 10
79.628894
 20
31.428727
 30
0.0
 10
80.070767
 20
31.048190
 30
0.0
 10
80.158818
 20
28.677698
 30
0.0
  0
SPLINE
  5
14c
100
AcDbEntity
  8
0
 62
7
100
AcDbSpline
 70
8
 71
3
 72
8
 73
4
 74
0
 40
0
 40
0
 40
0
 40
0
 40
1
 40
1
 40
1
 40
1
 10
80.158818
 20
28.677698
 30
0.0
 10
80.214250
 20
27.185310
 30
0.0
 10
80.155008
 20
26.972136
 30
0.0
 10
79.558864
 20
26.518833
 30
0.0
  0
SPLINE
  5
14d
100
AcDbEntity
  8
0
 62
7
100
AcDbSpline
 70
8
 71
3
 72
8
 73
4
 74
0
 40
0
 40
0
 40
0
 40
0
 40
1
 40
1
 40
1
 40
1
 10
79.558864
 20
26.518833
 30
0.0
 10
78.897469
 20
26.015913
 30
0.0
 10
78.897398
 20
26.015926
 30
0.0
 10
78.813686
 20
26.665364
 30
0.0
  0
SPLINE
  5
14e
100
AcDbEntity
  8
0
 62
7
100
AcDbSpline
 70
8
 71
3
 72
8
 73
4
 74
0
 40
0
 40
0
 40
0
 40
0
 40
1
 40
1
 40
1
 40
1
 10
78.813686
 20
26.665364
 30
0.0
 10
78.720640
 20
27.387219
 30
0.0
 10
78.374211
 20
27.512523
 30
0.0
 10
78.050657
 20
26.941357
 30
0.0
  0
SPLINE
  5
14f
100
AcDbEntity
  8
0
 62
7
100
AcDbSpline
 70
8
 71
3
 72
8
 73
4
 74
0
 40
0
 40
0
 40
0
 40
0
 40
1
 40
1
 40
1
 40
1
 10
78.050657
 20
26.941357
 30
0.0
 10
77.684135
 20
26.294339
 30
0.0
 10
75.210408
 20
24.460285
 30
0.0
 10
73.448135
 20
23.528988
 30
0.0
  0
SPLINE
  5
150
100
AcDbEntity
  8
0
 62
7
100
AcDbSpline
 70
8
 71
3
 72
8
 73
4
 74
0
 40
0
 40
0
 40
0
 40
0
 40
1
 40
1
 40
1
 40
1
 10
73.448135
 20
23.528988
 30
0.0
 10
69.441380
 20
21.411568
 30
0.0
 10
63.658758
 20
20.153490
 30
0.0
 10
59.979695
 20
20.598773
 30
0.0
  0
LWPOLYLINE
  5
151
100
AcDbEntity
  8
0
 62
7
100
AcDbPolyline
 90
3
 70
0
 10
56.738951
 20
27.708249
 30
0.0
 10
61.038833
 20
25.929855
 30
0.0
 10
63.042482
 20
26.117611
 30
0.0
  0
SPLINE
  5
152
100
AcDbEntity
  8
0
 62
7
100
AcDbSpline
 70
8
 71
3
 72
8
 73
4
 74
0
 40
0
 40
0
 40
0
 40
0
 40
1
 40
1
 40
1
 40
1
 10
84.258346
 20
27.050283
 30
0.0
 10
84.172335
 20
27.268564
 30
0.0
 10
83.897343
 20
28.578252
 30
0.0
 10
83.647256
 20
29.960700
 30
0.0
  0
SPLINE
  5
153
100
AcDbEntity
  8
0
 62
7
100
AcDbSpline
 70
8
 71
3
 72
8
 73
4
 74
0
 40
0
 40
0
 40
0
 40
0
 40
1
 40
1
 40
1
 40
1
 10
83.647256
 20
29.960700
 30
0.0
 10
83.298374
 20
31.889258
 30
0.0
 10
82.916805
 20
32.985668
 30
0.0
 10
82.007739
 20
34.671725
 30
0.0
  0
SPLINE
  5
154
100
AcDbEntity
  8
0
 62
7
100
AcDbSpline
 70
8
 71
3
 72
8
 73
4
 74
0
 40
0
 40
0
 40
0
 40
0
 40
1
 40
1
 40
1
 40
1
 10
82.007739
 20
34.671725
 30
0.0
 10
81.356094
 20
35.880344
 30
0.0
 10
80.895701
 20
36.941985
 30
0.0
 10
80.984646
 20
37.030927
 30
0.0
  0
SPLINE
  5
155
100
AcDbEntity
  8
0
 62
7
100
AcDbSpline
 70
8
 71
3
 72
8
 73
4
 74
0
 40
0
 40
0
 40
0
 40
0
 40
1
 40
1
 40
1
 40
1
 10
80.984646
 20
37.030927
 30
0.0
 10
81.174328
 20
37.220610
 30
0.0
 10
81.096414
 20
37.308798
 30
0.0
 10
82.158996
 20
35.701713
 30
0.0
  0
SPLINE
  5
156
100
AcDbEntity
  8
0
 62
7
100
AcDbSpline
 70
8
 71
3
 72
8
 73
4
 74
0
 40
0
 40
0
 40
0
 40
0
 40
1
 40
1
 40
1
 40
1
 10
82.158996
 20
35.701713
 30
0.0
 10
84.193036
 20
32.625366
 30
0.0
 10
84.843805
 20
30.668145
 30
0.0
 10
84.597843
 20
28.366744
 30
0.0
  0
SPLINE
  5
157
100
AcDbEntity
  8
0
 62
7
100
AcDbSpline
 70
8
 71
3
 72
8
 73
4
 74
0
 40
0
 40
0
 40
0
 40
0
 40
1
 40
1
 40
1
 40
1
 10
84.597843
 20
28.366744
 30
0.0
 10
84.497130
 20
27.424409
 30
0.0
 10
84.344357
 20
26.832002
 30
0.0
 10
84.258346
 20
27.050283
 30
0.0
  0
LWPOLYLINE
  5
158
100
AcDbEntity
  8
0
 62
7
100
AcDbPolyline
 90
1
 70
1
 10
59.979695
 20
20.598773
 30
0.0
  0
SPLINE
  5
159
100
AcDbEntity
  8
0
 62
7
100
AcDbSpline
 70
8
 71
3
 72
8
 73
4
 74
0
 40
0
 40
0
 40
0
 40
0
 40
1
 40
1
 40
1
 40
1
 10
37.656876
 20
30.820595
 30
0.0
 10
37.122394
 20
32.815001
 30
0.0
 10
37.678810
 20
35.073995
 30
0.0
 10
39.104456
 20
36.697724
 30
0.0
  0
SPLINE
  5
15a
100
AcDbEntity
  8
0
 62
7
100
AcDbSpline
 70
8
 71
3
 72
8
 73
4
 74
0
 40
0
 40
0
 40
0
 40
0
 40
1
 40
1
 40
1
 40
1
 10
39.104456
 20
36.697724
 30
0.0
 10
40.422912
 20
38.199364
 30
0.0
 10
40.486465
 20
37.791313
 30
0.0
 10
39.298663
 20
35.450804
 30
0.0
  0
SPLINE
  5
15b
100
AcDbEntity
  8
0
 62
7
100
AcDbSpline
 70
8
 71
3
 72
8
 73
4
 74
0
 40
0
 40
0
 40
0
 40
0
 40
1
 40
1
 40
1
 40
1
 10
39.298663
 20
35.450804
 30
0.0
 10
38.386128
 20
33.652698
 30
0.0
 10
38.189522
 20
32.999863
 30
0.0
 10
38.183114
 20
31.746637
 30
0.0
  0
SPLINE
  5
15c
100
AcDbEntity
  8
0
 62
7
100
AcDbSpline
 70
8
 71
3
 72
8
 73
4
 74
0
 40
0
 40
0
 40
0
 40
0
 40
1
 40
1
 40
1
 40
1
 10
38.183114
 20
31.746637
 30
0.0
 10
38.175123
 20
30.183429
 30
0.0
 10
37.938988
 20
29.767895
 30
0.0
 10
37.656876
 20
30.820595
 30
0.0
  0
LWPOLYLINE
  5
15d
100
AcDbEntity
  8
0
 62
7
100
AcDbPolyline
 90
1
 70
1
 10
84.258346
 20
27.050283
 30
0.0
  0
SPLINE
  5
15e
100
AcDbEntity
  8
0
 62
7
100
AcDbSpline
 70
8
 71
3
 72
8
 73
4
 74
0
 40
0
 40
0
 40
0
 40
0
 40
1
 40
1
 40
1
 40
1
 10
42.258448
 20
33.300207
 30
0.0
 10
42.255247
 20
33.463444
 30
0.0
 10
42.520502
 20
34.193364
 30
0.0
 10
42.847924
 20
34.922246
 30
0.0
  0
SPLINE
  5
15f
100
AcDbEntity
  8
0
 62
7
100
AcDbSpline
 70
8
 71
3
 72
8
 73
4
 74
0
 40
0
 40
0
 40
0
 40
0
 40
1
 40
1
 40
1
 40
1
 10
42.847924
 20
34.922246
 30
0.0
 10
43.298824
 20
35.926009
 30
0.0
 10
44.181339
 20
36.923414
 30
0.0
 10
46.485945
 20
39.033889
 30
0.0
  0
SPLINE
  5
160
100
AcDbEntity
  8
0
 62
7
100
AcDbSpline
 70
8
 71
3
 72
8
 73
4
 74
0
 40
0
 40
0
 40
0
 40
0
 40
1
 40
1
 40
1
 40
1
 10
46.485945
 20
39.033889
 30
0.0
 10
49.085743
 20
41.414692
 30
0.0
 10
54.407319
 20
45.571116
 30
0.0
 10
54.855721
 20
45.571116
 30
0.0
  0
SPLINE
  5
161
100
AcDbEntity
  8
0
 62
7
100
AcDbSpline
 70
8
 71
3
 72
8
 73
4
 74
0
 40
0
 40
0
 40
0
 40
0
 40
1
 40
1
 40
1
 40
1
 10
54.855721
 20
45.571116
 30
0.0
 10
55.247445
 20
45.571116
 30
0.0
 10
53.280220
 20
43.334726
 30
0.0
 10
52.147036
 20
42.491819
 30
0.0
  0
SPLINE
  5
162
100
AcDbEntity
  8
0
 62
7
100
AcDbSpline
 70
8
 71
3
 72
8
 73
4
 74
0
 40
0
 40
0
 40
0
 40
0
 40
1
 40
1
 40
1
 40
1
 10
52.147036
 20
42.491819
 30
0.0
 10
51.434529
 20
41.961827
 30
0.0
 10
49.780007
 20
40.484967
 30
0.0
 10
48.470320
 20
39.209911
 30
0.0
  0
SPLINE
  5
163
100
AcDbEntity
  8
0
 62
7
100
AcDbSpline
 70
8
 71
3
 72
8
 73
4
 74
0
 40
0
 40
0
 40
0
 40
0
 40
1
 40
1
 40
1
 40
1
 10
48.470320
 20
39.209911
 30
0.0
 10
47.160632
 20
37.934855
 30
0.0
 10
45.595006
 20
36.645533
 30
0.0
 10
44.991147
 20
36.344749
 30
0.0
  0
SPLINE
  5
164
100
AcDbEntity
  8
0
 62
7
100
AcDbSpline
 70
8
 71
3
 72
8
 73
4
 74
0
 40
0
 40
0
 40
0
 40
0
 40
1
 40
1
 40
1
 40
1
 10
44.991147
 20
36.344749
 30
0.0
 10
44.213296
 20
35.957301
 30
0.0
 10
43.655790
 20
35.390550
 30
0.0
 10
43.078755
 20
34.400641
 30
0.0
  0
SPLINE
  5
165
100
AcDbEntity
  8
0
 62
7
100
AcDbSpline
 70
8
 71
3
 72
8
 73
4
 74
0
 40
0
 40
0
 40
0
 40
0
 40
1
 40
1
 40
1
 40
1
 10
43.078755
 20
34.400641
 30
0.0
 10
42.630796
 20
33.632164
 30
0.0
 10
42.261658
 20
33.136967
 30
0.0
 10
42.258448
 20
33.300207
 30
0.0
  0
LWPOLYLINE
  5
166
100
AcDbEntity
  8
0
 62
7
100
AcDbPolyline
 90
1
 70
1
 10
37.656876
 20
30.820595
 30
0.0
  0
SPLINE
  5
167
100
AcDbEntity
  8
0
 62
7
100
AcDbSpline
 70
8
 71
3
 72
8
 73
4
 74
0
 40
0
 40
0
 40
0
 40
0
 40
1
 40
1
 40
1
 40
1
 10
73.129296
 20
39.627067
 30
0.0
 10
73.224147
 20
40.211558
 30
0.0
 10
73.122152
 20
40.930804
 30
0.0
 10
72.857286
 20
41.545296
 30
0.0
  0
SPLINE
  5
168
100
AcDbEntity
  8
0
 62
7
100
AcDbSpline
 70
8
 71
3
 72
8
 73
4
 74
0
 40
0
 40
0
 40
0
 40
0
 40
1
 40
1
 40
1
 40
1
 10
72.857286
 20
41.545296
 30
0.0
 10
72.384531
 20
42.642078
 30
0.0
 10
70.760368
 20
48.767069
 30
0.0
 10
70.904161
 20
48.910859
 30
0.0
  0
SPLINE
  5
169
100
AcDbEntity
  8
0
 62
7
100
AcDbSpline
 70
8
 71
3
 72
8
 73
4
 74
0
 40
0
 40
0
 40
0
 40
0
 40
1
 40
1
 40
1
 40
1
 10
70.904161
 20
48.910859
 30
0.0
 10
70.954662
 20
48.961360
 30
0.0
 10
71.365033
 20
48.479104
 30
0.0
 10
71.816098
 20
47.839175
 30
0.0
  0
SPLINE
  5
16a
100
AcDbEntity
  8
0
 62
7
100
AcDbSpline
 70
8
 71
3
 72
8
 73
4
 74
0
 40
0
 40
0
 40
0
 40
0
 40
1
 40
1
 40
1
 40
1
 10
71.816098
 20
47.839175
 30
0.0
 10
72.360584
 20
47.066708
 30
0.0
 10
73.072215
 20
46.475650
 30
0.0
 10
73.933510
 20
46.080521
 30
0.0
  0
SPLINE
  5
16b
100
AcDbEntity
  8
0
 62
7
100
AcDbSpline
 70
8
 71
3
 72
8
 73
4
 74
0
 40
0
 40
0
 40
0
 40
0
 40
1
 40
1
 40
1
 40
1
 10
73.933510
 20
46.080521
 30
0.0
 10
74.818745
 20
45.674412
 30
0.0
 10
75.434944
 20
45.154411
 30
0.0
 10
75.873483
 20
44.443401
 30
0.0
  0
SPLINE
  5
16c
100
AcDbEntity
  8
0
 62
7
100
AcDbSpline
 70
8
 71
3
 72
8
 73
4
 74
0
 40
0
 40
0
 40
0
 40
0
 40
1
 40
1
 40
1
 40
1
 10
75.873483
 20
44.443401
 30
0.0
 10
77.989541
 20
41.012602
 30
0.0
 10
78.020175
 20
40.938072
 30
0.0
 10
77.208322
 20
41.195744
 30
0.0
  0
SPLINE
  5
16d
100
AcDbEntity
  8
0
 62
7
100
AcDbSpline
 70
8
 71
3
 72
8
 73
4
 74
0
 40
0
 40
0
 40
0
 40
0
 40
1
 40
1
 40
1
 40
1
 10
77.208322
 20
41.195744
 30
0.0
 10
76.824612
 20
41.317529
 30
0.0
 10
76.665360
 20
41.184605
 30
0.0
 10
76.516516
 20
40.618262
 30
0.0
  0
LWPOLYLINE
  5
16e
100
AcDbEntity
  8
0
 62
7
100
AcDbPolyline
 90
1
 70
1
 10
42.258448
 20
33.300207
 30
0.0
  0
SPLINE
  5
16f
100
AcDbEntity
  8
0
 62
7
100
AcDbSpline
 70
8
 71
3
 72
8
 73
4
 74
0
 40
0
 40
0
 40
0
 40
0
 40
1
 40
1
 40
1
 40
1
 10
75.989183
 20
40.808616
 30
0.0
 10
75.616954
 20
41.840708
 30
0.0
 10
74.422722
 20
44.138874
 30
0.0
 10
73.983816
 20
44.667723
 30
0.0
  0
SPLINE
  5
170
100
AcDbEntity
  8
0
 62
7
100
AcDbSpline
 70
8
 71
3
 72
8
 73
4
 74
0
 40
0
 40
0
 40
0
 40
0
 40
1
 40
1
 40
1
 40
1
 10
73.983816
 20
44.667723
 30
0.0
 10
73.827354
 20
44.856247
 30
0.0
 10
73.529449
 20
44.945303
 30
0.0
 10
73.321810
 20
44.865623
 30
0.0
  0
SPLINE
  5
171
100
AcDbEntity
  8
0
 62
7
100
AcDbSpline
 70
8
 71
3
 72
8
 73
4
 74
0
 40
0
 40
0
 40
0
 40
0
 40
1
 40
1
 40
1
 40
1
 10
73.321810
 20
44.865623
 30
0.0
 10
72.767542
 20
44.652930
 30
0.0
 10
72.849626
 20
42.920423
 30
0.0
 10
73.491074
 20
41.293058
 30
0.0
  0
SPLINE
  5
172
100
AcDbEntity
  8
0
 62
7
100
AcDbSpline
 70
8
 71
3
 72
8
 73
4
 74
0
 40
0
 40
0
 40
0
 40
0
 40
1
 40
1
 40
1
 40
1
 10
73.491074
 20
41.293058
 30
0.0
 10
73.914892
 20
40.217826
 30
0.0
 10
73.975674
 20
39.769322
 30
0.0
 10
73.761330
 20
39.298888
 30
0.0
  0
SPLINE
  5
173
100
AcDbEntity
  8
0
 62
7
100
AcDbSpline
 70
8
 71
3
 72
8
 73
4
 74
0
 40
0
 40
0
 40
0
 40
0
 40
1
 40
1
 40
1
 40
1
 10
73.761330
 20
39.298888
 30
0.0
 10
73.339232
 20
38.372486
 30
0.0
 10
72.957843
 20
38.570522
 30
0.0
 10
73.129296
 20
39.627067
 30
0.0
  0
LWPOLYLINE
  5
174
100
AcDbEntity
  8
0
 62
7
100
AcDbPolyline
 90
3
 70
0
 10
76.516516
 20
40.618262
 30
0.0
 10
76.323164
 20
39.882575
 30
0.0
 10
75.989183
 20
40.808616
 30
0.0
  0
SPLINE
  5
175
100
AcDbEntity
  8
0
 62
7
100
AcDbSpline
 70
8
 71
3
 72
8
 73
4
 74
0
 40
0
 40
0
 40
0
 40
0
 40
1
 40
1
 40
1
 40
1
 10
87.856626
 20
40.411741
 30
0.0
 10
87.639729
 20
40.976960
 30
0.0
 10
87.936919
 20
41.602366
 30
0.0
 10
88.422403
 20
41.602366
 30
0.0
  0
SPLINE
  5
176
100
AcDbEntity
  8
0
 62
7
100
AcDbSpline
 70
8
 71
3
 72
8
 73
4
 74
0
 40
0
 40
0
 40
0
 40
0
 40
1
 40
1
 40
1
 40
1
 10
88.422403
 20
41.602366
 30
0.0
 10
88.983375
 20
41.602366
 30
0.0
 10
89.217841
 20
40.891979
 30
0.0
 10
88.816482
 20
40.408373
 30
0.0
  0
SPLINE
  5
177
100
AcDbEntity
  8
0
 62
7
100
AcDbSpline
 70
8
 71
3
 72
8
 73
4
 74
0
 40
0
 40
0
 40
0
 40
0
 40
1
 40
1
 40
1
 40
1
 10
88.816482
 20
40.408373
 30
0.0
 10
88.399789
 20
39.906289
 30
0.0
 10
88.050113
 20
39.907517
 30
0.0
 10
87.856626
 20
40.411733
 30
0.0
  0
LWPOLYLINE
  5
178
100
AcDbEntity
  8
0
 62
7
100
AcDbPolyline
 90
1
 70
1
 10
73.129296
 20
39.627067
 30
0.0
  0
SPLINE
  5
179
100
AcDbEntity
  8
0
 62
7
100
AcDbSpline
 70
8
 71
3
 72
8
 73
4
 74
0
 40
0
 40
0
 40
0
 40
0
 40
1
 40
1
 40
1
 40
1
 10
93.429018
 20
41.403929
 30
0.0
 10
93.524464
 20
41.731351
 30
0.0
 10
93.727344
 20
42.654085
 30
0.0
 10
93.879863
 20
43.454450
 30
0.0
  0
SPLINE
  5
17a
100
AcDbEntity
  8
0
 62
7
100
AcDbSpline
 70
8
 71
3
 72
8
 73
4
 74
0
 40
0
 40
0
 40
0
 40
0
 40
1
 40
1
 40
1
 40
1
 10
93.879863
 20
43.454450
 30
0.0
 10
94.032382
 20
44.254814
 30
0.0
 10
94.443722
 20
45.504970
 30
0.0
 10
94.793951
 20
46.232575
 30
0.0
  0
SPLINE
  5
17b
100
AcDbEntity
  8
0
 62
7
100
AcDbSpline
 70
8
 71
3
 72
8
 73
4
 74
0
 40
0
 40
0
 40
0
 40
0
 40
1
 40
1
 40
1
 40
1
 10
94.793951
 20
46.232575
 30
0.0
 10
95.144180
 20
46.960179
 30
0.0
 10
95.617191
 20
48.686585
 30
0.0
 10
95.845088
 20
50.069033
 30
0.0
  0
SPLINE
  5
17c
100
AcDbEntity
  8
0
 62
7
100
AcDbSpline
 70
8
 71
3
 72
8
 73
4
 74
0
 40
0
 40
0
 40
0
 40
0
 40
1
 40
1
 40
1
 40
1
 10
95.845088
 20
50.069033
 30
0.0
 10
96.072984
 20
51.451481
 30
0.0
 10
96.490092
 20
53.647118
 30
0.0
 10
96.771994
 20
54.948227
 30
0.0
  0
SPLINE
  5
17d
100
AcDbEntity
  8
0
 62
7
100
AcDbSpline
 70
8
 71
3
 72
8
 73
4
 74
0
 40
0
 40
0
 40
0
 40
0
 40
1
 40
1
 40
1
 40
1
 10
96.771994
 20
54.948227
 30
0.0
 10
97.187626
 20
56.866555
 30
0.0
 10
97.289596
 20
58.442511
 30
0.0
 10
97.311263
 20
63.282602
 30
0.0
  0
SPLINE
  5
17e
100
AcDbEntity
  8
0
 62
7
100
AcDbSpline
 70
8
 71
3
 72
8
 73
4
 74
0
 40
0
 40
0
 40
0
 40
0
 40
1
 40
1
 40
1
 40
1
 10
97.311263
 20
63.282602
 30
0.0
 10
97.328143
 20
67.053799
 30
0.0
 10
97.230991
 20
69.525552
 30
0.0
 10
97.047381
 20
69.996153
 30
0.0
  0
SPLINE
  5
17f
100
AcDbEntity
  8
0
 62
7
100
AcDbSpline
 70
8
 71
3
 72
8
 73
4
 74
0
 40
0
 40
0
 40
0
 40
0
 40
1
 40
1
 40
1
 40
1
 10
97.047381
 20
69.996153
 30
0.0
 10
96.887549
 20
70.405808
 30
0.0
 10
96.756778
 20
71.213438
 30
0.0
 10
96.756778
 20
71.790885
 30
0.0
  0
SPLINE
  5
180
100
AcDbEntity
  8
0
 62
7
100
AcDbSpline
 70
8
 71
3
 72
8
 73
4
 74
0
 40
0
 40
0
 40
0
 40
0
 40
1
 40
1
 40
1
 40
1
 10
96.756778
 20
71.790885
 30
0.0
 10
96.756778
 20
73.013327
 30
0.0
 10
95.832800
 20
74.923258
 30
0.0
 10
94.593384
 20
76.262783
 30
0.0
  0
LWPOLYLINE
  5
181
100
AcDbEntity
  8
0
 62
7
100
AcDbPolyline
 90
1
 70
1
 10
87.856626
 20
40.411733
 30
0.0
  0
SPLINE
  5
182
100
AcDbEntity
  8
0
 62
7
100
AcDbSpline
 70
8
 71
3
 72
8
 73
4
 74
0
 40
0
 40
0
 40
0
 40
0
 40
1
 40
1
 40
1
 40
1
 10
88.962809
 20
77.321116
 30
0.0
 10
84.354485
 20
77.448823
 30
0.0
 10
84.225741
 20
77.467161
 30
0.0
 10
85.247403
 20
77.850283
 30
0.0
  0
SPLINE
  5
183
100
AcDbEntity
  8
0
 62
7
100
AcDbSpline
 70
8
 71
3
 72
8
 73
4
 74
0
 40
0
 40
0
 40
0
 40
0
 40
1
 40
1
 40
1
 40
1
 10
85.247403
 20
77.850283
 30
0.0
 10
86.010933
 20
78.136607
 30
0.0
 10
87.380360
 20
78.247052
 30
0.0
 10
90.163581
 20
78.246780
 30
0.0
  0
SPLINE
  5
184
100
AcDbEntity
  8
0
 62
7
100
AcDbSpline
 70
8
 71
3
 72
8
 73
4
 74
0
 40
0
 40
0
 40
0
 40
0
 40
1
 40
1
 40
1
 40
1
 10
90.163581
 20
78.246780
 30
0.0
 10
93.487253
 20
78.246515
 30
0.0
 10
94.154403
 20
78.174792
 30
0.0
 10
94.981784
 20
77.729218
 30
0.0
  0
SPLINE
  5
185
100
AcDbEntity
  8
0
 62
7
100
AcDbSpline
 70
8
 71
3
 72
8
 73
4
 74
0
 40
0
 40
0
 40
0
 40
0
 40
1
 40
1
 40
1
 40
1
 10
94.981784
 20
77.729218
 30
0.0
 10
95.509980
 20
77.444764
 30
0.0
 10
96.002943
 20
77.272838
 30
0.0
 10
96.077265
 20
77.347157
 30
0.0
  0
SPLINE
  5
186
100
AcDbEntity
  8
0
 62
7
100
AcDbSpline
 70
8
 71
3
 72
8
 73
4
 74
0
 40
0
 40
0
 40
0
 40
0
 40
1
 40
1
 40
1
 40
1
 10
96.077265
 20
77.347157
 30
0.0
 10
96.151584
 20
77.421475
 30
0.0
 10
95.962380
 20
77.987596
 30
0.0
 10
95.656813
 20
78.605203
 30
0.0
  0
LWPOLYLINE
  5
187
100
AcDbEntity
  8
0
 62
7
100
AcDbPolyline
 90
3
 70
0
 10
94.593384
 20
76.262783
 30
0.0
 10
93.736549
 20
77.188825
 30
0.0
 10
88.962809
 20
77.321116
 30
0.0
  0
SPLINE
  5
188
100
AcDbEntity
  8
0
 62
7
100
AcDbSpline
 70
8
 71
3
 72
8
 73
4
 74
0
 40
0
 40
0
 40
0
 40
0
 40
1
 40
1
 40
1
 40
1
 10
95.631360
 20
80.310559
 30
0.0
 10
96.669222
 20
81.450828
 30
0.0
 10
96.825890
 20
82.061600
 30
0.0
 10
96.656332
 20
84.306407
 30
0.0
  0
SPLINE
  5
189
100
AcDbEntity
  8
0
 62
7
100
AcDbSpline
 70
8
 71
3
 72
8
 73
4
 74
0
 40
0
 40
0
 40
0
 40
0
 40
1
 40
1
 40
1
 40
1
 10
96.656332
 20
84.306407
 30
0.0
 10
96.567310
 20
85.484967
 30
0.0
 10
96.327034
 20
86.985023
 30
0.0
 10
96.122384
 20
87.639866
 30
0.0
  0
SPLINE
  5
18a
100
AcDbEntity
  8
0
 62
7
100
AcDbSpline
 70
8
 71
3
 72
8
 73
4
 74
0
 40
0
 40
0
 40
0
 40
0
 40
1
 40
1
 40
1
 40
1
 10
96.122384
 20
87.639866
 30
0.0
 10
95.587426
 20
89.351638
 30
0.0
 10
94.214651
 20
92.307042
 30
0.0
 10
93.849740
 20
92.532570
 30
0.0
  0
SPLINE
  5
18b
100
AcDbEntity
  8
0
 62
7
100
AcDbSpline
 70
8
 71
3
 72
8
 73
4
 74
0
 40
0
 40
0
 40
0
 40
0
 40
1
 40
1
 40
1
 40
1
 10
93.849740
 20
92.532570
 30
0.0
 10
93.678571
 20
92.638359
 30
0.0
 10
92.577261
 20
92.575375
 30
0.0
 10
91.402384
 20
92.392608
 30
0.0
  0
SPLINE
  5
18c
100
AcDbEntity
  8
0
 62
7
100
AcDbSpline
 70
8
 71
3
 72
8
 73
4
 74
0
 40
0
 40
0
 40
0
 40
0
 40
1
 40
1
 40
1
 40
1
 10
91.402384
 20
92.392608
 30
0.0
 10
89.540778
 20
92.103011
 30
0.0
 10
88.862765
 20
92.122188
 30
0.0
 10
86.126794
 20
92.541812
 30
0.0
  0
SPLINE
  5
18d
100
AcDbEntity
  8
0
 62
7
100
AcDbSpline
 70
8
 71
3
 72
8
 73
4
 74
0
 40
0
 40
0
 40
0
 40
0
 40
1
 40
1
 40
1
 40
1
 10
86.126794
 20
92.541812
 30
0.0
 10
83.152279
 20
92.998025
 30
0.0
 10
82.824307
 20
93.000248
 30
0.0
 10
79.884040
 20
92.584143
 30
0.0
  0
SPLINE
  5
18e
100
AcDbEntity
  8
0
 62
7
100
AcDbSpline
 70
8
 71
3
 72
8
 73
4
 74
0
 40
0
 40
0
 40
0
 40
0
 40
1
 40
1
 40
1
 40
1
 10
79.884040
 20
92.584143
 30
0.0
 10
73.358020
 20
91.660586
 30
0.0
 10
70.235866
 20
91.722612
 30
0.0
 10
62.493237
 20
92.929631
 30
0.0
  0
SPLINE
  5
18f
100
AcDbEntity
  8
0
 62
7
100
AcDbSpline
 70
8
 71
3
 72
8
 73
4
 74
0
 40
0
 40
0
 40
0
 40
0
 40
1
 40
1
 40
1
 40
1
 10
62.493237
 20
92.929631
 30
0.0
 10
60.746987
 20
93.201858
 30
0.0
 10
58.127612
 20
93.501115
 30
0.0
 10
56.672403
 20
93.594648
 30
0.0
  0
SPLINE
  5
190
100
AcDbEntity
  8
0
 62
7
100
AcDbSpline
 70
8
 71
3
 72
8
 73
4
 74
0
 40
0
 40
0
 40
0
 40
0
 40
1
 40
1
 40
1
 40
1
 10
56.672403
 20
93.594648
 30
0.0
 10
55.217195
 20
93.688180
 30
0.0
 10
53.669382
 20
93.809653
 30
0.0
 10
53.232820
 20
93.864589
 30
0.0
  0
SPLINE
  5
191
100
AcDbEntity
  8
0
 62
7
100
AcDbSpline
 70
8
 71
3
 72
8
 73
4
 74
0
 40
0
 40
0
 40
0
 40
0
 40
1
 40
1
 40
1
 40
1
 10
53.232820
 20
93.864589
 30
0.0
 10
52.796257
 20
93.919524
 30
0.0
 10
51.307976
 20
94.102235
 30
0.0
 10
49.925528
 20
94.270613
 30
0.0
  0
SPLINE
  5
192
100
AcDbEntity
  8
0
 62
7
100
AcDbSpline
 70
8
 71
3
 72
8
 73
4
 74
0
 40
0
 40
0
 40
0
 40
0
 40
1
 40
1
 40
1
 40
1
 10
49.925528
 20
94.270613
 30
0.0
 10
47.098932
 20
94.614884
 30
0.0
 10
46.945696
 20
94.675762
 30
0.0
 10
44.834564
 20
96.293112
 30
0.0
  0
SPLINE
  5
193
100
AcDbEntity
  8
0
 62
7
100
AcDbSpline
 70
8
 71
3
 72
8
 73
4
 74
0
 40
0
 40
0
 40
0
 40
0
 40
1
 40
1
 40
1
 40
1
 10
44.834564
 20
96.293112
 30
0.0
 10
43.999063
 20
96.933192
 30
0.0
 10
42.715540
 20
97.706214
 30
0.0
 10
41.982289
 20
98.010940
 30
0.0
  0
LWPOLYLINE
  5
194
100
AcDbEntity
  8
0
 62
7
100
AcDbPolyline
 90
3
 70
0
 10
95.656813
 20
78.605203
 30
0.0
 10
95.101235
 20
79.728124
 30
0.0
 10
95.631360
 20
80.310559
 30
0.0
  0
SPLINE
  5
195
100
AcDbEntity
  8
0
 62
7
100
AcDbSpline
 70
8
 71
3
 72
8
 73
4
 74
0
 40
0
 40
0
 40
0
 40
0
 40
1
 40
1
 40
1
 40
1
 10
39.968874
 20
97.931073
 30
0.0
 10
38.406533
 20
96.475108
 30
0.0
 10
37.185574
 20
93.095487
 30
0.0
 10
35.820826
 20
86.449241
 30
0.0
  0
SPLINE
  5
196
100
AcDbEntity
  8
0
 62
7
100
AcDbSpline
 70
8
 71
3
 72
8
 73
4
 74
0
 40
0
 40
0
 40
0
 40
0
 40
1
 40
1
 40
1
 40
1
 10
35.820826
 20
86.449241
 30
0.0
 10
35.331919
 20
84.068298
 30
0.0
 10
34.639491
 20
81.983900
 30
0.0
 10
33.052179
 20
78.114866
 30
0.0
  0
SPLINE
  5
197
100
AcDbEntity
  8
0
 62
7
100
AcDbSpline
 70
8
 71
3
 72
8
 73
4
 74
0
 40
0
 40
0
 40
0
 40
0
 40
1
 40
1
 40
1
 40
1
 10
33.052179
 20
78.114866
 30
0.0
 10
31.887999
 20
75.277210
 30
0.0
 10
30.260589
 20
70.990960
 30
0.0
 10
29.435711
 20
68.589866
 30
0.0
  0
SPLINE
  5
198
100
AcDbEntity
  8
0
 62
7
100
AcDbSpline
 70
8
 71
3
 72
8
 73
4
 74
0
 40
0
 40
0
 40
0
 40
0
 40
1
 40
1
 40
1
 40
1
 10
29.435711
 20
68.589866
 30
0.0
 10
28.106780
 20
64.721547
 30
0.0
 10
27.944178
 20
64.021351
 30
0.0
 10
28.008300
 20
62.443164
 30
0.0
  0
SPLINE
  5
199
100
AcDbEntity
  8
0
 62
7
100
AcDbSpline
 70
8
 71
3
 72
8
 73
4
 74
0
 40
0
 40
0
 40
0
 40
0
 40
1
 40
1
 40
1
 40
1
 10
28.008300
 20
62.443164
 30
0.0
 10
28.051220
 20
61.386784
 30
0.0
 10
27.960339
 20
60.541760
 30
0.0
 10
27.784938
 20
60.366360
 30
0.0
  0
SPLINE
  5
19a
100
AcDbEntity
  8
0
 62
7
100
AcDbSpline
 70
8
 71
3
 72
8
 73
4
 74
0
 40
0
 40
0
 40
0
 40
0
 40
1
 40
1
 40
1
 40
1
 10
27.784938
 20
60.366360
 30
0.0
 10
26.766155
 20
59.347576
 30
0.0
 10
25.022464
 20
62.332058
 30
0.0
 10
24.912628
 20
65.282575
 30
0.0
  0
SPLINE
  5
19b
100
AcDbEntity
  8
0
 62
7
100
AcDbSpline
 70
8
 71
3
 72
8
 73
4
 74
0
 40
0
 40
0
 40
0
 40
0
 40
1
 40
1
 40
1
 40
1
 10
24.912628
 20
65.282575
 30
0.0
 10
24.793388
 20
68.485671
 30
0.0
 10
24.087996
 20
72.929485
 30
0.0
 10
23.523986
 20
74.030702
 30
0.0
  0
SPLINE
  5
19c
100
AcDbEntity
  8
0
 62
7
100
AcDbSpline
 70
8
 71
3
 72
8
 73
4
 74
0
 40
0
 40
0
 40
0
 40
0
 40
1
 40
1
 40
1
 40
1
 10
23.523986
 20
74.030702
 30
0.0
 10
23.230616
 20
74.603502
 30
0.0
 10
22.145322
 20
76.047200
 30
0.0
 10
21.112224
 20
77.238921
 30
0.0
  0
SPLINE
  5
19d
100
AcDbEntity
  8
0
 62
7
100
AcDbSpline
 70
8
 71
3
 72
8
 73
4
 74
0
 40
0
 40
0
 40
0
 40
0
 40
1
 40
1
 40
1
 40
1
 10
21.112224
 20
77.238921
 30
0.0
 10
20.079127
 20
78.430641
 30
0.0
 10
19.233862
 20
79.478158
 30
0.0
 10
19.233862
 20
79.566736
 30
0.0
  0
SPLINE
  5
19e
100
AcDbEntity
  8
0
 62
7
100
AcDbSpline
 70
8
 71
3
 72
8
 73
4
 74
0
 40
0
 40
0
 40
0
 40
0
 40
1
 40
1
 40
1
 40
1
 10
19.233862
 20
79.566736
 30
0.0
 10
19.233862
 20
79.655315
 30
0.0
 10
19.739878
 20
79.385141
 30
0.0
 10
20.358342
 20
78.966354
 30
0.0
  0
SPLINE
  5
19f
100
AcDbEntity
  8
0
 62
7
100
AcDbSpline
 70
8
 71
3
 72
8
 73
4
 74
0
 40
0
 40
0
 40
0
 40
0
 40
1
 40
1
 40
1
 40
1
 10
20.358342
 20
78.966354
 30
0.0
 10
22.283154
 20
77.662979
 30
0.0
 10
22.218820
 20
77.668956
 30
0.0
 10
22.052207
 20
78.808985
 30
0.0
  0
SPLINE
  5
1a0
100
AcDbEntity
  8
0
 62
7
100
AcDbSpline
 70
8
 71
3
 72
8
 73
4
 74
0
 40
0
 40
0
 40
0
 40
0
 40
1
 40
1
 40
1
 40
1
 10
22.052207
 20
78.808985
 30
0.0
 10
21.969763
 20
79.373106
 30
0.0
 10
21.840844
 20
80.846689
 30
0.0
 10
21.765721
 20
82.083616
 30
0.0
  0
SPLINE
  5
1a1
100
AcDbEntity
  8
0
 62
7
100
AcDbSpline
 70
8
 71
3
 72
8
 73
4
 74
0
 40
0
 40
0
 40
0
 40
0
 40
1
 40
1
 40
1
 40
1
 10
21.765721
 20
82.083616
 30
0.0
 10
21.690598
 20
83.320543
 30
0.0
 10
21.553793
 20
85.473371
 30
0.0
 10
21.461710
 20
86.867680
 30
0.0
  0
SPLINE
  5
1a2
100
AcDbEntity
  8
0
 62
7
100
AcDbSpline
 70
8
 71
3
 72
8
 73
4
 74
0
 40
0
 40
0
 40
0
 40
0
 40
1
 40
1
 40
1
 40
1
 10
21.461710
 20
86.867680
 30
0.0
 10
21.274231
 20
89.706447
 30
0.0
 10
21.375040
 20
90.019002
 30
0.0
 10
23.588179
 20
93.460700
 30
0.0
  0
SPLINE
  5
1a3
100
AcDbEntity
  8
0
 62
7
100
AcDbSpline
 70
8
 71
3
 72
8
 73
4
 74
0
 40
0
 40
0
 40
0
 40
0
 40
1
 40
1
 40
1
 40
1
 10
23.588179
 20
93.460700
 30
0.0
 10
25.025705
 20
95.696225
 30
0.0
 10
26.499420
 20
100.197772
 30
0.0
 10
27.000031
 20
103.882381
 30
0.0
  0
SPLINE
  5
1a4
100
AcDbEntity
  8
0
 62
7
100
AcDbSpline
 70
8
 71
3
 72
8
 73
4
 74
0
 40
0
 40
0
 40
0
 40
0
 40
1
 40
1
 40
1
 40
1
 10
27.000031
 20
103.882381
 30
0.0
 10
27.215319
 20
105.466962
 30
0.0
 10
27.526443
 20
106.846859
 30
0.0
 10
27.691419
 20
106.948819
 30
0.0
  0
SPLINE
  5
1a5
100
AcDbEntity
  8
0
 62
7
100
AcDbSpline
 70
8
 71
3
 72
8
 73
4
 74
0
 40
0
 40
0
 40
0
 40
0
 40
1
 40
1
 40
1
 40
1
 10
27.691419
 20
106.948819
 30
0.0
 10
27.856392
 20
107.050778
 30
0.0
 10
28.164290
 20
107.708776
 30
0.0
 10
28.375642
 20
108.411038
 30
0.0
  0
SPLINE
  5
1a6
100
AcDbEntity
  8
0
 62
7
100
AcDbSpline
 70
8
 71
3
 72
8
 73
4
 74
0
 40
0
 40
0
 40
0
 40
0
 40
1
 40
1
 40
1
 40
1
 10
28.375642
 20
108.411038
 30
0.0
 10
28.979720
 20
110.418242
 30
0.0
 10
29.980723
 20
111.900003
 30
0.0
 10
31.225350
 20
112.629404
 30
0.0
  0
SPLINE
  5
1a7
100
AcDbEntity
  8
0
 62
7
100
AcDbSpline
 70
8
 71
3
 72
8
 73
4
 74
0
 40
0
 40
0
 40
0
 40
0
 40
1
 40
1
 40
1
 40
1
 10
31.225350
 20
112.629404
 30
0.0
 10
31.846578
 20
112.993468
 30
0.0
 10
32.763333
 20
113.836505
 30
0.0
 10
33.262581
 20
114.502818
 30
0.0
  0
SPLINE
  5
1a8
100
AcDbEntity
  8
0
 62
7
100
AcDbSpline
 70
8
 71
3
 72
8
 73
4
 74
0
 40
0
 40
0
 40
0
 40
0
 40
1
 40
1
 40
1
 40
1
 10
33.262581
 20
114.502818
 30
0.0
 10
33.772229
 20
115.183014
 30
0.0
 10
35.855489
 20
116.985232
 30
0.0
 10
38.013021
 20
118.612398
 30
0.0
  0
SPLINE
  5
1a9
100
AcDbEntity
  8
0
 62
7
100
AcDbSpline
 70
8
 71
3
 72
8
 73
4
 74
0
 40
0
 40
0
 40
0
 40
0
 40
1
 40
1
 40
1
 40
1
 10
38.013021
 20
118.612398
 30
0.0
 10
40.126515
 20
120.206354
 30
0.0
 10
42.514105
 20
122.032762
 30
0.0
 10
43.318777
 20
122.671085
 30
0.0
  0
SPLINE
  5
1aa
100
AcDbEntity
  8
0
 62
7
100
AcDbSpline
 70
8
 71
3
 72
8
 73
4
 74
0
 40
0
 40
0
 40
0
 40
0
 40
1
 40
1
 40
1
 40
1
 10
43.318777
 20
122.671085
 30
0.0
 10
44.280802
 20
123.434228
 30
0.0
 10
45.587547
 20
124.116057
 30
0.0
 10
47.134656
 20
124.662117
 30
0.0
  0
SPLINE
  5
1ab
100
AcDbEntity
  8
0
 62
7
100
AcDbSpline
 70
8
 71
3
 72
8
 73
4
 74
0
 40
0
 40
0
 40
0
 40
0
 40
1
 40
1
 40
1
 40
1
 10
47.134656
 20
124.662117
 30
0.0
 10
49.627951
 20
125.542142
 30
0.0
 10
57.664723
 20
127.378560
 30
0.0
 10
58.204769
 20
127.191658
 30
0.0
  0
SPLINE
  5
1ac
100
AcDbEntity
  8
0
 62
7
100
AcDbSpline
 70
8
 71
3
 72
8
 73
4
 74
0
 40
0
 40
0
 40
0
 40
0
 40
1
 40
1
 40
1
 40
1
 10
58.204769
 20
127.191658
 30
0.0
 10
58.776695
 20
126.993723
 30
0.0
 10
68.808441
 20
126.269032
 30
0.0
 10
70.976495
 20
126.269032
 30
0.0
  0
SPLINE
  5
1ad
100
AcDbEntity
  8
0
 62
7
100
AcDbSpline
 70
8
 71
3
 72
8
 73
4
 74
0
 40
0
 40
0
 40
0
 40
0
 40
1
 40
1
 40
1
 40
1
 10
70.976495
 20
126.269032
 30
0.0
 10
72.991157
 20
126.269032
 30
0.0
 10
73.276209
 20
126.188152
 30
0.0
 10
77.314634
 20
124.470670
 30
0.0
  0
SPLINE
  5
1ae
100
AcDbEntity
  8
0
 62
7
100
AcDbSpline
 70
8
 71
3
 72
8
 73
4
 74
0
 40
0
 40
0
 40
0
 40
0
 40
1
 40
1
 40
1
 40
1
 10
77.314634
 20
124.470670
 30
0.0
 10
84.193698
 20
121.545106
 30
0.0
 10
85.199852
 20
120.951921
 30
0.0
 10
87.900248
 20
118.229861
 30
0.0
  0
SPLINE
  5
1af
100
AcDbEntity
  8
0
 62
7
100
AcDbSpline
 70
8
 71
3
 72
8
 73
4
 74
0
 40
0
 40
0
 40
0
 40
0
 40
1
 40
1
 40
1
 40
1
 10
87.900248
 20
118.229861
 30
0.0
 10
89.216217
 20
116.903333
 30
0.0
 10
90.656720
 20
115.401272
 30
0.0
 10
91.101360
 20
114.891949
 30
0.0
  0
SPLINE
  5
1b0
100
AcDbEntity
  8
0
 62
7
100
AcDbSpline
 70
8
 71
3
 72
8
 73
4
 74
0
 40
0
 40
0
 40
0
 40
0
 40
1
 40
1
 40
1
 40
1
 10
91.101360
 20
114.891949
 30
0.0
 10
91.546000
 20
114.382626
 30
0.0
 10
93.275838
 20
112.715751
 30
0.0
 10
94.945443
 20
111.187782
 30
0.0
  0
SPLINE
  5
1b1
100
AcDbEntity
  8
0
 62
7
100
AcDbSpline
 70
8
 71
3
 72
8
 73
4
 74
0
 40
0
 40
0
 40
0
 40
0
 40
1
 40
1
 40
1
 40
1
 10
94.945443
 20
111.187782
 30
0.0
 10
99.125349
 20
107.362465
 30
0.0
 10
101.801369
 20
104.300425
 30
0.0
 10
101.608636
 20
103.563412
 30
0.0
  0
SPLINE
  5
1b2
100
AcDbEntity
  8
0
 62
7
100
AcDbSpline
 70
8
 71
3
 72
8
 73
4
 74
0
 40
0
 40
0
 40
0
 40
0
 40
1
 40
1
 40
1
 40
1
 10
101.608636
 20
103.563412
 30
0.0
 10
101.502366
 20
103.157036
 30
0.0
 10
101.832079
 20
102.491723
 30
0.0
 10
102.777134
 20
101.205559
 30
0.0
  0
SPLINE
  5
1b3
100
AcDbEntity
  8
0
 62
7
100
AcDbSpline
 70
8
 71
3
 72
8
 73
4
 74
0
 40
0
 40
0
 40
0
 40
0
 40
1
 40
1
 40
1
 40
1
 10
102.777134
 20
101.205559
 30
0.0
 10
106.095866
 20
96.688963
 30
0.0
 10
106.054549
 20
96.786160
 30
0.0
 10
106.319204
 20
92.873348
 30
0.0
  0
SPLINE
  5
1b4
100
AcDbEntity
  8
0
 62
7
100
AcDbSpline
 70
8
 71
3
 72
8
 73
4
 74
0
 40
0
 40
0
 40
0
 40
0
 40
1
 40
1
 40
1
 40
1
 10
106.319204
 20
92.873348
 30
0.0
 10
106.449918
 20
90.940819
 30
0.0
 10
106.664596
 20
88.475106
 30
0.0
 10
106.796266
 20
87.393986
 30
0.0
  0
SPLINE
  5
1b5
100
AcDbEntity
  8
0
 62
7
100
AcDbSpline
 70
8
 71
3
 72
8
 73
4
 74
0
 40
0
 40
0
 40
0
 40
0
 40
1
 40
1
 40
1
 40
1
 10
106.796266
 20
87.393986
 30
0.0
 10
107.029970
 20
85.475083
 30
0.0
 10
107.017256
 20
85.401555
 30
0.0
 10
106.261847
 20
84.303605
 30
0.0
  0
SPLINE
  5
1b6
100
AcDbEntity
  8
0
 62
7
100
AcDbSpline
 70
8
 71
3
 72
8
 73
4
 74
0
 40
0
 40
0
 40
0
 40
0
 40
1
 40
1
 40
1
 40
1
 10
106.261847
 20
84.303605
 30
0.0
 10
105.543694
 20
83.259806
 30
0.0
 10
105.487631
 20
83.001511
 30
0.0
 10
105.482522
 20
80.713027
 30
0.0
  0
SPLINE
  5
1b7
100
AcDbEntity
  8
0
 62
7
100
AcDbSpline
 70
8
 71
3
 72
8
 73
4
 74
0
 40
0
 40
0
 40
0
 40
0
 40
1
 40
1
 40
1
 40
1
 10
105.482522
 20
80.713027
 30
0.0
 10
105.479506
 20
79.356799
 30
0.0
 10
105.244350
 20
76.656187
 30
0.0
 10
104.959975
 20
74.711666
 30
0.0
  0
SPLINE
  5
1b8
100
AcDbEntity
  8
0
 62
7
100
AcDbSpline
 70
8
 71
3
 72
8
 73
4
 74
0
 40
0
 40
0
 40
0
 40
0
 40
1
 40
1
 40
1
 40
1
 10
104.959975
 20
74.711666
 30
0.0
 10
104.597253
 20
72.231396
 30
0.0
 10
104.522220
 20
71.028028
 30
0.0
 10
104.708579
 20
70.679813
 30
0.0
  0
SPLINE
  5
1b9
100
AcDbEntity
  8
0
 62
7
100
AcDbSpline
 70
8
 71
3
 72
8
 73
4
 74
0
 40
0
 40
0
 40
0
 40
0
 40
1
 40
1
 40
1
 40
1
 10
104.708579
 20
70.679813
 30
0.0
 10
105.070058
 20
70.004384
 30
0.0
 10
104.769510
 20
66.944335
 30
0.0
 10
104.165490
 20
65.150283
 30
0.0
  0
SPLINE
  5
1ba
100
AcDbEntity
  8
0
 62
7
100
AcDbSpline
 70
8
 71
3
 72
8
 73
4
 74
0
 40
0
 40
0
 40
0
 40
0
 40
1
 40
1
 40
1
 40
1
 10
104.165490
 20
65.150283
 30
0.0
 10
103.896022
 20
64.349918
 30
0.0
 10
103.607410
 20
63.377897
 30
0.0
 10
103.524129
 20
62.990235
 30
0.0
  0
SPLINE
  5
1bb
100
AcDbEntity
  8
0
 62
7
100
AcDbSpline
 70
8
 71
3
 72
8
 73
4
 74
0
 40
0
 40
0
 40
0
 40
0
 40
1
 40
1
 40
1
 40
1
 10
103.524129
 20
62.990235
 30
0.0
 10
103.440846
 20
62.602576
 30
0.0
 10
102.896154
 20
61.907960
 30
0.0
 10
102.313700
 20
61.446648
 30
0.0
  0
LWPOLYLINE
  5
1bc
100
AcDbEntity
  8
0
 62
7
100
AcDbPolyline
 90
3
 70
0
 10
41.982289
 20
98.010940
 30
0.0
 10
40.649104
 20
98.564986
 30
0.0
 10
39.968874
 20
97.931073
 30
0.0
  0
SPLINE
  5
1bd
100
AcDbEntity
  8
0
 62
7
100
AcDbSpline
 70
8
 71
3
 72
8
 73
4
 74
0
 40
0
 40
0
 40
0
 40
0
 40
1
 40
1
 40
1
 40
1
 10
101.259299
 20
61.357738
 30
0.0
 10
101.261945
 20
61.770149
 30
0.0
 10
101.439096
 20
62.934636
 30
0.0
 10
101.653232
 20
63.945487
 30
0.0
  0
SPLINE
  5
1be
100
AcDbEntity
  8
0
 62
7
100
AcDbSpline
 70
8
 71
3
 72
8
 73
4
 74
0
 40
0
 40
0
 40
0
 40
0
 40
1
 40
1
 40
1
 40
1
 10
101.653232
 20
63.945487
 30
0.0
 10
101.964696
 20
65.415806
 30
0.0
 10
102.241601
 20
65.995402
 30
0.0
 10
103.037698
 20
66.843370
 30
0.0
  0
SPLINE
  5
1bf
100
AcDbEntity
  8
0
 62
7
100
AcDbSpline
 70
8
 71
3
 72
8
 73
4
 74
0
 40
0
 40
0
 40
0
 40
0
 40
1
 40
1
 40
1
 40
1
 10
103.037698
 20
66.843370
 30
0.0
 10
103.585021
 20
67.426353
 30
0.0
 10
103.800418
 20
67.730386
 30
0.0
 10
103.516359
 20
67.518997
 30
0.0
  0
SPLINE
  5
1c0
100
AcDbEntity
  8
0
 62
7
100
AcDbSpline
 70
8
 71
3
 72
8
 73
4
 74
0
 40
0
 40
0
 40
0
 40
0
 40
1
 40
1
 40
1
 40
1
 10
103.516359
 20
67.518997
 30
0.0
 10
102.682590
 20
66.898539
 30
0.0
 10
101.535439
 20
65.573960
 30
0.0
 10
101.527044
 20
65.221998
 30
0.0
  0
SPLINE
  5
1c1
100
AcDbEntity
  8
0
 62
7
100
AcDbSpline
 70
8
 71
3
 72
8
 73
4
 74
0
 40
0
 40
0
 40
0
 40
0
 40
1
 40
1
 40
1
 40
1
 10
101.527044
 20
65.221998
 30
0.0
 10
101.522784
 20
65.043161
 30
0.0
 10
101.219982
 20
64.005222
 30
0.0
 10
100.854163
 20
62.915467
 30
0.0
  0
SPLINE
  5
1c2
100
AcDbEntity
  8
0
 62
7
100
AcDbSpline
 70
8
 71
3
 72
8
 73
4
 74
0
 40
0
 40
0
 40
0
 40
0
 40
1
 40
1
 40
1
 40
1
 10
100.854163
 20
62.915467
 30
0.0
 10
100.410664
 20
61.594304
 30
0.0
 10
100.217758
 20
60.512471
 30
0.0
 10
100.275231
 20
59.668751
 30
0.0
  0
SPLINE
  5
1c3
100
AcDbEntity
  8
0
 62
7
100
AcDbSpline
 70
8
 71
3
 72
8
 73
4
 74
0
 40
0
 40
0
 40
0
 40
0
 40
1
 40
1
 40
1
 40
1
 10
100.275231
 20
59.668751
 30
0.0
 10
100.374765
 20
58.207571
 30
0.0
 10
100.005512
 20
56.795823
 30
0.0
 10
99.040265
 20
54.947151
 30
0.0
  0
SPLINE
  5
1c4
100
AcDbEntity
  8
0
 62
7
100
AcDbSpline
 70
8
 71
3
 72
8
 73
4
 74
0
 40
0
 40
0
 40
0
 40
0
 40
1
 40
1
 40
1
 40
1
 10
99.040265
 20
54.947151
 30
0.0
 10
98.665152
 20
54.228717
 30
0.0
 10
98.292282
 20
53.309438
 30
0.0
 10
98.211672
 20
52.904305
 30
0.0
  0
SPLINE
  5
1c5
100
AcDbEntity
  8
0
 62
7
100
AcDbSpline
 70
8
 71
3
 72
8
 73
4
 74
0
 40
0
 40
0
 40
0
 40
0
 40
1
 40
1
 40
1
 40
1
 10
98.211672
 20
52.904305
 30
0.0
 10
98.125611
 20
52.471786
 30
0.0
 10
97.800496
 20
52.047137
 30
0.0
 10
97.424118
 20
51.875650
 30
0.0
  0
SPLINE
  5
1c6
100
AcDbEntity
  8
0
 62
7
100
AcDbSpline
 70
8
 71
3
 72
8
 73
4
 74
0
 40
0
 40
0
 40
0
 40
0
 40
1
 40
1
 40
1
 40
1
 10
97.424118
 20
51.875650
 30
0.0
 10
96.673683
 20
51.533729
 30
0.0
 10
96.215361
 20
50.426808
 30
0.0
 10
96.511761
 20
49.672158
 30
0.0
  0
SPLINE
  5
1c7
100
AcDbEntity
  8
0
 62
7
100
AcDbSpline
 70
8
 71
3
 72
8
 73
4
 74
0
 40
0
 40
0
 40
0
 40
0
 40
1
 40
1
 40
1
 40
1
 10
96.511761
 20
49.672158
 30
0.0
 10
96.683071
 20
49.235990
 30
0.0
 10
96.722864
 20
49.288417
 30
0.0
 10
96.738191
 20
49.970492
 30
0.0
  0
SPLINE
  5
1c8
100
AcDbEntity
  8
0
 62
7
100
AcDbSpline
 70
8
 71
3
 72
8
 73
4
 74
0
 40
0
 40
0
 40
0
 40
0
 40
1
 40
1
 40
1
 40
1
 10
96.738191
 20
49.970492
 30
0.0
 10
96.756527
 20
50.786588
 30
0.0
 10
97.397464
 20
51.633218
 30
0.0
 10
97.738652
 20
51.292030
 30
0.0
  0
SPLINE
  5
1c9
100
AcDbEntity
  8
0
 62
7
100
AcDbSpline
 70
8
 71
3
 72
8
 73
4
 74
0
 40
0
 40
0
 40
0
 40
0
 40
1
 40
1
 40
1
 40
1
 10
97.738652
 20
51.292030
 30
0.0
 10
97.835082
 20
51.195602
 30
0.0
 10
97.704659
 20
50.315432
 30
0.0
 10
97.448825
 20
49.336097
 30
0.0
  0
SPLINE
  5
1ca
100
AcDbEntity
  8
0
 62
7
100
AcDbSpline
 70
8
 71
3
 72
8
 73
4
 74
0
 40
0
 40
0
 40
0
 40
0
 40
1
 40
1
 40
1
 40
1
 10
97.448825
 20
49.336097
 30
0.0
 10
97.192992
 20
48.356763
 30
0.0
 10
96.885768
 20
46.900648
 30
0.0
 10
96.766105
 20
46.100283
 30
0.0
  0
SPLINE
  5
1cb
100
AcDbEntity
  8
0
 62
7
100
AcDbSpline
 70
8
 71
3
 72
8
 73
4
 74
0
 40
0
 40
0
 40
0
 40
0
 40
1
 40
1
 40
1
 40
1
 10
96.766105
 20
46.100283
 30
0.0
 10
96.468531
 20
44.109936
 30
0.0
 10
96.198552
 20
43.522585
 30
0.0
 10
94.911460
 20
42.065387
 30
0.0
  0
SPLINE
  5
1cc
100
AcDbEntity
  8
0
 62
7
100
AcDbSpline
 70
8
 71
3
 72
8
 73
4
 74
0
 40
0
 40
0
 40
0
 40
0
 40
1
 40
1
 40
1
 40
1
 10
94.911460
 20
42.065387
 30
0.0
 10
93.706672
 20
40.701367
 30
0.0
 10
93.152090
 20
40.453913
 30
0.0
 10
93.429029
 20
41.403929
 30
0.0
  0
LWPOLYLINE
  5
1cd
100
AcDbEntity
  8
0
 62
7
100
AcDbPolyline
 90
3
 70
0
 10
102.313700
 20
61.446648
 30
0.0
 10
101.254695
 20
60.607900
 30
0.0
 10
101.259299
 20
61.357738
 30
0.0
  0
SPLINE
  5
1ce
100
AcDbEntity
  8
0
 62
7
100
AcDbSpline
 70
8
 71
3
 72
8
 73
4
 74
0
 40
0
 40
0
 40
0
 40
0
 40
1
 40
1
 40
1
 40
1
 10
22.896381
 20
46.667592
 30
0.0
 10
21.956594
 20
47.077344
 30
0.0
 10
21.518881
 20
47.478630
 30
0.0
 10
21.052238
 20
48.358258
 30
0.0
  0
SPLINE
  5
1cf
100
AcDbEntity
  8
0
 62
7
100
AcDbSpline
 70
8
 71
3
 72
8
 73
4
 74
0
 40
0
 40
0
 40
0
 40
0
 40
1
 40
1
 40
1
 40
1
 10
21.052238
 20
48.358258
 30
0.0
 10
20.371348
 20
49.641749
 30
0.0
 10
20.586166
 20
50.283036
 30
0.0
 10
21.372214
 20
49.313462
 30
0.0
  0
SPLINE
  5
1d0
100
AcDbEntity
  8
0
 62
7
100
AcDbSpline
 70
8
 71
3
 72
8
 73
4
 74
0
 40
0
 40
0
 40
0
 40
0
 40
1
 40
1
 40
1
 40
1
 10
21.372214
 20
49.313462
 30
0.0
 10
21.992496
 20
48.548361
 30
0.0
 10
23.627700
 20
47.687783
 30
0.0
 10
24.461209
 20
47.687783
 30
0.0
  0
SPLINE
  5
1d1
100
AcDbEntity
  8
0
 62
7
100
AcDbSpline
 70
8
 71
3
 72
8
 73
4
 74
0
 40
0
 40
0
 40
0
 40
0
 40
1
 40
1
 40
1
 40
1
 10
24.461209
 20
47.687783
 30
0.0
 10
25.321674
 20
47.687783
 30
0.0
 10
26.280031
 20
48.736499
 30
0.0
 10
26.669944
 20
50.104765
 30
0.0
  0
LWPOLYLINE
  5
1d2
100
AcDbEntity
  8
0
 62
7
100
AcDbPolyline
 90
1
 70
1
 10
93.429029
 20
41.403929
 30
0.0
  0
SPLINE
  5
1d3
100
AcDbEntity
  8
0
 62
7
100
AcDbSpline
 70
8
 71
3
 72
8
 73
4
 74
0
 40
0
 40
0
 40
0
 40
0
 40
1
 40
1
 40
1
 40
1
 10
27.186194
 20
50.465908
 30
0.0
 10
27.289122
 20
50.029345
 30
0.0
 10
27.387423
 20
49.168563
 30
0.0
 10
27.404642
 20
48.553055
 30
0.0
  0
SPLINE
  5
1d4
100
AcDbEntity
  8
0
 62
7
100
AcDbSpline
 70
8
 71
3
 72
8
 73
4
 74
0
 40
0
 40
0
 40
0
 40
0
 40
1
 40
1
 40
1
 40
1
 10
27.404642
 20
48.553055
 30
0.0
 10
27.433741
 20
47.512721
 30
0.0
 10
27.366111
 20
47.398974
 30
0.0
 10
26.443758
 20
46.936954
 30
0.0
  0
SPLINE
  5
1d5
100
AcDbEntity
  8
0
 62
7
100
AcDbSpline
 70
8
 71
3
 72
8
 73
4
 74
0
 40
0
 40
0
 40
0
 40
0
 40
1
 40
1
 40
1
 40
1
 10
26.443758
 20
46.936954
 30
0.0
 10
24.841161
 20
46.134192
 30
0.0
 10
24.226762
 20
46.087541
 30
0.0
 10
22.896381
 20
46.667592
 30
0.0
  0
LWPOLYLINE
  5
1d6
100
AcDbEntity
  8
0
 62
7
100
AcDbPolyline
 90
3
 70
0
 10
26.669944
 20
50.104765
 30
0.0
 10
26.999054
 20
51.259658
 30
0.0
 10
27.186194
 20
50.465908
 30
0.0
  0
SPLINE
  5
1d7
100
AcDbEntity
  8
0
 62
7
100
AcDbSpline
 70
8
 71
3
 72
8
 73
4
 74
0
 40
0
 40
0
 40
0
 40
0
 40
1
 40
1
 40
1
 40
1
 10
72.309961
 20
49.341429
 30
0.0
 10
72.712522
 20
51.919058
 30
0.0
 10
72.727915
 20
52.389252
 30
0.0
 10
72.416054
 20
52.581993
 30
0.0
  0
SPLINE
  5
1d8
100
AcDbEntity
  8
0
 62
7
100
AcDbSpline
 70
8
 71
3
 72
8
 73
4
 74
0
 40
0
 40
0
 40
0
 40
0
 40
1
 40
1
 40
1
 40
1
 10
72.416054
 20
52.581993
 30
0.0
 10
71.997697
 20
52.840551
 30
0.0
 10
71.664486
 20
52.313229
 30
0.0
 10
71.455089
 20
51.061220
 30
0.0
  0
SPLINE
  5
1d9
100
AcDbEntity
  8
0
 62
7
100
AcDbSpline
 70
8
 71
3
 72
8
 73
4
 74
0
 40
0
 40
0
 40
0
 40
0
 40
1
 40
1
 40
1
 40
1
 10
71.455089
 20
51.061220
 30
0.0
 10
71.363821
 20
50.515517
 30
0.0
 10
71.172562
 20
50.069033
 30
0.0
 10
71.030071
 20
50.069033
 30
0.0
  0
SPLINE
  5
1da
100
AcDbEntity
  8
0
 62
7
100
AcDbSpline
 70
8
 71
3
 72
8
 73
4
 74
0
 40
0
 40
0
 40
0
 40
0
 40
1
 40
1
 40
1
 40
1
 10
71.030071
 20
50.069033
 30
0.0
 10
70.887579
 20
50.069033
 30
0.0
 10
70.839528
 20
50.247627
 30
0.0
 10
70.923293
 20
50.465908
 30
0.0
  0
SPLINE
  5
1db
100
AcDbEntity
  8
0
 62
7
100
AcDbSpline
 70
8
 71
3
 72
8
 73
4
 74
0
 40
0
 40
0
 40
0
 40
0
 40
1
 40
1
 40
1
 40
1
 10
70.923293
 20
50.465908
 30
0.0
 10
71.026883
 20
50.735860
 30
0.0
 10
70.909005
 20
50.862783
 30
0.0
 10
70.554726
 20
50.862783
 30
0.0
  0
SPLINE
  5
1dc
100
AcDbEntity
  8
0
 62
7
100
AcDbSpline
 70
8
 71
3
 72
8
 73
4
 74
0
 40
0
 40
0
 40
0
 40
0
 40
1
 40
1
 40
1
 40
1
 10
70.554726
 20
50.862783
 30
0.0
 10
69.942681
 20
50.862783
 30
0.0
 10
69.857747
 20
51.340975
 30
0.0
 10
70.430737
 20
51.560852
 30
0.0
  0
SPLINE
  5
1dd
100
AcDbEntity
  8
0
 62
7
100
AcDbSpline
 70
8
 71
3
 72
8
 73
4
 74
0
 40
0
 40
0
 40
0
 40
0
 40
1
 40
1
 40
1
 40
1
 10
70.430737
 20
51.560852
 30
0.0
 10
71.104437
 20
51.819376
 30
0.0
 10
70.893675
 20
52.640132
 30
0.0
 10
70.100007
 20
52.848790
 30
0.0
  0
SPLINE
  5
1de
100
AcDbEntity
  8
0
 62
7
100
AcDbSpline
 70
8
 71
3
 72
8
 73
4
 74
0
 40
0
 40
0
 40
0
 40
0
 40
1
 40
1
 40
1
 40
1
 10
70.100007
 20
52.848790
 30
0.0
 10
69.478475
 20
53.012194
 30
0.0
 10
69.443642
 20
53.066408
 30
0.0
 10
69.861075
 20
53.220665
 30
0.0
  0
SPLINE
  5
1df
100
AcDbEntity
  8
0
 62
7
100
AcDbSpline
 70
8
 71
3
 72
8
 73
4
 74
0
 40
0
 40
0
 40
0
 40
0
 40
1
 40
1
 40
1
 40
1
 10
69.861075
 20
53.220665
 30
0.0
 10
70.304721
 20
53.384606
 30
0.0
 10
70.310814
 20
53.433557
 30
0.0
 10
69.927221
 20
53.751911
 30
0.0
  0
SPLINE
  5
1e0
100
AcDbEntity
  8
0
 62
7
100
AcDbSpline
 70
8
 71
3
 72
8
 73
4
 74
0
 40
0
 40
0
 40
0
 40
0
 40
1
 40
1
 40
1
 40
1
 10
69.927221
 20
53.751911
 30
0.0
 10
69.316693
 20
54.258604
 30
0.0
 10
69.392543
 20
54.448509
 30
0.0
 10
70.456078
 20
55.076011
 30
0.0
  0
LWPOLYLINE
  5
1e1
100
AcDbEntity
  8
0
 62
7
100
AcDbPolyline
 90
1
 70
1
 10
22.896381
 20
46.667592
 30
0.0
  0
SPLINE
  5
1e2
100
AcDbEntity
  8
0
 62
7
100
AcDbSpline
 70
8
 71
3
 72
8
 73
4
 74
0
 40
0
 40
0
 40
0
 40
0
 40
1
 40
1
 40
1
 40
1
 10
70.447085
 20
56.700359
 30
0.0
 10
69.260135
 20
58.014171
 30
0.0
 10
69.426974
 20
58.385366
 30
0.0
 10
71.114597
 20
58.185492
 30
0.0
  0
SPLINE
  5
1e3
100
AcDbEntity
  8
0
 62
7
100
AcDbSpline
 70
8
 71
3
 72
8
 73
4
 74
0
 40
0
 40
0
 40
0
 40
0
 40
1
 40
1
 40
1
 40
1
 10
71.114597
 20
58.185492
 30
0.0
 10
72.231581
 20
58.053200
 30
0.0
 10
72.409235
 20
58.100373
 30
0.0
 10
72.557881
 20
58.568709
 30
0.0
  0
SPLINE
  5
1e4
100
AcDbEntity
  8
0
 62
7
100
AcDbSpline
 70
8
 71
3
 72
8
 73
4
 74
0
 40
0
 40
0
 40
0
 40
0
 40
1
 40
1
 40
1
 40
1
 10
72.557881
 20
58.568709
 30
0.0
 10
72.747963
 20
59.167609
 30
0.0
 10
72.045811
 20
60.123200
 30
0.0
 10
71.415667
 20
60.123200
 30
0.0
  0
SPLINE
  5
1e5
100
AcDbEntity
  8
0
 62
7
100
AcDbSpline
 70
8
 71
3
 72
8
 73
4
 74
0
 40
0
 40
0
 40
0
 40
0
 40
1
 40
1
 40
1
 40
1
 10
71.415667
 20
60.123200
 30
0.0
 10
71.100540
 20
60.123200
 30
0.0
 10
71.089449
 20
60.197960
 30
0.0
 10
71.356778
 20
60.520075
 30
0.0
  0
SPLINE
  5
1e6
100
AcDbEntity
  8
0
 62
7
100
AcDbSpline
 70
8
 71
3
 72
8
 73
4
 74
0
 40
0
 40
0
 40
0
 40
0
 40
1
 40
1
 40
1
 40
1
 10
71.356778
 20
60.520075
 30
0.0
 10
71.699747
 20
60.933327
 30
0.0
 10
72.944278
 20
61.076684
 30
0.0
 10
72.944278
 20
60.702936
 30
0.0
  0
SPLINE
  5
1e7
100
AcDbEntity
  8
0
 62
7
100
AcDbSpline
 70
8
 71
3
 72
8
 73
4
 74
0
 40
0
 40
0
 40
0
 40
0
 40
1
 40
1
 40
1
 40
1
 10
72.944278
 20
60.702936
 30
0.0
 10
72.944278
 20
60.585228
 30
0.0
 10
73.104481
 20
60.269832
 30
0.0
 10
73.300286
 20
60.002052
 30
0.0
  0
SPLINE
  5
1e8
100
AcDbEntity
  8
0
 62
7
100
AcDbSpline
 70
8
 71
3
 72
8
 73
4
 74
0
 40
0
 40
0
 40
0
 40
0
 40
1
 40
1
 40
1
 40
1
 10
73.300286
 20
60.002052
 30
0.0
 10
73.636828
 20
59.541804
 30
0.0
 10
73.734485
 20
59.573776
 30
0.0
 10
75.086223
 20
60.586776
 30
0.0
  0
SPLINE
  5
1e9
100
AcDbEntity
  8
0
 62
7
100
AcDbSpline
 70
8
 71
3
 72
8
 73
4
 74
0
 40
0
 40
0
 40
0
 40
0
 40
1
 40
1
 40
1
 40
1
 10
75.086223
 20
60.586776
 30
0.0
 10
77.919860
 20
62.710317
 30
0.0
 10
79.984058
 20
64.095127
 30
0.0
 10
81.533735
 20
64.912224
 30
0.0
  0
SPLINE
  5
1ea
100
AcDbEntity
  8
0
 62
7
100
AcDbSpline
 70
8
 71
3
 72
8
 73
4
 74
0
 40
0
 40
0
 40
0
 40
0
 40
1
 40
1
 40
1
 40
1
 10
81.533735
 20
64.912224
 30
0.0
 10
82.401635
 20
65.369842
 30
0.0
 10
83.830385
 20
66.433528
 30
0.0
 10
84.708735
 20
67.275969
 30
0.0
  0
SPLINE
  5
1eb
100
AcDbEntity
  8
0
 62
7
100
AcDbSpline
 70
8
 71
3
 72
8
 73
4
 74
0
 40
0
 40
0
 40
0
 40
0
 40
1
 40
1
 40
1
 40
1
 10
84.708735
 20
67.275969
 30
0.0
 10
86.036690
 20
68.549636
 30
0.0
 10
86.579617
 20
68.878487
 30
0.0
 10
87.931427
 20
69.227943
 30
0.0
  0
SPLINE
  5
1ec
100
AcDbEntity
  8
0
 62
7
100
AcDbSpline
 70
8
 71
3
 72
8
 73
4
 74
0
 40
0
 40
0
 40
0
 40
0
 40
1
 40
1
 40
1
 40
1
 10
87.931427
 20
69.227943
 30
0.0
 10
90.135109
 20
69.797615
 30
0.0
 10
90.934432
 20
69.759208
 30
0.0
 10
92.648193
 20
69.001301
 30
0.0
  0
SPLINE
  5
1ed
100
AcDbEntity
  8
0
 62
7
100
AcDbSpline
 70
8
 71
3
 72
8
 73
4
 74
0
 40
0
 40
0
 40
0
 40
0
 40
1
 40
1
 40
1
 40
1
 10
92.648193
 20
69.001301
 30
0.0
 10
94.008281
 20
68.399806
 30
0.0
 10
94.110945
 20
68.388471
 30
0.0
 10
94.110945
 20
68.839794
 30
0.0
  0
SPLINE
  5
1ee
100
AcDbEntity
  8
0
 62
7
100
AcDbSpline
 70
8
 71
3
 72
8
 73
4
 74
0
 40
0
 40
0
 40
0
 40
0
 40
1
 40
1
 40
1
 40
1
 10
94.110945
 20
68.839794
 30
0.0
 10
94.110945
 20
69.543681
 30
0.0
 10
92.563077
 20
71.078979
 30
0.0
 10
91.322258
 20
71.605833
 30
0.0
  0
SPLINE
  5
1ef
100
AcDbEntity
  8
0
 62
7
100
AcDbSpline
 70
8
 71
3
 72
8
 73
4
 74
0
 40
0
 40
0
 40
0
 40
0
 40
1
 40
1
 40
1
 40
1
 10
91.322258
 20
71.605833
 30
0.0
 10
90.332745
 20
72.025981
 30
0.0
 10
90.106926
 20
72.029156
 30
0.0
 10
88.281632
 20
71.648571
 30
0.0
  0
SPLINE
  5
1f0
100
AcDbEntity
  8
0
 62
7
100
AcDbSpline
 70
8
 71
3
 72
8
 73
4
 74
0
 40
0
 40
0
 40
0
 40
0
 40
1
 40
1
 40
1
 40
1
 10
88.281632
 20
71.648571
 30
0.0
 10
86.939893
 20
71.368809
 30
0.0
 10
85.971084
 20
70.980898
 30
0.0
 10
85.249486
 20
70.434494
 30
0.0
  0
SPLINE
  5
1f1
100
AcDbEntity
  8
0
 62
7
100
AcDbSpline
 70
8
 71
3
 72
8
 73
4
 74
0
 40
0
 40
0
 40
0
 40
0
 40
1
 40
1
 40
1
 40
1
 10
85.249486
 20
70.434494
 30
0.0
 10
83.229601
 20
68.905014
 30
0.0
 10
81.402372
 20
67.716495
 30
0.0
 10
81.271713
 20
67.847154
 30
0.0
  0
SPLINE
  5
1f2
100
AcDbEntity
  8
0
 62
7
100
AcDbSpline
 70
8
 71
3
 72
8
 73
4
 74
0
 40
0
 40
0
 40
0
 40
0
 40
1
 40
1
 40
1
 40
1
 10
81.271713
 20
67.847154
 30
0.0
 10
81.072008
 20
68.046859
 30
0.0
 10
84.574589
 20
71.025829
 30
0.0
 10
85.776570
 20
71.678567
 30
0.0
  0
SPLINE
  5
1f3
100
AcDbEntity
  8
0
 62
7
100
AcDbSpline
 70
8
 71
3
 72
8
 73
4
 74
0
 40
0
 40
0
 40
0
 40
0
 40
1
 40
1
 40
1
 40
1
 10
85.776570
 20
71.678567
 30
0.0
 10
87.576694
 20
72.656131
 30
0.0
 10
89.124928
 20
72.928824
 30
0.0
 10
90.727297
 20
72.550549
 30
0.0
  0
SPLINE
  5
1f4
100
AcDbEntity
  8
0
 62
7
100
AcDbSpline
 70
8
 71
3
 72
8
 73
4
 74
0
 40
0
 40
0
 40
0
 40
0
 40
1
 40
1
 40
1
 40
1
 10
90.727297
 20
72.550549
 30
0.0
 10
93.184469
 20
71.970482
 30
0.0
 10
93.987157
 20
71.338133
 30
0.0
 10
94.756970
 20
69.376007
 30
0.0
  0
SPLINE
  5
1f5
100
AcDbEntity
  8
0
 62
7
100
AcDbSpline
 70
8
 71
3
 72
8
 73
4
 74
0
 40
0
 40
0
 40
0
 40
0
 40
1
 40
1
 40
1
 40
1
 10
94.756970
 20
69.376007
 30
0.0
 10
95.385805
 20
67.773206
 30
0.0
 10
95.414642
 20
67.524085
 30
0.0
 10
95.133411
 20
66.123733
 30
0.0
  0
SPLINE
  5
1f6
100
AcDbEntity
  8
0
 62
7
100
AcDbSpline
 70
8
 71
3
 72
8
 73
4
 74
0
 40
0
 40
0
 40
0
 40
0
 40
1
 40
1
 40
1
 40
1
 10
95.133411
 20
66.123733
 30
0.0
 10
94.866952
 20
64.796937
 30
0.0
 10
94.888209
 20
64.497000
 30
0.0
 10
95.303319
 20
63.726187
 30
0.0
  0
SPLINE
  5
1f7
100
AcDbEntity
  8
0
 62
7
100
AcDbSpline
 70
8
 71
3
 72
8
 73
4
 74
0
 40
0
 40
0
 40
0
 40
0
 40
1
 40
1
 40
1
 40
1
 10
95.303319
 20
63.726187
 30
0.0
 10
95.696106
 20
62.996823
 30
0.0
 10
95.752666
 20
62.442553
 30
0.0
 10
95.631876
 20
60.506438
 30
0.0
  0
SPLINE
  5
1f8
100
AcDbEntity
  8
0
 62
7
100
AcDbSpline
 70
8
 71
3
 72
8
 73
4
 74
0
 40
0
 40
0
 40
0
 40
0
 40
1
 40
1
 40
1
 40
1
 10
95.631876
 20
60.506438
 30
0.0
 10
95.491213
 20
58.251786
 30
0.0
 10
95.454123
 20
58.141089
 30
0.0
 10
94.600019
 20
57.426818
 30
0.0
  0
SPLINE
  5
1f9
100
AcDbEntity
  8
0
 62
7
100
AcDbSpline
 70
8
 71
3
 72
8
 73
4
 74
0
 40
0
 40
0
 40
0
 40
0
 40
1
 40
1
 40
1
 40
1
 10
94.600019
 20
57.426818
 30
0.0
 10
94.112747
 20
57.019322
 30
0.0
 10
93.475945
 20
56.715163
 30
0.0
 10
93.184903
 20
56.750910
 30
0.0
  0
SPLINE
  5
1fa
100
AcDbEntity
  8
0
 62
7
100
AcDbSpline
 70
8
 71
3
 72
8
 73
4
 74
0
 40
0
 40
0
 40
0
 40
0
 40
1
 40
1
 40
1
 40
1
 10
93.184903
 20
56.750910
 30
0.0
 10
92.702549
 20
56.810159
 30
0.0
 10
92.649051
 20
57.043074
 30
0.0
 10
92.580150
 20
59.383816
 30
0.0
  0
SPLINE
  5
1fb
100
AcDbEntity
  8
0
 62
7
100
AcDbSpline
 70
8
 71
3
 72
8
 73
4
 74
0
 40
0
 40
0
 40
0
 40
0
 40
1
 40
1
 40
1
 40
1
 10
92.580150
 20
59.383816
 30
0.0
 10
92.509298
 20
61.790987
 30
0.0
 10
92.461519
 20
61.985586
 30
0.0
 10
91.816867
 20
62.492670
 30
0.0
  0
SPLINE
  5
1fc
100
AcDbEntity
  8
0
 62
7
100
AcDbSpline
 70
8
 71
3
 72
8
 73
4
 74
0
 40
0
 40
0
 40
0
 40
0
 40
1
 40
1
 40
1
 40
1
 10
91.816867
 20
62.492670
 30
0.0
 10
91.011886
 20
63.125869
 30
0.0
 10
89.665757
 20
63.197121
 30
0.0
 10
88.935994
 20
62.645155
 30
0.0
  0
SPLINE
  5
1fd
100
AcDbEntity
  8
0
 62
7
100
AcDbSpline
 70
8
 71
3
 72
8
 73
4
 74
0
 40
0
 40
0
 40
0
 40
0
 40
1
 40
1
 40
1
 40
1
 10
88.935994
 20
62.645155
 30
0.0
 10
88.653519
 20
62.431504
 30
0.0
 10
88.102009
 20
62.252910
 30
0.0
 10
87.710415
 20
62.248280
 30
0.0
  0
SPLINE
  5
1fe
100
AcDbEntity
  8
0
 62
7
100
AcDbSpline
 70
8
 71
3
 72
8
 73
4
 74
0
 40
0
 40
0
 40
0
 40
0
 40
1
 40
1
 40
1
 40
1
 10
87.710415
 20
62.248280
 30
0.0
 10
87.318821
 20
62.243650
 30
0.0
 10
86.924840
 20
62.120804
 30
0.0
 10
86.834903
 20
61.975283
 30
0.0
  0
SPLINE
  5
1ff
100
AcDbEntity
  8
0
 62
7
100
AcDbSpline
 70
8
 71
3
 72
8
 73
4
 74
0
 40
0
 40
0
 40
0
 40
0
 40
1
 40
1
 40
1
 40
1
 10
86.834903
 20
61.975283
 30
0.0
 10
86.744966
 20
61.829762
 30
0.0
 10
86.831834
 20
61.710700
 30
0.0
 10
87.027927
 20
61.710700
 30
0.0
  0
SPLINE
  5
200
100
AcDbEntity
  8
0
 62
7
100
AcDbSpline
 70
8
 71
3
 72
8
 73
4
 74
0
 40
0
 40
0
 40
0
 40
0
 40
1
 40
1
 40
1
 40
1
 10
87.027927
 20
61.710700
 30
0.0
 10
87.224029
 20
61.710700
 30
0.0
 10
87.851541
 20
61.472575
 30
0.0
 10
88.422403
 20
61.181533
 30
0.0
  0
SPLINE
  5
201
100
AcDbEntity
  8
0
 62
7
100
AcDbSpline
 70
8
 71
3
 72
8
 73
4
 74
0
 40
0
 40
0
 40
0
 40
0
 40
1
 40
1
 40
1
 40
1
 10
88.422403
 20
61.181533
 30
0.0
 10
88.993266
 20
60.890491
 30
0.0
 10
89.673282
 20
60.652366
 30
0.0
 10
89.933555
 20
60.652366
 30
0.0
  0
SPLINE
  5
202
100
AcDbEntity
  8
0
 62
7
100
AcDbSpline
 70
8
 71
3
 72
8
 73
4
 74
0
 40
0
 40
0
 40
0
 40
0
 40
1
 40
1
 40
1
 40
1
 10
89.933555
 20
60.652366
 30
0.0
 10
90.712028
 20
60.652366
 30
0.0
 10
91.465112
 20
59.684306
 30
0.0
 10
91.465112
 20
58.683607
 30
0.0
  0
SPLINE
  5
203
100
AcDbEntity
  8
0
 62
7
100
AcDbSpline
 70
8
 71
3
 72
8
 73
4
 74
0
 40
0
 40
0
 40
0
 40
0
 40
1
 40
1
 40
1
 40
1
 10
91.465112
 20
58.683607
 30
0.0
 10
91.465112
 20
58.182872
 30
0.0
 10
91.337649
 20
57.694404
 30
0.0
 10
91.181859
 20
57.598119
 30
0.0
  0
SPLINE
  5
204
100
AcDbEntity
  8
0
 62
7
100
AcDbSpline
 70
8
 71
3
 72
8
 73
4
 74
0
 40
0
 40
0
 40
0
 40
0
 40
1
 40
1
 40
1
 40
1
 10
91.181859
 20
57.598119
 30
0.0
 10
90.824505
 20
57.377261
 30
0.0
 10
91.126760
 20
55.429433
 30
0.0
 10
91.630566
 20
54.706515
 30
0.0
  0
SPLINE
  5
205
100
AcDbEntity
  8
0
 62
7
100
AcDbSpline
 70
8
 71
3
 72
8
 73
4
 74
0
 40
0
 40
0
 40
0
 40
0
 40
1
 40
1
 40
1
 40
1
 10
91.630566
 20
54.706515
 30
0.0
 10
92.167001
 20
53.936781
 30
0.0
 10
92.075767
 20
53.358285
 30
0.0
 10
91.342128
 20
52.877588
 30
0.0
  0
SPLINE
  5
206
100
AcDbEntity
  8
0
 62
7
100
AcDbSpline
 70
8
 71
3
 72
8
 73
4
 74
0
 40
0
 40
0
 40
0
 40
0
 40
1
 40
1
 40
1
 40
1
 10
91.342128
 20
52.877588
 30
0.0
 10
90.377116
 20
52.245286
 30
0.0
 10
89.470341
 20
52.344143
 30
0.0
 10
88.835807
 20
53.150826
 30
0.0
  0
SPLINE
  5
207
100
AcDbEntity
  8
0
 62
7
100
AcDbSpline
 70
8
 71
3
 72
8
 73
4
 74
0
 40
0
 40
0
 40
0
 40
0
 40
1
 40
1
 40
1
 40
1
 10
88.835807
 20
53.150826
 30
0.0
 10
88.291106
 20
53.843298
 30
0.0
 10
88.272601
 20
53.846590
 30
0.0
 10
87.229103
 20
53.436692
 30
0.0
  0
SPLINE
  5
208
100
AcDbEntity
  8
0
 62
7
100
AcDbSpline
 70
8
 71
3
 72
8
 73
4
 74
0
 40
0
 40
0
 40
0
 40
0
 40
1
 40
1
 40
1
 40
1
 10
87.229103
 20
53.436692
 30
0.0
 10
85.878524
 20
52.906171
 30
0.0
 10
85.877162
 20
53.264681
 30
0.0
 10
87.226140
 20
54.219062
 30
0.0
  0
SPLINE
  5
209
100
AcDbEntity
  8
0
 62
7
100
AcDbSpline
 70
8
 71
3
 72
8
 73
4
 74
0
 40
0
 40
0
 40
0
 40
0
 40
1
 40
1
 40
1
 40
1
 10
87.226140
 20
54.219062
 30
0.0
 10
87.986365
 20
54.756913
 30
0.0
 10
88.280393
 20
55.154579
 30
0.0
 10
88.284473
 20
55.650421
 30
0.0
  0
SPLINE
  5
20a
100
AcDbEntity
  8
0
 62
7
100
AcDbSpline
 70
8
 71
3
 72
8
 73
4
 74
0
 40
0
 40
0
 40
0
 40
0
 40
1
 40
1
 40
1
 40
1
 10
88.284473
 20
55.650421
 30
0.0
 10
88.295295
 20
56.965908
 30
0.0
 10
86.063365
 20
58.271116
 30
0.0
 10
83.803051
 20
58.271116
 30
0.0
  0
SPLINE
  5
20b
100
AcDbEntity
  8
0
 62
7
100
AcDbSpline
 70
8
 71
3
 72
8
 73
4
 74
0
 40
0
 40
0
 40
0
 40
0
 40
1
 40
1
 40
1
 40
1
 10
83.803051
 20
58.271116
 30
0.0
 10
81.292009
 20
58.271116
 30
0.0
 10
76.383862
 20
56.366048
 30
0.0
 10
76.383862
 20
55.391399
 30
0.0
  0
SPLINE
  5
20c
100
AcDbEntity
  8
0
 62
7
100
AcDbSpline
 70
8
 71
3
 72
8
 73
4
 74
0
 40
0
 40
0
 40
0
 40
0
 40
1
 40
1
 40
1
 40
1
 10
76.383862
 20
55.391399
 30
0.0
 10
76.383862
 20
55.274102
 30
0.0
 10
76.626900
 20
54.958184
 30
0.0
 10
76.923948
 20
54.689359
 30
0.0
  0
SPLINE
  5
20d
100
AcDbEntity
  8
0
 62
7
100
AcDbSpline
 70
8
 71
3
 72
8
 73
4
 74
0
 40
0
 40
0
 40
0
 40
0
 40
1
 40
1
 40
1
 40
1
 10
76.923948
 20
54.689359
 30
0.0
 10
77.459443
 20
54.204743
 30
0.0
 10
77.453260
 20
54.197747
 30
0.0
 10
76.196343
 20
53.866280
 30
0.0
  0
SPLINE
  5
20e
100
AcDbEntity
  8
0
 62
7
100
AcDbSpline
 70
8
 71
3
 72
8
 73
4
 74
0
 40
0
 40
0
 40
0
 40
0
 40
1
 40
1
 40
1
 40
1
 10
76.196343
 20
53.866280
 30
0.0
 10
75.499113
 20
53.682408
 30
0.0
 10
74.677725
 20
53.526716
 30
0.0
 10
74.371033
 20
53.520292
 30
0.0
  0
SPLINE
  5
20f
100
AcDbEntity
  8
0
 62
7
100
AcDbSpline
 70
8
 71
3
 72
8
 73
4
 74
0
 40
0
 40
0
 40
0
 40
0
 40
1
 40
1
 40
1
 40
1
 10
74.371033
 20
53.520292
 30
0.0
 10
73.887092
 20
53.510159
 30
0.0
 10
73.791797
 20
53.301815
 30
0.0
 10
73.649824
 20
51.943508
 30
0.0
  0
SPLINE
  5
210
100
AcDbEntity
  8
0
 62
7
100
AcDbSpline
 70
8
 71
3
 72
8
 73
4
 74
0
 40
0
 40
0
 40
0
 40
0
 40
1
 40
1
 40
1
 40
1
 10
73.649824
 20
51.943508
 30
0.0
 10
73.489637
 20
50.410922
 30
0.0
 10
72.781216
 20
48.481533
 30
0.0
 10
72.378678
 20
48.481533
 30
0.0
  0
SPLINE
  5
211
100
AcDbEntity
  8
0
 62
7
100
AcDbSpline
 70
8
 71
3
 72
8
 73
4
 74
0
 40
0
 40
0
 40
0
 40
0
 40
1
 40
1
 40
1
 40
1
 10
72.378678
 20
48.481533
 30
0.0
 10
72.267022
 20
48.481533
 30
0.0
 10
72.236100
 20
48.868486
 30
0.0
 10
72.309961
 20
49.341429
 30
0.0
  0
LWPOLYLINE
  5
212
100
AcDbEntity
  8
0
 62
7
100
AcDbPolyline
 90
3
 70
0
 10
70.456078
 20
55.076011
 30
0.0
 10
71.407462
 20
55.637340
 30
0.0
 10
70.447085
 20
56.700359
 30
0.0
  0
SPLINE
  5
213
100
AcDbEntity
  8
0
 62
7
100
AcDbSpline
 70
8
 71
3
 72
8
 73
4
 74
0
 40
0
 40
0
 40
0
 40
0
 40
1
 40
1
 40
1
 40
1
 10
59.640158
 20
50.664345
 30
0.0
 10
58.976884
 20
51.287513
 30
0.0
 10
58.256995
 20
52.714866
 30
0.0
 10
58.605973
 20
52.714866
 30
0.0
  0
SPLINE
  5
214
100
AcDbEntity
  8
0
 62
7
100
AcDbSpline
 70
8
 71
3
 72
8
 73
4
 74
0
 40
0
 40
0
 40
0
 40
0
 40
1
 40
1
 40
1
 40
1
 10
58.605973
 20
52.714866
 30
0.0
 10
58.717312
 20
52.714866
 30
0.0
 10
59.252850
 20
52.119554
 30
0.0
 10
59.796058
 20
51.391950
 30
0.0
  0
SPLINE
  5
215
100
AcDbEntity
  8
0
 62
7
100
AcDbSpline
 70
8
 71
3
 72
8
 73
4
 74
0
 40
0
 40
0
 40
0
 40
0
 40
1
 40
1
 40
1
 40
1
 10
59.796058
 20
51.391950
 30
0.0
 10
60.822216
 20
50.017452
 30
0.0
 10
60.739512
 20
49.631470
 30
0.0
 10
59.640158
 20
50.664345
 30
0.0
  0
LWPOLYLINE
  5
216
100
AcDbEntity
  8
0
 62
7
100
AcDbPolyline
 90
1
 70
1
 10
72.309961
 20
49.341429
 30
0.0
  0
SPLINE
  5
217
100
AcDbEntity
  8
0
 62
7
100
AcDbSpline
 70
8
 71
3
 72
8
 73
4
 74
0
 40
0
 40
0
 40
0
 40
0
 40
1
 40
1
 40
1
 40
1
 10
60.909295
 20
52.102594
 30
0.0
 10
59.772150
 20
53.363662
 30
0.0
 10
59.430012
 20
54.302366
 30
0.0
 10
60.107528
 20
54.302366
 30
0.0
  0
SPLINE
  5
218
100
AcDbEntity
  8
0
 62
7
100
AcDbSpline
 70
8
 71
3
 72
8
 73
4
 74
0
 40
0
 40
0
 40
0
 40
0
 40
1
 40
1
 40
1
 40
1
 10
60.107528
 20
54.302366
 30
0.0
 10
60.491169
 20
54.302366
 30
0.0
 10
61.941345
 20
51.804565
 30
0.0
 10
61.780700
 20
51.420472
 30
0.0
  0
SPLINE
  5
219
100
AcDbEntity
  8
0
 62
7
100
AcDbSpline
 70
8
 71
3
 72
8
 73
4
 74
0
 40
0
 40
0
 40
0
 40
0
 40
1
 40
1
 40
1
 40
1
 10
61.780700
 20
51.420472
 30
0.0
 10
61.736033
 20
51.313675
 30
0.0
 10
61.343900
 20
51.620629
 30
0.0
 10
60.909295
 20
52.102594
 30
0.0
  0
LWPOLYLINE
  5
21a
100
AcDbEntity
  8
0
 62
7
100
AcDbPolyline
 90
1
 70
1
 10
59.640158
 20
50.664345
 30
0.0
  0
SPLINE
  5
21b
100
AcDbEntity
  8
0
 62
7
100
AcDbSpline
 70
8
 71
3
 72
8
 73
4
 74
0
 40
0
 40
0
 40
0
 40
0
 40
1
 40
1
 40
1
 40
1
 10
80.025208
 20
53.658209
 30
0.0
 10
79.283579
 20
54.060611
 30
0.0
 10
78.500528
 20
55.271313
 30
0.0
 10
78.500528
 20
56.015567
 30
0.0
  0
SPLINE
  5
21c
100
AcDbEntity
  8
0
 62
7
100
AcDbSpline
 70
8
 71
3
 72
8
 73
4
 74
0
 40
0
 40
0
 40
0
 40
0
 40
1
 40
1
 40
1
 40
1
 10
78.500528
 20
56.015567
 30
0.0
 10
78.500528
 20
56.244678
 30
0.0
 10
78.805934
 20
56.548245
 30
0.0
 10
79.179211
 20
56.690165
 30
0.0
  0
SPLINE
  5
21d
100
AcDbEntity
  8
0
 62
7
100
AcDbSpline
 70
8
 71
3
 72
8
 73
4
 74
0
 40
0
 40
0
 40
0
 40
0
 40
1
 40
1
 40
1
 40
1
 10
79.179211
 20
56.690165
 30
0.0
 10
80.117688
 20
57.046974
 30
0.0
 10
80.192221
 20
57.027770
 30
0.0
 10
80.488308
 20
56.352887
 30
0.0
  0
SPLINE
  5
21e
100
AcDbEntity
  8
0
 62
7
100
AcDbSpline
 70
8
 71
3
 72
8
 73
4
 74
0
 40
0
 40
0
 40
0
 40
0
 40
1
 40
1
 40
1
 40
1
 10
80.488308
 20
56.352887
 30
0.0
 10
80.805483
 20
55.629940
 30
0.0
 10
81.884356
 20
55.550887
 30
0.0
 10
82.306221
 20
56.219680
 30
0.0
  0
SPLINE
  5
21f
100
AcDbEntity
  8
0
 62
7
100
AcDbSpline
 70
8
 71
3
 72
8
 73
4
 74
0
 40
0
 40
0
 40
0
 40
0
 40
1
 40
1
 40
1
 40
1
 10
82.306221
 20
56.219680
 30
0.0
 10
82.520655
 20
56.559633
 30
0.0
 10
82.515120
 20
56.814035
 30
0.0
 10
82.285292
 20
57.182070
 30
0.0
  0
SPLINE
  5
220
100
AcDbEntity
  8
0
 62
7
100
AcDbSpline
 70
8
 71
3
 72
8
 73
4
 74
0
 40
0
 40
0
 40
0
 40
0
 40
1
 40
1
 40
1
 40
1
 10
82.285292
 20
57.182070
 30
0.0
 10
82.008924
 20
57.624602
 30
0.0
 10
82.066413
 20
57.701061
 30
0.0
 10
82.783315
 20
57.844441
 30
0.0
  0
SPLINE
  5
221
100
AcDbEntity
  8
0
 62
7
100
AcDbSpline
 70
8
 71
3
 72
8
 73
4
 74
0
 40
0
 40
0
 40
0
 40
0
 40
1
 40
1
 40
1
 40
1
 10
82.783315
 20
57.844441
 30
0.0
 10
83.939343
 20
58.075647
 30
0.0
 10
83.940549
 20
58.075235
 30
0.0
 10
84.278904
 20
57.332626
 30
0.0
  0
SPLINE
  5
222
100
AcDbEntity
  8
0
 62
7
100
AcDbSpline
 70
8
 71
3
 72
8
 73
4
 74
0
 40
0
 40
0
 40
0
 40
0
 40
1
 40
1
 40
1
 40
1
 10
84.278904
 20
57.332626
 30
0.0
 10
84.840305
 20
56.100485
 30
0.0
 10
84.657070
 20
55.114312
 30
0.0
 10
83.686375
 20
54.143616
 30
0.0
  0
SPLINE
  5
223
100
AcDbEntity
  8
0
 62
7
100
AcDbSpline
 70
8
 71
3
 72
8
 73
4
 74
0
 40
0
 40
0
 40
0
 40
0
 40
1
 40
1
 40
1
 40
1
 10
83.686375
 20
54.143616
 30
0.0
 10
82.968026
 20
53.425267
 30
0.0
 10
82.581570
 20
53.246168
 30
0.0
 10
81.768146
 20
53.254627
 30
0.0
  0
SPLINE
  5
224
100
AcDbEntity
  8
0
 62
7
100
AcDbSpline
 70
8
 71
3
 72
8
 73
4
 74
0
 40
0
 40
0
 40
0
 40
0
 40
1
 40
1
 40
1
 40
1
 10
81.768146
 20
53.254627
 30
0.0
 10
81.207890
 20
53.260448
 30
0.0
 10
80.423575
 20
53.442066
 30
0.0
 10
80.025221
 20
53.658209
 30
0.0
  0
LWPOLYLINE
  5
225
100
AcDbEntity
  8
0
 62
7
100
AcDbPolyline
 90
1
 70
1
 10
60.909295
 20
52.102594
 30
0.0
  0
SPLINE
  5
226
100
AcDbEntity
  8
0
 62
7
100
AcDbSpline
 70
8
 71
3
 72
8
 73
4
 74
0
 40
0
 40
0
 40
0
 40
0
 40
1
 40
1
 40
1
 40
1
 10
67.966804
 20
55.027089
 30
0.0
 10
67.339244
 20
55.240891
 30
0.0
 10
66.873305
 20
55.463339
 30
0.0
 10
66.931384
 20
55.521415
 30
0.0
  0
SPLINE
  5
227
100
AcDbEntity
  8
0
 62
7
100
AcDbSpline
 70
8
 71
3
 72
8
 73
4
 74
0
 40
0
 40
0
 40
0
 40
0
 40
1
 40
1
 40
1
 40
1
 10
66.931384
 20
55.521415
 30
0.0
 10
67.119029
 20
55.709061
 30
0.0
 10
69.504695
 20
55.295911
 30
0.0
 10
69.504695
 20
55.075767
 30
0.0
  0
SPLINE
  5
228
100
AcDbEntity
  8
0
 62
7
100
AcDbSpline
 70
8
 71
3
 72
8
 73
4
 74
0
 40
0
 40
0
 40
0
 40
0
 40
1
 40
1
 40
1
 40
1
 10
69.504695
 20
55.075767
 30
0.0
 10
69.504695
 20
54.657175
 30
0.0
 10
69.091024
 20
54.644081
 30
0.0
 10
67.966804
 20
55.027089
 30
0.0
  0
LWPOLYLINE
  5
229
100
AcDbEntity
  8
0
 62
7
100
AcDbPolyline
 90
1
 70
1
 10
80.025221
 20
53.658209
 30
0.0
  0
SPLINE
  5
22a
100
AcDbEntity
  8
0
 62
7
100
AcDbSpline
 70
8
 71
3
 72
8
 73
4
 74
0
 40
0
 40
0
 40
0
 40
0
 40
1
 40
1
 40
1
 40
1
 10
56.262476
 20
56.037885
 30
0.0
 10
56.057816
 20
56.284484
 30
0.0
 10
55.436468
 20
56.419033
 30
0.0
 10
54.502317
 20
56.419033
 30
0.0
  0
LWPOLYLINE
  5
22b
100
AcDbEntity
  8
0
 62
7
100
AcDbPolyline
 90
1
 70
1
 10
67.966804
 20
55.027089
 30
0.0
  0
SPLINE
  5
22c
100
AcDbEntity
  8
0
 62
7
100
AcDbSpline
 70
8
 71
3
 72
8
 73
4
 74
0
 40
0
 40
0
 40
0
 40
0
 40
1
 40
1
 40
1
 40
1
 10
53.233111
 20
57.214114
 30
0.0
 10
53.382249
 20
57.893133
 30
0.0
 10
53.246711
 20
58.192456
 30
0.0
 10
52.304633
 20
59.264635
 30
0.0
  0
SPLINE
  5
22d
100
AcDbEntity
  8
0
 62
7
100
AcDbSpline
 70
8
 71
3
 72
8
 73
4
 74
0
 40
0
 40
0
 40
0
 40
0
 40
1
 40
1
 40
1
 40
1
 10
52.304633
 20
59.264635
 30
0.0
 10
50.913760
 20
60.847579
 30
0.0
 10
50.762339
 20
60.929557
 30
0.0
 10
48.241813
 20
61.464198
 30
0.0
  0
SPLINE
  5
22e
100
AcDbEntity
  8
0
 62
7
100
AcDbSpline
 70
8
 71
3
 72
8
 73
4
 74
0
 40
0
 40
0
 40
0
 40
0
 40
1
 40
1
 40
1
 40
1
 10
48.241813
 20
61.464198
 30
0.0
 10
46.042154
 20
61.930777
 30
0.0
 10
44.853767
 20
61.826402
 30
0.0
 10
43.147604
 20
61.016774
 30
0.0
  0
SPLINE
  5
22f
100
AcDbEntity
  8
0
 62
7
100
AcDbSpline
 70
8
 71
3
 72
8
 73
4
 74
0
 40
0
 40
0
 40
0
 40
0
 40
1
 40
1
 40
1
 40
1
 10
43.147604
 20
61.016774
 30
0.0
 10
42.248939
 20
60.590329
 30
0.0
 10
41.747522
 20
59.464123
 30
0.0
 10
42.237964
 20
58.973680
 30
0.0
  0
SPLINE
  5
230
100
AcDbEntity
  8
0
 62
7
100
AcDbSpline
 70
8
 71
3
 72
8
 73
4
 74
0
 40
0
 40
0
 40
0
 40
0
 40
1
 40
1
 40
1
 40
1
 10
42.237964
 20
58.973680
 30
0.0
 10
42.391542
 20
58.820103
 30
0.0
 10
42.517195
 20
58.480137
 30
0.0
 10
42.517195
 20
58.218200
 30
0.0
  0
SPLINE
  5
231
100
AcDbEntity
  8
0
 62
7
100
AcDbSpline
 70
8
 71
3
 72
8
 73
4
 74
0
 40
0
 40
0
 40
0
 40
0
 40
1
 40
1
 40
1
 40
1
 10
42.517195
 20
58.218200
 30
0.0
 10
42.517195
 20
57.868651
 30
0.0
 10
42.323626
 20
57.748966
 30
0.0
 10
41.789591
 20
57.768323
 30
0.0
  0
SPLINE
  5
232
100
AcDbEntity
  8
0
 62
7
100
AcDbSpline
 70
8
 71
3
 72
8
 73
4
 74
0
 40
0
 40
0
 40
0
 40
0
 40
1
 40
1
 40
1
 40
1
 10
41.789591
 20
57.768323
 30
0.0
 10
40.033451
 20
57.831979
 30
0.0
 10
39.759446
 20
58.059616
 30
0.0
 10
39.419869
 20
59.737048
 30
0.0
  0
SPLINE
  5
233
100
AcDbEntity
  8
0
 62
7
100
AcDbSpline
 70
8
 71
3
 72
8
 73
4
 74
0
 40
0
 40
0
 40
0
 40
0
 40
1
 40
1
 40
1
 40
1
 10
39.419869
 20
59.737048
 30
0.0
 10
39.052386
 20
61.552333
 30
0.0
 10
39.078694
 20
61.592706
 30
0.0
 10
41.326570
 20
62.663089
 30
0.0
  0
SPLINE
  5
234
100
AcDbEntity
  8
0
 62
7
100
AcDbSpline
 70
8
 71
3
 72
8
 73
4
 74
0
 40
0
 40
0
 40
0
 40
0
 40
1
 40
1
 40
1
 40
1
 10
41.326570
 20
62.663089
 30
0.0
 10
43.307728
 20
63.606468
 30
0.0
 10
45.268433
 20
63.523278
 30
0.0
 10
48.938233
 20
62.340130
 30
0.0
  0
SPLINE
  5
235
100
AcDbEntity
  8
0
 62
7
100
AcDbSpline
 70
8
 71
3
 72
8
 73
4
 74
0
 40
0
 40
0
 40
0
 40
0
 40
1
 40
1
 40
1
 40
1
 10
48.938233
 20
62.340130
 30
0.0
 10
50.572651
 20
61.813191
 30
0.0
 10
52.505216
 20
61.093742
 30
0.0
 10
53.232820
 20
60.741354
 30
0.0
  0
SPLINE
  5
236
100
AcDbEntity
  8
0
 62
7
100
AcDbSpline
 70
8
 71
3
 72
8
 73
4
 74
0
 40
0
 40
0
 40
0
 40
0
 40
1
 40
1
 40
1
 40
1
 10
53.232820
 20
60.741354
 30
0.0
 10
53.971661
 20
60.383523
 30
0.0
 10
54.322107
 20
60.290168
 30
0.0
 10
54.026570
 20
60.529904
 30
0.0
  0
SPLINE
  5
237
100
AcDbEntity
  8
0
 62
7
100
AcDbSpline
 70
8
 71
3
 72
8
 73
4
 74
0
 40
0
 40
0
 40
0
 40
0
 40
1
 40
1
 40
1
 40
1
 10
54.026570
 20
60.529904
 30
0.0
 10
53.203766
 20
61.197355
 30
0.0
 10
51.315972
 20
62.088453
 30
0.0
 10
48.999487
 20
62.902843
 30
0.0
  0
SPLINE
  5
238
100
AcDbEntity
  8
0
 62
7
100
AcDbSpline
 70
8
 71
3
 72
8
 73
4
 74
0
 40
0
 40
0
 40
0
 40
0
 40
1
 40
1
 40
1
 40
1
 10
48.999487
 20
62.902843
 30
0.0
 10
47.835320
 20
63.312122
 30
0.0
 10
46.519965
 20
63.985227
 30
0.0
 10
46.076473
 20
64.398633
 30
0.0
  0
SPLINE
  5
239
100
AcDbEntity
  8
0
 62
7
100
AcDbSpline
 70
8
 71
3
 72
8
 73
4
 74
0
 40
0
 40
0
 40
0
 40
0
 40
1
 40
1
 40
1
 40
1
 10
46.076473
 20
64.398633
 30
0.0
 10
45.628653
 20
64.816077
 30
0.0
 10
44.970912
 20
65.150283
 30
0.0
 10
44.597169
 20
65.150283
 30
0.0
  0
SPLINE
  5
23a
100
AcDbEntity
  8
0
 62
7
100
AcDbSpline
 70
8
 71
3
 72
8
 73
4
 74
0
 40
0
 40
0
 40
0
 40
0
 40
1
 40
1
 40
1
 40
1
 10
44.597169
 20
65.150283
 30
0.0
 10
44.227044
 20
65.150283
 30
0.0
 10
43.339742
 20
65.326305
 30
0.0
 10
42.625391
 20
65.541443
 30
0.0
  0
SPLINE
  5
23b
100
AcDbEntity
  8
0
 62
7
100
AcDbSpline
 70
8
 71
3
 72
8
 73
4
 74
0
 40
0
 40
0
 40
0
 40
0
 40
1
 40
1
 40
1
 40
1
 10
42.625391
 20
65.541443
 30
0.0
 10
40.933248
 20
66.051057
 30
0.0
 10
38.752788
 20
65.807291
 30
0.0
 10
37.399050
 20
64.957166
 30
0.0
  0
SPLINE
  5
23c
100
AcDbEntity
  8
0
 62
7
100
AcDbSpline
 70
8
 71
3
 72
8
 73
4
 74
0
 40
0
 40
0
 40
0
 40
0
 40
1
 40
1
 40
1
 40
1
 10
37.399050
 20
64.957166
 30
0.0
 10
36.581495
 20
64.443750
 30
0.0
 10
36.179202
 20
64.352694
 30
0.0
 10
35.348529
 20
64.493034
 30
0.0
  0
SPLINE
  5
23d
100
AcDbEntity
  8
0
 62
7
100
AcDbSpline
 70
8
 71
3
 72
8
 73
4
 74
0
 40
0
 40
0
 40
0
 40
0
 40
1
 40
1
 40
1
 40
1
 10
35.348529
 20
64.493034
 30
0.0
 10
34.480902
 20
64.639619
 30
0.0
 10
34.315112
 20
64.770016
 30
0.0
 10
34.315112
 20
65.305832
 30
0.0
  0
SPLINE
  5
23e
100
AcDbEntity
  8
0
 62
7
100
AcDbSpline
 70
8
 71
3
 72
8
 73
4
 74
0
 40
0
 40
0
 40
0
 40
0
 40
1
 40
1
 40
1
 40
1
 10
34.315112
 20
65.305832
 30
0.0
 10
34.315112
 20
65.690168
 30
0.0
 10
34.469409
 20
65.944033
 30
0.0
 10
34.703009
 20
65.944033
 30
0.0
  0
SPLINE
  5
23f
100
AcDbEntity
  8
0
 62
7
100
AcDbSpline
 70
8
 71
3
 72
8
 73
4
 74
0
 40
0
 40
0
 40
0
 40
0
 40
1
 40
1
 40
1
 40
1
 10
34.703009
 20
65.944033
 30
0.0
 10
34.916353
 20
65.944033
 30
0.0
 10
35.511666
 20
66.144680
 30
0.0
 10
36.025926
 20
66.389911
 30
0.0
  0
SPLINE
  5
240
100
AcDbEntity
  8
0
 62
7
100
AcDbSpline
 70
8
 71
3
 72
8
 73
4
 74
0
 40
0
 40
0
 40
0
 40
0
 40
1
 40
1
 40
1
 40
1
 10
36.025926
 20
66.389911
 30
0.0
 10
36.849939
 20
66.782855
 30
0.0
 10
36.960945
 20
66.953204
 30
0.0
 10
36.960945
 20
67.824768
 30
0.0
  0
SPLINE
  5
241
100
AcDbEntity
  8
0
 62
7
100
AcDbSpline
 70
8
 71
3
 72
8
 73
4
 74
0
 40
0
 40
0
 40
0
 40
0
 40
1
 40
1
 40
1
 40
1
 10
36.960945
 20
67.824768
 30
0.0
 10
36.960945
 20
68.576346
 30
0.0
 10
37.156364
 20
69.009165
 30
0.0
 10
37.775047
 20
69.627848
 30
0.0
  0
SPLINE
  5
242
100
AcDbEntity
  8
0
 62
7
100
AcDbSpline
 70
8
 71
3
 72
8
 73
4
 74
0
 40
0
 40
0
 40
0
 40
0
 40
1
 40
1
 40
1
 40
1
 10
37.775047
 20
69.627848
 30
0.0
 10
38.222804
 20
70.075602
 30
0.0
 10
38.849006
 20
70.441950
 30
0.0
 10
39.166612
 20
70.441950
 30
0.0
  0
SPLINE
  5
243
100
AcDbEntity
  8
0
 62
7
100
AcDbSpline
 70
8
 71
3
 72
8
 73
4
 74
0
 40
0
 40
0
 40
0
 40
0
 40
1
 40
1
 40
1
 40
1
 10
39.166612
 20
70.441950
 30
0.0
 10
39.484215
 20
70.441950
 30
0.0
 10
39.885244
 20
70.668004
 30
0.0
 10
40.057790
 20
70.944293
 30
0.0
  0
SPLINE
  5
244
100
AcDbEntity
  8
0
 62
7
100
AcDbSpline
 70
8
 71
3
 72
8
 73
4
 74
0
 40
0
 40
0
 40
0
 40
0
 40
1
 40
1
 40
1
 40
1
 10
40.057790
 20
70.944293
 30
0.0
 10
40.455704
 20
71.581452
 30
0.0
 10
42.476423
 20
71.882971
 30
0.0
 10
44.654481
 20
71.630183
 30
0.0
  0
SPLINE
  5
245
100
AcDbEntity
  8
0
 62
7
100
AcDbSpline
 70
8
 71
3
 72
8
 73
4
 74
0
 40
0
 40
0
 40
0
 40
0
 40
1
 40
1
 40
1
 40
1
 10
44.654481
 20
71.630183
 30
0.0
 10
45.986393
 20
71.475597
 30
0.0
 10
46.447858
 20
71.276398
 30
0.0
 10
47.416821
 20
70.437764
 30
0.0
  0
SPLINE
  5
246
100
AcDbEntity
  8
0
 62
7
100
AcDbSpline
 70
8
 71
3
 72
8
 73
4
 74
0
 40
0
 40
0
 40
0
 40
0
 40
1
 40
1
 40
1
 40
1
 10
47.416821
 20
70.437764
 30
0.0
 10
48.056636
 20
69.884010
 30
0.0
 10
49.924634
 20
68.628210
 30
0.0
 10
51.567929
 20
67.647100
 30
0.0
  0
SPLINE
  5
247
100
AcDbEntity
  8
0
 62
7
100
AcDbSpline
 70
8
 71
3
 72
8
 73
4
 74
0
 40
0
 40
0
 40
0
 40
0
 40
1
 40
1
 40
1
 40
1
 10
51.567929
 20
67.647100
 30
0.0
 10
53.211222
 20
66.665991
 30
0.0
 10
55.809629
 20
64.935915
 30
0.0
 10
57.342164
 20
63.802490
 30
0.0
  0
SPLINE
  5
248
100
AcDbEntity
  8
0
 62
7
100
AcDbSpline
 70
8
 71
3
 72
8
 73
4
 74
0
 40
0
 40
0
 40
0
 40
0
 40
1
 40
1
 40
1
 40
1
 10
57.342164
 20
63.802490
 30
0.0
 10
59.831433
 20
61.961485
 30
0.0
 10
60.175891
 20
61.606030
 30
0.0
 10
60.572105
 20
60.469436
 30
0.0
  0
SPLINE
  5
249
100
AcDbEntity
  8
0
 62
7
100
AcDbSpline
 70
8
 71
3
 72
8
 73
4
 74
0
 40
0
 40
0
 40
0
 40
0
 40
1
 40
1
 40
1
 40
1
 10
60.572105
 20
60.469436
 30
0.0
 10
60.816038
 20
59.769682
 30
0.0
 10
60.947909
 20
58.873176
 30
0.0
 10
60.865150
 20
58.477198
 30
0.0
  0
SPLINE
  5
24a
100
AcDbEntity
  8
0
 62
7
100
AcDbSpline
 70
8
 71
3
 72
8
 73
4
 74
0
 40
0
 40
0
 40
0
 40
0
 40
1
 40
1
 40
1
 40
1
 10
60.865150
 20
58.477198
 30
0.0
 10
60.743653
 20
57.895874
 30
0.0
 10
60.875336
 20
57.622051
 30
0.0
 10
61.548986
 20
57.055210
 30
0.0
  0
SPLINE
  5
24b
100
AcDbEntity
  8
0
 62
7
100
AcDbSpline
 70
8
 71
3
 72
8
 73
4
 74
0
 40
0
 40
0
 40
0
 40
0
 40
1
 40
1
 40
1
 40
1
 10
61.548986
 20
57.055210
 30
0.0
 10
62.007856
 20
56.669099
 30
0.0
 10
62.330753
 20
56.300645
 30
0.0
 10
62.266536
 20
56.236428
 30
0.0
  0
SPLINE
  5
24c
100
AcDbEntity
  8
0
 62
7
100
AcDbSpline
 70
8
 71
3
 72
8
 73
4
 74
0
 40
0
 40
0
 40
0
 40
0
 40
1
 40
1
 40
1
 40
1
 10
62.266536
 20
56.236428
 30
0.0
 10
62.202319
 20
56.172211
 30
0.0
 10
61.650409
 20
56.254129
 30
0.0
 10
61.040071
 20
56.418483
 30
0.0
  0
SPLINE
  5
24d
100
AcDbEntity
  8
0
 62
7
100
AcDbSpline
 70
8
 71
3
 72
8
 73
4
 74
0
 40
0
 40
0
 40
0
 40
0
 40
1
 40
1
 40
1
 40
1
 10
61.040071
 20
56.418483
 30
0.0
 10
60.073842
 20
56.678661
 30
0.0
 10
59.886617
 20
56.657465
 30
0.0
 10
59.591996
 20
56.254547
 30
0.0
  0
SPLINE
  5
24e
100
AcDbEntity
  8
0
 62
7
100
AcDbSpline
 70
8
 71
3
 72
8
 73
4
 74
0
 40
0
 40
0
 40
0
 40
0
 40
1
 40
1
 40
1
 40
1
 10
59.591996
 20
56.254547
 30
0.0
 10
59.277777
 20
55.824824
 30
0.0
 10
59.176703
 20
55.852721
 30
0.0
 10
58.175843
 20
56.645416
 30
0.0
  0
SPLINE
  5
24f
100
AcDbEntity
  8
0
 62
7
100
AcDbSpline
 70
8
 71
3
 72
8
 73
4
 74
0
 40
0
 40
0
 40
0
 40
0
 40
1
 40
1
 40
1
 40
1
 10
58.175843
 20
56.645416
 30
0.0
 10
57.583062
 20
57.114908
 30
0.0
 10
57.027384
 20
57.721714
 30
0.0
 10
56.941003
 20
57.993878
 30
0.0
  0
SPLINE
  5
250
100
AcDbEntity
  8
0
 62
7
100
AcDbSpline
 70
8
 71
3
 72
8
 73
4
 74
0
 40
0
 40
0
 40
0
 40
0
 40
1
 40
1
 40
1
 40
1
 10
56.941003
 20
57.993878
 30
0.0
 10
56.854622
 20
58.266042
 30
0.0
 10
56.368900
 20
58.805292
 30
0.0
 10
55.861619
 20
59.192210
 30
0.0
  0
LWPOLYLINE
  5
251
100
AcDbEntity
  8
0
 62
7
100
AcDbPolyline
 90
3
 70
0
 10
54.502317
 20
56.419033
 30
0.0
 10
53.058483
 20
56.419033
 30
0.0
 10
53.233111
 20
57.214114
 30
0.0
  0
SPLINE
  5
252
100
AcDbEntity
  8
0
 62
7
100
AcDbSpline
 70
8
 71
3
 72
8
 73
4
 74
0
 40
0
 40
0
 40
0
 40
0
 40
1
 40
1
 40
1
 40
1
 10
56.136577
 20
58.044892
 30
0.0
 10
56.795083
 20
57.026948
 30
0.0
 10
57.333862
 20
56.138371
 30
0.0
 10
57.333862
 20
56.070280
 30
0.0
  0
SPLINE
  5
253
100
AcDbEntity
  8
0
 62
7
100
AcDbSpline
 70
8
 71
3
 72
8
 73
4
 74
0
 40
0
 40
0
 40
0
 40
0
 40
1
 40
1
 40
1
 40
1
 10
57.333862
 20
56.070280
 30
0.0
 10
57.333862
 20
55.729230
 30
0.0
 10
56.538593
 20
55.705182
 30
0.0
 10
56.262476
 20
56.037885
 30
0.0
  0
LWPOLYLINE
  5
254
100
AcDbEntity
  8
0
 62
7
100
AcDbPolyline
 90
3
 70
0
 10
55.861619
 20
59.192210
 30
0.0
 10
54.939292
 20
59.895703
 30
0.0
 10
56.136577
 20
58.044892
 30
0.0
  0
SPLINE
  5
255
100
AcDbEntity
  8
0
 62
7
100
AcDbSpline
 70
8
 71
3
 72
8
 73
4
 74
0
 40
0
 40
0
 40
0
 40
0
 40
1
 40
1
 40
1
 40
1
 10
46.058098
 20
57.102528
 30
0.0
 10
45.108101
 20
57.571193
 30
0.0
 10
44.633862
 20
58.442709
 30
0.0
 10
44.633862
 20
59.719874
 30
0.0
  0
SPLINE
  5
256
100
AcDbEntity
  8
0
 62
7
100
AcDbSpline
 70
8
 71
3
 72
8
 73
4
 74
0
 40
0
 40
0
 40
0
 40
0
 40
1
 40
1
 40
1
 40
1
 10
44.633862
 20
59.719874
 30
0.0
 10
44.633862
 20
61.093686
 30
0.0
 10
45.591550
 20
61.772721
 30
0.0
 10
46.848728
 20
61.290295
 30
0.0
  0
SPLINE
  5
257
100
AcDbEntity
  8
0
 62
7
100
AcDbSpline
 70
8
 71
3
 72
8
 73
4
 74
0
 40
0
 40
0
 40
0
 40
0
 40
1
 40
1
 40
1
 40
1
 10
46.848728
 20
61.290295
 30
0.0
 10
47.180537
 20
61.162970
 30
0.0
 10
47.196589
 20
61.038862
 30
0.0
 10
46.936514
 20
60.611605
 30
0.0
  0
SPLINE
  5
258
100
AcDbEntity
  8
0
 62
7
100
AcDbSpline
 70
8
 71
3
 72
8
 73
4
 74
0
 40
0
 40
0
 40
0
 40
0
 40
1
 40
1
 40
1
 40
1
 10
46.936514
 20
60.611605
 30
0.0
 10
46.666129
 20
60.167414
 30
0.0
 10
46.711515
 20
60.012278
 30
0.0
 10
47.238118
 20
59.580640
 30
0.0
  0
SPLINE
  5
259
100
AcDbEntity
  8
0
 62
7
100
AcDbSpline
 70
8
 71
3
 72
8
 73
4
 74
0
 40
0
 40
0
 40
0
 40
0
 40
1
 40
1
 40
1
 40
1
 10
47.238118
 20
59.580640
 30
0.0
 10
47.713085
 20
59.191329
 30
0.0
 10
47.975965
 20
59.135679
 30
0.0
 10
48.362597
 20
59.342599
 30
0.0
  0
SPLINE
  5
25a
100
AcDbEntity
  8
0
 62
7
100
AcDbSpline
 70
8
 71
3
 72
8
 73
4
 74
0
 40
0
 40
0
 40
0
 40
0
 40
1
 40
1
 40
1
 40
1
 10
48.362597
 20
59.342599
 30
0.0
 10
48.640127
 20
59.491129
 30
0.0
 10
48.882078
 20
59.727523
 30
0.0
 10
48.900268
 20
59.867924
 30
0.0
  0
SPLINE
  5
25b
100
AcDbEntity
  8
0
 62
7
100
AcDbSpline
 70
8
 71
3
 72
8
 73
4
 74
0
 40
0
 40
0
 40
0
 40
0
 40
1
 40
1
 40
1
 40
1
 10
48.900268
 20
59.867924
 30
0.0
 10
48.918445
 20
60.008325
 30
0.0
 10
48.950896
 20
60.272028
 30
0.0
 10
48.972351
 20
60.453929
 30
0.0
  0
SPLINE
  5
25c
100
AcDbEntity
  8
0
 62
7
100
AcDbSpline
 70
8
 71
3
 72
8
 73
4
 74
0
 40
0
 40
0
 40
0
 40
0
 40
1
 40
1
 40
1
 40
1
 10
48.972351
 20
60.453929
 30
0.0
 10
49.020119
 20
60.858887
 30
0.0
 10
49.925835
 20
60.738573
 30
0.0
 10
50.418045
 20
60.261884
 30
0.0
  0
SPLINE
  5
25d
100
AcDbEntity
  8
0
 62
7
100
AcDbSpline
 70
8
 71
3
 72
8
 73
4
 74
0
 40
0
 40
0
 40
0
 40
0
 40
1
 40
1
 40
1
 40
1
 10
50.418045
 20
60.261884
 30
0.0
 10
50.937808
 20
59.758511
 30
0.0
 10
50.372497
 20
58.207040
 30
0.0
 10
49.358399
 20
57.353734
 30
0.0
  0
SPLINE
  5
25e
100
AcDbEntity
  8
0
 62
7
100
AcDbSpline
 70
8
 71
3
 72
8
 73
4
 74
0
 40
0
 40
0
 40
0
 40
0
 40
1
 40
1
 40
1
 40
1
 10
49.358399
 20
57.353734
 30
0.0
 10
48.440692
 20
56.581532
 30
0.0
 10
47.291482
 20
56.494058
 30
0.0
 10
46.058098
 20
57.102528
 30
0.0
  0
LWPOLYLINE
  5
25f
100
AcDbEntity
  8
0
 62
7
100
AcDbPolyline
 90
1
 70
1
 10
56.262476
 20
56.037885
 30
0.0
  0
SPLINE
  5
260
100
AcDbEntity
  8
0
 62
7
100
AcDbSpline
 70
8
 71
3
 72
8
 73
4
 74
0
 40
0
 40
0
 40
0
 40
0
 40
1
 40
1
 40
1
 40
1
 10
67.850364
 20
59.339726
 30
0.0
 10
67.158762
 20
59.620550
 30
0.0
 10
66.234583
 20
59.877619
 30
0.0
 10
65.796634
 20
59.910988
 30
0.0
  0
SPLINE
  5
261
100
AcDbEntity
  8
0
 62
7
100
AcDbSpline
 70
8
 71
3
 72
8
 73
4
 74
0
 40
0
 40
0
 40
0
 40
0
 40
1
 40
1
 40
1
 40
1
 10
65.796634
 20
59.910988
 30
0.0
 10
64.955349
 20
59.975094
 30
0.0
 10
64.856408
 20
60.456778
 30
0.0
 10
65.652817
 20
60.611168
 30
0.0
  0
SPLINE
  5
262
100
AcDbEntity
  8
0
 62
7
100
AcDbSpline
 70
8
 71
3
 72
8
 73
4
 74
0
 40
0
 40
0
 40
0
 40
0
 40
1
 40
1
 40
1
 40
1
 10
65.652817
 20
60.611168
 30
0.0
 10
66.248608
 20
60.726667
 30
0.0
 10
68.110944
 20
60.009095
 30
0.0
 10
68.975528
 20
59.330905
 30
0.0
  0
SPLINE
  5
263
100
AcDbEntity
  8
0
 62
7
100
AcDbSpline
 70
8
 71
3
 72
8
 73
4
 74
0
 40
0
 40
0
 40
0
 40
0
 40
1
 40
1
 40
1
 40
1
 10
68.975528
 20
59.330905
 30
0.0
 10
69.803499
 20
58.681435
 30
0.0
 10
69.465047
 20
58.684089
 30
0.0
 10
67.850364
 20
59.339715
 30
0.0
  0
LWPOLYLINE
  5
264
100
AcDbEntity
  8
0
 62
7
100
AcDbPolyline
 90
1
 70
1
 10
46.058098
 20
57.102528
 30
0.0
  0
SPLINE
  5
265
100
AcDbEntity
  8
0
 62
7
100
AcDbSpline
 70
8
 71
3
 72
8
 73
4
 74
0
 40
0
 40
0
 40
0
 40
0
 40
1
 40
1
 40
1
 40
1
 10
95.496875
 20
68.986741
 30
0.0
 10
95.336289
 20
69.568825
 30
0.0
 10
95.067178
 20
70.580856
 30
0.0
 10
94.898848
 20
71.235700
 30
0.0
  0
SPLINE
  5
266
100
AcDbEntity
  8
0
 62
7
100
AcDbSpline
 70
8
 71
3
 72
8
 73
4
 74
0
 40
0
 40
0
 40
0
 40
0
 40
1
 40
1
 40
1
 40
1
 10
94.898848
 20
71.235700
 30
0.0
 10
94.083264
 20
74.408535
 30
0.0
 10
91.242216
 20
75.184810
 30
0.0
 10
86.272259
 20
73.592791
 30
0.0
  0
SPLINE
  5
267
100
AcDbEntity
  8
0
 62
7
100
AcDbSpline
 70
8
 71
3
 72
8
 73
4
 74
0
 40
0
 40
0
 40
0
 40
0
 40
1
 40
1
 40
1
 40
1
 10
86.272259
 20
73.592791
 30
0.0
 10
83.101820
 20
72.577209
 30
0.0
 10
82.247989
 20
72.706555
 30
0.0
 10
84.609112
 20
73.844740
 30
0.0
  0
SPLINE
  5
268
100
AcDbEntity
  8
0
 62
7
100
AcDbSpline
 70
8
 71
3
 72
8
 73
4
 74
0
 40
0
 40
0
 40
0
 40
0
 40
1
 40
1
 40
1
 40
1
 10
84.609112
 20
73.844740
 30
0.0
 10
86.477843
 20
74.745564
 30
0.0
 10
89.349493
 20
75.462051
 30
0.0
 10
91.068237
 20
75.456309
 30
0.0
  0
SPLINE
  5
269
100
AcDbEntity
  8
0
 62
7
100
AcDbSpline
 70
8
 71
3
 72
8
 73
4
 74
0
 40
0
 40
0
 40
0
 40
0
 40
1
 40
1
 40
1
 40
1
 10
91.068237
 20
75.456309
 30
0.0
 10
91.650320
 20
75.454457
 30
0.0
 10
92.777022
 20
75.188543
 30
0.0
 10
93.572015
 20
74.865592
 30
0.0
  0
SPLINE
  5
26a
100
AcDbEntity
  8
0
 62
7
100
AcDbSpline
 70
8
 71
3
 72
8
 73
4
 74
0
 40
0
 40
0
 40
0
 40
0
 40
1
 40
1
 40
1
 40
1
 10
93.572015
 20
74.865592
 30
0.0
 10
95.976167
 20
73.888952
 30
0.0
 10
96.631559
 20
72.297459
 30
0.0
 10
95.992984
 20
68.986741
 30
0.0
  0
LWPOLYLINE
  5
26b
100
AcDbEntity
  8
0
 62
7
100
AcDbPolyline
 90
1
 70
1
 10
67.850364
 20
59.339715
 30
0.0
  0
SPLINE
  5
26c
100
AcDbEntity
  8
0
 62
7
100
AcDbSpline
 70
8
 71
3
 72
8
 73
4
 74
0
 40
0
 40
0
 40
0
 40
0
 40
1
 40
1
 40
1
 40
1
 10
18.125795
 20
70.706533
 30
0.0
 10
16.395367
 20
77.575511
 30
0.0
 10
16.360146
 20
77.850283
 30
0.0
 10
17.210057
 20
77.850283
 30
0.0
  0
SPLINE
  5
26d
100
AcDbEntity
  8
0
 62
7
100
AcDbSpline
 70
8
 71
3
 72
8
 73
4
 74
0
 40
0
 40
0
 40
0
 40
0
 40
1
 40
1
 40
1
 40
1
 10
17.210057
 20
77.850283
 30
0.0
 10
17.730381
 20
77.850283
 30
0.0
 10
19.812144
 20
75.719104
 30
0.0
 10
19.639662
 20
75.363004
 30
0.0
  0
SPLINE
  5
26e
100
AcDbEntity
  8
0
 62
7
100
AcDbSpline
 70
8
 71
3
 72
8
 73
4
 74
0
 40
0
 40
0
 40
0
 40
0
 40
1
 40
1
 40
1
 40
1
 10
19.639662
 20
75.363004
 30
0.0
 10
19.562181
 20
75.203039
 30
0.0
 10
19.425294
 20
74.863799
 30
0.0
 10
19.335465
 20
74.609137
 30
0.0
  0
SPLINE
  5
26f
100
AcDbEntity
  8
0
 62
7
100
AcDbSpline
 70
8
 71
3
 72
8
 73
4
 74
0
 40
0
 40
0
 40
0
 40
0
 40
1
 40
1
 40
1
 40
1
 10
19.335465
 20
74.609137
 30
0.0
 10
19.085270
 20
73.899816
 30
0.0
 10
18.750651
 20
74.053128
 30
0.0
 10
18.324873
 20
75.072158
 30
0.0
  0
SPLINE
  5
270
100
AcDbEntity
  8
0
 62
7
100
AcDbSpline
 70
8
 71
3
 72
8
 73
4
 74
0
 40
0
 40
0
 40
0
 40
0
 40
1
 40
1
 40
1
 40
1
 10
18.324873
 20
75.072158
 30
0.0
 10
18.112063
 20
75.581481
 30
0.0
 10
17.812809
 20
75.998200
 30
0.0
 10
17.659864
 20
75.998200
 30
0.0
  0
SPLINE
  5
271
100
AcDbEntity
  8
0
 62
7
100
AcDbSpline
 70
8
 71
3
 72
8
 73
4
 74
0
 40
0
 40
0
 40
0
 40
0
 40
1
 40
1
 40
1
 40
1
 10
17.659864
 20
75.998200
 30
0.0
 10
17.290895
 20
75.998200
 30
0.0
 10
17.272504
 20
76.093812
 30
0.0
 10
18.153185
 20
73.433567
 30
0.0
  0
SPLINE
  5
272
100
AcDbEntity
  8
0
 62
7
100
AcDbSpline
 70
8
 71
3
 72
8
 73
4
 74
0
 40
0
 40
0
 40
0
 40
0
 40
1
 40
1
 40
1
 40
1
 10
18.153185
 20
73.433567
 30
0.0
 10
18.746114
 20
71.642523
 30
0.0
 10
18.882303
 20
70.858547
 30
0.0
 10
18.741817
 20
70.045075
 30
0.0
  0
LWPOLYLINE
  5
273
100
AcDbEntity
  8
0
 62
7
100
AcDbPolyline
 90
3
 70
0
 10
95.992984
 20
68.986741
 30
0.0
 10
95.788850
 20
67.928408
 30
0.0
 10
95.496875
 20
68.986741
 30
0.0
  0
SPLINE
  5
274
100
AcDbEntity
  8
0
 62
7
100
AcDbSpline
 70
8
 71
3
 72
8
 73
4
 74
0
 40
0
 40
0
 40
0
 40
0
 40
1
 40
1
 40
1
 40
1
 10
51.909903
 20
71.528120
 30
0.0
 10
48.715673
 20
73.777295
 30
0.0
 10
47.703531
 20
74.165031
 30
0.0
 10
44.868788
 20
74.225460
 30
0.0
  0
SPLINE
  5
275
100
AcDbEntity
  8
0
 62
7
100
AcDbSpline
 70
8
 71
3
 72
8
 73
4
 74
0
 40
0
 40
0
 40
0
 40
0
 40
1
 40
1
 40
1
 40
1
 10
44.868788
 20
74.225460
 30
0.0
 10
43.502651
 20
74.254582
 30
0.0
 10
42.057481
 20
74.186844
 30
0.0
 10
41.657299
 20
74.074930
 30
0.0
  0
SPLINE
  5
276
100
AcDbEntity
  8
0
 62
7
100
AcDbSpline
 70
8
 71
3
 72
8
 73
4
 74
0
 40
0
 40
0
 40
0
 40
0
 40
1
 40
1
 40
1
 40
1
 10
41.657299
 20
74.074930
 30
0.0
 10
40.633195
 20
73.788532
 30
0.0
 10
40.747119
 20
74.241448
 30
0.0
 10
41.789591
 20
74.600864
 30
0.0
  0
SPLINE
  5
277
100
AcDbEntity
  8
0
 62
7
100
AcDbSpline
 70
8
 71
3
 72
8
 73
4
 74
0
 40
0
 40
0
 40
0
 40
0
 40
1
 40
1
 40
1
 40
1
 10
41.789591
 20
74.600864
 30
0.0
 10
43.384520
 20
75.150755
 30
0.0
 10
44.893005
 20
75.253178
 30
0.0
 10
46.759659
 20
74.938326
 30
0.0
  0
SPLINE
  5
278
100
AcDbEntity
  8
0
 62
7
100
AcDbSpline
 70
8
 71
3
 72
8
 73
4
 74
0
 40
0
 40
0
 40
0
 40
0
 40
1
 40
1
 40
1
 40
1
 10
46.759659
 20
74.938326
 30
0.0
 10
48.334359
 20
74.672719
 30
0.0
 10
48.927996
 20
74.403892
 30
0.0
 10
50.660340
 20
73.171920
 30
0.0
  0
SPLINE
  5
279
100
AcDbEntity
  8
0
 62
7
100
AcDbSpline
 70
8
 71
3
 72
8
 73
4
 74
0
 40
0
 40
0
 40
0
 40
0
 40
1
 40
1
 40
1
 40
1
 10
50.660340
 20
73.171920
 30
0.0
 10
52.827910
 20
71.630437
 30
0.0
 10
54.075182
 20
70.533837
 30
0.0
 10
53.880247
 20
70.340993
 30
0.0
  0
SPLINE
  5
27a
100
AcDbEntity
  8
0
 62
7
100
AcDbSpline
 70
8
 71
3
 72
8
 73
4
 74
0
 40
0
 40
0
 40
0
 40
0
 40
1
 40
1
 40
1
 40
1
 10
53.880247
 20
70.340993
 30
0.0
 10
53.815205
 20
70.276646
 30
0.0
 10
52.928549
 20
70.810856
 30
0.0
 10
51.909903
 20
71.528120
 30
0.0
  0
LWPOLYLINE
  5
27b
100
AcDbEntity
  8
0
 62
7
100
AcDbPolyline
 90
3
 70
0
 10
18.741817
 20
70.045075
 30
0.0
 10
18.559045
 20
68.986741
 30
0.0
 10
18.125795
 20
70.706533
 30
0.0
  0
LWPOLYLINE
  5
27c
100
AcDbEntity
  8
0
 62
7
100
AcDbPolyline
 90
1
 70
1
 10
51.909903
 20
71.528120
 30
0.0
  0
ENDSEC
  0
SECTION
  2
OBJECTS
  0
DICTIONARY
  5
C
330
0
100
AcDbDictionary
  3
ACAD_GROUP
350
D
  3
ACAD_MLINESTYLE
350
17
  0
DICTIONARY
  5
D
330
C
100
AcDbDictionary
  0
DICTIONARY
  5
1A
330
C
100
AcDbDictionary
  0
DICTIONARY
  5
17
330
C
100
AcDbDictionary
  3
STANDARD
350
18
  0
DICTIONARY
  5
19
330
C
100
AcDbDictionary
  0
ENDSEC
  0
EOF
