0
SECTION
2
HEADER
9
$ACADVER
1
AC1003
9
$INSBASE
10
0.0
20
0.0
30
0.0
9
$EXTMIN
10
0.000
20
0.000
30
0.0
9
$EXTMAX
10
741.000
20
721.000
30
0.0
9
$LIMMIN
10
0.000
20
0.000
9
$LIMMAX
10
741.000
20
721.000
9
$LTSCALE
40
1.0
9
$LUNITS
70
2
9
$LUPREC
70
3
9
$LIMCHECK
70
0
9
$UCSNAME
2

9
$UCSORG
10
0.0
20
0.0
30
0.0
9
$UCSXDIR
10
1.0
20
0.0
30
0.0
9
$UCSYDIR
10
0.0
20
1.0
30
0.0
9
$WORLDVIEW
70
1
9
$UNITMODE
70
0
0
ENDSEC
0
SECTION
2
TABLES
0
TABLE
2
VPORT
70
1
0
VPORT
2
*ACTIVE
70
0
10
0.0
20
0.0
11
1.0
21
1.0
12
370.500
22
360.500
13
0.0
23
0.0
14
1.0
24
1.0
15
0.0
25
0.0
16
0.0
26
0.0
36
1.0
17
0.0
27
0.0
37
0.0
40
500.0
41
0.973
42
50.0
43
0.0
44
0.0
50
0.0
51
0.0
71
0
72
100
73
1
74
1
75
0
76
0
77
0
78
0
0
ENDTAB
0
TABLE
2
LTYPE
70
1
0
LTYPE
2
CONTINUOUS
70
64
3
Solid line
72
65
73
0
40
0.000
0
ENDTAB
0
TABLE
2
LAYER
70
1
0
LAYER
2
0
70
64
62
7
6
CONTINUOUS
0
ENDTAB
0
ENDSEC
0
SECTION
2
BLOCKS
0
ENDSEC
0
SECTION
2
ENTITIES
0
POLYLINE
8
0
6
CONTINUOUS
66
1
62
7
10
0.0
20
0.0
30
0.000000
0
VERTEX
8
0
10
74.000000
20
552.000000
0
VERTEX
8
0
10
78.000000
20
555.000000
0
VERTEX
8
0
10
79.000000
20
561.000000
0
VERTEX
8
0
10
75.000000
20
566.000000
0
VERTEX
8
0
10
69.000000
20
566.000000
0
VERTEX
8
0
10
66.000000
20
564.000000
0
VERTEX
8
0
10
65.800000
20
563.100000
0
VERTEX
8
0
10
65.000000
20
562.000000
0
VERTEX
8
0
10
65.000000
20
556.000000
0
VERTEX
8
0
10
68.000000
20
553.000000
0
VERTEX
8
0
10
70.076923
20
552.384615
0
VERTEX
8
0
10
74.000000
20
552.000000
0
SEQEND
0
POLYLINE
8
0
6
CONTINUOUS
66
1
62
7
10
0.0
20
0.0
30
0.000000
0
VERTEX
8
0
10
669.000000
20
552.000000
0
VERTEX
8
0
10
674.000000
20
556.000000
0
VERTEX
8
0
10
674.300000
20
560.100000
0
VERTEX
8
0
10
674.000000
20
562.000000
0
VERTEX
8
0
10
670.000000
20
566.000000
0
VERTEX
8
0
10
664.000000
20
566.000000
0
VERTEX
8
0
10
660.800000
20
562.100000
0
VERTEX
8
0
10
660.000000
20
561.000000
0
VERTEX
8
0
10
660.000000
20
557.000000
0
VERTEX
8
0
10
663.000000
20
553.000000
0
VERTEX
8
0
10
669.000000
20
552.000000
0
SEQEND
0
POLYLINE
8
0
6
CONTINUOUS
66
1
62
7
10
0.0
20
0.0
30
0.000000
0
VERTEX
8
0
10
379.000000
20
489.000000
0
VERTEX
8
0
10
465.044554
20
494.554455
0
VERTEX
8
0
10
473.955446
20
495.445545
0
VERTEX
8
0
10
526.923077
20
504.384615
0
VERTEX
8
0
10
552.911765
20
510.352941
0
VERTEX
8
0
10
588.900000
20
522.200000
0
VERTEX
8
0
10
604.100000
20
529.800000
0
VERTEX
8
0
10
615.820000
20
536.240000
0
VERTEX
8
0
10
619.180000
20
538.760000
0
VERTEX
8
0
10
629.000000
20
548.000000
0
VERTEX
8
0
10
633.647059
20
558.088235
0
VERTEX
8
0
10
635.000000
20
562.000000
0
VERTEX
8
0
10
634.352941
20
565.088235
0
VERTEX
8
0
10
633.300000
20
569.100000
0
VERTEX
8
0
10
629.754098
20
576.795082
0
VERTEX
8
0
10
621.000000
20
587.000000
0
VERTEX
8
0
10
598.900000
20
599.800000
0
VERTEX
8
0
10
586.900000
20
605.700000
0
VERTEX
8
0
10
550.088235
20
617.352941
0
VERTEX
8
0
10
523.076923
20
623.384615
0
VERTEX
8
0
10
473.955446
20
631.554455
0
VERTEX
8
0
10
465.044554
20
632.445545
0
VERTEX
8
0
10
379.000000
20
638.000000
0
VERTEX
8
0
10
353.000000
20
638.000000
0
VERTEX
8
0
10
306.023691
20
635.526185
0
VERTEX
8
0
10
281.035294
20
633.541176
0
VERTEX
8
0
10
251.940000
20
630.420000
0
VERTEX
8
0
10
234.067568
20
627.594595
0
VERTEX
8
0
10
204.911765
20
622.352941
0
VERTEX
8
0
10
171.900000
20
614.300000
0
VERTEX
8
0
10
142.100000
20
603.800000
0
VERTEX
8
0
10
126.900000
20
596.200000
0
VERTEX
8
0
10
111.000000
20
587.000000
0
VERTEX
8
0
10
105.240000
20
579.820000
0
VERTEX
8
0
10
99.352941
20
568.911765
0
VERTEX
8
0
10
98.000000
20
565.000000
0
VERTEX
8
0
10
98.647059
20
560.911765
0
VERTEX
8
0
10
100.800000
20
553.900000
0
VERTEX
8
0
10
103.243902
20
549.195122
0
VERTEX
8
0
10
107.000000
20
544.000000
0
VERTEX
8
0
10
112.820000
20
538.760000
0
VERTEX
8
0
10
116.180000
20
536.240000
0
VERTEX
8
0
10
131.100000
20
528.200000
0
VERTEX
8
0
10
146.100000
20
521.300000
0
VERTEX
8
0
10
182.911765
20
509.647059
0
VERTEX
8
0
10
209.923077
20
503.615385
0
VERTEX
8
0
10
259.044554
20
495.445545
0
VERTEX
8
0
10
279.962069
20
493.544828
0
VERTEX
8
0
10
326.017808
20
490.480822
0
VERTEX
8
0
10
379.000000
20
489.000000
0
SEQEND
0
POLYLINE
8
0
6
CONTINUOUS
66
1
62
7
10
0.0
20
0.0
30
0.000000
0
VERTEX
8
0
10
409.000000
20
366.000000
0
VERTEX
8
0
10
409.000000
20
369.000000
0
SEQEND
0
POLYLINE
8
0
6
CONTINUOUS
66
1
62
7
10
0.0
20
0.0
30
0.000000
0
VERTEX
8
0
10
552.000000
20
314.000000
0
VERTEX
8
0
10
552.700000
20
315.100000
0
VERTEX
8
0
10
552.750000
20
317.750000
0
VERTEX
8
0
10
551.250000
20
317.750000
0
VERTEX
8
0
10
551.000000
20
317.000000
0
VERTEX
8
0
10
552.000000
20
314.000000
0
SEQEND
0
POLYLINE
8
0
6
CONTINUOUS
66
1
62
7
10
0.0
20
0.0
30
0.000000
0
VERTEX
8
0
10
551.000000
20
313.000000
0
VERTEX
8
0
10
552.000000
20
314.000000
0
SEQEND
0
POLYLINE
8
0
6
CONTINUOUS
66
1
62
7
10
0.0
20
0.0
30
0.000000
0
VERTEX
8
0
10
496.000000
20
311.000000
0
VERTEX
8
0
10
494.000000
20
313.000000
0
SEQEND
0
POLYLINE
8
0
6
CONTINUOUS
66
1
62
7
10
0.0
20
0.0
30
0.000000
0
VERTEX
8
0
10
494.000000
20
313.000000
0
VERTEX
8
0
10
492.800000
20
316.900000
0
VERTEX
8
0
10
482.352941
20
339.088235
0
VERTEX
8
0
10
481.000000
20
343.000000
0
VERTEX
8
0
10
481.647059
20
349.088235
0
VERTEX
8
0
10
482.000000
20
352.000000
0
VERTEX
8
0
10
483.000000
20
353.000000
0
VERTEX
8
0
10
486.000000
20
351.500000
0
VERTEX
8
0
10
489.900000
20
353.200000
0
VERTEX
8
0
10
491.000000
20
354.000000
0
VERTEX
8
0
10
494.000000
20
348.000000
0
VERTEX
8
0
10
496.000000
20
347.000000
0
VERTEX
8
0
10
497.000000
20
349.000000
0
VERTEX
8
0
10
501.000000
20
353.000000
0
VERTEX
8
0
10
502.230769
20
351.153846
0
VERTEX
8
0
10
510.000000
20
341.000000
0
VERTEX
8
0
10
513.200000
20
345.900000
0
VERTEX
8
0
10
514.000000
20
348.000000
0
VERTEX
8
0
10
516.000000
20
350.000000
0
VERTEX
8
0
10
518.000000
20
349.000000
0
VERTEX
8
0
10
519.580000
20
340.940000
0
VERTEX
8
0
10
520.000000
20
335.000000
0
VERTEX
8
0
10
521.000000
20
334.000000
0
VERTEX
8
0
10
524.230769
20
337.846154
0
VERTEX
8
0
10
528.000000
20
343.000000
0
VERTEX
8
0
10
529.000000
20
342.000000
0
VERTEX
8
0
10
529.526185
20
335.976309
0
VERTEX
8
0
10
530.473815
20
317.023691
0
VERTEX
8
0
10
533.000000
20
312.000000
0
VERTEX
8
0
10
536.000000
20
314.000000
0
VERTEX
8
0
10
547.230769
20
328.846154
0
VERTEX
8
0
10
549.230769
20
331.846154
0
VERTEX
8
0
10
552.000000
20
336.000000
0
VERTEX
8
0
10
552.900000
20
336.200000
0
VERTEX
8
0
10
554.000000
20
337.000000
0
VERTEX
8
0
10
555.000000
20
336.000000
0
VERTEX
8
0
10
555.000000
20
334.000000
0
VERTEX
8
0
10
543.000000
20
312.000000
0
VERTEX
8
0
10
543.000000
20
310.000000
0
VERTEX
8
0
10
545.000000
20
308.000000
0
VERTEX
8
0
10
551.000000
20
313.000000
0
SEQEND
0
POLYLINE
8
0
6
CONTINUOUS
66
1
62
7
10
0.0
20
0.0
30
0.000000
0
VERTEX
8
0
10
468.000000
20
300.000000
0
VERTEX
8
0
10
467.000000
20
300.000000
0
VERTEX
8
0
10
463.700000
20
306.900000
0
VERTEX
8
0
10
463.000000
20
308.000000
0
VERTEX
8
0
10
467.700000
20
321.100000
0
VERTEX
8
0
10
471.300000
20
330.900000
0
VERTEX
8
0
10
473.000000
20
334.000000
0
VERTEX
8
0
10
472.000000
20
335.000000
0
VERTEX
8
0
10
469.900000
20
334.200000
0
VERTEX
8
0
10
469.000000
20
334.000000
0
VERTEX
8
0
10
458.760000
20
322.180000
0
VERTEX
8
0
10
455.200000
20
316.900000
0
VERTEX
8
0
10
455.000000
20
316.000000
0
VERTEX
8
0
10
453.000000
20
314.000000
0
VERTEX
8
0
10
450.000000
20
317.000000
0
VERTEX
8
0
10
448.000000
20
324.000000
0
VERTEX
8
0
10
448.615385
20
331.076923
0
VERTEX
8
0
10
451.352941
20
342.911765
0
VERTEX
8
0
10
453.750000
20
354.750000
0
VERTEX
8
0
10
452.000000
20
355.000000
0
VERTEX
8
0
10
450.769231
20
353.153846
0
VERTEX
8
0
10
448.769231
20
350.153846
0
VERTEX
8
0
10
440.000000
20
336.000000
0
VERTEX
8
0
10
438.000000
20
336.000000
0
VERTEX
8
0
10
437.000000
20
337.000000
0
VERTEX
8
0
10
436.464602
20
344.030973
0
VERTEX
8
0
10
436.000000
20
358.000000
0
VERTEX
8
0
10
435.000000
20
359.000000
0
VERTEX
8
0
10
430.000000
20
351.000000
0
VERTEX
8
0
10
429.000000
20
351.000000
0
VERTEX
8
0
10
427.000000
20
353.000000
0
VERTEX
8
0
10
426.647059
20
355.911765
0
VERTEX
8
0
10
425.000000
20
360.000000
0
VERTEX
8
0
10
421.000000
20
358.000000
0
VERTEX
8
0
10
419.430769
20
361.053846
0
VERTEX
8
0
10
419.000000
20
368.000000
0
VERTEX
8
0
10
417.000000
20
370.000000
0
VERTEX
8
0
10
415.769231
20
368.153846
0
VERTEX
8
0
10
413.000000
20
364.000000
0
VERTEX
8
0
10
409.000000
20
366.000000
0
SEQEND
0
POLYLINE
8
0
6
CONTINUOUS
66
1
62
7
10
0.0
20
0.0
30
0.000000
0
VERTEX
8
0
10
468.000000
20
300.000000
0
VERTEX
8
0
10
468.700000
20
304.100000
0
VERTEX
8
0
10
470.000000
20
309.000000
0
VERTEX
8
0
10
472.000000
20
311.000000
0
VERTEX
8
0
10
478.000000
20
305.000000
0
VERTEX
8
0
10
479.000000
20
305.000000
0
VERTEX
8
0
10
482.000000
20
312.000000
0
VERTEX
8
0
10
483.000000
20
313.000000
0
VERTEX
8
0
10
485.000000
20
313.000000
0
VERTEX
8
0
10
487.000000
20
311.000000
0
VERTEX
8
0
10
489.000000
20
313.000000
0
VERTEX
8
0
10
489.000000
20
315.000000
0
VERTEX
8
0
10
490.000000
20
316.000000
0
VERTEX
8
0
10
494.000000
20
313.000000
0
SEQEND
0
POLYLINE
8
0
6
CONTINUOUS
66
1
62
7
10
0.0
20
0.0
30
0.000000
0
VERTEX
8
0
10
468.000000
20
298.000000
0
VERTEX
8
0
10
468.000000
20
300.000000
0
SEQEND
0
POLYLINE
8
0
6
CONTINUOUS
66
1
62
7
10
0.0
20
0.0
30
0.000000
0
VERTEX
8
0
10
507.000000
20
292.000000
0
VERTEX
8
0
10
509.000000
20
294.000000
0
VERTEX
8
0
10
507.750000
20
297.750000
0
VERTEX
8
0
10
501.000000
20
299.000000
0
VERTEX
8
0
10
499.000000
20
297.000000
0
VERTEX
8
0
10
499.000000
20
295.000000
0
VERTEX
8
0
10
502.000000
20
292.000000
0
VERTEX
8
0
10
507.000000
20
292.000000
0
SEQEND
0
POLYLINE
8
0
6
CONTINUOUS
66
1
62
7
10
0.0
20
0.0
30
0.000000
0
VERTEX
8
0
10
127.000000
20
204.000000
0
VERTEX
8
0
10
126.000000
20
204.000000
0
SEQEND
0
POLYLINE
8
0
6
CONTINUOUS
66
1
62
7
10
0.0
20
0.0
30
0.000000
0
VERTEX
8
0
10
126.000000
20
204.000000
0
VERTEX
8
0
10
124.959016
20
204.549180
0
VERTEX
8
0
10
115.000000
20
205.000000
0
VERTEX
8
0
10
113.000000
20
207.000000
0
VERTEX
8
0
10
114.240000
20
208.820000
0
VERTEX
8
0
10
117.000000
20
213.000000
0
VERTEX
8
0
10
125.180000
20
219.760000
0
VERTEX
8
0
10
126.000000
20
220.000000
0
VERTEX
8
0
10
129.230769
20
223.846154
0
VERTEX
8
0
10
131.000000
20
226.000000
0
VERTEX
8
0
10
127.900000
20
227.700000
0
VERTEX
8
0
10
126.000000
20
228.000000
0
VERTEX
8
0
10
123.000000
20
231.000000
0
VERTEX
8
0
10
124.000000
20
235.000000
0
VERTEX
8
0
10
125.900000
20
236.200000
0
VERTEX
8
0
10
133.000000
20
241.000000
0
VERTEX
8
0
10
133.200000
20
241.900000
0
VERTEX
8
0
10
135.411765
20
246.647059
0
VERTEX
8
0
10
132.000000
20
251.000000
0
VERTEX
8
0
10
132.000000
20
254.000000
0
VERTEX
8
0
10
139.200000
20
268.900000
0
VERTEX
8
0
10
143.000000
20
277.000000
0
VERTEX
8
0
10
155.769231
20
256.846154
0
VERTEX
8
0
10
158.000000
20
252.000000
0
VERTEX
8
0
10
155.000000
20
247.000000
0
VERTEX
8
0
10
155.000000
20
244.000000
0
VERTEX
8
0
10
158.200000
20
238.100000
0
VERTEX
8
0
10
159.411765
20
234.352941
0
VERTEX
8
0
10
156.000000
20
230.000000
0
VERTEX
8
0
10
168.000000
20
221.000000
0
VERTEX
8
0
10
170.000000
20
217.000000
0
VERTEX
8
0
10
168.100000
20
215.800000
0
VERTEX
8
0
10
164.000000
20
215.000000
0
VERTEX
8
0
10
163.000000
20
214.000000
0
VERTEX
8
0
10
163.800000
20
212.900000
0
VERTEX
8
0
10
170.000000
20
204.000000
0
VERTEX
8
0
10
168.000000
20
202.000000
0
VERTEX
8
0
10
160.900000
20
201.300000
0
VERTEX
8
0
10
158.000000
20
200.000000
0
VERTEX
8
0
10
160.000000
20
199.000000
0
VERTEX
8
0
10
163.000000
20
196.000000
0
VERTEX
8
0
10
165.000000
20
188.000000
0
VERTEX
8
0
10
167.000000
20
187.000000
0
VERTEX
8
0
10
170.000000
20
184.000000
0
VERTEX
8
0
10
170.420000
20
178.060000
0
VERTEX
8
0
10
171.441176
20
175.264706
0
VERTEX
8
0
10
181.243902
20
163.195122
0
VERTEX
8
0
10
184.756098
20
158.804878
0
VERTEX
8
0
10
187.000000
20
154.000000
0
VERTEX
8
0
10
185.000000
20
152.000000
0
VERTEX
8
0
10
178.000000
20
152.000000
0
VERTEX
8
0
10
177.000000
20
153.000000
0
VERTEX
8
0
10
173.000000
20
153.000000
0
VERTEX
8
0
10
169.000000
20
151.000000
0
VERTEX
8
0
10
168.000000
20
149.000000
0
VERTEX
8
0
10
172.060000
20
147.420000
0
VERTEX
8
0
10
197.000000
20
144.000000
0
VERTEX
8
0
10
206.000000
20
144.000000
0
VERTEX
8
0
10
209.911765
20
145.352941
0
VERTEX
8
0
10
214.000000
20
147.000000
0
VERTEX
8
0
10
215.769231
20
150.153846
0
VERTEX
8
0
10
218.647059
20
159.088235
0
VERTEX
8
0
10
225.800000
20
189.100000
0
VERTEX
8
0
10
231.000000
20
196.000000
0
VERTEX
8
0
10
240.100000
20
201.800000
0
VERTEX
8
0
10
245.000000
20
206.000000
0
VERTEX
8
0
10
250.200000
20
213.900000
0
VERTEX
8
0
10
253.647059
20
222.088235
0
VERTEX
8
0
10
255.352941
20
228.911765
0
VERTEX
8
0
10
259.240000
20
262.820000
0
VERTEX
8
0
10
261.760000
20
266.180000
0
VERTEX
8
0
10
267.000000
20
272.000000
0
VERTEX
8
0
10
278.900000
20
279.200000
0
VERTEX
8
0
10
280.900000
20
280.200000
0
VERTEX
8
0
10
288.008470
20
283.508767
0
VERTEX
8
0
10
344.991530
20
284.491233
0
VERTEX
8
0
10
364.976309
20
285.473815
0
VERTEX
8
0
10
373.900000
20
289.200000
0
VERTEX
8
0
10
385.900000
20
295.200000
0
VERTEX
8
0
10
395.911765
20
299.352941
0
VERTEX
8
0
10
399.911765
20
300.352941
0
VERTEX
8
0
10
401.000000
20
301.000000
0
VERTEX
8
0
10
416.000000
20
301.000000
0
VERTEX
8
0
10
421.932432
20
299.594595
0
VERTEX
8
0
10
436.000000
20
298.000000
0
VERTEX
8
0
10
437.000000
20
299.000000
0
VERTEX
8
0
10
432.000000
20
305.000000
0
VERTEX
8
0
10
431.000000
20
305.000000
0
VERTEX
8
0
10
417.760000
20
318.820000
0
VERTEX
8
0
10
415.240000
20
322.180000
0
VERTEX
8
0
10
413.352941
20
326.088235
0
VERTEX
8
0
10
412.647059
20
328.911765
0
VERTEX
8
0
10
410.560976
20
341.951220
0
VERTEX
8
0
10
409.000000
20
366.000000
0
SEQEND
0
POLYLINE
8
0
6
CONTINUOUS
66
1
62
7
10
0.0
20
0.0
30
0.000000
0
VERTEX
8
0
10
302.000000
20
144.000000
0
VERTEX
8
0
10
302.500000
20
145.000000
0
VERTEX
8
0
10
289.800000
20
167.900000
0
VERTEX
8
0
10
286.000000
20
177.000000
0
VERTEX
8
0
10
286.000000
20
183.000000
0
VERTEX
8
0
10
288.300000
20
190.900000
0
VERTEX
8
0
10
288.700000
20
192.100000
0
VERTEX
8
0
10
293.200000
20
202.900000
0
VERTEX
8
0
10
294.000000
20
204.000000
0
VERTEX
8
0
10
294.000000
20
208.000000
0
VERTEX
8
0
10
292.000000
20
210.000000
0
VERTEX
8
0
10
285.076923
20
208.615385
0
VERTEX
8
0
10
279.100000
20
205.800000
0
VERTEX
8
0
10
277.100000
20
204.800000
0
VERTEX
8
0
10
253.204918
20
189.754098
0
VERTEX
8
0
10
247.000000
20
185.000000
0
VERTEX
8
0
10
237.769231
20
174.153846
0
VERTEX
8
0
10
235.800000
20
171.100000
0
VERTEX
8
0
10
233.000000
20
162.000000
0
VERTEX
8
0
10
233.000000
20
154.000000
0
VERTEX
8
0
10
237.000000
20
150.000000
0
VERTEX
8
0
10
244.037931
20
148.455172
0
VERTEX
8
0
10
278.980069
20
146.521664
0
VERTEX
8
0
10
296.900000
20
144.700000
0
VERTEX
8
0
10
302.000000
20
144.000000
0
SEQEND
0
POLYLINE
8
0
6
CONTINUOUS
66
1
62
7
10
0.0
20
0.0
30
0.000000
0
VERTEX
8
0
10
138.000000
20
140.000000
0
VERTEX
8
0
10
140.000000
20
141.000000
0
VERTEX
8
0
10
141.300000
20
143.900000
0
VERTEX
8
0
10
142.000000
20
145.000000
0
VERTEX
8
0
10
140.000000
20
147.000000
0
VERTEX
8
0
10
137.000000
20
147.000000
0
VERTEX
8
0
10
136.000000
20
146.000000
0
VERTEX
8
0
10
136.000000
20
141.000000
0
VERTEX
8
0
10
138.000000
20
140.000000
0
SEQEND
0
POLYLINE
8
0
6
CONTINUOUS
66
1
62
7
10
0.0
20
0.0
30
0.000000
0
VERTEX
8
0
10
391.000000
20
140.000000
0
VERTEX
8
0
10
400.955446
20
141.445545
0
VERTEX
8
0
10
442.011891
20
143.512485
0
VERTEX
8
0
10
482.750000
20
144.250000
0
VERTEX
8
0
10
482.700000
20
146.900000
0
VERTEX
8
0
10
473.230769
20
161.153846
0
VERTEX
8
0
10
458.000000
20
181.000000
0
VERTEX
8
0
10
454.000000
20
185.000000
0
VERTEX
8
0
10
424.846154
20
203.769231
0
VERTEX
8
0
10
411.911765
20
209.647059
0
VERTEX
8
0
10
406.000000
20
211.000000
0
VERTEX
8
0
10
404.180000
20
209.760000
0
VERTEX
8
0
10
400.000000
20
207.000000
0
VERTEX
8
0
10
389.800000
20
194.100000
0
VERTEX
8
0
10
386.800000
20
188.100000
0
VERTEX
8
0
10
381.352941
20
175.911765
0
VERTEX
8
0
10
377.700000
20
163.100000
0
VERTEX
8
0
10
375.000000
20
156.000000
0
VERTEX
8
0
10
375.000000
20
144.000000
0
VERTEX
8
0
10
376.000000
20
142.000000
0
VERTEX
8
0
10
377.000000
20
141.000000
0
VERTEX
8
0
10
391.000000
20
140.000000
0
SEQEND
0
POLYLINE
8
0
6
CONTINUOUS
66
1
62
7
10
0.0
20
0.0
30
0.000000
0
VERTEX
8
0
10
354.000000
20
139.000000
0
VERTEX
8
0
10
357.200000
20
143.900000
0
VERTEX
8
0
10
359.569231
20
152.053846
0
VERTEX
8
0
10
361.560976
20
168.048780
0
VERTEX
8
0
10
366.000000
20
202.000000
0
VERTEX
8
0
10
363.000000
20
205.000000
0
VERTEX
8
0
10
340.000000
20
211.000000
0
VERTEX
8
0
10
334.000000
20
211.000000
0
VERTEX
8
0
10
308.000000
20
178.000000
0
VERTEX
8
0
10
309.384615
20
170.076923
0
VERTEX
8
0
10
314.200000
20
161.100000
0
VERTEX
8
0
10
315.230769
20
159.153846
0
VERTEX
8
0
10
324.000000
20
145.000000
0
VERTEX
8
0
10
326.900000
20
143.800000
0
VERTEX
8
0
10
348.932432
20
139.594595
0
VERTEX
8
0
10
354.000000
20
139.000000
0
SEQEND
0
POLYLINE
8
0
6
CONTINUOUS
66
1
62
7
10
0.0
20
0.0
30
0.000000
0
VERTEX
8
0
10
653.000000
20
139.000000
0
VERTEX
8
0
10
652.000000
20
139.000000
0
VERTEX
8
0
10
651.000000
20
141.000000
0
VERTEX
8
0
10
646.100000
20
144.200000
0
VERTEX
8
0
10
642.900000
20
145.800000
0
VERTEX
8
0
10
640.000000
20
147.000000
0
VERTEX
8
0
10
632.243902
20
156.195122
0
VERTEX
8
0
10
632.000000
20
157.000000
0
VERTEX
8
0
10
629.000000
20
159.000000
0
VERTEX
8
0
10
624.000000
20
159.000000
0
VERTEX
8
0
10
622.000000
20
157.000000
0
VERTEX
8
0
10
622.000000
20
149.000000
0
VERTEX
8
0
10
621.000000
20
148.000000
0
VERTEX
8
0
10
613.230769
20
162.153846
0
VERTEX
8
0
10
613.000000
20
163.000000
0
VERTEX
8
0
10
611.100000
20
164.200000
0
VERTEX
8
0
10
610.000000
20
165.000000
0
VERTEX
8
0
10
605.900000
20
164.300000
0
VERTEX
8
0
10
604.100000
20
163.700000
0
VERTEX
8
0
10
603.000000
20
163.000000
0
VERTEX
8
0
10
597.000000
20
163.000000
0
VERTEX
8
0
10
587.088235
20
166.352941
0
VERTEX
8
0
10
586.000000
20
167.000000
0
VERTEX
8
0
10
573.000000
20
167.000000
0
VERTEX
8
0
10
564.180000
20
163.760000
0
VERTEX
8
0
10
560.820000
20
161.240000
0
VERTEX
8
0
10
549.100000
20
153.800000
0
VERTEX
8
0
10
534.100000
20
148.700000
0
VERTEX
8
0
10
523.000000
20
147.000000
0
VERTEX
8
0
10
505.000000
20
148.000000
0
VERTEX
8
0
10
494.760000
20
159.820000
0
VERTEX
8
0
10
489.240000
20
167.180000
0
VERTEX
8
0
10
473.800000
20
188.900000
0
VERTEX
8
0
10
467.230769
20
199.153846
0
VERTEX
8
0
10
458.754098
20
211.795082
0
VERTEX
8
0
10
453.756098
20
217.804878
0
VERTEX
8
0
10
448.000000
20
225.000000
0
VERTEX
8
0
10
448.000000
20
228.000000
0
VERTEX
8
0
10
453.000000
20
233.000000
0
VERTEX
8
0
10
457.100000
20
234.800000
0
VERTEX
8
0
10
460.153846
20
236.769231
0
VERTEX
8
0
10
470.100000
20
240.800000
0
VERTEX
8
0
10
471.000000
20
241.000000
0
VERTEX
8
0
10
472.000000
20
240.000000
0
VERTEX
8
0
10
472.647059
20
237.911765
0
VERTEX
8
0
10
477.000000
20
226.000000
0
VERTEX
8
0
10
479.000000
20
224.000000
0
VERTEX
8
0
10
483.000000
20
224.000000
0
VERTEX
8
0
10
497.000000
20
231.000000
0
VERTEX
8
0
10
498.800000
20
234.100000
0
VERTEX
8
0
10
501.000000
20
240.000000
0
VERTEX
8
0
10
505.000000
20
243.000000
0
VERTEX
8
0
10
509.100000
20
242.300000
0
VERTEX
8
0
10
517.911765
20
239.647059
0
VERTEX
8
0
10
519.000000
20
239.000000
0
VERTEX
8
0
10
526.000000
20
239.000000
0
VERTEX
8
0
10
530.000000
20
241.000000
0
VERTEX
8
0
10
534.000000
20
250.000000
0
VERTEX
8
0
10
534.000000
20
253.000000
0
VERTEX
8
0
10
529.800000
20
261.900000
0
VERTEX
8
0
10
529.200000
20
263.100000
0
VERTEX
8
0
10
514.000000
20
278.000000
0
VERTEX
8
0
10
515.000000
20
282.000000
0
VERTEX
8
0
10
516.000000
20
283.000000
0
VERTEX
8
0
10
522.016093
20
283.517203
0
VERTEX
8
0
10
550.983907
20
284.482797
0
VERTEX
8
0
10
555.923077
20
285.384615
0
VERTEX
8
0
10
557.100000
20
285.800000
0
VERTEX
8
0
10
562.000000
20
289.000000
0
VERTEX
8
0
10
565.000000
20
295.000000
0
VERTEX
8
0
10
564.000000
20
296.000000
0
VERTEX
8
0
10
560.000000
20
296.000000
0
VERTEX
8
0
10
559.000000
20
297.000000
0
VERTEX
8
0
10
559.647059
20
303.088235
0
VERTEX
8
0
10
561.000000
20
307.000000
0
VERTEX
8
0
10
561.000000
20
309.000000
0
VERTEX
8
0
10
560.000000
20
310.000000
0
VERTEX
8
0
10
557.000000
20
305.000000
0
VERTEX
8
0
10
554.000000
20
303.000000
0
VERTEX
8
0
10
553.000000
20
303.000000
0
VERTEX
8
0
10
551.384615
20
308.076923
0
VERTEX
8
0
10
551.000000
20
313.000000
0
SEQEND
0
POLYLINE
8
0
6
CONTINUOUS
66
1
62
7
10
0.0
20
0.0
30
0.000000
0
VERTEX
8
0
10
653.000000
20
139.000000
0
VERTEX
8
0
10
653.000000
20
140.000000
0
VERTEX
8
0
10
653.000000
20
512.000000
0
VERTEX
8
0
10
652.000000
20
513.000000
0
VERTEX
8
0
10
641.900000
20
508.200000
0
VERTEX
8
0
10
639.100000
20
506.800000
0
VERTEX
8
0
10
608.900000
20
493.300000
0
VERTEX
8
0
10
583.100000
20
484.700000
0
VERTEX
8
0
10
552.088235
20
476.647059
0
VERTEX
8
0
10
539.088235
20
473.647059
0
VERTEX
8
0
10
494.053846
20
466.569231
0
VERTEX
8
0
10
470.053846
20
463.569231
0
VERTEX
8
0
10
421.032995
20
459.538071
0
VERTEX
8
0
10
390.000000
20
458.000000
0
VERTEX
8
0
10
346.000000
20
458.000000
0
VERTEX
8
0
10
316.016093
20
459.482797
0
VERTEX
8
0
10
287.030973
20
461.464602
0
VERTEX
8
0
10
259.053846
20
464.430769
0
VERTEX
8
0
10
223.067568
20
469.405405
0
VERTEX
8
0
10
192.911765
20
474.647059
0
VERTEX
8
0
10
185.076923
20
476.384615
0
VERTEX
8
0
10
158.100000
20
483.300000
0
VERTEX
8
0
10
154.088235
20
484.352941
0
VERTEX
8
0
10
125.100000
20
494.200000
0
VERTEX
8
0
10
102.900000
20
503.800000
0
VERTEX
8
0
10
84.000000
20
513.000000
0
VERTEX
8
0
10
83.000000
20
512.000000
0
VERTEX
8
0
10
83.250000
20
137.250000
0
VERTEX
8
0
10
84.900000
20
137.200000
0
VERTEX
8
0
10
88.100000
20
138.800000
0
VERTEX
8
0
10
102.000000
20
144.000000
0
VERTEX
8
0
10
104.000000
20
146.000000
0
VERTEX
8
0
10
104.000000
20
147.000000
0
VERTEX
8
0
10
98.000000
20
152.000000
0
VERTEX
8
0
10
97.000000
20
160.000000
0
VERTEX
8
0
10
105.200000
20
171.900000
0
VERTEX
8
0
10
105.594595
20
173.067568
0
VERTEX
8
0
10
107.167109
20
177.197613
0
VERTEX
8
0
10
117.000000
20
189.000000
0
VERTEX
8
0
10
116.000000
20
190.000000
0
VERTEX
8
0
10
110.000000
20
189.000000
0
VERTEX
8
0
10
109.000000
20
190.000000
0
VERTEX
8
0
10
109.800000
20
193.100000
0
VERTEX
8
0
10
110.200000
20
193.900000
0
VERTEX
8
0
10
113.000000
20
198.000000
0
VERTEX
8
0
10
126.000000
20
204.000000
0
SEQEND
0
POLYLINE
8
0
6
CONTINUOUS
66
1
62
7
10
0.0
20
0.0
30
0.000000
0
VERTEX
8
0
10
592.000000
20
136.000000
0
VERTEX
8
0
10
594.000000
20
138.000000
0
VERTEX
8
0
10
594.000000
20
140.000000
0
VERTEX
8
0
10
592.000000
20
144.000000
0
VERTEX
8
0
10
590.000000
20
144.000000
0
VERTEX
8
0
10
587.000000
20
141.000000
0
VERTEX
8
0
10
588.000000
20
138.000000
0
VERTEX
8
0
10
589.900000
20
136.800000
0
VERTEX
8
0
10
592.000000
20
136.000000
0
SEQEND
0
POLYLINE
8
0
6
CONTINUOUS
66
1
62
7
10
0.0
20
0.0
30
0.000000
0
VERTEX
8
0
10
653.000000
20
134.000000
0
VERTEX
8
0
10
653.000000
20
139.000000
0
SEQEND
0
POLYLINE
8
0
6
CONTINUOUS
66
1
62
7
10
0.0
20
0.0
30
0.000000
0
VERTEX
8
0
10
692.000000
20
54.000000
0
VERTEX
8
0
10
691.500975
20
567.999029
0
VERTEX
8
0
10
689.700000
20
576.900000
0
VERTEX
8
0
10
689.200000
20
578.100000
0
VERTEX
8
0
10
683.760000
20
588.820000
0
VERTEX
8
0
10
678.240000
20
596.180000
0
VERTEX
8
0
10
672.000000
20
603.000000
0
VERTEX
8
0
10
664.788235
20
608.752941
0
VERTEX
8
0
10
649.900000
20
618.800000
0
VERTEX
8
0
10
644.846154
20
621.769231
0
VERTEX
8
0
10
627.900000
20
629.700000
0
VERTEX
8
0
10
622.900000
20
631.700000
0
VERTEX
8
0
10
592.088235
20
643.352941
0
VERTEX
8
0
10
555.088235
20
653.352941
0
VERTEX
8
0
10
503.076923
20
663.384615
0
VERTEX
8
0
10
489.053846
20
665.430769
0
VERTEX
8
0
10
437.978351
20
670.523711
0
VERTEX
8
0
10
384.000000
20
673.000000
0
VERTEX
8
0
10
350.984878
20
672.483902
0
VERTEX
8
0
10
296.955446
20
670.445545
0
VERTEX
8
0
10
234.067568
20
663.594595
0
VERTEX
8
0
10
223.067568
20
661.594595
0
VERTEX
8
0
10
178.088235
20
652.647059
0
VERTEX
8
0
10
141.088235
20
642.647059
0
VERTEX
8
0
10
111.100000
20
630.800000
0
VERTEX
8
0
10
104.900000
20
628.300000
0
VERTEX
8
0
10
91.153846
20
621.769231
0
VERTEX
8
0
10
84.900000
20
618.200000
0
VERTEX
8
0
10
64.000000
20
603.000000
0
VERTEX
8
0
10
58.000000
20
597.000000
0
VERTEX
8
0
10
50.230769
20
585.846154
0
VERTEX
8
0
10
49.800000
20
585.100000
0
VERTEX
8
0
10
45.647059
20
575.088235
0
VERTEX
8
0
10
44.594595
20
569.067568
0
VERTEX
8
0
10
44.250000
20
54.250000
0
VERTEX
8
0
10
692.000000
20
54.000000
0
SEQEND
0
ENDSEC
0
EOF
