  0
SECTION
  2
HEADER
  9
$ACADVER
  1
AC1009
  9
$EXTMIN
 10
599.32262447
 20
601.52341747
 30
0.0
  9
$EXTMAX
 10
1399.32262447
 20
1201.52341747
 30
0.0
  0
ENDSEC
  0
SECTION
  2
TABLES
  0
TABLE
  2
LAYER
 70
1
 0
LAYER
 2
�������_450�600-02
 70
0
 62
1
 6
CONTINUOUS
 0
ENDTAB
 0
ENDSEC
  0
SECTION
  2
ENTITIES
  0
POLYLINE
  8
�������_450�600-02
 66
   1
 39
0.000000
 70
    1
  0
VERTEX
  8
0
 10
1359.02414695
 20
775.14579704
 42
0.33037872
  0
VERTEX
  8
0
 10
1369.09663079
 20
766.95614329
 42
0.33037872
  0
VERTEX
  8
0
 10
1379.85691722
 20
774.21848419
  0
VERTEX
  8
0
 10
1379.85691722
 20
753.68051927
 42
0.33037872
  0
VERTEX
  8
0
 10
1369.09663079
 20
760.94286017
 42
0.33037872
  0
VERTEX
  8
0
 10
1359.02414695
 20
752.75320642
  0
VERTEX
  8
0
 10
1359.02414695
 20
775.14579704
  0
SEQEND
  0
POLYLINE
  8
�������_450�600-02
 66
   1
 39
0.000000
 70
    1
  0
VERTEX
  8
0
 10
1359.02414695
 20
799.61261293
 42
0.33037872
  0
VERTEX
  8
0
 10
1369.09663079
 20
791.42295917
 42
0.33037872
  0
VERTEX
  8
0
 10
1379.85691722
 20
798.68530008
  0
VERTEX
  8
0
 10
1379.85691722
 20
781.46343377
 42
0.33037872
  0
VERTEX
  8
0
 10
1369.09663079
 20
788.72577468
 42
0.33037872
  0
VERTEX
  8
0
 10
1359.02414695
 20
780.53612092
  0
VERTEX
  8
0
 10
1359.02414695
 20
799.61261293
  0
SEQEND
  0
POLYLINE
  8
�������_450�600-02
 66
   1
 39
0.000000
 70
    1
  0
VERTEX
  8
0
 10
1359.02414695
 20
824.07942881
 42
0.33037872
  0
VERTEX
  8
0
 10
1369.09663079
 20
815.88977506
 42
0.33037872
  0
VERTEX
  8
0
 10
1379.85691722
 20
823.15211596
  0
VERTEX
  8
0
 10
1379.85691722
 20
805.93024966
 42
0.33037872
  0
VERTEX
  8
0
 10
1369.09663079
 20
813.19259056
 42
0.33037872
  0
VERTEX
  8
0
 10
1359.02414695
 20
805.00293681
  0
VERTEX
  8
0
 10
1359.02414695
 20
824.07942881
  0
SEQEND
  0
POLYLINE
  8
�������_450�600-02
 66
   1
 39
0.000000
 70
    1
  0
VERTEX
  8
0
 10
1244.94271854
 20
656.14142390
  0
VERTEX
  8
0
 10
1253.22943152
 20
661.10514540
 42
0.01786155
  0
VERTEX
  8
0
 10
1251.01066534
 20
652.50673810
  0
VERTEX
  8
0
 10
1244.94271854
 20
656.14142390
  0
SEQEND
  0
POLYLINE
  8
�������_450�600-02
 66
   1
 39
0.000000
 70
    1
  0
VERTEX
  8
0
 10
1331.18574153
 20
785.28984157
  0
VERTEX
  8
0
 10
1344.29471645
 20
793.14208658
  0
VERTEX
  8
0
 10
1350.37817557
 20
789.49810895
  0
VERTEX
  8
0
 10
1350.37817557
 20
781.08157420
  0
VERTEX
  8
0
 10
1344.29471645
 20
777.43759656
  0
VERTEX
  8
0
 10
1331.18574153
 20
785.28984157
  0
SEQEND
  0
POLYLINE
  8
�������_450�600-02
 66
   1
 39
0.000000
 70
    1
  0
VERTEX
  8
0
 10
1359.02414695
 20
848.54624470
 42
0.33037872
  0
VERTEX
  8
0
 10
1369.09663079
 20
840.35659095
 42
0.33037872
  0
VERTEX
  8
0
 10
1379.85691722
 20
847.61893185
  0
VERTEX
  8
0
 10
1379.85691722
 20
830.39706554
 42
0.33037872
  0
VERTEX
  8
0
 10
1369.09663079
 20
837.65940645
 42
0.33037872
  0
VERTEX
  8
0
 10
1359.02414695
 20
829.46975269
  0
VERTEX
  8
0
 10
1359.02414695
 20
848.54624470
  0
SEQEND
  0
POLYLINE
  8
�������_450�600-02
 66
   1
 39
0.000000
 70
    1
  0
VERTEX
  8
0
 10
1231.03759464
 20
647.81228753
  0
VERTEX
  8
0
 10
1236.49093771
 20
651.07882715
  0
VERTEX
  8
0
 10
1241.94428078
 20
647.81228753
  0
VERTEX
  8
0
 10
1231.03759464
 20
647.81228753
  0
SEQEND
  0
POLYLINE
  8
�������_450�600-02
 66
   1
 39
0.000000
 70
    1
  0
VERTEX
  8
0
 10
1223.04466606
 20
639.16631614
  0
VERTEX
  8
0
 10
1245.43725668
 20
639.16631614
 42
0.33037872
  0
VERTEX
  8
0
 10
1237.24760292
 20
629.09383230
 42
0.33037872
  0
VERTEX
  8
0
 10
1244.50994383
 20
618.33354588
  0
VERTEX
  8
0
 10
1223.97197891
 20
618.33354588
 42
0.33037872
  0
VERTEX
  8
0
 10
1231.23431981
 20
629.09383230
 42
0.33037872
  0
VERTEX
  8
0
 10
1223.04466606
 20
639.16631614
  0
SEQEND
  0
POLYLINE
  8
�������_450�600-02
 66
   1
 39
0.000000
 70
    1
  0
VERTEX
  8
0
 10
1331.18574153
 20
811.11952510
  0
VERTEX
  8
0
 10
1344.29471645
 20
818.97177012
  0
VERTEX
  8
0
 10
1350.37817557
 20
815.32779248
  0
VERTEX
  8
0
 10
1350.37817557
 20
806.91125773
  0
VERTEX
  8
0
 10
1344.29471645
 20
803.26728009
  0
VERTEX
  8
0
 10
1331.18574153
 20
811.11952510
  0
SEQEND
  0
POLYLINE
  8
�������_450�600-02
 66
   1
 39
0.000000
 70
    1
  0
VERTEX
  8
0
 10
1309.62498579
 20
772.37499980
  0
VERTEX
  8
0
 10
1322.73396071
 20
780.22724482
  0
VERTEX
  8
0
 10
1335.84293563
 20
772.37499980
  0
VERTEX
  8
0
 10
1322.73396071
 20
764.52275479
  0
VERTEX
  8
0
 10
1309.62498579
 20
772.37499980
  0
SEQEND
  0
POLYLINE
  8
�������_450�600-02
 66
   1
 39
0.000000
 70
    1
  0
VERTEX
  8
0
 10
1359.02414695
 20
873.01306058
 42
0.33037872
  0
VERTEX
  8
0
 10
1369.09663079
 20
864.82340683
 42
0.33037872
  0
VERTEX
  8
0
 10
1379.85691722
 20
872.08574773
  0
VERTEX
  8
0
 10
1379.85691722
 20
854.86388143
 42
0.33037872
  0
VERTEX
  8
0
 10
1369.09663079
 20
862.12622233
 42
0.33037872
  0
VERTEX
  8
0
 10
1359.02414695
 20
853.93656858
  0
VERTEX
  8
0
 10
1359.02414695
 20
873.01306058
  0
SEQEND
  0
POLYLINE
  8
�������_450�600-02
 66
   1
 39
0.000000
 70
    1
  0
VERTEX
  8
0
 10
1244.94271854
 20
681.97110743
  0
VERTEX
  8
0
 10
1258.05169346
 20
689.82335245
  0
VERTEX
  8
0
 10
1263.85931517
 20
686.34460076
 42
0.02720865
  0
VERTEX
  8
0
 10
1257.92237982
 20
674.19632099
  0
VERTEX
  8
0
 10
1244.94271854
 20
681.97110743
  0
SEQEND
  0
POLYLINE
  8
�������_450�600-02
 66
   1
 39
0.000000
 70
    1
  0
VERTEX
  8
0
 10
1359.02414695
 20
898.82825553
 42
0.33037872
  0
VERTEX
  8
0
 10
1369.09663079
 20
890.63860178
 42
0.33037872
  0
VERTEX
  8
0
 10
1379.85691722
 20
897.90094268
  0
VERTEX
  8
0
 10
1379.85691722
 20
879.33069732
 42
0.33037872
  0
VERTEX
  8
0
 10
1369.09663079
 20
886.59303822
 42
0.33037872
  0
VERTEX
  8
0
 10
1359.02414695
 20
878.40338447
  0
VERTEX
  8
0
 10
1359.02414695
 20
898.82825553
  0
SEQEND
  0
POLYLINE
  8
�������_450�600-02
 66
   1
 39
0.000000
 70
    1
  0
VERTEX
  8
0
 10
1198.57785017
 20
639.16631614
  0
VERTEX
  8
0
 10
1217.65434217
 20
639.16631614
 42
0.33037872
  0
VERTEX
  8
0
 10
1209.46468842
 20
629.09383230
 42
0.33037872
  0
VERTEX
  8
0
 10
1216.72702932
 20
618.33354588
  0
VERTEX
  8
0
 10
1199.50516302
 20
618.33354588
 42
0.33037872
  0
VERTEX
  8
0
 10
1206.76750392
 20
629.09383230
 42
0.33037872
  0
VERTEX
  8
0
 10
1198.57785017
 20
639.16631614
  0
SEQEND
  0
POLYLINE
  8
�������_450�600-02
 66
   1
 39
0.000000
 70
    1
  0
VERTEX
  8
0
 10
1331.18574153
 20
836.94920864
  0
VERTEX
  8
0
 10
1344.29471645
 20
844.80145365
  0
VERTEX
  8
0
 10
1350.37817557
 20
841.15747601
  0
VERTEX
  8
0
 10
1350.37817557
 20
832.74094126
  0
VERTEX
  8
0
 10
1344.29471645
 20
829.09696363
  0
VERTEX
  8
0
 10
1331.18574153
 20
836.94920864
  0
SEQEND
  0
POLYLINE
  8
�������_450�600-02
 66
   1
 39
0.000000
 70
    1
  0
VERTEX
  8
0
 10
1223.38196279
 20
669.05626567
  0
VERTEX
  8
0
 10
1236.49093771
 20
676.90851068
  0
VERTEX
  8
0
 10
1249.59991263
 20
669.05626567
  0
VERTEX
  8
0
 10
1236.49093771
 20
661.20402065
  0
VERTEX
  8
0
 10
1223.38196279
 20
669.05626567
  0
SEQEND
  0
POLYLINE
  8
�������_450�600-02
 66
   1
 39
0.000000
 70
    1
  0
VERTEX
  8
0
 10
1288.06423004
 20
759.46015804
  0
VERTEX
  8
0
 10
1301.17320496
 20
767.31240305
  0
VERTEX
  8
0
 10
1314.28217988
 20
759.46015804
  0
VERTEX
  8
0
 10
1301.17320496
 20
751.60791302
  0
VERTEX
  8
0
 10
1288.06423004
 20
759.46015804
  0
SEQEND
  0
POLYLINE
  8
�������_450�600-02
 66
   1
 39
0.000000
 70
    1
  0
VERTEX
  8
0
 10
1309.62498579
 20
798.20468334
  0
VERTEX
  8
0
 10
1322.73396071
 20
806.05692835
  0
VERTEX
  8
0
 10
1335.84293563
 20
798.20468334
  0
VERTEX
  8
0
 10
1322.73396071
 20
790.35243832
  0
VERTEX
  8
0
 10
1309.62498579
 20
798.20468334
  0
SEQEND
  0
POLYLINE
  8
�������_450�600-02
 66
   1
 39
0.000000
 70
    1
  0
VERTEX
  8
0
 10
1359.02414695
 20
924.64345048
 42
0.33037872
  0
VERTEX
  8
0
 10
1369.09663079
 20
916.45379673
 42
0.33037872
  0
VERTEX
  8
0
 10
1379.85691722
 20
923.71613763
  0
VERTEX
  8
0
 10
1379.85691722
 20
905.14589227
 42
0.33037872
  0
VERTEX
  8
0
 10
1369.09663079
 20
912.40823317
 42
0.33037872
  0
VERTEX
  8
0
 10
1359.02414695
 20
904.21857942
  0
VERTEX
  8
0
 10
1359.02414695
 20
924.64345048
  0
SEQEND
  0
POLYLINE
  8
�������_450�600-02
 66
   1
 39
0.000000
 70
    1
  0
VERTEX
  8
0
 10
1201.82120704
 20
656.14142390
  0
VERTEX
  8
0
 10
1214.93018196
 20
663.99366891
  0
VERTEX
  8
0
 10
1228.03915688
 20
656.14142390
  0
VERTEX
  8
0
 10
1214.93018196
 20
648.28917889
  0
VERTEX
  8
0
 10
1201.82120704
 20
656.14142390
  0
SEQEND
  0
POLYLINE
  8
�������_450�600-02
 66
   1
 39
0.000000
 70
    1
  0
VERTEX
  8
0
 10
1331.18574153
 20
862.77889217
  0
VERTEX
  8
0
 10
1344.29471645
 20
870.63113719
  0
VERTEX
  8
0
 10
1350.37817557
 20
866.98715955
  0
VERTEX
  8
0
 10
1350.37817557
 20
858.57062480
  0
VERTEX
  8
0
 10
1344.29471645
 20
854.92664716
  0
VERTEX
  8
0
 10
1331.18574153
 20
862.77889217
  0
SEQEND
  0
POLYLINE
  8
�������_450�600-02
 66
   1
 39
0.000000
 70
    1
  0
VERTEX
  8
0
 10
1266.50347429
 20
746.54531627
  0
VERTEX
  8
0
 10
1279.61244921
 20
754.39756128
  0
VERTEX
  8
0
 10
1292.72142413
 20
746.54531627
  0
VERTEX
  8
0
 10
1279.61244921
 20
738.69307126
  0
VERTEX
  8
0
 10
1266.50347429
 20
746.54531627
  0
SEQEND
  0
POLYLINE
  8
�������_450�600-02
 66
   1
 39
0.000000
 70
    1
  0
VERTEX
  8
0
 10
1187.91608314
 20
647.81228753
  0
VERTEX
  8
0
 10
1193.36942621
 20
651.07882715
  0
VERTEX
  8
0
 10
1198.82276928
 20
647.81228753
  0
VERTEX
  8
0
 10
1187.91608314
 20
647.81228753
  0
SEQEND
  0
POLYLINE
  8
�������_450�600-02
 66
   1
 39
0.000000
 70
    1
  0
VERTEX
  8
0
 10
1309.62498579
 20
824.03436687
  0
VERTEX
  8
0
 10
1322.73396071
 20
831.88661189
  0
VERTEX
  8
0
 10
1335.84293563
 20
824.03436687
  0
VERTEX
  8
0
 10
1322.73396071
 20
816.18212186
  0
VERTEX
  8
0
 10
1309.62498579
 20
824.03436687
  0
SEQEND
  0
POLYLINE
  8
�������_450�600-02
 66
   1
 39
0.000000
 70
    1
  0
VERTEX
  8
0
 10
1288.06423004
 20
785.28984157
  0
VERTEX
  8
0
 10
1301.17320496
 20
793.14208658
  0
VERTEX
  8
0
 10
1314.28217988
 20
785.28984157
  0
VERTEX
  8
0
 10
1301.17320496
 20
777.43759656
  0
VERTEX
  8
0
 10
1288.06423004
 20
785.28984157
  0
SEQEND
  0
POLYLINE
  8
�������_450�600-02
 66
   1
 39
0.000000
 70
    1
  0
VERTEX
  8
0
 10
1359.02414695
 20
949.11026637
 42
0.33037872
  0
VERTEX
  8
0
 10
1369.09663079
 20
940.92061262
 42
0.33037872
  0
VERTEX
  8
0
 10
1379.85691722
 20
948.18295352
  0
VERTEX
  8
0
 10
1379.85691722
 20
930.96108721
 42
0.33037872
  0
VERTEX
  8
0
 10
1369.09663079
 20
938.22342812
 42
0.33037872
  0
VERTEX
  8
0
 10
1359.02414695
 20
930.03377436
  0
VERTEX
  8
0
 10
1359.02414695
 20
949.11026637
  0
SEQEND
  0
POLYLINE
  8
�������_450�600-02
 66
   1
 39
0.000000
 70
    1
  0
VERTEX
  8
0
 10
1174.11103429
 20
639.16631614
  0
VERTEX
  8
0
 10
1193.18752629
 20
639.16631614
 42
0.33037872
  0
VERTEX
  8
0
 10
1184.99787254
 20
629.09383230
 42
0.33037872
  0
VERTEX
  8
0
 10
1192.26021344
 20
618.33354588
  0
VERTEX
  8
0
 10
1175.03834714
 20
618.33354588
 42
0.33037872
  0
VERTEX
  8
0
 10
1182.30068804
 20
629.09383230
 42
0.33037872
  0
VERTEX
  8
0
 10
1174.11103429
 20
639.16631614
  0
SEQEND
  0
POLYLINE
  8
�������_450�600-02
 66
   1
 39
0.000000
 70
    1
  0
VERTEX
  8
0
 10
1331.18574153
 20
888.60857571
  0
VERTEX
  8
0
 10
1344.29471645
 20
896.46082072
  0
VERTEX
  8
0
 10
1350.37817557
 20
892.81684308
  0
VERTEX
  8
0
 10
1350.37817557
 20
884.40030833
  0
VERTEX
  8
0
 10
1344.29471645
 20
880.75633069
  0
VERTEX
  8
0
 10
1331.18574153
 20
888.60857571
  0
SEQEND
  0
POLYLINE
  8
�������_450�600-02
 66
   1
 39
0.000000
 70
    1
  0
VERTEX
  8
0
 10
1359.02414695
 20
973.57708225
 42
0.33037872
  0
VERTEX
  8
0
 10
1369.09663079
 20
965.38742850
 42
0.33037872
  0
VERTEX
  8
0
 10
1379.85691722
 20
972.64976940
  0
VERTEX
  8
0
 10
1379.85691722
 20
955.42790310
 42
0.33037872
  0
VERTEX
  8
0
 10
1369.09663079
 20
962.69024400
 42
0.33037872
  0
VERTEX
  8
0
 10
1359.02414695
 20
954.50059025
  0
VERTEX
  8
0
 10
1359.02414695
 20
973.57708225
  0
SEQEND
  0
POLYLINE
  8
�������_450�600-02
 66
   1
 39
0.000000
 70
    1
  0
VERTEX
  8
0
 10
1244.94271854
 20
733.63047450
  0
VERTEX
  8
0
 10
1258.05169346
 20
741.48271952
  0
VERTEX
  8
0
 10
1271.16066838
 20
733.63047450
  0
VERTEX
  8
0
 10
1258.05169346
 20
725.77822949
  0
VERTEX
  8
0
 10
1244.94271854
 20
733.63047450
  0
SEQEND
  0
POLYLINE
  8
�������_450�600-02
 66
   1
 39
0.000000
 70
    1
  0
VERTEX
  8
0
 10
1309.62498579
 20
849.86405041
  0
VERTEX
  8
0
 10
1322.73396071
 20
857.71629542
  0
VERTEX
  8
0
 10
1335.84293563
 20
849.86405041
  0
VERTEX
  8
0
 10
1322.73396071
 20
842.01180539
  0
VERTEX
  8
0
 10
1309.62498579
 20
849.86405041
  0
SEQEND
  0
POLYLINE
  8
�������_450�600-02
 66
   1
 39
0.000000
 70
    1
  0
VERTEX
  8
0
 10
1266.50347429
 20
772.37499980
  0
VERTEX
  8
0
 10
1279.61244921
 20
780.22724482
  0
VERTEX
  8
0
 10
1292.72142413
 20
772.37499980
  0
VERTEX
  8
0
 10
1279.61244921
 20
764.52275479
  0
VERTEX
  8
0
 10
1266.50347429
 20
772.37499980
  0
SEQEND
  0
POLYLINE
  8
�������_450�600-02
 66
   1
 39
0.000000
 70
    1
  0
VERTEX
  8
0
 10
1288.06423004
 20
811.11952510
  0
VERTEX
  8
0
 10
1301.17320496
 20
818.97177012
  0
VERTEX
  8
0
 10
1314.28217988
 20
811.11952510
  0
VERTEX
  8
0
 10
1301.17320496
 20
803.26728009
  0
VERTEX
  8
0
 10
1288.06423004
 20
811.11952510
  0
SEQEND
  0
POLYLINE
  8
�������_450�600-02
 66
   1
 39
0.000000
 70
    1
  0
VERTEX
  8
0
 10
1359.02414695
 20
998.04389814
 42
0.33037872
  0
VERTEX
  8
0
 10
1369.09663079
 20
989.85424439
 42
0.33037872
  0
VERTEX
  8
0
 10
1379.85691722
 20
997.11658529
  0
VERTEX
  8
0
 10
1379.85691722
 20
979.89471899
 42
0.33037872
  0
VERTEX
  8
0
 10
1369.09663079
 20
987.15705989
 42
0.33037872
  0
VERTEX
  8
0
 10
1359.02414695
 20
978.96740614
  0
VERTEX
  8
0
 10
1359.02414695
 20
998.04389814
  0
SEQEND
  0
POLYLINE
  8
�������_450�600-02
 66
   1
 39
0.000000
 70
    1
  0
VERTEX
  8
0
 10
1331.18574153
 20
914.43825924
  0
VERTEX
  8
0
 10
1344.29471645
 20
922.29050425
  0
VERTEX
  8
0
 10
1350.37817557
 20
918.64652662
  0
VERTEX
  8
0
 10
1350.37817557
 20
910.22999187
  0
VERTEX
  8
0
 10
1344.29471645
 20
906.58601423
  0
VERTEX
  8
0
 10
1331.18574153
 20
914.43825924
  0
SEQEND
  0
POLYLINE
  8
�������_450�600-02
 66
   1
 39
0.000000
 70
    1
  0
VERTEX
  8
0
 10
1223.38196279
 20
720.71563274
  0
VERTEX
  8
0
 10
1236.49093771
 20
728.56787775
  0
VERTEX
  8
0
 10
1249.59991263
 20
720.71563274
  0
VERTEX
  8
0
 10
1236.49093771
 20
712.86338772
  0
VERTEX
  8
0
 10
1223.38196279
 20
720.71563274
  0
SEQEND
  0
POLYLINE
  8
�������_450�600-02
 66
   1
 39
0.000000
 70
    1
  0
VERTEX
  8
0
 10
1359.02414695
 20
1022.51071402
 42
0.33037872
  0
VERTEX
  8
0
 10
1369.09663079
 20
1014.32106027
 42
0.33037872
  0
VERTEX
  8
0
 10
1379.85691722
 20
1021.58340118
  0
VERTEX
  8
0
 10
1379.85691722
 20
1004.36153487
 42
0.33037872
  0
VERTEX
  8
0
 10
1369.09663079
 20
1011.62387577
 42
0.33037872
  0
VERTEX
  8
0
 10
1359.02414695
 20
1003.43422202
  0
VERTEX
  8
0
 10
1359.02414695
 20
1022.51071402
  0
SEQEND
  0
POLYLINE
  8
�������_450�600-02
 66
   1
 39
0.000000
 70
    1
  0
VERTEX
  8
0
 10
1149.64421840
 20
639.16631614
  0
VERTEX
  8
0
 10
1168.72071040
 20
639.16631614
 42
0.33037872
  0
VERTEX
  8
0
 10
1160.53105665
 20
629.09383230
 42
0.33037872
  0
VERTEX
  8
0
 10
1167.79339755
 20
618.33354588
  0
VERTEX
  8
0
 10
1150.57153125
 20
618.33354588
 42
0.33037872
  0
VERTEX
  8
0
 10
1157.83387215
 20
629.09383230
 42
0.33037872
  0
VERTEX
  8
0
 10
1149.64421840
 20
639.16631614
  0
SEQEND
  0
POLYLINE
  8
�������_450�600-02
 66
   1
 39
0.000000
 70
    1
  0
VERTEX
  8
0
 10
1309.62498579
 20
875.69373394
  0
VERTEX
  8
0
 10
1322.73396071
 20
883.54597895
  0
VERTEX
  8
0
 10
1335.84293563
 20
875.69373394
  0
VERTEX
  8
0
 10
1322.73396071
 20
867.84148893
  0
VERTEX
  8
0
 10
1309.62498579
 20
875.69373394
  0
SEQEND
  0
POLYLINE
  8
�������_450�600-02
 66
   1
 39
0.000000
 70
    1
  0
VERTEX
  8
0
 10
1244.94271854
 20
759.46015804
  0
VERTEX
  8
0
 10
1258.05169346
 20
767.31240305
  0
VERTEX
  8
0
 10
1271.16066838
 20
759.46015804
  0
VERTEX
  8
0
 10
1258.05169346
 20
751.60791302
  0
VERTEX
  8
0
 10
1244.94271854
 20
759.46015804
  0
SEQEND
  0
POLYLINE
  8
�������_450�600-02
 66
   1
 39
0.000000
 70
    1
  0
VERTEX
  8
0
 10
1288.06423004
 20
836.94920864
  0
VERTEX
  8
0
 10
1301.17320496
 20
844.80145365
  0
VERTEX
  8
0
 10
1314.28217988
 20
836.94920864
  0
VERTEX
  8
0
 10
1301.17320496
 20
829.09696363
  0
VERTEX
  8
0
 10
1288.06423004
 20
836.94920864
  0
SEQEND
  0
POLYLINE
  8
�������_450�600-02
 66
   1
 39
0.000000
 70
    1
  0
VERTEX
  8
0
 10
1331.18574153
 20
940.26794278
  0
VERTEX
  8
0
 10
1344.29471645
 20
948.12018779
  0
VERTEX
  8
0
 10
1350.37817557
 20
944.47621015
  0
VERTEX
  8
0
 10
1350.37817557
 20
936.05967540
  0
VERTEX
  8
0
 10
1344.29471645
 20
932.41569776
  0
VERTEX
  8
0
 10
1331.18574153
 20
940.26794278
  0
SEQEND
  0
POLYLINE
  8
�������_450�600-02
 66
   1
 39
0.000000
 70
    1
  0
VERTEX
  8
0
 10
1266.50347429
 20
798.20468334
  0
VERTEX
  8
0
 10
1279.61244921
 20
806.05692835
  0
VERTEX
  8
0
 10
1292.72142413
 20
798.20468334
  0
VERTEX
  8
0
 10
1279.61244921
 20
790.35243832
  0
VERTEX
  8
0
 10
1266.50347429
 20
798.20468334
  0
SEQEND
  0
POLYLINE
  8
�������_450�600-02
 66
   1
 39
0.000000
 70
    1
  0
VERTEX
  8
0
 10
1359.02414695
 20
1050.29362853
 42
0.33037872
  0
VERTEX
  8
0
 10
1369.09663079
 20
1042.10397477
 42
0.33037872
  0
VERTEX
  8
0
 10
1379.85691722
 20
1049.36631568
  0
VERTEX
  8
0
 10
1379.85691722
 20
1028.82835076
 42
0.33037872
  0
VERTEX
  8
0
 10
1369.09663079
 20
1036.09069166
 42
0.33037872
  0
VERTEX
  8
0
 10
1359.02414695
 20
1027.90103791
  0
VERTEX
  8
0
 10
1359.02414695
 20
1050.29362853
  0
SEQEND
  0
POLYLINE
  8
�������_450�600-02
 66
   1
 39
0.000000
 70
    1
  0
VERTEX
  8
0
 10
1201.82120704
 20
707.80079097
  0
VERTEX
  8
0
 10
1214.93018196
 20
715.65303598
  0
VERTEX
  8
0
 10
1228.03915688
 20
707.80079097
  0
VERTEX
  8
0
 10
1214.93018196
 20
699.94854596
  0
VERTEX
  8
0
 10
1201.82120704
 20
707.80079097
  0
SEQEND
  0
POLYLINE
  8
�������_450�600-02
 66
   1
 39
0.000000
 70
    1
  0
VERTEX
  8
0
 10
1144.79457165
 20
647.81228753
  0
VERTEX
  8
0
 10
1150.24791471
 20
651.07882715
  0
VERTEX
  8
0
 10
1155.70125778
 20
647.81228753
  0
VERTEX
  8
0
 10
1144.79457165
 20
647.81228753
  0
SEQEND
  0
POLYLINE
  8
�������_450�600-02
 66
   1
 39
0.000000
 70
    1
  0
VERTEX
  8
0
 10
1309.62498579
 20
901.52341747
  0
VERTEX
  8
0
 10
1322.73396071
 20
909.37566249
  0
VERTEX
  8
0
 10
1335.84293563
 20
901.52341747
  0
VERTEX
  8
0
 10
1322.73396071
 20
893.67117246
  0
VERTEX
  8
0
 10
1309.62498579
 20
901.52341747
  0
SEQEND
  0
POLYLINE
  8
�������_450�600-02
 66
   1
 39
0.000000
 70
    1
  0
VERTEX
  8
0
 10
1331.18574153
 20
966.09762631
  0
VERTEX
  8
0
 10
1344.29471645
 20
973.94987132
  0
VERTEX
  8
0
 10
1350.37817557
 20
970.30589368
  0
VERTEX
  8
0
 10
1350.37817557
 20
961.88935893
  0
VERTEX
  8
0
 10
1344.29471645
 20
958.24538130
  0
VERTEX
  8
0
 10
1331.18574153
 20
966.09762631
  0
SEQEND
  0
POLYLINE
  8
�������_450�600-02
 66
   1
 39
0.000000
 70
    1
  0
VERTEX
  8
0
 10
1223.38196279
 20
746.54531627
  0
VERTEX
  8
0
 10
1236.49093771
 20
754.39756128
  0
VERTEX
  8
0
 10
1249.59991263
 20
746.54531627
  0
VERTEX
  8
0
 10
1236.49093771
 20
738.69307126
  0
VERTEX
  8
0
 10
1223.38196279
 20
746.54531627
  0
SEQEND
  0
POLYLINE
  8
�������_450�600-02
 66
   1
 39
0.000000
 70
    1
  0
VERTEX
  8
0
 10
1288.06423004
 20
862.77889217
  0
VERTEX
  8
0
 10
1301.17320496
 20
870.63113719
  0
VERTEX
  8
0
 10
1314.28217988
 20
862.77889217
  0
VERTEX
  8
0
 10
1301.17320496
 20
854.92664716
  0
VERTEX
  8
0
 10
1288.06423004
 20
862.77889217
  0
SEQEND
  0
POLYLINE
  8
�������_450�600-02
 66
   1
 39
0.000000
 70
    1
  0
VERTEX
  8
0
 10
1180.26045129
 20
694.88594920
  0
VERTEX
  8
0
 10
1193.36942621
 20
702.73819422
  0
VERTEX
  8
0
 10
1206.47840113
 20
694.88594920
  0
VERTEX
  8
0
 10
1193.36942621
 20
687.03370419
  0
VERTEX
  8
0
 10
1180.26045129
 20
694.88594920
  0
SEQEND
  0
POLYLINE
  8
�������_450�600-02
 66
   1
 39
0.000000
 70
    1
  0
VERTEX
  8
0
 10
1244.94271854
 20
785.28984157
  0
VERTEX
  8
0
 10
1258.05169346
 20
793.14208658
  0
VERTEX
  8
0
 10
1271.16066838
 20
785.28984157
  0
VERTEX
  8
0
 10
1258.05169346
 20
777.43759656
  0
VERTEX
  8
0
 10
1244.94271854
 20
785.28984157
  0
SEQEND
  0
POLYLINE
  8
�������_450�600-02
 66
   1
 39
0.000000
 70
    1
  0
VERTEX
  8
0
 10
1266.50347429
 20
824.03436687
  0
VERTEX
  8
0
 10
1279.61244921
 20
831.88661189
  0
VERTEX
  8
0
 10
1292.72142413
 20
824.03436687
  0
VERTEX
  8
0
 10
1279.61244921
 20
816.18212186
  0
VERTEX
  8
0
 10
1266.50347429
 20
824.03436687
  0
SEQEND
  0
POLYLINE
  8
�������_450�600-02
 66
   1
 39
0.000000
 70
    1
  0
VERTEX
  8
0
 10
1125.17740251
 20
639.16631614
  0
VERTEX
  8
0
 10
1144.25389452
 20
639.16631614
 42
0.33037872
  0
VERTEX
  8
0
 10
1136.06424076
 20
629.09383230
 42
0.33037872
  0
VERTEX
  8
0
 10
1143.32658167
 20
618.33354588
  0
VERTEX
  8
0
 10
1126.10471536
 20
618.33354588
 42
0.33037872
  0
VERTEX
  8
0
 10
1133.36705627
 20
629.09383230
 42
0.33037872
  0
VERTEX
  8
0
 10
1125.17740251
 20
639.16631614
  0
SEQEND
  0
POLYLINE
  8
�������_450�600-02
 66
   1
 39
0.000000
 70
    1
  0
VERTEX
  8
0
 10
1331.18574153
 20
991.92730984
  0
VERTEX
  8
0
 10
1344.29471645
 20
999.77955486
  0
VERTEX
  8
0
 10
1350.37817557
 20
996.13557722
  0
VERTEX
  8
0
 10
1350.37817557
 20
987.71904247
  0
VERTEX
  8
0
 10
1344.29471645
 20
984.07506483
  0
VERTEX
  8
0
 10
1331.18574153
 20
991.92730984
  0
SEQEND
  0
POLYLINE
  8
�������_450�600-02
 66
   1
 39
0.000000
 70
    1
  0
VERTEX
  8
0
 10
1309.62498579
 20
927.35310101
  0
VERTEX
  8
0
 10
1322.73396071
 20
935.20534602
  0
VERTEX
  8
0
 10
1335.84293563
 20
927.35310101
  0
VERTEX
  8
0
 10
1322.73396071
 20
919.50085599
  0
VERTEX
  8
0
 10
1309.62498579
 20
927.35310101
  0
SEQEND
  0
POLYLINE
  8
�������_450�600-02
 66
   1
 39
0.000000
 70
    1
  0
VERTEX
  8
0
 10
1201.82120704
 20
733.63047450
  0
VERTEX
  8
0
 10
1214.93018196
 20
741.48271952
  0
VERTEX
  8
0
 10
1228.03915688
 20
733.63047450
  0
VERTEX
  8
0
 10
1214.93018196
 20
725.77822949
  0
VERTEX
  8
0
 10
1201.82120704
 20
733.63047450
  0
SEQEND
  0
POLYLINE
  8
�������_450�600-02
 66
   1
 39
0.000000
 70
    1
  0
VERTEX
  8
0
 10
1158.69969554
 20
681.97110743
  0
VERTEX
  8
0
 10
1171.80867046
 20
689.82335245
  0
VERTEX
  8
0
 10
1184.91764538
 20
681.97110743
  0
VERTEX
  8
0
 10
1171.80867046
 20
674.11886242
  0
VERTEX
  8
0
 10
1158.69969554
 20
681.97110743
  0
SEQEND
  0
POLYLINE
  8
�������_450�600-02
 66
   1
 39
0.000000
 70
    1
  0
VERTEX
  8
0
 10
1331.18574153
 20
1017.75699338
  0
VERTEX
  8
0
 10
1344.29471645
 20
1025.60923839
  0
VERTEX
  8
0
 10
1350.37817557
 20
1021.96526075
  0
VERTEX
  8
0
 10
1350.37817557
 20
1013.54872600
  0
VERTEX
  8
0
 10
1344.29471645
 20
1009.90474836
  0
VERTEX
  8
0
 10
1331.18574153
 20
1017.75699338
  0
SEQEND
  0
POLYLINE
  8
�������_450�600-02
 66
   1
 39
0.000000
 70
    1
  0
VERTEX
  8
0
 10
1288.06423004
 20
888.60857571
  0
VERTEX
  8
0
 10
1301.17320496
 20
896.46082072
  0
VERTEX
  8
0
 10
1314.28217988
 20
888.60857571
  0
VERTEX
  8
0
 10
1301.17320496
 20
880.75633069
  0
VERTEX
  8
0
 10
1288.06423004
 20
888.60857571
  0
SEQEND
  0
POLYLINE
  8
�������_450�600-02
 66
   1
 39
0.000000
 70
    1
  0
VERTEX
  8
0
 10
1223.38196279
 20
772.37499980
  0
VERTEX
  8
0
 10
1236.49093771
 20
780.22724482
  0
VERTEX
  8
0
 10
1249.59991263
 20
772.37499980
  0
VERTEX
  8
0
 10
1236.49093771
 20
764.52275479
  0
VERTEX
  8
0
 10
1223.38196279
 20
772.37499980
  0
SEQEND
  0
POLYLINE
  8
�������_450�600-02
 66
   1
 39
0.000000
 70
    1
  0
VERTEX
  8
0
 10
1309.62498579
 20
953.18278454
  0
VERTEX
  8
0
 10
1322.73396071
 20
961.03502956
  0
VERTEX
  8
0
 10
1335.84293563
 20
953.18278454
  0
VERTEX
  8
0
 10
1322.73396071
 20
945.33053953
  0
VERTEX
  8
0
 10
1309.62498579
 20
953.18278454
  0
SEQEND
  0
POLYLINE
  8
�������_450�600-02
 66
   1
 39
0.000000
 70
    1
  0
VERTEX
  8
0
 10
1266.50347429
 20
849.86405041
  0
VERTEX
  8
0
 10
1279.61244921
 20
857.71629542
  0
VERTEX
  8
0
 10
1292.72142413
 20
849.86405041
  0
VERTEX
  8
0
 10
1279.61244921
 20
842.01180539
  0
VERTEX
  8
0
 10
1266.50347429
 20
849.86405041
  0
SEQEND
  0
POLYLINE
  8
�������_450�600-02
 66
   1
 39
0.000000
 70
    1
  0
VERTEX
  8
0
 10
1244.94271854
 20
811.11952510
  0
VERTEX
  8
0
 10
1258.05169346
 20
818.97177012
  0
VERTEX
  8
0
 10
1271.16066838
 20
811.11952510
  0
VERTEX
  8
0
 10
1258.05169346
 20
803.26728009
  0
VERTEX
  8
0
 10
1244.94271854
 20
811.11952510
  0
SEQEND
  0
POLYLINE
  8
�������_450�600-02
 66
   1
 39
0.000000
 70
    1
  0
VERTEX
  8
0
 10
1137.13893979
 20
669.05626567
  0
VERTEX
  8
0
 10
1150.24791471
 20
676.90851068
  0
VERTEX
  8
0
 10
1163.35688963
 20
669.05626567
  0
VERTEX
  8
0
 10
1150.24791471
 20
661.20402065
  0
VERTEX
  8
0
 10
1137.13893979
 20
669.05626567
  0
SEQEND
  0
POLYLINE
  8
�������_450�600-02
 66
   1
 39
0.000000
 70
    1
  0
VERTEX
  8
0
 10
1180.26045129
 20
720.71563274
  0
VERTEX
  8
0
 10
1193.36942621
 20
728.56787775
  0
VERTEX
  8
0
 10
1206.47840113
 20
720.71563274
  0
VERTEX
  8
0
 10
1193.36942621
 20
712.86338772
  0
VERTEX
  8
0
 10
1180.26045129
 20
720.71563274
  0
SEQEND
  0
POLYLINE
  8
�������_450�600-02
 66
   1
 39
0.000000
 70
    1
  0
VERTEX
  8
0
 10
1100.71058663
 20
639.16631614
  0
VERTEX
  8
0
 10
1119.78707863
 20
639.16631614
 42
0.33037872
  0
VERTEX
  8
0
 10
1111.59742488
 20
629.09383230
 42
0.33037872
  0
VERTEX
  8
0
 10
1118.85976578
 20
618.33354588
  0
VERTEX
  8
0
 10
1101.63789948
 20
618.33354588
 42
0.33037872
  0
VERTEX
  8
0
 10
1108.90024038
 20
629.09383230
 42
0.33037872
  0
VERTEX
  8
0
 10
1100.71058663
 20
639.16631614
  0
SEQEND
  0
POLYLINE
  8
�������_450�600-02
 66
   1
 39
0.000000
 70
    1
  0
VERTEX
  8
0
 10
1288.06423004
 20
914.43825924
  0
VERTEX
  8
0
 10
1301.17320496
 20
922.29050425
  0
VERTEX
  8
0
 10
1314.28217988
 20
914.43825924
  0
VERTEX
  8
0
 10
1301.17320496
 20
906.58601423
  0
VERTEX
  8
0
 10
1288.06423004
 20
914.43825924
  0
SEQEND
  0
POLYLINE
  8
�������_450�600-02
 66
   1
 39
0.000000
 70
    1
  0
VERTEX
  8
0
 10
1115.57818404
 20
656.14142390
  0
VERTEX
  8
0
 10
1128.68715896
 20
663.99366891
  0
VERTEX
  8
0
 10
1141.79613388
 20
656.14142390
  0
VERTEX
  8
0
 10
1128.68715896
 20
648.28917889
  0
VERTEX
  8
0
 10
1115.57818404
 20
656.14142390
  0
SEQEND
  0
POLYLINE
  8
�������_450�600-02
 66
   1
 39
0.000000
 70
    1
  0
VERTEX
  8
0
 10
1309.62498579
 20
979.01246808
  0
VERTEX
  8
0
 10
1322.73396071
 20
986.86471309
  0
VERTEX
  8
0
 10
1335.84293563
 20
979.01246808
  0
VERTEX
  8
0
 10
1322.73396071
 20
971.16022306
  0
VERTEX
  8
0
 10
1309.62498579
 20
979.01246808
  0
SEQEND
  0
POLYLINE
  8
�������_450�600-02
 66
   1
 39
0.000000
 70
    1
  0
VERTEX
  8
0
 10
1201.82120704
 20
759.46015804
  0
VERTEX
  8
0
 10
1214.93018196
 20
767.31240305
  0
VERTEX
  8
0
 10
1228.03915688
 20
759.46015804
  0
VERTEX
  8
0
 10
1214.93018196
 20
751.60791302
  0
VERTEX
  8
0
 10
1201.82120704
 20
759.46015804
  0
SEQEND
  0
POLYLINE
  8
�������_450�600-02
 66
   1
 39
0.000000
 70
    1
  0
VERTEX
  8
0
 10
1101.67306015
 20
647.81228753
  0
VERTEX
  8
0
 10
1107.12640322
 20
651.07882715
  0
VERTEX
  8
0
 10
1112.57974628
 20
647.81228753
  0
VERTEX
  8
0
 10
1101.67306015
 20
647.81228753
  0
SEQEND
  0
POLYLINE
  8
�������_450�600-02
 66
   1
 39
0.000000
 70
    1
  0
VERTEX
  8
0
 10
1158.69969554
 20
707.80079097
  0
VERTEX
  8
0
 10
1171.80867046
 20
715.65303598
  0
VERTEX
  8
0
 10
1184.91764538
 20
707.80079097
  0
VERTEX
  8
0
 10
1171.80867046
 20
699.94854596
  0
VERTEX
  8
0
 10
1158.69969554
 20
707.80079097
  0
SEQEND
  0
POLYLINE
  8
�������_450�600-02
 66
   1
 39
0.000000
 70
    1
  0
VERTEX
  8
0
 10
1266.50347429
 20
875.69373394
  0
VERTEX
  8
0
 10
1279.61244921
 20
883.54597895
  0
VERTEX
  8
0
 10
1292.72142413
 20
875.69373394
  0
VERTEX
  8
0
 10
1279.61244921
 20
867.84148893
  0
VERTEX
  8
0
 10
1266.50347429
 20
875.69373394
  0
SEQEND
  0
POLYLINE
  8
�������_450�600-02
 66
   1
 39
0.000000
 70
    1
  0
VERTEX
  8
0
 10
1223.38196279
 20
798.20468334
  0
VERTEX
  8
0
 10
1236.49093771
 20
806.05692835
  0
VERTEX
  8
0
 10
1249.59991263
 20
798.20468334
  0
VERTEX
  8
0
 10
1236.49093771
 20
790.35243832
  0
VERTEX
  8
0
 10
1223.38196279
 20
798.20468334
  0
SEQEND
  0
POLYLINE
  8
�������_450�600-02
 66
   1
 39
0.000000
 70
    1
  0
VERTEX
  8
0
 10
1244.94271854
 20
836.94920864
  0
VERTEX
  8
0
 10
1258.05169346
 20
844.80145365
  0
VERTEX
  8
0
 10
1271.16066838
 20
836.94920864
  0
VERTEX
  8
0
 10
1258.05169346
 20
829.09696363
  0
VERTEX
  8
0
 10
1244.94271854
 20
836.94920864
  0
SEQEND
  0
POLYLINE
  8
�������_450�600-02
 66
   1
 39
0.000000
 70
    1
  0
VERTEX
  8
0
 10
1309.62498579
 20
1004.84215161
  0
VERTEX
  8
0
 10
1322.73396071
 20
1012.69439662
  0
VERTEX
  8
0
 10
1335.84293563
 20
1004.84215161
  0
VERTEX
  8
0
 10
1322.73396071
 20
996.98990660
  0
VERTEX
  8
0
 10
1309.62498579
 20
1004.84215161
  0
SEQEND
  0
POLYLINE
  8
�������_450�600-02
 66
   1
 39
0.000000
 70
    1
  0
VERTEX
  8
0
 10
1288.06423004
 20
940.26794278
  0
VERTEX
  8
0
 10
1301.17320496
 20
948.12018779
  0
VERTEX
  8
0
 10
1314.28217988
 20
940.26794278
  0
VERTEX
  8
0
 10
1301.17320496
 20
932.41569776
  0
VERTEX
  8
0
 10
1288.06423004
 20
940.26794278
  0
SEQEND
  0
POLYLINE
  8
�������_450�600-02
 66
   1
 39
0.000000
 70
    1
  0
VERTEX
  8
0
 10
1180.26045129
 20
746.54531627
  0
VERTEX
  8
0
 10
1193.36942621
 20
754.39756128
  0
VERTEX
  8
0
 10
1206.47840113
 20
746.54531627
  0
VERTEX
  8
0
 10
1193.36942621
 20
738.69307126
  0
VERTEX
  8
0
 10
1180.26045129
 20
746.54531627
  0
SEQEND
  0
POLYLINE
  8
�������_450�600-02
 66
   1
 39
0.000000
 70
    1
  0
VERTEX
  8
0
 10
1137.13893979
 20
694.88594920
  0
VERTEX
  8
0
 10
1150.24791471
 20
702.73819422
  0
VERTEX
  8
0
 10
1163.35688963
 20
694.88594920
  0
VERTEX
  8
0
 10
1150.24791471
 20
687.03370419
  0
VERTEX
  8
0
 10
1137.13893979
 20
694.88594920
  0
SEQEND
  0
POLYLINE
  8
�������_450�600-02
 66
   1
 39
0.000000
 70
    1
  0
VERTEX
  8
0
 10
1309.62498579
 20
1030.67183514
  0
VERTEX
  8
0
 10
1322.73396071
 20
1038.52408016
  0
VERTEX
  8
0
 10
1335.84293563
 20
1030.67183514
  0
VERTEX
  8
0
 10
1322.73396071
 20
1022.81959013
  0
VERTEX
  8
0
 10
1309.62498579
 20
1030.67183514
  0
SEQEND
  0
POLYLINE
  8
�������_450�600-02
 66
   1
 39
0.000000
 70
    1
  0
VERTEX
  8
0
 10
1076.24377074
 20
639.16631614
  0
VERTEX
  8
0
 10
1095.32026275
 20
639.16631614
 42
0.33037872
  0
VERTEX
  8
0
 10
1087.13060899
 20
629.09383230
 42
0.33037872
  0
VERTEX
  8
0
 10
1094.39294990
 20
618.33354588
  0
VERTEX
  8
0
 10
1077.17108359
 20
618.33354588
 42
0.33037872
  0
VERTEX
  8
0
 10
1084.43342449
 20
629.09383230
 42
0.33037872
  0
VERTEX
  8
0
 10
1076.24377074
 20
639.16631614
  0
SEQEND
  0
POLYLINE
  8
�������_450�600-02
 66
   1
 39
0.000000
 70
    1
  0
VERTEX
  8
0
 10
1266.50347429
 20
901.52341747
  0
VERTEX
  8
0
 10
1279.61244921
 20
909.37566249
  0
VERTEX
  8
0
 10
1292.72142413
 20
901.52341747
  0
VERTEX
  8
0
 10
1279.61244921
 20
893.67117246
  0
VERTEX
  8
0
 10
1266.50347429
 20
901.52341747
  0
SEQEND
  0
POLYLINE
  8
�������_450�600-02
 66
   1
 39
0.000000
 70
    1
  0
VERTEX
  8
0
 10
1201.82120704
 20
785.28984157
  0
VERTEX
  8
0
 10
1214.93018196
 20
793.14208658
  0
VERTEX
  8
0
 10
1228.03915688
 20
785.28984157
  0
VERTEX
  8
0
 10
1214.93018196
 20
777.43759656
  0
VERTEX
  8
0
 10
1201.82120704
 20
785.28984157
  0
SEQEND
  0
POLYLINE
  8
�������_450�600-02
 66
   1
 39
0.000000
 70
    1
  0
VERTEX
  8
0
 10
1288.06423004
 20
966.09762631
  0
VERTEX
  8
0
 10
1301.17320496
 20
973.94987132
  0
VERTEX
  8
0
 10
1314.28217988
 20
966.09762631
  0
VERTEX
  8
0
 10
1301.17320496
 20
958.24538130
  0
VERTEX
  8
0
 10
1288.06423004
 20
966.09762631
  0
SEQEND
  0
POLYLINE
  8
�������_450�600-02
 66
   1
 39
0.000000
 70
    1
  0
VERTEX
  8
0
 10
1244.94271854
 20
862.77889217
  0
VERTEX
  8
0
 10
1258.05169346
 20
870.63113719
  0
VERTEX
  8
0
 10
1271.16066838
 20
862.77889217
  0
VERTEX
  8
0
 10
1258.05169346
 20
854.92664716
  0
VERTEX
  8
0
 10
1244.94271854
 20
862.77889217
  0
SEQEND
  0
POLYLINE
  8
�������_450�600-02
 66
   1
 39
0.000000
 70
    1
  0
VERTEX
  8
0
 10
1115.57818404
 20
681.97110743
  0
VERTEX
  8
0
 10
1128.68715896
 20
689.82335245
  0
VERTEX
  8
0
 10
1141.79613388
 20
681.97110743
  0
VERTEX
  8
0
 10
1128.68715896
 20
674.11886242
  0
VERTEX
  8
0
 10
1115.57818404
 20
681.97110743
  0
SEQEND
  0
POLYLINE
  8
�������_450�600-02
 66
   1
 39
0.000000
 70
    1
  0
VERTEX
  8
0
 10
1223.38196279
 20
824.03436687
  0
VERTEX
  8
0
 10
1236.49093771
 20
831.88661189
  0
VERTEX
  8
0
 10
1249.59991263
 20
824.03436687
  0
VERTEX
  8
0
 10
1236.49093771
 20
816.18212186
  0
VERTEX
  8
0
 10
1223.38196279
 20
824.03436687
  0
SEQEND
  0
POLYLINE
  8
�������_450�600-02
 66
   1
 39
0.000000
 70
    1
  0
VERTEX
  8
0
 10
1158.69969554
 20
733.63047450
  0
VERTEX
  8
0
 10
1171.80867046
 20
741.48271952
  0
VERTEX
  8
0
 10
1184.91764538
 20
733.63047450
  0
VERTEX
  8
0
 10
1171.80867046
 20
725.77822949
  0
VERTEX
  8
0
 10
1158.69969554
 20
733.63047450
  0
SEQEND
  0
POLYLINE
  8
�������_450�600-02
 66
   1
 39
0.000000
 70
    1
  0
VERTEX
  8
0
 10
1094.01742830
 20
669.05626567
  0
VERTEX
  8
0
 10
1107.12640322
 20
676.90851068
  0
VERTEX
  8
0
 10
1120.23537814
 20
669.05626567
  0
VERTEX
  8
0
 10
1107.12640322
 20
661.20402065
  0
VERTEX
  8
0
 10
1094.01742830
 20
669.05626567
  0
SEQEND
  0
POLYLINE
  8
�������_450�600-02
 66
   1
 39
0.000000
 70
    1
  0
VERTEX
  8
0
 10
1266.50347429
 20
927.35310101
  0
VERTEX
  8
0
 10
1279.61244921
 20
935.20534602
  0
VERTEX
  8
0
 10
1292.72142413
 20
927.35310101
  0
VERTEX
  8
0
 10
1279.61244921
 20
919.50085599
  0
VERTEX
  8
0
 10
1266.50347429
 20
927.35310101
  0
SEQEND
  0
POLYLINE
  8
�������_450�600-02
 66
   1
 39
0.000000
 70
    1
  0
VERTEX
  8
0
 10
1288.06423004
 20
991.92730984
  0
VERTEX
  8
0
 10
1301.17320496
 20
999.77955486
  0
VERTEX
  8
0
 10
1314.28217988
 20
991.92730984
  0
VERTEX
  8
0
 10
1301.17320496
 20
984.07506483
  0
VERTEX
  8
0
 10
1288.06423004
 20
991.92730984
  0
SEQEND
  0
POLYLINE
  8
�������_450�600-02
 66
   1
 39
0.000000
 70
    1
  0
VERTEX
  8
0
 10
1180.26045129
 20
772.37499980
  0
VERTEX
  8
0
 10
1193.36942621
 20
780.22724482
  0
VERTEX
  8
0
 10
1206.47840113
 20
772.37499980
  0
VERTEX
  8
0
 10
1193.36942621
 20
764.52275479
  0
VERTEX
  8
0
 10
1180.26045129
 20
772.37499980
  0
SEQEND
  0
POLYLINE
  8
�������_450�600-02
 66
   1
 39
0.000000
 70
    1
  0
VERTEX
  8
0
 10
1137.13893979
 20
720.71563274
  0
VERTEX
  8
0
 10
1150.24791471
 20
728.56787775
  0
VERTEX
  8
0
 10
1163.35688963
 20
720.71563274
  0
VERTEX
  8
0
 10
1150.24791471
 20
712.86338772
  0
VERTEX
  8
0
 10
1137.13893979
 20
720.71563274
  0
SEQEND
  0
POLYLINE
  8
�������_450�600-02
 66
   1
 39
0.000000
 70
    1
  0
VERTEX
  8
0
 10
1244.94271854
 20
888.60857571
  0
VERTEX
  8
0
 10
1258.05169346
 20
896.46082072
  0
VERTEX
  8
0
 10
1271.16066838
 20
888.60857571
  0
VERTEX
  8
0
 10
1258.05169346
 20
880.75633069
  0
VERTEX
  8
0
 10
1244.94271854
 20
888.60857571
  0
SEQEND
  0
POLYLINE
  8
�������_450�600-02
 66
   1
 39
0.000000
 70
    1
  0
VERTEX
  8
0
 10
1072.45667255
 20
656.14142390
  0
VERTEX
  8
0
 10
1085.56564747
 20
663.99366891
  0
VERTEX
  8
0
 10
1098.67462239
 20
656.14142390
  0
VERTEX
  8
0
 10
1085.56564747
 20
648.28917889
  0
VERTEX
  8
0
 10
1072.45667255
 20
656.14142390
  0
SEQEND
  0
POLYLINE
  8
�������_450�600-02
 66
   1
 39
0.000000
 70
    1
  0
VERTEX
  8
0
 10
1051.77695486
 20
639.16631614
  0
VERTEX
  8
0
 10
1070.85344686
 20
639.16631614
 42
0.33037872
  0
VERTEX
  8
0
 10
1062.66379311
 20
629.09383230
 42
0.33037872
  0
VERTEX
  8
0
 10
1069.92613401
 20
618.33354588
  0
VERTEX
  8
0
 10
1052.70426771
 20
618.33354588
 42
0.33037872
  0
VERTEX
  8
0
 10
1059.96660861
 20
629.09383230
 42
0.33037872
  0
VERTEX
  8
0
 10
1051.77695486
 20
639.16631614
  0
SEQEND
  0
POLYLINE
  8
�������_450�600-02
 66
   1
 39
0.000000
 70
    1
  0
VERTEX
  8
0
 10
1201.82120704
 20
811.11952510
  0
VERTEX
  8
0
 10
1214.93018196
 20
818.97177012
  0
VERTEX
  8
0
 10
1228.03915688
 20
811.11952510
  0
VERTEX
  8
0
 10
1214.93018196
 20
803.26728009
  0
VERTEX
  8
0
 10
1201.82120704
 20
811.11952510
  0
SEQEND
  0
POLYLINE
  8
�������_450�600-02
 66
   1
 39
0.000000
 70
    1
  0
VERTEX
  8
0
 10
1288.06423004
 20
1017.75699338
  0
VERTEX
  8
0
 10
1301.17320496
 20
1025.60923839
  0
VERTEX
  8
0
 10
1314.28217988
 20
1017.75699338
  0
VERTEX
  8
0
 10
1301.17320496
 20
1009.90474836
  0
VERTEX
  8
0
 10
1288.06423004
 20
1017.75699338
  0
SEQEND
  0
POLYLINE
  8
�������_450�600-02
 66
   1
 39
0.000000
 70
    1
  0
VERTEX
  8
0
 10
1223.38196279
 20
849.86405041
  0
VERTEX
  8
0
 10
1236.49093771
 20
857.71629542
  0
VERTEX
  8
0
 10
1249.59991263
 20
849.86405041
  0
VERTEX
  8
0
 10
1236.49093771
 20
842.01180539
  0
VERTEX
  8
0
 10
1223.38196279
 20
849.86405041
  0
SEQEND
  0
POLYLINE
  8
�������_450�600-02
 66
   1
 39
0.000000
 70
    1
  0
VERTEX
  8
0
 10
1058.55154865
 20
647.81228753
  0
VERTEX
  8
0
 10
1064.00489172
 20
651.07882715
  0
VERTEX
  8
0
 10
1069.45823478
 20
647.81228753
  0
VERTEX
  8
0
 10
1058.55154865
 20
647.81228753
  0
SEQEND
  0
POLYLINE
  8
�������_450�600-02
 66
   1
 39
0.000000
 70
    1
  0
VERTEX
  8
0
 10
1266.50347429
 20
953.18278454
  0
VERTEX
  8
0
 10
1279.61244921
 20
961.03502956
  0
VERTEX
  8
0
 10
1292.72142413
 20
953.18278454
  0
VERTEX
  8
0
 10
1279.61244921
 20
945.33053953
  0
VERTEX
  8
0
 10
1266.50347429
 20
953.18278454
  0
SEQEND
  0
POLYLINE
  8
�������_450�600-02
 66
   1
 39
0.000000
 70
    1
  0
VERTEX
  8
0
 10
1115.57818404
 20
707.80079097
  0
VERTEX
  8
0
 10
1128.68715896
 20
715.65303598
  0
VERTEX
  8
0
 10
1141.79613388
 20
707.80079097
  0
VERTEX
  8
0
 10
1128.68715896
 20
699.94854596
  0
VERTEX
  8
0
 10
1115.57818404
 20
707.80079097
  0
SEQEND
  0
POLYLINE
  8
�������_450�600-02
 66
   1
 39
0.000000
 70
    1
  0
VERTEX
  8
0
 10
1158.69969554
 20
759.46015804
  0
VERTEX
  8
0
 10
1171.80867046
 20
767.31240305
  0
VERTEX
  8
0
 10
1184.91764538
 20
759.46015804
  0
VERTEX
  8
0
 10
1171.80867046
 20
751.60791302
  0
VERTEX
  8
0
 10
1158.69969554
 20
759.46015804
  0
SEQEND
  0
POLYLINE
  8
�������_450�600-02
 66
   1
 39
0.000000
 70
    1
  0
VERTEX
  8
0
 10
1288.06423004
 20
1043.58667691
  0
VERTEX
  8
0
 10
1301.17320496
 20
1051.43892193
  0
VERTEX
  8
0
 10
1314.28217988
 20
1043.58667691
  0
VERTEX
  8
0
 10
1301.17320496
 20
1035.73443190
  0
VERTEX
  8
0
 10
1288.06423004
 20
1043.58667691
  0
SEQEND
  0
POLYLINE
  8
�������_450�600-02
 66
   1
 39
0.000000
 70
    1
  0
VERTEX
  8
0
 10
1244.94271854
 20
914.43825924
  0
VERTEX
  8
0
 10
1258.05169346
 20
922.29050425
  0
VERTEX
  8
0
 10
1271.16066838
 20
914.43825924
  0
VERTEX
  8
0
 10
1258.05169346
 20
906.58601423
  0
VERTEX
  8
0
 10
1244.94271854
 20
914.43825924
  0
SEQEND
  0
POLYLINE
  8
�������_450�600-02
 66
   1
 39
0.000000
 70
    1
  0
VERTEX
  8
0
 10
1266.50347429
 20
979.01246808
  0
VERTEX
  8
0
 10
1279.61244921
 20
986.86471309
  0
VERTEX
  8
0
 10
1292.72142413
 20
979.01246808
  0
VERTEX
  8
0
 10
1279.61244921
 20
971.16022306
  0
VERTEX
  8
0
 10
1266.50347429
 20
979.01246808
  0
SEQEND
  0
POLYLINE
  8
�������_450�600-02
 66
   1
 39
0.000000
 70
    1
  0
VERTEX
  8
0
 10
1180.26045129
 20
798.20468334
  0
VERTEX
  8
0
 10
1193.36942621
 20
806.05692835
  0
VERTEX
  8
0
 10
1206.47840113
 20
798.20468334
  0
VERTEX
  8
0
 10
1193.36942621
 20
790.35243832
  0
VERTEX
  8
0
 10
1180.26045129
 20
798.20468334
  0
SEQEND
  0
POLYLINE
  8
�������_450�600-02
 66
   1
 39
0.000000
 70
    1
  0
VERTEX
  8
0
 10
1094.01742830
 20
694.88594920
  0
VERTEX
  8
0
 10
1107.12640322
 20
702.73819422
  0
VERTEX
  8
0
 10
1120.23537814
 20
694.88594920
  0
VERTEX
  8
0
 10
1107.12640322
 20
687.03370419
  0
VERTEX
  8
0
 10
1094.01742830
 20
694.88594920
  0
SEQEND
  0
POLYLINE
  8
�������_450�600-02
 66
   1
 39
0.000000
 70
    1
  0
VERTEX
  8
0
 10
1223.38196279
 20
875.69373394
  0
VERTEX
  8
0
 10
1236.49093771
 20
883.54597895
  0
VERTEX
  8
0
 10
1249.59991263
 20
875.69373394
  0
VERTEX
  8
0
 10
1236.49093771
 20
867.84148893
  0
VERTEX
  8
0
 10
1223.38196279
 20
875.69373394
  0
SEQEND
  0
POLYLINE
  8
�������_450�600-02
 66
   1
 39
0.000000
 70
    1
  0
VERTEX
  8
0
 10
1201.82120704
 20
836.94920864
  0
VERTEX
  8
0
 10
1214.93018196
 20
844.80145365
  0
VERTEX
  8
0
 10
1228.03915688
 20
836.94920864
  0
VERTEX
  8
0
 10
1214.93018196
 20
829.09696363
  0
VERTEX
  8
0
 10
1201.82120704
 20
836.94920864
  0
SEQEND
  0
POLYLINE
  8
�������_450�600-02
 66
   1
 39
0.000000
 70
    1
  0
VERTEX
  8
0
 10
1137.13893979
 20
746.54531627
  0
VERTEX
  8
0
 10
1150.24791471
 20
754.39756128
  0
VERTEX
  8
0
 10
1163.35688963
 20
746.54531627
  0
VERTEX
  8
0
 10
1150.24791471
 20
738.69307126
  0
VERTEX
  8
0
 10
1137.13893979
 20
746.54531627
  0
SEQEND
  0
POLYLINE
  8
�������_450�600-02
 66
   1
 39
0.000000
 70
    1
  0
VERTEX
  8
0
 10
1027.31013897
 20
639.16631614
  0
VERTEX
  8
0
 10
1046.38663097
 20
639.16631614
 42
0.33037872
  0
VERTEX
  8
0
 10
1038.19697722
 20
629.09383230
 42
0.33037872
  0
VERTEX
  8
0
 10
1045.45931812
 20
618.33354588
  0
VERTEX
  8
0
 10
1028.23745182
 20
618.33354588
 42
0.33037872
  0
VERTEX
  8
0
 10
1035.49979272
 20
629.09383230
 42
0.33037872
  0
VERTEX
  8
0
 10
1027.31013897
 20
639.16631614
  0
SEQEND
  0
POLYLINE
  8
�������_450�600-02
 66
   1
 39
0.000000
 70
    1
  0
VERTEX
  8
0
 10
1072.45667255
 20
681.97110743
  0
VERTEX
  8
0
 10
1085.56564747
 20
689.82335245
  0
VERTEX
  8
0
 10
1098.67462239
 20
681.97110743
  0
VERTEX
  8
0
 10
1085.56564747
 20
674.11886242
  0
VERTEX
  8
0
 10
1072.45667255
 20
681.97110743
  0
SEQEND
  0
POLYLINE
  8
�������_450�600-02
 66
   1
 39
0.000000
 70
    1
  0
VERTEX
  8
0
 10
1266.50347429
 20
1004.84215161
  0
VERTEX
  8
0
 10
1279.61244921
 20
1012.69439662
  0
VERTEX
  8
0
 10
1292.72142413
 20
1004.84215161
  0
VERTEX
  8
0
 10
1279.61244921
 20
996.98990660
  0
VERTEX
  8
0
 10
1266.50347429
 20
1004.84215161
  0
SEQEND
  0
POLYLINE
  8
�������_450�600-02
 66
   1
 39
0.000000
 70
    1
  0
VERTEX
  8
0
 10
1244.94271854
 20
940.26794278
  0
VERTEX
  8
0
 10
1258.05169346
 20
948.12018779
  0
VERTEX
  8
0
 10
1271.16066838
 20
940.26794278
  0
VERTEX
  8
0
 10
1258.05169346
 20
932.41569776
  0
VERTEX
  8
0
 10
1244.94271854
 20
940.26794278
  0
SEQEND
  0
POLYLINE
  8
�������_450�600-02
 66
   1
 39
0.000000
 70
    1
  0
VERTEX
  8
0
 10
1158.69969554
 20
785.28984157
  0
VERTEX
  8
0
 10
1171.80867046
 20
793.14208658
  0
VERTEX
  8
0
 10
1184.91764538
 20
785.28984157
  0
VERTEX
  8
0
 10
1171.80867046
 20
777.43759656
  0
VERTEX
  8
0
 10
1158.69969554
 20
785.28984157
  0
SEQEND
  0
POLYLINE
  8
�������_450�600-02
 66
   1
 39
0.000000
 70
    1
  0
VERTEX
  8
0
 10
1050.89591680
 20
669.05626567
  0
VERTEX
  8
0
 10
1064.00489172
 20
676.90851068
  0
VERTEX
  8
0
 10
1077.11386664
 20
669.05626567
  0
VERTEX
  8
0
 10
1064.00489172
 20
661.20402065
  0
VERTEX
  8
0
 10
1050.89591680
 20
669.05626567
  0
SEQEND
  0
POLYLINE
  8
�������_450�600-02
 66
   1
 39
0.000000
 70
    1
  0
VERTEX
  8
0
 10
1115.57818404
 20
733.63047450
  0
VERTEX
  8
0
 10
1128.68715896
 20
741.48271952
  0
VERTEX
  8
0
 10
1141.79613388
 20
733.63047450
  0
VERTEX
  8
0
 10
1128.68715896
 20
725.77822949
  0
VERTEX
  8
0
 10
1115.57818404
 20
733.63047450
  0
SEQEND
  0
POLYLINE
  8
�������_450�600-02
 66
   1
 39
0.000000
 70
    1
  0
VERTEX
  8
0
 10
1223.38196279
 20
901.52341747
  0
VERTEX
  8
0
 10
1236.49093771
 20
909.37566249
  0
VERTEX
  8
0
 10
1249.59991263
 20
901.52341747
  0
VERTEX
  8
0
 10
1236.49093771
 20
893.67117246
  0
VERTEX
  8
0
 10
1223.38196279
 20
901.52341747
  0
SEQEND
  0
POLYLINE
  8
�������_450�600-02
 66
   1
 39
0.000000
 70
    1
  0
VERTEX
  8
0
 10
1266.50347429
 20
1030.67183514
  0
VERTEX
  8
0
 10
1279.61244921
 20
1038.52408016
  0
VERTEX
  8
0
 10
1292.72142413
 20
1030.67183514
  0
VERTEX
  8
0
 10
1279.61244921
 20
1022.81959013
  0
VERTEX
  8
0
 10
1266.50347429
 20
1030.67183514
  0
SEQEND
  0
POLYLINE
  8
�������_450�600-02
 66
   1
 39
0.000000
 70
    1
  0
VERTEX
  8
0
 10
1180.26045129
 20
824.03436687
  0
VERTEX
  8
0
 10
1193.36942621
 20
831.88661189
  0
VERTEX
  8
0
 10
1206.47840113
 20
824.03436687
  0
VERTEX
  8
0
 10
1193.36942621
 20
816.18212186
  0
VERTEX
  8
0
 10
1180.26045129
 20
824.03436687
  0
SEQEND
  0
POLYLINE
  8
�������_450�600-02
 66
   1
 39
0.000000
 70
    1
  0
VERTEX
  8
0
 10
1201.82120704
 20
862.77889217
  0
VERTEX
  8
0
 10
1214.93018196
 20
870.63113719
  0
VERTEX
  8
0
 10
1228.03915688
 20
862.77889217
  0
VERTEX
  8
0
 10
1214.93018196
 20
854.92664716
  0
VERTEX
  8
0
 10
1201.82120704
 20
862.77889217
  0
SEQEND
  0
POLYLINE
  8
�������_450�600-02
 66
   1
 39
0.000000
 70
    1
  0
VERTEX
  8
0
 10
1029.33516105
 20
656.14142390
  0
VERTEX
  8
0
 10
1042.44413597
 20
663.99366891
  0
VERTEX
  8
0
 10
1055.55311089
 20
656.14142390
  0
VERTEX
  8
0
 10
1042.44413597
 20
648.28917889
  0
VERTEX
  8
0
 10
1029.33516105
 20
656.14142390
  0
SEQEND
  0
POLYLINE
  8
�������_450�600-02
 66
   1
 39
0.000000
 70
    1
  0
VERTEX
  8
0
 10
1244.94271854
 20
966.09762631
  0
VERTEX
  8
0
 10
1258.05169346
 20
973.94987132
  0
VERTEX
  8
0
 10
1271.16066838
 20
966.09762631
  0
VERTEX
  8
0
 10
1258.05169346
 20
958.24538130
  0
VERTEX
  8
0
 10
1244.94271854
 20
966.09762631
  0
SEQEND
  0
POLYLINE
  8
�������_450�600-02
 66
   1
 39
0.000000
 70
    1
  0
VERTEX
  8
0
 10
1015.43003715
 20
647.81228753
  0
VERTEX
  8
0
 10
1020.88338022
 20
651.07882715
  0
VERTEX
  8
0
 10
1026.33672329
 20
647.81228753
  0
VERTEX
  8
0
 10
1015.43003715
 20
647.81228753
  0
SEQEND
  0
POLYLINE
  8
�������_450�600-02
 66
   1
 39
0.000000
 70
    1
  0
VERTEX
  8
0
 10
1266.50347429
 20
1056.50151868
  0
VERTEX
  8
0
 10
1279.61244921
 20
1064.35376369
  0
VERTEX
  8
0
 10
1292.72142413
 20
1056.50151868
  0
VERTEX
  8
0
 10
1279.61244921
 20
1048.64927366
  0
VERTEX
  8
0
 10
1266.50347429
 20
1056.50151868
  0
SEQEND
  0
POLYLINE
  8
�������_450�600-02
 66
   1
 39
0.000000
 70
    1
  0
VERTEX
  8
0
 10
1002.01778641
 20
639.16631614
  0
VERTEX
  8
0
 10
1021.91981509
 20
639.16631614
 42
0.33037872
  0
VERTEX
  8
0
 10
1013.73016134
 20
629.09383230
 42
0.33037872
  0
VERTEX
  8
0
 10
1020.99250224
 20
618.33354588
  0
VERTEX
  8
0
 10
1002.94509926
 20
618.33354588
 42
0.33037872
  0
VERTEX
  8
0
 10
1010.20744016
 20
629.09383230
 42
0.33037872
  0
VERTEX
  8
0
 10
1002.01778641
 20
639.16631614
  0
SEQEND
  0
POLYLINE
  8
�������_450�600-02
 66
   1
 39
0.000000
 70
    1
  0
VERTEX
  8
0
 10
1094.01742830
 20
720.71563274
  0
VERTEX
  8
0
 10
1107.12640322
 20
728.56787775
  0
VERTEX
  8
0
 10
1120.23537814
 20
720.71563274
  0
VERTEX
  8
0
 10
1107.12640322
 20
712.86338772
  0
VERTEX
  8
0
 10
1094.01742830
 20
720.71563274
  0
SEQEND
  0
POLYLINE
  8
�������_450�600-02
 66
   1
 39
0.000000
 70
    1
  0
VERTEX
  8
0
 10
1137.13893979
 20
772.37499980
  0
VERTEX
  8
0
 10
1150.24791471
 20
780.22724482
  0
VERTEX
  8
0
 10
1163.35688963
 20
772.37499980
  0
VERTEX
  8
0
 10
1150.24791471
 20
764.52275479
  0
VERTEX
  8
0
 10
1137.13893979
 20
772.37499980
  0
SEQEND
  0
POLYLINE
  8
�������_450�600-02
 66
   1
 39
0.000000
 70
    1
  0
VERTEX
  8
0
 10
1223.38196279
 20
927.35310101
  0
VERTEX
  8
0
 10
1236.49093771
 20
935.20534602
  0
VERTEX
  8
0
 10
1249.59991263
 20
927.35310101
  0
VERTEX
  8
0
 10
1236.49093771
 20
919.50085599
  0
VERTEX
  8
0
 10
1223.38196279
 20
927.35310101
  0
SEQEND
  0
POLYLINE
  8
�������_450�600-02
 66
   1
 39
0.000000
 70
    1
  0
VERTEX
  8
0
 10
1244.94271854
 20
991.92730984
  0
VERTEX
  8
0
 10
1258.05169346
 20
999.77955486
  0
VERTEX
  8
0
 10
1271.16066838
 20
991.92730984
  0
VERTEX
  8
0
 10
1258.05169346
 20
984.07506483
  0
VERTEX
  8
0
 10
1244.94271854
 20
991.92730984
  0
SEQEND
  0
POLYLINE
  8
�������_450�600-02
 66
   1
 39
0.000000
 70
    1
  0
VERTEX
  8
0
 10
1158.69969554
 20
811.11952510
  0
VERTEX
  8
0
 10
1171.80867046
 20
818.97177012
  0
VERTEX
  8
0
 10
1184.91764538
 20
811.11952510
  0
VERTEX
  8
0
 10
1171.80867046
 20
803.26728009
  0
VERTEX
  8
0
 10
1158.69969554
 20
811.11952510
  0
SEQEND
  0
POLYLINE
  8
�������_450�600-02
 66
   1
 39
0.000000
 70
    1
  0
VERTEX
  8
0
 10
1072.45667255
 20
707.80079097
  0
VERTEX
  8
0
 10
1085.56564747
 20
715.65303598
  0
VERTEX
  8
0
 10
1098.67462239
 20
707.80079097
  0
VERTEX
  8
0
 10
1085.56564747
 20
699.94854596
  0
VERTEX
  8
0
 10
1072.45667255
 20
707.80079097
  0
SEQEND
  0
POLYLINE
  8
�������_450�600-02
 66
   1
 39
0.000000
 70
    1
  0
VERTEX
  8
0
 10
1201.82120704
 20
888.60857571
  0
VERTEX
  8
0
 10
1214.93018196
 20
896.46082072
  0
VERTEX
  8
0
 10
1228.03915688
 20
888.60857571
  0
VERTEX
  8
0
 10
1214.93018196
 20
880.75633069
  0
VERTEX
  8
0
 10
1201.82120704
 20
888.60857571
  0
SEQEND
  0
POLYLINE
  8
�������_450�600-02
 66
   1
 39
0.000000
 70
    1
  0
VERTEX
  8
0
 10
1180.26045129
 20
849.86405041
  0
VERTEX
  8
0
 10
1193.36942621
 20
857.71629542
  0
VERTEX
  8
0
 10
1206.47840113
 20
849.86405041
  0
VERTEX
  8
0
 10
1193.36942621
 20
842.01180539
  0
VERTEX
  8
0
 10
1180.26045129
 20
849.86405041
  0
SEQEND
  0
POLYLINE
  8
�������_450�600-02
 66
   1
 39
0.000000
 70
    1
  0
VERTEX
  8
0
 10
1115.57818404
 20
759.46015804
  0
VERTEX
  8
0
 10
1128.68715896
 20
767.31240305
  0
VERTEX
  8
0
 10
1141.79613388
 20
759.46015804
  0
VERTEX
  8
0
 10
1128.68715896
 20
751.60791302
  0
VERTEX
  8
0
 10
1115.57818404
 20
759.46015804
  0
SEQEND
  0
POLYLINE
  8
�������_450�600-02
 66
   1
 39
0.000000
 70
    1
  0
VERTEX
  8
0
 10
1050.89591680
 20
694.88594920
  0
VERTEX
  8
0
 10
1064.00489172
 20
702.73819422
  0
VERTEX
  8
0
 10
1077.11386664
 20
694.88594920
  0
VERTEX
  8
0
 10
1064.00489172
 20
687.03370419
  0
VERTEX
  8
0
 10
1050.89591680
 20
694.88594920
  0
SEQEND
  0
POLYLINE
  8
�������_450�600-02
 66
   1
 39
0.000000
 70
    1
  0
VERTEX
  8
0
 10
1244.94271854
 20
1017.75699338
  0
VERTEX
  8
0
 10
1258.05169346
 20
1025.60923839
  0
VERTEX
  8
0
 10
1271.16066838
 20
1017.75699338
  0
VERTEX
  8
0
 10
1258.05169346
 20
1009.90474836
  0
VERTEX
  8
0
 10
1244.94271854
 20
1017.75699338
  0
SEQEND
  0
POLYLINE
  8
�������_450�600-02
 66
   1
 39
0.000000
 70
    1
  0
VERTEX
  8
0
 10
1223.38196279
 20
953.18278454
  0
VERTEX
  8
0
 10
1236.49093771
 20
961.03502956
  0
VERTEX
  8
0
 10
1249.59991263
 20
953.18278454
  0
VERTEX
  8
0
 10
1236.49093771
 20
945.33053953
  0
VERTEX
  8
0
 10
1223.38196279
 20
953.18278454
  0
SEQEND
  0
POLYLINE
  8
�������_450�600-02
 66
   1
 39
0.000000
 70
    1
  0
VERTEX
  8
0
 10
976.72543385
 20
639.16631614
  0
VERTEX
  8
0
 10
996.62746253
 20
639.16631614
 42
0.33037872
  0
VERTEX
  8
0
 10
988.43780878
 20
629.09383230
 42
0.33037872
  0
VERTEX
  8
0
 10
995.70014968
 20
618.33354588
  0
VERTEX
  8
0
 10
977.65274670
 20
618.33354588
 42
0.33037872
  0
VERTEX
  8
0
 10
984.91508761
 20
629.09383230
 42
0.33037872
  0
VERTEX
  8
0
 10
976.72543385
 20
639.16631614
  0
SEQEND
  0
POLYLINE
  8
�������_450�600-02
 66
   1
 39
0.000000
 70
    1
  0
VERTEX
  8
0
 10
1137.13893979
 20
798.20468334
  0
VERTEX
  8
0
 10
1150.24791471
 20
806.05692835
  0
VERTEX
  8
0
 10
1163.35688963
 20
798.20468334
  0
VERTEX
  8
0
 10
1150.24791471
 20
790.35243832
  0
VERTEX
  8
0
 10
1137.13893979
 20
798.20468334
  0
SEQEND
  0
POLYLINE
  8
�������_450�600-02
 66
   1
 39
0.000000
 70
    1
  0
VERTEX
  8
0
 10
1029.33516105
 20
681.97110743
  0
VERTEX
  8
0
 10
1042.44413597
 20
689.82335245
  0
VERTEX
  8
0
 10
1055.55311089
 20
681.97110743
  0
VERTEX
  8
0
 10
1042.44413597
 20
674.11886242
  0
VERTEX
  8
0
 10
1029.33516105
 20
681.97110743
  0
SEQEND
  0
POLYLINE
  8
�������_450�600-02
 66
   1
 39
0.000000
 70
    1
  0
VERTEX
  8
0
 10
1094.01742830
 20
746.54531627
  0
VERTEX
  8
0
 10
1107.12640322
 20
754.39756128
  0
VERTEX
  8
0
 10
1120.23537814
 20
746.54531627
  0
VERTEX
  8
0
 10
1107.12640322
 20
738.69307126
  0
VERTEX
  8
0
 10
1094.01742830
 20
746.54531627
  0
SEQEND
  0
POLYLINE
  8
�������_450�600-02
 66
   1
 39
0.000000
 70
    1
  0
VERTEX
  8
0
 10
1244.94271854
 20
1043.58667691
  0
VERTEX
  8
0
 10
1258.05169346
 20
1051.43892193
  0
VERTEX
  8
0
 10
1271.16066838
 20
1043.58667691
  0
VERTEX
  8
0
 10
1258.05169346
 20
1035.73443190
  0
VERTEX
  8
0
 10
1244.94271854
 20
1043.58667691
  0
SEQEND
  0
POLYLINE
  8
�������_450�600-02
 66
   1
 39
0.000000
 70
    1
  0
VERTEX
  8
0
 10
1201.82120704
 20
914.43825924
  0
VERTEX
  8
0
 10
1214.93018196
 20
922.29050425
  0
VERTEX
  8
0
 10
1228.03915688
 20
914.43825924
  0
VERTEX
  8
0
 10
1214.93018196
 20
906.58601423
  0
VERTEX
  8
0
 10
1201.82120704
 20
914.43825924
  0
SEQEND
  0
POLYLINE
  8
�������_450�600-02
 66
   1
 39
0.000000
 70
    1
  0
VERTEX
  8
0
 10
1158.69969554
 20
836.94920864
  0
VERTEX
  8
0
 10
1171.80867046
 20
844.80145365
  0
VERTEX
  8
0
 10
1184.91764538
 20
836.94920864
  0
VERTEX
  8
0
 10
1171.80867046
 20
829.09696363
  0
VERTEX
  8
0
 10
1158.69969554
 20
836.94920864
  0
SEQEND
  0
POLYLINE
  8
�������_450�600-02
 66
   1
 39
0.000000
 70
    1
  0
VERTEX
  8
0
 10
1007.77440530
 20
669.05626567
  0
VERTEX
  8
0
 10
1020.88338022
 20
676.90851068
  0
VERTEX
  8
0
 10
1033.99235514
 20
669.05626567
  0
VERTEX
  8
0
 10
1020.88338022
 20
661.20402065
  0
VERTEX
  8
0
 10
1007.77440530
 20
669.05626567
  0
SEQEND
  0
POLYLINE
  8
�������_450�600-02
 66
   1
 39
0.000000
 70
    1
  0
VERTEX
  8
0
 10
1180.26045129
 20
875.69373394
  0
VERTEX
  8
0
 10
1193.36942621
 20
883.54597895
  0
VERTEX
  8
0
 10
1206.47840113
 20
875.69373394
  0
VERTEX
  8
0
 10
1193.36942621
 20
867.84148893
  0
VERTEX
  8
0
 10
1180.26045129
 20
875.69373394
  0
SEQEND
  0
POLYLINE
  8
�������_450�600-02
 66
   1
 39
0.000000
 70
    1
  0
VERTEX
  8
0
 10
1223.38196279
 20
979.01246808
  0
VERTEX
  8
0
 10
1236.49093771
 20
986.86471309
  0
VERTEX
  8
0
 10
1249.59991263
 20
979.01246808
  0
VERTEX
  8
0
 10
1236.49093771
 20
971.16022306
  0
VERTEX
  8
0
 10
1223.38196279
 20
979.01246808
  0
SEQEND
  0
POLYLINE
  8
�������_450�600-02
 66
   1
 39
0.000000
 70
    1
  0
VERTEX
  8
0
 10
986.21364955
 20
656.14142390
  0
VERTEX
  8
0
 10
999.32262447
 20
663.99366891
  0
VERTEX
  8
0
 10
1012.43159939
 20
656.14142390
  0
VERTEX
  8
0
 10
999.32262447
 20
648.28917889
  0
VERTEX
  8
0
 10
986.21364955
 20
656.14142390
  0
SEQEND
  0
POLYLINE
  8
�������_450�600-02
 66
   1
 39
0.000000
 70
    1
  0
VERTEX
  8
0
 10
1244.94271854
 20
1069.41636045
  0
VERTEX
  8
0
 10
1258.05169346
 20
1077.26860546
  0
VERTEX
  8
0
 10
1271.16066838
 20
1069.41636045
  0
VERTEX
  8
0
 10
1258.05169346
 20
1061.56411543
  0
VERTEX
  8
0
 10
1244.94271854
 20
1069.41636045
  0
SEQEND
  0
POLYLINE
  8
�������_450�600-02
 66
   1
 39
0.000000
 70
    1
  0
VERTEX
  8
0
 10
972.30852565
 20
647.81228753
  0
VERTEX
  8
0
 10
977.76186872
 20
651.07882715
  0
VERTEX
  8
0
 10
983.21521179
 20
647.81228753
  0
VERTEX
  8
0
 10
972.30852565
 20
647.81228753
  0
SEQEND
  0
POLYLINE
  8
�������_450�600-02
 66
   1
 39
0.000000
 70
    1
  0
VERTEX
  8
0
 10
1072.45667255
 20
733.63047450
  0
VERTEX
  8
0
 10
1085.56564747
 20
741.48271952
  0
VERTEX
  8
0
 10
1098.67462239
 20
733.63047450
  0
VERTEX
  8
0
 10
1085.56564747
 20
725.77822949
  0
VERTEX
  8
0
 10
1072.45667255
 20
733.63047450
  0
SEQEND
  0
POLYLINE
  8
�������_450�600-02
 66
   1
 39
0.000000
 70
    1
  0
VERTEX
  8
0
 10
1115.57818404
 20
785.28984157
  0
VERTEX
  8
0
 10
1128.68715896
 20
793.14208658
  0
VERTEX
  8
0
 10
1141.79613388
 20
785.28984157
  0
VERTEX
  8
0
 10
1128.68715896
 20
777.43759656
  0
VERTEX
  8
0
 10
1115.57818404
 20
785.28984157
  0
SEQEND
  0
POLYLINE
  8
�������_450�600-02
 66
   1
 39
0.000000
 70
    1
  0
VERTEX
  8
0
 10
952.25861797
 20
639.16631614
  0
VERTEX
  8
0
 10
971.33510997
 20
639.16631614
 42
0.33037872
  0
VERTEX
  8
0
 10
963.14545622
 20
629.09383230
 42
0.33037872
  0
VERTEX
  8
0
 10
970.40779712
 20
618.33354588
  0
VERTEX
  8
0
 10
953.18593082
 20
618.33354588
 42
0.33037872
  0
VERTEX
  8
0
 10
960.44827172
 20
629.09383230
 42
0.33037872
  0
VERTEX
  8
0
 10
952.25861797
 20
639.16631614
  0
SEQEND
  0
POLYLINE
  8
�������_450�600-02
 66
   1
 39
0.000000
 70
    1
  0
VERTEX
  8
0
 10
1201.82120704
 20
940.26794278
  0
VERTEX
  8
0
 10
1214.93018196
 20
948.12018779
  0
VERTEX
  8
0
 10
1228.03915688
 20
940.26794278
  0
VERTEX
  8
0
 10
1214.93018196
 20
932.41569776
  0
VERTEX
  8
0
 10
1201.82120704
 20
940.26794278
  0
SEQEND
  0
POLYLINE
  8
�������_450�600-02
 66
   1
 39
0.000000
 70
    1
  0
VERTEX
  8
0
 10
1223.38196279
 20
1004.84215161
  0
VERTEX
  8
0
 10
1236.49093771
 20
1012.69439662
  0
VERTEX
  8
0
 10
1249.59991263
 20
1004.84215161
  0
VERTEX
  8
0
 10
1236.49093771
 20
996.98990660
  0
VERTEX
  8
0
 10
1223.38196279
 20
1004.84215161
  0
SEQEND
  0
POLYLINE
  8
�������_450�600-02
 66
   1
 39
0.000000
 70
    1
  0
VERTEX
  8
0
 10
1244.94271854
 20
1121.07572751
  0
VERTEX
  8
0
 10
1257.92237982
 20
1128.85051396
 42
0.02720865
  0
VERTEX
  8
0
 10
1263.85931517
 20
1116.70223419
  0
VERTEX
  8
0
 10
1258.05169346
 20
1113.22348250
  0
VERTEX
  8
0
 10
1244.94271854
 20
1121.07572751
  0
SEQEND
  0
POLYLINE
  8
�������_450�600-02
 66
   1
 39
0.000000
 70
    1
  0
VERTEX
  8
0
 10
1050.89591680
 20
720.71563274
  0
VERTEX
  8
0
 10
1064.00489172
 20
728.56787775
  0
VERTEX
  8
0
 10
1077.11386664
 20
720.71563274
  0
VERTEX
  8
0
 10
1064.00489172
 20
712.86338772
  0
VERTEX
  8
0
 10
1050.89591680
 20
720.71563274
  0
SEQEND
  0
POLYLINE
  8
�������_450�600-02
 66
   1
 39
0.000000
 70
    1
  0
VERTEX
  8
0
 10
1137.13893979
 20
824.03436687
  0
VERTEX
  8
0
 10
1150.24791471
 20
831.88661189
  0
VERTEX
  8
0
 10
1163.35688963
 20
824.03436687
  0
VERTEX
  8
0
 10
1150.24791471
 20
816.18212186
  0
VERTEX
  8
0
 10
1137.13893979
 20
824.03436687
  0
SEQEND
  0
POLYLINE
  8
�������_450�600-02
 66
   1
 39
0.000000
 70
    1
  0
VERTEX
  8
0
 10
1180.26045129
 20
901.52341747
  0
VERTEX
  8
0
 10
1193.36942621
 20
909.37566249
  0
VERTEX
  8
0
 10
1206.47840113
 20
901.52341747
  0
VERTEX
  8
0
 10
1193.36942621
 20
893.67117246
  0
VERTEX
  8
0
 10
1180.26045129
 20
901.52341747
  0
SEQEND
  0
POLYLINE
  8
�������_450�600-02
 66
   1
 39
0.000000
 70
    1
  0
VERTEX
  8
0
 10
1244.94271854
 20
1146.90541105
  0
VERTEX
  8
0
 10
1251.01066534
 20
1150.54009685
 42
0.01786155
  0
VERTEX
  8
0
 10
1253.22943152
 20
1141.94168955
  0
VERTEX
  8
0
 10
1244.94271854
 20
1146.90541105
  0
SEQEND
  0
POLYLINE
  8
�������_450�600-02
 66
   1
 39
0.000000
 70
    1
  0
VERTEX
  8
0
 10
1158.69969554
 20
862.77889217
  0
VERTEX
  8
0
 10
1171.80867046
 20
870.63113719
  0
VERTEX
  8
0
 10
1184.91764538
 20
862.77889217
  0
VERTEX
  8
0
 10
1171.80867046
 20
854.92664716
  0
VERTEX
  8
0
 10
1158.69969554
 20
862.77889217
  0
SEQEND
  0
POLYLINE
  8
�������_450�600-02
 66
   1
 39
0.000000
 70
    1
  0
VERTEX
  8
0
 10
1094.01742830
 20
772.37499980
  0
VERTEX
  8
0
 10
1107.12640322
 20
780.22724482
  0
VERTEX
  8
0
 10
1120.23537814
 20
772.37499980
  0
VERTEX
  8
0
 10
1107.12640322
 20
764.52275479
  0
VERTEX
  8
0
 10
1094.01742830
 20
772.37499980
  0
SEQEND
  0
POLYLINE
  8
�������_450�600-02
 66
   1
 39
0.000000
 70
    1
  0
VERTEX
  8
0
 10
1029.33516105
 20
707.80079097
  0
VERTEX
  8
0
 10
1042.44413597
 20
715.65303598
  0
VERTEX
  8
0
 10
1055.55311089
 20
707.80079097
  0
VERTEX
  8
0
 10
1042.44413597
 20
699.94854596
  0
VERTEX
  8
0
 10
1029.33516105
 20
707.80079097
  0
SEQEND
  0
POLYLINE
  8
�������_450�600-02
 66
   1
 39
0.000000
 70
    1
  0
VERTEX
  8
0
 10
1223.38196279
 20
1030.67183514
  0
VERTEX
  8
0
 10
1236.49093771
 20
1038.52408016
  0
VERTEX
  8
0
 10
1249.59991263
 20
1030.67183514
  0
VERTEX
  8
0
 10
1236.49093771
 20
1022.81959013
  0
VERTEX
  8
0
 10
1223.38196279
 20
1030.67183514
  0
SEQEND
  0
POLYLINE
  8
�������_450�600-02
 66
   1
 39
0.000000
 70
    1
  0
VERTEX
  8
0
 10
1201.82120704
 20
966.09762631
  0
VERTEX
  8
0
 10
1214.93018196
 20
973.94987132
  0
VERTEX
  8
0
 10
1228.03915688
 20
966.09762631
  0
VERTEX
  8
0
 10
1214.93018196
 20
958.24538130
  0
VERTEX
  8
0
 10
1201.82120704
 20
966.09762631
  0
SEQEND
  0
POLYLINE
  8
�������_450�600-02
 66
   1
 39
0.000000
 70
    1
  0
VERTEX
  8
0
 10
1007.77440530
 20
694.88594920
  0
VERTEX
  8
0
 10
1020.88338022
 20
702.73819422
  0
VERTEX
  8
0
 10
1033.99235514
 20
694.88594920
  0
VERTEX
  8
0
 10
1020.88338022
 20
687.03370419
  0
VERTEX
  8
0
 10
1007.77440530
 20
694.88594920
  0
SEQEND
  0
POLYLINE
  8
�������_450�600-02
 66
   1
 39
0.000000
 70
    1
  0
VERTEX
  8
0
 10
927.79180208
 20
639.16631614
  0
VERTEX
  8
0
 10
946.86829409
 20
639.16631614
 42
0.33037872
  0
VERTEX
  8
0
 10
938.67864033
 20
629.09383230
 42
0.33037872
  0
VERTEX
  8
0
 10
945.94098124
 20
618.33354588
  0
VERTEX
  8
0
 10
928.71911493
 20
618.33354588
 42
0.33037872
  0
VERTEX
  8
0
 10
935.98145583
 20
629.09383230
 42
0.33037872
  0
VERTEX
  8
0
 10
927.79180208
 20
639.16631614
  0
SEQEND
  0
POLYLINE
  8
�������_450�600-02
 66
   1
 39
0.000000
 70
    1
  0
VERTEX
  8
0
 10
1115.57818404
 20
811.11952510
  0
VERTEX
  8
0
 10
1128.68715896
 20
818.97177012
  0
VERTEX
  8
0
 10
1141.79613388
 20
811.11952510
  0
VERTEX
  8
0
 10
1128.68715896
 20
803.26728009
  0
VERTEX
  8
0
 10
1115.57818404
 20
811.11952510
  0
SEQEND
  0
POLYLINE
  8
�������_450�600-02
 66
   1
 39
0.000000
 70
    1
  0
VERTEX
  8
0
 10
1223.38196279
 20
1056.50151868
  0
VERTEX
  8
0
 10
1236.49093771
 20
1064.35376369
  0
VERTEX
  8
0
 10
1249.59991263
 20
1056.50151868
  0
VERTEX
  8
0
 10
1236.49093771
 20
1048.64927366
  0
VERTEX
  8
0
 10
1223.38196279
 20
1056.50151868
  0
SEQEND
  0
POLYLINE
  8
�������_450�600-02
 66
   1
 39
0.000000
 70
    1
  0
VERTEX
  8
0
 10
1072.45667255
 20
759.46015804
  0
VERTEX
  8
0
 10
1085.56564747
 20
767.31240305
  0
VERTEX
  8
0
 10
1098.67462239
 20
759.46015804
  0
VERTEX
  8
0
 10
1085.56564747
 20
751.60791302
  0
VERTEX
  8
0
 10
1072.45667255
 20
759.46015804
  0
SEQEND
  0
POLYLINE
  8
�������_450�600-02
 66
   1
 39
0.000000
 70
    1
  0
VERTEX
  8
0
 10
1180.26045129
 20
927.35310101
  0
VERTEX
  8
0
 10
1193.36942621
 20
935.20534602
  0
VERTEX
  8
0
 10
1206.47840113
 20
927.35310101
  0
VERTEX
  8
0
 10
1193.36942621
 20
919.50085599
  0
VERTEX
  8
0
 10
1180.26045129
 20
927.35310101
  0
SEQEND
  0
POLYLINE
  8
�������_450�600-02
 66
   1
 39
0.000000
 70
    1
  0
VERTEX
  8
0
 10
986.21364955
 20
681.97110743
  0
VERTEX
  8
0
 10
999.32262447
 20
689.82335245
  0
VERTEX
  8
0
 10
1012.43159939
 20
681.97110743
  0
VERTEX
  8
0
 10
999.32262447
 20
674.11886242
  0
VERTEX
  8
0
 10
986.21364955
 20
681.97110743
  0
SEQEND
  0
POLYLINE
  8
�������_450�600-02
 66
   1
 39
0.000000
 70
    1
  0
VERTEX
  8
0
 10
1137.13893979
 20
849.86405041
  0
VERTEX
  8
0
 10
1150.24791471
 20
857.71629542
  0
VERTEX
  8
0
 10
1163.35688963
 20
849.86405041
  0
VERTEX
  8
0
 10
1150.24791471
 20
842.01180539
  0
VERTEX
  8
0
 10
1137.13893979
 20
849.86405041
  0
SEQEND
  0
POLYLINE
  8
�������_450�600-02
 66
   1
 39
0.000000
 70
    1
  0
VERTEX
  8
0
 10
1158.69969554
 20
888.60857571
  0
VERTEX
  8
0
 10
1171.80867046
 20
896.46082072
  0
VERTEX
  8
0
 10
1184.91764538
 20
888.60857571
  0
VERTEX
  8
0
 10
1171.80867046
 20
880.75633069
  0
VERTEX
  8
0
 10
1158.69969554
 20
888.60857571
  0
SEQEND
  0
POLYLINE
  8
�������_450�600-02
 66
   1
 39
0.000000
 70
    1
  0
VERTEX
  8
0
 10
964.65289380
 20
669.05626567
  0
VERTEX
  8
0
 10
977.76186872
 20
676.90851068
  0
VERTEX
  8
0
 10
990.87084364
 20
669.05626567
  0
VERTEX
  8
0
 10
977.76186872
 20
661.20402065
  0
VERTEX
  8
0
 10
964.65289380
 20
669.05626567
  0
SEQEND
  0
POLYLINE
  8
�������_450�600-02
 66
   1
 39
0.000000
 70
    1
  0
VERTEX
  8
0
 10
1201.82120704
 20
991.92730984
  0
VERTEX
  8
0
 10
1214.93018196
 20
999.77955486
  0
VERTEX
  8
0
 10
1228.03915688
 20
991.92730984
  0
VERTEX
  8
0
 10
1214.93018196
 20
984.07506483
  0
VERTEX
  8
0
 10
1201.82120704
 20
991.92730984
  0
SEQEND
  0
POLYLINE
  8
�������_450�600-02
 66
   1
 39
0.000000
 70
    1
  0
VERTEX
  8
0
 10
1223.38196279
 20
1082.33120221
  0
VERTEX
  8
0
 10
1236.49093771
 20
1090.18344723
  0
VERTEX
  8
0
 10
1249.59991263
 20
1082.33120221
  0
VERTEX
  8
0
 10
1236.49093771
 20
1074.47895720
  0
VERTEX
  8
0
 10
1223.38196279
 20
1082.33120221
  0
SEQEND
  0
POLYLINE
  8
�������_450�600-02
 66
   1
 39
0.000000
 70
    1
  0
VERTEX
  8
0
 10
1231.03759464
 20
1155.23454742
  0
VERTEX
  8
0
 10
1241.94428078
 20
1155.23454742
  0
VERTEX
  8
0
 10
1236.49093771
 20
1151.96800780
  0
VERTEX
  8
0
 10
1231.03759464
 20
1155.23454742
  0
SEQEND
  0
POLYLINE
  8
�������_450�600-02
 66
   1
 39
0.000000
 70
    1
  0
VERTEX
  8
0
 10
943.09213805
 20
656.14142390
  0
VERTEX
  8
0
 10
956.20111297
 20
663.99366891
  0
VERTEX
  8
0
 10
969.31008789
 20
656.14142390
  0
VERTEX
  8
0
 10
956.20111297
 20
648.28917889
  0
VERTEX
  8
0
 10
943.09213805
 20
656.14142390
  0
SEQEND
  0
POLYLINE
  8
�������_450�600-02
 66
   1
 39
0.000000
 70
    1
  0
VERTEX
  8
0
 10
929.18701416
 20
647.81228753
  0
VERTEX
  8
0
 10
934.64035722
 20
651.07882715
  0
VERTEX
  8
0
 10
940.09370029
 20
647.81228753
  0
VERTEX
  8
0
 10
929.18701416
 20
647.81228753
  0
SEQEND
  0
POLYLINE
  8
�������_450�600-02
 66
   1
 39
0.000000
 70
    1
  0
VERTEX
  8
0
 10
1050.89591680
 20
746.54531627
  0
VERTEX
  8
0
 10
1064.00489172
 20
754.39756128
  0
VERTEX
  8
0
 10
1077.11386664
 20
746.54531627
  0
VERTEX
  8
0
 10
1064.00489172
 20
738.69307126
  0
VERTEX
  8
0
 10
1050.89591680
 20
746.54531627
  0
SEQEND
  0
POLYLINE
  8
�������_450�600-02
 66
   1
 39
0.000000
 70
    1
  0
VERTEX
  8
0
 10
1094.01742830
 20
798.20468334
  0
VERTEX
  8
0
 10
1107.12640322
 20
806.05692835
  0
VERTEX
  8
0
 10
1120.23537814
 20
798.20468334
  0
VERTEX
  8
0
 10
1107.12640322
 20
790.35243832
  0
VERTEX
  8
0
 10
1094.01742830
 20
798.20468334
  0
SEQEND
  0
POLYLINE
  8
�������_450�600-02
 66
   1
 39
0.000000
 70
    1
  0
VERTEX
  8
0
 10
1223.38196279
 20
1133.99056928
  0
VERTEX
  8
0
 10
1236.49093771
 20
1141.84281429
  0
VERTEX
  8
0
 10
1249.59991263
 20
1133.99056928
  0
VERTEX
  8
0
 10
1236.49093771
 20
1126.13832427
  0
VERTEX
  8
0
 10
1223.38196279
 20
1133.99056928
  0
SEQEND
  0
POLYLINE
  8
�������_450�600-02
 66
   1
 39
0.000000
 70
    1
  0
VERTEX
  8
0
 10
1180.26045129
 20
953.18278454
  0
VERTEX
  8
0
 10
1193.36942621
 20
961.03502956
  0
VERTEX
  8
0
 10
1206.47840113
 20
953.18278454
  0
VERTEX
  8
0
 10
1193.36942621
 20
945.33053953
  0
VERTEX
  8
0
 10
1180.26045129
 20
953.18278454
  0
SEQEND
  0
POLYLINE
  8
�������_450�600-02
 66
   1
 39
0.000000
 70
    1
  0
VERTEX
  8
0
 10
903.32498620
 20
639.16631614
  0
VERTEX
  8
0
 10
922.40147820
 20
639.16631614
 42
0.33037872
  0
VERTEX
  8
0
 10
914.21182445
 20
629.09383230
 42
0.33037872
  0
VERTEX
  8
0
 10
921.47416535
 20
618.33354588
  0
VERTEX
  8
0
 10
904.25229905
 20
618.33354588
 42
0.33037872
  0
VERTEX
  8
0
 10
911.51463995
 20
629.09383230
 42
0.33037872
  0
VERTEX
  8
0
 10
903.32498620
 20
639.16631614
  0
SEQEND
  0
POLYLINE
  8
�������_450�600-02
 66
   1
 39
0.000000
 70
    1
  0
VERTEX
  8
0
 10
1201.82120704
 20
1017.75699338
  0
VERTEX
  8
0
 10
1214.93018196
 20
1025.60923839
  0
VERTEX
  8
0
 10
1228.03915688
 20
1017.75699338
  0
VERTEX
  8
0
 10
1214.93018196
 20
1009.90474836
  0
VERTEX
  8
0
 10
1201.82120704
 20
1017.75699338
  0
SEQEND
  0
POLYLINE
  8
�������_450�600-02
 66
   1
 39
0.000000
 70
    1
  0
VERTEX
  8
0
 10
1104.12420307
 20
817.98043265
 42
0.02523298
  0
VERTEX
  8
0
 10
1112.00712711
 20
828.96306980
  0
VERTEX
  8
0
 10
1120.23537814
 20
824.03436687
  0
VERTEX
  8
0
 10
1107.12640322
 20
816.18212186
  0
VERTEX
  8
0
 10
1104.12420307
 20
817.98043265
  0
SEQEND
  0
POLYLINE
  8
�������_450�600-02
 66
   1
 39
0.000000
 70
    1
  0
VERTEX
  8
0
 10
1029.33516105
 20
733.63047450
  0
VERTEX
  8
0
 10
1042.44413597
 20
741.48271952
  0
VERTEX
  8
0
 10
1055.55311089
 20
733.63047450
  0
VERTEX
  8
0
 10
1042.44413597
 20
725.77822949
  0
VERTEX
  8
0
 10
1029.33516105
 20
733.63047450
  0
SEQEND
  0
POLYLINE
  8
�������_450�600-02
 66
   1
 39
0.000000
 70
    1
  0
VERTEX
  8
0
 10
1117.34032188
 20
838.00472504
  0
VERTEX
  8
0
 10
1128.68715896
 20
844.80145365
  0
VERTEX
  8
0
 10
1141.79613388
 20
836.94920864
  0
VERTEX
  8
0
 10
1128.68715896
 20
829.09696363
  0
VERTEX
  8
0
 10
1116.40971740
 20
836.45112212
  0
VERTEX
  8
0
 10
1117.34032188
 20
838.00472504
  0
SEQEND
  0
POLYLINE
  8
�������_450�600-02
 66
   1
 39
0.000000
 70
    1
  0
VERTEX
  8
0
 10
1223.04466606
 20
1163.88051880
 42
0.33037872
  0
VERTEX
  8
0
 10
1231.23431981
 20
1173.95300264
 42
0.33037872
  0
VERTEX
  8
0
 10
1223.97197891
 20
1184.71328907
  0
VERTEX
  8
0
 10
1244.50994383
 20
1184.71328907
 42
0.33037872
  0
VERTEX
  8
0
 10
1237.24760292
 20
1173.95300264
 42
0.33037872
  0
VERTEX
  8
0
 10
1245.43725668
 20
1163.88051880
  0
VERTEX
  8
0
 10
1223.04466606
 20
1163.88051880
  0
SEQEND
  0
POLYLINE
  8
�������_450�600-02
 66
   1
 39
0.000000
 70
    1
  0
VERTEX
  8
0
 10
1158.69969554
 20
914.43825924
  0
VERTEX
  8
0
 10
1171.80867046
 20
922.29050425
  0
VERTEX
  8
0
 10
1184.91764538
 20
914.43825924
  0
VERTEX
  8
0
 10
1171.80867046
 20
906.58601423
  0
VERTEX
  8
0
 10
1158.69969554
 20
914.43825924
  0
SEQEND
  0
POLYLINE
  8
�������_450�600-02
 66
   1
 39
0.000000
 70
    1
  0
VERTEX
  8
0
 10
1137.13893979
 20
875.69373394
  0
VERTEX
  8
0
 10
1150.24791471
 20
883.54597895
  0
VERTEX
  8
0
 10
1163.35688963
 20
875.69373394
  0
VERTEX
  8
0
 10
1150.24791471
 20
867.84148893
  0
VERTEX
  8
0
 10
1137.13893979
 20
875.69373394
  0
SEQEND
  0
POLYLINE
  8
�������_450�600-02
 66
   1
 39
0.000000
 70
    1
  0
VERTEX
  8
0
 10
1072.45667255
 20
785.28984157
  0
VERTEX
  8
0
 10
1085.56564747
 20
793.14208658
  0
VERTEX
  8
0
 10
1098.67462239
 20
785.28984157
  0
VERTEX
  8
0
 10
1085.56564747
 20
777.43759656
  0
VERTEX
  8
0
 10
1072.45667255
 20
785.28984157
  0
SEQEND
  0
POLYLINE
  8
�������_450�600-02
 66
   1
 39
0.000000
 70
    1
  0
VERTEX
  8
0
 10
1007.77440530
 20
720.71563274
  0
VERTEX
  8
0
 10
1020.88338022
 20
728.56787775
  0
VERTEX
  8
0
 10
1033.99235514
 20
720.71563274
  0
VERTEX
  8
0
 10
1020.88338022
 20
712.86338772
  0
VERTEX
  8
0
 10
1007.77440530
 20
720.71563274
  0
SEQEND
  0
POLYLINE
  8
�������_450�600-02
 66
   1
 39
0.000000
 70
    1
  0
VERTEX
  8
0
 10
1201.82120704
 20
1043.58667691
  0
VERTEX
  8
0
 10
1214.93018196
 20
1051.43892193
  0
VERTEX
  8
0
 10
1228.03915688
 20
1043.58667691
  0
VERTEX
  8
0
 10
1214.93018196
 20
1035.73443190
  0
VERTEX
  8
0
 10
1201.82120704
 20
1043.58667691
  0
SEQEND
  0
POLYLINE
  8
�������_450�600-02
 66
   1
 39
0.000000
 70
    1
  0
VERTEX
  8
0
 10
1129.60734839
 20
870.07994590
  0
VERTEX
  8
0
 10
1141.79613388
 20
862.77889217
  0
VERTEX
  8
0
 10
1128.68715896
 20
854.92664716
  0
VERTEX
  8
0
 10
1125.64728742
 20
856.74752304
 42
0.02596054
  0
VERTEX
  8
0
 10
1129.60734839
 20
870.07994590
  0
SEQEND
  0
POLYLINE
  8
�������_450�600-02
 66
   1
 39
0.000000
 70
    1
  0
VERTEX
  8
0
 10
1180.26045129
 20
979.01246808
  0
VERTEX
  8
0
 10
1193.36942621
 20
986.86471309
  0
VERTEX
  8
0
 10
1206.47840113
 20
979.01246808
  0
VERTEX
  8
0
 10
1193.36942621
 20
971.16022306
  0
VERTEX
  8
0
 10
1180.26045129
 20
979.01246808
  0
SEQEND
  0
POLYLINE
  8
�������_450�600-02
 66
   1
 39
0.000000
 70
    1
  0
VERTEX
  8
0
 10
986.21364955
 20
707.80079097
  0
VERTEX
  8
0
 10
999.32262447
 20
715.65303598
  0
VERTEX
  8
0
 10
1012.43159939
 20
707.80079097
  0
VERTEX
  8
0
 10
999.32262447
 20
699.94854596
  0
VERTEX
  8
0
 10
986.21364955
 20
707.80079097
  0
SEQEND
  0
POLYLINE
  8
�������_450�600-02
 66
   1
 39
0.000000
 70
    1
  0
VERTEX
  8
0
 10
878.85817031
 20
639.16631614
  0
VERTEX
  8
0
 10
897.93466231
 20
639.16631614
 42
0.33037872
  0
VERTEX
  8
0
 10
889.74500856
 20
629.09383230
 42
0.33037872
  0
VERTEX
  8
0
 10
897.00734946
 20
618.33354588
  0
VERTEX
  8
0
 10
879.78548316
 20
618.33354588
 42
0.33037872
  0
VERTEX
  8
0
 10
887.04782406
 20
629.09383230
 42
0.33037872
  0
VERTEX
  8
0
 10
878.85817031
 20
639.16631614
  0
SEQEND
  0
POLYLINE
  8
�������_450�600-02
 66
   1
 39
0.000000
 70
    1
  0
VERTEX
  8
0
 10
1201.82120704
 20
1069.41636045
  0
VERTEX
  8
0
 10
1214.93018196
 20
1077.26860546
  0
VERTEX
  8
0
 10
1228.03915688
 20
1069.41636045
  0
VERTEX
  8
0
 10
1214.93018196
 20
1061.56411543
  0
VERTEX
  8
0
 10
1201.82120704
 20
1069.41636045
  0
SEQEND
  0
POLYLINE
  8
�������_450�600-02
 66
   1
 39
0.000000
 70
    1
  0
VERTEX
  8
0
 10
1050.89591680
 20
772.37499980
  0
VERTEX
  8
0
 10
1064.00489172
 20
780.22724482
  0
VERTEX
  8
0
 10
1077.11386664
 20
772.37499980
  0
VERTEX
  8
0
 10
1064.00489172
 20
764.52275479
  0
VERTEX
  8
0
 10
1050.89591680
 20
772.37499980
  0
SEQEND
  0
POLYLINE
  8
�������_450�600-02
 66
   1
 39
0.000000
 70
    1
  0
VERTEX
  8
0
 10
964.65289380
 20
694.88594920
  0
VERTEX
  8
0
 10
977.76186872
 20
702.73819422
  0
VERTEX
  8
0
 10
990.87084364
 20
694.88594920
  0
VERTEX
  8
0
 10
977.76186872
 20
687.03370419
  0
VERTEX
  8
0
 10
964.65289380
 20
694.88594920
  0
SEQEND
  0
POLYLINE
  8
�������_450�600-02
 66
   1
 39
0.000000
 70
    1
  0
VERTEX
  8
0
 10
1158.69969554
 20
940.26794278
  0
VERTEX
  8
0
 10
1171.80867046
 20
948.12018779
  0
VERTEX
  8
0
 10
1184.91764538
 20
940.26794278
  0
VERTEX
  8
0
 10
1171.80867046
 20
932.41569776
  0
VERTEX
  8
0
 10
1158.69969554
 20
940.26794278
  0
SEQEND
  0
POLYLINE
  8
�������_450�600-02
 66
   1
 39
0.000000
 70
    1
  0
VERTEX
  8
0
 10
943.09213805
 20
681.97110743
  0
VERTEX
  8
0
 10
956.20111297
 20
689.82335245
  0
VERTEX
  8
0
 10
969.31008789
 20
681.97110743
  0
VERTEX
  8
0
 10
956.20111297
 20
674.11886242
  0
VERTEX
  8
0
 10
943.09213805
 20
681.97110743
  0
SEQEND
  0
POLYLINE
  8
�������_450�600-02
 66
   1
 39
0.000000
 70
    1
  0
VERTEX
  8
0
 10
891.51884573
 20
651.07882715
  0
VERTEX
  8
0
 10
896.97218879
 20
647.81228753
  0
VERTEX
  8
0
 10
886.06550266
 20
647.81228753
  0
VERTEX
  8
0
 10
891.51884573
 20
651.07882715
  0
SEQEND
  0
POLYLINE
  8
�������_450�600-02
 66
   1
 39
0.000000
 70
    1
  0
VERTEX
  8
0
 10
921.53138230
 20
669.05626567
  0
VERTEX
  8
0
 10
934.64035722
 20
676.90851068
  0
VERTEX
  8
0
 10
947.74933214
 20
669.05626567
  0
VERTEX
  8
0
 10
934.64035722
 20
661.20402065
  0
VERTEX
  8
0
 10
921.53138230
 20
669.05626567
  0
SEQEND
  0
POLYLINE
  8
�������_450�600-02
 66
   1
 39
0.000000
 70
    1
  0
VERTEX
  8
0
 10
1201.82120704
 20
1095.24604398
  0
VERTEX
  8
0
 10
1214.93018196
 20
1103.09828899
  0
VERTEX
  8
0
 10
1228.03915688
 20
1095.24604398
  0
VERTEX
  8
0
 10
1214.93018196
 20
1087.39379897
  0
VERTEX
  8
0
 10
1201.82120704
 20
1095.24604398
  0
SEQEND
  0
POLYLINE
  8
�������_450�600-02
 66
   1
 39
0.000000
 70
    1
  0
VERTEX
  8
0
 10
913.07960147
 20
663.99366891
  0
VERTEX
  8
0
 10
926.18857640
 20
656.14142390
  0
VERTEX
  8
0
 10
913.07960147
 20
648.28917889
  0
VERTEX
  8
0
 10
899.97062655
 20
656.14142390
  0
VERTEX
  8
0
 10
913.07960147
 20
663.99366891
  0
SEQEND
  0
POLYLINE
  8
�������_450�600-02
 66
   1
 39
0.000000
 70
    1
  0
VERTEX
  8
0
 10
1133.12541149
 20
893.80231794
  0
VERTEX
  8
0
 10
1141.79613388
 20
888.60857571
  0
VERTEX
  8
0
 10
1132.02768853
 20
882.75730001
 42
0.02071286
  0
VERTEX
  8
0
 10
1133.12541149
 20
893.80231794
  0
SEQEND
  0
POLYLINE
  8
�������_450�600-02
 66
   1
 39
0.000000
 70
    1
  0
VERTEX
  8
0
 10
1180.26045129
 20
1004.84215161
  0
VERTEX
  8
0
 10
1193.36942621
 20
1012.69439662
  0
VERTEX
  8
0
 10
1206.47840113
 20
1004.84215161
  0
VERTEX
  8
0
 10
1193.36942621
 20
996.98990660
  0
VERTEX
  8
0
 10
1180.26045129
 20
1004.84215161
  0
SEQEND
  0
POLYLINE
  8
�������_450�600-02
 66
   1
 39
0.000000
 70
    1
  0
VERTEX
  8
0
 10
1137.13893979
 20
901.52341747
  0
VERTEX
  8
0
 10
1150.24791471
 20
909.37566249
  0
VERTEX
  8
0
 10
1163.35688963
 20
901.52341747
  0
VERTEX
  8
0
 10
1150.24791471
 20
893.67117246
  0
VERTEX
  8
0
 10
1137.13893979
 20
901.52341747
  0
SEQEND
  0
POLYLINE
  8
�������_450�600-02
 66
   1
 39
0.000000
 70
    1
  0
VERTEX
  8
0
 10
1029.33516105
 20
759.46015804
  0
VERTEX
  8
0
 10
1042.44413597
 20
767.31240305
  0
VERTEX
  8
0
 10
1055.55311089
 20
759.46015804
  0
VERTEX
  8
0
 10
1042.44413597
 20
751.60791302
  0
VERTEX
  8
0
 10
1029.33516105
 20
759.46015804
  0
SEQEND
  0
POLYLINE
  8
�������_450�600-02
 66
   1
 39
0.000000
 70
    1
  0
VERTEX
  8
0
 10
1201.82120704
 20
1146.90541105
  0
VERTEX
  8
0
 10
1214.93018196
 20
1154.75765606
  0
VERTEX
  8
0
 10
1228.03915688
 20
1146.90541105
  0
VERTEX
  8
0
 10
1214.93018196
 20
1139.05316603
  0
VERTEX
  8
0
 10
1201.82120704
 20
1146.90541105
  0
SEQEND
  0
POLYLINE
  8
�������_450�600-02
 66
   1
 39
0.000000
 70
    1
  0
VERTEX
  8
0
 10
854.39135442
 20
639.16631614
  0
VERTEX
  8
0
 10
873.46784643
 20
639.16631614
 42
0.33037872
  0
VERTEX
  8
0
 10
865.27819268
 20
629.09383230
 42
0.33037872
  0
VERTEX
  8
0
 10
872.54053358
 20
618.33354588
  0
VERTEX
  8
0
 10
855.31866727
 20
618.33354588
 42
0.33037872
  0
VERTEX
  8
0
 10
862.58100818
 20
629.09383230
 42
0.33037872
  0
VERTEX
  8
0
 10
854.39135442
 20
639.16631614
  0
SEQEND
  0
POLYLINE
  8
�������_450�600-02
 66
   1
 39
0.000000
 70
    1
  0
VERTEX
  8
0
 10
1180.26045129
 20
1030.67183514
  0
VERTEX
  8
0
 10
1193.36942621
 20
1038.52408016
  0
VERTEX
  8
0
 10
1206.47840113
 20
1030.67183514
  0
VERTEX
  8
0
 10
1193.36942621
 20
1022.81959013
  0
VERTEX
  8
0
 10
1180.26045129
 20
1030.67183514
  0
SEQEND
  0
POLYLINE
  8
�������_450�600-02
 66
   1
 39
0.000000
 70
    1
  0
VERTEX
  8
0
 10
1158.69969554
 20
966.09762631
  0
VERTEX
  8
0
 10
1171.80867046
 20
973.94987132
  0
VERTEX
  8
0
 10
1184.91764538
 20
966.09762631
  0
VERTEX
  8
0
 10
1171.80867046
 20
958.24538130
  0
VERTEX
  8
0
 10
1158.69969554
 20
966.09762631
  0
SEQEND
  0
POLYLINE
  8
�������_450�600-02
 66
   1
 39
0.000000
 70
    1
  0
VERTEX
  8
0
 10
1007.77440530
 20
746.54531627
  0
VERTEX
  8
0
 10
1020.88338022
 20
754.39756128
  0
VERTEX
  8
0
 10
1033.99235514
 20
746.54531627
  0
VERTEX
  8
0
 10
1020.88338022
 20
738.69307126
  0
VERTEX
  8
0
 10
1007.77440530
 20
746.54531627
  0
SEQEND
  0
POLYLINE
  8
�������_450�600-02
 66
   1
 39
0.000000
 70
    1
  0
VERTEX
  8
0
 10
1198.57785017
 20
1163.88051880
 42
0.33037872
  0
VERTEX
  8
0
 10
1206.76750392
 20
1173.95300264
 42
0.33037872
  0
VERTEX
  8
0
 10
1199.50516302
 20
1184.71328907
  0
VERTEX
  8
0
 10
1216.72702932
 20
1184.71328907
 42
0.33037872
  0
VERTEX
  8
0
 10
1209.46468842
 20
1173.95300264
 42
0.33037872
  0
VERTEX
  8
0
 10
1217.65434217
 20
1163.88051880
  0
VERTEX
  8
0
 10
1198.57785017
 20
1163.88051880
  0
SEQEND
  0
POLYLINE
  8
�������_450�600-02
 66
   1
 39
0.000000
 70
    1
  0
VERTEX
  8
0
 10
1137.13893979
 20
927.35310101
  0
VERTEX
  8
0
 10
1150.24791471
 20
935.20534602
  0
VERTEX
  8
0
 10
1163.35688963
 20
927.35310101
  0
VERTEX
  8
0
 10
1150.24791471
 20
919.50085599
  0
VERTEX
  8
0
 10
1137.13893979
 20
927.35310101
  0
SEQEND
  0
POLYLINE
  8
�������_450�600-02
 66
   1
 39
0.000000
 70
    1
  0
VERTEX
  8
0
 10
986.21364955
 20
733.63047450
  0
VERTEX
  8
0
 10
999.32262447
 20
741.48271952
  0
VERTEX
  8
0
 10
1012.43159939
 20
733.63047450
  0
VERTEX
  8
0
 10
999.32262447
 20
725.77822949
  0
VERTEX
  8
0
 10
986.21364955
 20
733.63047450
  0
SEQEND
  0
POLYLINE
  8
�������_450�600-02
 66
   1
 39
0.000000
 70
    1
  0
VERTEX
  8
0
 10
1132.02768853
 20
920.28953494
  0
VERTEX
  8
0
 10
1141.79613388
 20
914.43825924
  0
VERTEX
  8
0
 10
1133.12541149
 20
909.24451700
 42
0.02071286
  0
VERTEX
  8
0
 10
1132.02768853
 20
920.28953494
  0
SEQEND
  0
POLYLINE
  8
�������_450�600-02
 66
   1
 39
0.000000
 70
    1
  0
VERTEX
  8
0
 10
1180.26045129
 20
1056.50151868
  0
VERTEX
  8
0
 10
1193.36942621
 20
1064.35376369
  0
VERTEX
  8
0
 10
1206.47840113
 20
1056.50151868
  0
VERTEX
  8
0
 10
1193.36942621
 20
1048.64927366
  0
VERTEX
  8
0
 10
1180.26045129
 20
1056.50151868
  0
SEQEND
  0
POLYLINE
  8
�������_450�600-02
 66
   1
 39
0.000000
 70
    1
  0
VERTEX
  8
0
 10
1091.94448612
 20
852.55309128
 42
0.31280064
  0
VERTEX
  8
0
 10
1098.13909847
 20
842.73258738
 42
0.31280064
  0
VERTEX
  8
0
 10
1109.50796124
 20
845.09150203
 42
-0.04521909
  0
VERTEX
  8
0
 10
1097.56808462
 20
826.20277569
 42
0.31280064
  0
VERTEX
  8
0
 10
1094.82154863
 20
837.48426757
 42
0.31280064
  0
VERTEX
  8
0
 10
1083.29314095
 20
838.86677803
 42
0.03869313
  0
VERTEX
  8
0
 10
1091.94448612
 20
852.55309128
  0
SEQEND
  0
POLYLINE
  8
�������_450�600-02
 66
   1
 39
0.000000
 70
    1
  0
VERTEX
  8
0
 10
829.92453854
 20
639.16631614
  0
VERTEX
  8
0
 10
849.00103054
 20
639.16631614
 42
0.33037872
  0
VERTEX
  8
0
 10
840.81137679
 20
629.09383230
 42
0.33037872
  0
VERTEX
  8
0
 10
848.07371769
 20
618.33354588
  0
VERTEX
  8
0
 10
830.85185139
 20
618.33354588
 42
0.33037872
  0
VERTEX
  8
0
 10
838.11419229
 20
629.09383230
 42
0.33037872
  0
VERTEX
  8
0
 10
829.92453854
 20
639.16631614
  0
SEQEND
  0
POLYLINE
  8
�������_450�600-02
 66
   1
 39
0.000000
 70
    1
  0
VERTEX
  8
0
 10
1068.21810320
 20
822.59107231
 42
0.01694953
  0
VERTEX
  8
0
 10
1073.40670543
 20
827.43933652
 42
0.01694953
  0
VERTEX
  8
0
 10
1078.25496964
 20
832.62793874
 42
0.31280064
  0
VERTEX
  8
0
 10
1082.03383962
 20
821.64906537
 42
0.31280064
  0
VERTEX
  8
0
 10
1093.64071973
 20
821.33946381
 42
-0.02020789
  0
VERTEX
  8
0
 10
1086.85938680
 20
813.98665514
 42
-0.02020789
  0
VERTEX
  8
0
 10
1079.50657813
 20
807.20532221
 42
0.31280064
  0
VERTEX
  8
0
 10
1079.19697658
 20
818.81220232
 42
0.31280064
  0
VERTEX
  8
0
 10
1068.21810320
 20
822.59107231
  0
SEQEND
  0
POLYLINE
  8
�������_450�600-02
 66
   1
 39
0.000000
 70
    1
  0
VERTEX
  8
0
 10
1158.69969554
 20
991.92730984
  0
VERTEX
  8
0
 10
1171.80867046
 20
999.77955486
  0
VERTEX
  8
0
 10
1184.91764538
 20
991.92730984
  0
VERTEX
  8
0
 10
1171.80867046
 20
984.07506483
  0
VERTEX
  8
0
 10
1158.69969554
 20
991.92730984
  0
SEQEND
  0
POLYLINE
  8
�������_450�600-02
 66
   1
 39
0.000000
 70
    1
  0
VERTEX
  8
0
 10
964.65289380
 20
720.71563274
  0
VERTEX
  8
0
 10
977.76186872
 20
728.56787775
  0
VERTEX
  8
0
 10
990.87084364
 20
720.71563274
  0
VERTEX
  8
0
 10
977.76186872
 20
712.86338772
  0
VERTEX
  8
0
 10
964.65289380
 20
720.71563274
  0
SEQEND
  0
POLYLINE
  8
�������_450�600-02
 66
   1
 39
0.000000
 70
    1
  0
VERTEX
  8
0
 10
848.39733423
 20
651.07882715
  0
VERTEX
  8
0
 10
853.85067730
 20
647.81228753
  0
VERTEX
  8
0
 10
842.94399116
 20
647.81228753
  0
VERTEX
  8
0
 10
848.39733423
 20
651.07882715
  0
SEQEND
  0
POLYLINE
  8
�������_450�600-02
 66
   1
 39
0.000000
 70
    1
  0
VERTEX
  8
0
 10
1100.52089095
 20
874.39754485
 42
0.31280064
  0
VERTEX
  8
0
 10
1108.74597437
 20
866.20220949
 42
0.31280064
  0
VERTEX
  8
0
 10
1119.30458447
 20
871.03245500
 42
-0.04351790
  0
VERTEX
  8
0
 10
1112.21611719
 20
850.72549606
 42
0.31280064
  0
VERTEX
  8
0
 10
1106.95699833
 20
861.07717166
 42
0.31280064
  0
VERTEX
  8
0
 10
1095.41861038
 20
859.78059060
 42
0.03699284
  0
VERTEX
  8
0
 10
1100.52089095
 20
874.39754485
  0
SEQEND
  0
POLYLINE
  8
�������_450�600-02
 66
   1
 39
0.000000
 70
    1
  0
VERTEX
  8
0
 10
1180.26045129
 20
1082.33120221
  0
VERTEX
  8
0
 10
1193.36942621
 20
1090.18344723
  0
VERTEX
  8
0
 10
1206.47840113
 20
1082.33120221
  0
VERTEX
  8
0
 10
1193.36942621
 20
1074.47895720
  0
VERTEX
  8
0
 10
1180.26045129
 20
1082.33120221
  0
SEQEND
  0
POLYLINE
  8
�������_450�600-02
 66
   1
 39
0.000000
 70
    1
  0
VERTEX
  8
0
 10
1187.91608314
 20
1155.23454742
  0
VERTEX
  8
0
 10
1198.82276928
 20
1155.23454742
  0
VERTEX
  8
0
 10
1193.36942621
 20
1151.96800780
  0
VERTEX
  8
0
 10
1187.91608314
 20
1155.23454742
  0
SEQEND
  0
POLYLINE
  8
�������_450�600-02
 66
   1
 39
0.000000
 70
    1
  0
VERTEX
  8
0
 10
943.09213805
 20
707.80079097
  0
VERTEX
  8
0
 10
956.20111297
 20
715.65303598
  0
VERTEX
  8
0
 10
969.31008789
 20
707.80079097
  0
VERTEX
  8
0
 10
956.20111297
 20
699.94854596
  0
VERTEX
  8
0
 10
943.09213805
 20
707.80079097
  0
SEQEND
  0
POLYLINE
  8
�������_450�600-02
 66
   1
 39
0.000000
 70
    1
  0
VERTEX
  8
0
 10
1014.48065212
 20
768.35797380
 42
0.03527910
  0
VERTEX
  8
0
 10
1033.05190485
 20
771.81167230
  0
VERTEX
  8
0
 10
1020.88338022
 20
764.52275479
  0
VERTEX
  8
0
 10
1014.48065212
 20
768.35797380
  0
SEQEND
  0
POLYLINE
  8
�������_450�600-02
 66
   1
 39
0.000000
 70
    1
  0
VERTEX
  8
0
 10
869.95808998
 20
663.99366891
  0
VERTEX
  8
0
 10
883.06706490
 20
656.14142390
  0
VERTEX
  8
0
 10
869.95808998
 20
648.28917889
  0
VERTEX
  8
0
 10
856.84911506
 20
656.14142390
  0
VERTEX
  8
0
 10
869.95808998
 20
663.99366891
  0
SEQEND
  0
POLYLINE
  8
�������_450�600-02
 66
   1
 39
0.000000
 70
    1
  0
VERTEX
  8
0
 10
921.53138230
 20
694.88594920
  0
VERTEX
  8
0
 10
934.64035722
 20
702.73819422
  0
VERTEX
  8
0
 10
947.74933214
 20
694.88594920
  0
VERTEX
  8
0
 10
934.64035722
 20
687.03370419
  0
VERTEX
  8
0
 10
921.53138230
 20
694.88594920
  0
SEQEND
  0
POLYLINE
  8
�������_450�600-02
 66
   1
 39
0.000000
 70
    1
  0
VERTEX
  8
0
 10
891.51884573
 20
676.90851068
  0
VERTEX
  8
0
 10
904.62782065
 20
669.05626567
  0
VERTEX
  8
0
 10
891.51884573
 20
661.20402065
  0
VERTEX
  8
0
 10
878.40987081
 20
669.05626567
  0
VERTEX
  8
0
 10
891.51884573
 20
676.90851068
  0
SEQEND
  0
POLYLINE
  8
�������_450�600-02
 66
   1
 39
0.000000
 70
    1
  0
VERTEX
  8
0
 10
913.07960147
 20
689.82335245
  0
VERTEX
  8
0
 10
926.18857640
 20
681.97110743
  0
VERTEX
  8
0
 10
913.07960147
 20
674.11886242
  0
VERTEX
  8
0
 10
899.97062655
 20
681.97110743
  0
VERTEX
  8
0
 10
913.07960147
 20
689.82335245
  0
SEQEND
  0
POLYLINE
  8
�������_450�600-02
 66
   1
 39
0.000000
 70
    1
  0
VERTEX
  8
0
 10
1048.29295066
 20
808.90155582
 42
0.03869313
  0
VERTEX
  8
0
 10
1061.97926391
 20
817.55290100
 42
0.31280064
  0
VERTEX
  8
0
 10
1063.36177438
 20
806.02449331
 42
0.31280064
  0
VERTEX
  8
0
 10
1074.64326626
 20
803.27795733
 42
-0.04521909
  0
VERTEX
  8
0
 10
1055.75453991
 20
791.33808071
 42
0.31280064
  0
VERTEX
  8
0
 10
1058.11345456
 20
802.70694348
 42
0.31280064
  0
VERTEX
  8
0
 10
1048.29295066
 20
808.90155582
  0
SEQEND
  0
POLYLINE
  8
�������_450�600-02
 66
   1
 39
0.000000
 70
    1
  0
VERTEX
  8
0
 10
1180.26045129
 20
1108.16088575
  0
VERTEX
  8
0
 10
1193.36942621
 20
1116.01313076
  0
VERTEX
  8
0
 10
1206.47840113
 20
1108.16088575
  0
VERTEX
  8
0
 10
1193.36942621
 20
1100.30864073
  0
VERTEX
  8
0
 10
1180.26045129
 20
1108.16088575
  0
SEQEND
  0
POLYLINE
  8
�������_450�600-02
 66
   1
 39
0.000000
 70
    1
  0
VERTEX
  8
0
 10
1137.13893979
 20
953.18278454
  0
VERTEX
  8
0
 10
1150.24791471
 20
961.03502956
  0
VERTEX
  8
0
 10
1163.35688963
 20
953.18278454
  0
VERTEX
  8
0
 10
1150.24791471
 20
945.33053953
  0
VERTEX
  8
0
 10
1137.13893979
 20
953.18278454
  0
SEQEND
  0
POLYLINE
  8
�������_450�600-02
 66
   1
 39
0.000000
 70
    1
  0
VERTEX
  8
0
 10
805.45772265
 20
639.16631614
  0
VERTEX
  8
0
 10
824.53421466
 20
639.16631614
 42
0.33037872
  0
VERTEX
  8
0
 10
816.34456090
 20
629.09383230
 42
0.33037872
  0
VERTEX
  8
0
 10
823.60690181
 20
618.33354588
  0
VERTEX
  8
0
 10
806.38503550
 20
618.33354588
 42
0.33037872
  0
VERTEX
  8
0
 10
813.64737641
 20
629.09383230
 42
0.33037872
  0
VERTEX
  8
0
 10
805.45772265
 20
639.16631614
  0
SEQEND
  0
POLYLINE
  8
�������_450�600-02
 66
   1
 39
0.000000
 70
    1
  0
VERTEX
  8
0
 10
1158.69969554
 20
1017.75699338
  0
VERTEX
  8
0
 10
1171.80867046
 20
1025.60923839
  0
VERTEX
  8
0
 10
1184.91764538
 20
1017.75699338
  0
VERTEX
  8
0
 10
1171.80867046
 20
1009.90474836
  0
VERTEX
  8
0
 10
1158.69969554
 20
1017.75699338
  0
SEQEND
  0
POLYLINE
  8
�������_450�600-02
 66
   1
 39
0.000000
 70
    1
  0
VERTEX
  8
0
 10
1104.01658577
 20
897.51385747
 42
0.31280064
  0
VERTEX
  8
0
 10
1113.85422471
 20
891.34649345
 42
0.31280064
  0
VERTEX
  8
0
 10
1123.07883853
 20
898.39787763
 42
-0.04330473
  0
VERTEX
  8
0
 10
1120.69077648
 20
877.12790159
 42
0.31280064
  0
VERTEX
  8
0
 10
1113.25948930
 20
886.04930786
 42
0.31280064
  0
VERTEX
  8
0
 10
1102.29915017
 20
882.21701286
 42
0.03677979
  0
VERTEX
  8
0
 10
1104.01658577
 20
897.51385747
  0
SEQEND
  0
POLYLINE
  8
�������_450�600-02
 66
   1
 39
0.000000
 70
    1
  0
VERTEX
  8
0
 10
1125.64728742
 20
946.29931191
  0
VERTEX
  8
0
 10
1128.68715896
 20
948.12018779
  0
VERTEX
  8
0
 10
1141.79613388
 20
940.26794278
  0
VERTEX
  8
0
 10
1129.60734839
 20
932.96688905
 42
0.02596054
  0
VERTEX
  8
0
 10
1125.64728742
 20
946.29931191
  0
SEQEND
  0
POLYLINE
  8
�������_450�600-02
 66
   1
 39
0.000000
 70
    1
  0
VERTEX
  8
0
 10
1158.69969554
 20
1043.58667691
  0
VERTEX
  8
0
 10
1171.80867046
 20
1051.43892193
  0
VERTEX
  8
0
 10
1184.91764538
 20
1043.58667691
  0
VERTEX
  8
0
 10
1171.80867046
 20
1035.73443190
  0
VERTEX
  8
0
 10
1158.69969554
 20
1043.58667691
  0
SEQEND
  0
POLYLINE
  8
�������_450�600-02
 66
   1
 39
0.000000
 70
    1
  0
VERTEX
  8
0
 10
780.99090677
 20
639.16631614
  0
VERTEX
  8
0
 10
800.06739877
 20
639.16631614
 42
0.33037872
  0
VERTEX
  8
0
 10
791.87774502
 20
629.09383230
 42
0.33037872
  0
VERTEX
  8
0
 10
799.14008592
 20
618.33354588
  0
VERTEX
  8
0
 10
781.91821962
 20
618.33354588
 42
0.33037872
  0
VERTEX
  8
0
 10
789.18056052
 20
629.09383230
 42
0.33037872
  0
VERTEX
  8
0
 10
780.99090677
 20
639.16631614
  0
SEQEND
  0
POLYLINE
  8
�������_450�600-02
 66
   1
 39
0.000000
 70
    1
  0
VERTEX
  8
0
 10
1137.13893979
 20
979.01246808
  0
VERTEX
  8
0
 10
1150.24791471
 20
986.86471309
  0
VERTEX
  8
0
 10
1163.35688963
 20
979.01246808
  0
VERTEX
  8
0
 10
1150.24791471
 20
971.16022306
  0
VERTEX
  8
0
 10
1137.13893979
 20
979.01246808
  0
SEQEND
  0
POLYLINE
  8
�������_450�600-02
 66
   1
 39
0.000000
 70
    1
  0
VERTEX
  8
0
 10
986.21364955
 20
759.46015804
  0
VERTEX
  8
0
 10
999.32262447
 20
767.31240305
  0
VERTEX
  8
0
 10
1012.43159939
 20
759.46015804
  0
VERTEX
  8
0
 10
999.32262447
 20
751.60791302
  0
VERTEX
  8
0
 10
986.21364955
 20
759.46015804
  0
SEQEND
  0
POLYLINE
  8
�������_450�600-02
 66
   1
 39
0.000000
 70
    1
  0
VERTEX
  8
0
 10
1026.44849709
 20
800.32515100
 42
0.03699284
  0
VERTEX
  8
0
 10
1041.06545134
 20
805.42743157
 42
0.31280064
  0
VERTEX
  8
0
 10
1039.76887028
 20
793.88904361
 42
0.31280064
  0
VERTEX
  8
0
 10
1050.12054588
 20
788.62992475
 42
-0.04351790
  0
VERTEX
  8
0
 10
1029.81358694
 20
781.54145747
 42
0.31280064
  0
VERTEX
  8
0
 10
1034.64383245
 20
792.10006757
 42
0.31280064
  0
VERTEX
  8
0
 10
1026.44849709
 20
800.32515100
  0
SEQEND
  0
POLYLINE
  8
�������_450�600-02
 66
   1
 39
0.000000
 70
    1
  0
VERTEX
  8
0
 10
1174.11103429
 20
1163.88051880
 42
0.33037872
  0
VERTEX
  8
0
 10
1182.30068804
 20
1173.95300264
 42
0.33037872
  0
VERTEX
  8
0
 10
1175.03834714
 20
1184.71328907
  0
VERTEX
  8
0
 10
1192.26021344
 20
1184.71328907
 42
0.33037872
  0
VERTEX
  8
0
 10
1184.99787254
 20
1173.95300264
 42
0.33037872
  0
VERTEX
  8
0
 10
1193.18752629
 20
1163.88051880
  0
VERTEX
  8
0
 10
1174.11103429
 20
1163.88051880
  0
SEQEND
  0
POLYLINE
  8
�������_450�600-02
 66
   1
 39
0.000000
 70
    1
  0
VERTEX
  8
0
 10
805.27582273
 20
651.07882715
  0
VERTEX
  8
0
 10
810.72916580
 20
647.81228753
  0
VERTEX
  8
0
 10
799.82247966
 20
647.81228753
  0
VERTEX
  8
0
 10
805.27582273
 20
651.07882715
  0
SEQEND
  0
POLYLINE
  8
�������_450�600-02
 66
   1
 39
0.000000
 70
    1
  0
VERTEX
  8
0
 10
964.65289380
 20
746.54531627
  0
VERTEX
  8
0
 10
977.76186872
 20
754.39756128
  0
VERTEX
  8
0
 10
990.87084364
 20
746.54531627
  0
VERTEX
  8
0
 10
977.76186872
 20
738.69307126
  0
VERTEX
  8
0
 10
964.65289380
 20
746.54531627
  0
SEQEND
  0
POLYLINE
  8
�������_450�600-02
 66
   1
 39
0.000000
 70
    1
  0
VERTEX
  8
0
 10
1158.69969554
 20
1069.41636045
  0
VERTEX
  8
0
 10
1171.80867046
 20
1077.26860546
  0
VERTEX
  8
0
 10
1184.91764538
 20
1069.41636045
  0
VERTEX
  8
0
 10
1171.80867046
 20
1061.56411543
  0
VERTEX
  8
0
 10
1158.69969554
 20
1069.41636045
  0
SEQEND
  0
POLYLINE
  8
�������_450�600-02
 66
   1
 39
0.000000
 70
    1
  0
VERTEX
  8
0
 10
1059.54943797
 20
848.14293910
 42
0.05824750
  0
VERTEX
  8
0
 10
1077.54858438
 20
841.37502577
 42
-0.02805208
  0
VERTEX
  8
0
 10
1070.32366047
 20
832.99617679
 42
-0.03545651
  0
VERTEX
  8
0
 10
1059.54943797
 20
848.14293910
  0
SEQEND
  0
POLYLINE
  8
�������_450�600-02
 66
   1
 39
0.000000
 70
    1
  0
VERTEX
  8
0
 10
1052.70310284
 20
841.29660397
 42
-0.03545651
  0
VERTEX
  8
0
 10
1067.84986515
 20
830.52238147
 42
-0.02805208
  0
VERTEX
  8
0
 10
1059.47101618
 20
823.29745756
 42
0.05824750
  0
VERTEX
  8
0
 10
1052.70310284
 20
841.29660397
  0
SEQEND
  0
POLYLINE
  8
�������_450�600-02
 66
   1
 39
0.000000
 70
    1
  0
VERTEX
  8
0
 10
1092.16209537
 20
901.52341747
 42
0.09884310
  0
VERTEX
  8
0
 10
1097.78944595
 20
907.95885820
 42
-0.03264340
  0
VERTEX
  8
0
 10
1097.78944595
 20
895.08797674
 42
0.09884310
  0
VERTEX
  8
0
 10
1092.16209537
 20
901.52341747
  0
SEQEND
  0
POLYLINE
  8
�������_450�600-02
 66
   1
 39
0.000000
 70
    1
  0
VERTEX
  8
0
 10
1062.66178090
 20
855.92521960
 42
-0.02137502
  0
VERTEX
  8
0
 10
1086.40209874
 20
855.10903403
 42
-0.03035244
  0
VERTEX
  8
0
 10
1080.14188215
 20
844.90736483
 42
0.12246282
  0
VERTEX
  8
0
 10
1062.66178090
 20
855.92521960
  0
SEQEND
  0
POLYLINE
  8
�������_450�600-02
 66
   1
 39
0.000000
 70
    1
  0
VERTEX
  8
0
 10
1102.29915017
 20
920.82982209
 42
0.31280064
  0
VERTEX
  8
0
 10
1113.25948930
 20
916.99752709
 42
0.31280064
  0
VERTEX
  8
0
 10
1120.69077648
 20
925.91893336
 42
-0.04330473
  0
VERTEX
  8
0
 10
1123.07883853
 20
904.64895732
 42
0.31280064
  0
VERTEX
  8
0
 10
1113.85422471
 20
911.70034150
 42
0.31280064
  0
VERTEX
  8
0
 10
1104.01658577
 20
905.53297748
 42
0.03677979
  0
VERTEX
  8
0
 10
1102.29915017
 20
920.82982209
  0
SEQEND
  0
POLYLINE
  8
�������_450�600-02
 66
   1
 39
0.000000
 70
    1
  0
VERTEX
  8
0
 10
753.20799227
 20
639.16631614
  0
VERTEX
  8
0
 10
775.60058289
 20
639.16631614
 42
0.33037872
  0
VERTEX
  8
0
 10
767.41092913
 20
629.09383230
 42
0.33037872
  0
VERTEX
  8
0
 10
774.67327004
 20
618.33354588
  0
VERTEX
  8
0
 10
754.13530512
 20
618.33354588
 42
0.33037872
  0
VERTEX
  8
0
 10
761.39764602
 20
629.09383230
 42
0.33037872
  0
VERTEX
  8
0
 10
753.20799227
 20
639.16631614
  0
SEQEND
  0
POLYLINE
  8
�������_450�600-02
 66
   1
 39
0.000000
 70
    1
  0
VERTEX
  8
0
 10
943.09213805
 20
733.63047450
  0
VERTEX
  8
0
 10
956.20111297
 20
741.48271952
  0
VERTEX
  8
0
 10
969.31008789
 20
733.63047450
  0
VERTEX
  8
0
 10
956.20111297
 20
725.77822949
  0
VERTEX
  8
0
 10
943.09213805
 20
733.63047450
  0
SEQEND
  0
POLYLINE
  8
�������_450�600-02
 66
   1
 39
0.000000
 70
    1
  0
VERTEX
  8
0
 10
1137.13893979
 20
1004.84215161
  0
VERTEX
  8
0
 10
1150.24791471
 20
1012.69439662
  0
VERTEX
  8
0
 10
1163.35688963
 20
1004.84215161
  0
VERTEX
  8
0
 10
1150.24791471
 20
996.98990660
  0
VERTEX
  8
0
 10
1137.13893979
 20
1004.84215161
  0
SEQEND
  0
POLYLINE
  8
�������_450�600-02
 66
   1
 39
0.000000
 70
    1
  0
VERTEX
  8
0
 10
848.39733423
 20
676.90851068
  0
VERTEX
  8
0
 10
861.50630915
 20
669.05626567
  0
VERTEX
  8
0
 10
848.39733423
 20
661.20402065
  0
VERTEX
  8
0
 10
835.28835931
 20
669.05626567
  0
VERTEX
  8
0
 10
848.39733423
 20
676.90851068
  0
SEQEND
  0
POLYLINE
  8
�������_450�600-02
 66
   1
 39
0.000000
 70
    1
  0
VERTEX
  8
0
 10
1158.69969554
 20
1095.24604398
  0
VERTEX
  8
0
 10
1171.80867046
 20
1103.09828899
  0
VERTEX
  8
0
 10
1184.91764538
 20
1095.24604398
  0
VERTEX
  8
0
 10
1171.80867046
 20
1087.39379897
  0
VERTEX
  8
0
 10
1158.69969554
 20
1095.24604398
  0
SEQEND
  0
POLYLINE
  8
�������_450�600-02
 66
   1
 39
0.000000
 70
    1
  0
VERTEX
  8
0
 10
921.53138230
 20
720.71563274
  0
VERTEX
  8
0
 10
934.64035722
 20
728.56787775
  0
VERTEX
  8
0
 10
947.74933214
 20
720.71563274
  0
VERTEX
  8
0
 10
934.64035722
 20
712.86338772
  0
VERTEX
  8
0
 10
921.53138230
 20
720.71563274
  0
SEQEND
  0
POLYLINE
  8
�������_450�600-02
 66
   1
 39
0.000000
 70
    1
  0
VERTEX
  8
0
 10
869.95808998
 20
689.82335245
  0
VERTEX
  8
0
 10
883.06706490
 20
681.97110743
  0
VERTEX
  8
0
 10
869.95808998
 20
674.11886242
  0
VERTEX
  8
0
 10
856.84911506
 20
681.97110743
  0
VERTEX
  8
0
 10
869.95808998
 20
689.82335245
  0
SEQEND
  0
POLYLINE
  8
�������_450�600-02
 66
   1
 39
0.000000
 70
    1
  0
VERTEX
  8
0
 10
1044.92082235
 20
838.18426104
 42
0.12246282
  0
VERTEX
  8
0
 10
1055.93867711
 20
820.70415979
 42
-0.03035244
  0
VERTEX
  8
0
 10
1045.73700791
 20
814.44394321
 42
-0.02137502
  0
VERTEX
  8
0
 10
1044.92082235
 20
838.18426104
  0
SEQEND
  0
POLYLINE
  8
�������_450�600-02
 66
   1
 39
0.000000
 70
    1
  0
VERTEX
  8
0
 10
899.97062655
 20
707.80079097
  0
VERTEX
  8
0
 10
913.07960147
 20
715.65303598
  0
VERTEX
  8
0
 10
926.18857640
 20
707.80079097
  0
VERTEX
  8
0
 10
913.07960147
 20
699.94854596
  0
VERTEX
  8
0
 10
899.97062655
 20
707.80079097
  0
SEQEND
  0
POLYLINE
  8
�������_450�600-02
 66
   1
 39
0.000000
 70
    1
  0
VERTEX
  8
0
 10
891.51884573
 20
702.73819422
  0
VERTEX
  8
0
 10
904.62782065
 20
694.88594920
  0
VERTEX
  8
0
 10
891.51884573
 20
687.03370419
  0
VERTEX
  8
0
 10
878.40987081
 20
694.88594920
  0
VERTEX
  8
0
 10
891.51884573
 20
702.73819422
  0
SEQEND
  0
POLYLINE
  8
�������_450�600-02
 66
   1
 39
0.000000
 70
    1
  0
VERTEX
  8
0
 10
1158.69969554
 20
1121.07572751
  0
VERTEX
  8
0
 10
1171.80867046
 20
1128.92797253
  0
VERTEX
  8
0
 10
1184.91764538
 20
1121.07572751
  0
VERTEX
  8
0
 10
1171.80867046
 20
1113.22348250
  0
VERTEX
  8
0
 10
1158.69969554
 20
1121.07572751
  0
SEQEND
  0
POLYLINE
  8
�������_450�600-02
 66
   1
 39
0.000000
 70
    1
  0
VERTEX
  8
0
 10
1116.47060604
 20
966.63218498
  0
VERTEX
  8
0
 10
1128.68715896
 20
973.94987132
  0
VERTEX
  8
0
 10
1141.79613388
 20
966.09762631
  0
VERTEX
  8
0
 10
1128.68715896
 20
958.24538130
  0
VERTEX
  8
0
 10
1117.34032188
 20
965.04210991
 42
0.00338072
  0
VERTEX
  8
0
 10
1116.47060604
 20
966.63218498
  0
SEQEND
  0
POLYLINE
  8
�������_450�600-02
 66
   1
 39
0.000000
 70
    1
  0
VERTEX
  8
0
 10
1003.33218448
 20
796.82945618
 42
0.03677979
  0
VERTEX
  8
0
 10
1018.62902908
 20
798.54689178
 42
0.31280064
  0
VERTEX
  8
0
 10
1014.79673409
 20
787.58655264
 42
0.31280064
  0
VERTEX
  8
0
 10
1023.71814036
 20
780.15526546
 42
-0.04330473
  0
VERTEX
  8
0
 10
1002.44816432
 20
777.76720341
 42
0.31280064
  0
VERTEX
  8
0
 10
1009.49954850
 20
786.99181723
 42
0.31280064
  0
VERTEX
  8
0
 10
1003.33218448
 20
796.82945618
  0
SEQEND
  0
POLYLINE
  8
�������_450�600-02
 66
   1
 39
0.000000
 70
    1
  0
VERTEX
  8
0
 10
1137.13893979
 20
1030.67183514
  0
VERTEX
  8
0
 10
1150.24791471
 20
1038.52408016
  0
VERTEX
  8
0
 10
1163.35688963
 20
1030.67183514
  0
VERTEX
  8
0
 10
1150.24791471
 20
1022.81959013
  0
VERTEX
  8
0
 10
1137.13893979
 20
1030.67183514
  0
SEQEND
  0
POLYLINE
  8
�������_450�600-02
 66
   1
 39
0.000000
 70
    1
  0
VERTEX
  8
0
 10
762.15431123
 20
651.07882715
  0
VERTEX
  8
0
 10
767.60765430
 20
647.81228753
  0
VERTEX
  8
0
 10
756.70096817
 20
647.81228753
  0
VERTEX
  8
0
 10
762.15431123
 20
651.07882715
  0
SEQEND
  0
POLYLINE
  8
�������_450�600-02
 66
   1
 39
0.000000
 70
    1
  0
VERTEX
  8
0
 10
783.71506698
 20
663.99366891
  0
VERTEX
  8
0
 10
796.82404190
 20
656.14142390
  0
VERTEX
  8
0
 10
783.71506698
 20
648.28917889
  0
VERTEX
  8
0
 10
770.60609206
 20
656.14142390
  0
VERTEX
  8
0
 10
783.71506698
 20
663.99366891
  0
SEQEND
  0
POLYLINE
  8
�������_450�600-02
 66
   1
 39
0.000000
 70
    1
  0
VERTEX
  8
0
 10
1137.13893979
 20
1056.50151868
  0
VERTEX
  8
0
 10
1150.24791471
 20
1064.35376369
  0
VERTEX
  8
0
 10
1163.35688963
 20
1056.50151868
  0
VERTEX
  8
0
 10
1150.24791471
 20
1048.64927366
  0
VERTEX
  8
0
 10
1137.13893979
 20
1056.50151868
  0
SEQEND
  0
POLYLINE
  8
�������_450�600-02
 66
   1
 39
0.000000
 70
    1
  0
VERTEX
  8
0
 10
965.59334409
 20
771.81167230
 42
0.03527910
  0
VERTEX
  8
0
 10
984.16459683
 20
768.35797380
  0
VERTEX
  8
0
 10
977.76186872
 20
764.52275479
  0
VERTEX
  8
0
 10
965.59334409
 20
771.81167230
  0
SEQEND
  0
POLYLINE
  8
�������_450�600-02
 66
   1
 39
0.000000
 70
    1
  0
VERTEX
  8
0
 10
1095.41861038
 20
943.26624435
 42
0.31280064
  0
VERTEX
  8
0
 10
1106.95699833
 20
941.96966328
 42
0.31280064
  0
VERTEX
  8
0
 10
1112.21611719
 20
952.32133889
 42
-0.04351790
  0
VERTEX
  8
0
 10
1119.30458447
 20
932.01437994
 42
0.31280064
  0
VERTEX
  8
0
 10
1108.74597437
 20
936.84462545
 42
0.31280064
  0
VERTEX
  8
0
 10
1100.52089095
 20
928.64929010
 42
0.03699284
  0
VERTEX
  8
0
 10
1095.41861038
 20
943.26624435
  0
SEQEND
  0
POLYLINE
  8
�������_450�600-02
 66
   1
 39
0.000000
 70
    1
  0
VERTEX
  8
0
 10
1115.57818404
 20
991.92730984
  0
VERTEX
  8
0
 10
1128.68715896
 20
999.77955486
  0
VERTEX
  8
0
 10
1141.79613388
 20
991.92730984
  0
VERTEX
  8
0
 10
1128.68715896
 20
984.07506483
  0
VERTEX
  8
0
 10
1115.57818404
 20
991.92730984
  0
SEQEND
  0
POLYLINE
  8
�������_450�600-02
 66
   1
 39
0.000000
 70
    1
  0
VERTEX
  8
0
 10
1149.64421840
 20
1163.88051880
 42
0.33037872
  0
VERTEX
  8
0
 10
1157.83387215
 20
1173.95300264
 42
0.33037872
  0
VERTEX
  8
0
 10
1150.57153125
 20
1184.71328907
  0
VERTEX
  8
0
 10
1167.79339755
 20
1184.71328907
 42
0.33037872
  0
VERTEX
  8
0
 10
1160.53105665
 20
1173.95300264
 42
0.33037872
  0
VERTEX
  8
0
 10
1168.72071040
 20
1163.88051880
  0
VERTEX
  8
0
 10
1149.64421840
 20
1163.88051880
  0
SEQEND
  0
POLYLINE
  8
�������_450�600-02
 66
   1
 39
0.000000
 70
    1
  0
VERTEX
  8
0
 10
992.88718374
 20
803.05659600
 42
0.09884310
  0
VERTEX
  8
0
 10
999.32262447
 20
808.68394658
 42
0.09884310
  0
VERTEX
  8
0
 10
1005.75806520
 20
803.05659600
 42
-0.03264340
  0
VERTEX
  8
0
 10
992.88718374
 20
803.05659600
  0
SEQEND
  0
POLYLINE
  8
�������_450�600-02
 66
   1
 39
0.000000
 70
    1
  0
VERTEX
  8
0
 10
943.09213805
 20
759.46015804
  0
VERTEX
  8
0
 10
956.20111297
 20
767.31240305
  0
VERTEX
  8
0
 10
969.31008789
 20
759.46015804
  0
VERTEX
  8
0
 10
956.20111297
 20
751.60791302
  0
VERTEX
  8
0
 10
943.09213805
 20
759.46015804
  0
SEQEND
  0
POLYLINE
  8
�������_450�600-02
 66
   1
 39
0.000000
 70
    1
  0
VERTEX
  8
0
 10
1137.13893979
 20
1082.33120221
  0
VERTEX
  8
0
 10
1150.24791471
 20
1090.18344723
  0
VERTEX
  8
0
 10
1163.35688963
 20
1082.33120221
  0
VERTEX
  8
0
 10
1150.24791471
 20
1074.47895720
  0
VERTEX
  8
0
 10
1137.13893979
 20
1082.33120221
  0
SEQEND
  0
POLYLINE
  8
�������_450�600-02
 66
   1
 39
0.000000
 70
    1
  0
VERTEX
  8
0
 10
1144.79457165
 20
1155.23454742
  0
VERTEX
  8
0
 10
1155.70125778
 20
1155.23454742
  0
VERTEX
  8
0
 10
1150.24791471
 20
1151.96800780
  0
VERTEX
  8
0
 10
1144.79457165
 20
1155.23454742
  0
SEQEND
  0
POLYLINE
  8
�������_450�600-02
 66
   1
 39
0.000000
 70
    1
  0
VERTEX
  8
0
 10
826.83657848
 20
689.82335245
  0
VERTEX
  8
0
 10
839.94555340
 20
681.97110743
  0
VERTEX
  8
0
 10
826.83657848
 20
674.11886242
  0
VERTEX
  8
0
 10
813.72760356
 20
681.97110743
  0
VERTEX
  8
0
 10
826.83657848
 20
689.82335245
  0
SEQEND
  0
POLYLINE
  8
�������_450�600-02
 66
   1
 39
0.000000
 70
    1
  0
VERTEX
  8
0
 10
745.41581743
 20
661.10514540
  0
VERTEX
  8
0
 10
753.70253040
 20
656.14142390
  0
VERTEX
  8
0
 10
747.63458360
 20
652.50673810
 42
0.01786155
  0
VERTEX
  8
0
 10
745.41581743
 20
661.10514540
  0
SEQEND
  0
POLYLINE
  8
�������_450�600-02
 66
   1
 39
0.000000
 70
    1
  0
VERTEX
  8
0
 10
921.53138230
 20
746.54531627
  0
VERTEX
  8
0
 10
934.64035722
 20
754.39756128
  0
VERTEX
  8
0
 10
947.74933214
 20
746.54531627
  0
VERTEX
  8
0
 10
934.64035722
 20
738.69307126
  0
VERTEX
  8
0
 10
921.53138230
 20
746.54531627
  0
SEQEND
  0
POLYLINE
  8
�������_450�600-02
 66
   1
 39
0.000000
 70
    1
  0
VERTEX
  8
0
 10
848.39733423
 20
702.73819422
  0
VERTEX
  8
0
 10
861.50630915
 20
694.88594920
  0
VERTEX
  8
0
 10
848.39733423
 20
687.03370419
  0
VERTEX
  8
0
 10
835.28835931
 20
694.88594920
  0
VERTEX
  8
0
 10
848.39733423
 20
702.73819422
  0
SEQEND
  0
POLYLINE
  8
�������_450�600-02
 66
   1
 39
0.000000
 70
    1
  0
VERTEX
  8
0
 10
1137.13893979
 20
1108.16088575
  0
VERTEX
  8
0
 10
1150.24791471
 20
1116.01313076
  0
VERTEX
  8
0
 10
1163.35688963
 20
1108.16088575
  0
VERTEX
  8
0
 10
1150.24791471
 20
1100.30864073
  0
VERTEX
  8
0
 10
1137.13893979
 20
1108.16088575
  0
SEQEND
  0
POLYLINE
  8
�������_450�600-02
 66
   1
 39
0.000000
 70
    1
  0
VERTEX
  8
0
 10
899.97062655
 20
733.63047450
  0
VERTEX
  8
0
 10
913.07960147
 20
741.48271952
  0
VERTEX
  8
0
 10
926.18857640
 20
733.63047450
  0
VERTEX
  8
0
 10
913.07960147
 20
725.77822949
  0
VERTEX
  8
0
 10
899.97062655
 20
733.63047450
  0
SEQEND
  0
POLYLINE
  8
�������_450�600-02
 66
   1
 39
0.000000
 70
    1
  0
VERTEX
  8
0
 10
1104.12420307
 20
985.06640230
  0
VERTEX
  8
0
 10
1107.12640322
 20
986.86471309
  0
VERTEX
  8
0
 10
1120.23537814
 20
979.01246808
  0
VERTEX
  8
0
 10
1112.00712711
 20
974.08376515
 42
0.02523298
  0
VERTEX
  8
0
 10
1104.12420307
 20
985.06640230
  0
SEQEND
  0
POLYLINE
  8
�������_450�600-02
 66
   1
 39
0.000000
 70
    1
  0
VERTEX
  8
0
 10
980.01621986
 20
798.54689178
 42
0.03677979
  0
VERTEX
  8
0
 10
995.31306446
 20
796.82945618
 42
0.31280064
  0
VERTEX
  8
0
 10
989.14570044
 20
786.99181723
 42
0.31280064
  0
VERTEX
  8
0
 10
996.19708462
 20
777.76720341
 42
-0.04330473
  0
VERTEX
  8
0
 10
974.92710859
 20
780.15526546
 42
0.31280064
  0
VERTEX
  8
0
 10
983.84851486
 20
787.58655264
 42
0.31280064
  0
VERTEX
  8
0
 10
980.01621986
 20
798.54689178
  0
SEQEND
  0
POLYLINE
  8
�������_450�600-02
 66
   1
 39
0.000000
 70
    1
  0
VERTEX
  8
0
 10
1115.57818404
 20
1017.75699338
  0
VERTEX
  8
0
 10
1128.68715896
 20
1025.60923839
  0
VERTEX
  8
0
 10
1141.79613388
 20
1017.75699338
  0
VERTEX
  8
0
 10
1128.68715896
 20
1009.90474836
  0
VERTEX
  8
0
 10
1115.57818404
 20
1017.75699338
  0
SEQEND
  0
POLYLINE
  8
�������_450�600-02
 66
   1
 39
0.000000
 70
    1
  0
VERTEX
  8
0
 10
869.95808998
 20
715.65303598
  0
VERTEX
  8
0
 10
883.06706490
 20
707.80079097
  0
VERTEX
  8
0
 10
869.95808998
 20
699.94854596
  0
VERTEX
  8
0
 10
856.84911506
 20
707.80079097
  0
VERTEX
  8
0
 10
869.95808998
 20
715.65303598
  0
SEQEND
  0
POLYLINE
  8
�������_450�600-02
 66
   1
 39
0.000000
 70
    1
  0
VERTEX
  8
0
 10
878.40987081
 20
720.71563274
  0
VERTEX
  8
0
 10
891.51884573
 20
728.56787775
  0
VERTEX
  8
0
 10
904.62782065
 20
720.71563274
  0
VERTEX
  8
0
 10
891.51884573
 20
712.86338772
  0
VERTEX
  8
0
 10
878.40987081
 20
720.71563274
  0
SEQEND
  0
POLYLINE
  8
�������_450�600-02
 66
   1
 39
0.000000
 70
    1
  0
VERTEX
  8
0
 10
1137.13893979
 20
1133.99056928
  0
VERTEX
  8
0
 10
1150.24791471
 20
1141.84281429
  0
VERTEX
  8
0
 10
1163.35688963
 20
1133.99056928
  0
VERTEX
  8
0
 10
1150.24791471
 20
1126.13832427
  0
VERTEX
  8
0
 10
1137.13893979
 20
1133.99056928
  0
SEQEND
  0
POLYLINE
  8
�������_450�600-02
 66
   1
 39
0.000000
 70
    1
  0
VERTEX
  8
0
 10
1057.71366901
 20
901.52341747
 42
0.25071395
  0
VERTEX
  8
0
 10
1066.18978810
 20
909.79512478
 42
0.26371669
  0
VERTEX
  8
0
 10
1079.44707935
 20
901.52341747
 42
0.26371669
  0
VERTEX
  8
0
 10
1066.18978810
 20
893.25171017
 42
0.25071395
  0
VERTEX
  8
0
 10
1057.71366901
 20
901.52341747
  0
SEQEND
  0
POLYLINE
  8
�������_450�600-02
 66
   1
 39
0.000000
 70
    1
  0
VERTEX
  8
0
 10
1115.57818404
 20
1043.58667691
  0
VERTEX
  8
0
 10
1128.68715896
 20
1051.43892193
  0
VERTEX
  8
0
 10
1141.79613388
 20
1043.58667691
  0
VERTEX
  8
0
 10
1128.68715896
 20
1035.73443190
  0
VERTEX
  8
0
 10
1115.57818404
 20
1043.58667691
  0
SEQEND
  0
POLYLINE
  8
�������_450�600-02
 66
   1
 39
0.000000
 70
    1
  0
VERTEX
  8
0
 10
762.15431123
 20
676.90851068
  0
VERTEX
  8
0
 10
775.26328615
 20
669.05626567
  0
VERTEX
  8
0
 10
762.15431123
 20
661.20402065
  0
VERTEX
  8
0
 10
749.04533631
 20
669.05626567
  0
VERTEX
  8
0
 10
762.15431123
 20
676.90851068
  0
SEQEND
  0
POLYLINE
  8
�������_450�600-02
 66
   1
 39
0.000000
 70
    1
  0
VERTEX
  8
0
 10
1083.29314095
 20
964.18005692
 42
0.31280064
  0
VERTEX
  8
0
 10
1094.82154863
 20
965.56256738
 42
0.31280064
  0
VERTEX
  8
0
 10
1097.56808462
 20
976.84405926
 42
-0.04521909
  0
VERTEX
  8
0
 10
1109.50796124
 20
957.95533291
 42
0.31280064
  0
VERTEX
  8
0
 10
1098.13909847
 20
960.31424757
 42
0.31280064
  0
VERTEX
  8
0
 10
1091.94448612
 20
950.49374367
 42
0.03869313
  0
VERTEX
  8
0
 10
1083.29314095
 20
964.18005692
  0
SEQEND
  0
POLYLINE
  8
�������_450�600-02
 66
   1
 39
0.000000
 70
    1
  0
VERTEX
  8
0
 10
1115.57818404
 20
1069.41636045
  0
VERTEX
  8
0
 10
1128.68715896
 20
1077.26860546
  0
VERTEX
  8
0
 10
1141.79613388
 20
1069.41636045
  0
VERTEX
  8
0
 10
1128.68715896
 20
1061.56411543
  0
VERTEX
  8
0
 10
1115.57818404
 20
1069.41636045
  0
SEQEND
  0
POLYLINE
  8
�������_450�600-02
 66
   1
 39
0.000000
 70
    1
  0
VERTEX
  8
0
 10
1094.01742830
 20
1004.84215161
  0
VERTEX
  8
0
 10
1107.12640322
 20
1012.69439662
  0
VERTEX
  8
0
 10
1120.23537814
 20
1004.84215161
  0
VERTEX
  8
0
 10
1107.12640322
 20
996.98990660
  0
VERTEX
  8
0
 10
1094.01742830
 20
1004.84215161
  0
SEQEND
  0
POLYLINE
  8
�������_450�600-02
 66
   1
 39
0.000000
 70
    1
  0
VERTEX
  8
0
 10
991.05091717
 20
834.65625384
 42
0.25071395
  0
VERTEX
  8
0
 10
999.32262447
 20
843.13237293
 42
0.25071395
  0
VERTEX
  8
0
 10
1007.59433177
 20
834.65625384
 42
0.26371669
  0
VERTEX
  8
0
 10
999.32262447
 20
821.39896260
 42
0.26371669
  0
VERTEX
  8
0
 10
991.05091717
 20
834.65625384
  0
SEQEND
  0
POLYLINE
  8
�������_450�600-02
 66
   1
 39
0.000000
 70
    1
  0
VERTEX
  8
0
 10
1125.17740251
 20
1163.88051880
 42
0.33037872
  0
VERTEX
  8
0
 10
1133.36705627
 20
1173.95300264
 42
0.33037872
  0
VERTEX
  8
0
 10
1126.10471536
 20
1184.71328907
  0
VERTEX
  8
0
 10
1143.32658167
 20
1184.71328907
 42
0.33037872
  0
VERTEX
  8
0
 10
1136.06424076
 20
1173.95300264
 42
0.33037872
  0
VERTEX
  8
0
 10
1144.25389452
 20
1163.88051880
  0
VERTEX
  8
0
 10
1125.17740251
 20
1163.88051880
  0
SEQEND
  0
POLYLINE
  8
�������_450�600-02
 66
   1
 39
0.000000
 70
    1
  0
VERTEX
  8
0
 10
805.27582273
 20
702.73819422
  0
VERTEX
  8
0
 10
818.38479765
 20
694.88594920
  0
VERTEX
  8
0
 10
805.27582273
 20
687.03370419
  0
VERTEX
  8
0
 10
792.16684781
 20
694.88594920
  0
VERTEX
  8
0
 10
805.27582273
 20
702.73819422
  0
SEQEND
  0
POLYLINE
  8
�������_450�600-02
 66
   1
 39
0.000000
 70
    1
  0
VERTEX
  8
0
 10
921.53138230
 20
772.37499980
  0
VERTEX
  8
0
 10
934.64035722
 20
780.22724482
  0
VERTEX
  8
0
 10
947.74933214
 20
772.37499980
  0
VERTEX
  8
0
 10
934.64035722
 20
764.52275479
  0
VERTEX
  8
0
 10
921.53138230
 20
772.37499980
  0
SEQEND
  0
POLYLINE
  8
�������_450�600-02
 66
   1
 39
0.000000
 70
    1
  0
VERTEX
  8
0
 10
1115.57818404
 20
1095.24604398
  0
VERTEX
  8
0
 10
1128.68715896
 20
1103.09828899
  0
VERTEX
  8
0
 10
1141.79613388
 20
1095.24604398
  0
VERTEX
  8
0
 10
1128.68715896
 20
1087.39379897
  0
VERTEX
  8
0
 10
1115.57818404
 20
1095.24604398
  0
SEQEND
  0
POLYLINE
  8
�������_450�600-02
 66
   1
 39
0.000000
 70
    1
  0
VERTEX
  8
0
 10
957.57979760
 20
805.42743157
 42
0.03699284
  0
VERTEX
  8
0
 10
972.19675185
 20
800.32515100
 42
0.31280064
  0
VERTEX
  8
0
 10
964.00141649
 20
792.10006757
 42
0.31280064
  0
VERTEX
  8
0
 10
968.83166200
 20
781.54145747
 42
-0.04351790
  0
VERTEX
  8
0
 10
948.52470306
 20
788.62992475
 42
0.31280064
  0
VERTEX
  8
0
 10
958.87637866
 20
793.88904361
 42
0.31280064
  0
VERTEX
  8
0
 10
957.57979760
 20
805.42743157
  0
SEQEND
  0
POLYLINE
  8
�������_450�600-02
 66
   1
 39
0.000000
 70
    1
  0
VERTEX
  8
0
 10
826.83657848
 20
715.65303598
  0
VERTEX
  8
0
 10
839.94555340
 20
707.80079097
  0
VERTEX
  8
0
 10
826.83657848
 20
699.94854596
  0
VERTEX
  8
0
 10
813.72760356
 20
707.80079097
  0
VERTEX
  8
0
 10
826.83657848
 20
715.65303598
  0
SEQEND
  0
POLYLINE
  8
�������_450�600-02
 66
   1
 39
0.000000
 70
    1
  0
VERTEX
  8
0
 10
899.97062655
 20
759.46015804
  0
VERTEX
  8
0
 10
913.07960147
 20
767.31240305
  0
VERTEX
  8
0
 10
926.18857640
 20
759.46015804
  0
VERTEX
  8
0
 10
913.07960147
 20
751.60791302
  0
VERTEX
  8
0
 10
899.97062655
 20
759.46015804
  0
SEQEND
  0
POLYLINE
  8
�������_450�600-02
 66
   1
 39
0.000000
 70
    1
  0
VERTEX
  8
0
 10
1062.66178090
 20
947.12161535
 42
0.12246282
  0
VERTEX
  8
0
 10
1080.14188215
 20
958.13947011
 42
-0.03035244
  0
VERTEX
  8
0
 10
1086.40209874
 20
947.93780092
 42
-0.02137502
  0
VERTEX
  8
0
 10
1062.66178090
 20
947.12161535
  0
SEQEND
  0
POLYLINE
  8
�������_450�600-02
 66
   1
 39
0.000000
 70
    1
  0
VERTEX
  8
0
 10
848.39733423
 20
728.56787775
  0
VERTEX
  8
0
 10
861.50630915
 20
720.71563274
  0
VERTEX
  8
0
 10
848.39733423
 20
712.86338772
  0
VERTEX
  8
0
 10
835.28835931
 20
720.71563274
  0
VERTEX
  8
0
 10
848.39733423
 20
728.56787775
  0
SEQEND
  0
POLYLINE
  8
�������_450�600-02
 66
   1
 39
0.000000
 70
    1
  0
VERTEX
  8
0
 10
878.40987081
 20
746.54531627
  0
VERTEX
  8
0
 10
891.51884573
 20
754.39756128
  0
VERTEX
  8
0
 10
904.62782065
 20
746.54531627
  0
VERTEX
  8
0
 10
891.51884573
 20
738.69307126
  0
VERTEX
  8
0
 10
878.40987081
 20
746.54531627
  0
SEQEND
  0
POLYLINE
  8
�������_450�600-02
 66
   1
 39
0.000000
 70
    1
  0
VERTEX
  8
0
 10
869.95808998
 20
741.48271952
  0
VERTEX
  8
0
 10
883.06706490
 20
733.63047450
  0
VERTEX
  8
0
 10
869.95808998
 20
725.77822949
  0
VERTEX
  8
0
 10
856.84911506
 20
733.63047450
  0
VERTEX
  8
0
 10
869.95808998
 20
741.48271952
  0
SEQEND
  0
POLYLINE
  8
�������_450�600-02
 66
   1
 39
0.000000
 70
    1
  0
VERTEX
  8
0
 10
1115.57818404
 20
1121.07572751
  0
VERTEX
  8
0
 10
1128.68715896
 20
1128.92797253
  0
VERTEX
  8
0
 10
1141.79613388
 20
1121.07572751
  0
VERTEX
  8
0
 10
1128.68715896
 20
1113.22348250
  0
VERTEX
  8
0
 10
1115.57818404
 20
1121.07572751
  0
SEQEND
  0
POLYLINE
  8
�������_450�600-02
 66
   1
 39
0.000000
 70
    1
  0
VERTEX
  8
0
 10
1094.01742830
 20
1030.67183514
  0
VERTEX
  8
0
 10
1107.12640322
 20
1038.52408016
  0
VERTEX
  8
0
 10
1120.23537814
 20
1030.67183514
  0
VERTEX
  8
0
 10
1107.12640322
 20
1022.81959013
  0
VERTEX
  8
0
 10
1094.01742830
 20
1030.67183514
  0
SEQEND
  0
POLYLINE
  8
�������_450�600-02
 66
   1
 39
0.000000
 70
    1
  0
VERTEX
  8
0
 10
1115.57818404
 20
1146.90541105
  0
VERTEX
  8
0
 10
1128.68715896
 20
1154.75765606
  0
VERTEX
  8
0
 10
1141.79613388
 20
1146.90541105
  0
VERTEX
  8
0
 10
1128.68715896
 20
1139.05316603
  0
VERTEX
  8
0
 10
1115.57818404
 20
1146.90541105
  0
SEQEND
  0
POLYLINE
  8
�������_450�600-02
 66
   1
 39
0.000000
 70
    1
  0
VERTEX
  8
0
 10
740.59355548
 20
689.82335245
  0
VERTEX
  8
0
 10
753.70253040
 20
681.97110743
  0
VERTEX
  8
0
 10
740.72286913
 20
674.19632099
 42
0.02720865
  0
VERTEX
  8
0
 10
734.78593377
 20
686.34460076
  0
VERTEX
  8
0
 10
740.59355548
 20
689.82335245
  0
SEQEND
  0
POLYLINE
  8
�������_450�600-02
 66
   1
 39
0.000000
 70
    1
  0
VERTEX
  8
0
 10
1059.54943797
 20
954.90389584
 42
-0.03545651
  0
VERTEX
  8
0
 10
1070.32366047
 20
970.05065816
 42
-0.02805208
  0
VERTEX
  8
0
 10
1077.54858438
 20
961.67180918
 42
0.05824750
  0
VERTEX
  8
0
 10
1059.54943797
 20
954.90389584
  0
SEQEND
  0
POLYLINE
  8
�������_450�600-02
 66
   1
 39
0.000000
 70
    1
  0
VERTEX
  8
0
 10
1068.21810320
 20
980.45576264
 42
0.31280064
  0
VERTEX
  8
0
 10
1079.19697658
 20
984.23463263
 42
0.31280064
  0
VERTEX
  8
0
 10
1079.50657813
 20
995.84151274
 42
-0.02020789
  0
VERTEX
  8
0
 10
1086.85938680
 20
989.06017980
 42
-0.02020789
  0
VERTEX
  8
0
 10
1093.64071973
 20
981.70737114
 42
0.31280064
  0
VERTEX
  8
0
 10
1082.03383962
 20
981.39776958
 42
0.31280064
  0
VERTEX
  8
0
 10
1078.25496964
 20
970.41889621
 42
0.01694953
  0
VERTEX
  8
0
 10
1073.40670543
 20
975.60749843
 42
0.01694953
  0
VERTEX
  8
0
 10
1068.21810320
 20
980.45576264
  0
SEQEND
  0
POLYLINE
  8
�������_450�600-02
 66
   1
 39
0.000000
 70
    1
  0
VERTEX
  8
0
 10
1094.01742830
 20
1056.50151868
  0
VERTEX
  8
0
 10
1107.12640322
 20
1064.35376369
  0
VERTEX
  8
0
 10
1120.23537814
 20
1056.50151868
  0
VERTEX
  8
0
 10
1107.12640322
 20
1048.64927366
  0
VERTEX
  8
0
 10
1094.01742830
 20
1056.50151868
  0
SEQEND
  0
POLYLINE
  8
�������_450�600-02
 66
   1
 39
0.000000
 70
    1
  0
VERTEX
  8
0
 10
783.71506698
 20
715.65303598
  0
VERTEX
  8
0
 10
796.82404190
 20
707.80079097
  0
VERTEX
  8
0
 10
783.71506698
 20
699.94854596
  0
VERTEX
  8
0
 10
770.60609206
 20
707.80079097
  0
VERTEX
  8
0
 10
783.71506698
 20
715.65303598
  0
SEQEND
  0
POLYLINE
  8
�������_450�600-02
 66
   1
 39
0.000000
 70
    1
  0
VERTEX
  8
0
 10
1094.01742830
 20
1082.33120221
  0
VERTEX
  8
0
 10
1107.12640322
 20
1090.18344723
  0
VERTEX
  8
0
 10
1120.23537814
 20
1082.33120221
  0
VERTEX
  8
0
 10
1107.12640322
 20
1074.47895720
  0
VERTEX
  8
0
 10
1094.01742830
 20
1082.33120221
  0
SEQEND
  0
POLYLINE
  8
�������_450�600-02
 66
   1
 39
0.000000
 70
    1
  0
VERTEX
  8
0
 10
1059.47101618
 20
979.74937739
 42
-0.02805208
  0
VERTEX
  8
0
 10
1067.84986515
 20
972.52445348
 42
-0.03545651
  0
VERTEX
  8
0
 10
1052.70310284
 20
961.75023098
 42
0.05824750
  0
VERTEX
  8
0
 10
1059.47101618
 20
979.74937739
  0
SEQEND
  0
POLYLINE
  8
�������_450�600-02
 66
   1
 39
0.000000
 70
    1
  0
VERTEX
  8
0
 10
1101.67306015
 20
1155.23454742
  0
VERTEX
  8
0
 10
1112.57974628
 20
1155.23454742
  0
VERTEX
  8
0
 10
1107.12640322
 20
1151.96800780
  0
VERTEX
  8
0
 10
1101.67306015
 20
1155.23454742
  0
SEQEND
  0
POLYLINE
  8
�������_450�600-02
 66
   1
 39
0.000000
 70
    1
  0
VERTEX
  8
0
 10
1072.45667255
 20
1017.75699338
  0
VERTEX
  8
0
 10
1085.56564747
 20
1025.60923839
  0
VERTEX
  8
0
 10
1098.67462239
 20
1017.75699338
  0
VERTEX
  8
0
 10
1085.56564747
 20
1009.90474836
  0
VERTEX
  8
0
 10
1072.45667255
 20
1017.75699338
  0
SEQEND
  0
POLYLINE
  8
�������_450�600-02
 66
   1
 39
0.000000
 70
    1
  0
VERTEX
  8
0
 10
805.27582273
 20
728.56787775
  0
VERTEX
  8
0
 10
818.38479765
 20
720.71563274
  0
VERTEX
  8
0
 10
805.27582273
 20
712.86338772
  0
VERTEX
  8
0
 10
792.16684781
 20
720.71563274
  0
VERTEX
  8
0
 10
805.27582273
 20
728.56787775
  0
SEQEND
  0
POLYLINE
  8
�������_450�600-02
 66
   1
 39
0.000000
 70
    1
  0
VERTEX
  8
0
 10
1100.71058663
 20
1163.88051880
 42
0.33037872
  0
VERTEX
  8
0
 10
1108.90024038
 20
1173.95300264
 42
0.33037872
  0
VERTEX
  8
0
 10
1101.63789948
 20
1184.71328907
  0
VERTEX
  8
0
 10
1118.85976578
 20
1184.71328907
 42
0.33037872
  0
VERTEX
  8
0
 10
1111.59742488
 20
1173.95300264
 42
0.33037872
  0
VERTEX
  8
0
 10
1119.78707863
 20
1163.88051880
  0
VERTEX
  8
0
 10
1100.71058663
 20
1163.88051880
  0
SEQEND
  0
POLYLINE
  8
�������_450�600-02
 66
   1
 39
0.000000
 70
    1
  0
VERTEX
  8
0
 10
899.97062655
 20
785.28984157
  0
VERTEX
  8
0
 10
913.07960147
 20
793.14208658
  0
VERTEX
  8
0
 10
926.18857640
 20
785.28984157
  0
VERTEX
  8
0
 10
913.07960147
 20
777.43759656
  0
VERTEX
  8
0
 10
899.97062655
 20
785.28984157
  0
SEQEND
  0
POLYLINE
  8
�������_450�600-02
 66
   1
 39
0.000000
 70
    1
  0
VERTEX
  8
0
 10
1094.01742830
 20
1108.16088575
  0
VERTEX
  8
0
 10
1107.12640322
 20
1116.01313076
  0
VERTEX
  8
0
 10
1120.23537814
 20
1108.16088575
  0
VERTEX
  8
0
 10
1107.12640322
 20
1100.30864073
  0
VERTEX
  8
0
 10
1094.01742830
 20
1108.16088575
  0
SEQEND
  0
POLYLINE
  8
�������_450�600-02
 66
   1
 39
0.000000
 70
    1
  0
VERTEX
  8
0
 10
936.66598503
 20
817.55290100
 42
0.03869313
  0
VERTEX
  8
0
 10
950.35229828
 20
808.90155582
 42
0.31280064
  0
VERTEX
  8
0
 10
940.53179438
 20
802.70694348
 42
0.31280064
  0
VERTEX
  8
0
 10
942.89070903
 20
791.33808071
 42
-0.04521909
  0
VERTEX
  8
0
 10
924.00198268
 20
803.27795733
 42
0.31280064
  0
VERTEX
  8
0
 10
935.28347457
 20
806.02449331
 42
0.31280064
  0
VERTEX
  8
0
 10
936.66598503
 20
817.55290100
  0
SEQEND
  0
POLYLINE
  8
�������_450�600-02
 66
   1
 39
0.000000
 70
    1
  0
VERTEX
  8
0
 10
826.83657848
 20
741.48271952
  0
VERTEX
  8
0
 10
839.94555340
 20
733.63047450
  0
VERTEX
  8
0
 10
826.83657848
 20
725.77822949
  0
VERTEX
  8
0
 10
813.72760356
 20
733.63047450
  0
VERTEX
  8
0
 10
826.83657848
 20
741.48271952
  0
SEQEND
  0
POLYLINE
  8
�������_450�600-02
 66
   1
 39
0.000000
 70
    1
  0
VERTEX
  8
0
 10
878.40987081
 20
772.37499980
  0
VERTEX
  8
0
 10
891.51884573
 20
780.22724482
  0
VERTEX
  8
0
 10
904.62782065
 20
772.37499980
  0
VERTEX
  8
0
 10
891.51884573
 20
764.52275479
  0
VERTEX
  8
0
 10
878.40987081
 20
772.37499980
  0
SEQEND
  0
POLYLINE
  8
�������_450�600-02
 66
   1
 39
0.000000
 70
    1
  0
VERTEX
  8
0
 10
848.39733423
 20
754.39756128
  0
VERTEX
  8
0
 10
861.50630915
 20
746.54531627
  0
VERTEX
  8
0
 10
848.39733423
 20
738.69307126
  0
VERTEX
  8
0
 10
835.28835931
 20
746.54531627
  0
VERTEX
  8
0
 10
848.39733423
 20
754.39756128
  0
SEQEND
  0
POLYLINE
  8
�������_450�600-02
 66
   1
 39
0.000000
 70
    1
  0
VERTEX
  8
0
 10
856.84911506
 20
759.46015804
  0
VERTEX
  8
0
 10
869.95808998
 20
767.31240305
  0
VERTEX
  8
0
 10
883.06706490
 20
759.46015804
  0
VERTEX
  8
0
 10
869.95808998
 20
751.60791302
  0
VERTEX
  8
0
 10
856.84911506
 20
759.46015804
  0
SEQEND
  0
POLYLINE
  8
�������_450�600-02
 66
   1
 39
0.000000
 70
    1
  0
VERTEX
  8
0
 10
1094.01742830
 20
1133.99056928
  0
VERTEX
  8
0
 10
1107.12640322
 20
1141.84281429
  0
VERTEX
  8
0
 10
1120.23537814
 20
1133.99056928
  0
VERTEX
  8
0
 10
1107.12640322
 20
1126.13832427
  0
VERTEX
  8
0
 10
1094.01742830
 20
1133.99056928
  0
SEQEND
  0
POLYLINE
  8
�������_450�600-02
 66
   1
 39
0.000000
 70
    1
  0
VERTEX
  8
0
 10
953.72442659
 20
838.18426104
 42
-0.02137502
  0
VERTEX
  8
0
 10
952.90824103
 20
814.44394321
 42
-0.03035244
  0
VERTEX
  8
0
 10
942.70657183
 20
820.70415979
 42
0.12246282
  0
VERTEX
  8
0
 10
953.72442659
 20
838.18426104
  0
SEQEND
  0
POLYLINE
  8
�������_450�600-02
 66
   1
 39
0.000000
 70
    1
  0
VERTEX
  8
0
 10
1011.92131254
 20
910.76918651
 42
0.12064758
  0
VERTEX
  8
0
 10
1020.35875748
 20
916.96115401
 42
0.20894184
  0
VERTEX
  8
0
 10
1020.38671329
 20
907.75627609
 42
0.20894184
  0
VERTEX
  8
0
 10
1027.16034101
 20
901.52341747
 42
0.20894184
  0
VERTEX
  8
0
 10
1020.38671329
 20
895.29055886
 42
0.20894184
  0
VERTEX
  8
0
 10
1020.35875748
 20
886.08568094
 42
0.12064758
  0
VERTEX
  8
0
 10
1011.92131254
 20
892.27764844
 42
0.32756277
  0
VERTEX
  8
0
 10
1011.92131254
 20
910.76918651
  0
SEQEND
  0
POLYLINE
  8
�������_450�600-02
 66
   1
 39
0.000000
 70
    1
  0
VERTEX
  8
0
 10
1072.45667255
 20
1043.58667691
  0
VERTEX
  8
0
 10
1085.56564747
 20
1051.43892193
  0
VERTEX
  8
0
 10
1098.67462239
 20
1043.58667691
  0
VERTEX
  8
0
 10
1085.56564747
 20
1035.73443190
  0
VERTEX
  8
0
 10
1072.45667255
 20
1043.58667691
  0
SEQEND
  0
POLYLINE
  8
�������_450�600-02
 66
   1
 39
0.000000
 70
    1
  0
VERTEX
  8
0
 10
990.07685544
 20
888.92472940
 42
0.32756277
  0
VERTEX
  8
0
 10
1008.56839350
 20
888.92472940
 42
0.12064758
  0
VERTEX
  8
0
 10
1014.76036100
 20
880.48728447
 42
0.20894184
  0
VERTEX
  8
0
 10
1005.55548309
 20
880.45932865
 42
0.20894184
  0
VERTEX
  8
0
 10
999.32262447
 20
873.68570094
 42
0.20894184
  0
VERTEX
  8
0
 10
993.08976585
 20
880.45932865
 42
0.20894184
  0
VERTEX
  8
0
 10
983.88488794
 20
880.48728447
 42
0.12064758
  0
VERTEX
  8
0
 10
990.07685544
 20
888.92472940
  0
SEQEND
  0
POLYLINE
  8
�������_450�600-02
 66
   1
 39
0.000000
 70
    1
  0
VERTEX
  8
0
 10
1048.29295066
 20
994.14527912
 42
0.31280064
  0
VERTEX
  8
0
 10
1058.11345456
 20
1000.33989147
 42
0.31280064
  0
VERTEX
  8
0
 10
1055.75453991
 20
1011.70875424
 42
-0.04521909
  0
VERTEX
  8
0
 10
1074.64326626
 20
999.76887762
 42
0.31280064
  0
VERTEX
  8
0
 10
1063.36177438
 20
997.02234164
 42
0.31280064
  0
VERTEX
  8
0
 10
1061.97926391
 20
985.49393395
 42
0.03869313
  0
VERTEX
  8
0
 10
1048.29295066
 20
994.14527912
  0
SEQEND
  0
POLYLINE
  8
�������_450�600-02
 66
   1
 39
0.000000
 70
    1
  0
VERTEX
  8
0
 10
1045.73700791
 20
988.60289174
 42
-0.03035244
  0
VERTEX
  8
0
 10
1055.93867711
 20
982.34267516
 42
0.12246282
  0
VERTEX
  8
0
 10
1044.92082235
 20
964.86257390
 42
-0.02137502
  0
VERTEX
  8
0
 10
1045.73700791
 20
988.60289174
  0
SEQEND
  0
POLYLINE
  8
�������_450�600-02
 66
   1
 39
0.000000
 70
    1
  0
VERTEX
  8
0
 10
1072.45667255
 20
1069.41636045
  0
VERTEX
  8
0
 10
1085.56564747
 20
1077.26860546
  0
VERTEX
  8
0
 10
1098.67462239
 20
1069.41636045
  0
VERTEX
  8
0
 10
1085.56564747
 20
1061.56411543
  0
VERTEX
  8
0
 10
1072.45667255
 20
1069.41636045
  0
SEQEND
  0
POLYLINE
  8
�������_450�600-02
 66
   1
 39
0.000000
 70
    1
  0
VERTEX
  8
0
 10
930.79538379
 20
830.52238147
 42
-0.03545651
  0
VERTEX
  8
0
 10
945.94214610
 20
841.29660397
 42
0.05824750
  0
VERTEX
  8
0
 10
939.17423276
 20
823.29745756
 42
-0.02805208
  0
VERTEX
  8
0
 10
930.79538379
 20
830.52238147
  0
SEQEND
  0
POLYLINE
  8
�������_450�600-02
 66
   1
 39
0.000000
 70
    1
  0
VERTEX
  8
0
 10
762.15431123
 20
728.56787775
  0
VERTEX
  8
0
 10
775.26328615
 20
720.71563274
  0
VERTEX
  8
0
 10
762.15431123
 20
712.86338772
  0
VERTEX
  8
0
 10
749.04533631
 20
720.71563274
  0
VERTEX
  8
0
 10
762.15431123
 20
728.56787775
  0
SEQEND
  0
POLYLINE
  8
�������_450�600-02
 66
   1
 39
0.000000
 70
    1
  0
VERTEX
  8
0
 10
1072.45667255
 20
1095.24604398
  0
VERTEX
  8
0
 10
1085.56564747
 20
1103.09828899
  0
VERTEX
  8
0
 10
1098.67462239
 20
1095.24604398
  0
VERTEX
  8
0
 10
1085.56564747
 20
1087.39379897
  0
VERTEX
  8
0
 10
1072.45667255
 20
1095.24604398
  0
SEQEND
  0
POLYLINE
  8
�������_450�600-02
 66
   1
 39
0.000000
 70
    1
  0
VERTEX
  8
0
 10
783.71506698
 20
741.48271952
  0
VERTEX
  8
0
 10
796.82404190
 20
733.63047450
  0
VERTEX
  8
0
 10
783.71506698
 20
725.77822949
  0
VERTEX
  8
0
 10
770.60609206
 20
733.63047450
  0
VERTEX
  8
0
 10
783.71506698
 20
741.48271952
  0
SEQEND
  0
POLYLINE
  8
�������_450�600-02
 66
   1
 39
0.000000
 70
    1
  0
VERTEX
  8
0
 10
805.27582273
 20
754.39756128
  0
VERTEX
  8
0
 10
818.38479765
 20
746.54531627
  0
VERTEX
  8
0
 10
805.27582273
 20
738.69307126
  0
VERTEX
  8
0
 10
792.16684781
 20
746.54531627
  0
VERTEX
  8
0
 10
805.27582273
 20
754.39756128
  0
SEQEND
  0
POLYLINE
  8
�������_450�600-02
 66
   1
 39
0.000000
 70
    1
  0
VERTEX
  8
0
 10
878.40987081
 20
798.20468334
  0
VERTEX
  8
0
 10
891.51884573
 20
806.05692835
  0
VERTEX
  8
0
 10
904.62782065
 20
798.20468334
  0
VERTEX
  8
0
 10
891.51884573
 20
790.35243832
  0
VERTEX
  8
0
 10
878.40987081
 20
798.20468334
  0
SEQEND
  0
POLYLINE
  8
�������_450�600-02
 66
   1
 39
0.000000
 70
    1
  0
VERTEX
  8
0
 10
1050.89591680
 20
1030.67183514
  0
VERTEX
  8
0
 10
1064.00489172
 20
1038.52408016
  0
VERTEX
  8
0
 10
1077.11386664
 20
1030.67183514
  0
VERTEX
  8
0
 10
1064.00489172
 20
1022.81959013
  0
VERTEX
  8
0
 10
1050.89591680
 20
1030.67183514
  0
SEQEND
  0
POLYLINE
  8
�������_450�600-02
 66
   1
 39
0.000000
 70
    1
  0
VERTEX
  8
0
 10
1072.45667255
 20
1121.07572751
  0
VERTEX
  8
0
 10
1085.56564747
 20
1128.92797253
  0
VERTEX
  8
0
 10
1098.67462239
 20
1121.07572751
  0
VERTEX
  8
0
 10
1085.56564747
 20
1113.22348250
  0
VERTEX
  8
0
 10
1072.45667255
 20
1121.07572751
  0
SEQEND
  0
POLYLINE
  8
�������_450�600-02
 66
   1
 39
0.000000
 70
    1
  0
VERTEX
  8
0
 10
1076.24377074
 20
1163.88051880
 42
0.33037872
  0
VERTEX
  8
0
 10
1084.43342449
 20
1173.95300264
 42
0.33037872
  0
VERTEX
  8
0
 10
1077.17108359
 20
1184.71328907
  0
VERTEX
  8
0
 10
1094.39294990
 20
1184.71328907
 42
0.33037872
  0
VERTEX
  8
0
 10
1087.13060899
 20
1173.95300264
 42
0.33037872
  0
VERTEX
  8
0
 10
1095.32026275
 20
1163.88051880
  0
VERTEX
  8
0
 10
1076.24377074
 20
1163.88051880
  0
SEQEND
  0
POLYLINE
  8
�������_450�600-02
 66
   1
 39
0.000000
 70
    1
  0
VERTEX
  8
0
 10
826.83657848
 20
767.31240305
  0
VERTEX
  8
0
 10
839.94555340
 20
759.46015804
  0
VERTEX
  8
0
 10
826.83657848
 20
751.60791302
  0
VERTEX
  8
0
 10
813.72760356
 20
759.46015804
  0
VERTEX
  8
0
 10
826.83657848
 20
767.31240305
  0
SEQEND
  0
POLYLINE
  8
�������_450�600-02
 66
   1
 39
0.000000
 70
    1
  0
VERTEX
  8
0
 10
856.84911506
 20
785.28984157
  0
VERTEX
  8
0
 10
869.95808998
 20
793.14208658
  0
VERTEX
  8
0
 10
883.06706490
 20
785.28984157
  0
VERTEX
  8
0
 10
869.95808998
 20
777.43759656
  0
VERTEX
  8
0
 10
856.84911506
 20
785.28984157
  0
SEQEND
  0
POLYLINE
  8
�������_450�600-02
 66
   1
 39
0.000000
 70
    1
  0
VERTEX
  8
0
 10
848.39733423
 20
780.22724482
  0
VERTEX
  8
0
 10
861.50630915
 20
772.37499980
  0
VERTEX
  8
0
 10
848.39733423
 20
764.52275479
  0
VERTEX
  8
0
 10
835.28835931
 20
772.37499980
  0
VERTEX
  8
0
 10
848.39733423
 20
780.22724482
  0
SEQEND
  0
POLYLINE
  8
�������_450�600-02
 66
   1
 39
0.000000
 70
    1
  0
VERTEX
  8
0
 10
905.00452921
 20
821.33946381
 42
0.31280064
  0
VERTEX
  8
0
 10
916.61140932
 20
821.64906537
 42
0.31280064
  0
VERTEX
  8
0
 10
920.39027930
 20
832.62793874
 42
0.01694953
  0
VERTEX
  8
0
 10
925.23854351
 20
827.43933652
 42
0.01694953
  0
VERTEX
  8
0
 10
930.42714574
 20
822.59107231
 42
0.31280064
  0
VERTEX
  8
0
 10
919.44827236
 20
818.81220232
 42
0.31280064
  0
VERTEX
  8
0
 10
919.13867081
 20
807.20532221
 42
-0.02020789
  0
VERTEX
  8
0
 10
911.78586214
 20
813.98665514
 42
-0.02020789
  0
VERTEX
  8
0
 10
905.00452921
 20
821.33946381
  0
SEQEND
  0
POLYLINE
  8
�������_450�600-02
 66
   1
 39
0.000000
 70
    1
  0
VERTEX
  8
0
 10
1072.45667255
 20
1146.90541105
  0
VERTEX
  8
0
 10
1085.56564747
 20
1154.75765606
  0
VERTEX
  8
0
 10
1098.67462239
 20
1146.90541105
  0
VERTEX
  8
0
 10
1085.56564747
 20
1139.05316603
  0
VERTEX
  8
0
 10
1072.45667255
 20
1146.90541105
  0
SEQEND
  0
POLYLINE
  8
�������_450�600-02
 66
   1
 39
0.000000
 70
    1
  0
VERTEX
  8
0
 10
921.09666456
 20
841.37502577
 42
0.05824750
  0
VERTEX
  8
0
 10
939.09581097
 20
848.14293910
 42
-0.03545651
  0
VERTEX
  8
0
 10
928.32158847
 20
832.99617679
 42
-0.02805208
  0
VERTEX
  8
0
 10
921.09666456
 20
841.37502577
  0
SEQEND
  0
POLYLINE
  8
�������_450�600-02
 66
   1
 39
0.000000
 70
    1
  0
VERTEX
  8
0
 10
1050.89591680
 20
1056.50151868
  0
VERTEX
  8
0
 10
1064.00489172
 20
1064.35376369
  0
VERTEX
  8
0
 10
1077.11386664
 20
1056.50151868
  0
VERTEX
  8
0
 10
1064.00489172
 20
1048.64927366
  0
VERTEX
  8
0
 10
1050.89591680
 20
1056.50151868
  0
SEQEND
  0
POLYLINE
  8
�������_450�600-02
 66
   1
 39
0.000000
 70
    1
  0
VERTEX
  8
0
 10
740.59355548
 20
741.48271952
  0
VERTEX
  8
0
 10
753.70253040
 20
733.63047450
  0
VERTEX
  8
0
 10
740.59355548
 20
725.77822949
  0
VERTEX
  8
0
 10
727.48458056
 20
733.63047450
  0
VERTEX
  8
0
 10
740.59355548
 20
741.48271952
  0
SEQEND
  0
POLYLINE
  8
�������_450�600-02
 66
   1
 39
0.000000
 70
    1
  0
VERTEX
  8
0
 10
983.88488794
 20
922.55955048
 42
0.20894184
  0
VERTEX
  8
0
 10
993.08976585
 20
922.58750629
 42
0.20894184
  0
VERTEX
  8
0
 10
999.32262447
 20
929.36113401
 42
0.20894184
  0
VERTEX
  8
0
 10
1005.55548309
 20
922.58750629
 42
0.20894184
  0
VERTEX
  8
0
 10
1014.76036100
 20
922.55955048
 42
0.12064758
  0
VERTEX
  8
0
 10
1008.56839350
 20
914.12210555
 42
0.32756277
  0
VERTEX
  8
0
 10
990.07685544
 20
914.12210555
 42
0.12064758
  0
VERTEX
  8
0
 10
983.88488794
 20
922.55955048
  0
SEQEND
  0
POLYLINE
  8
�������_450�600-02
 66
   1
 39
0.000000
 70
    1
  0
VERTEX
  8
0
 10
978.28649147
 20
916.96115401
 42
0.12064758
  0
VERTEX
  8
0
 10
986.72393640
 20
910.76918651
 42
0.32756277
  0
VERTEX
  8
0
 10
986.72393640
 20
892.27764844
 42
0.12064758
  0
VERTEX
  8
0
 10
978.28649147
 20
886.08568094
 42
0.20894184
  0
VERTEX
  8
0
 10
978.25853565
 20
895.29055886
 42
0.20894184
  0
VERTEX
  8
0
 10
971.48490794
 20
901.52341747
 42
0.20894184
  0
VERTEX
  8
0
 10
978.25853565
 20
907.75627609
 42
0.20894184
  0
VERTEX
  8
0
 10
978.28649147
 20
916.96115401
  0
SEQEND
  0
POLYLINE
  8
�������_450�600-02
 66
   1
 39
0.000000
 70
    1
  0
VERTEX
  8
0
 10
1050.89591680
 20
1082.33120221
  0
VERTEX
  8
0
 10
1064.00489172
 20
1090.18344723
  0
VERTEX
  8
0
 10
1077.11386664
 20
1082.33120221
  0
VERTEX
  8
0
 10
1064.00489172
 20
1074.47895720
  0
VERTEX
  8
0
 10
1050.89591680
 20
1082.33120221
  0
SEQEND
  0
POLYLINE
  8
�������_450�600-02
 66
   1
 39
0.000000
 70
    1
  0
VERTEX
  8
0
 10
762.15431123
 20
754.39756128
  0
VERTEX
  8
0
 10
775.26328615
 20
746.54531627
  0
VERTEX
  8
0
 10
762.15431123
 20
738.69307126
  0
VERTEX
  8
0
 10
749.04533631
 20
746.54531627
  0
VERTEX
  8
0
 10
762.15431123
 20
754.39756128
  0
SEQEND
  0
POLYLINE
  8
�������_450�600-02
 66
   1
 39
0.000000
 70
    1
  0
VERTEX
  8
0
 10
1029.81358694
 20
1021.50537748
 42
-0.04351790
  0
VERTEX
  8
0
 10
1050.12054588
 20
1014.41691019
 42
0.31280064
  0
VERTEX
  8
0
 10
1039.76887028
 20
1009.15779134
 42
0.31280064
  0
VERTEX
  8
0
 10
1041.06545134
 20
997.61940338
 42
0.03699284
  0
VERTEX
  8
0
 10
1026.44849709
 20
1002.72168395
 42
0.31280064
  0
VERTEX
  8
0
 10
1034.64383245
 20
1010.94676737
 42
0.31280064
  0
VERTEX
  8
0
 10
1029.81358694
 20
1021.50537748
  0
SEQEND
  0
POLYLINE
  8
�������_450�600-02
 66
   1
 39
0.000000
 70
    1
  0
VERTEX
  8
0
 10
1058.55154865
 20
1155.23454742
  0
VERTEX
  8
0
 10
1069.45823478
 20
1155.23454742
  0
VERTEX
  8
0
 10
1064.00489172
 20
1151.96800780
  0
VERTEX
  8
0
 10
1058.55154865
 20
1155.23454742
  0
SEQEND
  0
POLYLINE
  8
�������_450�600-02
 66
   1
 39
0.000000
 70
    1
  0
VERTEX
  8
0
 10
1050.89591680
 20
1108.16088575
  0
VERTEX
  8
0
 10
1064.00489172
 20
1116.01313076
  0
VERTEX
  8
0
 10
1077.11386664
 20
1108.16088575
  0
VERTEX
  8
0
 10
1064.00489172
 20
1100.30864073
  0
VERTEX
  8
0
 10
1050.89591680
 20
1108.16088575
  0
SEQEND
  0
POLYLINE
  8
�������_450�600-02
 66
   1
 39
0.000000
 70
    1
  0
VERTEX
  8
0
 10
783.71506698
 20
767.31240305
  0
VERTEX
  8
0
 10
796.82404190
 20
759.46015804
  0
VERTEX
  8
0
 10
783.71506698
 20
751.60791302
  0
VERTEX
  8
0
 10
770.60609206
 20
759.46015804
  0
VERTEX
  8
0
 10
783.71506698
 20
767.31240305
  0
SEQEND
  0
POLYLINE
  8
�������_450�600-02
 66
   1
 39
0.000000
 70
    1
  0
VERTEX
  8
0
 10
878.40987081
 20
824.03436687
  0
VERTEX
  8
0
 10
886.63812183
 20
828.96306980
 42
0.02523298
  0
VERTEX
  8
0
 10
894.52104587
 20
817.98043265
  0
VERTEX
  8
0
 10
891.51884573
 20
816.18212186
  0
VERTEX
  8
0
 10
878.40987081
 20
824.03436687
  0
SEQEND
  0
POLYLINE
  8
�������_450�600-02
 66
   1
 39
0.000000
 70
    1
  0
VERTEX
  8
0
 10
912.24315020
 20
855.10903403
 42
-0.02137502
  0
VERTEX
  8
0
 10
935.98346804
 20
855.92521960
 42
0.12246282
  0
VERTEX
  8
0
 10
918.50336679
 20
844.90736483
 42
-0.03035244
  0
VERTEX
  8
0
 10
912.24315020
 20
855.10903403
  0
SEQEND
  0
POLYLINE
  8
�������_450�600-02
 66
   1
 39
0.000000
 70
    1
  0
VERTEX
  8
0
 10
805.27582273
 20
780.22724482
  0
VERTEX
  8
0
 10
818.38479765
 20
772.37499980
  0
VERTEX
  8
0
 10
805.27582273
 20
764.52275479
  0
VERTEX
  8
0
 10
792.16684781
 20
772.37499980
  0
VERTEX
  8
0
 10
805.27582273
 20
780.22724482
  0
SEQEND
  0
POLYLINE
  8
�������_450�600-02
 66
   1
 39
0.000000
 70
    1
  0
VERTEX
  8
0
 10
856.84911506
 20
811.11952510
  0
VERTEX
  8
0
 10
869.95808998
 20
818.97177012
  0
VERTEX
  8
0
 10
883.06706490
 20
811.11952510
  0
VERTEX
  8
0
 10
869.95808998
 20
803.26728009
  0
VERTEX
  8
0
 10
856.84911506
 20
811.11952510
  0
SEQEND
  0
POLYLINE
  8
�������_450�600-02
 66
   1
 39
0.000000
 70
    1
  0
VERTEX
  8
0
 10
1050.89591680
 20
1133.99056928
  0
VERTEX
  8
0
 10
1064.00489172
 20
1141.84281429
  0
VERTEX
  8
0
 10
1077.11386664
 20
1133.99056928
  0
VERTEX
  8
0
 10
1064.00489172
 20
1126.13832427
  0
VERTEX
  8
0
 10
1050.89591680
 20
1133.99056928
  0
SEQEND
  0
POLYLINE
  8
�������_450�600-02
 66
   1
 39
0.000000
 70
    1
  0
VERTEX
  8
0
 10
826.83657848
 20
793.14208658
  0
VERTEX
  8
0
 10
839.94555340
 20
785.28984157
  0
VERTEX
  8
0
 10
826.83657848
 20
777.43759656
  0
VERTEX
  8
0
 10
813.72760356
 20
785.28984157
  0
VERTEX
  8
0
 10
826.83657848
 20
793.14208658
  0
SEQEND
  0
POLYLINE
  8
�������_450�600-02
 66
   1
 39
0.000000
 70
    1
  0
VERTEX
  8
0
 10
835.28835931
 20
798.20468334
  0
VERTEX
  8
0
 10
848.39733423
 20
806.05692835
  0
VERTEX
  8
0
 10
861.50630915
 20
798.20468334
  0
VERTEX
  8
0
 10
848.39733423
 20
790.35243832
  0
VERTEX
  8
0
 10
835.28835931
 20
798.20468334
  0
SEQEND
  0
POLYLINE
  8
�������_450�600-02
 66
   1
 39
0.000000
 70
    1
  0
VERTEX
  8
0
 10
1029.33516105
 20
1043.58667691
  0
VERTEX
  8
0
 10
1042.44413597
 20
1051.43892193
  0
VERTEX
  8
0
 10
1055.55311089
 20
1043.58667691
  0
VERTEX
  8
0
 10
1042.44413597
 20
1035.73443190
  0
VERTEX
  8
0
 10
1029.33516105
 20
1043.58667691
  0
SEQEND
  0
POLYLINE
  8
�������_450�600-02
 66
   1
 39
0.000000
 70
    1
  0
VERTEX
  8
0
 10
1051.77695486
 20
1163.88051880
 42
0.33037872
  0
VERTEX
  8
0
 10
1059.96660861
 20
1173.95300264
 42
0.33037872
  0
VERTEX
  8
0
 10
1052.70426771
 20
1184.71328907
  0
VERTEX
  8
0
 10
1069.92613401
 20
1184.71328907
 42
0.33037872
  0
VERTEX
  8
0
 10
1062.66379311
 20
1173.95300264
 42
0.33037872
  0
VERTEX
  8
0
 10
1070.85344686
 20
1163.88051880
  0
VERTEX
  8
0
 10
1051.77695486
 20
1163.88051880
  0
SEQEND
  0
POLYLINE
  8
�������_450�600-02
 66
   1
 39
0.000000
 70
    1
  0
VERTEX
  8
0
 10
719.03279973
 20
754.39756128
  0
VERTEX
  8
0
 10
732.14177465
 20
746.54531627
  0
VERTEX
  8
0
 10
719.03279973
 20
738.69307126
  0
VERTEX
  8
0
 10
705.92382481
 20
746.54531627
  0
VERTEX
  8
0
 10
719.03279973
 20
754.39756128
  0
SEQEND
  0
POLYLINE
  8
�������_450�600-02
 66
   1
 39
0.000000
 70
    1
  0
VERTEX
  8
0
 10
991.05091717
 20
968.39058111
 42
0.26371669
  0
VERTEX
  8
0
 10
999.32262447
 20
981.64787235
 42
0.26371669
  0
VERTEX
  8
0
 10
1007.59433177
 20
968.39058111
 42
0.25071395
  0
VERTEX
  8
0
 10
999.32262447
 20
959.91446202
 42
0.25071395
  0
VERTEX
  8
0
 10
991.05091717
 20
968.39058111
  0
SEQEND
  0
POLYLINE
  8
�������_450�600-02
 66
   1
 39
0.000000
 70
    1
  0
VERTEX
  8
0
 10
889.13728770
 20
845.09150203
 42
0.31280064
  0
VERTEX
  8
0
 10
900.50615047
 20
842.73258738
 42
0.31280064
  0
VERTEX
  8
0
 10
906.70076282
 20
852.55309128
 42
0.03869313
  0
VERTEX
  8
0
 10
915.35210800
 20
838.86677803
 42
0.31280064
  0
VERTEX
  8
0
 10
903.82370031
 20
837.48426757
 42
0.31280064
  0
VERTEX
  8
0
 10
901.07716432
 20
826.20277569
 42
-0.04521909
  0
VERTEX
  8
0
 10
889.13728770
 20
845.09150203
  0
SEQEND
  0
POLYLINE
  8
�������_450�600-02
 66
   1
 39
0.000000
 70
    1
  0
VERTEX
  8
0
 10
1029.33516105
 20
1069.41636045
  0
VERTEX
  8
0
 10
1042.44413597
 20
1077.26860546
  0
VERTEX
  8
0
 10
1055.55311089
 20
1069.41636045
  0
VERTEX
  8
0
 10
1042.44413597
 20
1061.56411543
  0
VERTEX
  8
0
 10
1029.33516105
 20
1069.41636045
  0
SEQEND
  0
POLYLINE
  8
�������_450�600-02
 66
   1
 39
0.000000
 70
    1
  0
VERTEX
  8
0
 10
740.59355548
 20
767.31240305
  0
VERTEX
  8
0
 10
753.70253040
 20
759.46015804
  0
VERTEX
  8
0
 10
740.59355548
 20
751.60791302
  0
VERTEX
  8
0
 10
727.48458056
 20
759.46015804
  0
VERTEX
  8
0
 10
740.59355548
 20
767.31240305
  0
SEQEND
  0
POLYLINE
  8
�������_450�600-02
 66
   1
 39
0.000000
 70
    1
  0
VERTEX
  8
0
 10
1014.48065212
 20
1034.68886115
  0
VERTEX
  8
0
 10
1020.88338022
 20
1038.52408016
  0
VERTEX
  8
0
 10
1033.05190485
 20
1031.23516265
 42
0.03527910
  0
VERTEX
  8
0
 10
1014.48065212
 20
1034.68886115
  0
SEQEND
  0
POLYLINE
  8
�������_450�600-02
 66
   1
 39
0.000000
 70
    1
  0
VERTEX
  8
0
 10
1029.33516105
 20
1095.24604398
  0
VERTEX
  8
0
 10
1042.44413597
 20
1103.09828899
  0
VERTEX
  8
0
 10
1055.55311089
 20
1095.24604398
  0
VERTEX
  8
0
 10
1042.44413597
 20
1087.39379897
  0
VERTEX
  8
0
 10
1029.33516105
 20
1095.24604398
  0
SEQEND
  0
POLYLINE
  8
�������_450�600-02
 66
   1
 39
0.000000
 70
    1
  0
VERTEX
  8
0
 10
762.15431123
 20
780.22724482
  0
VERTEX
  8
0
 10
775.26328615
 20
772.37499980
  0
VERTEX
  8
0
 10
762.15431123
 20
764.52275479
  0
VERTEX
  8
0
 10
749.04533631
 20
772.37499980
  0
VERTEX
  8
0
 10
762.15431123
 20
780.22724482
  0
SEQEND
  0
POLYLINE
  8
�������_450�600-02
 66
   1
 39
0.000000
 70
    1
  0
VERTEX
  8
0
 10
992.88718374
 20
999.99023895
 42
-0.03264340
  0
VERTEX
  8
0
 10
1005.75806520
 20
999.99023895
 42
0.09884310
  0
VERTEX
  8
0
 10
999.32262447
 20
994.36288837
 42
0.09884310
  0
VERTEX
  8
0
 10
992.88718374
 20
999.99023895
  0
SEQEND
  0
POLYLINE
  8
�������_450�600-02
 66
   1
 39
0.000000
 70
    1
  0
VERTEX
  8
0
 10
1029.33516105
 20
1121.07572751
  0
VERTEX
  8
0
 10
1042.44413597
 20
1128.92797253
  0
VERTEX
  8
0
 10
1055.55311089
 20
1121.07572751
  0
VERTEX
  8
0
 10
1042.44413597
 20
1113.22348250
  0
VERTEX
  8
0
 10
1029.33516105
 20
1121.07572751
  0
SEQEND
  0
POLYLINE
  8
�������_450�600-02
 66
   1
 39
0.000000
 70
    1
  0
VERTEX
  8
0
 10
783.71506698
 20
793.14208658
  0
VERTEX
  8
0
 10
796.82404190
 20
785.28984157
  0
VERTEX
  8
0
 10
783.71506698
 20
777.43759656
  0
VERTEX
  8
0
 10
770.60609206
 20
785.28984157
  0
VERTEX
  8
0
 10
783.71506698
 20
793.14208658
  0
SEQEND
  0
POLYLINE
  8
�������_450�600-02
 66
   1
 39
0.000000
 70
    1
  0
VERTEX
  8
0
 10
1002.44816432
 20
1025.27963154
 42
-0.04330473
  0
VERTEX
  8
0
 10
1023.71814036
 20
1022.89156949
 42
0.31280064
  0
VERTEX
  8
0
 10
1014.79673409
 20
1015.46028231
 42
0.31280064
  0
VERTEX
  8
0
 10
1018.62902908
 20
1004.49994317
 42
0.03677979
  0
VERTEX
  8
0
 10
1003.33218448
 20
1006.21737877
 42
0.31280064
  0
VERTEX
  8
0
 10
1009.49954850
 20
1016.05501772
 42
0.31280064
  0
VERTEX
  8
0
 10
1002.44816432
 20
1025.27963154
  0
SEQEND
  0
POLYLINE
  8
�������_450�600-02
 66
   1
 39
0.000000
 70
    1
  0
VERTEX
  8
0
 10
856.84911506
 20
836.94920864
  0
VERTEX
  8
0
 10
869.95808998
 20
844.80145365
  0
VERTEX
  8
0
 10
881.30492706
 20
838.00472504
  0
VERTEX
  8
0
 10
882.17464290
 20
836.41464997
  0
VERTEX
  8
0
 10
869.95808998
 20
829.09696363
  0
VERTEX
  8
0
 10
856.84911506
 20
836.94920864
  0
SEQEND
  0
POLYLINE
  8
�������_450�600-02
 66
   1
 39
0.000000
 70
    1
  0
VERTEX
  8
0
 10
805.27582273
 20
806.05692835
  0
VERTEX
  8
0
 10
818.38479765
 20
798.20468334
  0
VERTEX
  8
0
 10
805.27582273
 20
790.35243832
  0
VERTEX
  8
0
 10
792.16684781
 20
798.20468334
  0
VERTEX
  8
0
 10
805.27582273
 20
806.05692835
  0
SEQEND
  0
POLYLINE
  8
�������_450�600-02
 66
   1
 39
0.000000
 70
    1
  0
VERTEX
  8
0
 10
835.28835931
 20
824.03436687
  0
VERTEX
  8
0
 10
848.39733423
 20
831.88661189
  0
VERTEX
  8
0
 10
861.50630915
 20
824.03436687
  0
VERTEX
  8
0
 10
848.39733423
 20
816.18212186
  0
VERTEX
  8
0
 10
835.28835931
 20
824.03436687
  0
SEQEND
  0
POLYLINE
  8
�������_450�600-02
 66
   1
 39
0.000000
 70
    1
  0
VERTEX
  8
0
 10
826.83657848
 20
818.97177012
  0
VERTEX
  8
0
 10
839.94555340
 20
811.11952510
  0
VERTEX
  8
0
 10
826.83657848
 20
803.26728009
  0
VERTEX
  8
0
 10
813.72760356
 20
811.11952510
  0
VERTEX
  8
0
 10
826.83657848
 20
818.97177012
  0
SEQEND
  0
POLYLINE
  8
�������_450�600-02
 66
   1
 39
0.000000
 70
    1
  0
VERTEX
  8
0
 10
1029.33516105
 20
1146.90541105
  0
VERTEX
  8
0
 10
1042.44413597
 20
1154.75765606
  0
VERTEX
  8
0
 10
1055.55311089
 20
1146.90541105
  0
VERTEX
  8
0
 10
1042.44413597
 20
1139.05316603
  0
VERTEX
  8
0
 10
1029.33516105
 20
1146.90541105
  0
SEQEND
  0
POLYLINE
  8
�������_450�600-02
 66
   1
 39
0.000000
 70
    1
  0
VERTEX
  8
0
 10
697.47204399
 20
767.31240305
  0
VERTEX
  8
0
 10
710.58101891
 20
759.46015804
  0
VERTEX
  8
0
 10
697.47204399
 20
751.60791302
  0
VERTEX
  8
0
 10
684.36306907
 20
759.46015804
  0
VERTEX
  8
0
 10
697.47204399
 20
767.31240305
  0
SEQEND
  0
POLYLINE
  8
�������_450�600-02
 66
   1
 39
0.000000
 70
    1
  0
VERTEX
  8
0
 10
1027.31013897
 20
1163.88051880
 42
0.33037872
  0
VERTEX
  8
0
 10
1035.49979272
 20
1173.95300264
 42
0.33037872
  0
VERTEX
  8
0
 10
1028.23745182
 20
1184.71328907
  0
VERTEX
  8
0
 10
1045.45931812
 20
1184.71328907
 42
0.33037872
  0
VERTEX
  8
0
 10
1038.19697722
 20
1173.95300264
 42
0.33037872
  0
VERTEX
  8
0
 10
1046.38663097
 20
1163.88051880
  0
VERTEX
  8
0
 10
1027.31013897
 20
1163.88051880
  0
SEQEND
  0
POLYLINE
  8
�������_450�600-02
 66
   1
 39
0.000000
 70
    1
  0
VERTEX
  8
0
 10
1007.77440530
 20
1056.50151868
  0
VERTEX
  8
0
 10
1020.88338022
 20
1064.35376369
  0
VERTEX
  8
0
 10
1033.99235514
 20
1056.50151868
  0
VERTEX
  8
0
 10
1020.88338022
 20
1048.64927366
  0
VERTEX
  8
0
 10
1007.77440530
 20
1056.50151868
  0
SEQEND
  0
POLYLINE
  8
�������_450�600-02
 66
   1
 39
0.000000
 70
    1
  0
VERTEX
  8
0
 10
919.19816959
 20
901.52341747
 42
0.26371669
  0
VERTEX
  8
0
 10
932.45546084
 20
909.79512478
 42
0.25071395
  0
VERTEX
  8
0
 10
940.93157993
 20
901.52341747
 42
0.25071395
  0
VERTEX
  8
0
 10
932.45546084
 20
893.25171017
 42
0.26371669
  0
VERTEX
  8
0
 10
919.19816959
 20
901.52341747
  0
SEQEND
  0
POLYLINE
  8
�������_450�600-02
 66
   1
 39
0.000000
 70
    1
  0
VERTEX
  8
0
 10
719.03279973
 20
780.22724482
  0
VERTEX
  8
0
 10
732.14177465
 20
772.37499980
  0
VERTEX
  8
0
 10
719.03279973
 20
764.52275479
  0
VERTEX
  8
0
 10
705.92382481
 20
772.37499980
  0
VERTEX
  8
0
 10
719.03279973
 20
780.22724482
  0
SEQEND
  0
POLYLINE
  8
�������_450�600-02
 66
   1
 39
0.000000
 70
    1
  0
VERTEX
  8
0
 10
879.34066447
 20
871.03245500
 42
0.31280064
  0
VERTEX
  8
0
 10
889.89927457
 20
866.20220949
 42
0.31280064
  0
VERTEX
  8
0
 10
898.12435800
 20
874.39754485
 42
0.03699284
  0
VERTEX
  8
0
 10
903.22663856
 20
859.78059060
 42
0.31280064
  0
VERTEX
  8
0
 10
891.68825061
 20
861.07717166
 42
0.31280064
  0
VERTEX
  8
0
 10
886.42913175
 20
850.72549606
 42
-0.04351790
  0
VERTEX
  8
0
 10
879.34066447
 20
871.03245500
  0
SEQEND
  0
POLYLINE
  8
�������_450�600-02
 66
   1
 39
0.000000
 70
    1
  0
VERTEX
  8
0
 10
1007.77440530
 20
1082.33120221
  0
VERTEX
  8
0
 10
1020.88338022
 20
1090.18344723
  0
VERTEX
  8
0
 10
1033.99235514
 20
1082.33120221
  0
VERTEX
  8
0
 10
1020.88338022
 20
1074.47895720
  0
VERTEX
  8
0
 10
1007.77440530
 20
1082.33120221
  0
SEQEND
  0
POLYLINE
  8
�������_450�600-02
 66
   1
 39
0.000000
 70
    1
  0
VERTEX
  8
0
 10
740.59355548
 20
793.14208658
  0
VERTEX
  8
0
 10
753.70253040
 20
785.28984157
  0
VERTEX
  8
0
 10
740.59355548
 20
777.43759656
  0
VERTEX
  8
0
 10
727.48458056
 20
785.28984157
  0
VERTEX
  8
0
 10
740.59355548
 20
793.14208658
  0
SEQEND
  0
POLYLINE
  8
�������_450�600-02
 66
   1
 39
0.000000
 70
    1
  0
VERTEX
  8
0
 10
1015.43003715
 20
1155.23454742
  0
VERTEX
  8
0
 10
1026.33672329
 20
1155.23454742
  0
VERTEX
  8
0
 10
1020.88338022
 20
1151.96800780
  0
VERTEX
  8
0
 10
1015.43003715
 20
1155.23454742
  0
SEQEND
  0
POLYLINE
  8
�������_450�600-02
 66
   1
 39
0.000000
 70
    1
  0
VERTEX
  8
0
 10
1007.77440530
 20
1108.16088575
  0
VERTEX
  8
0
 10
1020.88338022
 20
1116.01313076
  0
VERTEX
  8
0
 10
1033.99235514
 20
1108.16088575
  0
VERTEX
  8
0
 10
1020.88338022
 20
1100.30864073
  0
VERTEX
  8
0
 10
1007.77440530
 20
1108.16088575
  0
SEQEND
  0
POLYLINE
  8
�������_450�600-02
 66
   1
 39
0.000000
 70
    1
  0
VERTEX
  8
0
 10
762.15431123
 20
806.05692835
  0
VERTEX
  8
0
 10
775.26328615
 20
798.20468334
  0
VERTEX
  8
0
 10
762.15431123
 20
790.35243832
  0
VERTEX
  8
0
 10
749.04533631
 20
798.20468334
  0
VERTEX
  8
0
 10
762.15431123
 20
806.05692835
  0
SEQEND
  0
POLYLINE
  8
�������_450�600-02
 66
   1
 39
0.000000
 70
    1
  0
VERTEX
  8
0
 10
856.84911506
 20
862.77889217
  0
VERTEX
  8
0
 10
869.03790055
 20
870.07994590
 42
0.02596054
  0
VERTEX
  8
0
 10
872.99796153
 20
856.74752304
  0
VERTEX
  8
0
 10
869.95808998
 20
854.92664716
  0
VERTEX
  8
0
 10
856.84911506
 20
862.77889217
  0
SEQEND
  0
POLYLINE
  8
�������_450�600-02
 66
   1
 39
0.000000
 70
    1
  0
VERTEX
  8
0
 10
675.91128824
 20
780.22724482
  0
VERTEX
  8
0
 10
689.02026316
 20
772.37499980
  0
VERTEX
  8
0
 10
675.91128824
 20
764.52275479
  0
VERTEX
  8
0
 10
662.80231332
 20
772.37499980
  0
VERTEX
  8
0
 10
675.91128824
 20
780.22724482
  0
SEQEND
  0
POLYLINE
  8
�������_450�600-02
 66
   1
 39
0.000000
 70
    1
  0
VERTEX
  8
0
 10
618.78833172
 20
774.21848419
 42
0.33037872
  0
VERTEX
  8
0
 10
629.54861815
 20
766.95614329
 42
0.33037872
  0
VERTEX
  8
0
 10
639.62110199
 20
775.14579704
  0
VERTEX
  8
0
 10
639.62110199
 20
752.75320642
 42
0.33037872
  0
VERTEX
  8
0
 10
629.54861815
 20
760.94286017
 42
0.33037872
  0
VERTEX
  8
0
 10
618.78833172
 20
753.68051927
  0
VERTEX
  8
0
 10
618.78833172
 20
774.21848419
  0
SEQEND
  0
POLYLINE
  8
�������_450�600-02
 66
   1
 39
0.000000
 70
    1
  0
VERTEX
  8
0
 10
986.21364955
 20
1043.58667691
  0
VERTEX
  8
0
 10
999.32262447
 20
1051.43892193
  0
VERTEX
  8
0
 10
1012.43159939
 20
1043.58667691
  0
VERTEX
  8
0
 10
999.32262447
 20
1035.73443190
  0
VERTEX
  8
0
 10
986.21364955
 20
1043.58667691
  0
SEQEND
  0
POLYLINE
  8
�������_450�600-02
 66
   1
 39
0.000000
 70
    1
  0
VERTEX
  8
0
 10
1007.77440530
 20
1133.99056928
  0
VERTEX
  8
0
 10
1020.88338022
 20
1141.84281429
  0
VERTEX
  8
0
 10
1033.99235514
 20
1133.99056928
  0
VERTEX
  8
0
 10
1020.88338022
 20
1126.13832427
  0
VERTEX
  8
0
 10
1007.77440530
 20
1133.99056928
  0
SEQEND
  0
POLYLINE
  8
�������_450�600-02
 66
   1
 39
0.000000
 70
    1
  0
VERTEX
  8
0
 10
783.71506698
 20
818.97177012
  0
VERTEX
  8
0
 10
796.82404190
 20
811.11952510
  0
VERTEX
  8
0
 10
783.71506698
 20
803.26728009
  0
VERTEX
  8
0
 10
770.60609206
 20
811.11952510
  0
VERTEX
  8
0
 10
783.71506698
 20
818.97177012
  0
SEQEND
  0
POLYLINE
  8
�������_450�600-02
 66
   1
 39
0.000000
 70
    1
  0
VERTEX
  8
0
 10
835.28835931
 20
849.86405041
  0
VERTEX
  8
0
 10
848.39733423
 20
857.71629542
  0
VERTEX
  8
0
 10
861.50630915
 20
849.86405041
  0
VERTEX
  8
0
 10
848.39733423
 20
842.01180539
  0
VERTEX
  8
0
 10
835.28835931
 20
849.86405041
  0
SEQEND
  0
POLYLINE
  8
�������_450�600-02
 66
   1
 39
0.000000
 70
    1
  0
VERTEX
  8
0
 10
900.85580300
 20
907.95885820
 42
0.09884310
  0
VERTEX
  8
0
 10
906.48315357
 20
901.52341747
 42
0.09884310
  0
VERTEX
  8
0
 10
900.85580300
 20
895.08797674
 42
-0.03264340
  0
VERTEX
  8
0
 10
900.85580300
 20
907.95885820
  0
SEQEND
  0
POLYLINE
  8
�������_450�600-02
 66
   1
 39
0.000000
 70
    1
  0
VERTEX
  8
0
 10
805.27582273
 20
831.88661189
  0
VERTEX
  8
0
 10
818.38479765
 20
824.03436687
  0
VERTEX
  8
0
 10
805.27582273
 20
816.18212186
  0
VERTEX
  8
0
 10
792.16684781
 20
824.03436687
  0
VERTEX
  8
0
 10
805.27582273
 20
831.88661189
  0
SEQEND
  0
POLYLINE
  8
�������_450�600-02
 66
   1
 39
0.000000
 70
    1
  0
VERTEX
  8
0
 10
813.72760356
 20
836.94920864
  0
VERTEX
  8
0
 10
826.83657848
 20
844.80145365
  0
VERTEX
  8
0
 10
839.94555340
 20
836.94920864
  0
VERTEX
  8
0
 10
826.83657848
 20
829.09696363
  0
VERTEX
  8
0
 10
813.72760356
 20
836.94920864
  0
SEQEND
  0
POLYLINE
  8
�������_450�600-02
 66
   1
 39
0.000000
 70
    1
  0
VERTEX
  8
0
 10
974.92710859
 20
1022.89156949
 42
-0.04330473
  0
VERTEX
  8
0
 10
996.19708462
 20
1025.27963154
 42
0.31280064
  0
VERTEX
  8
0
 10
989.14570044
 20
1016.05501772
 42
0.31280064
  0
VERTEX
  8
0
 10
995.31306446
 20
1006.21737877
 42
0.03677979
  0
VERTEX
  8
0
 10
980.01621986
 20
1004.49994317
 42
0.31280064
  0
VERTEX
  8
0
 10
983.84851486
 20
1015.46028231
 42
0.31280064
  0
VERTEX
  8
0
 10
974.92710859
 20
1022.89156949
  0
SEQEND
  0
POLYLINE
  8
�������_450�600-02
 66
   1
 39
0.000000
 70
    1
  0
VERTEX
  8
0
 10
697.47204399
 20
793.14208658
  0
VERTEX
  8
0
 10
710.58101891
 20
785.28984157
  0
VERTEX
  8
0
 10
697.47204399
 20
777.43759656
  0
VERTEX
  8
0
 10
684.36306907
 20
785.28984157
  0
VERTEX
  8
0
 10
697.47204399
 20
793.14208658
  0
SEQEND
  0
POLYLINE
  8
�������_450�600-02
 66
   1
 39
0.000000
 70
    1
  0
VERTEX
  8
0
 10
986.21364955
 20
1069.41636045
  0
VERTEX
  8
0
 10
999.32262447
 20
1077.26860546
  0
VERTEX
  8
0
 10
1012.43159939
 20
1069.41636045
  0
VERTEX
  8
0
 10
999.32262447
 20
1061.56411543
  0
VERTEX
  8
0
 10
986.21364955
 20
1069.41636045
  0
SEQEND
  0
POLYLINE
  8
�������_450�600-02
 66
   1
 39
0.000000
 70
    1
  0
VERTEX
  8
0
 10
1002.01778641
 20
1163.88051880
 42
0.33037872
  0
VERTEX
  8
0
 10
1010.20744016
 20
1173.95300264
 42
0.33037872
  0
VERTEX
  8
0
 10
1002.94509926
 20
1184.71328907
  0
VERTEX
  8
0
 10
1020.99250224
 20
1184.71328907
 42
0.33037872
  0
VERTEX
  8
0
 10
1013.73016134
 20
1173.95300264
 42
0.33037872
  0
VERTEX
  8
0
 10
1021.91981509
 20
1163.88051880
  0
VERTEX
  8
0
 10
1002.01778641
 20
1163.88051880
  0
SEQEND
  0
POLYLINE
  8
�������_450�600-02
 66
   1
 39
0.000000
 70
    1
  0
VERTEX
  8
0
 10
942.70657183
 20
982.34267516
 42
-0.03035244
  0
VERTEX
  8
0
 10
952.90824103
 20
988.60289174
 42
-0.02137502
  0
VERTEX
  8
0
 10
953.72442659
 20
964.86257390
 42
0.12246282
  0
VERTEX
  8
0
 10
942.70657183
 20
982.34267516
  0
SEQEND
  0
POLYLINE
  8
�������_450�600-02
 66
   1
 39
0.000000
 70
    1
  0
VERTEX
  8
0
 10
875.56641041
 20
898.39787763
 42
0.31280064
  0
VERTEX
  8
0
 10
884.79102423
 20
891.34649345
 42
0.31280064
  0
VERTEX
  8
0
 10
894.62866318
 20
897.51385747
 42
0.03677979
  0
VERTEX
  8
0
 10
896.34609878
 20
882.21701286
 42
0.31280064
  0
VERTEX
  8
0
 10
885.38575964
 20
886.04930786
 42
0.31280064
  0
VERTEX
  8
0
 10
877.95447246
 20
877.12790159
 42
-0.04330473
  0
VERTEX
  8
0
 10
875.56641041
 20
898.39787763
  0
SEQEND
  0
POLYLINE
  8
�������_450�600-02
 66
   1
 39
0.000000
 70
    1
  0
VERTEX
  8
0
 10
719.03279973
 20
806.05692835
  0
VERTEX
  8
0
 10
732.14177465
 20
798.20468334
  0
VERTEX
  8
0
 10
719.03279973
 20
790.35243832
  0
VERTEX
  8
0
 10
705.92382481
 20
798.20468334
  0
VERTEX
  8
0
 10
719.03279973
 20
806.05692835
  0
SEQEND
  0
POLYLINE
  8
�������_450�600-02
 66
   1
 39
0.000000
 70
    1
  0
VERTEX
  8
0
 10
965.59334409
 20
1031.23516265
  0
VERTEX
  8
0
 10
977.76186872
 20
1038.52408016
  0
VERTEX
  8
0
 10
984.16459683
 20
1034.68886115
 42
0.03527910
  0
VERTEX
  8
0
 10
965.59334409
 20
1031.23516265
  0
SEQEND
  0
POLYLINE
  8
�������_450�600-02
 66
   1
 39
0.000000
 70
    1
  0
VERTEX
  8
0
 10
986.21364955
 20
1095.24604398
  0
VERTEX
  8
0
 10
999.32262447
 20
1103.09828899
  0
VERTEX
  8
0
 10
1012.43159939
 20
1095.24604398
  0
VERTEX
  8
0
 10
999.32262447
 20
1087.39379897
  0
VERTEX
  8
0
 10
986.21364955
 20
1095.24604398
  0
SEQEND
  0
POLYLINE
  8
�������_450�600-02
 66
   1
 39
0.000000
 70
    1
  0
VERTEX
  8
0
 10
654.35053249
 20
793.14208658
  0
VERTEX
  8
0
 10
667.45950741
 20
785.28984157
  0
VERTEX
  8
0
 10
654.35053249
 20
777.43759656
  0
VERTEX
  8
0
 10
648.26707338
 20
781.08157420
  0
VERTEX
  8
0
 10
648.26707338
 20
789.49810895
  0
VERTEX
  8
0
 10
654.35053249
 20
793.14208658
  0
SEQEND
  0
POLYLINE
  8
�������_450�600-02
 66
   1
 39
0.000000
 70
    1
  0
VERTEX
  8
0
 10
930.79538379
 20
972.52445348
 42
-0.02805208
  0
VERTEX
  8
0
 10
939.17423276
 20
979.74937739
 42
0.05824750
  0
VERTEX
  8
0
 10
945.94214610
 20
961.75023098
 42
-0.03545651
  0
VERTEX
  8
0
 10
930.79538379
 20
972.52445348
  0
SEQEND
  0
POLYLINE
  8
�������_450�600-02
 66
   1
 39
0.000000
 70
    1
  0
VERTEX
  8
0
 10
856.84911506
 20
888.60857571
  0
VERTEX
  8
0
 10
865.51983746
 20
893.80231794
 42
0.02071286
  0
VERTEX
  8
0
 10
866.61756041
 20
882.75730001
  0
VERTEX
  8
0
 10
856.84911506
 20
888.60857571
  0
SEQEND
  0
POLYLINE
  8
�������_450�600-02
 66
   1
 39
0.000000
 70
    1
  0
VERTEX
  8
0
 10
740.59355548
 20
818.97177012
  0
VERTEX
  8
0
 10
753.70253040
 20
811.11952510
  0
VERTEX
  8
0
 10
740.59355548
 20
803.26728009
  0
VERTEX
  8
0
 10
727.48458056
 20
811.11952510
  0
VERTEX
  8
0
 10
740.59355548
 20
818.97177012
  0
SEQEND
  0
POLYLINE
  8
�������_450�600-02
 66
   1
 39
0.000000
 70
    1
  0
VERTEX
  8
0
 10
921.09666456
 20
961.67180918
 42
-0.02805208
  0
VERTEX
  8
0
 10
928.32158847
 20
970.05065816
 42
-0.03545651
  0
VERTEX
  8
0
 10
939.09581097
 20
954.90389584
 42
0.05824750
  0
VERTEX
  8
0
 10
921.09666456
 20
961.67180918
  0
SEQEND
  0
POLYLINE
  8
�������_450�600-02
 66
   1
 39
0.000000
 70
    1
  0
VERTEX
  8
0
 10
986.21364955
 20
1121.07572751
  0
VERTEX
  8
0
 10
999.32262447
 20
1128.92797253
  0
VERTEX
  8
0
 10
1012.43159939
 20
1121.07572751
  0
VERTEX
  8
0
 10
999.32262447
 20
1113.22348250
  0
VERTEX
  8
0
 10
986.21364955
 20
1121.07572751
  0
SEQEND
  0
POLYLINE
  8
�������_450�600-02
 66
   1
 39
0.000000
 70
    1
  0
VERTEX
  8
0
 10
918.50336679
 20
958.13947011
 42
0.12246282
  0
VERTEX
  8
0
 10
935.98346804
 20
947.12161535
 42
-0.02137502
  0
VERTEX
  8
0
 10
912.24315020
 20
947.93780092
 42
-0.03035244
  0
VERTEX
  8
0
 10
918.50336679
 20
958.13947011
  0
SEQEND
  0
POLYLINE
  8
�������_450�600-02
 66
   1
 39
0.000000
 70
    1
  0
VERTEX
  8
0
 10
835.28835931
 20
875.69373394
  0
VERTEX
  8
0
 10
848.39733423
 20
883.54597895
  0
VERTEX
  8
0
 10
861.50630915
 20
875.69373394
  0
VERTEX
  8
0
 10
848.39733423
 20
867.84148893
  0
VERTEX
  8
0
 10
835.28835931
 20
875.69373394
  0
SEQEND
  0
POLYLINE
  8
�������_450�600-02
 66
   1
 39
0.000000
 70
    1
  0
VERTEX
  8
0
 10
762.15431123
 20
831.88661189
  0
VERTEX
  8
0
 10
775.26328615
 20
824.03436687
  0
VERTEX
  8
0
 10
762.15431123
 20
816.18212186
  0
VERTEX
  8
0
 10
749.04533631
 20
824.03436687
  0
VERTEX
  8
0
 10
762.15431123
 20
831.88661189
  0
SEQEND
  0
POLYLINE
  8
�������_450�600-02
 66
   1
 39
0.000000
 70
    1
  0
VERTEX
  8
0
 10
948.52470306
 20
1014.41691019
 42
-0.04351790
  0
VERTEX
  8
0
 10
968.83166200
 20
1021.50537748
 42
0.31280064
  0
VERTEX
  8
0
 10
964.00141649
 20
1010.94676737
 42
0.31280064
  0
VERTEX
  8
0
 10
972.19675185
 20
1002.72168395
 42
0.03699284
  0
VERTEX
  8
0
 10
957.57979760
 20
997.61940338
 42
0.31280064
  0
VERTEX
  8
0
 10
958.87637866
 20
1009.15779134
 42
0.31280064
  0
VERTEX
  8
0
 10
948.52470306
 20
1014.41691019
  0
SEQEND
  0
POLYLINE
  8
�������_450�600-02
 66
   1
 39
0.000000
 70
    1
  0
VERTEX
  8
0
 10
986.21364955
 20
1146.90541105
  0
VERTEX
  8
0
 10
999.32262447
 20
1154.75765606
  0
VERTEX
  8
0
 10
1012.43159939
 20
1146.90541105
  0
VERTEX
  8
0
 10
999.32262447
 20
1139.05316603
  0
VERTEX
  8
0
 10
986.21364955
 20
1146.90541105
  0
SEQEND
  0
POLYLINE
  8
�������_450�600-02
 66
   1
 39
0.000000
 70
    1
  0
VERTEX
  8
0
 10
618.78833172
 20
798.68530008
 42
0.33037872
  0
VERTEX
  8
0
 10
629.54861815
 20
791.42295917
 42
0.33037872
  0
VERTEX
  8
0
 10
639.62110199
 20
799.61261293
  0
VERTEX
  8
0
 10
639.62110199
 20
780.53612092
 42
0.33037872
  0
VERTEX
  8
0
 10
629.54861815
 20
788.72577468
 42
0.33037872
  0
VERTEX
  8
0
 10
618.78833172
 20
781.46343377
  0
VERTEX
  8
0
 10
618.78833172
 20
798.68530008
  0
SEQEND
  0
POLYLINE
  8
�������_450�600-02
 66
   1
 39
0.000000
 70
    1
  0
VERTEX
  8
0
 10
813.72760356
 20
862.77889217
  0
VERTEX
  8
0
 10
826.83657848
 20
870.63113719
  0
VERTEX
  8
0
 10
839.94555340
 20
862.77889217
  0
VERTEX
  8
0
 10
826.83657848
 20
854.92664716
  0
VERTEX
  8
0
 10
813.72760356
 20
862.77889217
  0
SEQEND
  0
POLYLINE
  8
�������_450�600-02
 66
   1
 39
0.000000
 70
    1
  0
VERTEX
  8
0
 10
783.71506698
 20
844.80145365
  0
VERTEX
  8
0
 10
796.82404190
 20
836.94920864
  0
VERTEX
  8
0
 10
783.71506698
 20
829.09696363
  0
VERTEX
  8
0
 10
770.60609206
 20
836.94920864
  0
VERTEX
  8
0
 10
783.71506698
 20
844.80145365
  0
SEQEND
  0
POLYLINE
  8
�������_450�600-02
 66
   1
 39
0.000000
 70
    1
  0
VERTEX
  8
0
 10
675.91128824
 20
806.05692835
  0
VERTEX
  8
0
 10
689.02026316
 20
798.20468334
  0
VERTEX
  8
0
 10
675.91128824
 20
790.35243832
  0
VERTEX
  8
0
 10
662.80231332
 20
798.20468334
  0
VERTEX
  8
0
 10
675.91128824
 20
806.05692835
  0
SEQEND
  0
POLYLINE
  8
�������_450�600-02
 66
   1
 39
0.000000
 70
    1
  0
VERTEX
  8
0
 10
805.27582273
 20
857.71629542
  0
VERTEX
  8
0
 10
818.38479765
 20
849.86405041
  0
VERTEX
  8
0
 10
805.27582273
 20
842.01180539
  0
VERTEX
  8
0
 10
792.16684781
 20
849.86405041
  0
VERTEX
  8
0
 10
805.27582273
 20
857.71629542
  0
SEQEND
  0
POLYLINE
  8
�������_450�600-02
 66
   1
 39
0.000000
 70
    1
  0
VERTEX
  8
0
 10
964.65289380
 20
1056.50151868
  0
VERTEX
  8
0
 10
977.76186872
 20
1064.35376369
  0
VERTEX
  8
0
 10
990.87084364
 20
1056.50151868
  0
VERTEX
  8
0
 10
977.76186872
 20
1048.64927366
  0
VERTEX
  8
0
 10
964.65289380
 20
1056.50151868
  0
SEQEND
  0
POLYLINE
  8
�������_450�600-02
 66
   1
 39
0.000000
 70
    1
  0
VERTEX
  8
0
 10
877.95447246
 20
925.91893336
 42
0.31280064
  0
VERTEX
  8
0
 10
885.38575964
 20
916.99752709
 42
0.31280064
  0
VERTEX
  8
0
 10
896.34609878
 20
920.82982209
 42
0.03677979
  0
VERTEX
  8
0
 10
894.62866318
 20
905.53297748
 42
0.31280064
  0
VERTEX
  8
0
 10
884.79102423
 20
911.70034150
 42
0.31280064
  0
VERTEX
  8
0
 10
875.56641041
 20
904.64895732
 42
-0.04330473
  0
VERTEX
  8
0
 10
877.95447246
 20
925.91893336
  0
SEQEND
  0
POLYLINE
  8
�������_450�600-02
 66
   1
 39
0.000000
 70
    1
  0
VERTEX
  8
0
 10
697.47204399
 20
818.97177012
  0
VERTEX
  8
0
 10
710.58101891
 20
811.11952510
  0
VERTEX
  8
0
 10
697.47204399
 20
803.26728009
  0
VERTEX
  8
0
 10
684.36306907
 20
811.11952510
  0
VERTEX
  8
0
 10
697.47204399
 20
818.97177012
  0
SEQEND
  0
POLYLINE
  8
�������_450�600-02
 66
   1
 39
0.000000
 70
    1
  0
VERTEX
  8
0
 10
964.65289380
 20
1082.33120221
  0
VERTEX
  8
0
 10
977.76186872
 20
1090.18344723
  0
VERTEX
  8
0
 10
990.87084364
 20
1082.33120221
  0
VERTEX
  8
0
 10
977.76186872
 20
1074.47895720
  0
VERTEX
  8
0
 10
964.65289380
 20
1082.33120221
  0
SEQEND
  0
POLYLINE
  8
�������_450�600-02
 66
   1
 39
0.000000
 70
    1
  0
VERTEX
  8
0
 10
976.72543385
 20
1163.88051880
 42
0.33037872
  0
VERTEX
  8
0
 10
984.91508761
 20
1173.95300264
 42
0.33037872
  0
VERTEX
  8
0
 10
977.65274670
 20
1184.71328907
  0
VERTEX
  8
0
 10
995.70014968
 20
1184.71328907
 42
0.33037872
  0
VERTEX
  8
0
 10
988.43780878
 20
1173.95300264
 42
0.33037872
  0
VERTEX
  8
0
 10
996.62746253
 20
1163.88051880
  0
VERTEX
  8
0
 10
976.72543385
 20
1163.88051880
  0
SEQEND
  0
POLYLINE
  8
�������_450�600-02
 66
   1
 39
0.000000
 70
    1
  0
VERTEX
  8
0
 10
856.84911506
 20
914.43825924
  0
VERTEX
  8
0
 10
866.61756041
 20
920.28953494
 42
0.02071286
  0
VERTEX
  8
0
 10
865.51983746
 20
909.24451700
  0
VERTEX
  8
0
 10
856.84911506
 20
914.43825924
  0
SEQEND
  0
POLYLINE
  8
�������_450�600-02
 66
   1
 39
0.000000
 70
    1
  0
VERTEX
  8
0
 10
924.00198268
 20
999.76887762
 42
-0.04521909
  0
VERTEX
  8
0
 10
942.89070903
 20
1011.70875424
 42
0.31280064
  0
VERTEX
  8
0
 10
940.53179438
 20
1000.33989147
 42
0.31280064
  0
VERTEX
  8
0
 10
950.35229828
 20
994.14527912
 42
0.03869313
  0
VERTEX
  8
0
 10
936.66598503
 20
985.49393395
 42
0.31280064
  0
VERTEX
  8
0
 10
935.28347457
 20
997.02234164
 42
0.31280064
  0
VERTEX
  8
0
 10
924.00198268
 20
999.76887762
  0
SEQEND
  0
POLYLINE
  8
�������_450�600-02
 66
   1
 39
0.000000
 70
    1
  0
VERTEX
  8
0
 10
972.30852565
 20
1155.23454742
  0
VERTEX
  8
0
 10
983.21521179
 20
1155.23454742
  0
VERTEX
  8
0
 10
977.76186872
 20
1151.96800780
  0
VERTEX
  8
0
 10
972.30852565
 20
1155.23454742
  0
SEQEND
  0
POLYLINE
  8
�������_450�600-02
 66
   1
 39
0.000000
 70
    1
  0
VERTEX
  8
0
 10
719.03279973
 20
831.88661189
  0
VERTEX
  8
0
 10
732.14177465
 20
824.03436687
  0
VERTEX
  8
0
 10
719.03279973
 20
816.18212186
  0
VERTEX
  8
0
 10
705.92382481
 20
824.03436687
  0
VERTEX
  8
0
 10
719.03279973
 20
831.88661189
  0
SEQEND
  0
POLYLINE
  8
�������_450�600-02
 66
   1
 39
0.000000
 70
    1
  0
VERTEX
  8
0
 10
964.65289380
 20
1108.16088575
  0
VERTEX
  8
0
 10
977.76186872
 20
1116.01313076
  0
VERTEX
  8
0
 10
990.87084364
 20
1108.16088575
  0
VERTEX
  8
0
 10
977.76186872
 20
1100.30864073
  0
VERTEX
  8
0
 10
964.65289380
 20
1108.16088575
  0
SEQEND
  0
POLYLINE
  8
�������_450�600-02
 66
   1
 39
0.000000
 70
    1
  0
VERTEX
  8
0
 10
943.09213805
 20
1043.58667691
  0
VERTEX
  8
0
 10
956.20111297
 20
1051.43892193
  0
VERTEX
  8
0
 10
969.31008789
 20
1043.58667691
  0
VERTEX
  8
0
 10
956.20111297
 20
1035.73443190
  0
VERTEX
  8
0
 10
943.09213805
 20
1043.58667691
  0
SEQEND
  0
POLYLINE
  8
�������_450�600-02
 66
   1
 39
0.000000
 70
    1
  0
VERTEX
  8
0
 10
654.35053249
 20
818.97177012
  0
VERTEX
  8
0
 10
667.45950741
 20
811.11952510
  0
VERTEX
  8
0
 10
654.35053249
 20
803.26728009
  0
VERTEX
  8
0
 10
648.26707338
 20
806.91125773
  0
VERTEX
  8
0
 10
648.26707338
 20
815.32779248
  0
VERTEX
  8
0
 10
654.35053249
 20
818.97177012
  0
SEQEND
  0
POLYLINE
  8
�������_450�600-02
 66
   1
 39
0.000000
 70
    1
  0
VERTEX
  8
0
 10
886.42913175
 20
952.32133889
 42
0.31280064
  0
VERTEX
  8
0
 10
891.68825061
 20
941.96966328
 42
0.31280064
  0
VERTEX
  8
0
 10
903.22663856
 20
943.26624435
 42
0.03699284
  0
VERTEX
  8
0
 10
898.12435800
 20
928.64929010
 42
0.31280064
  0
VERTEX
  8
0
 10
889.89927457
 20
936.84462545
 42
0.31280064
  0
VERTEX
  8
0
 10
879.34066447
 20
932.01437994
 42
-0.04351790
  0
VERTEX
  8
0
 10
886.42913175
 20
952.32133889
  0
SEQEND
  0
POLYLINE
  8
�������_450�600-02
 66
   1
 39
0.000000
 70
    1
  0
VERTEX
  8
0
 10
835.28835931
 20
901.52341747
  0
VERTEX
  8
0
 10
848.39733423
 20
909.37566249
  0
VERTEX
  8
0
 10
861.50630915
 20
901.52341747
  0
VERTEX
  8
0
 10
848.39733423
 20
893.67117246
  0
VERTEX
  8
0
 10
835.28835931
 20
901.52341747
  0
SEQEND
  0
POLYLINE
  8
�������_450�600-02
 66
   1
 39
0.000000
 70
    1
  0
VERTEX
  8
0
 10
740.59355548
 20
844.80145365
  0
VERTEX
  8
0
 10
753.70253040
 20
836.94920864
  0
VERTEX
  8
0
 10
740.59355548
 20
829.09696363
  0
VERTEX
  8
0
 10
727.48458056
 20
836.94920864
  0
VERTEX
  8
0
 10
740.59355548
 20
844.80145365
  0
SEQEND
  0
POLYLINE
  8
�������_450�600-02
 66
   1
 39
0.000000
 70
    1
  0
VERTEX
  8
0
 10
964.65289380
 20
1133.99056928
  0
VERTEX
  8
0
 10
977.76186872
 20
1141.84281429
  0
VERTEX
  8
0
 10
990.87084364
 20
1133.99056928
  0
VERTEX
  8
0
 10
977.76186872
 20
1126.13832427
  0
VERTEX
  8
0
 10
964.65289380
 20
1133.99056928
  0
SEQEND
  0
POLYLINE
  8
�������_450�600-02
 66
   1
 39
0.000000
 70
    1
  0
VERTEX
  8
0
 10
905.00452921
 20
981.70737114
 42
-0.02020789
  0
VERTEX
  8
0
 10
911.78586214
 20
989.06017980
 42
-0.02020789
  0
VERTEX
  8
0
 10
919.13867081
 20
995.84151274
 42
0.31280064
  0
VERTEX
  8
0
 10
919.44827236
 20
984.23463263
 42
0.31280064
  0
VERTEX
  8
0
 10
930.42714574
 20
980.45576264
 42
0.01694953
  0
VERTEX
  8
0
 10
925.23854351
 20
975.60749843
 42
0.01694953
  0
VERTEX
  8
0
 10
920.39027930
 20
970.41889621
 42
0.31280064
  0
VERTEX
  8
0
 10
916.61140932
 20
981.39776958
 42
0.31280064
  0
VERTEX
  8
0
 10
905.00452921
 20
981.70737114
  0
SEQEND
  0
POLYLINE
  8
�������_450�600-02
 66
   1
 39
0.000000
 70
    1
  0
VERTEX
  8
0
 10
901.07716432
 20
976.84405926
 42
0.31280064
  0
VERTEX
  8
0
 10
903.82370031
 20
965.56256738
 42
0.31280064
  0
VERTEX
  8
0
 10
915.35210800
 20
964.18005692
 42
0.03869313
  0
VERTEX
  8
0
 10
906.70076282
 20
950.49374367
 42
0.31280064
  0
VERTEX
  8
0
 10
900.50615047
 20
960.31424757
 42
0.31280064
  0
VERTEX
  8
0
 10
889.13728770
 20
957.95533291
 42
-0.04521909
  0
VERTEX
  8
0
 10
901.07716432
 20
976.84405926
  0
SEQEND
  0
POLYLINE
  8
�������_450�600-02
 66
   1
 39
0.000000
 70
    1
  0
VERTEX
  8
0
 10
813.72760356
 20
888.60857571
  0
VERTEX
  8
0
 10
826.83657848
 20
896.46082072
  0
VERTEX
  8
0
 10
839.94555340
 20
888.60857571
  0
VERTEX
  8
0
 10
826.83657848
 20
880.75633069
  0
VERTEX
  8
0
 10
813.72760356
 20
888.60857571
  0
SEQEND
  0
POLYLINE
  8
�������_450�600-02
 66
   1
 39
0.000000
 70
    1
  0
VERTEX
  8
0
 10
762.15431123
 20
857.71629542
  0
VERTEX
  8
0
 10
775.26328615
 20
849.86405041
  0
VERTEX
  8
0
 10
762.15431123
 20
842.01180539
  0
VERTEX
  8
0
 10
749.04533631
 20
849.86405041
  0
VERTEX
  8
0
 10
762.15431123
 20
857.71629542
  0
SEQEND
  0
POLYLINE
  8
�������_450�600-02
 66
   1
 39
0.000000
 70
    1
  0
VERTEX
  8
0
 10
792.16684781
 20
875.69373394
  0
VERTEX
  8
0
 10
805.27582273
 20
883.54597895
  0
VERTEX
  8
0
 10
818.38479765
 20
875.69373394
  0
VERTEX
  8
0
 10
805.27582273
 20
867.84148893
  0
VERTEX
  8
0
 10
792.16684781
 20
875.69373394
  0
SEQEND
  0
POLYLINE
  8
�������_450�600-02
 66
   1
 39
0.000000
 70
    1
  0
VERTEX
  8
0
 10
783.71506698
 20
870.63113719
  0
VERTEX
  8
0
 10
796.82404190
 20
862.77889217
  0
VERTEX
  8
0
 10
783.71506698
 20
854.92664716
  0
VERTEX
  8
0
 10
770.60609206
 20
862.77889217
  0
VERTEX
  8
0
 10
783.71506698
 20
870.63113719
  0
SEQEND
  0
POLYLINE
  8
�������_450�600-02
 66
   1
 39
0.000000
 70
    1
  0
VERTEX
  8
0
 10
618.78833172
 20
823.15211596
 42
0.33037872
  0
VERTEX
  8
0
 10
629.54861815
 20
815.88977506
 42
0.33037872
  0
VERTEX
  8
0
 10
639.62110199
 20
824.07942881
  0
VERTEX
  8
0
 10
639.62110199
 20
805.00293681
 42
0.33037872
  0
VERTEX
  8
0
 10
629.54861815
 20
813.19259056
 42
0.33037872
  0
VERTEX
  8
0
 10
618.78833172
 20
805.93024966
  0
VERTEX
  8
0
 10
618.78833172
 20
823.15211596
  0
SEQEND
  0
POLYLINE
  8
�������_450�600-02
 66
   1
 39
0.000000
 70
    1
  0
VERTEX
  8
0
 10
943.09213805
 20
1069.41636045
  0
VERTEX
  8
0
 10
956.20111297
 20
1077.26860546
  0
VERTEX
  8
0
 10
969.31008789
 20
1069.41636045
  0
VERTEX
  8
0
 10
956.20111297
 20
1061.56411543
  0
VERTEX
  8
0
 10
943.09213805
 20
1069.41636045
  0
SEQEND
  0
POLYLINE
  8
�������_450�600-02
 66
   1
 39
0.000000
 70
    1
  0
VERTEX
  8
0
 10
675.91128824
 20
831.88661189
  0
VERTEX
  8
0
 10
689.02026316
 20
824.03436687
  0
VERTEX
  8
0
 10
675.91128824
 20
816.18212186
  0
VERTEX
  8
0
 10
662.80231332
 20
824.03436687
  0
VERTEX
  8
0
 10
675.91128824
 20
831.88661189
  0
SEQEND
  0
POLYLINE
  8
�������_450�600-02
 66
   1
 39
0.000000
 70
    1
  0
VERTEX
  8
0
 10
921.53138230
 20
1030.67183514
  0
VERTEX
  8
0
 10
934.64035722
 20
1038.52408016
  0
VERTEX
  8
0
 10
947.74933214
 20
1030.67183514
  0
VERTEX
  8
0
 10
934.64035722
 20
1022.81959013
  0
VERTEX
  8
0
 10
921.53138230
 20
1030.67183514
  0
SEQEND
  0
POLYLINE
  8
�������_450�600-02
 66
   1
 39
0.000000
 70
    1
  0
VERTEX
  8
0
 10
856.84911506
 20
940.26794278
  0
VERTEX
  8
0
 10
869.95808998
 20
948.12018779
  0
VERTEX
  8
0
 10
872.99796153
 20
946.29931191
 42
0.02596054
  0
VERTEX
  8
0
 10
869.03790055
 20
932.96688905
  0
VERTEX
  8
0
 10
856.84911506
 20
940.26794278
  0
SEQEND
  0
POLYLINE
  8
�������_450�600-02
 66
   1
 39
0.000000
 70
    1
  0
VERTEX
  8
0
 10
943.09213805
 20
1095.24604398
  0
VERTEX
  8
0
 10
956.20111297
 20
1103.09828899
  0
VERTEX
  8
0
 10
969.31008789
 20
1095.24604398
  0
VERTEX
  8
0
 10
956.20111297
 20
1087.39379897
  0
VERTEX
  8
0
 10
943.09213805
 20
1095.24604398
  0
SEQEND
  0
POLYLINE
  8
�������_450�600-02
 66
   1
 39
0.000000
 70
    1
  0
VERTEX
  8
0
 10
697.47204399
 20
844.80145365
  0
VERTEX
  8
0
 10
710.58101891
 20
836.94920864
  0
VERTEX
  8
0
 10
697.47204399
 20
829.09696363
  0
VERTEX
  8
0
 10
684.36306907
 20
836.94920864
  0
VERTEX
  8
0
 10
697.47204399
 20
844.80145365
  0
SEQEND
  0
POLYLINE
  8
�������_450�600-02
 66
   1
 39
0.000000
 70
    1
  0
VERTEX
  8
0
 10
952.25861797
 20
1163.88051880
 42
0.33037872
  0
VERTEX
  8
0
 10
960.44827172
 20
1173.95300264
 42
0.33037872
  0
VERTEX
  8
0
 10
953.18593082
 20
1184.71328907
  0
VERTEX
  8
0
 10
970.40779712
 20
1184.71328907
 42
0.33037872
  0
VERTEX
  8
0
 10
963.14545622
 20
1173.95300264
 42
0.33037872
  0
VERTEX
  8
0
 10
971.33510997
 20
1163.88051880
  0
VERTEX
  8
0
 10
952.25861797
 20
1163.88051880
  0
SEQEND
  0
POLYLINE
  8
�������_450�600-02
 66
   1
 39
0.000000
 70
    1
  0
VERTEX
  8
0
 10
835.28835931
 20
927.35310101
  0
VERTEX
  8
0
 10
848.39733423
 20
935.20534602
  0
VERTEX
  8
0
 10
861.50630915
 20
927.35310101
  0
VERTEX
  8
0
 10
848.39733423
 20
919.50085599
  0
VERTEX
  8
0
 10
835.28835931
 20
927.35310101
  0
SEQEND
  0
POLYLINE
  8
�������_450�600-02
 66
   1
 39
0.000000
 70
    1
  0
VERTEX
  8
0
 10
943.09213805
 20
1121.07572751
  0
VERTEX
  8
0
 10
956.20111297
 20
1128.92797253
  0
VERTEX
  8
0
 10
969.31008789
 20
1121.07572751
  0
VERTEX
  8
0
 10
956.20111297
 20
1113.22348250
  0
VERTEX
  8
0
 10
943.09213805
 20
1121.07572751
  0
SEQEND
  0
POLYLINE
  8
�������_450�600-02
 66
   1
 39
0.000000
 70
    1
  0
VERTEX
  8
0
 10
719.03279973
 20
857.71629542
  0
VERTEX
  8
0
 10
732.14177465
 20
849.86405041
  0
VERTEX
  8
0
 10
719.03279973
 20
842.01180539
  0
VERTEX
  8
0
 10
705.92382481
 20
849.86405041
  0
VERTEX
  8
0
 10
719.03279973
 20
857.71629542
  0
SEQEND
  0
POLYLINE
  8
�������_450�600-02
 66
   1
 39
0.000000
 70
    1
  0
VERTEX
  8
0
 10
878.40987081
 20
979.01246808
  0
VERTEX
  8
0
 10
891.51884573
 20
986.86471309
  0
VERTEX
  8
0
 10
894.52104587
 20
985.06640230
 42
0.02523298
  0
VERTEX
  8
0
 10
886.63812183
 20
974.08376515
  0
VERTEX
  8
0
 10
878.40987081
 20
979.01246808
  0
SEQEND
  0
POLYLINE
  8
�������_450�600-02
 66
   1
 39
0.000000
 70
    1
  0
VERTEX
  8
0
 10
921.53138230
 20
1056.50151868
  0
VERTEX
  8
0
 10
934.64035722
 20
1064.35376369
  0
VERTEX
  8
0
 10
947.74933214
 20
1056.50151868
  0
VERTEX
  8
0
 10
934.64035722
 20
1048.64927366
  0
VERTEX
  8
0
 10
921.53138230
 20
1056.50151868
  0
SEQEND
  0
POLYLINE
  8
�������_450�600-02
 66
   1
 39
0.000000
 70
    1
  0
VERTEX
  8
0
 10
813.72760356
 20
914.43825924
  0
VERTEX
  8
0
 10
826.83657848
 20
922.29050425
  0
VERTEX
  8
0
 10
839.94555340
 20
914.43825924
  0
VERTEX
  8
0
 10
826.83657848
 20
906.58601423
  0
VERTEX
  8
0
 10
813.72760356
 20
914.43825924
  0
SEQEND
  0
POLYLINE
  8
�������_450�600-02
 66
   1
 39
0.000000
 70
    1
  0
VERTEX
  8
0
 10
943.09213805
 20
1146.90541105
  0
VERTEX
  8
0
 10
956.20111297
 20
1154.75765606
  0
VERTEX
  8
0
 10
969.31008789
 20
1146.90541105
  0
VERTEX
  8
0
 10
956.20111297
 20
1139.05316603
  0
VERTEX
  8
0
 10
943.09213805
 20
1146.90541105
  0
SEQEND
  0
POLYLINE
  8
�������_450�600-02
 66
   1
 39
0.000000
 70
    1
  0
VERTEX
  8
0
 10
654.35053249
 20
844.80145365
  0
VERTEX
  8
0
 10
667.45950741
 20
836.94920864
  0
VERTEX
  8
0
 10
654.35053249
 20
829.09696363
  0
VERTEX
  8
0
 10
648.26707338
 20
832.74094126
  0
VERTEX
  8
0
 10
648.26707338
 20
841.15747601
  0
VERTEX
  8
0
 10
654.35053249
 20
844.80145365
  0
SEQEND
  0
POLYLINE
  8
�������_450�600-02
 66
   1
 39
0.000000
 70
    1
  0
VERTEX
  8
0
 10
740.59355548
 20
870.63113719
  0
VERTEX
  8
0
 10
753.70253040
 20
862.77889217
  0
VERTEX
  8
0
 10
740.59355548
 20
854.92664716
  0
VERTEX
  8
0
 10
727.48458056
 20
862.77889217
  0
VERTEX
  8
0
 10
740.59355548
 20
870.63113719
  0
SEQEND
  0
POLYLINE
  8
�������_450�600-02
 66
   1
 39
0.000000
 70
    1
  0
VERTEX
  8
0
 10
899.97062655
 20
1017.75699338
  0
VERTEX
  8
0
 10
913.07960147
 20
1025.60923839
  0
VERTEX
  8
0
 10
926.18857640
 20
1017.75699338
  0
VERTEX
  8
0
 10
913.07960147
 20
1009.90474836
  0
VERTEX
  8
0
 10
899.97062655
 20
1017.75699338
  0
SEQEND
  0
POLYLINE
  8
�������_450�600-02
 66
   1
 39
0.000000
 70
    1
  0
VERTEX
  8
0
 10
792.16684781
 20
901.52341747
  0
VERTEX
  8
0
 10
805.27582273
 20
909.37566249
  0
VERTEX
  8
0
 10
818.38479765
 20
901.52341747
  0
VERTEX
  8
0
 10
805.27582273
 20
893.67117246
  0
VERTEX
  8
0
 10
792.16684781
 20
901.52341747
  0
SEQEND
  0
POLYLINE
  8
�������_450�600-02
 66
   1
 39
0.000000
 70
    1
  0
VERTEX
  8
0
 10
762.15431123
 20
883.54597895
  0
VERTEX
  8
0
 10
775.26328615
 20
875.69373394
  0
VERTEX
  8
0
 10
762.15431123
 20
867.84148893
  0
VERTEX
  8
0
 10
749.04533631
 20
875.69373394
  0
VERTEX
  8
0
 10
762.15431123
 20
883.54597895
  0
SEQEND
  0
POLYLINE
  8
�������_450�600-02
 66
   1
 39
0.000000
 70
    1
  0
VERTEX
  8
0
 10
783.71506698
 20
896.46082072
  0
VERTEX
  8
0
 10
796.82404190
 20
888.60857571
  0
VERTEX
  8
0
 10
783.71506698
 20
880.75633069
  0
VERTEX
  8
0
 10
770.60609206
 20
888.60857571
  0
VERTEX
  8
0
 10
783.71506698
 20
896.46082072
  0
SEQEND
  0
POLYLINE
  8
�������_450�600-02
 66
   1
 39
0.000000
 70
    1
  0
VERTEX
  8
0
 10
618.78833172
 20
847.61893185
 42
0.33037872
  0
VERTEX
  8
0
 10
629.54861815
 20
840.35659095
 42
0.33037872
  0
VERTEX
  8
0
 10
639.62110199
 20
848.54624470
  0
VERTEX
  8
0
 10
639.62110199
 20
829.46975269
 42
0.33037872
  0
VERTEX
  8
0
 10
629.54861815
 20
837.65940645
 42
0.33037872
  0
VERTEX
  8
0
 10
618.78833172
 20
830.39706554
  0
VERTEX
  8
0
 10
618.78833172
 20
847.61893185
  0
SEQEND
  0
POLYLINE
  8
�������_450�600-02
 66
   1
 39
0.000000
 70
    1
  0
VERTEX
  8
0
 10
856.84911506
 20
966.09762631
  0
VERTEX
  8
0
 10
869.95808998
 20
973.94987132
  0
VERTEX
  8
0
 10
882.17464290
 20
966.63218498
 42
0.00338072
  0
VERTEX
  8
0
 10
881.30492706
 20
965.04210991
  0
VERTEX
  8
0
 10
869.95808998
 20
958.24538130
  0
VERTEX
  8
0
 10
856.84911506
 20
966.09762631
  0
SEQEND
  0
POLYLINE
  8
�������_450�600-02
 66
   1
 39
0.000000
 70
    1
  0
VERTEX
  8
0
 10
921.53138230
 20
1082.33120221
  0
VERTEX
  8
0
 10
934.64035722
 20
1090.18344723
  0
VERTEX
  8
0
 10
947.74933214
 20
1082.33120221
  0
VERTEX
  8
0
 10
934.64035722
 20
1074.47895720
  0
VERTEX
  8
0
 10
921.53138230
 20
1082.33120221
  0
SEQEND
  0
POLYLINE
  8
�������_450�600-02
 66
   1
 39
0.000000
 70
    1
  0
VERTEX
  8
0
 10
675.91128824
 20
857.71629542
  0
VERTEX
  8
0
 10
689.02026316
 20
849.86405041
  0
VERTEX
  8
0
 10
675.91128824
 20
842.01180539
  0
VERTEX
  8
0
 10
662.80231332
 20
849.86405041
  0
VERTEX
  8
0
 10
675.91128824
 20
857.71629542
  0
SEQEND
  0
POLYLINE
  8
�������_450�600-02
 66
   1
 39
0.000000
 70
    1
  0
VERTEX
  8
0
 10
878.40987081
 20
1004.84215161
  0
VERTEX
  8
0
 10
891.51884573
 20
1012.69439662
  0
VERTEX
  8
0
 10
904.62782065
 20
1004.84215161
  0
VERTEX
  8
0
 10
891.51884573
 20
996.98990660
  0
VERTEX
  8
0
 10
878.40987081
 20
1004.84215161
  0
SEQEND
  0
POLYLINE
  8
�������_450�600-02
 66
   1
 39
0.000000
 70
    1
  0
VERTEX
  8
0
 10
899.97062655
 20
1043.58667691
  0
VERTEX
  8
0
 10
913.07960147
 20
1051.43892193
  0
VERTEX
  8
0
 10
926.18857640
 20
1043.58667691
  0
VERTEX
  8
0
 10
913.07960147
 20
1035.73443190
  0
VERTEX
  8
0
 10
899.97062655
 20
1043.58667691
  0
SEQEND
  0
POLYLINE
  8
�������_450�600-02
 66
   1
 39
0.000000
 70
    1
  0
VERTEX
  8
0
 10
835.28835931
 20
953.18278454
  0
VERTEX
  8
0
 10
848.39733423
 20
961.03502956
  0
VERTEX
  8
0
 10
861.50630915
 20
953.18278454
  0
VERTEX
  8
0
 10
848.39733423
 20
945.33053953
  0
VERTEX
  8
0
 10
835.28835931
 20
953.18278454
  0
SEQEND
  0
POLYLINE
  8
�������_450�600-02
 66
   1
 39
0.000000
 70
    1
  0
VERTEX
  8
0
 10
921.53138230
 20
1108.16088575
  0
VERTEX
  8
0
 10
934.64035722
 20
1116.01313076
  0
VERTEX
  8
0
 10
947.74933214
 20
1108.16088575
  0
VERTEX
  8
0
 10
934.64035722
 20
1100.30864073
  0
VERTEX
  8
0
 10
921.53138230
 20
1108.16088575
  0
SEQEND
  0
POLYLINE
  8
�������_450�600-02
 66
   1
 39
0.000000
 70
    1
  0
VERTEX
  8
0
 10
929.18701416
 20
1155.23454742
  0
VERTEX
  8
0
 10
940.09370029
 20
1155.23454742
  0
VERTEX
  8
0
 10
934.64035722
 20
1151.96800780
  0
VERTEX
  8
0
 10
929.18701416
 20
1155.23454742
  0
SEQEND
  0
POLYLINE
  8
�������_450�600-02
 66
   1
 39
0.000000
 70
    1
  0
VERTEX
  8
0
 10
697.47204399
 20
870.63113719
  0
VERTEX
  8
0
 10
710.58101891
 20
862.77889217
  0
VERTEX
  8
0
 10
697.47204399
 20
854.92664716
  0
VERTEX
  8
0
 10
684.36306907
 20
862.77889217
  0
VERTEX
  8
0
 10
697.47204399
 20
870.63113719
  0
SEQEND
  0
POLYLINE
  8
�������_450�600-02
 66
   1
 39
0.000000
 70
    1
  0
VERTEX
  8
0
 10
927.79180208
 20
1163.88051880
 42
0.33037872
  0
VERTEX
  8
0
 10
935.98145583
 20
1173.95300264
 42
0.33037872
  0
VERTEX
  8
0
 10
928.71911493
 20
1184.71328907
  0
VERTEX
  8
0
 10
945.94098124
 20
1184.71328907
 42
0.33037872
  0
VERTEX
  8
0
 10
938.67864033
 20
1173.95300264
 42
0.33037872
  0
VERTEX
  8
0
 10
946.86829409
 20
1163.88051880
  0
VERTEX
  8
0
 10
927.79180208
 20
1163.88051880
  0
SEQEND
  0
POLYLINE
  8
�������_450�600-02
 66
   1
 39
0.000000
 70
    1
  0
VERTEX
  8
0
 10
921.53138230
 20
1133.99056928
  0
VERTEX
  8
0
 10
934.64035722
 20
1141.84281429
  0
VERTEX
  8
0
 10
947.74933214
 20
1133.99056928
  0
VERTEX
  8
0
 10
934.64035722
 20
1126.13832427
  0
VERTEX
  8
0
 10
921.53138230
 20
1133.99056928
  0
SEQEND
  0
POLYLINE
  8
�������_450�600-02
 66
   1
 39
0.000000
 70
    1
  0
VERTEX
  8
0
 10
813.72760356
 20
940.26794278
  0
VERTEX
  8
0
 10
826.83657848
 20
948.12018779
  0
VERTEX
  8
0
 10
839.94555340
 20
940.26794278
  0
VERTEX
  8
0
 10
826.83657848
 20
932.41569776
  0
VERTEX
  8
0
 10
813.72760356
 20
940.26794278
  0
SEQEND
  0
POLYLINE
  8
�������_450�600-02
 66
   1
 39
0.000000
 70
    1
  0
VERTEX
  8
0
 10
719.03279973
 20
883.54597895
  0
VERTEX
  8
0
 10
732.14177465
 20
875.69373394
  0
VERTEX
  8
0
 10
719.03279973
 20
867.84148893
  0
VERTEX
  8
0
 10
705.92382481
 20
875.69373394
  0
VERTEX
  8
0
 10
719.03279973
 20
883.54597895
  0
SEQEND
  0
POLYLINE
  8
�������_450�600-02
 66
   1
 39
0.000000
 70
    1
  0
VERTEX
  8
0
 10
792.16684781
 20
927.35310101
  0
VERTEX
  8
0
 10
805.27582273
 20
935.20534602
  0
VERTEX
  8
0
 10
818.38479765
 20
927.35310101
  0
VERTEX
  8
0
 10
805.27582273
 20
919.50085599
  0
VERTEX
  8
0
 10
792.16684781
 20
927.35310101
  0
SEQEND
  0
POLYLINE
  8
�������_450�600-02
 66
   1
 39
0.000000
 70
    1
  0
VERTEX
  8
0
 10
856.84911506
 20
991.92730984
  0
VERTEX
  8
0
 10
869.95808998
 20
999.77955486
  0
VERTEX
  8
0
 10
883.06706490
 20
991.92730984
  0
VERTEX
  8
0
 10
869.95808998
 20
984.07506483
  0
VERTEX
  8
0
 10
856.84911506
 20
991.92730984
  0
SEQEND
  0
POLYLINE
  8
�������_450�600-02
 66
   1
 39
0.000000
 70
    1
  0
VERTEX
  8
0
 10
899.97062655
 20
1069.41636045
  0
VERTEX
  8
0
 10
913.07960147
 20
1077.26860546
  0
VERTEX
  8
0
 10
926.18857640
 20
1069.41636045
  0
VERTEX
  8
0
 10
913.07960147
 20
1061.56411543
  0
VERTEX
  8
0
 10
899.97062655
 20
1069.41636045
  0
SEQEND
  0
POLYLINE
  8
�������_450�600-02
 66
   1
 39
0.000000
 70
    1
  0
VERTEX
  8
0
 10
740.59355548
 20
896.46082072
  0
VERTEX
  8
0
 10
753.70253040
 20
888.60857571
  0
VERTEX
  8
0
 10
740.59355548
 20
880.75633069
  0
VERTEX
  8
0
 10
727.48458056
 20
888.60857571
  0
VERTEX
  8
0
 10
740.59355548
 20
896.46082072
  0
SEQEND
  0
POLYLINE
  8
�������_450�600-02
 66
   1
 39
0.000000
 70
    1
  0
VERTEX
  8
0
 10
770.60609206
 20
914.43825924
  0
VERTEX
  8
0
 10
783.71506698
 20
922.29050425
  0
VERTEX
  8
0
 10
796.82404190
 20
914.43825924
  0
VERTEX
  8
0
 10
783.71506698
 20
906.58601423
  0
VERTEX
  8
0
 10
770.60609206
 20
914.43825924
  0
SEQEND
  0
POLYLINE
  8
�������_450�600-02
 66
   1
 39
0.000000
 70
    1
  0
VERTEX
  8
0
 10
762.15431123
 20
909.37566249
  0
VERTEX
  8
0
 10
775.26328615
 20
901.52341747
  0
VERTEX
  8
0
 10
762.15431123
 20
893.67117246
  0
VERTEX
  8
0
 10
749.04533631
 20
901.52341747
  0
VERTEX
  8
0
 10
762.15431123
 20
909.37566249
  0
SEQEND
  0
POLYLINE
  8
�������_450�600-02
 66
   1
 39
0.000000
 70
    1
  0
VERTEX
  8
0
 10
654.35053249
 20
870.63113719
  0
VERTEX
  8
0
 10
667.45950741
 20
862.77889217
  0
VERTEX
  8
0
 10
654.35053249
 20
854.92664716
  0
VERTEX
  8
0
 10
648.26707338
 20
858.57062480
  0
VERTEX
  8
0
 10
648.26707338
 20
866.98715955
  0
VERTEX
  8
0
 10
654.35053249
 20
870.63113719
  0
SEQEND
  0
POLYLINE
  8
�������_450�600-02
 66
   1
 39
0.000000
 70
    1
  0
VERTEX
  8
0
 10
878.40987081
 20
1030.67183514
  0
VERTEX
  8
0
 10
891.51884573
 20
1038.52408016
  0
VERTEX
  8
0
 10
904.62782065
 20
1030.67183514
  0
VERTEX
  8
0
 10
891.51884573
 20
1022.81959013
  0
VERTEX
  8
0
 10
878.40987081
 20
1030.67183514
  0
SEQEND
  0
POLYLINE
  8
�������_450�600-02
 66
   1
 39
0.000000
 70
    1
  0
VERTEX
  8
0
 10
618.78833172
 20
872.08574773
 42
0.33037872
  0
VERTEX
  8
0
 10
629.54861815
 20
864.82340683
 42
0.33037872
  0
VERTEX
  8
0
 10
639.62110199
 20
873.01306058
  0
VERTEX
  8
0
 10
639.62110199
 20
853.93656858
 42
0.33037872
  0
VERTEX
  8
0
 10
629.54861815
 20
862.12622233
 42
0.33037872
  0
VERTEX
  8
0
 10
618.78833172
 20
854.86388143
  0
VERTEX
  8
0
 10
618.78833172
 20
872.08574773
  0
SEQEND
  0
POLYLINE
  8
�������_450�600-02
 66
   1
 39
0.000000
 70
    1
  0
VERTEX
  8
0
 10
899.97062655
 20
1095.24604398
  0
VERTEX
  8
0
 10
913.07960147
 20
1103.09828899
  0
VERTEX
  8
0
 10
926.18857640
 20
1095.24604398
  0
VERTEX
  8
0
 10
913.07960147
 20
1087.39379897
  0
VERTEX
  8
0
 10
899.97062655
 20
1095.24604398
  0
SEQEND
  0
POLYLINE
  8
�������_450�600-02
 66
   1
 39
0.000000
 70
    1
  0
VERTEX
  8
0
 10
835.28835931
 20
979.01246808
  0
VERTEX
  8
0
 10
848.39733423
 20
986.86471309
  0
VERTEX
  8
0
 10
861.50630915
 20
979.01246808
  0
VERTEX
  8
0
 10
848.39733423
 20
971.16022306
  0
VERTEX
  8
0
 10
835.28835931
 20
979.01246808
  0
SEQEND
  0
POLYLINE
  8
�������_450�600-02
 66
   1
 39
0.000000
 70
    1
  0
VERTEX
  8
0
 10
675.91128824
 20
883.54597895
  0
VERTEX
  8
0
 10
689.02026316
 20
875.69373394
  0
VERTEX
  8
0
 10
675.91128824
 20
867.84148893
  0
VERTEX
  8
0
 10
662.80231332
 20
875.69373394
  0
VERTEX
  8
0
 10
675.91128824
 20
883.54597895
  0
SEQEND
  0
POLYLINE
  8
�������_450�600-02
 66
   1
 39
0.000000
 70
    1
  0
VERTEX
  8
0
 10
878.40987081
 20
1056.50151868
  0
VERTEX
  8
0
 10
891.51884573
 20
1064.35376369
  0
VERTEX
  8
0
 10
904.62782065
 20
1056.50151868
  0
VERTEX
  8
0
 10
891.51884573
 20
1048.64927366
  0
VERTEX
  8
0
 10
878.40987081
 20
1056.50151868
  0
SEQEND
  0
POLYLINE
  8
�������_450�600-02
 66
   1
 39
0.000000
 70
    1
  0
VERTEX
  8
0
 10
856.84911506
 20
1017.75699338
  0
VERTEX
  8
0
 10
869.95808998
 20
1025.60923839
  0
VERTEX
  8
0
 10
883.06706490
 20
1017.75699338
  0
VERTEX
  8
0
 10
869.95808998
 20
1009.90474836
  0
VERTEX
  8
0
 10
856.84911506
 20
1017.75699338
  0
SEQEND
  0
POLYLINE
  8
�������_450�600-02
 66
   1
 39
0.000000
 70
    1
  0
VERTEX
  8
0
 10
899.97062655
 20
1121.07572751
  0
VERTEX
  8
0
 10
913.07960147
 20
1128.92797253
  0
VERTEX
  8
0
 10
926.18857640
 20
1121.07572751
  0
VERTEX
  8
0
 10
913.07960147
 20
1113.22348250
  0
VERTEX
  8
0
 10
899.97062655
 20
1121.07572751
  0
SEQEND
  0
POLYLINE
  8
�������_450�600-02
 66
   1
 39
0.000000
 70
    1
  0
VERTEX
  8
0
 10
813.72760356
 20
966.09762631
  0
VERTEX
  8
0
 10
826.83657848
 20
973.94987132
  0
VERTEX
  8
0
 10
839.94555340
 20
966.09762631
  0
VERTEX
  8
0
 10
826.83657848
 20
958.24538130
  0
VERTEX
  8
0
 10
813.72760356
 20
966.09762631
  0
SEQEND
  0
POLYLINE
  8
�������_450�600-02
 66
   1
 39
0.000000
 70
    1
  0
VERTEX
  8
0
 10
697.47204399
 20
896.46082072
  0
VERTEX
  8
0
 10
710.58101891
 20
888.60857571
  0
VERTEX
  8
0
 10
697.47204399
 20
880.75633069
  0
VERTEX
  8
0
 10
684.36306907
 20
888.60857571
  0
VERTEX
  8
0
 10
697.47204399
 20
896.46082072
  0
SEQEND
  0
POLYLINE
  8
�������_450�600-02
 66
   1
 39
0.000000
 70
    1
  0
VERTEX
  8
0
 10
903.32498620
 20
1163.88051880
 42
0.33037872
  0
VERTEX
  8
0
 10
911.51463995
 20
1173.95300264
 42
0.33037872
  0
VERTEX
  8
0
 10
904.25229905
 20
1184.71328907
  0
VERTEX
  8
0
 10
921.47416535
 20
1184.71328907
 42
0.33037872
  0
VERTEX
  8
0
 10
914.21182445
 20
1173.95300264
 42
0.33037872
  0
VERTEX
  8
0
 10
922.40147820
 20
1163.88051880
  0
VERTEX
  8
0
 10
903.32498620
 20
1163.88051880
  0
SEQEND
  0
POLYLINE
  8
�������_450�600-02
 66
   1
 39
0.000000
 70
    1
  0
VERTEX
  8
0
 10
899.97062655
 20
1146.90541105
  0
VERTEX
  8
0
 10
913.07960147
 20
1154.75765606
  0
VERTEX
  8
0
 10
926.18857640
 20
1146.90541105
  0
VERTEX
  8
0
 10
913.07960147
 20
1139.05316603
  0
VERTEX
  8
0
 10
899.97062655
 20
1146.90541105
  0
SEQEND
  0
POLYLINE
  8
�������_450�600-02
 66
   1
 39
0.000000
 70
    1
  0
VERTEX
  8
0
 10
792.16684781
 20
953.18278454
  0
VERTEX
  8
0
 10
805.27582273
 20
961.03502956
  0
VERTEX
  8
0
 10
818.38479765
 20
953.18278454
  0
VERTEX
  8
0
 10
805.27582273
 20
945.33053953
  0
VERTEX
  8
0
 10
792.16684781
 20
953.18278454
  0
SEQEND
  0
POLYLINE
  8
�������_450�600-02
 66
   1
 39
0.000000
 70
    1
  0
VERTEX
  8
0
 10
719.03279973
 20
909.37566249
  0
VERTEX
  8
0
 10
732.14177465
 20
901.52341747
  0
VERTEX
  8
0
 10
719.03279973
 20
893.67117246
  0
VERTEX
  8
0
 10
705.92382481
 20
901.52341747
  0
VERTEX
  8
0
 10
719.03279973
 20
909.37566249
  0
SEQEND
  0
POLYLINE
  8
�������_450�600-02
 66
   1
 39
0.000000
 70
    1
  0
VERTEX
  8
0
 10
770.60609206
 20
940.26794278
  0
VERTEX
  8
0
 10
783.71506698
 20
948.12018779
  0
VERTEX
  8
0
 10
796.82404190
 20
940.26794278
  0
VERTEX
  8
0
 10
783.71506698
 20
932.41569776
  0
VERTEX
  8
0
 10
770.60609206
 20
940.26794278
  0
SEQEND
  0
POLYLINE
  8
�������_450�600-02
 66
   1
 39
0.000000
 70
    1
  0
VERTEX
  8
0
 10
740.59355548
 20
922.29050425
  0
VERTEX
  8
0
 10
753.70253040
 20
914.43825924
  0
VERTEX
  8
0
 10
740.59355548
 20
906.58601423
  0
VERTEX
  8
0
 10
727.48458056
 20
914.43825924
  0
VERTEX
  8
0
 10
740.59355548
 20
922.29050425
  0
SEQEND
  0
POLYLINE
  8
�������_450�600-02
 66
   1
 39
0.000000
 70
    1
  0
VERTEX
  8
0
 10
762.15431123
 20
935.20534602
  0
VERTEX
  8
0
 10
775.26328615
 20
927.35310101
  0
VERTEX
  8
0
 10
762.15431123
 20
919.50085599
  0
VERTEX
  8
0
 10
749.04533631
 20
927.35310101
  0
VERTEX
  8
0
 10
762.15431123
 20
935.20534602
  0
SEQEND
  0
POLYLINE
  8
�������_450�600-02
 66
   1
 39
0.000000
 70
    1
  0
VERTEX
  8
0
 10
878.40987081
 20
1082.33120221
  0
VERTEX
  8
0
 10
891.51884573
 20
1090.18344723
  0
VERTEX
  8
0
 10
904.62782065
 20
1082.33120221
  0
VERTEX
  8
0
 10
891.51884573
 20
1074.47895720
  0
VERTEX
  8
0
 10
878.40987081
 20
1082.33120221
  0
SEQEND
  0
POLYLINE
  8
�������_450�600-02
 66
   1
 39
0.000000
 70
    1
  0
VERTEX
  8
0
 10
835.28835931
 20
1004.84215161
  0
VERTEX
  8
0
 10
848.39733423
 20
1012.69439662
  0
VERTEX
  8
0
 10
861.50630915
 20
1004.84215161
  0
VERTEX
  8
0
 10
848.39733423
 20
996.98990660
  0
VERTEX
  8
0
 10
835.28835931
 20
1004.84215161
  0
SEQEND
  0
POLYLINE
  8
�������_450�600-02
 66
   1
 39
0.000000
 70
    1
  0
VERTEX
  8
0
 10
654.35053249
 20
896.46082072
  0
VERTEX
  8
0
 10
667.45950741
 20
888.60857571
  0
VERTEX
  8
0
 10
654.35053249
 20
880.75633069
  0
VERTEX
  8
0
 10
648.26707338
 20
884.40030833
  0
VERTEX
  8
0
 10
648.26707338
 20
892.81684308
  0
VERTEX
  8
0
 10
654.35053249
 20
896.46082072
  0
SEQEND
  0
POLYLINE
  8
�������_450�600-02
 66
   1
 39
0.000000
 70
    1
  0
VERTEX
  8
0
 10
856.84911506
 20
1043.58667691
  0
VERTEX
  8
0
 10
869.95808998
 20
1051.43892193
  0
VERTEX
  8
0
 10
883.06706490
 20
1043.58667691
  0
VERTEX
  8
0
 10
869.95808998
 20
1035.73443190
  0
VERTEX
  8
0
 10
856.84911506
 20
1043.58667691
  0
SEQEND
  0
POLYLINE
  8
�������_450�600-02
 66
   1
 39
0.000000
 70
    1
  0
VERTEX
  8
0
 10
878.40987081
 20
1108.16088575
  0
VERTEX
  8
0
 10
891.51884573
 20
1116.01313076
  0
VERTEX
  8
0
 10
904.62782065
 20
1108.16088575
  0
VERTEX
  8
0
 10
891.51884573
 20
1100.30864073
  0
VERTEX
  8
0
 10
878.40987081
 20
1108.16088575
  0
SEQEND
  0
POLYLINE
  8
�������_450�600-02
 66
   1
 39
0.000000
 70
    1
  0
VERTEX
  8
0
 10
813.72760356
 20
991.92730984
  0
VERTEX
  8
0
 10
826.83657848
 20
999.77955486
  0
VERTEX
  8
0
 10
839.94555340
 20
991.92730984
  0
VERTEX
  8
0
 10
826.83657848
 20
984.07506483
  0
VERTEX
  8
0
 10
813.72760356
 20
991.92730984
  0
SEQEND
  0
POLYLINE
  8
�������_450�600-02
 66
   1
 39
0.000000
 70
    1
  0
VERTEX
  8
0
 10
618.78833172
 20
897.90094268
 42
0.33037872
  0
VERTEX
  8
0
 10
629.54861815
 20
890.63860178
 42
0.33037872
  0
VERTEX
  8
0
 10
639.62110199
 20
898.82825553
  0
VERTEX
  8
0
 10
639.62110199
 20
878.40338447
 42
0.33037872
  0
VERTEX
  8
0
 10
629.54861815
 20
886.59303822
 42
0.33037872
  0
VERTEX
  8
0
 10
618.78833172
 20
879.33069732
  0
VERTEX
  8
0
 10
618.78833172
 20
897.90094268
  0
SEQEND
  0
POLYLINE
  8
�������_450�600-02
 66
   1
 39
0.000000
 70
    1
  0
VERTEX
  8
0
 10
886.06550266
 20
1155.23454742
  0
VERTEX
  8
0
 10
896.97218879
 20
1155.23454742
  0
VERTEX
  8
0
 10
891.51884573
 20
1151.96800780
  0
VERTEX
  8
0
 10
886.06550266
 20
1155.23454742
  0
SEQEND
  0
POLYLINE
  8
�������_450�600-02
 66
   1
 39
0.000000
 70
    1
  0
VERTEX
  8
0
 10
675.91128824
 20
909.37566249
  0
VERTEX
  8
0
 10
689.02026316
 20
901.52341747
  0
VERTEX
  8
0
 10
675.91128824
 20
893.67117246
  0
VERTEX
  8
0
 10
662.80231332
 20
901.52341747
  0
VERTEX
  8
0
 10
675.91128824
 20
909.37566249
  0
SEQEND
  0
POLYLINE
  8
�������_450�600-02
 66
   1
 39
0.000000
 70
    1
  0
VERTEX
  8
0
 10
878.40987081
 20
1133.99056928
  0
VERTEX
  8
0
 10
891.51884573
 20
1141.84281429
  0
VERTEX
  8
0
 10
904.62782065
 20
1133.99056928
  0
VERTEX
  8
0
 10
891.51884573
 20
1126.13832427
  0
VERTEX
  8
0
 10
878.40987081
 20
1133.99056928
  0
SEQEND
  0
POLYLINE
  8
�������_450�600-02
 66
   1
 39
0.000000
 70
    1
  0
VERTEX
  8
0
 10
792.16684781
 20
979.01246808
  0
VERTEX
  8
0
 10
805.27582273
 20
986.86471309
  0
VERTEX
  8
0
 10
818.38479765
 20
979.01246808
  0
VERTEX
  8
0
 10
805.27582273
 20
971.16022306
  0
VERTEX
  8
0
 10
792.16684781
 20
979.01246808
  0
SEQEND
  0
POLYLINE
  8
�������_450�600-02
 66
   1
 39
0.000000
 70
    1
  0
VERTEX
  8
0
 10
856.84911506
 20
1069.41636045
  0
VERTEX
  8
0
 10
869.95808998
 20
1077.26860546
  0
VERTEX
  8
0
 10
883.06706490
 20
1069.41636045
  0
VERTEX
  8
0
 10
869.95808998
 20
1061.56411543
  0
VERTEX
  8
0
 10
856.84911506
 20
1069.41636045
  0
SEQEND
  0
POLYLINE
  8
�������_450�600-02
 66
   1
 39
0.000000
 70
    1
  0
VERTEX
  8
0
 10
835.28835931
 20
1030.67183514
  0
VERTEX
  8
0
 10
848.39733423
 20
1038.52408016
  0
VERTEX
  8
0
 10
861.50630915
 20
1030.67183514
  0
VERTEX
  8
0
 10
848.39733423
 20
1022.81959013
  0
VERTEX
  8
0
 10
835.28835931
 20
1030.67183514
  0
SEQEND
  0
POLYLINE
  8
�������_450�600-02
 66
   1
 39
0.000000
 70
    1
  0
VERTEX
  8
0
 10
697.47204399
 20
922.29050425
  0
VERTEX
  8
0
 10
710.58101891
 20
914.43825924
  0
VERTEX
  8
0
 10
697.47204399
 20
906.58601423
  0
VERTEX
  8
0
 10
684.36306907
 20
914.43825924
  0
VERTEX
  8
0
 10
697.47204399
 20
922.29050425
  0
SEQEND
  0
POLYLINE
  8
�������_450�600-02
 66
   1
 39
0.000000
 70
    1
  0
VERTEX
  8
0
 10
878.85817031
 20
1163.88051880
 42
0.33037872
  0
VERTEX
  8
0
 10
887.04782406
 20
1173.95300264
 42
0.33037872
  0
VERTEX
  8
0
 10
879.78548316
 20
1184.71328907
  0
VERTEX
  8
0
 10
897.00734946
 20
1184.71328907
 42
0.33037872
  0
VERTEX
  8
0
 10
889.74500856
 20
1173.95300264
 42
0.33037872
  0
VERTEX
  8
0
 10
897.93466231
 20
1163.88051880
  0
VERTEX
  8
0
 10
878.85817031
 20
1163.88051880
  0
SEQEND
  0
POLYLINE
  8
�������_450�600-02
 66
   1
 39
0.000000
 70
    1
  0
VERTEX
  8
0
 10
770.60609206
 20
966.09762631
  0
VERTEX
  8
0
 10
783.71506698
 20
973.94987132
  0
VERTEX
  8
0
 10
796.82404190
 20
966.09762631
  0
VERTEX
  8
0
 10
783.71506698
 20
958.24538130
  0
VERTEX
  8
0
 10
770.60609206
 20
966.09762631
  0
SEQEND
  0
POLYLINE
  8
�������_450�600-02
 66
   1
 39
0.000000
 70
    1
  0
VERTEX
  8
0
 10
719.03279973
 20
935.20534602
  0
VERTEX
  8
0
 10
732.14177465
 20
927.35310101
  0
VERTEX
  8
0
 10
719.03279973
 20
919.50085599
  0
VERTEX
  8
0
 10
705.92382481
 20
927.35310101
  0
VERTEX
  8
0
 10
719.03279973
 20
935.20534602
  0
SEQEND
  0
POLYLINE
  8
�������_450�600-02
 66
   1
 39
0.000000
 70
    1
  0
VERTEX
  8
0
 10
749.04533631
 20
953.18278454
  0
VERTEX
  8
0
 10
762.15431123
 20
961.03502956
  0
VERTEX
  8
0
 10
775.26328615
 20
953.18278454
  0
VERTEX
  8
0
 10
762.15431123
 20
945.33053953
  0
VERTEX
  8
0
 10
749.04533631
 20
953.18278454
  0
SEQEND
  0
POLYLINE
  8
�������_450�600-02
 66
   1
 39
0.000000
 70
    1
  0
VERTEX
  8
0
 10
740.59355548
 20
948.12018779
  0
VERTEX
  8
0
 10
753.70253040
 20
940.26794278
  0
VERTEX
  8
0
 10
740.59355548
 20
932.41569776
  0
VERTEX
  8
0
 10
727.48458056
 20
940.26794278
  0
VERTEX
  8
0
 10
740.59355548
 20
948.12018779
  0
SEQEND
  0
POLYLINE
  8
�������_450�600-02
 66
   1
 39
0.000000
 70
    1
  0
VERTEX
  8
0
 10
856.84911506
 20
1095.24604398
  0
VERTEX
  8
0
 10
869.95808998
 20
1103.09828899
  0
VERTEX
  8
0
 10
883.06706490
 20
1095.24604398
  0
VERTEX
  8
0
 10
869.95808998
 20
1087.39379897
  0
VERTEX
  8
0
 10
856.84911506
 20
1095.24604398
  0
SEQEND
  0
POLYLINE
  8
�������_450�600-02
 66
   1
 39
0.000000
 70
    1
  0
VERTEX
  8
0
 10
813.72760356
 20
1017.75699338
  0
VERTEX
  8
0
 10
826.83657848
 20
1025.60923839
  0
VERTEX
  8
0
 10
839.94555340
 20
1017.75699338
  0
VERTEX
  8
0
 10
826.83657848
 20
1009.90474836
  0
VERTEX
  8
0
 10
813.72760356
 20
1017.75699338
  0
SEQEND
  0
POLYLINE
  8
�������_450�600-02
 66
   1
 39
0.000000
 70
    1
  0
VERTEX
  8
0
 10
654.35053249
 20
922.29050425
  0
VERTEX
  8
0
 10
667.45950741
 20
914.43825924
  0
VERTEX
  8
0
 10
654.35053249
 20
906.58601423
  0
VERTEX
  8
0
 10
648.26707338
 20
910.22999187
  0
VERTEX
  8
0
 10
648.26707338
 20
918.64652662
  0
VERTEX
  8
0
 10
654.35053249
 20
922.29050425
  0
SEQEND
  0
POLYLINE
  8
�������_450�600-02
 66
   1
 39
0.000000
 70
    1
  0
VERTEX
  8
0
 10
835.28835931
 20
1056.50151868
  0
VERTEX
  8
0
 10
848.39733423
 20
1064.35376369
  0
VERTEX
  8
0
 10
861.50630915
 20
1056.50151868
  0
VERTEX
  8
0
 10
848.39733423
 20
1048.64927366
  0
VERTEX
  8
0
 10
835.28835931
 20
1056.50151868
  0
SEQEND
  0
POLYLINE
  8
�������_450�600-02
 66
   1
 39
0.000000
 70
    1
  0
VERTEX
  8
0
 10
856.84911506
 20
1121.07572751
  0
VERTEX
  8
0
 10
869.95808998
 20
1128.92797253
  0
VERTEX
  8
0
 10
883.06706490
 20
1121.07572751
  0
VERTEX
  8
0
 10
869.95808998
 20
1113.22348250
  0
VERTEX
  8
0
 10
856.84911506
 20
1121.07572751
  0
SEQEND
  0
POLYLINE
  8
�������_450�600-02
 66
   1
 39
0.000000
 70
    1
  0
VERTEX
  8
0
 10
792.16684781
 20
1004.84215161
  0
VERTEX
  8
0
 10
805.27582273
 20
1012.69439662
  0
VERTEX
  8
0
 10
818.38479765
 20
1004.84215161
  0
VERTEX
  8
0
 10
805.27582273
 20
996.98990660
  0
VERTEX
  8
0
 10
792.16684781
 20
1004.84215161
  0
SEQEND
  0
POLYLINE
  8
�������_450�600-02
 66
   1
 39
0.000000
 70
    1
  0
VERTEX
  8
0
 10
618.78833172
 20
923.71613763
 42
0.33037872
  0
VERTEX
  8
0
 10
629.54861815
 20
916.45379673
 42
0.33037872
  0
VERTEX
  8
0
 10
639.62110199
 20
924.64345048
  0
VERTEX
  8
0
 10
639.62110199
 20
904.21857942
 42
0.33037872
  0
VERTEX
  8
0
 10
629.54861815
 20
912.40823317
 42
0.33037872
  0
VERTEX
  8
0
 10
618.78833172
 20
905.14589227
  0
VERTEX
  8
0
 10
618.78833172
 20
923.71613763
  0
SEQEND
  0
POLYLINE
  8
�������_450�600-02
 66
   1
 39
0.000000
 70
    1
  0
VERTEX
  8
0
 10
675.91128824
 20
935.20534602
  0
VERTEX
  8
0
 10
689.02026316
 20
927.35310101
  0
VERTEX
  8
0
 10
675.91128824
 20
919.50085599
  0
VERTEX
  8
0
 10
662.80231332
 20
927.35310101
  0
VERTEX
  8
0
 10
675.91128824
 20
935.20534602
  0
SEQEND
  0
POLYLINE
  8
�������_450�600-02
 66
   1
 39
0.000000
 70
    1
  0
VERTEX
  8
0
 10
856.84911506
 20
1146.90541105
  0
VERTEX
  8
0
 10
869.95808998
 20
1154.75765606
  0
VERTEX
  8
0
 10
883.06706490
 20
1146.90541105
  0
VERTEX
  8
0
 10
869.95808998
 20
1139.05316603
  0
VERTEX
  8
0
 10
856.84911506
 20
1146.90541105
  0
SEQEND
  0
POLYLINE
  8
�������_450�600-02
 66
   1
 39
0.000000
 70
    1
  0
VERTEX
  8
0
 10
770.60609206
 20
991.92730984
  0
VERTEX
  8
0
 10
783.71506698
 20
999.77955486
  0
VERTEX
  8
0
 10
796.82404190
 20
991.92730984
  0
VERTEX
  8
0
 10
783.71506698
 20
984.07506483
  0
VERTEX
  8
0
 10
770.60609206
 20
991.92730984
  0
SEQEND
  0
POLYLINE
  8
�������_450�600-02
 66
   1
 39
0.000000
 70
    1
  0
VERTEX
  8
0
 10
835.28835931
 20
1082.33120221
  0
VERTEX
  8
0
 10
848.39733423
 20
1090.18344723
  0
VERTEX
  8
0
 10
861.50630915
 20
1082.33120221
  0
VERTEX
  8
0
 10
848.39733423
 20
1074.47895720
  0
VERTEX
  8
0
 10
835.28835931
 20
1082.33120221
  0
SEQEND
  0
POLYLINE
  8
�������_450�600-02
 66
   1
 39
0.000000
 70
    1
  0
VERTEX
  8
0
 10
697.47204399
 20
948.12018779
  0
VERTEX
  8
0
 10
710.58101891
 20
940.26794278
  0
VERTEX
  8
0
 10
697.47204399
 20
932.41569776
  0
VERTEX
  8
0
 10
684.36306907
 20
940.26794278
  0
VERTEX
  8
0
 10
697.47204399
 20
948.12018779
  0
SEQEND
  0
POLYLINE
  8
�������_450�600-02
 66
   1
 39
0.000000
 70
    1
  0
VERTEX
  8
0
 10
813.72760356
 20
1043.58667691
  0
VERTEX
  8
0
 10
826.83657848
 20
1051.43892193
  0
VERTEX
  8
0
 10
839.94555340
 20
1043.58667691
  0
VERTEX
  8
0
 10
826.83657848
 20
1035.73443190
  0
VERTEX
  8
0
 10
813.72760356
 20
1043.58667691
  0
SEQEND
  0
POLYLINE
  8
�������_450�600-02
 66
   1
 39
0.000000
 70
    1
  0
VERTEX
  8
0
 10
855.31866727
 20
1184.71328907
  0
VERTEX
  8
0
 10
872.54053358
 20
1184.71328907
 42
0.33037872
  0
VERTEX
  8
0
 10
865.27819268
 20
1173.95300264
 42
0.33037872
  0
VERTEX
  8
0
 10
873.46784643
 20
1163.88051880
  0
VERTEX
  8
0
 10
854.39135442
 20
1163.88051880
 42
0.33037872
  0
VERTEX
  8
0
 10
862.58100818
 20
1173.95300264
 42
0.33037872
  0
VERTEX
  8
0
 10
855.31866727
 20
1184.71328907
  0
SEQEND
  0
POLYLINE
  8
�������_450�600-02
 66
   1
 39
0.000000
 70
    1
  0
VERTEX
  8
0
 10
749.04533631
 20
979.01246808
  0
VERTEX
  8
0
 10
762.15431123
 20
986.86471309
  0
VERTEX
  8
0
 10
775.26328615
 20
979.01246808
  0
VERTEX
  8
0
 10
762.15431123
 20
971.16022306
  0
VERTEX
  8
0
 10
749.04533631
 20
979.01246808
  0
SEQEND
  0
POLYLINE
  8
�������_450�600-02
 66
   1
 39
0.000000
 70
    1
  0
VERTEX
  8
0
 10
719.03279973
 20
961.03502956
  0
VERTEX
  8
0
 10
732.14177465
 20
953.18278454
  0
VERTEX
  8
0
 10
719.03279973
 20
945.33053953
  0
VERTEX
  8
0
 10
705.92382481
 20
953.18278454
  0
VERTEX
  8
0
 10
719.03279973
 20
961.03502956
  0
SEQEND
  0
POLYLINE
  8
�������_450�600-02
 66
   1
 39
0.000000
 70
    1
  0
VERTEX
  8
0
 10
740.59355548
 20
973.94987132
  0
VERTEX
  8
0
 10
753.70253040
 20
966.09762631
  0
VERTEX
  8
0
 10
740.59355548
 20
958.24538130
  0
VERTEX
  8
0
 10
727.48458056
 20
966.09762631
  0
VERTEX
  8
0
 10
740.59355548
 20
973.94987132
  0
SEQEND
  0
POLYLINE
  8
�������_450�600-02
 66
   1
 39
0.000000
 70
    1
  0
VERTEX
  8
0
 10
835.28835931
 20
1108.16088575
  0
VERTEX
  8
0
 10
848.39733423
 20
1116.01313076
  0
VERTEX
  8
0
 10
861.50630915
 20
1108.16088575
  0
VERTEX
  8
0
 10
848.39733423
 20
1100.30864073
  0
VERTEX
  8
0
 10
835.28835931
 20
1108.16088575
  0
SEQEND
  0
POLYLINE
  8
�������_450�600-02
 66
   1
 39
0.000000
 70
    1
  0
VERTEX
  8
0
 10
792.16684781
 20
1030.67183514
  0
VERTEX
  8
0
 10
805.27582273
 20
1038.52408016
  0
VERTEX
  8
0
 10
818.38479765
 20
1030.67183514
  0
VERTEX
  8
0
 10
805.27582273
 20
1022.81959013
  0
VERTEX
  8
0
 10
792.16684781
 20
1030.67183514
  0
SEQEND
  0
POLYLINE
  8
�������_450�600-02
 66
   1
 39
0.000000
 70
    1
  0
VERTEX
  8
0
 10
842.94399116
 20
1155.23454742
  0
VERTEX
  8
0
 10
853.85067730
 20
1155.23454742
  0
VERTEX
  8
0
 10
848.39733423
 20
1151.96800780
  0
VERTEX
  8
0
 10
842.94399116
 20
1155.23454742
  0
SEQEND
  0
POLYLINE
  8
�������_450�600-02
 66
   1
 39
0.000000
 70
    1
  0
VERTEX
  8
0
 10
654.35053249
 20
948.12018779
  0
VERTEX
  8
0
 10
667.45950741
 20
940.26794278
  0
VERTEX
  8
0
 10
654.35053249
 20
932.41569776
  0
VERTEX
  8
0
 10
648.26707338
 20
936.05967540
  0
VERTEX
  8
0
 10
648.26707338
 20
944.47621015
  0
VERTEX
  8
0
 10
654.35053249
 20
948.12018779
  0
SEQEND
  0
POLYLINE
  8
�������_450�600-02
 66
   1
 39
0.000000
 70
    1
  0
VERTEX
  8
0
 10
813.72760356
 20
1069.41636045
  0
VERTEX
  8
0
 10
826.83657848
 20
1077.26860546
  0
VERTEX
  8
0
 10
839.94555340
 20
1069.41636045
  0
VERTEX
  8
0
 10
826.83657848
 20
1061.56411543
  0
VERTEX
  8
0
 10
813.72760356
 20
1069.41636045
  0
SEQEND
  0
POLYLINE
  8
�������_450�600-02
 66
   1
 39
0.000000
 70
    1
  0
VERTEX
  8
0
 10
835.28835931
 20
1133.99056928
  0
VERTEX
  8
0
 10
848.39733423
 20
1141.84281429
  0
VERTEX
  8
0
 10
861.50630915
 20
1133.99056928
  0
VERTEX
  8
0
 10
848.39733423
 20
1126.13832427
  0
VERTEX
  8
0
 10
835.28835931
 20
1133.99056928
  0
SEQEND
  0
POLYLINE
  8
�������_450�600-02
 66
   1
 39
0.000000
 70
    1
  0
VERTEX
  8
0
 10
770.60609206
 20
1017.75699338
  0
VERTEX
  8
0
 10
783.71506698
 20
1025.60923839
  0
VERTEX
  8
0
 10
796.82404190
 20
1017.75699338
  0
VERTEX
  8
0
 10
783.71506698
 20
1009.90474836
  0
VERTEX
  8
0
 10
770.60609206
 20
1017.75699338
  0
SEQEND
  0
POLYLINE
  8
�������_450�600-02
 66
   1
 39
0.000000
 70
    1
  0
VERTEX
  8
0
 10
618.78833172
 20
948.18295352
 42
0.33037872
  0
VERTEX
  8
0
 10
629.54861815
 20
940.92061262
 42
0.33037872
  0
VERTEX
  8
0
 10
639.62110199
 20
949.11026637
  0
VERTEX
  8
0
 10
639.62110199
 20
930.03377436
 42
0.33037872
  0
VERTEX
  8
0
 10
629.54861815
 20
938.22342812
 42
0.33037872
  0
VERTEX
  8
0
 10
618.78833172
 20
930.96108721
  0
VERTEX
  8
0
 10
618.78833172
 20
948.18295352
  0
SEQEND
  0
POLYLINE
  8
�������_450�600-02
 66
   1
 39
0.000000
 70
    1
  0
VERTEX
  8
0
 10
675.91128824
 20
961.03502956
  0
VERTEX
  8
0
 10
689.02026316
 20
953.18278454
  0
VERTEX
  8
0
 10
675.91128824
 20
945.33053953
  0
VERTEX
  8
0
 10
662.80231332
 20
953.18278454
  0
VERTEX
  8
0
 10
675.91128824
 20
961.03502956
  0
SEQEND
  0
POLYLINE
  8
�������_450�600-02
 66
   1
 39
0.000000
 70
    1
  0
VERTEX
  8
0
 10
749.04533631
 20
1004.84215161
  0
VERTEX
  8
0
 10
762.15431123
 20
1012.69439662
  0
VERTEX
  8
0
 10
775.26328615
 20
1004.84215161
  0
VERTEX
  8
0
 10
762.15431123
 20
996.98990660
  0
VERTEX
  8
0
 10
749.04533631
 20
1004.84215161
  0
SEQEND
  0
POLYLINE
  8
�������_450�600-02
 66
   1
 39
0.000000
 70
    1
  0
VERTEX
  8
0
 10
697.47204399
 20
973.94987132
  0
VERTEX
  8
0
 10
710.58101891
 20
966.09762631
  0
VERTEX
  8
0
 10
697.47204399
 20
958.24538130
  0
VERTEX
  8
0
 10
684.36306907
 20
966.09762631
  0
VERTEX
  8
0
 10
697.47204399
 20
973.94987132
  0
SEQEND
  0
POLYLINE
  8
�������_450�600-02
 66
   1
 39
0.000000
 70
    1
  0
VERTEX
  8
0
 10
813.72760356
 20
1095.24604398
  0
VERTEX
  8
0
 10
826.83657848
 20
1103.09828899
  0
VERTEX
  8
0
 10
839.94555340
 20
1095.24604398
  0
VERTEX
  8
0
 10
826.83657848
 20
1087.39379897
  0
VERTEX
  8
0
 10
813.72760356
 20
1095.24604398
  0
SEQEND
  0
POLYLINE
  8
�������_450�600-02
 66
   1
 39
0.000000
 70
    1
  0
VERTEX
  8
0
 10
727.48458056
 20
991.92730984
  0
VERTEX
  8
0
 10
740.59355548
 20
999.77955486
  0
VERTEX
  8
0
 10
753.70253040
 20
991.92730984
  0
VERTEX
  8
0
 10
740.59355548
 20
984.07506483
  0
VERTEX
  8
0
 10
727.48458056
 20
991.92730984
  0
SEQEND
  0
POLYLINE
  8
�������_450�600-02
 66
   1
 39
0.000000
 70
    1
  0
VERTEX
  8
0
 10
719.03279973
 20
986.86471309
  0
VERTEX
  8
0
 10
732.14177465
 20
979.01246808
  0
VERTEX
  8
0
 10
719.03279973
 20
971.16022306
  0
VERTEX
  8
0
 10
705.92382481
 20
979.01246808
  0
VERTEX
  8
0
 10
719.03279973
 20
986.86471309
  0
SEQEND
  0
POLYLINE
  8
�������_450�600-02
 66
   1
 39
0.000000
 70
    1
  0
VERTEX
  8
0
 10
792.16684781
 20
1056.50151868
  0
VERTEX
  8
0
 10
805.27582273
 20
1064.35376369
  0
VERTEX
  8
0
 10
818.38479765
 20
1056.50151868
  0
VERTEX
  8
0
 10
805.27582273
 20
1048.64927366
  0
VERTEX
  8
0
 10
792.16684781
 20
1056.50151868
  0
SEQEND
  0
POLYLINE
  8
�������_450�600-02
 66
   1
 39
0.000000
 70
    1
  0
VERTEX
  8
0
 10
830.85185139
 20
1184.71328907
  0
VERTEX
  8
0
 10
848.07371769
 20
1184.71328907
 42
0.33037872
  0
VERTEX
  8
0
 10
840.81137679
 20
1173.95300264
 42
0.33037872
  0
VERTEX
  8
0
 10
849.00103054
 20
1163.88051880
  0
VERTEX
  8
0
 10
829.92453854
 20
1163.88051880
 42
0.33037872
  0
VERTEX
  8
0
 10
838.11419229
 20
1173.95300264
 42
0.33037872
  0
VERTEX
  8
0
 10
830.85185139
 20
1184.71328907
  0
SEQEND
  0
POLYLINE
  8
�������_450�600-02
 66
   1
 39
0.000000
 70
    1
  0
VERTEX
  8
0
 10
813.72760356
 20
1121.07572751
  0
VERTEX
  8
0
 10
826.83657848
 20
1128.92797253
  0
VERTEX
  8
0
 10
839.94555340
 20
1121.07572751
  0
VERTEX
  8
0
 10
826.83657848
 20
1113.22348250
  0
VERTEX
  8
0
 10
813.72760356
 20
1121.07572751
  0
SEQEND
  0
POLYLINE
  8
�������_450�600-02
 66
   1
 39
0.000000
 70
    1
  0
VERTEX
  8
0
 10
770.60609206
 20
1043.58667691
  0
VERTEX
  8
0
 10
783.71506698
 20
1051.43892193
  0
VERTEX
  8
0
 10
796.82404190
 20
1043.58667691
  0
VERTEX
  8
0
 10
783.71506698
 20
1035.73443190
  0
VERTEX
  8
0
 10
770.60609206
 20
1043.58667691
  0
SEQEND
  0
POLYLINE
  8
�������_450�600-02
 66
   1
 39
0.000000
 70
    1
  0
VERTEX
  8
0
 10
654.35053249
 20
973.94987132
  0
VERTEX
  8
0
 10
667.45950741
 20
966.09762631
  0
VERTEX
  8
0
 10
654.35053249
 20
958.24538130
  0
VERTEX
  8
0
 10
648.26707338
 20
961.88935893
  0
VERTEX
  8
0
 10
648.26707338
 20
970.30589368
  0
VERTEX
  8
0
 10
654.35053249
 20
973.94987132
  0
SEQEND
  0
POLYLINE
  8
�������_450�600-02
 66
   1
 39
0.000000
 70
    1
  0
VERTEX
  8
0
 10
792.16684781
 20
1082.33120221
  0
VERTEX
  8
0
 10
805.27582273
 20
1090.18344723
  0
VERTEX
  8
0
 10
818.38479765
 20
1082.33120221
  0
VERTEX
  8
0
 10
805.27582273
 20
1074.47895720
  0
VERTEX
  8
0
 10
792.16684781
 20
1082.33120221
  0
SEQEND
  0
POLYLINE
  8
�������_450�600-02
 66
   1
 39
0.000000
 70
    1
  0
VERTEX
  8
0
 10
749.04533631
 20
1030.67183514
  0
VERTEX
  8
0
 10
762.15431123
 20
1038.52408016
  0
VERTEX
  8
0
 10
775.26328615
 20
1030.67183514
  0
VERTEX
  8
0
 10
762.15431123
 20
1022.81959013
  0
VERTEX
  8
0
 10
749.04533631
 20
1030.67183514
  0
SEQEND
  0
POLYLINE
  8
�������_450�600-02
 66
   1
 39
0.000000
 70
    1
  0
VERTEX
  8
0
 10
618.78833172
 20
972.64976940
 42
0.33037872
  0
VERTEX
  8
0
 10
629.54861815
 20
965.38742850
 42
0.33037872
  0
VERTEX
  8
0
 10
639.62110199
 20
973.57708225
  0
VERTEX
  8
0
 10
639.62110199
 20
954.50059025
 42
0.33037872
  0
VERTEX
  8
0
 10
629.54861815
 20
962.69024400
 42
0.33037872
  0
VERTEX
  8
0
 10
618.78833172
 20
955.42790310
  0
VERTEX
  8
0
 10
618.78833172
 20
972.64976940
  0
SEQEND
  0
POLYLINE
  8
�������_450�600-02
 66
   1
 39
0.000000
 70
    1
  0
VERTEX
  8
0
 10
675.91128824
 20
986.86471309
  0
VERTEX
  8
0
 10
689.02026316
 20
979.01246808
  0
VERTEX
  8
0
 10
675.91128824
 20
971.16022306
  0
VERTEX
  8
0
 10
662.80231332
 20
979.01246808
  0
VERTEX
  8
0
 10
675.91128824
 20
986.86471309
  0
SEQEND
  0
POLYLINE
  8
�������_450�600-02
 66
   1
 39
0.000000
 70
    1
  0
VERTEX
  8
0
 10
727.48458056
 20
1017.75699338
  0
VERTEX
  8
0
 10
740.59355548
 20
1025.60923839
  0
VERTEX
  8
0
 10
753.70253040
 20
1017.75699338
  0
VERTEX
  8
0
 10
740.59355548
 20
1009.90474836
  0
VERTEX
  8
0
 10
727.48458056
 20
1017.75699338
  0
SEQEND
  0
POLYLINE
  8
�������_450�600-02
 66
   1
 39
0.000000
 70
    1
  0
VERTEX
  8
0
 10
697.47204399
 20
999.77955486
  0
VERTEX
  8
0
 10
710.58101891
 20
991.92730984
  0
VERTEX
  8
0
 10
697.47204399
 20
984.07506483
  0
VERTEX
  8
0
 10
684.36306907
 20
991.92730984
  0
VERTEX
  8
0
 10
697.47204399
 20
999.77955486
  0
SEQEND
  0
POLYLINE
  8
�������_450�600-02
 66
   1
 39
0.000000
 70
    1
  0
VERTEX
  8
0
 10
719.03279973
 20
1012.69439662
  0
VERTEX
  8
0
 10
732.14177465
 20
1004.84215161
  0
VERTEX
  8
0
 10
719.03279973
 20
996.98990660
  0
VERTEX
  8
0
 10
705.92382481
 20
1004.84215161
  0
VERTEX
  8
0
 10
719.03279973
 20
1012.69439662
  0
SEQEND
  0
POLYLINE
  8
�������_450�600-02
 66
   1
 39
0.000000
 70
    1
  0
VERTEX
  8
0
 10
792.16684781
 20
1108.16088575
  0
VERTEX
  8
0
 10
805.27582273
 20
1116.01313076
  0
VERTEX
  8
0
 10
818.38479765
 20
1108.16088575
  0
VERTEX
  8
0
 10
805.27582273
 20
1100.30864073
  0
VERTEX
  8
0
 10
792.16684781
 20
1108.16088575
  0
SEQEND
  0
POLYLINE
  8
�������_450�600-02
 66
   1
 39
0.000000
 70
    1
  0
VERTEX
  8
0
 10
770.60609206
 20
1069.41636045
  0
VERTEX
  8
0
 10
783.71506698
 20
1077.26860546
  0
VERTEX
  8
0
 10
796.82404190
 20
1069.41636045
  0
VERTEX
  8
0
 10
783.71506698
 20
1061.56411543
  0
VERTEX
  8
0
 10
770.60609206
 20
1069.41636045
  0
SEQEND
  0
POLYLINE
  8
�������_450�600-02
 66
   1
 39
0.000000
 70
    1
  0
VERTEX
  8
0
 10
806.38503550
 20
1184.71328907
  0
VERTEX
  8
0
 10
823.60690181
 20
1184.71328907
 42
0.33037872
  0
VERTEX
  8
0
 10
816.34456090
 20
1173.95300264
 42
0.33037872
  0
VERTEX
  8
0
 10
824.53421466
 20
1163.88051880
  0
VERTEX
  8
0
 10
805.45772265
 20
1163.88051880
 42
0.33037872
  0
VERTEX
  8
0
 10
813.64737641
 20
1173.95300264
 42
0.33037872
  0
VERTEX
  8
0
 10
806.38503550
 20
1184.71328907
  0
SEQEND
  0
POLYLINE
  8
�������_450�600-02
 66
   1
 39
0.000000
 70
    1
  0
VERTEX
  8
0
 10
799.82247966
 20
1155.23454742
  0
VERTEX
  8
0
 10
810.72916580
 20
1155.23454742
  0
VERTEX
  8
0
 10
805.27582273
 20
1151.96800780
  0
VERTEX
  8
0
 10
799.82247966
 20
1155.23454742
  0
SEQEND
  0
POLYLINE
  8
�������_450�600-02
 66
   1
 39
0.000000
 70
    1
  0
VERTEX
  8
0
 10
749.04533631
 20
1056.50151868
  0
VERTEX
  8
0
 10
762.15431123
 20
1064.35376369
  0
VERTEX
  8
0
 10
775.26328615
 20
1056.50151868
  0
VERTEX
  8
0
 10
762.15431123
 20
1048.64927366
  0
VERTEX
  8
0
 10
749.04533631
 20
1056.50151868
  0
SEQEND
  0
POLYLINE
  8
�������_450�600-02
 66
   1
 39
0.000000
 70
    1
  0
VERTEX
  8
0
 10
654.35053249
 20
999.77955486
  0
VERTEX
  8
0
 10
667.45950741
 20
991.92730984
  0
VERTEX
  8
0
 10
654.35053249
 20
984.07506483
  0
VERTEX
  8
0
 10
648.26707338
 20
987.71904247
  0
VERTEX
  8
0
 10
648.26707338
 20
996.13557722
  0
VERTEX
  8
0
 10
654.35053249
 20
999.77955486
  0
SEQEND
  0
POLYLINE
  8
�������_450�600-02
 66
   1
 39
0.000000
 70
    1
  0
VERTEX
  8
0
 10
770.60609206
 20
1095.24604398
  0
VERTEX
  8
0
 10
783.71506698
 20
1103.09828899
  0
VERTEX
  8
0
 10
796.82404190
 20
1095.24604398
  0
VERTEX
  8
0
 10
783.71506698
 20
1087.39379897
  0
VERTEX
  8
0
 10
770.60609206
 20
1095.24604398
  0
SEQEND
  0
POLYLINE
  8
�������_450�600-02
 66
   1
 39
0.000000
 70
    1
  0
VERTEX
  8
0
 10
727.48458056
 20
1043.58667691
  0
VERTEX
  8
0
 10
740.59355548
 20
1051.43892193
  0
VERTEX
  8
0
 10
753.70253040
 20
1043.58667691
  0
VERTEX
  8
0
 10
740.59355548
 20
1035.73443190
  0
VERTEX
  8
0
 10
727.48458056
 20
1043.58667691
  0
SEQEND
  0
POLYLINE
  8
�������_450�600-02
 66
   1
 39
0.000000
 70
    1
  0
VERTEX
  8
0
 10
618.78833172
 20
997.11658529
 42
0.33037872
  0
VERTEX
  8
0
 10
629.54861815
 20
989.85424439
 42
0.33037872
  0
VERTEX
  8
0
 10
639.62110199
 20
998.04389814
  0
VERTEX
  8
0
 10
639.62110199
 20
978.96740614
 42
0.33037872
  0
VERTEX
  8
0
 10
629.54861815
 20
987.15705989
 42
0.33037872
  0
VERTEX
  8
0
 10
618.78833172
 20
979.89471899
  0
VERTEX
  8
0
 10
618.78833172
 20
997.11658529
  0
SEQEND
  0
POLYLINE
  8
�������_450�600-02
 66
   1
 39
0.000000
 70
    1
  0
VERTEX
  8
0
 10
675.91128824
 20
1012.69439662
  0
VERTEX
  8
0
 10
689.02026316
 20
1004.84215161
  0
VERTEX
  8
0
 10
675.91128824
 20
996.98990660
  0
VERTEX
  8
0
 10
662.80231332
 20
1004.84215161
  0
VERTEX
  8
0
 10
675.91128824
 20
1012.69439662
  0
SEQEND
  0
POLYLINE
  8
�������_450�600-02
 66
   1
 39
0.000000
 70
    1
  0
VERTEX
  8
0
 10
705.92382481
 20
1030.67183514
  0
VERTEX
  8
0
 10
719.03279973
 20
1038.52408016
  0
VERTEX
  8
0
 10
732.14177465
 20
1030.67183514
  0
VERTEX
  8
0
 10
719.03279973
 20
1022.81959013
  0
VERTEX
  8
0
 10
705.92382481
 20
1030.67183514
  0
SEQEND
  0
POLYLINE
  8
�������_450�600-02
 66
   1
 39
0.000000
 70
    1
  0
VERTEX
  8
0
 10
697.47204399
 20
1025.60923839
  0
VERTEX
  8
0
 10
710.58101891
 20
1017.75699338
  0
VERTEX
  8
0
 10
697.47204399
 20
1009.90474836
  0
VERTEX
  8
0
 10
684.36306907
 20
1017.75699338
  0
VERTEX
  8
0
 10
697.47204399
 20
1025.60923839
  0
SEQEND
  0
POLYLINE
  8
�������_450�600-02
 66
   1
 39
0.000000
 70
    1
  0
VERTEX
  8
0
 10
781.91821962
 20
1184.71328907
  0
VERTEX
  8
0
 10
799.14008592
 20
1184.71328907
 42
0.33037872
  0
VERTEX
  8
0
 10
791.87774502
 20
1173.95300264
 42
0.33037872
  0
VERTEX
  8
0
 10
800.06739877
 20
1163.88051880
  0
VERTEX
  8
0
 10
780.99090677
 20
1163.88051880
 42
0.33037872
  0
VERTEX
  8
0
 10
789.18056052
 20
1173.95300264
 42
0.33037872
  0
VERTEX
  8
0
 10
781.91821962
 20
1184.71328907
  0
SEQEND
  0
POLYLINE
  8
�������_450�600-02
 66
   1
 39
0.000000
 70
    1
  0
VERTEX
  8
0
 10
749.04533631
 20
1082.33120221
  0
VERTEX
  8
0
 10
762.15431123
 20
1090.18344723
  0
VERTEX
  8
0
 10
775.26328615
 20
1082.33120221
  0
VERTEX
  8
0
 10
762.15431123
 20
1074.47895720
  0
VERTEX
  8
0
 10
749.04533631
 20
1082.33120221
  0
SEQEND
  0
POLYLINE
  8
�������_450�600-02
 66
   1
 39
0.000000
 70
    1
  0
VERTEX
  8
0
 10
770.60609206
 20
1146.90541105
  0
VERTEX
  8
0
 10
783.71506698
 20
1154.75765606
  0
VERTEX
  8
0
 10
796.82404190
 20
1146.90541105
  0
VERTEX
  8
0
 10
783.71506698
 20
1139.05316603
  0
VERTEX
  8
0
 10
770.60609206
 20
1146.90541105
  0
SEQEND
  0
POLYLINE
  8
�������_450�600-02
 66
   1
 39
0.000000
 70
    1
  0
VERTEX
  8
0
 10
727.48458056
 20
1069.41636045
  0
VERTEX
  8
0
 10
740.59355548
 20
1077.26860546
  0
VERTEX
  8
0
 10
753.70253040
 20
1069.41636045
  0
VERTEX
  8
0
 10
740.59355548
 20
1061.56411543
  0
VERTEX
  8
0
 10
727.48458056
 20
1069.41636045
  0
SEQEND
  0
POLYLINE
  8
�������_450�600-02
 66
   1
 39
0.000000
 70
    1
  0
VERTEX
  8
0
 10
654.35053249
 20
1025.60923839
  0
VERTEX
  8
0
 10
667.45950741
 20
1017.75699338
  0
VERTEX
  8
0
 10
654.35053249
 20
1009.90474836
  0
VERTEX
  8
0
 10
648.26707338
 20
1013.54872600
  0
VERTEX
  8
0
 10
648.26707338
 20
1021.96526075
  0
VERTEX
  8
0
 10
654.35053249
 20
1025.60923839
  0
SEQEND
  0
POLYLINE
  8
�������_450�600-02
 66
   1
 39
0.000000
 70
    1
  0
VERTEX
  8
0
 10
705.92382481
 20
1056.50151868
  0
VERTEX
  8
0
 10
719.03279973
 20
1064.35376369
  0
VERTEX
  8
0
 10
732.14177465
 20
1056.50151868
  0
VERTEX
  8
0
 10
719.03279973
 20
1048.64927366
  0
VERTEX
  8
0
 10
705.92382481
 20
1056.50151868
  0
SEQEND
  0
POLYLINE
  8
�������_450�600-02
 66
   1
 39
0.000000
 70
    1
  0
VERTEX
  8
0
 10
675.91128824
 20
1038.52408016
  0
VERTEX
  8
0
 10
689.02026316
 20
1030.67183514
  0
VERTEX
  8
0
 10
675.91128824
 20
1022.81959013
  0
VERTEX
  8
0
 10
662.80231332
 20
1030.67183514
  0
VERTEX
  8
0
 10
675.91128824
 20
1038.52408016
  0
SEQEND
  0
POLYLINE
  8
�������_450�600-02
 66
   1
 39
0.000000
 70
    1
  0
VERTEX
  8
0
 10
684.36306907
 20
1043.58667691
  0
VERTEX
  8
0
 10
697.47204399
 20
1051.43892193
  0
VERTEX
  8
0
 10
710.58101891
 20
1043.58667691
  0
VERTEX
  8
0
 10
697.47204399
 20
1035.73443190
  0
VERTEX
  8
0
 10
684.36306907
 20
1043.58667691
  0
SEQEND
  0
POLYLINE
  8
�������_450�600-02
 66
   1
 39
0.000000
 70
    1
  0
VERTEX
  8
0
 10
618.78833172
 20
1021.58340118
 42
0.33037872
  0
VERTEX
  8
0
 10
629.54861815
 20
1014.32106027
 42
0.33037872
  0
VERTEX
  8
0
 10
639.62110199
 20
1022.51071402
  0
VERTEX
  8
0
 10
639.62110199
 20
1003.43422202
 42
0.33037872
  0
VERTEX
  8
0
 10
629.54861815
 20
1011.62387577
 42
0.33037872
  0
VERTEX
  8
0
 10
618.78833172
 20
1004.36153487
  0
VERTEX
  8
0
 10
618.78833172
 20
1021.58340118
  0
SEQEND
  0
POLYLINE
  8
�������_450�600-02
 66
   1
 39
0.000000
 70
    1
  0
VERTEX
  8
0
 10
756.70096817
 20
1155.23454742
  0
VERTEX
  8
0
 10
767.60765430
 20
1155.23454742
  0
VERTEX
  8
0
 10
762.15431123
 20
1151.96800780
  0
VERTEX
  8
0
 10
756.70096817
 20
1155.23454742
  0
SEQEND
  0
POLYLINE
  8
�������_450�600-02
 66
   1
 39
0.000000
 70
    1
  0
VERTEX
  8
0
 10
749.04533631
 20
1133.99056928
  0
VERTEX
  8
0
 10
762.15431123
 20
1141.84281429
  0
VERTEX
  8
0
 10
775.26328615
 20
1133.99056928
  0
VERTEX
  8
0
 10
762.15431123
 20
1126.13832427
  0
VERTEX
  8
0
 10
749.04533631
 20
1133.99056928
  0
SEQEND
  0
POLYLINE
  8
�������_450�600-02
 66
   1
 39
0.000000
 70
    1
  0
VERTEX
  8
0
 10
754.13530512
 20
1184.71328907
  0
VERTEX
  8
0
 10
774.67327004
 20
1184.71328907
 42
0.33037872
  0
VERTEX
  8
0
 10
767.41092913
 20
1173.95300264
 42
0.33037872
  0
VERTEX
  8
0
 10
775.60058289
 20
1163.88051880
  0
VERTEX
  8
0
 10
753.20799227
 20
1163.88051880
 42
0.33037872
  0
VERTEX
  8
0
 10
761.39764602
 20
1173.95300264
 42
0.33037872
  0
VERTEX
  8
0
 10
754.13530512
 20
1184.71328907
  0
SEQEND
  0
POLYLINE
  8
�������_450�600-02
 66
   1
 39
0.000000
 70
    1
  0
VERTEX
  8
0
 10
747.63458360
 20
1150.54009685
  0
VERTEX
  8
0
 10
753.70253040
 20
1146.90541105
  0
VERTEX
  8
0
 10
745.41581743
 20
1141.94168955
 42
0.01786155
  0
VERTEX
  8
0
 10
747.63458360
 20
1150.54009685
  0
SEQEND
  0
POLYLINE
  8
�������_450�600-02
 66
   1
 39
0.000000
 70
    1
  0
VERTEX
  8
0
 10
734.78593377
 20
1116.70223419
 42
0.02720865
  0
VERTEX
  8
0
 10
740.72286913
 20
1128.85051396
  0
VERTEX
  8
0
 10
753.70253040
 20
1121.07572751
  0
VERTEX
  8
0
 10
740.59355548
 20
1113.22348250
  0
VERTEX
  8
0
 10
734.78593377
 20
1116.70223419
  0
SEQEND
  0
POLYLINE
  8
�������_450�600-02
 66
   1
 39
0.000000
 70
    1
  0
VERTEX
  8
0
 10
618.78833172
 20
1049.36631568
 42
0.33037872
  0
VERTEX
  8
0
 10
629.54861815
 20
1042.10397477
 42
0.33037872
  0
VERTEX
  8
0
 10
639.62110199
 20
1050.29362853
  0
VERTEX
  8
0
 10
639.62110199
 20
1027.90103791
 42
0.33037872
  0
VERTEX
  8
0
 10
629.54861815
 20
1036.09069166
 42
0.33037872
  0
VERTEX
  8
0
 10
618.78833172
 20
1028.82835076
  0
VERTEX
  8
0
 10
618.78833172
 20
1049.36631568
  0
SEQEND
  0
POLYLINE
  8
�������_450�600-02
 66
   1
 39
0.000000
 70
    1
  0
VERTEX
  8
0
 10
690.73049032
 20
1117.72301682
 42
0.29648400
  0
VERTEX
  8
0
 10
728.59896704
 20
1124.68275346
 42
-0.07233396
  0
VERTEX
  8
0
 10
709.37475067
 20
1097.69950997
 42
-0.25305717
  0
VERTEX
  8
0
 10
707.67077010
 20
1100.38916332
 42
-0.25305717
  0
VERTEX
  8
0
 10
708.98853803
 20
1103.28765821
 42
-0.32881298
  0
VERTEX
  8
0
 10
704.26938836
 20
1105.14075619
 42
0.29087547
  0
VERTEX
  8
0
 10
711.94565453
 20
1111.90067525
 42
-0.20213356
  0
VERTEX
  8
0
 10
700.11104804
 20
1110.34087445
 42
-0.20213356
  0
VERTEX
  8
0
 10
690.73049032
 20
1117.72301682
  0
SEQEND
  0
POLYLINE
  8
�������_450�600-02
 66
   1
 39
0.000000
 70
    1
  0
VERTEX
  8
0
 10
685.77860397
 20
1112.77113048
 42
-0.20213356
  0
VERTEX
  8
0
 10
693.16074635
 20
1103.39057275
 42
-0.20213356
  0
VERTEX
  8
0
 10
691.60094554
 20
1091.55596626
 42
0.29087547
  0
VERTEX
  8
0
 10
698.36086460
 20
1099.23223243
 42
-0.32881298
  0
VERTEX
  8
0
 10
700.21396258
 20
1094.51308276
 42
-0.25305717
  0
VERTEX
  8
0
 10
703.11245747
 20
1095.83085070
 42
-0.25305717
  0
VERTEX
  8
0
 10
705.80211083
 20
1094.12687012
 42
-0.07233396
  0
VERTEX
  8
0
 10
678.81886734
 20
1074.90265375
 42
0.29648400
  0
VERTEX
  8
0
 10
685.77860397
 20
1112.77113048
  0
SEQEND
  0
POLYLINE
  8
�������_450�600-02
 66
   1
 39
0.000000
 70
    1
  0
VERTEX
  8
0
 10
667.47238323
 20
1143.03627856
 42
-0.19328285
  0
VERTEX
  8
0
 10
672.96569469
 20
1146.82460028
 42
0.15525589
  0
VERTEX
  8
0
 10
673.99954917
 20
1137.28634892
 42
-0.12824269
  0
VERTEX
  8
0
 10
667.47238323
 20
1143.03627856
  0
SEQEND
  0
POLYLINE
  8
�������_450�600-02
 66
   1
 39
0.000000
 70
    1
  0
VERTEX
  8
0
 10
660.46534223
 20
1136.02923756
 42
-0.12824269
  0
VERTEX
  8
0
 10
666.21527187
 20
1129.50207163
 42
0.15525589
  0
VERTEX
  8
0
 10
656.67702051
 20
1130.53592610
 42
-0.19328285
  0
VERTEX
  8
0
 10
660.46534223
 20
1136.02923756
  0
SEQEND
  0
POLYLINE
  8
�������_450�600-02
 66
   1
 39
0.000000
 70
    1
  0
VERTEX
  8
0
 10
665.41233322
 20
1184.71328907
  0
VERTEX
  8
0
 10
676.52027994
 20
1184.71328907
 42
0.17682654
  0
VERTEX
  8
0
 10
670.72575284
 20
1177.17219330
 42
0.13870819
  0
VERTEX
  8
0
 10
665.41233322
 20
1184.71328907
  0
SEQEND
  0
POLYLINE
  8
�������_450�600-02
 66
   1
 39
0.000000
 70
    1
  0
VERTEX
  8
0
 10
626.32942749
 20
1132.77586796
 42
0.17682654
  0
VERTEX
  8
0
 10
618.78833172
 20
1126.98134085
  0
VERTEX
  8
0
 10
618.78833172
 20
1138.08928757
 42
0.13870819
  0
VERTEX
  8
0
 10
626.32942749
 20
1132.77586796
  0
SEQEND
  0
POLYLINE
  8
�������_450�600-02
 66
   1
 39
0.000000
 70
    1
  0
VERTEX
  8
0
 10
622.14231520
 20
1184.71328907
  0
VERTEX
  8
0
 10
661.46775008
 20
1184.71328907
 42
0.22624503
  0
VERTEX
  8
0
 10
648.85010160
 20
1173.94985049
 42
0.22624503
  0
VERTEX
  8
0
 10
649.27231055
 20
1157.37039324
 42
-0.36198916
  0
VERTEX
  8
0
 10
645.74740268
 20
1177.39614740
 42
0.34716285
  0
VERTEX
  8
0
 10
641.83304991
 20
1174.72298666
 42
0.08328021
  0
VERTEX
  8
0
 10
640.90514371
 20
1168.00050811
 42
-0.27544460
  0
VERTEX
  8
0
 10
638.13413473
 20
1170.07905250
 42
-0.27544460
  0
VERTEX
  8
0
 10
638.64454794
 20
1173.50517508
 42
0.21732137
  0
VERTEX
  8
0
 10
638.23442310
 20
1178.94172484
 42
0.21732137
  0
VERTEX
  8
0
 10
633.85985275
 20
1182.19555487
 42
-0.31678376
  0
VERTEX
  8
0
 10
632.63946270
 20
1177.05903707
 42
0.26767486
  0
VERTEX
  8
0
 10
621.84247669
 20
1182.64432105
 42
0.14329956
  0
VERTEX
  8
0
 10
622.14231520
 20
1184.71328907
  0
SEQEND
  0
POLYLINE
  8
�������_450�600-02
 66
   1
 39
0.000000
 70
    1
  0
VERTEX
  8
0
 10
618.78833172
 20
1181.35930559
  0
VERTEX
  8
0
 10
618.78833172
 20
1142.03387072
 42
-0.22624503
  0
VERTEX
  8
0
 10
629.55177030
 20
1154.65151920
 42
-0.22624503
  0
VERTEX
  8
0
 10
646.13122755
 20
1154.22931024
 42
0.36198916
  0
VERTEX
  8
0
 10
626.10547339
 20
1157.75421811
 42
-0.34716285
  0
VERTEX
  8
0
 10
628.77863413
 20
1161.66857088
 42
-0.08328021
  0
VERTEX
  8
0
 10
635.50111268
 20
1162.59647708
 42
0.27544460
  0
VERTEX
  8
0
 10
633.42256829
 20
1165.36748606
 42
0.27544460
  0
VERTEX
  8
0
 10
629.99644571
 20
1164.85707285
 42
-0.21732137
  0
VERTEX
  8
0
 10
624.55989595
 20
1165.26719769
 42
-0.21732137
  0
VERTEX
  8
0
 10
621.30606592
 20
1169.64176804
 42
0.31678376
  0
VERTEX
  8
0
 10
626.44258372
 20
1170.86215809
 42
-0.26767486
  0
VERTEX
  8
0
 10
620.85729974
 20
1181.65914411
 42
-0.14329956
  0
VERTEX
  8
0
 10
618.78833172
 20
1181.35930559
  0
SEQEND
  0
POLYLINE
  8
�������_450�600-02
 66
   1
 39
0.000000
 70
    1
  0
VERTEX
  8
0
 10
655.66649408
 20
1170.81733089
 42
0.21073624
  0
VERTEX
  8
0
 10
657.83805709
 20
1164.50917046
 42
0.21073624
  0
VERTEX
  8
0
 10
663.96067428
 20
1161.85923976
 42
0.21073624
  0
VERTEX
  8
0
 10
670.04599181
 20
1164.59373869
 42
0.21073624
  0
VERTEX
  8
0
 10
672.12995336
 20
1170.93137849
 42
0.39517003
  0
VERTEX
  8
0
 10
686.24125535
 20
1162.37701993
 42
0.07646936
  0
VERTEX
  8
0
 10
662.99134148
 20
1146.53672442
 42
-0.34125594
  0
VERTEX
  8
0
 10
655.66649408
 20
1170.81733089
  0
SEQEND
  0
POLYLINE
  8
�������_450�600-02
 66
   1
 39
0.000000
 70
    1
  0
VERTEX
  8
0
 10
688.52401822
 20
1171.00491867
 42
-0.22232542
  0
VERTEX
  8
0
 10
682.53903250
 20
1171.46085325
 42
-0.22232542
  0
VERTEX
  8
0
 10
679.05296285
 20
1176.34708378
 42
-0.22232542
  0
VERTEX
  8
0
 10
680.56919913
 20
1182.15474750
 42
-0.22232542
  0
VERTEX
  8
0
 10
685.99891325
 20
1184.71328907
  0
VERTEX
  8
0
 10
729.15317200
 20
1184.71328907
 42
0.20267518
  0
VERTEX
  8
0
 10
723.72777563
 20
1180.55932511
 42
0.20267518
  0
VERTEX
  8
0
 10
722.92682805
 20
1173.77339664
 42
0.14594477
  0
VERTEX
  8
0
 10
702.44664378
 20
1173.77339664
 42
-0.08603553
  0
VERTEX
  8
0
 10
685.40932533
 20
1173.77339664
 42
0.40782819
  0
VERTEX
  8
0
 10
688.52401822
 20
1171.00491867
  0
SEQEND
  0
POLYLINE
  8
�������_450�600-02
 66
   1
 39
0.000000
 70
    1
  0
VERTEX
  8
0
 10
737.44143359
 20
1147.65035812
 42
0.11182707
  0
VERTEX
  8
0
 10
739.92708415
 20
1173.46105749
 42
-0.33213735
  0
VERTEX
  8
0
 10
731.45674133
 20
1164.99071467
 42
-0.16570497
  0
VERTEX
  8
0
 10
737.44143359
 20
1147.65035812
  0
SEQEND
  0
POLYLINE
  8
�������_450�600-02
 66
   1
 39
0.000000
 70
    1
  0
VERTEX
  8
0
 10
684.96298763
 20
1140.36642204
 42
0.22374398
  0
VERTEX
  8
0
 10
680.89074798
 20
1133.83429946
 42
0.24166522
  0
VERTEX
  8
0
 10
700.50179004
 20
1134.53824811
 42
-0.20200621
  0
VERTEX
  8
0
 10
690.47672257
 20
1143.54910135
 42
-0.20200621
  0
VERTEX
  8
0
 10
689.91975437
 20
1157.01710938
 42
0.18771935
  0
VERTEX
  8
0
 10
677.18320515
 20
1148.53238248
 42
0.35745459
  0
VERTEX
  8
0
 10
677.72653334
 20
1141.26110215
 42
0.35745459
  0
VERTEX
  8
0
 10
684.96298763
 20
1140.36642204
  0
SEQEND
  0
POLYLINE
  8
�������_450�600-02
 66
   1
 39
0.000000
 70
    1
  0
VERTEX
  8
0
 10
691.29265449
 20
1124.35099485
 42
0.32347647
  0
VERTEX
  8
0
 10
719.38251143
 20
1127.39963347
 42
0.32347647
  0
VERTEX
  8
0
 10
725.30772424
 20
1155.02618072
 42
0.21902465
  0
VERTEX
  8
0
 10
714.60895599
 20
1164.50717100
 42
0.21902465
  0
VERTEX
  8
0
 10
700.44838983
 20
1162.54982975
 42
0.30847701
  0
VERTEX
  8
0
 10
696.39973840
 20
1152.45578297
 42
0.30847701
  0
VERTEX
  8
0
 10
704.31736950
 20
1144.99974672
 42
0.27012075
  0
VERTEX
  8
0
 10
709.34287464
 20
1147.06141368
 42
0.27012075
  0
VERTEX
  8
0
 10
710.02654545
 20
1152.45017670
 42
-0.17194611
  0
VERTEX
  8
0
 10
712.52701157
 20
1148.34332122
 42
0.23279235
  0
VERTEX
  8
0
 10
714.02056348
 20
1155.98017518
 42
-0.34306365
  0
VERTEX
  8
0
 10
717.78276994
 20
1140.99834338
 42
-0.34306365
  0
VERTEX
  8
0
 10
704.18915695
 20
1133.66191597
 42
-0.25645171
  0
VERTEX
  8
0
 10
691.29265449
 20
1124.35099485
  0
SEQEND
  0
POLYLINE
  8
�������_450�600-02
 66
   1
 39
0.000000
 70
    1
  0
VERTEX
  8
0
 10
679.15062594
 20
1112.20896630
 42
-0.32347647
  0
VERTEX
  8
0
 10
676.10198732
 20
1084.11910937
 42
-0.32347647
  0
VERTEX
  8
0
 10
648.47544007
 20
1078.19389655
 42
-0.21902465
  0
VERTEX
  8
0
 10
638.99444979
 20
1088.89266480
 42
-0.21902465
  0
VERTEX
  8
0
 10
640.95179105
 20
1103.05323097
 42
-0.30847701
  0
VERTEX
  8
0
 10
651.04583782
 20
1107.10188240
 42
-0.30847701
  0
VERTEX
  8
0
 10
658.50187407
 20
1099.18425129
 42
-0.27012075
  0
VERTEX
  8
0
 10
656.44020711
 20
1094.15874615
 42
-0.27012075
  0
VERTEX
  8
0
 10
651.05144410
 20
1093.47507534
 42
0.17194611
  0
VERTEX
  8
0
 10
655.15829958
 20
1090.97460922
 42
-0.23279235
  0
VERTEX
  8
0
 10
647.52144562
 20
1089.48105731
 42
0.34306365
  0
VERTEX
  8
0
 10
662.50327741
 20
1085.71885086
 42
0.34306365
  0
VERTEX
  8
0
 10
669.83970482
 20
1099.31246384
 42
0.25645171
  0
VERTEX
  8
0
 10
679.15062594
 20
1112.20896630
  0
SEQEND
  0
POLYLINE
  8
�������_450�600-02
 66
   1
 39
0.000000
 70
    1
  0
VERTEX
  8
0
 10
663.13519876
 20
1118.53863317
 42
-0.22374398
  0
VERTEX
  8
0
 10
669.66732133
 20
1122.61087282
 42
-0.24166522
  0
VERTEX
  8
0
 10
668.96337268
 20
1102.99983075
 42
0.20200621
  0
VERTEX
  8
0
 10
659.95251945
 20
1113.02489822
 42
0.20200621
  0
VERTEX
  8
0
 10
646.48451141
 20
1113.58186642
 42
-0.18771935
  0
VERTEX
  8
0
 10
654.96923831
 20
1126.31841564
 42
-0.35745459
  0
VERTEX
  8
0
 10
662.24051864
 20
1125.77508745
 42
-0.35745459
  0
VERTEX
  8
0
 10
663.13519876
 20
1118.53863317
  0
SEQEND
  0
POLYLINE
  8
�������_450�600-02
 66
   1
 39
0.000000
 70
    1
  0
VERTEX
  8
0
 10
632.68428990
 20
1147.83512671
 42
-0.21073624
  0
VERTEX
  8
0
 10
638.99245033
 20
1145.66356370
 42
-0.21073624
  0
VERTEX
  8
0
 10
641.64238104
 20
1139.54094652
 42
-0.21073624
  0
VERTEX
  8
0
 10
638.90788210
 20
1133.45562898
 42
-0.21073624
  0
VERTEX
  8
0
 10
632.57024230
 20
1131.37166744
 42
-0.39517003
  0
VERTEX
  8
0
 10
641.12460086
 20
1117.26036545
 42
-0.07646936
  0
VERTEX
  8
0
 10
656.96489637
 20
1140.51027931
 42
0.34125594
  0
VERTEX
  8
0
 10
632.68428990
 20
1147.83512671
  0
SEQEND
  0
POLYLINE
  8
�������_450�600-02
 66
   1
 39
0.000000
 70
    1
  0
VERTEX
  8
0
 10
655.85126267
 20
1066.06018721
 42
-0.11182707
  0
VERTEX
  8
0
 10
630.04056331
 20
1063.57453664
 42
0.33213735
  0
VERTEX
  8
0
 10
638.51090613
 20
1072.04487946
 42
0.16570497
  0
VERTEX
  8
0
 10
655.85126267
 20
1066.06018721
  0
SEQEND
  0
POLYLINE
  8
�������_450�600-02
 66
   1
 39
0.000000
 70
    1
  0
VERTEX
  8
0
 10
632.49670212
 20
1114.97760257
 42
0.22232542
  0
VERTEX
  8
0
 10
632.04076754
 20
1120.96258829
 42
0.22232542
  0
VERTEX
  8
0
 10
627.15453701
 20
1124.44865794
 42
0.22232542
  0
VERTEX
  8
0
 10
621.34687329
 20
1122.93242167
 42
0.22232542
  0
VERTEX
  8
0
 10
618.78833172
 20
1117.50270755
  0
VERTEX
  8
0
 10
618.78833172
 20
1074.34844879
 42
-0.20267518
  0
VERTEX
  8
0
 10
622.94229568
 20
1079.77384516
 42
-0.20267518
  0
VERTEX
  8
0
 10
629.72822415
 20
1080.57479274
 42
-0.14594477
  0
VERTEX
  8
0
 10
629.72822415
 20
1101.05497701
 42
0.08603553
  0
VERTEX
  8
0
 10
629.72822415
 20
1118.09229547
 42
-0.40782819
  0
VERTEX
  8
0
 10
632.49670212
 20
1114.97760257
  0
SEQEND
  0
POLYLINE
  8
�������_450�600-02
 66
   1
 39
0.000000
 70
    1
  0
VERTEX
  8
0
 10
1307.35259445
 20
1124.35099485
 42
-0.32347647
  0
VERTEX
  8
0
 10
1279.26273751
 20
1127.39963347
 42
-0.32347647
  0
VERTEX
  8
0
 10
1273.33752470
 20
1155.02618072
 42
-0.21902465
  0
VERTEX
  8
0
 10
1284.03629295
 20
1164.50717100
 42
-0.21902465
  0
VERTEX
  8
0
 10
1298.19685912
 20
1162.54982975
 42
-0.30847701
  0
VERTEX
  8
0
 10
1302.24551055
 20
1152.45578297
 42
-0.30847701
  0
VERTEX
  8
0
 10
1294.32787944
 20
1144.99974672
 42
-0.27012075
  0
VERTEX
  8
0
 10
1289.30237430
 20
1147.06141368
 42
-0.27012075
  0
VERTEX
  8
0
 10
1288.61870349
 20
1152.45017670
 42
0.17194611
  0
VERTEX
  8
0
 10
1286.11823737
 20
1148.34332122
 42
-0.23279235
  0
VERTEX
  8
0
 10
1284.62468546
 20
1155.98017518
 42
0.34306365
  0
VERTEX
  8
0
 10
1280.86247901
 20
1140.99834338
 42
0.34306365
  0
VERTEX
  8
0
 10
1294.45609199
 20
1133.66191597
 42
0.25645171
  0
VERTEX
  8
0
 10
1307.35259445
 20
1124.35099485
  0
SEQEND
  0
POLYLINE
  8
�������_450�600-02
 66
   1
 39
0.000000
 70
    1
  0
VERTEX
  8
0
 10
1261.20381536
 20
1147.65035812
 42
-0.11182707
  0
VERTEX
  8
0
 10
1258.71816479
 20
1173.46105749
 42
0.33213735
  0
VERTEX
  8
0
 10
1267.18850761
 20
1164.99071467
 42
0.16570497
  0
VERTEX
  8
0
 10
1261.20381536
 20
1147.65035812
  0
SEQEND
  0
POLYLINE
  8
�������_450�600-02
 66
   1
 39
0.000000
 70
    1
  0
VERTEX
  8
0
 10
1342.97875486
 20
1170.81733089
 42
-0.21073624
  0
VERTEX
  8
0
 10
1340.80719185
 20
1164.50917046
 42
-0.21073624
  0
VERTEX
  8
0
 10
1334.68457467
 20
1161.85923976
 42
-0.21073624
  0
VERTEX
  8
0
 10
1328.59925713
 20
1164.59373869
 42
-0.21073624
  0
VERTEX
  8
0
 10
1326.51529559
 20
1170.93137849
 42
-0.39517003
  0
VERTEX
  8
0
 10
1312.40399360
 20
1162.37701993
 42
-0.07646936
  0
VERTEX
  8
0
 10
1335.65390746
 20
1146.53672442
 42
0.34125594
  0
VERTEX
  8
0
 10
1342.97875486
 20
1170.81733089
  0
SEQEND
  0
POLYLINE
  8
�������_450�600-02
 66
   1
 39
0.000000
 70
    1
  0
VERTEX
  8
0
 10
1379.85691722
 20
1181.35930559
  0
VERTEX
  8
0
 10
1379.85691722
 20
1142.03387072
 42
0.22624503
  0
VERTEX
  8
0
 10
1369.09347864
 20
1154.65151920
 42
0.22624503
  0
VERTEX
  8
0
 10
1352.51402139
 20
1154.22931024
 42
-0.36198916
  0
VERTEX
  8
0
 10
1372.53977555
 20
1157.75421811
 42
0.34716285
  0
VERTEX
  8
0
 10
1369.86661481
 20
1161.66857088
 42
0.08328021
  0
VERTEX
  8
0
 10
1363.14413626
 20
1162.59647708
 42
-0.27544460
  0
VERTEX
  8
0
 10
1365.22268065
 20
1165.36748606
 42
-0.27544460
  0
VERTEX
  8
0
 10
1368.64880323
 20
1164.85707285
 42
0.21732137
  0
VERTEX
  8
0
 10
1374.08535299
 20
1165.26719769
 42
0.21732137
  0
VERTEX
  8
0
 10
1377.33918302
 20
1169.64176804
 42
-0.31678376
  0
VERTEX
  8
0
 10
1372.20266522
 20
1170.86215809
 42
0.26767486
  0
VERTEX
  8
0
 10
1377.78794920
 20
1181.65914411
 42
0.14329956
  0
VERTEX
  8
0
 10
1379.85691722
 20
1181.35930559
  0
SEQEND
  0
POLYLINE
  8
�������_450�600-02
 66
   1
 39
0.000000
 70
    1
  0
VERTEX
  8
0
 10
1376.50293374
 20
1184.71328907
  0
VERTEX
  8
0
 10
1337.17749887
 20
1184.71328907
 42
-0.22624503
  0
VERTEX
  8
0
 10
1349.79514734
 20
1173.94985049
 42
-0.22624503
  0
VERTEX
  8
0
 10
1349.37293839
 20
1157.37039324
 42
0.36198916
  0
VERTEX
  8
0
 10
1352.89784626
 20
1177.39614740
 42
-0.34716285
  0
VERTEX
  8
0
 10
1356.81219903
 20
1174.72298666
 42
-0.08328021
  0
VERTEX
  8
0
 10
1357.74010523
 20
1168.00050811
 42
0.27544460
  0
VERTEX
  8
0
 10
1360.51111421
 20
1170.07905250
 42
0.27544460
  0
VERTEX
  8
0
 10
1360.00070100
 20
1173.50517508
 42
-0.21732137
  0
VERTEX
  8
0
 10
1360.41082584
 20
1178.94172484
 42
-0.21732137
  0
VERTEX
  8
0
 10
1364.78539619
 20
1182.19555487
 42
0.31678376
  0
VERTEX
  8
0
 10
1366.00578624
 20
1177.05903707
 42
-0.26767486
  0
VERTEX
  8
0
 10
1376.80277226
 20
1182.64432105
 42
-0.14329956
  0
VERTEX
  8
0
 10
1376.50293374
 20
1184.71328907
  0
SEQEND
  0
POLYLINE
  8
�������_450�600-02
 66
   1
 39
0.000000
 70
    1
  0
VERTEX
  8
0
 10
1331.17286571
 20
1143.03627856
 42
0.19328285
  0
VERTEX
  8
0
 10
1325.67955425
 20
1146.82460028
 42
-0.15525589
  0
VERTEX
  8
0
 10
1324.64569978
 20
1137.28634892
 42
0.12824269
  0
VERTEX
  8
0
 10
1331.17286571
 20
1143.03627856
  0
SEQEND
  0
POLYLINE
  8
�������_450�600-02
 66
   1
 39
0.000000
 70
    1
  0
VERTEX
  8
0
 10
1365.96095904
 20
1147.83512671
 42
0.21073624
  0
VERTEX
  8
0
 10
1359.65279861
 20
1145.66356370
 42
0.21073624
  0
VERTEX
  8
0
 10
1357.00286791
 20
1139.54094652
 42
0.21073624
  0
VERTEX
  8
0
 10
1359.73736684
 20
1133.45562898
 42
0.21073624
  0
VERTEX
  8
0
 10
1366.07500664
 20
1131.37166744
 42
0.39517003
  0
VERTEX
  8
0
 10
1357.52064808
 20
1117.26036545
 42
0.07646936
  0
VERTEX
  8
0
 10
1341.68035257
 20
1140.51027931
 42
-0.34125594
  0
VERTEX
  8
0
 10
1365.96095904
 20
1147.83512671
  0
SEQEND
  0
POLYLINE
  8
�������_450�600-02
 66
   1
 39
0.000000
 70
    1
  0
VERTEX
  8
0
 10
1338.17990671
 20
1136.02923756
 42
0.12824269
  0
VERTEX
  8
0
 10
1332.42997707
 20
1129.50207163
 42
-0.15525589
  0
VERTEX
  8
0
 10
1341.96822843
 20
1130.53592610
 42
0.19328285
  0
VERTEX
  8
0
 10
1338.17990671
 20
1136.02923756
  0
SEQEND
  0
POLYLINE
  8
�������_450�600-02
 66
   1
 39
0.000000
 70
    1
  0
VERTEX
  8
0
 10
1313.68226131
 20
1140.36642204
 42
-0.22374398
  0
VERTEX
  8
0
 10
1317.75450096
 20
1133.83429946
 42
-0.24166522
  0
VERTEX
  8
0
 10
1298.14345890
 20
1134.53824811
 42
0.20200621
  0
VERTEX
  8
0
 10
1308.16852637
 20
1143.54910135
 42
0.20200621
  0
VERTEX
  8
0
 10
1308.72549457
 20
1157.01710938
 42
-0.18771935
  0
VERTEX
  8
0
 10
1321.46204379
 20
1148.53238248
 42
-0.35745459
  0
VERTEX
  8
0
 10
1320.91871560
 20
1141.26110215
 42
-0.35745459
  0
VERTEX
  8
0
 10
1313.68226131
 20
1140.36642204
  0
SEQEND
  0
POLYLINE
  8
�������_450�600-02
 66
   1
 39
0.000000
 70
    1
  0
VERTEX
  8
0
 10
1333.23291572
 20
1184.71328907
  0
VERTEX
  8
0
 10
1322.12496900
 20
1184.71328907
 42
-0.17682654
  0
VERTEX
  8
0
 10
1327.91949611
 20
1177.17219330
 42
-0.13870819
  0
VERTEX
  8
0
 10
1333.23291572
 20
1184.71328907
  0
SEQEND
  0
POLYLINE
  8
�������_450�600-02
 66
   1
 39
0.000000
 70
    1
  0
VERTEX
  8
0
 10
1310.12123072
 20
1171.00491867
 42
0.22232542
  0
VERTEX
  8
0
 10
1316.10621644
 20
1171.46085325
 42
0.22232542
  0
VERTEX
  8
0
 10
1319.59228609
 20
1176.34708378
 42
0.22232542
  0
VERTEX
  8
0
 10
1318.07604982
 20
1182.15474750
 42
0.22232542
  0
VERTEX
  8
0
 10
1312.64633570
 20
1184.71328907
  0
VERTEX
  8
0
 10
1269.49207694
 20
1184.71328907
 42
-0.20267518
  0
VERTEX
  8
0
 10
1274.91747331
 20
1180.55932511
 42
-0.20267518
  0
VERTEX
  8
0
 10
1275.71842089
 20
1173.77339664
 42
-0.14594477
  0
VERTEX
  8
0
 10
1296.19860516
 20
1173.77339664
 42
0.08603553
  0
VERTEX
  8
0
 10
1313.23592362
 20
1173.77339664
 42
-0.40782819
  0
VERTEX
  8
0
 10
1310.12123072
 20
1171.00491867
  0
SEQEND
  0
POLYLINE
  8
�������_450�600-02
 66
   1
 39
0.000000
 70
    1
  0
VERTEX
  8
0
 10
1335.51005019
 20
1118.53863317
 42
0.22374398
  0
VERTEX
  8
0
 10
1328.97792761
 20
1122.61087282
 42
0.24166522
  0
VERTEX
  8
0
 10
1329.68187626
 20
1102.99983075
 42
-0.20200621
  0
VERTEX
  8
0
 10
1338.69272950
 20
1113.02489822
 42
-0.20200621
  0
VERTEX
  8
0
 10
1352.16073753
 20
1113.58186642
 42
0.18771935
  0
VERTEX
  8
0
 10
1343.67601063
 20
1126.31841564
 42
0.35745459
  0
VERTEX
  8
0
 10
1336.40473030
 20
1125.77508745
 42
0.35745459
  0
VERTEX
  8
0
 10
1335.51005019
 20
1118.53863317
  0
SEQEND
  0
POLYLINE
  8
�������_450�600-02
 66
   1
 39
0.000000
 70
    1
  0
VERTEX
  8
0
 10
1319.49462300
 20
1112.20896630
 42
0.32347647
  0
VERTEX
  8
0
 10
1322.54326162
 20
1084.11910937
 42
0.32347647
  0
VERTEX
  8
0
 10
1350.16980887
 20
1078.19389655
 42
0.21902465
  0
VERTEX
  8
0
 10
1359.65079915
 20
1088.89266480
 42
0.21902465
  0
VERTEX
  8
0
 10
1357.69345790
 20
1103.05323097
 42
0.30847701
  0
VERTEX
  8
0
 10
1347.59941112
 20
1107.10188240
 42
0.30847701
  0
VERTEX
  8
0
 10
1340.14337487
 20
1099.18425129
 42
0.27012075
  0
VERTEX
  8
0
 10
1342.20504183
 20
1094.15874615
 42
0.27012075
  0
VERTEX
  8
0
 10
1347.59380485
 20
1093.47507534
 42
-0.17194611
  0
VERTEX
  8
0
 10
1343.48694937
 20
1090.97460922
 42
0.23279235
  0
VERTEX
  8
0
 10
1351.12380333
 20
1089.48105731
 42
-0.34306365
  0
VERTEX
  8
0
 10
1336.14197153
 20
1085.71885086
 42
-0.34306365
  0
VERTEX
  8
0
 10
1328.80554412
 20
1099.31246384
 42
-0.25645171
  0
VERTEX
  8
0
 10
1319.49462300
 20
1112.20896630
  0
SEQEND
  0
POLYLINE
  8
�������_450�600-02
 66
   1
 39
0.000000
 70
    1
  0
VERTEX
  8
0
 10
1366.14854682
 20
1114.97760257
 42
-0.22232542
  0
VERTEX
  8
0
 10
1366.60448140
 20
1120.96258829
 42
-0.22232542
  0
VERTEX
  8
0
 10
1371.49071193
 20
1124.44865794
 42
-0.22232542
  0
VERTEX
  8
0
 10
1377.29837565
 20
1122.93242167
 42
-0.22232542
  0
VERTEX
  8
0
 10
1379.85691722
 20
1117.50270755
  0
VERTEX
  8
0
 10
1379.85691722
 20
1074.34844879
 42
0.20267518
  0
VERTEX
  8
0
 10
1375.70295326
 20
1079.77384516
 42
0.20267518
  0
VERTEX
  8
0
 10
1368.91702479
 20
1080.57479274
 42
0.14594477
  0
VERTEX
  8
0
 10
1368.91702479
 20
1101.05497701
 42
-0.08603553
  0
VERTEX
  8
0
 10
1368.91702479
 20
1118.09229547
 42
0.40782819
  0
VERTEX
  8
0
 10
1366.14854682
 20
1114.97760257
  0
SEQEND
  0
POLYLINE
  8
�������_450�600-02
 66
   1
 39
0.000000
 70
    1
  0
VERTEX
  8
0
 10
1372.31582145
 20
1132.77586796
 42
-0.17682654
  0
VERTEX
  8
0
 10
1379.85691722
 20
1126.98134085
  0
VERTEX
  8
0
 10
1379.85691722
 20
1138.08928757
 42
-0.13870819
  0
VERTEX
  8
0
 10
1372.31582145
 20
1132.77586796
  0
SEQEND
  0
POLYLINE
  8
�������_450�600-02
 66
   1
 39
0.000000
 70
    1
  0
VERTEX
  8
0
 10
1312.86664497
 20
1112.77113048
 42
0.20213356
  0
VERTEX
  8
0
 10
1305.48450259
 20
1103.39057275
 42
0.20213356
  0
VERTEX
  8
0
 10
1307.04430340
 20
1091.55596626
 42
-0.29087547
  0
VERTEX
  8
0
 10
1300.28438434
 20
1099.23223243
 42
0.32881298
  0
VERTEX
  8
0
 10
1298.43128636
 20
1094.51308276
 42
0.25305717
  0
VERTEX
  8
0
 10
1295.53279147
 20
1095.83085070
 42
0.25305717
  0
VERTEX
  8
0
 10
1292.84313812
 20
1094.12687012
 42
0.07233396
  0
VERTEX
  8
0
 10
1319.82638160
 20
1074.90265375
 42
-0.29648400
  0
VERTEX
  8
0
 10
1312.86664497
 20
1112.77113048
  0
SEQEND
  0
POLYLINE
  8
�������_450�600-02
 66
   1
 39
0.000000
 70
    1
  0
VERTEX
  8
0
 10
1307.91475863
 20
1117.72301682
 42
-0.29648400
  0
VERTEX
  8
0
 10
1270.04628190
 20
1124.68275346
 42
0.07233396
  0
VERTEX
  8
0
 10
1289.27049827
 20
1097.69950997
 42
0.25305717
  0
VERTEX
  8
0
 10
1290.97447885
 20
1100.38916332
 42
0.25305717
  0
VERTEX
  8
0
 10
1289.65671091
 20
1103.28765821
 42
0.32881298
  0
VERTEX
  8
0
 10
1294.37586058
 20
1105.14075619
 42
-0.29087547
  0
VERTEX
  8
0
 10
1286.69959441
 20
1111.90067525
 42
0.20213356
  0
VERTEX
  8
0
 10
1298.53420090
 20
1110.34087445
 42
0.20213356
  0
VERTEX
  8
0
 10
1307.91475863
 20
1117.72301682
  0
SEQEND
  0
POLYLINE
  8
�������_450�600-02
 66
   1
 39
0.000000
 70
    1
  0
VERTEX
  8
0
 10
1342.79398627
 20
1066.06018721
 42
0.11182707
  0
VERTEX
  8
0
 10
1368.60468564
 20
1063.57453664
 42
-0.33213735
  0
VERTEX
  8
0
 10
1360.13434282
 20
1072.04487946
 42
-0.16570497
  0
VERTEX
  8
0
 10
1342.79398627
 20
1066.06018721
  0
SEQEND
  0
POLYLINE
  8
�������_450�600-02
 66
   1
 39
0.000000
 70
    1
  0
VERTEX
  8
0
 10
691.29265449
 20
678.69584009
 42
-0.32347647
  0
VERTEX
  8
0
 10
719.38251143
 20
675.64720147
 42
-0.32347647
  0
VERTEX
  8
0
 10
725.30772424
 20
648.02065422
 42
-0.21902465
  0
VERTEX
  8
0
 10
714.60895599
 20
638.53966395
 42
-0.21902465
  0
VERTEX
  8
0
 10
700.44838983
 20
640.49700520
 42
-0.30847701
  0
VERTEX
  8
0
 10
696.39973840
 20
650.59105198
 42
-0.30847701
  0
VERTEX
  8
0
 10
704.31736950
 20
658.04708823
 42
-0.27012075
  0
VERTEX
  8
0
 10
709.34287464
 20
655.98542127
 42
-0.27012075
  0
VERTEX
  8
0
 10
710.02654545
 20
650.59665825
 42
0.17194611
  0
VERTEX
  8
0
 10
712.52701157
 20
654.70351373
 42
-0.23279235
  0
VERTEX
  8
0
 10
714.02056348
 20
647.06665977
 42
0.34306365
  0
VERTEX
  8
0
 10
717.78276994
 20
662.04849157
 42
0.34306365
  0
VERTEX
  8
0
 10
704.18915695
 20
669.38491898
 42
0.25645171
  0
VERTEX
  8
0
 10
691.29265449
 20
678.69584009
  0
SEQEND
  0
POLYLINE
  8
�������_450�600-02
 66
   1
 39
0.000000
 70
    1
  0
VERTEX
  8
0
 10
655.66649408
 20
632.22950406
 42
-0.21073624
  0
VERTEX
  8
0
 10
657.83805709
 20
638.53766449
 42
-0.21073624
  0
VERTEX
  8
0
 10
663.96067428
 20
641.18759519
 42
-0.21073624
  0
VERTEX
  8
0
 10
670.04599181
 20
638.45309626
 42
-0.21073624
  0
VERTEX
  8
0
 10
672.12995336
 20
632.11545646
 42
-0.39517003
  0
VERTEX
  8
0
 10
686.24125535
 20
640.66981501
 42
-0.07646936
  0
VERTEX
  8
0
 10
662.99134148
 20
656.51011052
 42
0.34125594
  0
VERTEX
  8
0
 10
655.66649408
 20
632.22950406
  0
SEQEND
  0
POLYLINE
  8
�������_450�600-02
 66
   1
 39
0.000000
 70
    1
  0
VERTEX
  8
0
 10
618.78833172
 20
621.68752936
  0
VERTEX
  8
0
 10
618.78833172
 20
661.01296423
 42
0.22624503
  0
VERTEX
  8
0
 10
629.55177030
 20
648.39531575
 42
0.22624503
  0
VERTEX
  8
0
 10
646.13122755
 20
648.81752471
 42
-0.36198916
  0
VERTEX
  8
0
 10
626.10547339
 20
645.29261684
 42
0.34716285
  0
VERTEX
  8
0
 10
628.77863413
 20
641.37826406
 42
0.08328021
  0
VERTEX
  8
0
 10
635.50111268
 20
640.45035787
 42
-0.27544460
  0
VERTEX
  8
0
 10
633.42256829
 20
637.67934889
 42
-0.27544460
  0
VERTEX
  8
0
 10
629.99644571
 20
638.18976210
 42
0.21732137
  0
VERTEX
  8
0
 10
624.55989595
 20
637.77963726
 42
0.21732137
  0
VERTEX
  8
0
 10
621.30606592
 20
633.40506691
 42
-0.31678376
  0
VERTEX
  8
0
 10
626.44258372
 20
632.18467686
 42
0.26767486
  0
VERTEX
  8
0
 10
620.85729974
 20
621.38769084
 42
0.14329956
  0
VERTEX
  8
0
 10
618.78833172
 20
621.68752936
  0
SEQEND
  0
POLYLINE
  8
�������_450�600-02
 66
   1
 39
0.000000
 70
    1
  0
VERTEX
  8
0
 10
622.14231520
 20
618.33354588
  0
VERTEX
  8
0
 10
661.46775008
 20
618.33354588
 42
-0.22624503
  0
VERTEX
  8
0
 10
648.85010160
 20
629.09698446
 42
-0.22624503
  0
VERTEX
  8
0
 10
649.27231055
 20
645.67644171
 42
0.36198916
  0
VERTEX
  8
0
 10
645.74740268
 20
625.65068755
 42
-0.34716285
  0
VERTEX
  8
0
 10
641.83304991
 20
628.32384829
 42
-0.08328021
  0
VERTEX
  8
0
 10
640.90514371
 20
635.04632684
 42
0.27544460
  0
VERTEX
  8
0
 10
638.13413473
 20
632.96778245
 42
0.27544460
  0
VERTEX
  8
0
 10
638.64454794
 20
629.54165986
 42
-0.21732137
  0
VERTEX
  8
0
 10
638.23442310
 20
624.10511011
 42
-0.21732137
  0
VERTEX
  8
0
 10
633.85985275
 20
620.85128008
 42
0.31678376
  0
VERTEX
  8
0
 10
632.63946270
 20
625.98779788
 42
-0.26767486
  0
VERTEX
  8
0
 10
621.84247669
 20
620.40251390
 42
-0.14329956
  0
VERTEX
  8
0
 10
622.14231520
 20
618.33354588
  0
SEQEND
  0
POLYLINE
  8
�������_450�600-02
 66
   1
 39
0.000000
 70
    1
  0
VERTEX
  8
0
 10
663.13519876
 20
684.50820178
 42
0.22374398
  0
VERTEX
  8
0
 10
669.66732133
 20
680.43596213
 42
0.24166522
  0
VERTEX
  8
0
 10
668.96337268
 20
700.04700420
 42
-0.20200621
  0
VERTEX
  8
0
 10
659.95251945
 20
690.02193673
 42
-0.20200621
  0
VERTEX
  8
0
 10
646.48451141
 20
689.46496853
 42
0.18771935
  0
VERTEX
  8
0
 10
654.96923831
 20
676.72841930
 42
0.35745459
  0
VERTEX
  8
0
 10
662.24051864
 20
677.27174749
 42
0.35745459
  0
VERTEX
  8
0
 10
663.13519876
 20
684.50820178
  0
SEQEND
  0
POLYLINE
  8
�������_450�600-02
 66
   1
 39
0.000000
 70
    1
  0
VERTEX
  8
0
 10
679.15062594
 20
690.83786865
 42
0.32347647
  0
VERTEX
  8
0
 10
676.10198732
 20
718.92772558
 42
0.32347647
  0
VERTEX
  8
0
 10
648.47544007
 20
724.85293840
 42
0.21902465
  0
VERTEX
  8
0
 10
638.99444979
 20
714.15417014
 42
0.21902465
  0
VERTEX
  8
0
 10
640.95179105
 20
699.99360398
 42
0.30847701
  0
VERTEX
  8
0
 10
651.04583782
 20
695.94495255
 42
0.30847701
  0
VERTEX
  8
0
 10
658.50187407
 20
703.86258365
 42
0.27012075
  0
VERTEX
  8
0
 10
656.44020711
 20
708.88808880
 42
0.27012075
  0
VERTEX
  8
0
 10
651.05144410
 20
709.57175961
 42
-0.17194611
  0
VERTEX
  8
0
 10
655.15829958
 20
712.07222573
 42
0.23279235
  0
VERTEX
  8
0
 10
647.52144562
 20
713.56577764
 42
-0.34306365
  0
VERTEX
  8
0
 10
662.50327741
 20
717.32798409
 42
-0.34306365
  0
VERTEX
  8
0
 10
669.83970482
 20
703.73437110
 42
-0.25645171
  0
VERTEX
  8
0
 10
679.15062594
 20
690.83786865
  0
SEQEND
  0
POLYLINE
  8
�������_450�600-02
 66
   1
 39
0.000000
 70
    1
  0
VERTEX
  8
0
 10
667.47238323
 20
660.01055638
 42
0.19328285
  0
VERTEX
  8
0
 10
672.96569469
 20
656.22223467
 42
-0.15525589
  0
VERTEX
  8
0
 10
673.99954917
 20
665.76048603
 42
0.12824269
  0
VERTEX
  8
0
 10
667.47238323
 20
660.01055638
  0
SEQEND
  0
POLYLINE
  8
�������_450�600-02
 66
   1
 39
0.000000
 70
    1
  0
VERTEX
  8
0
 10
632.49670212
 20
688.06923238
 42
-0.22232542
  0
VERTEX
  8
0
 10
632.04076754
 20
682.08424666
 42
-0.22232542
  0
VERTEX
  8
0
 10
627.15453701
 20
678.59817701
 42
-0.22232542
  0
VERTEX
  8
0
 10
621.34687329
 20
680.11441328
 42
-0.22232542
  0
VERTEX
  8
0
 10
618.78833172
 20
685.54412740
  0
VERTEX
  8
0
 10
618.78833172
 20
728.69838616
 42
0.20267518
  0
VERTEX
  8
0
 10
622.94229568
 20
723.27298979
 42
0.20267518
  0
VERTEX
  8
0
 10
629.72822415
 20
722.47204221
 42
0.14594477
  0
VERTEX
  8
0
 10
629.72822415
 20
701.99185794
 42
-0.08603553
  0
VERTEX
  8
0
 10
629.72822415
 20
684.95453948
 42
0.40782819
  0
VERTEX
  8
0
 10
632.49670212
 20
688.06923238
  0
SEQEND
  0
POLYLINE
  8
�������_450�600-02
 66
   1
 39
0.000000
 70
    1
  0
VERTEX
  8
0
 10
632.68428990
 20
655.21170824
 42
0.21073624
  0
VERTEX
  8
0
 10
638.99245033
 20
657.38327125
 42
0.21073624
  0
VERTEX
  8
0
 10
641.64238104
 20
663.50588843
 42
0.21073624
  0
VERTEX
  8
0
 10
638.90788210
 20
669.59120597
 42
0.21073624
  0
VERTEX
  8
0
 10
632.57024230
 20
671.67516751
 42
0.39517003
  0
VERTEX
  8
0
 10
641.12460086
 20
685.78646950
 42
0.07646936
  0
VERTEX
  8
0
 10
656.96489637
 20
662.53655564
 42
-0.34125594
  0
VERTEX
  8
0
 10
632.68428990
 20
655.21170824
  0
SEQEND
  0
POLYLINE
  8
�������_450�600-02
 66
   1
 39
0.000000
 70
    1
  0
VERTEX
  8
0
 10
660.46534223
 20
667.01759739
 42
0.12824269
  0
VERTEX
  8
0
 10
666.21527187
 20
673.54476332
 42
-0.15525589
  0
VERTEX
  8
0
 10
656.67702051
 20
672.51090885
 42
0.19328285
  0
VERTEX
  8
0
 10
660.46534223
 20
667.01759739
  0
SEQEND
  0
POLYLINE
  8
�������_450�600-02
 66
   1
 39
0.000000
 70
    1
  0
VERTEX
  8
0
 10
685.77860397
 20
690.27570447
 42
0.20213356
  0
VERTEX
  8
0
 10
693.16074635
 20
699.65626220
 42
0.20213356
  0
VERTEX
  8
0
 10
691.60094554
 20
711.49086868
 42
-0.29087547
  0
VERTEX
  8
0
 10
698.36086460
 20
703.81460251
 42
0.32881298
  0
VERTEX
  8
0
 10
700.21396258
 20
708.53375219
 42
0.25305717
  0
VERTEX
  8
0
 10
703.11245747
 20
707.21598425
 42
0.25305717
  0
VERTEX
  8
0
 10
705.80211083
 20
708.91996482
 42
0.07233396
  0
VERTEX
  8
0
 10
678.81886734
 20
728.14418120
 42
-0.29648400
  0
VERTEX
  8
0
 10
685.77860397
 20
690.27570447
  0
SEQEND
  0
POLYLINE
  8
�������_450�600-02
 66
   1
 39
0.000000
 70
    1
  0
VERTEX
  8
0
 10
690.73049032
 20
685.32381813
 42
-0.29648400
  0
VERTEX
  8
0
 10
728.59896704
 20
678.36408149
 42
0.07233396
  0
VERTEX
  8
0
 10
709.37475067
 20
705.34732498
 42
0.25305717
  0
VERTEX
  8
0
 10
707.67077010
 20
702.65767163
 42
0.25305717
  0
VERTEX
  8
0
 10
708.98853803
 20
699.75917674
 42
0.32881298
  0
VERTEX
  8
0
 10
704.26938836
 20
697.90607876
 42
-0.29087547
  0
VERTEX
  8
0
 10
711.94565453
 20
691.14615970
 42
0.20213356
  0
VERTEX
  8
0
 10
700.11104804
 20
692.70596050
 42
0.20213356
  0
VERTEX
  8
0
 10
690.73049032
 20
685.32381813
  0
SEQEND
  0
POLYLINE
  8
�������_450�600-02
 66
   1
 39
0.000000
 70
    1
  0
VERTEX
  8
0
 10
684.96298763
 20
662.68041291
 42
-0.22374398
  0
VERTEX
  8
0
 10
680.89074798
 20
669.21253549
 42
-0.24166522
  0
VERTEX
  8
0
 10
700.50179004
 20
668.50858684
 42
0.20200621
  0
VERTEX
  8
0
 10
690.47672257
 20
659.49773360
 42
0.20200621
  0
VERTEX
  8
0
 10
689.91975437
 20
646.02972557
 42
-0.18771935
  0
VERTEX
  8
0
 10
677.18320515
 20
654.51445246
 42
-0.35745459
  0
VERTEX
  8
0
 10
677.72653334
 20
661.78573280
 42
-0.35745459
  0
VERTEX
  8
0
 10
684.96298763
 20
662.68041291
  0
SEQEND
  0
POLYLINE
  8
�������_450�600-02
 66
   1
 39
0.000000
 70
    1
  0
VERTEX
  8
0
 10
665.41233322
 20
618.33354588
  0
VERTEX
  8
0
 10
676.52027994
 20
618.33354588
 42
-0.17682654
  0
VERTEX
  8
0
 10
670.72575284
 20
625.87464164
 42
-0.13870819
  0
VERTEX
  8
0
 10
665.41233322
 20
618.33354588
  0
SEQEND
  0
POLYLINE
  8
�������_450�600-02
 66
   1
 39
0.000000
 70
    1
  0
VERTEX
  8
0
 10
688.52401822
 20
632.04191627
 42
0.22232542
  0
VERTEX
  8
0
 10
682.53903250
 20
631.58598169
 42
0.22232542
  0
VERTEX
  8
0
 10
679.05296285
 20
626.69975117
 42
0.22232542
  0
VERTEX
  8
0
 10
680.56919913
 20
620.89208744
 42
0.22232542
  0
VERTEX
  8
0
 10
685.99891325
 20
618.33354588
  0
VERTEX
  8
0
 10
729.15317200
 20
618.33354588
 42
-0.20267518
  0
VERTEX
  8
0
 10
723.72777563
 20
622.48750984
 42
-0.20267518
  0
VERTEX
  8
0
 10
722.92682805
 20
629.27343831
 42
-0.14594477
  0
VERTEX
  8
0
 10
702.44664378
 20
629.27343831
 42
0.08603553
  0
VERTEX
  8
0
 10
685.40932533
 20
629.27343831
 42
-0.40782819
  0
VERTEX
  8
0
 10
688.52401822
 20
632.04191627
  0
SEQEND
  0
POLYLINE
  8
�������_450�600-02
 66
   1
 39
0.000000
 70
    1
  0
VERTEX
  8
0
 10
737.44143359
 20
655.39647683
 42
-0.11182707
  0
VERTEX
  8
0
 10
739.92708415
 20
629.58577746
 42
0.33213735
  0
VERTEX
  8
0
 10
731.45674133
 20
638.05612028
 42
0.16570497
  0
VERTEX
  8
0
 10
737.44143359
 20
655.39647683
  0
SEQEND
  0
POLYLINE
  8
�������_450�600-02
 66
   1
 39
0.000000
 70
    1
  0
VERTEX
  8
0
 10
655.85126267
 20
736.98664774
 42
0.11182707
  0
VERTEX
  8
0
 10
630.04056331
 20
739.47229831
 42
-0.33213735
  0
VERTEX
  8
0
 10
638.51090613
 20
731.00195549
 42
-0.16570497
  0
VERTEX
  8
0
 10
655.85126267
 20
736.98664774
  0
SEQEND
  0
POLYLINE
  8
�������_450�600-02
 66
   1
 39
0.000000
 70
    1
  0
VERTEX
  8
0
 10
626.32942749
 20
670.27096699
 42
-0.17682654
  0
VERTEX
  8
0
 10
618.78833172
 20
676.06549410
  0
VERTEX
  8
0
 10
618.78833172
 20
664.95754738
 42
-0.13870819
  0
VERTEX
  8
0
 10
626.32942749
 20
670.27096699
  0
SEQEND
  0
POLYLINE
  8
�������_450�600-02
 66
   1
 39
0.000000
 70
    1
  0
VERTEX
  8
0
 10
1365.96095904
 20
655.21170824
 42
-0.21073624
  0
VERTEX
  8
0
 10
1359.65279861
 20
657.38327125
 42
-0.21073624
  0
VERTEX
  8
0
 10
1357.00286791
 20
663.50588843
 42
-0.21073624
  0
VERTEX
  8
0
 10
1359.73736684
 20
669.59120597
 42
-0.21073624
  0
VERTEX
  8
0
 10
1366.07500664
 20
671.67516751
 42
-0.39517003
  0
VERTEX
  8
0
 10
1357.52064808
 20
685.78646950
 42
-0.07646936
  0
VERTEX
  8
0
 10
1341.68035257
 20
662.53655564
 42
0.34125594
  0
VERTEX
  8
0
 10
1365.96095904
 20
655.21170824
  0
SEQEND
  0
POLYLINE
  8
�������_450�600-02
 66
   1
 39
0.000000
 70
    1
  0
VERTEX
  8
0
 10
1376.50293374
 20
618.33354588
  0
VERTEX
  8
0
 10
1337.17749887
 20
618.33354588
 42
0.22624503
  0
VERTEX
  8
0
 10
1349.79514734
 20
629.09698446
 42
0.22624503
  0
VERTEX
  8
0
 10
1349.37293839
 20
645.67644171
 42
-0.36198916
  0
VERTEX
  8
0
 10
1352.89784626
 20
625.65068755
 42
0.34716285
  0
VERTEX
  8
0
 10
1356.81219903
 20
628.32384829
 42
0.08328021
  0
VERTEX
  8
0
 10
1357.74010523
 20
635.04632684
 42
-0.27544460
  0
VERTEX
  8
0
 10
1360.51111421
 20
632.96778245
 42
-0.27544460
  0
VERTEX
  8
0
 10
1360.00070100
 20
629.54165986
 42
0.21732137
  0
VERTEX
  8
0
 10
1360.41082584
 20
624.10511011
 42
0.21732137
  0
VERTEX
  8
0
 10
1364.78539619
 20
620.85128008
 42
-0.31678376
  0
VERTEX
  8
0
 10
1366.00578624
 20
625.98779788
 42
0.26767486
  0
VERTEX
  8
0
 10
1376.80277226
 20
620.40251390
 42
0.14329956
  0
VERTEX
  8
0
 10
1376.50293374
 20
618.33354588
  0
SEQEND
  0
POLYLINE
  8
�������_450�600-02
 66
   1
 39
0.000000
 70
    1
  0
VERTEX
  8
0
 10
1379.85691722
 20
621.68752936
  0
VERTEX
  8
0
 10
1379.85691722
 20
661.01296423
 42
-0.22624503
  0
VERTEX
  8
0
 10
1369.09347864
 20
648.39531575
 42
-0.22624503
  0
VERTEX
  8
0
 10
1352.51402139
 20
648.81752471
 42
0.36198916
  0
VERTEX
  8
0
 10
1372.53977555
 20
645.29261684
 42
-0.34716285
  0
VERTEX
  8
0
 10
1369.86661481
 20
641.37826406
 42
-0.08328021
  0
VERTEX
  8
0
 10
1363.14413626
 20
640.45035787
 42
0.27544460
  0
VERTEX
  8
0
 10
1365.22268065
 20
637.67934889
 42
0.27544460
  0
VERTEX
  8
0
 10
1368.64880323
 20
638.18976210
 42
-0.21732137
  0
VERTEX
  8
0
 10
1374.08535299
 20
637.77963726
 42
-0.21732137
  0
VERTEX
  8
0
 10
1377.33918302
 20
633.40506691
 42
0.31678376
  0
VERTEX
  8
0
 10
1372.20266522
 20
632.18467686
 42
-0.26767486
  0
VERTEX
  8
0
 10
1377.78794920
 20
621.38769084
 42
-0.14329956
  0
VERTEX
  8
0
 10
1379.85691722
 20
621.68752936
  0
SEQEND
  0
POLYLINE
  8
�������_450�600-02
 66
   1
 39
0.000000
 70
    1
  0
VERTEX
  8
0
 10
1342.97875486
 20
632.22950406
 42
0.21073624
  0
VERTEX
  8
0
 10
1340.80719185
 20
638.53766449
 42
0.21073624
  0
VERTEX
  8
0
 10
1334.68457467
 20
641.18759519
 42
0.21073624
  0
VERTEX
  8
0
 10
1328.59925713
 20
638.45309626
 42
0.21073624
  0
VERTEX
  8
0
 10
1326.51529559
 20
632.11545646
 42
0.39517003
  0
VERTEX
  8
0
 10
1312.40399360
 20
640.66981501
 42
0.07646936
  0
VERTEX
  8
0
 10
1335.65390746
 20
656.51011052
 42
-0.34125594
  0
VERTEX
  8
0
 10
1342.97875486
 20
632.22950406
  0
SEQEND
  0
POLYLINE
  8
�������_450�600-02
 66
   1
 39
0.000000
 70
    1
  0
VERTEX
  8
0
 10
1261.20381536
 20
655.39647683
 42
0.11182707
  0
VERTEX
  8
0
 10
1258.71816479
 20
629.58577746
 42
-0.33213735
  0
VERTEX
  8
0
 10
1267.18850761
 20
638.05612028
 42
-0.16570497
  0
VERTEX
  8
0
 10
1261.20381536
 20
655.39647683
  0
SEQEND
  0
POLYLINE
  8
�������_450�600-02
 66
   1
 39
0.000000
 70
    1
  0
VERTEX
  8
0
 10
1307.35259445
 20
678.69584009
 42
0.32347647
  0
VERTEX
  8
0
 10
1279.26273751
 20
675.64720147
 42
0.32347647
  0
VERTEX
  8
0
 10
1273.33752470
 20
648.02065422
 42
0.21902465
  0
VERTEX
  8
0
 10
1284.03629295
 20
638.53966395
 42
0.21902465
  0
VERTEX
  8
0
 10
1298.19685912
 20
640.49700520
 42
0.30847701
  0
VERTEX
  8
0
 10
1302.24551055
 20
650.59105198
 42
0.30847701
  0
VERTEX
  8
0
 10
1294.32787944
 20
658.04708823
 42
0.27012075
  0
VERTEX
  8
0
 10
1289.30237430
 20
655.98542127
 42
0.27012075
  0
VERTEX
  8
0
 10
1288.61870349
 20
650.59665825
 42
-0.17194611
  0
VERTEX
  8
0
 10
1286.11823737
 20
654.70351373
 42
0.23279235
  0
VERTEX
  8
0
 10
1284.62468546
 20
647.06665977
 42
-0.34306365
  0
VERTEX
  8
0
 10
1280.86247901
 20
662.04849157
 42
-0.34306365
  0
VERTEX
  8
0
 10
1294.45609199
 20
669.38491898
 42
-0.25645171
  0
VERTEX
  8
0
 10
1307.35259445
 20
678.69584009
  0
SEQEND
  0
POLYLINE
  8
�������_450�600-02
 66
   1
 39
0.000000
 70
    1
  0
VERTEX
  8
0
 10
1331.17286571
 20
660.01055638
 42
-0.19328285
  0
VERTEX
  8
0
 10
1325.67955425
 20
656.22223467
 42
0.15525589
  0
VERTEX
  8
0
 10
1324.64569978
 20
665.76048603
 42
-0.12824269
  0
VERTEX
  8
0
 10
1331.17286571
 20
660.01055638
  0
SEQEND
  0
POLYLINE
  8
�������_450�600-02
 66
   1
 39
0.000000
 70
    1
  0
VERTEX
  8
0
 10
1313.68226131
 20
662.68041291
 42
0.22374398
  0
VERTEX
  8
0
 10
1317.75450096
 20
669.21253549
 42
0.24166522
  0
VERTEX
  8
0
 10
1298.14345890
 20
668.50858684
 42
-0.20200621
  0
VERTEX
  8
0
 10
1308.16852637
 20
659.49773360
 42
-0.20200621
  0
VERTEX
  8
0
 10
1308.72549457
 20
646.02972557
 42
0.18771935
  0
VERTEX
  8
0
 10
1321.46204379
 20
654.51445246
 42
0.35745459
  0
VERTEX
  8
0
 10
1320.91871560
 20
661.78573280
 42
0.35745459
  0
VERTEX
  8
0
 10
1313.68226131
 20
662.68041291
  0
SEQEND
  0
POLYLINE
  8
�������_450�600-02
 66
   1
 39
0.000000
 70
    1
  0
VERTEX
  8
0
 10
1310.12123072
 20
632.04191627
 42
-0.22232542
  0
VERTEX
  8
0
 10
1316.10621644
 20
631.58598169
 42
-0.22232542
  0
VERTEX
  8
0
 10
1319.59228609
 20
626.69975117
 42
-0.22232542
  0
VERTEX
  8
0
 10
1318.07604982
 20
620.89208744
 42
-0.22232542
  0
VERTEX
  8
0
 10
1312.64633570
 20
618.33354588
  0
VERTEX
  8
0
 10
1269.49207694
 20
618.33354588
 42
0.20267518
  0
VERTEX
  8
0
 10
1274.91747331
 20
622.48750984
 42
0.20267518
  0
VERTEX
  8
0
 10
1275.71842089
 20
629.27343831
 42
0.14594477
  0
VERTEX
  8
0
 10
1296.19860516
 20
629.27343831
 42
-0.08603553
  0
VERTEX
  8
0
 10
1313.23592362
 20
629.27343831
 42
0.40782819
  0
VERTEX
  8
0
 10
1310.12123072
 20
632.04191627
  0
SEQEND
  0
POLYLINE
  8
�������_450�600-02
 66
   1
 39
0.000000
 70
    1
  0
VERTEX
  8
0
 10
1333.23291572
 20
618.33354588
  0
VERTEX
  8
0
 10
1322.12496900
 20
618.33354588
 42
0.17682654
  0
VERTEX
  8
0
 10
1327.91949611
 20
625.87464164
 42
0.13870819
  0
VERTEX
  8
0
 10
1333.23291572
 20
618.33354588
  0
SEQEND
  0
POLYLINE
  8
�������_450�600-02
 66
   1
 39
0.000000
 70
    1
  0
VERTEX
  8
0
 10
1366.14854682
 20
688.06923238
 42
0.22232542
  0
VERTEX
  8
0
 10
1366.60448140
 20
682.08424666
 42
0.22232542
  0
VERTEX
  8
0
 10
1371.49071193
 20
678.59817701
 42
0.22232542
  0
VERTEX
  8
0
 10
1377.29837565
 20
680.11441328
 42
0.22232542
  0
VERTEX
  8
0
 10
1379.85691722
 20
685.54412740
  0
VERTEX
  8
0
 10
1379.85691722
 20
728.69838616
 42
-0.20267518
  0
VERTEX
  8
0
 10
1375.70295326
 20
723.27298979
 42
-0.20267518
  0
VERTEX
  8
0
 10
1368.91702479
 20
722.47204221
 42
-0.14594477
  0
VERTEX
  8
0
 10
1368.91702479
 20
701.99185794
 42
0.08603553
  0
VERTEX
  8
0
 10
1368.91702479
 20
684.95453948
 42
-0.40782819
  0
VERTEX
  8
0
 10
1366.14854682
 20
688.06923238
  0
SEQEND
  0
POLYLINE
  8
�������_450�600-02
 66
   1
 39
0.000000
 70
    1
  0
VERTEX
  8
0
 10
1319.49462300
 20
690.83786865
 42
-0.32347647
  0
VERTEX
  8
0
 10
1322.54326162
 20
718.92772558
 42
-0.32347647
  0
VERTEX
  8
0
 10
1350.16980887
 20
724.85293840
 42
-0.21902465
  0
VERTEX
  8
0
 10
1359.65079915
 20
714.15417014
 42
-0.21902465
  0
VERTEX
  8
0
 10
1357.69345790
 20
699.99360398
 42
-0.30847701
  0
VERTEX
  8
0
 10
1347.59941112
 20
695.94495255
 42
-0.30847701
  0
VERTEX
  8
0
 10
1340.14337487
 20
703.86258365
 42
-0.27012075
  0
VERTEX
  8
0
 10
1342.20504183
 20
708.88808880
 42
-0.27012075
  0
VERTEX
  8
0
 10
1347.59380485
 20
709.57175961
 42
0.17194611
  0
VERTEX
  8
0
 10
1343.48694937
 20
712.07222573
 42
-0.23279235
  0
VERTEX
  8
0
 10
1351.12380333
 20
713.56577764
 42
0.34306365
  0
VERTEX
  8
0
 10
1336.14197153
 20
717.32798409
 42
0.34306365
  0
VERTEX
  8
0
 10
1328.80554412
 20
703.73437110
 42
0.25645171
  0
VERTEX
  8
0
 10
1319.49462300
 20
690.83786865
  0
SEQEND
  0
POLYLINE
  8
�������_450�600-02
 66
   1
 39
0.000000
 70
    1
  0
VERTEX
  8
0
 10
1342.79398627
 20
736.98664774
 42
-0.11182707
  0
VERTEX
  8
0
 10
1368.60468564
 20
739.47229831
 42
0.33213735
  0
VERTEX
  8
0
 10
1360.13434282
 20
731.00195549
 42
0.16570497
  0
VERTEX
  8
0
 10
1342.79398627
 20
736.98664774
  0
SEQEND
  0
POLYLINE
  8
�������_450�600-02
 66
   1
 39
0.000000
 70
    1
  0
VERTEX
  8
0
 10
1335.51005019
 20
684.50820178
 42
-0.22374398
  0
VERTEX
  8
0
 10
1328.97792761
 20
680.43596213
 42
-0.24166522
  0
VERTEX
  8
0
 10
1329.68187626
 20
700.04700420
 42
0.20200621
  0
VERTEX
  8
0
 10
1338.69272950
 20
690.02193673
 42
0.20200621
  0
VERTEX
  8
0
 10
1352.16073753
 20
689.46496853
 42
-0.18771935
  0
VERTEX
  8
0
 10
1343.67601063
 20
676.72841930
 42
-0.35745459
  0
VERTEX
  8
0
 10
1336.40473030
 20
677.27174749
 42
-0.35745459
  0
VERTEX
  8
0
 10
1335.51005019
 20
684.50820178
  0
SEQEND
  0
POLYLINE
  8
�������_450�600-02
 66
   1
 39
0.000000
 70
    1
  0
VERTEX
  8
0
 10
1338.17990671
 20
667.01759739
 42
-0.12824269
  0
VERTEX
  8
0
 10
1332.42997707
 20
673.54476332
 42
0.15525589
  0
VERTEX
  8
0
 10
1341.96822843
 20
672.51090885
 42
-0.19328285
  0
VERTEX
  8
0
 10
1338.17990671
 20
667.01759739
  0
SEQEND
  0
POLYLINE
  8
�������_450�600-02
 66
   1
 39
0.000000
 70
    1
  0
VERTEX
  8
0
 10
1372.31582145
 20
670.27096699
 42
0.17682654
  0
VERTEX
  8
0
 10
1379.85691722
 20
676.06549410
  0
VERTEX
  8
0
 10
1379.85691722
 20
664.95754738
 42
0.13870819
  0
VERTEX
  8
0
 10
1372.31582145
 20
670.27096699
  0
SEQEND
  0
POLYLINE
  8
�������_450�600-02
 66
   1
 39
0.000000
 70
    1
  0
VERTEX
  8
0
 10
1307.91475863
 20
685.32381813
 42
0.29648400
  0
VERTEX
  8
0
 10
1270.04628190
 20
678.36408149
 42
-0.07233396
  0
VERTEX
  8
0
 10
1289.27049827
 20
705.34732498
 42
-0.25305717
  0
VERTEX
  8
0
 10
1290.97447885
 20
702.65767163
 42
-0.25305717
  0
VERTEX
  8
0
 10
1289.65671091
 20
699.75917674
 42
-0.32881298
  0
VERTEX
  8
0
 10
1294.37586058
 20
697.90607876
 42
0.29087547
  0
VERTEX
  8
0
 10
1286.69959441
 20
691.14615970
 42
-0.20213356
  0
VERTEX
  8
0
 10
1298.53420090
 20
692.70596050
 42
-0.20213356
  0
VERTEX
  8
0
 10
1307.91475863
 20
685.32381813
  0
SEQEND
  0
POLYLINE
  8
�������_450�600-02
 66
   1
 39
0.000000
 70
    1
  0
VERTEX
  8
0
 10
1312.86664497
 20
690.27570447
 42
-0.20213356
  0
VERTEX
  8
0
 10
1305.48450259
 20
699.65626220
 42
-0.20213356
  0
VERTEX
  8
0
 10
1307.04430340
 20
711.49086868
 42
0.29087547
  0
VERTEX
  8
0
 10
1300.28438434
 20
703.81460251
 42
-0.32881298
  0
VERTEX
  8
0
 10
1298.43128636
 20
708.53375219
 42
-0.25305717
  0
VERTEX
  8
0
 10
1295.53279147
 20
707.21598425
 42
-0.25305717
  0
VERTEX
  8
0
 10
1292.84313812
 20
708.91996482
 42
-0.07233396
  0
VERTEX
  8
0
 10
1319.82638160
 20
728.14418120
 42
0.29648400
  0
VERTEX
  8
0
 10
1312.86664497
 20
690.27570447
  0
SEQEND
  0
POLYLINE
  8
�������_450�600-02
 66
   1
 39
0.000000
 70
    1
  0
VERTEX
  8
0
 10
599.32262447
 20
601.52341747
  0
VERTEX
  8
0
 10
1399.32262447
 20
601.52341747
  0
VERTEX
  8
0
 10
1399.32262447
 20
1201.52341747
  0
VERTEX
  8
0
 10
599.32262447
 20
1201.52341747
  0
VERTEX
  8
0
 10
599.32262447
 20
601.52341747
  0
SEQEND
  0
POLYLINE
  8
�������_450�600-02
 66
   1
 39
0.000000
 70
    1
  0
VERTEX
  8
0
 10
813.72760356
 20
1146.90541105
  0
VERTEX
  8
0
 10
826.83657848
 20
1154.75765606
  0
VERTEX
  8
0
 10
839.94555340
 20
1146.90541105
  0
VERTEX
  8
0
 10
826.83657848
 20
1139.05316603
  0
VERTEX
  8
0
 10
813.72760356
 20
1146.90541105
  0
SEQEND
  0
POLYLINE
  8
�������_450�600-02
 66
   1
 39
0.000000
 70
    1
  0
VERTEX
  8
0
 10
792.16684781
 20
1133.99056928
  0
VERTEX
  8
0
 10
805.27582273
 20
1141.84281429
  0
VERTEX
  8
0
 10
818.38479765
 20
1133.99056928
  0
VERTEX
  8
0
 10
805.27582273
 20
1126.13832427
  0
VERTEX
  8
0
 10
792.16684781
 20
1133.99056928
  0
SEQEND
  0
POLYLINE
  8
�������_450�600-02
 66
   1
 39
0.000000
 70
    1
  0
VERTEX
  8
0
 10
770.60609206
 20
1121.07572751
  0
VERTEX
  8
0
 10
783.71506698
 20
1128.92797253
  0
VERTEX
  8
0
 10
796.82404190
 20
1121.07572751
  0
VERTEX
  8
0
 10
783.71506698
 20
1113.22348250
  0
VERTEX
  8
0
 10
770.60609206
 20
1121.07572751
  0
SEQEND
  0
POLYLINE
  8
�������_450�600-02
 66
   1
 39
0.000000
 70
    1
  0
VERTEX
  8
0
 10
749.04533631
 20
1108.16088575
  0
VERTEX
  8
0
 10
762.15431123
 20
1116.01313076
  0
VERTEX
  8
0
 10
775.26328615
 20
1108.16088575
  0
VERTEX
  8
0
 10
762.15431123
 20
1100.30864073
  0
VERTEX
  8
0
 10
749.04533631
 20
1108.16088575
  0
SEQEND
  0
POLYLINE
  8
�������_450�600-02
 66
   1
 39
0.000000
 70
    1
  0
VERTEX
  8
0
 10
727.48458056
 20
1095.24604398
  0
VERTEX
  8
0
 10
740.59355548
 20
1103.09828899
  0
VERTEX
  8
0
 10
753.70253040
 20
1095.24604398
  0
VERTEX
  8
0
 10
740.59355548
 20
1087.39379897
  0
VERTEX
  8
0
 10
727.48458056
 20
1095.24604398
  0
SEQEND
  0
POLYLINE
  8
�������_450�600-02
 66
   1
 39
0.000000
 70
    1
  0
VERTEX
  8
0
 10
705.92382481
 20
1082.33120221
  0
VERTEX
  8
0
 10
719.03279973
 20
1090.18344723
  0
VERTEX
  8
0
 10
732.14177465
 20
1082.33120221
  0
VERTEX
  8
0
 10
719.03279973
 20
1074.47895720
  0
VERTEX
  8
0
 10
705.92382481
 20
1082.33120221
  0
SEQEND
  0
POLYLINE
  8
�������_450�600-02
 66
   1
 39
0.000000
 70
    1
  0
VERTEX
  8
0
 10
684.36306907
 20
1069.41636045
  0
VERTEX
  8
0
 10
697.47204399
 20
1077.26860546
  0
VERTEX
  8
0
 10
710.58101891
 20
1069.41636045
  0
VERTEX
  8
0
 10
697.47204399
 20
1061.56411543
  0
VERTEX
  8
0
 10
684.36306907
 20
1069.41636045
  0
SEQEND
  0
POLYLINE
  8
�������_450�600-02
 66
   1
 39
0.000000
 70
    1
  0
VERTEX
  8
0
 10
662.80231332
 20
1056.50151868
  0
VERTEX
  8
0
 10
675.91128824
 20
1064.35376369
  0
VERTEX
  8
0
 10
689.02026316
 20
1056.50151868
  0
VERTEX
  8
0
 10
675.91128824
 20
1048.64927366
  0
VERTEX
  8
0
 10
662.80231332
 20
1056.50151868
  0
SEQEND
  0
POLYLINE
  8
�������_450�600-02
 66
   1
 39
0.000000
 70
    1
  0
VERTEX
  8
0
 10
648.26707338
 20
1047.79494429
  0
VERTEX
  8
0
 10
654.35053249
 20
1051.43892193
  0
VERTEX
  8
0
 10
667.45950741
 20
1043.58667691
  0
VERTEX
  8
0
 10
654.35053249
 20
1035.73443190
  0
VERTEX
  8
0
 10
648.26707338
 20
1039.37840954
  0
VERTEX
  8
0
 10
648.26707338
 20
1047.79494429
  0
SEQEND
  0
POLYLINE
  8
�������_450�600-02
 66
   1
 39
0.000000
 70
    1
  0
VERTEX
  8
0
 10
1184.91764538
 20
1146.90541105
  0
VERTEX
  8
0
 10
1171.80867046
 20
1154.75765606
  0
VERTEX
  8
0
 10
1158.69969554
 20
1146.90541105
  0
VERTEX
  8
0
 10
1171.80867046
 20
1139.05316603
  0
VERTEX
  8
0
 10
1184.91764538
 20
1146.90541105
  0
SEQEND
  0
POLYLINE
  8
�������_450�600-02
 66
   1
 39
0.000000
 70
    1
  0
VERTEX
  8
0
 10
1206.47840113
 20
1133.99056928
  0
VERTEX
  8
0
 10
1193.36942621
 20
1141.84281429
  0
VERTEX
  8
0
 10
1180.26045129
 20
1133.99056928
  0
VERTEX
  8
0
 10
1193.36942621
 20
1126.13832427
  0
VERTEX
  8
0
 10
1206.47840113
 20
1133.99056928
  0
SEQEND
  0
POLYLINE
  8
�������_450�600-02
 66
   1
 39
0.000000
 70
    1
  0
VERTEX
  8
0
 10
1228.03915688
 20
1121.07572751
  0
VERTEX
  8
0
 10
1214.93018196
 20
1128.92797253
  0
VERTEX
  8
0
 10
1201.82120704
 20
1121.07572751
  0
VERTEX
  8
0
 10
1214.93018196
 20
1113.22348250
  0
VERTEX
  8
0
 10
1228.03915688
 20
1121.07572751
  0
SEQEND
  0
POLYLINE
  8
�������_450�600-02
 66
   1
 39
0.000000
 70
    1
  0
VERTEX
  8
0
 10
1249.59991263
 20
1108.16088575
  0
VERTEX
  8
0
 10
1236.49093771
 20
1116.01313076
  0
VERTEX
  8
0
 10
1223.38196279
 20
1108.16088575
  0
VERTEX
  8
0
 10
1236.49093771
 20
1100.30864073
  0
VERTEX
  8
0
 10
1249.59991263
 20
1108.16088575
  0
SEQEND
  0
POLYLINE
  8
�������_450�600-02
 66
   1
 39
0.000000
 70
    1
  0
VERTEX
  8
0
 10
1271.16066838
 20
1095.24604398
  0
VERTEX
  8
0
 10
1258.05169346
 20
1103.09828899
  0
VERTEX
  8
0
 10
1244.94271854
 20
1095.24604398
  0
VERTEX
  8
0
 10
1258.05169346
 20
1087.39379897
  0
VERTEX
  8
0
 10
1271.16066838
 20
1095.24604398
  0
SEQEND
  0
POLYLINE
  8
�������_450�600-02
 66
   1
 39
0.000000
 70
    1
  0
VERTEX
  8
0
 10
1292.72142413
 20
1082.33120221
  0
VERTEX
  8
0
 10
1279.61244921
 20
1090.18344723
  0
VERTEX
  8
0
 10
1266.50347429
 20
1082.33120221
  0
VERTEX
  8
0
 10
1279.61244921
 20
1074.47895720
  0
VERTEX
  8
0
 10
1292.72142413
 20
1082.33120221
  0
SEQEND
  0
POLYLINE
  8
�������_450�600-02
 66
   1
 39
0.000000
 70
    1
  0
VERTEX
  8
0
 10
1314.28217988
 20
1069.41636045
  0
VERTEX
  8
0
 10
1301.17320496
 20
1077.26860546
  0
VERTEX
  8
0
 10
1288.06423004
 20
1069.41636045
  0
VERTEX
  8
0
 10
1301.17320496
 20
1061.56411543
  0
VERTEX
  8
0
 10
1314.28217988
 20
1069.41636045
  0
SEQEND
  0
POLYLINE
  8
�������_450�600-02
 66
   1
 39
0.000000
 70
    1
  0
VERTEX
  8
0
 10
1335.84293563
 20
1056.50151868
  0
VERTEX
  8
0
 10
1322.73396071
 20
1064.35376369
  0
VERTEX
  8
0
 10
1309.62498579
 20
1056.50151868
  0
VERTEX
  8
0
 10
1322.73396071
 20
1048.64927366
  0
VERTEX
  8
0
 10
1335.84293563
 20
1056.50151868
  0
SEQEND
  0
POLYLINE
  8
�������_450�600-02
 66
   1
 39
0.000000
 70
    1
  0
VERTEX
  8
0
 10
1350.37817557
 20
1047.79494429
  0
VERTEX
  8
0
 10
1344.29471645
 20
1051.43892193
  0
VERTEX
  8
0
 10
1331.18574153
 20
1043.58667691
  0
VERTEX
  8
0
 10
1344.29471645
 20
1035.73443190
  0
VERTEX
  8
0
 10
1350.37817557
 20
1039.37840954
  0
VERTEX
  8
0
 10
1350.37817557
 20
1047.79494429
  0
SEQEND
  0
POLYLINE
  8
�������_450�600-02
 66
   1
 39
0.000000
 70
    1
  0
VERTEX
  8
0
 10
648.26707338
 20
755.25189066
  0
VERTEX
  8
0
 10
654.35053249
 20
751.60791302
  0
VERTEX
  8
0
 10
667.45950741
 20
759.46015804
  0
VERTEX
  8
0
 10
654.35053249
 20
767.31240305
  0
VERTEX
  8
0
 10
648.26707338
 20
763.66842541
  0
VERTEX
  8
0
 10
648.26707338
 20
755.25189066
  0
SEQEND
  0
POLYLINE
  8
�������_450�600-02
 66
   1
 39
0.000000
 70
    1
  0
VERTEX
  8
0
 10
662.80231332
 20
746.54531627
  0
VERTEX
  8
0
 10
675.91128824
 20
738.69307126
  0
VERTEX
  8
0
 10
689.02026316
 20
746.54531627
  0
VERTEX
  8
0
 10
675.91128824
 20
754.39756128
  0
VERTEX
  8
0
 10
662.80231332
 20
746.54531627
  0
SEQEND
  0
POLYLINE
  8
�������_450�600-02
 66
   1
 39
0.000000
 70
    1
  0
VERTEX
  8
0
 10
705.92382481
 20
720.71563274
  0
VERTEX
  8
0
 10
719.03279973
 20
712.86338772
  0
VERTEX
  8
0
 10
732.14177465
 20
720.71563274
  0
VERTEX
  8
0
 10
719.03279973
 20
728.56787775
  0
VERTEX
  8
0
 10
705.92382481
 20
720.71563274
  0
SEQEND
  0
POLYLINE
  8
�������_450�600-02
 66
   1
 39
0.000000
 70
    1
  0
VERTEX
  8
0
 10
684.36306907
 20
733.63047450
  0
VERTEX
  8
0
 10
697.47204399
 20
725.77822949
  0
VERTEX
  8
0
 10
710.58101891
 20
733.63047450
  0
VERTEX
  8
0
 10
697.47204399
 20
741.48271952
  0
VERTEX
  8
0
 10
684.36306907
 20
733.63047450
  0
SEQEND
  0
POLYLINE
  8
�������_450�600-02
 66
   1
 39
0.000000
 70
    1
  0
VERTEX
  8
0
 10
727.48458056
 20
707.80079097
  0
VERTEX
  8
0
 10
740.59355548
 20
699.94854596
  0
VERTEX
  8
0
 10
753.70253040
 20
707.80079097
  0
VERTEX
  8
0
 10
740.59355548
 20
715.65303598
  0
VERTEX
  8
0
 10
727.48458056
 20
707.80079097
  0
SEQEND
  0
POLYLINE
  8
�������_450�600-02
 66
   1
 39
0.000000
 70
    1
  0
VERTEX
  8
0
 10
749.04533631
 20
694.88594920
  0
VERTEX
  8
0
 10
762.15431123
 20
687.03370419
  0
VERTEX
  8
0
 10
775.26328615
 20
694.88594920
  0
VERTEX
  8
0
 10
762.15431123
 20
702.73819422
  0
VERTEX
  8
0
 10
749.04533631
 20
694.88594920
  0
SEQEND
  0
POLYLINE
  8
�������_450�600-02
 66
   1
 39
0.000000
 70
    1
  0
VERTEX
  8
0
 10
770.60609206
 20
681.97110743
  0
VERTEX
  8
0
 10
783.71506698
 20
674.11886242
  0
VERTEX
  8
0
 10
796.82404190
 20
681.97110743
  0
VERTEX
  8
0
 10
783.71506698
 20
689.82335245
  0
VERTEX
  8
0
 10
770.60609206
 20
681.97110743
  0
SEQEND
  0
POLYLINE
  8
�������_450�600-02
 66
   1
 39
0.000000
 70
    1
  0
VERTEX
  8
0
 10
792.16684781
 20
669.05626567
  0
VERTEX
  8
0
 10
805.27582273
 20
661.20402065
  0
VERTEX
  8
0
 10
818.38479765
 20
669.05626567
  0
VERTEX
  8
0
 10
805.27582273
 20
676.90851068
  0
VERTEX
  8
0
 10
792.16684781
 20
669.05626567
  0
SEQEND
  0
POLYLINE
  8
�������_450�600-02
 66
   1
 39
0.000000
 70
    1
  0
VERTEX
  8
0
 10
813.72760356
 20
656.14142390
  0
VERTEX
  8
0
 10
826.83657848
 20
648.28917889
  0
VERTEX
  8
0
 10
839.94555340
 20
656.14142390
  0
VERTEX
  8
0
 10
826.83657848
 20
663.99366891
  0
VERTEX
  8
0
 10
813.72760356
 20
656.14142390
  0
SEQEND
  0
POLYLINE
  8
�������_450�600-02
 66
   1
 39
0.000000
 70
    1
  0
VERTEX
  8
0
 10
1184.91764538
 20
656.14142390
  0
VERTEX
  8
0
 10
1171.80867046
 20
648.28917889
  0
VERTEX
  8
0
 10
1158.69969554
 20
656.14142390
  0
VERTEX
  8
0
 10
1171.80867046
 20
663.99366891
  0
VERTEX
  8
0
 10
1184.91764538
 20
656.14142390
  0
SEQEND
  0
POLYLINE
  8
�������_450�600-02
 66
   1
 39
0.000000
 70
    1
  0
VERTEX
  8
0
 10
1206.47840113
 20
669.05626567
  0
VERTEX
  8
0
 10
1193.36942621
 20
661.20402065
  0
VERTEX
  8
0
 10
1180.26045129
 20
669.05626567
  0
VERTEX
  8
0
 10
1193.36942621
 20
676.90851068
  0
VERTEX
  8
0
 10
1206.47840113
 20
669.05626567
  0
SEQEND
  0
POLYLINE
  8
�������_450�600-02
 66
   1
 39
0.000000
 70
    1
  0
VERTEX
  8
0
 10
1228.03915688
 20
681.97110743
  0
VERTEX
  8
0
 10
1214.93018196
 20
674.11886242
  0
VERTEX
  8
0
 10
1201.82120704
 20
681.97110743
  0
VERTEX
  8
0
 10
1214.93018196
 20
689.82335245
  0
VERTEX
  8
0
 10
1228.03915688
 20
681.97110743
  0
SEQEND
  0
POLYLINE
  8
�������_450�600-02
 66
   1
 39
0.000000
 70
    1
  0
VERTEX
  8
0
 10
1249.59991263
 20
694.88594920
  0
VERTEX
  8
0
 10
1236.49093771
 20
687.03370419
  0
VERTEX
  8
0
 10
1223.38196279
 20
694.88594920
  0
VERTEX
  8
0
 10
1236.49093771
 20
702.73819422
  0
VERTEX
  8
0
 10
1249.59991263
 20
694.88594920
  0
SEQEND
  0
POLYLINE
  8
�������_450�600-02
 66
   1
 39
0.000000
 70
    1
  0
VERTEX
  8
0
 10
1292.72142413
 20
720.71563274
  0
VERTEX
  8
0
 10
1279.61244921
 20
712.86338772
  0
VERTEX
  8
0
 10
1266.50347429
 20
720.71563274
  0
VERTEX
  8
0
 10
1279.61244921
 20
728.56787775
  0
VERTEX
  8
0
 10
1292.72142413
 20
720.71563274
  0
SEQEND
  0
POLYLINE
  8
�������_450�600-02
 66
   1
 39
0.000000
 70
    1
  0
VERTEX
  8
0
 10
1271.16066838
 20
707.80079097
  0
VERTEX
  8
0
 10
1258.05169346
 20
699.94854596
  0
VERTEX
  8
0
 10
1244.94271854
 20
707.80079097
  0
VERTEX
  8
0
 10
1258.05169346
 20
715.65303598
  0
VERTEX
  8
0
 10
1271.16066838
 20
707.80079097
  0
SEQEND
  0
POLYLINE
  8
�������_450�600-02
 66
   1
 39
0.000000
 70
    1
  0
VERTEX
  8
0
 10
1314.28217988
 20
733.63047450
  0
VERTEX
  8
0
 10
1301.17320496
 20
725.77822949
  0
VERTEX
  8
0
 10
1288.06423004
 20
733.63047450
  0
VERTEX
  8
0
 10
1301.17320496
 20
741.48271952
  0
VERTEX
  8
0
 10
1314.28217988
 20
733.63047450
  0
SEQEND
  0
POLYLINE
  8
�������_450�600-02
 66
   1
 39
0.000000
 70
    1
  0
VERTEX
  8
0
 10
1335.84293563
 20
746.54531627
  0
VERTEX
  8
0
 10
1322.73396071
 20
738.69307126
  0
VERTEX
  8
0
 10
1309.62498579
 20
746.54531627
  0
VERTEX
  8
0
 10
1322.73396071
 20
754.39756128
  0
VERTEX
  8
0
 10
1335.84293563
 20
746.54531627
  0
SEQEND
  0
POLYLINE
  8
�������_450�600-02
 66
   1
 39
0.000000
 70
    1
  0
VERTEX
  8
0
 10
1350.37817557
 20
755.25189066
  0
VERTEX
  8
0
 10
1344.29471645
 20
751.60791302
  0
VERTEX
  8
0
 10
1331.18574153
 20
759.46015804
  0
VERTEX
  8
0
 10
1344.29471645
 20
767.31240305
  0
VERTEX
  8
0
 10
1350.37817557
 20
763.66842541
  0
VERTEX
  8
0
 10
1350.37817557
 20
755.25189066
  0
SEQEND
  0
POLYLINE
  8
�������_450�600-02
 66
   1
 39
0.000000
 70
    1
  0
VERTEX
  8
0
 10
980.15886485
 20
989.15673406
  0
VERTEX
  8
0
 10
980.12840656
 20
998.31552370
 42
0.06075735
  0
VERTEX
  8
0
 10
957.42666422
 20
990.86466407
 42
0.06023789
  0
VERTEX
  8
0
 10
960.13336531
 20
965.17594024
 42
-0.25432607
  0
VERTEX
  8
0
 10
970.53792206
 20
977.21390380
 42
-0.29570659
  0
VERTEX
  8
0
 10
974.04402807
 20
976.06408028
 42
-0.29570659
  0
VERTEX
  8
0
 10
974.42651640
 20
972.39412440
 42
0.23690691
  0
VERTEX
  8
0
 10
971.85367260
 20
973.68566069
 42
0.23690691
  0
VERTEX
  8
0
 10
969.28082880
 20
972.39412440
 42
0.35730422
  0
VERTEX
  8
0
 10
970.96704848
 20
935.77179151
 42
-0.33811885
  0
VERTEX
  8
0
 10
989.80658025
 20
976.15501697
 42
0.24217121
  0
VERTEX
  8
0
 10
995.35290990
 20
981.68141464
 42
0.24217121
  0
VERTEX
  8
0
 10
994.08086312
 20
989.40700464
 42
0.24217121
  0
VERTEX
  8
0
 10
987.05547972
 20
992.86342357
 42
0.24217121
  0
VERTEX
  8
0
 10
980.15886485
 20
989.15673406
  0
SEQEND
  0
POLYLINE
  8
�������_450�600-02
 66
   1
 39
0.000000
 70
    1
  0
VERTEX
  8
0
 10
911.68930788
 20
920.68717709
  0
VERTEX
  8
0
 10
902.53051825
 20
920.71763539
 42
-0.06075735
  0
VERTEX
  8
0
 10
909.98137787
 20
943.41937772
 42
-0.06023789
  0
VERTEX
  8
0
 10
935.67010170
 20
940.71267663
 42
0.25432607
  0
VERTEX
  8
0
 10
923.63213815
 20
930.30811989
 42
0.29570659
  0
VERTEX
  8
0
 10
924.78196166
 20
926.80201387
 42
0.29570659
  0
VERTEX
  8
0
 10
928.45191754
 20
926.41952554
 42
-0.23690691
  0
VERTEX
  8
0
 10
927.16038126
 20
928.99236934
 42
-0.23690691
  0
VERTEX
  8
0
 10
928.45191754
 20
931.56521315
 42
-0.35730422
  0
VERTEX
  8
0
 10
965.07425044
 20
929.87899346
 42
0.33811885
  0
VERTEX
  8
0
 10
924.69102497
 20
911.03946169
 42
-0.24217121
  0
VERTEX
  8
0
 10
919.16462730
 20
905.49313205
 42
-0.24217121
  0
VERTEX
  8
0
 10
911.43903731
 20
906.76517882
 42
-0.24217121
  0
VERTEX
  8
0
 10
907.98261837
 20
913.79056222
 42
-0.24217121
  0
VERTEX
  8
0
 10
911.68930788
 20
920.68717709
  0
SEQEND
  0
POLYLINE
  8
�������_450�600-02
 66
   1
 39
0.000000
 70
    1
  0
VERTEX
  8
0
 10
999.32262447
 20
952.93119269
 42
0.32676906
  0
VERTEX
  8
0
 10
1010.17431460
 20
944.50987212
 42
0.32676906
  0
VERTEX
  8
0
 10
1021.48495435
 20
952.30392417
 42
-0.41811004
  0
VERTEX
  8
0
 10
1013.29236238
 20
927.37063511
 42
-0.33396225
  0
VERTEX
  8
0
 10
1004.44686648
 20
929.01082522
 42
-0.33396225
  0
VERTEX
  8
0
 10
1003.56497439
 20
937.96377377
 42
0.18115447
  0
VERTEX
  8
0
 10
999.32262447
 20
934.90040638
 42
0.18115447
  0
VERTEX
  8
0
 10
995.08027456
 20
937.96377377
 42
-0.33396225
  0
VERTEX
  8
0
 10
994.19838246
 20
929.01082522
 42
-0.33396225
  0
VERTEX
  8
0
 10
985.35288656
 20
927.37063511
 42
-0.41811004
  0
VERTEX
  8
0
 10
977.16029459
 20
952.30392417
 42
0.32676906
  0
VERTEX
  8
0
 10
988.47093434
 20
944.50987212
 42
0.32676906
  0
VERTEX
  8
0
 10
999.32262447
 20
952.93119269
  0
SEQEND
  0
POLYLINE
  8
�������_450�600-02
 66
   1
 39
0.000000
 70
    1
  0
VERTEX
  8
0
 10
947.91484925
 20
901.52341747
 42
0.32676906
  0
VERTEX
  8
0
 10
956.33616983
 20
912.37510761
 42
0.32676906
  0
VERTEX
  8
0
 10
948.54211777
 20
923.68574736
 42
-0.41811004
  0
VERTEX
  8
0
 10
973.47540683
 20
915.49315539
 42
-0.33396225
  0
VERTEX
  8
0
 10
971.83521672
 20
906.64765949
 42
-0.33396225
  0
VERTEX
  8
0
 10
962.88226818
 20
905.76576739
 42
0.18115447
  0
VERTEX
  8
0
 10
965.94563557
 20
901.52341747
 42
0.18115447
  0
VERTEX
  8
0
 10
962.88226818
 20
897.28106756
 42
-0.33396225
  0
VERTEX
  8
0
 10
971.83521672
 20
896.39917546
 42
-0.33396225
  0
VERTEX
  8
0
 10
973.47540683
 20
887.55367956
 42
-0.41811004
  0
VERTEX
  8
0
 10
948.54211777
 20
879.36108759
 42
0.32676906
  0
VERTEX
  8
0
 10
956.33616983
 20
890.67172734
 42
0.32676906
  0
VERTEX
  8
0
 10
947.91484925
 20
901.52341747
  0
SEQEND
  0
POLYLINE
  8
�������_450�600-02
 66
   1
 39
0.000000
 70
    1
  0
VERTEX
  8
0
 10
999.32262447
 20
850.11564225
 42
0.32676906
  0
VERTEX
  8
0
 10
988.47093434
 20
858.53696283
 42
0.32676906
  0
VERTEX
  8
0
 10
977.16029459
 20
850.74291078
 42
-0.41811004
  0
VERTEX
  8
0
 10
985.35288656
 20
875.67619983
 42
-0.33396225
  0
VERTEX
  8
0
 10
994.19838246
 20
874.03600973
 42
-0.33396225
  0
VERTEX
  8
0
 10
995.08027456
 20
865.08306118
 42
0.18115447
  0
VERTEX
  8
0
 10
999.32262447
 20
868.14642857
 42
0.18115447
  0
VERTEX
  8
0
 10
1003.56497439
 20
865.08306118
 42
-0.33396225
  0
VERTEX
  8
0
 10
1004.44686648
 20
874.03600973
 42
-0.33396225
  0
VERTEX
  8
0
 10
1013.29236238
 20
875.67619983
 42
-0.41811004
  0
VERTEX
  8
0
 10
1021.48495435
 20
850.74291078
 42
0.32676906
  0
VERTEX
  8
0
 10
1010.17431460
 20
858.53696283
 42
0.32676906
  0
VERTEX
  8
0
 10
999.32262447
 20
850.11564225
  0
SEQEND
  0
POLYLINE
  8
�������_450�600-02
 66
   1
 39
0.000000
 70
    1
  0
VERTEX
  8
0
 10
1050.73039969
 20
901.52341747
 42
0.32676906
  0
VERTEX
  8
0
 10
1042.30907911
 20
890.67172734
 42
0.32676906
  0
VERTEX
  8
0
 10
1050.10313117
 20
879.36108759
 42
-0.41811004
  0
VERTEX
  8
0
 10
1025.16984211
 20
887.55367956
 42
-0.33396225
  0
VERTEX
  8
0
 10
1026.81003222
 20
896.39917546
 42
-0.33396225
  0
VERTEX
  8
0
 10
1035.76298076
 20
897.28106756
 42
0.18115447
  0
VERTEX
  8
0
 10
1032.69961337
 20
901.52341747
 42
0.18115447
  0
VERTEX
  8
0
 10
1035.76298076
 20
905.76576739
 42
-0.33396225
  0
VERTEX
  8
0
 10
1026.81003222
 20
906.64765949
 42
-0.33396225
  0
VERTEX
  8
0
 10
1025.16984211
 20
915.49315539
 42
-0.41811004
  0
VERTEX
  8
0
 10
1050.10313117
 20
923.68574736
 42
0.32676906
  0
VERTEX
  8
0
 10
1042.30907911
 20
912.37510761
 42
0.32676906
  0
VERTEX
  8
0
 10
1050.73039969
 20
901.52341747
  0
SEQEND
  0
POLYLINE
  8
�������_450�600-02
 66
   1
 39
0.000000
 70
    1
  0
VERTEX
  8
0
 10
911.68930788
 20
882.35965786
  0
VERTEX
  8
0
 10
902.53051825
 20
882.32919956
 42
0.06075735
  0
VERTEX
  8
0
 10
909.98137787
 20
859.62745722
 42
0.06023789
  0
VERTEX
  8
0
 10
935.67010170
 20
862.33415832
 42
-0.25432607
  0
VERTEX
  8
0
 10
923.63213815
 20
872.73871506
 42
-0.29570659
  0
VERTEX
  8
0
 10
924.78196166
 20
876.24482107
 42
-0.29570659
  0
VERTEX
  8
0
 10
928.45191754
 20
876.62730941
 42
0.23690691
  0
VERTEX
  8
0
 10
927.16038126
 20
874.05446560
 42
0.23690691
  0
VERTEX
  8
0
 10
928.45191754
 20
871.48162180
 42
0.35730422
  0
VERTEX
  8
0
 10
965.07425044
 20
873.16784149
 42
-0.33811885
  0
VERTEX
  8
0
 10
924.69102497
 20
892.00737326
 42
0.24217121
  0
VERTEX
  8
0
 10
919.16462730
 20
897.55370290
 42
0.24217121
  0
VERTEX
  8
0
 10
911.43903731
 20
896.28165613
 42
0.24217121
  0
VERTEX
  8
0
 10
907.98261837
 20
889.25627273
 42
0.24217121
  0
VERTEX
  8
0
 10
911.68930788
 20
882.35965786
  0
SEQEND
  0
POLYLINE
  8
�������_450�600-02
 66
   1
 39
0.000000
 70
    1
  0
VERTEX
  8
0
 10
980.15886485
 20
813.89010088
  0
VERTEX
  8
0
 10
980.12840656
 20
804.73131125
 42
-0.06075735
  0
VERTEX
  8
0
 10
957.42666422
 20
812.18217088
 42
-0.06023789
  0
VERTEX
  8
0
 10
960.13336531
 20
837.87089471
 42
0.25432607
  0
VERTEX
  8
0
 10
970.53792206
 20
825.83293115
 42
0.29570659
  0
VERTEX
  8
0
 10
974.04402807
 20
826.98275467
 42
0.29570659
  0
VERTEX
  8
0
 10
974.42651640
 20
830.65271054
 42
-0.23690691
  0
VERTEX
  8
0
 10
971.85367260
 20
829.36117426
 42
-0.23690691
  0
VERTEX
  8
0
 10
969.28082880
 20
830.65271054
 42
-0.35730422
  0
VERTEX
  8
0
 10
970.96704848
 20
867.27504344
 42
0.33811885
  0
VERTEX
  8
0
 10
989.80658025
 20
826.89181798
 42
-0.24217121
  0
VERTEX
  8
0
 10
995.35290990
 20
821.36542030
 42
-0.24217121
  0
VERTEX
  8
0
 10
994.08086312
 20
813.63983031
 42
-0.24217121
  0
VERTEX
  8
0
 10
987.05547972
 20
810.18341138
 42
-0.24217121
  0
VERTEX
  8
0
 10
980.15886485
 20
813.89010088
  0
SEQEND
  0
POLYLINE
  8
�������_450�600-02
 66
   1
 39
0.000000
 70
    1
  0
VERTEX
  8
0
 10
1018.48638409
 20
813.89010088
  0
VERTEX
  8
0
 10
1018.51684238
 20
804.73131125
 42
0.06075735
  0
VERTEX
  8
0
 10
1041.21858472
 20
812.18217088
 42
0.06023789
  0
VERTEX
  8
0
 10
1038.51188363
 20
837.87089471
 42
-0.25432607
  0
VERTEX
  8
0
 10
1028.10732688
 20
825.83293115
 42
-0.29570659
  0
VERTEX
  8
0
 10
1024.60122087
 20
826.98275467
 42
-0.29570659
  0
VERTEX
  8
0
 10
1024.21873254
 20
830.65271054
 42
0.23690691
  0
VERTEX
  8
0
 10
1026.79157634
 20
829.36117426
 42
0.23690691
  0
VERTEX
  8
0
 10
1029.36442014
 20
830.65271054
 42
0.35730422
  0
VERTEX
  8
0
 10
1027.67820046
 20
867.27504344
 42
-0.33811885
  0
VERTEX
  8
0
 10
1008.83866869
 20
826.89181798
 42
0.24217121
  0
VERTEX
  8
0
 10
1003.29233904
 20
821.36542030
 42
0.24217121
  0
VERTEX
  8
0
 10
1004.56438582
 20
813.63983031
 42
0.24217121
  0
VERTEX
  8
0
 10
1011.58976922
 20
810.18341138
 42
0.24217121
  0
VERTEX
  8
0
 10
1018.48638409
 20
813.89010088
  0
SEQEND
  0
POLYLINE
  8
�������_450�600-02
 66
   1
 39
0.000000
 70
    1
  0
VERTEX
  8
0
 10
1086.95594106
 20
882.35965786
  0
VERTEX
  8
0
 10
1096.11473070
 20
882.32919956
 42
-0.06075735
  0
VERTEX
  8
0
 10
1088.66387107
 20
859.62745722
 42
-0.06023789
  0
VERTEX
  8
0
 10
1062.97514724
 20
862.33415832
 42
0.25432607
  0
VERTEX
  8
0
 10
1075.01311079
 20
872.73871506
 42
0.29570659
  0
VERTEX
  8
0
 10
1073.86328728
 20
876.24482107
 42
0.29570659
  0
VERTEX
  8
0
 10
1070.19333140
 20
876.62730941
 42
-0.23690691
  0
VERTEX
  8
0
 10
1071.48486768
 20
874.05446560
 42
-0.23690691
  0
VERTEX
  8
0
 10
1070.19333140
 20
871.48162180
 42
-0.35730422
  0
VERTEX
  8
0
 10
1033.57099851
 20
873.16784149
 42
0.33811885
  0
VERTEX
  8
0
 10
1073.95422397
 20
892.00737326
 42
-0.24217121
  0
VERTEX
  8
0
 10
1079.48062164
 20
897.55370290
 42
-0.24217121
  0
VERTEX
  8
0
 10
1087.20621164
 20
896.28165613
 42
-0.24217121
  0
VERTEX
  8
0
 10
1090.66263057
 20
889.25627273
 42
-0.24217121
  0
VERTEX
  8
0
 10
1086.95594106
 20
882.35965786
  0
SEQEND
  0
POLYLINE
  8
�������_450�600-02
 66
   1
 39
0.000000
 70
    1
  0
VERTEX
  8
0
 10
1086.95594106
 20
920.68717709
  0
VERTEX
  8
0
 10
1096.11473070
 20
920.71763539
 42
0.06075735
  0
VERTEX
  8
0
 10
1088.66387107
 20
943.41937772
 42
0.06023789
  0
VERTEX
  8
0
 10
1062.97514724
 20
940.71267663
 42
-0.25432607
  0
VERTEX
  8
0
 10
1075.01311079
 20
930.30811989
 42
-0.29570659
  0
VERTEX
  8
0
 10
1073.86328728
 20
926.80201387
 42
-0.29570659
  0
VERTEX
  8
0
 10
1070.19333140
 20
926.41952554
 42
0.23690691
  0
VERTEX
  8
0
 10
1071.48486768
 20
928.99236934
 42
0.23690691
  0
VERTEX
  8
0
 10
1070.19333140
 20
931.56521315
 42
0.35730422
  0
VERTEX
  8
0
 10
1033.57099851
 20
929.87899346
 42
-0.33811885
  0
VERTEX
  8
0
 10
1073.95422397
 20
911.03946169
 42
0.24217121
  0
VERTEX
  8
0
 10
1079.48062164
 20
905.49313205
 42
0.24217121
  0
VERTEX
  8
0
 10
1087.20621164
 20
906.76517882
 42
0.24217121
  0
VERTEX
  8
0
 10
1090.66263057
 20
913.79056222
 42
0.24217121
  0
VERTEX
  8
0
 10
1086.95594106
 20
920.68717709
  0
SEQEND
  0
POLYLINE
  8
�������_450�600-02
 66
   1
 39
0.000000
 70
    1
  0
VERTEX
  8
0
 10
1018.48638409
 20
989.15673406
  0
VERTEX
  8
0
 10
1018.51684238
 20
998.31552370
 42
-0.06075735
  0
VERTEX
  8
0
 10
1041.21858472
 20
990.86466407
 42
-0.06023789
  0
VERTEX
  8
0
 10
1038.51188363
 20
965.17594024
 42
0.25432607
  0
VERTEX
  8
0
 10
1028.10732688
 20
977.21390380
 42
0.29570659
  0
VERTEX
  8
0
 10
1024.60122087
 20
976.06408028
 42
0.29570659
  0
VERTEX
  8
0
 10
1024.21873254
 20
972.39412440
 42
-0.23690691
  0
VERTEX
  8
0
 10
1026.79157634
 20
973.68566069
 42
-0.23690691
  0
VERTEX
  8
0
 10
1029.36442014
 20
972.39412440
 42
-0.35730422
  0
VERTEX
  8
0
 10
1027.67820046
 20
935.77179151
 42
0.33811885
  0
VERTEX
  8
0
 10
1008.83866869
 20
976.15501697
 42
-0.24217121
  0
VERTEX
  8
0
 10
1003.29233904
 20
981.68141464
 42
-0.24217121
  0
VERTEX
  8
0
 10
1004.56438582
 20
989.40700464
 42
-0.24217121
  0
VERTEX
  8
0
 10
1011.58976922
 20
992.86342357
 42
-0.24217121
  0
VERTEX
  8
0
 10
1018.48638409
 20
989.15673406
  0
SEQEND
  0
ENDSEC
  0
EOF
