  0
SECTION
  2
ENTITIES
  0
POLYLINE
  5
3E8
  100
AcDbEntity
  8
Layer 1
  62
0
  100
AcDb2dPolyline
 66
     1
  10
0
  20
0
  30
0
  70
1
  0
VERTEX
  5
3E9
  100
AcDbEntity
  8
Layer 1
  62
0
  100
AcDb2dVertex
  10
14.60464
  20
8.72168
  30
0.00000
  42
-0.0787
  70
32
  0
VERTEX
  5
3EA
  100
AcDbEntity
  8
Layer 1
  62
0
  100
AcDb2dVertex
  10
14.89289
  20
9.21111
  30
0.00000
  42
0.2454
  70
32
  0
VERTEX
  5
3EB
  100
AcDbEntity
  8
Layer 1
  62
0
  100
AcDb2dVertex
  10
14.91533
  20
9.33238
  30
0.00000
  42
0.0510
  70
32
  0
VERTEX
  5
3EC
  100
AcDbEntity
  8
Layer 1
  62
0
  100
AcDb2dVertex
  10
14.81302
  20
9.56677
  30
0.00000
  42
-0.1179
  70
32
  0
VERTEX
  5
3ED
  100
AcDbEntity
  8
Layer 1
  62
0
  100
AcDb2dVertex
  10
14.80147
  20
9.61086
  30
0.00000
  42
-0.4545
  70
32
  0
VERTEX
  5
3EE
  100
AcDbEntity
  8
Layer 1
  62
0
  100
AcDb2dVertex
  10
14.84810
  20
9.65383
  30
0.00000
  42
-0.1358
  70
32
  0
VERTEX
  5
3EF
  100
AcDbEntity
  8
Layer 1
  62
0
  100
AcDb2dVertex
  10
14.98257
  20
9.60642
  30
0.00000
  42
0.0196
  70
32
  0
VERTEX
  5
3F0
  100
AcDbEntity
  8
Layer 1
  62
0
  100
AcDb2dVertex
  10
15.06967
  20
9.55396
  30
0.00000
  42
0.3536
  70
32
  0
VERTEX
  5
3F1
  100
AcDbEntity
  8
Layer 1
  62
0
  100
AcDb2dVertex
  10
15.09124
  20
9.56071
  30
0.00000
  42
0.2044
  70
32
  0
VERTEX
  5
3F2
  100
AcDbEntity
  8
Layer 1
  62
0
  100
AcDb2dVertex
  10
15.09787
  20
9.59622
  30
0.00000
  42
0.0130
  70
32
  0
VERTEX
  5
3F3
  100
AcDbEntity
  8
Layer 1
  62
0
  100
AcDb2dVertex
  10
15.04749
  20
9.72555
  30
0.00000
  70
32
  0
VERTEX
  5
3F4
  100
AcDbEntity
  8
Layer 1
  62
0
  100
AcDb2dVertex
  10
15.04192
  20
9.74847
  30
0.00000
  42
-0.3055
  70
32
  0
VERTEX
  5
3F5
  100
AcDbEntity
  8
Layer 1
  62
0
  100
AcDb2dVertex
  10
15.06083
  20
9.77871
  30
0.00000
  42
-0.1465
  70
32
  0
VERTEX
  5
3F6
  100
AcDbEntity
  8
Layer 1
  62
0
  100
AcDb2dVertex
  10
15.10754
  20
9.78516
  30
0.00000
  42
-0.2096
  70
32
  0
VERTEX
  5
3F7
  100
AcDbEntity
  8
Layer 1
  62
0
  100
AcDb2dVertex
  10
15.47893
  20
9.47783
  30
0.00000
  42
0.1212
  70
32
  0
VERTEX
  5
3F8
  100
AcDbEntity
  8
Layer 1
  62
0
  100
AcDb2dVertex
  10
15.54424
  20
9.40672
  30
0.00000
  42
0.0089
  70
32
  0
VERTEX
  5
3F9
  100
AcDbEntity
  8
Layer 1
  62
0
  100
AcDb2dVertex
  10
16.25482
  20
9.06644
  30
0.00000
  42
-0.1881
  70
32
  0
VERTEX
  5
3FA
  100
AcDbEntity
  8
Layer 1
  62
0
  100
AcDb2dVertex
  10
17.36994
  20
8.02828
  30
0.00000
  42
-0.1044
  70
32
  0
VERTEX
  5
3FB
  100
AcDbEntity
  8
Layer 1
  62
0
  100
AcDb2dVertex
  10
17.40445
  20
7.93476
  30
0.00000
  42
-0.2565
  70
32
  0
VERTEX
  5
3FC
  100
AcDbEntity
  8
Layer 1
  62
0
  100
AcDb2dVertex
  10
17.36728
  20
7.87424
  30
0.00000
  70
32
  0
VERTEX
  5
3FD
  100
AcDbEntity
  8
Layer 1
  62
0
  100
AcDb2dVertex
  10
17.21529
  20
7.78469
  30
0.00000
  42
0.1647
  70
32
  0
VERTEX
  5
3FE
  100
AcDbEntity
  8
Layer 1
  62
0
  100
AcDb2dVertex
  10
16.43665
  20
6.93276
  30
0.00000
  42
-0.1034
  70
32
  0
VERTEX
  5
3FF
  100
AcDbEntity
  8
Layer 1
  62
0
  100
AcDb2dVertex
  10
16.13956
  20
6.41292
  30
0.00000
  42
-0.1448
  70
32
  0
VERTEX
  5
400
  100
AcDbEntity
  8
Layer 1
  62
0
  100
AcDb2dVertex
  10
16.06814
  20
6.37553
  30
0.00000
  42
-0.3377
  70
32
  0
VERTEX
  5
401
  100
AcDbEntity
  8
Layer 1
  62
0
  100
AcDb2dVertex
  10
16.02514
  20
6.41078
  30
0.00000
  42
-0.0669
  70
32
  0
VERTEX
  5
402
  100
AcDbEntity
  8
Layer 1
  62
0
  100
AcDb2dVertex
  10
16.01934
  20
6.50264
  30
0.00000
  42
0.0146
  70
32
  0
VERTEX
  5
403
  100
AcDbEntity
  8
Layer 1
  62
0
  100
AcDb2dVertex
  10
16.01097
  20
6.88919
  30
0.00000
  42
0.1364
  70
32
  0
VERTEX
  5
404
  100
AcDbEntity
  8
Layer 1
  62
0
  100
AcDb2dVertex
  10
15.54403
  20
7.91869
  30
0.00000
  42
0.1790
  70
32
  0
VERTEX
  5
405
  100
AcDbEntity
  8
Layer 1
  62
0
  100
AcDb2dVertex
  10
15.51095
  20
7.94701
  30
0.00000
  42
0.1448
  70
32
  0
VERTEX
  5
406
  100
AcDbEntity
  8
Layer 1
  62
0
  100
AcDb2dVertex
  10
15.46407
  20
7.93864
  30
0.00000
  42
-0.0592
  70
32
  0
VERTEX
  5
407
  100
AcDbEntity
  8
Layer 1
  62
0
  100
AcDb2dVertex
  10
15.08157
  20
7.81955
  30
0.00000
  42
0.1053
  70
32
  0
VERTEX
  5
408
  100
AcDbEntity
  8
Layer 1
  62
0
  100
AcDb2dVertex
  10
14.95808
  20
7.78173
  30
0.00000
  42
-0.0499
  70
32
  0
VERTEX
  5
409
  100
AcDbEntity
  8
Layer 1
  62
0
  100
AcDb2dVertex
  10
14.64364
  20
7.54137
  30
0.00000
  70
32
  0
VERTEX
  5
40A
  100
AcDbEntity
  8
Layer 1
  62
0
  100
AcDb2dVertex
  10
14.47466
  20
7.35483
  30
0.00000
  42
-0.3883
  70
32
  0
VERTEX
  5
40B
  100
AcDbEntity
  8
Layer 1
  62
0
  100
AcDb2dVertex
  10
14.35927
  20
7.34642
  30
0.00000
  70
32
  0
VERTEX
  5
40C
  100
AcDbEntity
  8
Layer 1
  62
0
  100
AcDb2dVertex
  10
14.33910
  20
7.36786
  30
0.00000
  42
0.0179
  70
32
  0
VERTEX
  5
40D
  100
AcDbEntity
  8
Layer 1
  62
0
  100
AcDb2dVertex
  10
14.28768
  20
7.41304
  30
0.00000
  42
0.1320
  70
32
  0
VERTEX
  5
40E
  100
AcDbEntity
  8
Layer 1
  62
0
  100
AcDb2dVertex
  10
14.20550
  20
7.43113
  30
0.00000
  42
-0.2969
  70
32
  0
VERTEX
  5
40F
  100
AcDbEntity
  8
Layer 1
  62
0
  100
AcDb2dVertex
  10
13.96876
  20
7.57462
  30
0.00000
  42
-0.2969
  70
32
  0
VERTEX
  5
410
  100
AcDbEntity
  8
Layer 1
  62
0
  100
AcDb2dVertex
  10
14.00423
  20
7.84914
  30
0.00000
  42
0.0828
  70
32
  0
VERTEX
  5
411
  100
AcDbEntity
  8
Layer 1
  62
0
  100
AcDb2dVertex
  10
14.31753
  20
8.32794
  30
0.00000
  42
-0.0478
  70
32
  0
VERTEX
  5
412
  100
AcDbEntity
  8
Layer 1
  62
0
  100
AcDb2dVertex
  10
14.60464
  20
8.72168
  30
0.00000
  70
32
  0
SEQEND
  5
413
  100
AcDbEntity
  8
Layer 1
  62
0
  0
POLYLINE
  5
414
  100
AcDbEntity
  8
Layer 1
  62
0
  100
AcDb2dPolyline
 66
     1
  10
0
  20
0
  30
0
  70
1
  0
VERTEX
  5
415
  100
AcDbEntity
  8
Layer 1
  62
0
  100
AcDb2dVertex
  10
14.29827
  20
0.65496
  30
0.00000
  42
0.1548
  70
32
  0
VERTEX
  5
416
  100
AcDbEntity
  8
Layer 1
  62
0
  100
AcDb2dVertex
  10
14.56007
  20
0.73052
  30
0.00000
  42
0.1060
  70
32
  0
VERTEX
  5
417
  100
AcDbEntity
  8
Layer 1
  62
0
  100
AcDb2dVertex
  10
15.42664
  20
1.65626
  30
0.00000
  42
0.0343
  70
32
  0
VERTEX
  5
418
  100
AcDbEntity
  8
Layer 1
  62
0
  100
AcDb2dVertex
  10
16.10313
  20
2.82228
  30
0.00000
  42
0.2381
  70
32
  0
VERTEX
  5
419
  100
AcDbEntity
  8
Layer 1
  62
0
  100
AcDb2dVertex
  10
16.10344
  20
2.90603
  30
0.00000
  70
32
  0
VERTEX
  5
41A
  100
AcDbEntity
  8
Layer 1
  62
0
  100
AcDb2dVertex
  10
13.89817
  20
5.09535
  30
0.00000
  70
32
  0
VERTEX
  5
41B
  100
AcDbEntity
  8
Layer 1
  62
0
  100
AcDb2dVertex
  10
11.29998
  20
7.67741
  30
0.00000
  42
0.0350
  70
32
  0
VERTEX
  5
41C
  100
AcDbEntity
  8
Layer 1
  62
0
  100
AcDb2dVertex
  10
11.14455
  20
7.82186
  30
0.00000
  42
0.4276
  70
32
  0
VERTEX
  5
41D
  100
AcDbEntity
  8
Layer 1
  62
0
  100
AcDb2dVertex
  10
11.11693
  20
7.81934
  30
0.00000
  42
0.1279
  70
32
  0
VERTEX
  5
41E
  100
AcDbEntity
  8
Layer 1
  62
0
  100
AcDb2dVertex
  10
11.11196
  20
7.77628
  30
0.00000
  42
0.0818
  70
32
  0
VERTEX
  5
41F
  100
AcDbEntity
  8
Layer 1
  62
0
  100
AcDb2dVertex
  10
12.11405
  20
3.88014
  30
0.00000
  42
0.0642
  70
32
  0
VERTEX
  5
420
  100
AcDbEntity
  8
Layer 1
  62
0
  100
AcDb2dVertex
  10
13.58670
  20
1.22243
  30
0.00000
  42
0.1481
  70
32
  0
VERTEX
  5
421
  100
AcDbEntity
  8
Layer 1
  62
0
  100
AcDb2dVertex
  10
14.29827
  20
0.65496
  30
0.00000
  70
32
  0
SEQEND
  5
422
  100
AcDbEntity
  8
Layer 1
  62
0
  0
POLYLINE
  5
423
  100
AcDbEntity
  8
Layer 1
  62
0
  100
AcDb2dPolyline
 66
     1
  10
0
  20
0
  30
0
  70
1
  0
VERTEX
  5
424
  100
AcDbEntity
  8
Layer 1
  62
0
  100
AcDb2dVertex
  10
17.31874
  20
9.29460
  30
0.00000
  42
0.1315
  70
32
  0
VERTEX
  5
425
  100
AcDbEntity
  8
Layer 1
  62
0
  100
AcDb2dVertex
  10
16.34432
  20
9.80102
  30
0.00000
  42
0.1289
  70
32
  0
VERTEX
  5
426
  100
AcDbEntity
  8
Layer 1
  62
0
  100
AcDb2dVertex
  10
12.25035
  20
9.74481
  30
0.00000
  42
0.0306
  70
32
  0
VERTEX
  5
427
  100
AcDbEntity
  8
Layer 1
  62
0
  100
AcDb2dVertex
  10
11.89295
  20
9.59871
  30
0.00000
  42
0.2999
  70
32
  0
VERTEX
  5
428
  100
AcDbEntity
  8
Layer 1
  62
0
  100
AcDb2dVertex
  10
11.87648
  20
9.56733
  30
0.00000
  42
0.1446
  70
32
  0
VERTEX
  5
429
  100
AcDbEntity
  8
Layer 1
  62
0
  100
AcDb2dVertex
  10
11.89879
  20
9.52572
  30
0.00000
  70
32
  0
VERTEX
  5
42A
  100
AcDbEntity
  8
Layer 1
  62
0
  100
AcDb2dVertex
  10
16.84504
  20
4.61494
  30
0.00000
  42
0.3591
  70
32
  0
VERTEX
  5
42B
  100
AcDbEntity
  8
Layer 1
  62
0
  100
AcDb2dVertex
  10
16.87615
  20
4.61485
  30
0.00000
  42
0.1154
  70
32
  0
VERTEX
  5
42C
  100
AcDbEntity
  8
Layer 1
  62
0
  100
AcDb2dVertex
  10
16.89903
  20
4.65411
  30
0.00000
  42
0.0298
  70
32
  0
VERTEX
  5
42D
  100
AcDbEntity
  8
Layer 1
  62
0
  100
AcDb2dVertex
  10
17.36628
  20
6.19217
  30
0.00000
  42
0.0708
  70
32
  0
VERTEX
  5
42E
  100
AcDbEntity
  8
Layer 1
  62
0
  100
AcDb2dVertex
  10
17.59857
  20
8.28519
  30
0.00000
  42
0.1349
  70
32
  0
VERTEX
  5
42F
  100
AcDbEntity
  8
Layer 1
  62
0
  100
AcDb2dVertex
  10
17.31874
  20
9.29460
  30
0.00000
  70
32
  0
SEQEND
  5
430
  100
AcDbEntity
  8
Layer 1
  62
0
  0
POLYLINE
  5
431
  100
AcDbEntity
  8
Layer 1
  62
0
  100
AcDb2dPolyline
 66
     1
  10
0
  20
0
  30
0
  70
1
  0
VERTEX
  5
432
  100
AcDbEntity
  8
Layer 1
  62
0
  100
AcDb2dVertex
  10
17.63914
  20
9.20039
  30
0.00000
  42
-0.1241
  70
32
  0
VERTEX
  5
433
  100
AcDbEntity
  8
Layer 1
  62
0
  100
AcDb2dVertex
  10
17.79588
  20
7.28110
  30
0.00000
  42
-0.1030
  70
32
  0
VERTEX
  5
434
  100
AcDbEntity
  8
Layer 1
  62
0
  100
AcDb2dVertex
  10
15.67423
  20
1.61343
  30
0.00000
  42
-0.0818
  70
32
  0
VERTEX
  5
435
  100
AcDbEntity
  8
Layer 1
  62
0
  100
AcDb2dVertex
  10
14.77772
  20
0.59566
  30
0.00000
  42
-0.3276
  70
32
  0
VERTEX
  5
436
  100
AcDbEntity
  8
Layer 1
  62
0
  100
AcDb2dVertex
  10
14.03621
  20
0.51221
  30
0.00000
  42
-0.1027
  70
32
  0
VERTEX
  5
437
  100
AcDbEntity
  8
Layer 1
  62
0
  100
AcDb2dVertex
  10
13.12145
  20
1.46419
  30
0.00000
  42
-0.0898
  70
32
  0
VERTEX
  5
438
  100
AcDbEntity
  8
Layer 1
  62
0
  100
AcDb2dVertex
  10
11.04472
  20
6.53911
  30
0.00000
  42
-0.0974
  70
32
  0
VERTEX
  5
439
  100
AcDbEntity
  8
Layer 1
  62
0
  100
AcDb2dVertex
  10
10.94563
  20
8.67479
  30
0.00000
  42
-0.2649
  70
32
  0
VERTEX
  5
43A
  100
AcDbEntity
  8
Layer 1
  62
0
  100
AcDb2dVertex
  10
11.72279
  20
9.77017
  30
0.00000
  42
-0.0937
  70
32
  0
VERTEX
  5
43B
  100
AcDbEntity
  8
Layer 1
  62
0
  100
AcDb2dVertex
  10
13.73019
  20
10.24109
  30
0.00000
  42
-0.1028
  70
32
  0
VERTEX
  5
43C
  100
AcDbEntity
  8
Layer 1
  62
0
  100
AcDb2dVertex
  10
16.82447
  20
9.87928
  30
0.00000
  42
-0.1985
  70
32
  0
VERTEX
  5
43D
  100
AcDbEntity
  8
Layer 1
  62
0
  100
AcDb2dVertex
  10
17.63914
  20
9.20039
  30
0.00000
  70
32
  0
SEQEND
  5
43E
  100
AcDbEntity
  8
Layer 1
  62
0
  0
POLYLINE
  5
43F
  100
AcDbEntity
  8
Layer 1
  62
0
  100
AcDb2dPolyline
 66
     1
  10
0
  20
0
  30
0
  70
1
  0
VERTEX
  5
440
  100
AcDbEntity
  8
Layer 1
  62
0
  100
AcDb2dVertex
  10
4.85860
  20
6.14266
  30
0.00000
  42
-0.0709
  70
32
  0
VERTEX
  5
441
  100
AcDbEntity
  8
Layer 1
  62
0
  100
AcDb2dVertex
  10
4.74936
  20
6.14848
  30
0.00000
  42
-0.2965
  70
32
  0
VERTEX
  5
442
  100
AcDbEntity
  8
Layer 1
  62
0
  100
AcDb2dVertex
  10
4.70753
  20
6.20760
  30
0.00000
  42
-0.0222
  70
32
  0
VERTEX
  5
443
  100
AcDbEntity
  8
Layer 1
  62
0
  100
AcDb2dVertex
  10
4.70677
  20
6.27572
  30
0.00000
  42
-0.1657
  70
32
  0
VERTEX
  5
444
  100
AcDbEntity
  8
Layer 1
  62
0
  100
AcDb2dVertex
  10
4.72602
  20
6.32315
  30
0.00000
  70
32
  0
VERTEX
  5
445
  100
AcDbEntity
  8
Layer 1
  62
0
  100
AcDb2dVertex
  10
4.74479
  20
6.33260
  30
0.00000
  70
32
  0
VERTEX
  5
446
  100
AcDbEntity
  8
Layer 1
  62
0
  100
AcDb2dVertex
  10
4.80436
  20
6.35316
  30
0.00000
  42
0.2773
  70
32
  0
VERTEX
  5
447
  100
AcDbEntity
  8
Layer 1
  62
0
  100
AcDb2dVertex
  10
4.83799
  20
6.40399
  30
0.00000
  42
0.0075
  70
32
  0
VERTEX
  5
448
  100
AcDbEntity
  8
Layer 1
  62
0
  100
AcDb2dVertex
  10
4.83799
  20
7.15581
  30
0.00000
  42
0.2486
  70
32
  0
VERTEX
  5
449
  100
AcDbEntity
  8
Layer 1
  62
0
  100
AcDb2dVertex
  10
4.80566
  20
7.21304
  30
0.00000
  70
32
  0
VERTEX
  5
44A
  100
AcDbEntity
  8
Layer 1
  62
0
  100
AcDb2dVertex
  10
4.78537
  20
7.21878
  30
0.00000
  42
0.0344
  70
32
  0
VERTEX
  5
44B
  100
AcDbEntity
  8
Layer 1
  62
0
  100
AcDb2dVertex
  10
4.74609
  20
7.23145
  30
0.00000
  42
-0.3086
  70
32
  0
VERTEX
  5
44C
  100
AcDbEntity
  8
Layer 1
  62
0
  100
AcDb2dVertex
  10
4.70739
  20
7.28430
  30
0.00000
  42
-0.0214
  70
32
  0
VERTEX
  5
44D
  100
AcDbEntity
  8
Layer 1
  62
0
  100
AcDb2dVertex
  10
4.70623
  20
7.35157
  30
0.00000
  42
-0.1484
  70
32
  0
VERTEX
  5
44E
  100
AcDbEntity
  8
Layer 1
  62
0
  100
AcDb2dVertex
  10
4.72540
  20
7.40326
  30
0.00000
  42
0.0506
  70
32
  0
VERTEX
  5
44F
  100
AcDbEntity
  8
Layer 1
  62
0
  100
AcDb2dVertex
  10
4.84055
  20
7.51411
  30
0.00000
  42
-0.2380
  70
32
  0
VERTEX
  5
450
  100
AcDbEntity
  8
Layer 1
  62
0
  100
AcDb2dVertex
  10
4.91037
  20
7.55487
  30
0.00000
  42
0.0247
  70
32
  0
VERTEX
  5
451
  100
AcDbEntity
  8
Layer 1
  62
0
  100
AcDb2dVertex
  10
4.97966
  20
7.55572
  30
0.00000
  70
32
  0
VERTEX
  5
452
  100
AcDbEntity
  8
Layer 1
  62
0
  100
AcDb2dVertex
  10
5.00944
  20
7.54981
  30
0.00000
  42
-0.2953
  70
32
  0
VERTEX
  5
453
  100
AcDbEntity
  8
Layer 1
  62
0
  100
AcDb2dVertex
  10
5.05213
  20
7.48567
  30
0.00000
  42
-0.0103
  70
32
  0
VERTEX
  5
454
  100
AcDbEntity
  8
Layer 1
  62
0
  100
AcDb2dVertex
  10
5.05660
  20
7.09310
  30
0.00000
  70
32
  0
VERTEX
  5
455
  100
AcDbEntity
  8
Layer 1
  62
0
  100
AcDb2dVertex
  10
5.05678
  20
6.47185
  30
0.00000
  42
0.0824
  70
32
  0
VERTEX
  5
456
  100
AcDbEntity
  8
Layer 1
  62
0
  100
AcDb2dVertex
  10
5.06310
  20
6.38169
  30
0.00000
  42
0.2064
  70
32
  0
VERTEX
  5
457
  100
AcDbEntity
  8
Layer 1
  62
0
  100
AcDb2dVertex
  10
5.08617
  20
6.35316
  30
0.00000
  42
0.0215
  70
32
  0
VERTEX
  5
458
  100
AcDbEntity
  8
Layer 1
  62
0
  100
AcDb2dVertex
  10
5.18483
  20
6.33305
  30
0.00000
  42
-0.2921
  70
32
  0
VERTEX
  5
459
  100
AcDbEntity
  8
Layer 1
  62
0
  100
AcDb2dVertex
  10
5.22035
  20
6.27518
  30
0.00000
  42
0.0233
  70
32
  0
VERTEX
  5
45A
  100
AcDbEntity
  8
Layer 1
  62
0
  100
AcDb2dVertex
  10
5.22035
  20
6.20903
  30
0.00000
  42
-0.1696
  70
32
  0
VERTEX
  5
45B
  100
AcDbEntity
  8
Layer 1
  62
0
  100
AcDb2dVertex
  10
5.20320
  20
6.16263
  30
0.00000
  42
-0.1672
  70
32
  0
VERTEX
  5
45C
  100
AcDbEntity
  8
Layer 1
  62
0
  100
AcDb2dVertex
  10
5.15572
  20
6.14543
  30
0.00000
  42
-0.0121
  70
32
  0
VERTEX
  5
45D
  100
AcDbEntity
  8
Layer 1
  62
0
  100
AcDb2dVertex
  10
4.85860
  20
6.14266
  30
0.00000
  70
32
  0
SEQEND
  5
45E
  100
AcDbEntity
  8
Layer 1
  62
0
  0
POLYLINE
  5
45F
  100
AcDbEntity
  8
Layer 1
  62
0
  100
AcDb2dPolyline
 66
     1
  10
0
  20
0
  30
0
  70
1
  0
VERTEX
  5
460
  100
AcDbEntity
  8
Layer 1
  62
0
  100
AcDb2dVertex
  10
7.25113
  20
4.53432
  30
0.00000
  42
0.0052
  70
32
  0
VERTEX
  5
461
  100
AcDbEntity
  8
Layer 1
  62
0
  100
AcDb2dVertex
  10
7.25252
  20
4.20701
  30
0.00000
  42
0.3694
  70
32
  0
VERTEX
  5
462
  100
AcDbEntity
  8
Layer 1
  62
0
  100
AcDb2dVertex
  10
7.35826
  20
4.11922
  30
0.00000
  42
0.3372
  70
32
  0
VERTEX
  5
463
  100
AcDbEntity
  8
Layer 1
  62
0
  100
AcDb2dVertex
  10
7.38433
  20
4.16558
  30
0.00000
  42
0.0118
  70
32
  0
VERTEX
  5
464
  100
AcDbEntity
  8
Layer 1
  62
0
  100
AcDb2dVertex
  10
7.38442
  20
4.60145
  30
0.00000
  42
0.1600
  70
32
  0
VERTEX
  5
465
  100
AcDbEntity
  8
Layer 1
  62
0
  100
AcDb2dVertex
  10
7.37062
  20
4.63854
  30
0.00000
  70
32
  0
VERTEX
  5
466
  100
AcDbEntity
  8
Layer 1
  62
0
  100
AcDb2dVertex
  10
7.35535
  20
4.64700
  30
0.00000
  42
0.1687
  70
32
  0
VERTEX
  5
467
  100
AcDbEntity
  8
Layer 1
  62
0
  100
AcDb2dVertex
  10
7.28123
  20
4.64656
  30
0.00000
  42
0.2741
  70
32
  0
VERTEX
  5
468
  100
AcDbEntity
  8
Layer 1
  62
0
  100
AcDb2dVertex
  10
7.25731
  20
4.62286
  30
0.00000
  42
0.0877
  70
32
  0
VERTEX
  5
469
  100
AcDbEntity
  8
Layer 1
  62
0
  100
AcDb2dVertex
  10
7.25113
  20
4.53432
  30
0.00000
  70
32
  0
SEQEND
  5
46A
  100
AcDbEntity
  8
Layer 1
  62
0
  0
POLYLINE
  5
46B
  100
AcDbEntity
  8
Layer 1
  62
0
  100
AcDb2dPolyline
 66
     1
  10
0
  20
0
  30
0
  70
1
  0
VERTEX
  5
46C
  100
AcDbEntity
  8
Layer 1
  62
0
  100
AcDb2dVertex
  10
7.40820
  20
4.67871
  30
0.00000
  42
-0.1515
  70
32
  0
VERTEX
  5
46D
  100
AcDbEntity
  8
Layer 1
  62
0
  100
AcDb2dVertex
  10
7.45026
  20
4.18322
  30
0.00000
  42
-0.3171
  70
32
  0
VERTEX
  5
46E
  100
AcDbEntity
  8
Layer 1
  62
0
  100
AcDb2dVertex
  10
7.34415
  20
4.06095
  30
0.00000
  42
-0.1957
  70
32
  0
VERTEX
  5
46F
  100
AcDbEntity
  8
Layer 1
  62
0
  100
AcDb2dVertex
  10
7.27496
  20
4.07058
  30
0.00000
  42
-0.1740
  70
32
  0
VERTEX
  5
470
  100
AcDbEntity
  8
Layer 1
  62
0
  100
AcDb2dVertex
  10
7.21709
  20
4.11488
  30
0.00000
  70
32
  0
VERTEX
  5
471
  100
AcDbEntity
  8
Layer 1
  62
0
  100
AcDb2dVertex
  10
7.20894
  20
4.18694
  30
0.00000
  42
-0.0165
  70
32
  0
VERTEX
  5
472
  100
AcDbEntity
  8
Layer 1
  62
0
  100
AcDb2dVertex
  10
7.21073
  20
4.61986
  30
0.00000
  42
-0.3456
  70
32
  0
VERTEX
  5
473
  100
AcDbEntity
  8
Layer 1
  62
0
  100
AcDb2dVertex
  10
7.28636
  20
4.72680
  30
0.00000
  42
-0.3456
  70
32
  0
VERTEX
  5
474
  100
AcDbEntity
  8
Layer 1
  62
0
  100
AcDb2dVertex
  10
7.40820
  20
4.67871
  30
0.00000
  70
32
  0
SEQEND
  5
475
  100
AcDbEntity
  8
Layer 1
  62
0
  0
POLYLINE
  5
476
  100
AcDbEntity
  8
Layer 1
  62
0
  100
AcDb2dPolyline
 66
     1
  10
0
  20
0
  30
0
  70
1
  0
VERTEX
  5
477
  100
AcDbEntity
  8
Layer 1
  62
0
  100
AcDb2dVertex
  10
2.59402
  20
4.23249
  30
0.00000
  42
0.0072
  70
32
  0
VERTEX
  5
478
  100
AcDbEntity
  8
Layer 1
  62
0
  100
AcDb2dVertex
  10
2.59178
  20
4.60141
  30
0.00000
  42
0.1595
  70
32
  0
VERTEX
  5
479
  100
AcDbEntity
  8
Layer 1
  62
0
  100
AcDb2dVertex
  10
2.57812
  20
4.63831
  30
0.00000
  42
0.2910
  70
32
  0
VERTEX
  5
47A
  100
AcDbEntity
  8
Layer 1
  62
0
  100
AcDb2dVertex
  10
2.47377
  20
4.63827
  30
0.00000
  42
0.1602
  70
32
  0
VERTEX
  5
47B
  100
AcDbEntity
  8
Layer 1
  62
0
  100
AcDb2dVertex
  10
2.46033
  20
4.60141
  30
0.00000
  42
0.0075
  70
32
  0
VERTEX
  5
47C
  100
AcDbEntity
  8
Layer 1
  62
0
  100
AcDb2dVertex
  10
2.45818
  20
4.19160
  30
0.00000
  70
32
  0
VERTEX
  5
47D
  100
AcDbEntity
  8
Layer 1
  62
0
  100
AcDb2dVertex
  10
2.46306
  20
4.14220
  30
0.00000
  42
0.2352
  70
32
  0
VERTEX
  5
47E
  100
AcDbEntity
  8
Layer 1
  62
0
  100
AcDb2dVertex
  10
2.48877
  20
4.12177
  30
0.00000
  42
0.1216
  70
32
  0
VERTEX
  5
47F
  100
AcDbEntity
  8
Layer 1
  62
0
  100
AcDb2dVertex
  10
2.56303
  20
4.12177
  30
0.00000
  42
0.2812
  70
32
  0
VERTEX
  5
480
  100
AcDbEntity
  8
Layer 1
  62
0
  100
AcDb2dVertex
  10
2.58726
  20
4.14435
  30
0.00000
  42
0.0917
  70
32
  0
VERTEX
  5
481
  100
AcDbEntity
  8
Layer 1
  62
0
  100
AcDb2dVertex
  10
2.59402
  20
4.23249
  30
0.00000
  70
32
  0
SEQEND
  5
482
  100
AcDbEntity
  8
Layer 1
  62
0
  0
POLYLINE
  5
483
  100
AcDbEntity
  8
Layer 1
  62
0
  100
AcDb2dPolyline
 66
     1
  10
0
  20
0
  30
0
  70
1
  0
VERTEX
  5
484
  100
AcDbEntity
  8
Layer 1
  62
0
  100
AcDb2dVertex
  10
2.63536
  20
4.22985
  30
0.00000
  42
-0.0961
  70
32
  0
VERTEX
  5
485
  100
AcDbEntity
  8
Layer 1
  62
0
  100
AcDb2dVertex
  10
2.62529
  20
4.11770
  30
0.00000
  42
-0.2103
  70
32
  0
VERTEX
  5
486
  100
AcDbEntity
  8
Layer 1
  62
0
  100
AcDb2dVertex
  10
2.59362
  20
4.08129
  30
0.00000
  42
-0.0262
  70
32
  0
VERTEX
  5
487
  100
AcDbEntity
  8
Layer 1
  62
0
  100
AcDb2dVertex
  10
2.55165
  20
4.06118
  30
0.00000
  42
-0.1961
  70
32
  0
VERTEX
  5
488
  100
AcDbEntity
  8
Layer 1
  62
0
  100
AcDb2dVertex
  10
2.48259
  20
4.07072
  30
0.00000
  42
-0.1739
  70
32
  0
VERTEX
  5
489
  100
AcDbEntity
  8
Layer 1
  62
0
  100
AcDb2dVertex
  10
2.42459
  20
4.11492
  30
0.00000
  70
32
  0
VERTEX
  5
48A
  100
AcDbEntity
  8
Layer 1
  62
0
  100
AcDb2dVertex
  10
2.41680
  20
4.18694
  30
0.00000
  42
-0.0146
  70
32
  0
VERTEX
  5
48B
  100
AcDbEntity
  8
Layer 1
  62
0
  100
AcDb2dVertex
  10
2.41863
  20
4.61986
  30
0.00000
  42
-0.4188
  70
32
  0
VERTEX
  5
48C
  100
AcDbEntity
  8
Layer 1
  62
0
  100
AcDb2dVertex
  10
2.52579
  20
4.72875
  30
0.00000
  42
-0.4188
  70
32
  0
VERTEX
  5
48D
  100
AcDbEntity
  8
Layer 1
  62
0
  100
AcDb2dVertex
  10
2.63299
  20
4.61991
  30
0.00000
  42
-0.0121
  70
32
  0
VERTEX
  5
48E
  100
AcDbEntity
  8
Layer 1
  62
0
  100
AcDb2dVertex
  10
2.63536
  20
4.22985
  30
0.00000
  70
32
  0
SEQEND
  5
48F
  100
AcDbEntity
  8
Layer 1
  62
0
  0
POLYLINE
  5
490
  100
AcDbEntity
  8
Layer 1
  62
0
  100
AcDb2dPolyline
 66
     1
  10
0
  20
0
  30
0
  70
1
  0
VERTEX
  5
491
  100
AcDbEntity
  8
Layer 1
  62
0
  100
AcDb2dVertex
  10
5.54435
  20
3.57841
  30
0.00000
  42
0.2003
  70
32
  0
VERTEX
  5
492
  100
AcDbEntity
  8
Layer 1
  62
0
  100
AcDb2dVertex
  10
5.61802
  20
3.62615
  30
0.00000
  42
0.2641
  70
32
  0
VERTEX
  5
493
  100
AcDbEntity
  8
Layer 1
  62
0
  100
AcDb2dVertex
  10
5.61762
  20
3.66194
  30
0.00000
  42
0.2615
  70
32
  0
VERTEX
  5
494
  100
AcDbEntity
  8
Layer 1
  62
0
  100
AcDb2dVertex
  10
5.51443
  20
3.71111
  30
0.00000
  42
0.0058
  70
32
  0
VERTEX
  5
495
  100
AcDbEntity
  8
Layer 1
  62
0
  100
AcDb2dVertex
  10
5.21901
  20
3.71161
  30
0.00000
  42
0.0559
  70
32
  0
VERTEX
  5
496
  100
AcDbEntity
  8
Layer 1
  62
0
  100
AcDb2dVertex
  10
5.13033
  20
3.70529
  30
0.00000
  42
0.2338
  70
32
  0
VERTEX
  5
497
  100
AcDbEntity
  8
Layer 1
  62
0
  100
AcDb2dVertex
  10
5.10610
  20
3.68137
  30
0.00000
  42
0.1754
  70
32
  0
VERTEX
  5
498
  100
AcDbEntity
  8
Layer 1
  62
0
  100
AcDb2dVertex
  10
5.10542
  20
3.60716
  30
0.00000
  42
0.2153
  70
32
  0
VERTEX
  5
499
  100
AcDbEntity
  8
Layer 1
  62
0
  100
AcDb2dVertex
  10
5.12795
  20
3.58109
  30
0.00000
  42
0.0870
  70
32
  0
VERTEX
  5
49A
  100
AcDbEntity
  8
Layer 1
  62
0
  100
AcDb2dVertex
  10
5.21901
  20
3.57576
  30
0.00000
  42
0.0097
  70
32
  0
VERTEX
  5
49B
  100
AcDbEntity
  8
Layer 1
  62
0
  100
AcDb2dVertex
  10
5.54435
  20
3.57841
  30
0.00000
  70
32
  0
SEQEND
  5
49C
  100
AcDbEntity
  8
Layer 1
  62
0
  0
POLYLINE
  5
49D
  100
AcDbEntity
  8
Layer 1
  62
0
  100
AcDb2dPolyline
 66
     1
  10
0
  20
0
  30
0
  70
1
  0
VERTEX
  5
49E
  100
AcDbEntity
  8
Layer 1
  62
0
  100
AcDb2dVertex
  10
5.09893
  20
3.74735
  30
0.00000
  42
-0.0277
  70
32
  0
VERTEX
  5
49F
  100
AcDbEntity
  8
Layer 1
  62
0
  100
AcDb2dVertex
  10
5.56714
  20
3.75178
  30
0.00000
  42
-0.3581
  70
32
  0
VERTEX
  5
4A0
  100
AcDbEntity
  8
Layer 1
  62
0
  100
AcDb2dVertex
  10
5.67907
  20
3.65987
  30
0.00000
  42
-0.0780
  70
32
  0
VERTEX
  5
4A1
  100
AcDbEntity
  8
Layer 1
  62
0
  100
AcDb2dVertex
  10
5.67101
  20
3.57926
  30
0.00000
  42
-0.2773
  70
32
  0
VERTEX
  5
4A2
  100
AcDbEntity
  8
Layer 1
  62
0
  100
AcDb2dVertex
  10
5.60548
  20
3.53810
  30
0.00000
  42
-0.0081
  70
32
  0
VERTEX
  5
4A3
  100
AcDbEntity
  8
Layer 1
  62
0
  100
AcDb2dVertex
  10
5.13619
  20
3.53442
  30
0.00000
  42
-0.3813
  70
32
  0
VERTEX
  5
4A4
  100
AcDbEntity
  8
Layer 1
  62
0
  100
AcDb2dVertex
  10
5.02467
  20
3.61961
  30
0.00000
  42
-0.4355
  70
32
  0
VERTEX
  5
4A5
  100
AcDbEntity
  8
Layer 1
  62
0
  100
AcDb2dVertex
  10
5.09893
  20
3.74735
  30
0.00000
  70
32
  0
SEQEND
  5
4A6
  100
AcDbEntity
  8
Layer 1
  62
0
  0
POLYLINE
  5
4A7
  100
AcDbEntity
  8
Layer 1
  62
0
  100
AcDb2dPolyline
 66
     1
  10
0
  20
0
  30
0
  70
1
  0
VERTEX
  5
4A8
  100
AcDbEntity
  8
Layer 1
  62
0
  100
AcDb2dVertex
  10
4.29978
  20
3.70954
  30
0.00000
  42
0.1757
  70
32
  0
VERTEX
  5
4A9
  100
AcDbEntity
  8
Layer 1
  62
0
  100
AcDb2dVertex
  10
4.22323
  20
3.66279
  30
0.00000
  42
0.3030
  70
32
  0
VERTEX
  5
4AA
  100
AcDbEntity
  8
Layer 1
  62
0
  100
AcDb2dVertex
  10
4.22310
  20
3.62575
  30
0.00000
  42
0.2219
  70
32
  0
VERTEX
  5
4AB
  100
AcDbEntity
  8
Layer 1
  62
0
  100
AcDb2dVertex
  10
4.32710
  20
3.57603
  30
0.00000
  70
32
  0
VERTEX
  5
4AC
  100
AcDbEntity
  8
Layer 1
  62
0
  100
AcDb2dVertex
  10
4.41054
  20
3.57603
  30
0.00000
  42
0.0087
  70
32
  0
VERTEX
  5
4AD
  100
AcDbEntity
  8
Layer 1
  62
0
  100
AcDb2dVertex
  10
4.69234
  20
3.57827
  30
0.00000
  42
0.2888
  70
32
  0
VERTEX
  5
4AE
  100
AcDbEntity
  8
Layer 1
  62
0
  100
AcDb2dVertex
  10
4.73910
  20
3.60725
  30
0.00000
  42
0.1819
  70
32
  0
VERTEX
  5
4AF
  100
AcDbEntity
  8
Layer 1
  62
0
  100
AcDb2dVertex
  10
4.73883
  20
3.68142
  30
0.00000
  70
32
  0
VERTEX
  5
4B0
  100
AcDbEntity
  8
Layer 1
  62
0
  100
AcDb2dVertex
  10
4.72979
  20
3.69656
  30
0.00000
  42
0.1554
  70
32
  0
VERTEX
  5
4B1
  100
AcDbEntity
  8
Layer 1
  62
0
  100
AcDb2dVertex
  10
4.69230
  20
3.71004
  30
0.00000
  42
0.0133
  70
32
  0
VERTEX
  5
4B2
  100
AcDbEntity
  8
Layer 1
  62
0
  100
AcDb2dVertex
  10
4.29978
  20
3.70954
  30
0.00000
  70
32
  0
SEQEND
  5
4B3
  100
AcDbEntity
  8
Layer 1
  62
0
  0
POLYLINE
  5
4B4
  100
AcDbEntity
  8
Layer 1
  62
0
  100
AcDb2dPolyline
 66
     1
  10
0
  20
0
  30
0
  70
1
  0
VERTEX
  5
4B5
  100
AcDbEntity
  8
Layer 1
  62
0
  100
AcDb2dVertex
  10
4.17177
  20
3.71093
  30
0.00000
  42
-0.2893
  70
32
  0
VERTEX
  5
4B6
  100
AcDbEntity
  8
Layer 1
  62
0
  100
AcDb2dVertex
  10
4.23631
  20
3.75178
  30
0.00000
  42
-0.0160
  70
32
  0
VERTEX
  5
4B7
  100
AcDbEntity
  8
Layer 1
  62
0
  100
AcDb2dVertex
  10
4.71075
  20
3.75174
  30
0.00000
  42
-0.4218
  70
32
  0
VERTEX
  5
4B8
  100
AcDbEntity
  8
Layer 1
  62
0
  100
AcDb2dVertex
  10
4.82079
  20
3.64460
  30
0.00000
  42
-0.4218
  70
32
  0
VERTEX
  5
4B9
  100
AcDbEntity
  8
Layer 1
  62
0
  100
AcDb2dVertex
  10
4.71084
  20
3.53738
  30
0.00000
  42
-0.0134
  70
32
  0
VERTEX
  5
4BA
  100
AcDbEntity
  8
Layer 1
  62
0
  100
AcDb2dVertex
  10
4.24043
  20
3.53671
  30
0.00000
  42
-0.4056
  70
32
  0
VERTEX
  5
4BB
  100
AcDbEntity
  8
Layer 1
  62
0
  100
AcDb2dVertex
  10
4.16635
  20
3.60635
  30
0.00000
  42
-0.1158
  70
32
  0
VERTEX
  5
4BC
  100
AcDbEntity
  8
Layer 1
  62
0
  100
AcDb2dVertex
  10
4.17177
  20
3.71093
  30
0.00000
  70
32
  0
SEQEND
  5
4BD
  100
AcDbEntity
  8
Layer 1
  62
0
  0
POLYLINE
  5
4BE
  100
AcDbEntity
  8
Layer 1
  62
0
  100
AcDb2dPolyline
 66
     1
  10
0
  20
0
  30
0
  70
1
  0
VERTEX
  5
4BF
  100
AcDbEntity
  8
Layer 1
  62
0
  100
AcDb2dVertex
  10
3.63463
  20
3.70507
  30
0.00000
  42
0.0865
  70
32
  0
VERTEX
  5
4C0
  100
AcDbEntity
  8
Layer 1
  62
0
  100
AcDb2dVertex
  10
3.45839
  20
3.60828
  30
0.00000
  42
0.4249
  70
32
  0
VERTEX
  5
4C1
  100
AcDbEntity
  8
Layer 1
  62
0
  100
AcDb2dVertex
  10
3.45942
  20
3.58790
  30
0.00000
  42
0.1803
  70
32
  0
VERTEX
  5
4C2
  100
AcDbEntity
  8
Layer 1
  62
0
  100
AcDb2dVertex
  10
3.49144
  20
3.57693
  30
0.00000
  42
0.0102
  70
32
  0
VERTEX
  5
4C3
  100
AcDbEntity
  8
Layer 1
  62
0
  100
AcDb2dVertex
  10
3.80384
  20
3.57800
  30
0.00000
  42
0.0934
  70
32
  0
VERTEX
  5
4C4
  100
AcDbEntity
  8
Layer 1
  62
0
  100
AcDb2dVertex
  10
3.86269
  20
3.58674
  30
0.00000
  42
0.2311
  70
32
  0
VERTEX
  5
4C5
  100
AcDbEntity
  8
Layer 1
  62
0
  100
AcDb2dVertex
  10
3.88746
  20
3.61352
  30
0.00000
  42
0.1068
  70
32
  0
VERTEX
  5
4C6
  100
AcDbEntity
  8
Layer 1
  62
0
  100
AcDb2dVertex
  10
3.88558
  20
3.67887
  30
0.00000
  42
0.2280
  70
32
  0
VERTEX
  5
4C7
  100
AcDbEntity
  8
Layer 1
  62
0
  100
AcDb2dVertex
  10
3.85875
  20
3.70336
  30
0.00000
  42
0.0938
  70
32
  0
VERTEX
  5
4C8
  100
AcDbEntity
  8
Layer 1
  62
0
  100
AcDb2dVertex
  10
3.75851
  20
3.71071
  30
0.00000
  42
0.0199
  70
32
  0
VERTEX
  5
4C9
  100
AcDbEntity
  8
Layer 1
  62
0
  100
AcDb2dVertex
  10
3.63463
  20
3.70507
  30
0.00000
  70
32
  0
SEQEND
  5
4CA
  100
AcDbEntity
  8
Layer 1
  62
0
  0
POLYLINE
  5
4CB
  100
AcDbEntity
  8
Layer 1
  62
0
  100
AcDb2dPolyline
 66
     1
  10
0
  20
0
  30
0
  70
1
  0
VERTEX
  5
4CC
  100
AcDbEntity
  8
Layer 1
  62
0
  100
AcDb2dVertex
  10
6.06998
  20
3.57581
  30
0.00000
  42
0.0078
  70
32
  0
VERTEX
  5
4CD
  100
AcDbEntity
  8
Layer 1
  62
0
  100
AcDb2dVertex
  10
6.43876
  20
3.57823
  30
0.00000
  42
0.2835
  70
32
  0
VERTEX
  5
4CE
  100
AcDbEntity
  8
Layer 1
  62
0
  100
AcDb2dVertex
  10
6.48324
  20
3.60577
  30
0.00000
  70
32
  0
VERTEX
  5
4CF
  100
AcDbEntity
  8
Layer 1
  62
0
  100
AcDb2dVertex
  10
6.48593
  20
3.62333
  30
0.00000
  42
0.3581
  70
32
  0
VERTEX
  5
4D0
  100
AcDbEntity
  8
Layer 1
  62
0
  100
AcDb2dVertex
  10
6.36545
  20
3.71111
  30
0.00000
  42
0.0207
  70
32
  0
VERTEX
  5
4D1
  100
AcDbEntity
  8
Layer 1
  62
0
  100
AcDb2dVertex
  10
5.97951
  20
3.70699
  30
0.00000
  42
0.2399
  70
32
  0
VERTEX
  5
4D2
  100
AcDbEntity
  8
Layer 1
  62
0
  100
AcDb2dVertex
  10
5.95810
  20
3.68142
  30
0.00000
  42
0.1667
  70
32
  0
VERTEX
  5
4D3
  100
AcDbEntity
  8
Layer 1
  62
0
  100
AcDb2dVertex
  10
5.95761
  20
3.60725
  30
0.00000
  42
0.2315
  70
32
  0
VERTEX
  5
4D4
  100
AcDbEntity
  8
Layer 1
  62
0
  100
AcDb2dVertex
  10
5.97928
  20
3.58132
  30
0.00000
  42
0.0884
  70
32
  0
VERTEX
  5
4D5
  100
AcDbEntity
  8
Layer 1
  62
0
  100
AcDb2dVertex
  10
6.06998
  20
3.57581
  30
0.00000
  70
32
  0
SEQEND
  5
4D6
  100
AcDbEntity
  8
Layer 1
  62
0
  0
POLYLINE
  5
4D7
  100
AcDbEntity
  8
Layer 1
  62
0
  100
AcDb2dPolyline
 66
     1
  10
0
  20
0
  30
0
  70
1
  0
VERTEX
  5
4D8
  100
AcDbEntity
  8
Layer 1
  62
0
  100
AcDb2dVertex
  10
2.84452
  20
3.72948
  30
0.00000
  42
0.0215
  70
32
  0
VERTEX
  5
4D9
  100
AcDbEntity
  8
Layer 1
  62
0
  100
AcDb2dVertex
  10
3.01830
  20
3.63148
  30
0.00000
  42
0.1001
  70
32
  0
VERTEX
  5
4DA
  100
AcDbEntity
  8
Layer 1
  62
0
  100
AcDb2dVertex
  10
3.08253
  20
3.61907
  30
0.00000
  42
0.2728
  70
32
  0
VERTEX
  5
4DB
  100
AcDbEntity
  8
Layer 1
  62
0
  100
AcDb2dVertex
  10
3.12450
  20
3.64049
  30
0.00000
  42
0.2729
  70
32
  0
VERTEX
  5
4DC
  100
AcDbEntity
  8
Layer 1
  62
0
  100
AcDb2dVertex
  10
3.12611
  20
3.68760
  30
0.00000
  42
0.1627
  70
32
  0
VERTEX
  5
4DD
  100
AcDbEntity
  8
Layer 1
  62
0
  100
AcDb2dVertex
  10
3.05574
  20
3.75254
  30
0.00000
  70
32
  0
VERTEX
  5
4DE
  100
AcDbEntity
  8
Layer 1
  62
0
  100
AcDb2dVertex
  10
3.01037
  20
3.77677
  30
0.00000
  42
0.0211
  70
32
  0
VERTEX
  5
4DF
  100
AcDbEntity
  8
Layer 1
  62
0
  100
AcDb2dVertex
  10
2.75177
  20
3.92265
  30
0.00000
  42
0.0954
  70
32
  0
VERTEX
  5
4E0
  100
AcDbEntity
  8
Layer 1
  62
0
  100
AcDb2dVertex
  10
2.68853
  20
3.93434
  30
0.00000
  42
0.3113
  70
32
  0
VERTEX
  5
4E1
  100
AcDbEntity
  8
Layer 1
  62
0
  100
AcDb2dVertex
  10
2.64459
  20
3.90715
  30
0.00000
  42
0.2799
  70
32
  0
VERTEX
  5
4E2
  100
AcDbEntity
  8
Layer 1
  62
0
  100
AcDb2dVertex
  10
2.66031
  20
3.84924
  30
0.00000
  42
0.0742
  70
32
  0
VERTEX
  5
4E3
  100
AcDbEntity
  8
Layer 1
  62
0
  100
AcDb2dVertex
  10
2.84452
  20
3.72948
  30
0.00000
  70
32
  0
SEQEND
  5
4E4
  100
AcDbEntity
  8
Layer 1
  62
0
  0
POLYLINE
  5
4E5
  100
AcDbEntity
  8
Layer 1
  62
0
  100
AcDb2dPolyline
 66
     1
  10
0
  20
0
  30
0
  70
1
  0
VERTEX
  5
4E6
  100
AcDbEntity
  8
Layer 1
  62
0
  100
AcDb2dVertex
  10
6.95006
  20
3.69288
  30
0.00000
  42
0.0299
  70
32
  0
VERTEX
  5
4E7
  100
AcDbEntity
  8
Layer 1
  62
0
  100
AcDb2dVertex
  10
7.16137
  20
3.82756
  30
0.00000
  42
0.1957
  70
32
  0
VERTEX
  5
4E8
  100
AcDbEntity
  8
Layer 1
  62
0
  100
AcDb2dVertex
  10
7.20204
  20
3.88950
  30
0.00000
  42
0.3409
  70
32
  0
VERTEX
  5
4E9
  100
AcDbEntity
  8
Layer 1
  62
0
  100
AcDb2dVertex
  10
7.17665
  20
3.93017
  30
0.00000
  42
0.1846
  70
32
  0
VERTEX
  5
4EA
  100
AcDbEntity
  8
Layer 1
  62
0
  100
AcDb2dVertex
  10
7.09253
  20
3.92211
  30
0.00000
  42
0.0192
  70
32
  0
VERTEX
  5
4EB
  100
AcDbEntity
  8
Layer 1
  62
0
  100
AcDb2dVertex
  10
6.75868
  20
3.72948
  30
0.00000
  42
0.1494
  70
32
  0
VERTEX
  5
4EC
  100
AcDbEntity
  8
Layer 1
  62
0
  100
AcDb2dVertex
  10
6.71905
  20
3.68746
  30
0.00000
  42
0.2698
  70
32
  0
VERTEX
  5
4ED
  100
AcDbEntity
  8
Layer 1
  62
0
  100
AcDb2dVertex
  10
6.72064
  20
3.64120
  30
0.00000
  42
0.2698
  70
32
  0
VERTEX
  5
4EE
  100
AcDbEntity
  8
Layer 1
  62
0
  100
AcDb2dVertex
  10
6.76164
  20
3.61974
  30
0.00000
  42
0.1381
  70
32
  0
VERTEX
  5
4EF
  100
AcDbEntity
  8
Layer 1
  62
0
  100
AcDb2dVertex
  10
6.95006
  20
3.69288
  30
0.00000
  70
32
  0
SEQEND
  5
4F0
  100
AcDbEntity
  8
Layer 1
  62
0
  0
POLYLINE
  5
4F1
  100
AcDbEntity
  8
Layer 1
  62
0
  100
AcDb2dPolyline
 66
     1
  10
0
  20
0
  30
0
  70
1
  0
VERTEX
  5
4F2
  100
AcDbEntity
  8
Layer 1
  62
0
  100
AcDb2dVertex
  10
3.16041
  20
4.00111
  30
0.00000
  42
0.1272
  70
32
  0
VERTEX
  5
4F3
  100
AcDbEntity
  8
Layer 1
  62
0
  100
AcDb2dVertex
  10
3.12700
  20
3.89398
  30
0.00000
  42
0.3169
  70
32
  0
VERTEX
  5
4F4
  100
AcDbEntity
  8
Layer 1
  62
0
  100
AcDb2dVertex
  10
3.15714
  20
3.84857
  30
0.00000
  42
0.0796
  70
32
  0
VERTEX
  5
4F5
  100
AcDbEntity
  8
Layer 1
  62
0
  100
AcDb2dVertex
  10
3.24829
  20
3.84207
  30
0.00000
  42
0.0221
  70
32
  0
VERTEX
  5
4F6
  100
AcDbEntity
  8
Layer 1
  62
0
  100
AcDb2dVertex
  10
3.43949
  20
3.84328
  30
0.00000
  42
0.4490
  70
32
  0
VERTEX
  5
4F7
  100
AcDbEntity
  8
Layer 1
  62
0
  100
AcDb2dVertex
  10
3.52132
  20
4.00103
  30
0.00000
  42
0.0489
  70
32
  0
VERTEX
  5
4F8
  100
AcDbEntity
  8
Layer 1
  62
0
  100
AcDb2dVertex
  10
3.43035
  20
4.18972
  30
0.00000
  42
0.2057
  70
32
  0
VERTEX
  5
4F9
  100
AcDbEntity
  8
Layer 1
  62
0
  100
AcDb2dVertex
  10
3.39255
  20
4.20374
  30
0.00000
  42
0.0207
  70
32
  0
VERTEX
  5
4FA
  100
AcDbEntity
  8
Layer 1
  62
0
  100
AcDb2dVertex
  10
3.31462
  20
4.20239
  30
0.00000
  42
0.1874
  70
32
  0
VERTEX
  5
4FB
  100
AcDbEntity
  8
Layer 1
  62
0
  100
AcDb2dVertex
  10
3.26880
  20
4.18278
  30
0.00000
  42
0.0934
  70
32
  0
VERTEX
  5
4FC
  100
AcDbEntity
  8
Layer 1
  62
0
  100
AcDb2dVertex
  10
3.16041
  20
4.00111
  30
0.00000
  70
32
  0
SEQEND
  5
4FD
  100
AcDbEntity
  8
Layer 1
  62
0
  0
POLYLINE
  5
4FE
  100
AcDbEntity
  8
Layer 1
  62
0
  100
AcDb2dPolyline
 66
     1
  10
0
  20
0
  30
0
  70
1
  0
VERTEX
  5
4FF
  100
AcDbEntity
  8
Layer 1
  62
0
  100
AcDb2dVertex
  10
6.66400
  20
3.84700
  30
0.00000
  42
0.2034
  70
32
  0
VERTEX
  5
500
  100
AcDbEntity
  8
Layer 1
  62
0
  100
AcDb2dVertex
  10
6.73660
  20
3.89533
  30
0.00000
  42
0.2261
  70
32
  0
VERTEX
  5
501
  100
AcDbEntity
  8
Layer 1
  62
0
  100
AcDb2dVertex
  10
6.73280
  20
3.93595
  30
0.00000
  70
32
  0
VERTEX
  5
502
  100
AcDbEntity
  8
Layer 1
  62
0
  100
AcDb2dVertex
  10
6.64362
  20
4.06901
  30
0.00000
  42
0.3026
  70
32
  0
VERTEX
  5
503
  100
AcDbEntity
  8
Layer 1
  62
0
  100
AcDb2dVertex
  10
6.58939
  20
4.09633
  30
0.00000
  42
0.1064
  70
32
  0
VERTEX
  5
504
  100
AcDbEntity
  8
Layer 1
  62
0
  100
AcDb2dVertex
  10
6.55512
  20
4.06319
  30
0.00000
  42
0.0174
  70
32
  0
VERTEX
  5
505
  100
AcDbEntity
  8
Layer 1
  62
0
  100
AcDb2dVertex
  10
6.48306
  20
3.93684
  30
0.00000
  42
-0.2948
  70
32
  0
VERTEX
  5
506
  100
AcDbEntity
  8
Layer 1
  62
0
  100
AcDb2dVertex
  10
6.41216
  20
3.89837
  30
0.00000
  42
-0.0617
  70
32
  0
VERTEX
  5
507
  100
AcDbEntity
  8
Layer 1
  62
0
  100
AcDb2dVertex
  10
6.31089
  20
3.91821
  30
0.00000
  42
0.3323
  70
32
  0
VERTEX
  5
508
  100
AcDbEntity
  8
Layer 1
  62
0
  100
AcDb2dVertex
  10
6.28879
  20
3.91501
  30
0.00000
  42
0.3323
  70
32
  0
VERTEX
  5
509
  100
AcDbEntity
  8
Layer 1
  62
0
  100
AcDb2dVertex
  10
6.28559
  20
3.89291
  30
0.00000
  42
0.2041
  70
32
  0
VERTEX
  5
50A
  100
AcDbEntity
  8
Layer 1
  62
0
  100
AcDb2dVertex
  10
6.37875
  20
3.84790
  30
0.00000
  70
32
  0
VERTEX
  5
50B
  100
AcDbEntity
  8
Layer 1
  62
0
  100
AcDb2dVertex
  10
6.42483
  20
3.84960
  30
0.00000
  42
0.0241
  70
32
  0
VERTEX
  5
50C
  100
AcDbEntity
  8
Layer 1
  62
0
  100
AcDb2dVertex
  10
6.66400
  20
3.84700
  30
0.00000
  70
32
  0
SEQEND
  5
50D
  100
AcDbEntity
  8
Layer 1
  62
0
  0
POLYLINE
  5
50E
  100
AcDbEntity
  8
Layer 1
  62
0
  100
AcDb2dPolyline
 66
     1
  10
0
  20
0
  30
0
  70
1
  0
VERTEX
  5
50F
  100
AcDbEntity
  8
Layer 1
  62
0
  100
AcDb2dVertex
  10
3.01539
  20
4.38007
  30
0.00000
  42
0.0261
  70
32
  0
VERTEX
  5
510
  100
AcDbEntity
  8
Layer 1
  62
0
  100
AcDb2dVertex
  10
2.82307
  20
4.38154
  30
0.00000
  42
0.2927
  70
32
  0
VERTEX
  5
511
  100
AcDbEntity
  8
Layer 1
  62
0
  100
AcDb2dVertex
  10
2.77792
  20
4.35369
  30
0.00000
  42
0.1546
  70
32
  0
VERTEX
  5
512
  100
AcDbEntity
  8
Layer 1
  62
0
  100
AcDb2dVertex
  10
2.78245
  20
4.27114
  30
0.00000
  42
0.1242
  70
32
  0
VERTEX
  5
513
  100
AcDbEntity
  8
Layer 1
  62
0
  100
AcDb2dVertex
  10
2.99985
  20
3.95301
  30
0.00000
  42
0.3349
  70
32
  0
VERTEX
  5
514
  100
AcDbEntity
  8
Layer 1
  62
0
  100
AcDb2dVertex
  10
3.03783
  20
3.95256
  30
0.00000
  70
32
  0
VERTEX
  5
515
  100
AcDbEntity
  8
Layer 1
  62
0
  100
AcDb2dVertex
  10
3.05803
  20
3.97070
  30
0.00000
  42
0.0891
  70
32
  0
VERTEX
  5
516
  100
AcDbEntity
  8
Layer 1
  62
0
  100
AcDb2dVertex
  10
3.19947
  20
4.20302
  30
0.00000
  42
0.1940
  70
32
  0
VERTEX
  5
517
  100
AcDbEntity
  8
Layer 1
  62
0
  100
AcDb2dVertex
  10
3.20023
  20
4.25018
  30
0.00000
  42
0.3709
  70
32
  0
VERTEX
  5
518
  100
AcDbEntity
  8
Layer 1
  62
0
  100
AcDb2dVertex
  10
3.01539
  20
4.38007
  30
0.00000
  70
32
  0
SEQEND
  5
519
  100
AcDbEntity
  8
Layer 1
  62
0
  0
POLYLINE
  5
51A
  100
AcDbEntity
  8
Layer 1
  62
0
  100
AcDb2dPolyline
 66
     1
  10
0
  20
0
  30
0
  70
1
  0
VERTEX
  5
51B
  100
AcDbEntity
  8
Layer 1
  62
0
  100
AcDb2dVertex
  10
6.95405
  20
4.34500
  30
0.00000
  42
0.0147
  70
32
  0
VERTEX
  5
51C
  100
AcDbEntity
  8
Layer 1
  62
0
  100
AcDb2dVertex
  10
6.71958
  20
4.34155
  30
0.00000
  42
0.4050
  70
32
  0
VERTEX
  5
51D
  100
AcDbEntity
  8
Layer 1
  62
0
  100
AcDb2dVertex
  10
6.66768
  20
4.28807
  30
0.00000
  42
0.1217
  70
32
  0
VERTEX
  5
51E
  100
AcDbEntity
  8
Layer 1
  62
0
  100
AcDb2dVertex
  10
6.68304
  20
4.18201
  30
0.00000
  42
0.0448
  70
32
  0
VERTEX
  5
51F
  100
AcDbEntity
  8
Layer 1
  62
0
  100
AcDb2dVertex
  10
6.78538
  20
3.97657
  30
0.00000
  42
0.3228
  70
32
  0
VERTEX
  5
520
  100
AcDbEntity
  8
Layer 1
  62
0
  100
AcDb2dVertex
  10
6.84745
  20
3.95145
  30
0.00000
  42
0.1178
  70
32
  0
VERTEX
  5
521
  100
AcDbEntity
  8
Layer 1
  62
0
  100
AcDb2dVertex
  10
6.93448
  20
4.01831
  30
0.00000
  42
0.0994
  70
32
  0
VERTEX
  5
522
  100
AcDbEntity
  8
Layer 1
  62
0
  100
AcDb2dVertex
  10
7.06271
  20
4.27074
  30
0.00000
  70
32
  0
VERTEX
  5
523
  100
AcDbEntity
  8
Layer 1
  62
0
  100
AcDb2dVertex
  10
7.06562
  20
4.31150
  30
0.00000
  42
0.2231
  70
32
  0
VERTEX
  5
524
  100
AcDbEntity
  8
Layer 1
  62
0
  100
AcDb2dVertex
  10
7.04233
  20
4.33711
  30
0.00000
  42
0.1084
  70
32
  0
VERTEX
  5
525
  100
AcDbEntity
  8
Layer 1
  62
0
  100
AcDb2dVertex
  10
6.95405
  20
4.34500
  30
0.00000
  70
32
  0
SEQEND
  5
526
  100
AcDbEntity
  8
Layer 1
  62
0
  0
POLYLINE
  5
527
  100
AcDbEntity
  8
Layer 1
  62
0
  100
AcDb2dPolyline
 66
     1
  10
0
  20
0
  30
0
  70
1
  0
VERTEX
  5
528
  100
AcDbEntity
  8
Layer 1
  62
0
  100
AcDb2dVertex
  10
3.52270
  20
4.32793
  30
0.00000
  42
0.3026
  70
32
  0
VERTEX
  5
529
  100
AcDbEntity
  8
Layer 1
  62
0
  100
AcDb2dVertex
  10
3.53027
  20
4.14126
  30
0.00000
  42
0.0051
  70
32
  0
VERTEX
  5
52A
  100
AcDbEntity
  8
Layer 1
  62
0
  100
AcDb2dVertex
  10
3.57999
  20
4.05002
  30
0.00000
  42
0.4593
  70
32
  0
VERTEX
  5
52B
  100
AcDbEntity
  8
Layer 1
  62
0
  100
AcDb2dVertex
  10
3.62110
  20
4.03968
  30
0.00000
  42
0.0650
  70
32
  0
VERTEX
  5
52C
  100
AcDbEntity
  8
Layer 1
  62
0
  100
AcDb2dVertex
  10
3.69482
  20
4.13817
  30
0.00000
  42
0.0261
  70
32
  0
VERTEX
  5
52D
  100
AcDbEntity
  8
Layer 1
  62
0
  100
AcDb2dVertex
  10
3.82735
  20
4.32529
  30
0.00000
  70
32
  0
VERTEX
  5
52E
  100
AcDbEntity
  8
Layer 1
  62
0
  100
AcDb2dVertex
  10
3.83362
  20
4.34406
  30
0.00000
  42
0.3325
  70
32
  0
VERTEX
  5
52F
  100
AcDbEntity
  8
Layer 1
  62
0
  100
AcDb2dVertex
  10
3.82610
  20
4.37124
  30
0.00000
  42
0.1300
  70
32
  0
VERTEX
  5
530
  100
AcDbEntity
  8
Layer 1
  62
0
  100
AcDb2dVertex
  10
3.78377
  20
4.38275
  30
0.00000
  42
0.0193
  70
32
  0
VERTEX
  5
531
  100
AcDbEntity
  8
Layer 1
  62
0
  100
AcDb2dVertex
  10
3.59589
  20
4.38240
  30
0.00000
  42
0.3329
  70
32
  0
VERTEX
  5
532
  100
AcDbEntity
  8
Layer 1
  62
0
  100
AcDb2dVertex
  10
3.52270
  20
4.32793
  30
0.00000
  70
32
  0
SEQEND
  5
533
  100
AcDbEntity
  8
Layer 1
  62
0
  0
POLYLINE
  5
534
  100
AcDbEntity
  8
Layer 1
  62
0
  100
AcDb2dPolyline
 66
     1
  10
0
  20
0
  30
0
  70
1
  0
VERTEX
  5
535
  100
AcDbEntity
  8
Layer 1
  62
0
  100
AcDb2dVertex
  10
3.36577
  20
4.25730
  30
0.00000
  42
0.1509
  70
32
  0
VERTEX
  5
536
  100
AcDbEntity
  8
Layer 1
  62
0
  100
AcDb2dVertex
  10
3.45436
  20
4.32668
  30
0.00000
  42
0.2979
  70
32
  0
VERTEX
  5
537
  100
AcDbEntity
  8
Layer 1
  62
0
  100
AcDb2dVertex
  10
3.47344
  20
4.42064
  30
0.00000
  42
0.0537
  70
32
  0
VERTEX
  5
538
  100
AcDbEntity
  8
Layer 1
  62
0
  100
AcDb2dVertex
  10
3.44365
  20
4.48250
  30
0.00000
  42
0.2066
  70
32
  0
VERTEX
  5
539
  100
AcDbEntity
  8
Layer 1
  62
0
  100
AcDb2dVertex
  10
3.39716
  20
4.51524
  30
0.00000
  42
0.0159
  70
32
  0
VERTEX
  5
53A
  100
AcDbEntity
  8
Layer 1
  62
0
  100
AcDb2dVertex
  10
3.33276
  20
4.51380
  30
0.00000
  42
0.4368
  70
32
  0
VERTEX
  5
53B
  100
AcDbEntity
  8
Layer 1
  62
0
  100
AcDb2dVertex
  10
3.21079
  20
4.36772
  30
0.00000
  42
0.4368
  70
32
  0
VERTEX
  5
53C
  100
AcDbEntity
  8
Layer 1
  62
0
  100
AcDb2dVertex
  10
3.36577
  20
4.25730
  30
0.00000
  70
32
  0
SEQEND
  5
53D
  100
AcDbEntity
  8
Layer 1
  62
0
  0
POLYLINE
  5
53E
  100
AcDbEntity
  8
Layer 1
  62
0
  100
AcDb2dPolyline
 66
     1
  10
0
  20
0
  30
0
  70
1
  0
VERTEX
  5
53F
  100
AcDbEntity
  8
Layer 1
  62
0
  100
AcDb2dVertex
  10
2.77362
  20
4.47381
  30
0.00000
  42
0.3414
  70
32
  0
VERTEX
  5
540
  100
AcDbEntity
  8
Layer 1
  62
0
  100
AcDb2dVertex
  10
2.79960
  20
4.43296
  30
0.00000
  42
0.0839
  70
32
  0
VERTEX
  5
541
  100
AcDbEntity
  8
Layer 1
  62
0
  100
AcDb2dVertex
  10
2.88998
  20
4.42812
  30
0.00000
  42
0.0179
  70
32
  0
VERTEX
  5
542
  100
AcDbEntity
  8
Layer 1
  62
0
  100
AcDb2dVertex
  10
3.07953
  20
4.43216
  30
0.00000
  42
0.1642
  70
32
  0
VERTEX
  5
543
  100
AcDbEntity
  8
Layer 1
  62
0
  100
AcDb2dVertex
  10
3.12942
  20
4.45012
  30
0.00000
  42
0.0162
  70
32
  0
VERTEX
  5
544
  100
AcDbEntity
  8
Layer 1
  62
0
  100
AcDb2dVertex
  10
3.19808
  20
4.51940
  30
0.00000
  42
0.2706
  70
32
  0
VERTEX
  5
545
  100
AcDbEntity
  8
Layer 1
  62
0
  100
AcDb2dVertex
  10
3.21058
  20
4.58385
  30
0.00000
  42
0.0404
  70
32
  0
VERTEX
  5
546
  100
AcDbEntity
  8
Layer 1
  62
0
  100
AcDb2dVertex
  10
3.15419
  20
4.67482
  30
0.00000
  70
32
  0
VERTEX
  5
547
  100
AcDbEntity
  8
Layer 1
  62
0
  100
AcDb2dVertex
  10
3.07106
  20
4.82105
  30
0.00000
  42
0.1127
  70
32
  0
VERTEX
  5
548
  100
AcDbEntity
  8
Layer 1
  62
0
  100
AcDb2dVertex
  10
3.03662
  20
4.85509
  30
0.00000
  42
0.2854
  70
32
  0
VERTEX
  5
549
  100
AcDbEntity
  8
Layer 1
  62
0
  100
AcDb2dVertex
  10
3.00016
  20
4.85374
  30
0.00000
  42
0.0716
  70
32
  0
VERTEX
  5
54A
  100
AcDbEntity
  8
Layer 1
  62
0
  100
AcDb2dVertex
  10
2.92908
  20
4.78809
  30
0.00000
  42
0.1113
  70
32
  0
VERTEX
  5
54B
  100
AcDbEntity
  8
Layer 1
  62
0
  100
AcDb2dVertex
  10
2.77362
  20
4.47381
  30
0.00000
  70
32
  0
SEQEND
  5
54C
  100
AcDbEntity
  8
Layer 1
  62
0
  0
POLYLINE
  5
54D
  100
AcDbEntity
  8
Layer 1
  62
0
  100
AcDb2dPolyline
 66
     1
  10
0
  20
0
  30
0
  70
1
  0
VERTEX
  5
54E
  100
AcDbEntity
  8
Layer 1
  62
0
  100
AcDb2dVertex
  10
3.49296
  20
4.49764
  30
0.00000
  42
0.2671
  70
32
  0
VERTEX
  5
54F
  100
AcDbEntity
  8
Layer 1
  62
0
  100
AcDb2dVertex
  10
3.61049
  20
4.42638
  30
0.00000
  70
32
  0
VERTEX
  5
550
  100
AcDbEntity
  8
Layer 1
  62
0
  100
AcDb2dVertex
  10
3.73276
  20
4.42638
  30
0.00000
  42
0.0161
  70
32
  0
VERTEX
  5
551
  100
AcDbEntity
  8
Layer 1
  62
0
  100
AcDb2dVertex
  10
3.84160
  20
4.42853
  30
0.00000
  42
0.2742
  70
32
  0
VERTEX
  5
552
  100
AcDbEntity
  8
Layer 1
  62
0
  100
AcDb2dVertex
  10
3.88988
  20
4.45755
  30
0.00000
  42
0.1377
  70
32
  0
VERTEX
  5
553
  100
AcDbEntity
  8
Layer 1
  62
0
  100
AcDb2dVertex
  10
3.89118
  20
4.50646
  30
0.00000
  42
0.0486
  70
32
  0
VERTEX
  5
554
  100
AcDbEntity
  8
Layer 1
  62
0
  100
AcDb2dVertex
  10
3.85185
  20
4.60195
  30
0.00000
  42
-0.1007
  70
32
  0
VERTEX
  5
555
  100
AcDbEntity
  8
Layer 1
  62
0
  100
AcDb2dVertex
  10
3.83604
  20
4.67432
  30
0.00000
  42
0.1117
  70
32
  0
VERTEX
  5
556
  100
AcDbEntity
  8
Layer 1
  62
0
  100
AcDb2dVertex
  10
3.80545
  20
4.72820
  30
0.00000
  42
-0.0353
  70
32
  0
VERTEX
  5
557
  100
AcDbEntity
  8
Layer 1
  62
0
  100
AcDb2dVertex
  10
3.74517
  20
4.79471
  30
0.00000
  42
0.0779
  70
32
  0
VERTEX
  5
558
  100
AcDbEntity
  8
Layer 1
  62
0
  100
AcDb2dVertex
  10
3.69160
  20
4.83664
  30
0.00000
  42
0.3959
  70
32
  0
VERTEX
  5
559
  100
AcDbEntity
  8
Layer 1
  62
0
  100
AcDb2dVertex
  10
3.63078
  20
4.82239
  30
0.00000
  42
0.0282
  70
32
  0
VERTEX
  5
55A
  100
AcDbEntity
  8
Layer 1
  62
0
  100
AcDb2dVertex
  10
3.49682
  20
4.58555
  30
0.00000
  42
0.1186
  70
32
  0
VERTEX
  5
55B
  100
AcDbEntity
  8
Layer 1
  62
0
  100
AcDb2dVertex
  10
3.48665
  20
4.52048
  30
0.00000
  70
32
  0
VERTEX
  5
55C
  100
AcDbEntity
  8
Layer 1
  62
0
  100
AcDb2dVertex
  10
3.49296
  20
4.49764
  30
0.00000
  70
32
  0
SEQEND
  5
55D
  100
AcDbEntity
  8
Layer 1
  62
0
  0
POLYLINE
  5
55E
  100
AcDbEntity
  8
Layer 1
  62
0
  100
AcDb2dPolyline
 66
     1
  10
0
  20
0
  30
0
  70
1
  0
VERTEX
  5
55F
  100
AcDbEntity
  8
Layer 1
  62
0
  100
AcDb2dVertex
  10
6.84513
  20
4.85415
  30
0.00000
  42
0.3987
  70
32
  0
VERTEX
  5
560
  100
AcDbEntity
  8
Layer 1
  62
0
  100
AcDb2dVertex
  10
6.80338
  20
4.84389
  30
0.00000
  42
0.0246
  70
32
  0
VERTEX
  5
561
  100
AcDbEntity
  8
Layer 1
  62
0
  100
AcDb2dVertex
  10
6.65567
  20
4.59017
  30
0.00000
  70
32
  0
VERTEX
  5
562
  100
AcDbEntity
  8
Layer 1
  62
0
  100
AcDb2dVertex
  10
6.63494
  20
4.54327
  30
0.00000
  70
32
  0
VERTEX
  5
563
  100
AcDbEntity
  8
Layer 1
  62
0
  100
AcDb2dVertex
  10
6.63870
  20
4.52787
  30
0.00000
  42
0.0638
  70
32
  0
VERTEX
  5
564
  100
AcDbEntity
  8
Layer 1
  62
0
  100
AcDb2dVertex
  10
6.67462
  20
4.48836
  30
0.00000
  42
-0.0089
  70
32
  0
VERTEX
  5
565
  100
AcDbEntity
  8
Layer 1
  62
0
  100
AcDb2dVertex
  10
6.71632
  20
4.44980
  30
0.00000
  42
0.1689
  70
32
  0
VERTEX
  5
566
  100
AcDbEntity
  8
Layer 1
  62
0
  100
AcDb2dVertex
  10
6.79299
  20
4.42651
  30
0.00000
  42
0.0114
  70
32
  0
VERTEX
  5
567
  100
AcDbEntity
  8
Layer 1
  62
0
  100
AcDb2dVertex
  10
7.02105
  20
4.42812
  30
0.00000
  42
0.2974
  70
32
  0
VERTEX
  5
568
  100
AcDbEntity
  8
Layer 1
  62
0
  100
AcDb2dVertex
  10
7.06624
  20
4.45742
  30
0.00000
  42
0.1707
  70
32
  0
VERTEX
  5
569
  100
AcDbEntity
  8
Layer 1
  62
0
  100
AcDb2dVertex
  10
7.05872
  20
4.54215
  30
0.00000
  42
0.1351
  70
32
  0
VERTEX
  5
56A
  100
AcDbEntity
  8
Layer 1
  62
0
  100
AcDb2dVertex
  10
6.84513
  20
4.85415
  30
0.00000
  70
32
  0
SEQEND
  5
56B
  100
AcDbEntity
  8
Layer 1
  62
0
  0
POLYLINE
  5
56C
  100
AcDbEntity
  8
Layer 1
  62
0
  100
AcDb2dPolyline
 66
     1
  10
0
  20
0
  30
0
  70
1
  0
VERTEX
  5
56D
  100
AcDbEntity
  8
Layer 1
  62
0
  100
AcDb2dVertex
  10
4.06253
  20
4.72959
  30
0.00000
  70
32
  0
VERTEX
  5
56E
  100
AcDbEntity
  8
Layer 1
  62
0
  100
AcDb2dVertex
  10
4.03257
  20
4.74406
  30
0.00000
  42
0.0211
  70
32
  0
VERTEX
  5
56F
  100
AcDbEntity
  8
Layer 1
  62
0
  100
AcDb2dVertex
  10
3.94501
  20
4.78007
  30
0.00000
  42
0.0312
  70
32
  0
VERTEX
  5
570
  100
AcDbEntity
  8
Layer 1
  62
0
  100
AcDb2dVertex
  10
3.86282
  20
4.79969
  30
0.00000
  42
0.1698
  70
32
  0
VERTEX
  5
571
  100
AcDbEntity
  8
Layer 1
  62
0
  100
AcDb2dVertex
  10
3.84245
  20
4.79507
  30
0.00000
  42
0.3359
  70
32
  0
VERTEX
  5
572
  100
AcDbEntity
  8
Layer 1
  62
0
  100
AcDb2dVertex
  10
3.83833
  20
4.78437
  30
0.00000
  42
0.0145
  70
32
  0
VERTEX
  5
573
  100
AcDbEntity
  8
Layer 1
  62
0
  100
AcDb2dVertex
  10
3.94944
  20
4.57122
  30
0.00000
  42
0.3127
  70
32
  0
VERTEX
  5
574
  100
AcDbEntity
  8
Layer 1
  62
0
  100
AcDb2dVertex
  10
3.99119
  20
4.55814
  30
0.00000
  42
0.2143
  70
32
  0
VERTEX
  5
575
  100
AcDbEntity
  8
Layer 1
  62
0
  100
AcDb2dVertex
  10
4.07745
  20
4.65336
  30
0.00000
  42
0.3606
  70
32
  0
VERTEX
  5
576
  100
AcDbEntity
  8
Layer 1
  62
0
  100
AcDb2dVertex
  10
4.06253
  20
4.72959
  30
0.00000
  70
32
  0
SEQEND
  5
577
  100
AcDbEntity
  8
Layer 1
  62
0
  0
POLYLINE
  5
578
  100
AcDbEntity
  8
Layer 1
  62
0
  100
AcDb2dPolyline
 66
     1
  10
0
  20
0
  30
0
  70
1
  0
VERTEX
  5
579
  100
AcDbEntity
  8
Layer 1
  62
0
  100
AcDb2dVertex
  10
6.64049
  20
4.93732
  30
0.00000
  42
0.1985
  70
32
  0
VERTEX
  5
57A
  100
AcDbEntity
  8
Layer 1
  62
0
  100
AcDb2dVertex
  10
6.31846
  20
4.93383
  30
0.00000
  70
32
  0
VERTEX
  5
57B
  100
AcDbEntity
  8
Layer 1
  62
0
  100
AcDb2dVertex
  10
6.28263
  20
4.90924
  30
0.00000
  70
32
  0
VERTEX
  5
57C
  100
AcDbEntity
  8
Layer 1
  62
0
  100
AcDb2dVertex
  10
6.27789
  20
4.89307
  30
0.00000
  42
0.1017
  70
32
  0
VERTEX
  5
57D
  100
AcDbEntity
  8
Layer 1
  62
0
  100
AcDb2dVertex
  10
6.29585
  20
4.84326
  30
0.00000
  42
-0.0078
  70
32
  0
VERTEX
  5
57E
  100
AcDbEntity
  8
Layer 1
  62
0
  100
AcDb2dVertex
  10
6.39738
  20
4.64593
  30
0.00000
  42
0.1701
  70
32
  0
VERTEX
  5
57F
  100
AcDbEntity
  8
Layer 1
  62
0
  100
AcDb2dVertex
  10
6.42752
  20
4.60934
  30
0.00000
  70
32
  0
VERTEX
  5
580
  100
AcDbEntity
  8
Layer 1
  62
0
  100
AcDb2dVertex
  10
6.45251
  20
4.60351
  30
0.00000
  42
-0.0224
  70
32
  0
VERTEX
  5
581
  100
AcDbEntity
  8
Layer 1
  62
0
  100
AcDb2dVertex
  10
6.53452
  20
4.57888
  30
0.00000
  42
0.2449
  70
32
  0
VERTEX
  5
582
  100
AcDbEntity
  8
Layer 1
  62
0
  100
AcDb2dVertex
  10
6.56659
  20
4.58076
  30
0.00000
  70
32
  0
VERTEX
  5
583
  100
AcDbEntity
  8
Layer 1
  62
0
  100
AcDb2dVertex
  10
6.57895
  20
4.59465
  30
0.00000
  42
0.0264
  70
32
  0
VERTEX
  5
584
  100
AcDbEntity
  8
Layer 1
  62
0
  100
AcDb2dVertex
  10
6.72532
  20
4.84532
  30
0.00000
  70
32
  0
VERTEX
  5
585
  100
AcDbEntity
  8
Layer 1
  62
0
  100
AcDb2dVertex
  10
6.74431
  20
4.89325
  30
0.00000
  42
0.3071
  70
32
  0
VERTEX
  5
586
  100
AcDbEntity
  8
Layer 1
  62
0
  100
AcDb2dVertex
  10
6.72818
  20
4.91663
  30
0.00000
  42
0.0398
  70
32
  0
VERTEX
  5
587
  100
AcDbEntity
  8
Layer 1
  62
0
  100
AcDb2dVertex
  10
6.64049
  20
4.93732
  30
0.00000
  70
32
  0
SEQEND
  5
588
  100
AcDbEntity
  8
Layer 1
  62
0
  0
POLYLINE
  5
589
  100
AcDbEntity
  8
Layer 1
  62
0
  100
AcDb2dPolyline
 66
     1
  10
0
  20
0
  30
0
  70
1
  0
VERTEX
  5
58A
  100
AcDbEntity
  8
Layer 1
  62
0
  100
AcDb2dVertex
  10
3.44276
  20
4.63979
  30
0.00000
  42
-0.0477
  70
32
  0
VERTEX
  5
58B
  100
AcDbEntity
  8
Layer 1
  62
0
  100
AcDb2dVertex
  10
3.57099
  20
4.85675
  30
0.00000
  42
0.3606
  70
32
  0
VERTEX
  5
58C
  100
AcDbEntity
  8
Layer 1
  62
0
  100
AcDb2dVertex
  10
3.56624
  20
4.90664
  30
0.00000
  42
0.2378
  70
32
  0
VERTEX
  5
58D
  100
AcDbEntity
  8
Layer 1
  62
0
  100
AcDb2dVertex
  10
3.15831
  20
4.92052
  30
0.00000
  42
0.4615
  70
32
  0
VERTEX
  5
58E
  100
AcDbEntity
  8
Layer 1
  62
0
  100
AcDb2dVertex
  10
3.13775
  20
4.85294
  30
0.00000
  42
0.0339
  70
32
  0
VERTEX
  5
58F
  100
AcDbEntity
  8
Layer 1
  62
0
  100
AcDb2dVertex
  10
3.24699
  20
4.64902
  30
0.00000
  42
0.2432
  70
32
  0
VERTEX
  5
590
  100
AcDbEntity
  8
Layer 1
  62
0
  100
AcDb2dVertex
  10
3.31448
  20
4.61176
  30
0.00000
  42
0.0597
  70
32
  0
VERTEX
  5
591
  100
AcDbEntity
  8
Layer 1
  62
0
  100
AcDb2dVertex
  10
3.41490
  20
4.61153
  30
0.00000
  42
0.1622
  70
32
  0
VERTEX
  5
592
  100
AcDbEntity
  8
Layer 1
  62
0
  100
AcDb2dVertex
  10
3.44276
  20
4.63979
  30
0.00000
  70
32
  0
SEQEND
  5
593
  100
AcDbEntity
  8
Layer 1
  62
0
  0
POLYLINE
  5
594
  100
AcDbEntity
  8
Layer 1
  62
0
  100
AcDb2dPolyline
 66
     1
  10
0
  20
0
  30
0
  70
1
  0
VERTEX
  5
595
  100
AcDbEntity
  8
Layer 1
  62
0
  100
AcDb2dVertex
  10
6.31295
  20
4.61005
  30
0.00000
  42
0.3044
  70
32
  0
VERTEX
  5
596
  100
AcDbEntity
  8
Layer 1
  62
0
  100
AcDb2dVertex
  10
6.33759
  20
4.62376
  30
0.00000
  42
0.3046
  70
32
  0
VERTEX
  5
597
  100
AcDbEntity
  8
Layer 1
  62
0
  100
AcDb2dVertex
  10
6.33427
  20
4.65180
  30
0.00000
  42
-0.0414
  70
32
  0
VERTEX
  5
598
  100
AcDbEntity
  8
Layer 1
  62
0
  100
AcDb2dVertex
  10
6.23211
  20
4.82692
  30
0.00000
  42
0.1314
  70
32
  0
VERTEX
  5
599
  100
AcDbEntity
  8
Layer 1
  62
0
  100
AcDb2dVertex
  10
6.20116
  20
4.85921
  30
0.00000
  42
0.2804
  70
32
  0
VERTEX
  5
59A
  100
AcDbEntity
  8
Layer 1
  62
0
  100
AcDb2dVertex
  10
6.17895
  20
4.85916
  30
0.00000
  42
0.0425
  70
32
  0
VERTEX
  5
59B
  100
AcDbEntity
  8
Layer 1
  62
0
  100
AcDb2dVertex
  10
6.06465
  20
4.74934
  30
0.00000
  42
0.5600
  70
32
  0
VERTEX
  5
59C
  100
AcDbEntity
  8
Layer 1
  62
0
  100
AcDb2dVertex
  10
6.08315
  20
4.68203
  30
0.00000
  42
0.0075
  70
32
  0
VERTEX
  5
59D
  100
AcDbEntity
  8
Layer 1
  62
0
  100
AcDb2dVertex
  10
6.31295
  20
4.61005
  30
0.00000
  70
32
  0
SEQEND
  5
59E
  100
AcDbEntity
  8
Layer 1
  62
0
  0
POLYLINE
  5
59F
  100
AcDbEntity
  8
Layer 1
  62
0
  100
AcDb2dPolyline
 66
     1
  10
0
  20
0
  30
0
  70
1
  0
VERTEX
  5
5A0
  100
AcDbEntity
  8
Layer 1
  62
0
  100
AcDb2dVertex
  10
2.65117
  20
4.88801
  30
0.00000
  70
32
  0
VERTEX
  5
5A1
  100
AcDbEntity
  8
Layer 1
  62
0
  100
AcDb2dVertex
  10
2.66546
  20
4.87798
  30
0.00000
  42
0.2053
  70
32
  0
VERTEX
  5
5A2
  100
AcDbEntity
  8
Layer 1
  62
0
  100
AcDb2dVertex
  10
2.81702
  20
4.90364
  30
0.00000
  42
-0.0244
  70
32
  0
VERTEX
  5
5A3
  100
AcDbEntity
  8
Layer 1
  62
0
  100
AcDb2dVertex
  10
3.07603
  20
5.04486
  30
0.00000
  70
32
  0
VERTEX
  5
5A4
  100
AcDbEntity
  8
Layer 1
  62
0
  100
AcDb2dVertex
  10
3.11249
  20
5.06658
  30
0.00000
  42
0.2803
  70
32
  0
VERTEX
  5
5A5
  100
AcDbEntity
  8
Layer 1
  62
0
  100
AcDb2dVertex
  10
3.11419
  20
5.09143
  30
0.00000
  70
32
  0
VERTEX
  5
5A6
  100
AcDbEntity
  8
Layer 1
  62
0
  100
AcDb2dVertex
  10
3.07138
  20
5.17326
  30
0.00000
  42
0.2636
  70
32
  0
VERTEX
  5
5A7
  100
AcDbEntity
  8
Layer 1
  62
0
  100
AcDb2dVertex
  10
3.03949
  20
5.18692
  30
0.00000
  42
0.1272
  70
32
  0
VERTEX
  5
5A8
  100
AcDbEntity
  8
Layer 1
  62
0
  100
AcDb2dVertex
  10
2.99591
  20
5.16829
  30
0.00000
  42
-0.0221
  70
32
  0
VERTEX
  5
5A9
  100
AcDbEntity
  8
Layer 1
  62
0
  100
AcDb2dVertex
  10
2.68638
  20
4.98909
  30
0.00000
  42
0.3920
  70
32
  0
VERTEX
  5
5AA
  100
AcDbEntity
  8
Layer 1
  62
0
  100
AcDb2dVertex
  10
2.65117
  20
4.88801
  30
0.00000
  70
32
  0
SEQEND
  5
5AB
  100
AcDbEntity
  8
Layer 1
  62
0
  0
POLYLINE
  5
5AC
  100
AcDbEntity
  8
Layer 1
  62
0
  100
AcDb2dPolyline
 66
     1
  10
0
  20
0
  30
0
  70
1
  0
VERTEX
  5
5AD
  100
AcDbEntity
  8
Layer 1
  62
0
  100
AcDb2dVertex
  10
6.99996
  20
5.07661
  30
0.00000
  70
32
  0
VERTEX
  5
5AE
  100
AcDbEntity
  8
Layer 1
  62
0
  100
AcDb2dVertex
  10
6.82757
  20
5.17461
  30
0.00000
  42
0.1776
  70
32
  0
VERTEX
  5
5AF
  100
AcDbEntity
  8
Layer 1
  62
0
  100
AcDb2dVertex
  10
6.74247
  20
5.18603
  30
0.00000
  42
0.4365
  70
32
  0
VERTEX
  5
5B0
  100
AcDbEntity
  8
Layer 1
  62
0
  100
AcDb2dVertex
  10
6.71847
  20
5.12274
  30
0.00000
  42
0.1323
  70
32
  0
VERTEX
  5
5B1
  100
AcDbEntity
  8
Layer 1
  62
0
  100
AcDb2dVertex
  10
6.75559
  20
5.07867
  30
0.00000
  42
0.0583
  70
32
  0
VERTEX
  5
5B2
  100
AcDbEntity
  8
Layer 1
  62
0
  100
AcDb2dVertex
  10
7.12993
  20
4.87515
  30
0.00000
  42
0.1340
  70
32
  0
VERTEX
  5
5B3
  100
AcDbEntity
  8
Layer 1
  62
0
  100
AcDb2dVertex
  10
7.17884
  20
4.87793
  30
0.00000
  42
0.4880
  70
32
  0
VERTEX
  5
5B4
  100
AcDbEntity
  8
Layer 1
  62
0
  100
AcDb2dVertex
  10
7.17678
  20
4.97181
  30
0.00000
  42
0.0625
  70
32
  0
VERTEX
  5
5B5
  100
AcDbEntity
  8
Layer 1
  62
0
  100
AcDb2dVertex
  10
6.99996
  20
5.07661
  30
0.00000
  70
32
  0
SEQEND
  5
5B6
  100
AcDbEntity
  8
Layer 1
  62
0
  0
POLYLINE
  5
5B7
  100
AcDbEntity
  8
Layer 1
  62
0
  100
AcDb2dPolyline
 66
     1
  10
0
  20
0
  30
0
  70
1
  0
VERTEX
  5
5B8
  100
AcDbEntity
  8
Layer 1
  62
0
  100
AcDb2dVertex
  10
4.54015
  20
5.28564
  30
0.00000
  42
0.0277
  70
32
  0
VERTEX
  5
5B9
  100
AcDbEntity
  8
Layer 1
  62
0
  100
AcDb2dVertex
  10
4.28504
  20
5.27731
  30
0.00000
  42
0.1941
  70
32
  0
VERTEX
  5
5BA
  100
AcDbEntity
  8
Layer 1
  62
0
  100
AcDb2dVertex
  10
4.21943
  20
5.23462
  30
0.00000
  42
0.2878
  70
32
  0
VERTEX
  5
5BB
  100
AcDbEntity
  8
Layer 1
  62
0
  100
AcDb2dVertex
  10
4.21970
  20
5.19978
  30
0.00000
  42
0.1354
  70
32
  0
VERTEX
  5
5BC
  100
AcDbEntity
  8
Layer 1
  62
0
  100
AcDb2dVertex
  10
4.25427
  20
5.17586
  30
0.00000
  42
0.0893
  70
32
  0
VERTEX
  5
5BD
  100
AcDbEntity
  8
Layer 1
  62
0
  100
AcDb2dVertex
  10
4.58266
  20
5.14514
  30
0.00000
  42
0.0344
  70
32
  0
VERTEX
  5
5BE
  100
AcDbEntity
  8
Layer 1
  62
0
  100
AcDb2dVertex
  10
4.66372
  20
5.14993
  30
0.00000
  42
0.1746
  70
32
  0
VERTEX
  5
5BF
  100
AcDbEntity
  8
Layer 1
  62
0
  100
AcDb2dVertex
  10
4.73745
  20
5.19136
  30
0.00000
  42
0.2685
  70
32
  0
VERTEX
  5
5C0
  100
AcDbEntity
  8
Layer 1
  62
0
  100
AcDb2dVertex
  10
4.75168
  20
5.24013
  30
0.00000
  42
0.2685
  70
32
  0
VERTEX
  5
5C1
  100
AcDbEntity
  8
Layer 1
  62
0
  100
AcDb2dVertex
  10
4.71648
  20
5.27677
  30
0.00000
  42
0.0713
  70
32
  0
VERTEX
  5
5C2
  100
AcDbEntity
  8
Layer 1
  62
0
  100
AcDb2dVertex
  10
4.54015
  20
5.28564
  30
0.00000
  70
32
  0
SEQEND
  5
5C3
  100
AcDbEntity
  8
Layer 1
  62
0
  0
POLYLINE
  5
5C4
  100
AcDbEntity
  8
Layer 1
  62
0
  100
AcDb2dPolyline
 66
     1
  10
0
  20
0
  30
0
  70
1
  0
VERTEX
  5
5C5
  100
AcDbEntity
  8
Layer 1
  62
0
  100
AcDb2dVertex
  10
6.37181
  20
5.28362
  30
0.00000
  42
0.0104
  70
32
  0
VERTEX
  5
5C6
  100
AcDbEntity
  8
Layer 1
  62
0
  100
AcDb2dVertex
  10
6.03182
  20
5.28313
  30
0.00000
  70
32
  0
VERTEX
  5
5C7
  100
AcDbEntity
  8
Layer 1
  62
0
  100
AcDb2dVertex
  10
5.97870
  20
5.27668
  30
0.00000
  42
0.5276
  70
32
  0
VERTEX
  5
5C8
  100
AcDbEntity
  8
Layer 1
  62
0
  100
AcDb2dVertex
  10
5.96034
  20
5.19024
  30
0.00000
  42
0.2139
  70
32
  0
VERTEX
  5
5C9
  100
AcDbEntity
  8
Layer 1
  62
0
  100
AcDb2dVertex
  10
6.02904
  20
5.14899
  30
0.00000
  42
0.0326
  70
32
  0
VERTEX
  5
5CA
  100
AcDbEntity
  8
Layer 1
  62
0
  100
AcDb2dVertex
  10
6.40961
  20
5.15118
  30
0.00000
  42
0.3576
  70
32
  0
VERTEX
  5
5CB
  100
AcDbEntity
  8
Layer 1
  62
0
  100
AcDb2dVertex
  10
6.48852
  20
5.23265
  30
0.00000
  42
0.3118
  70
32
  0
VERTEX
  5
5CC
  100
AcDbEntity
  8
Layer 1
  62
0
  100
AcDb2dVertex
  10
6.46035
  20
5.27471
  30
0.00000
  42
0.1003
  70
32
  0
VERTEX
  5
5CD
  100
AcDbEntity
  8
Layer 1
  62
0
  100
AcDb2dVertex
  10
6.37181
  20
5.28362
  30
0.00000
  70
32
  0
SEQEND
  5
5CE
  100
AcDbEntity
  8
Layer 1
  62
0
  0
POLYLINE
  5
5CF
  100
AcDbEntity
  8
Layer 1
  62
0
  100
AcDb2dPolyline
 66
     1
  10
0
  20
0
  30
0
  70
1
  0
VERTEX
  5
5D0
  100
AcDbEntity
  8
Layer 1
  62
0
  100
AcDb2dVertex
  10
5.04312
  20
5.25966
  30
0.00000
  42
0.0342
  70
32
  0
VERTEX
  5
5D1
  100
AcDbEntity
  8
Layer 1
  62
0
  100
AcDb2dVertex
  10
5.46274
  20
5.71569
  30
0.00000
  42
-0.0728
  70
32
  0
VERTEX
  5
5D2
  100
AcDbEntity
  8
Layer 1
  62
0
  100
AcDb2dVertex
  10
5.59173
  20
5.85435
  30
0.00000
  70
32
  0
VERTEX
  5
5D3
  100
AcDbEntity
  8
Layer 1
  62
0
  100
AcDb2dVertex
  10
5.61431
  20
5.86470
  30
0.00000
  42
-0.2113
  70
32
  0
VERTEX
  5
5D4
  100
AcDbEntity
  8
Layer 1
  62
0
  100
AcDb2dVertex
  10
5.63415
  20
5.85413
  30
0.00000
  42
-0.0876
  70
32
  0
VERTEX
  5
5D5
  100
AcDbEntity
  8
Layer 1
  62
0
  100
AcDb2dVertex
  10
5.65869
  20
5.80818
  30
0.00000
  42
-0.0254
  70
32
  0
VERTEX
  5
5D6
  100
AcDbEntity
  8
Layer 1
  62
0
  100
AcDb2dVertex
  10
5.68440
  20
5.71672
  30
0.00000
  70
32
  0
VERTEX
  5
5D7
  100
AcDbEntity
  8
Layer 1
  62
0
  100
AcDb2dVertex
  10
5.69685
  20
5.69092
  30
0.00000
  42
0.3001
  70
32
  0
VERTEX
  5
5D8
  100
AcDbEntity
  8
Layer 1
  62
0
  100
AcDb2dVertex
  10
5.73026
  20
5.67171
  30
0.00000
  42
0.1543
  70
32
  0
VERTEX
  5
5D9
  100
AcDbEntity
  8
Layer 1
  62
0
  100
AcDb2dVertex
  10
5.77415
  20
5.69572
  30
0.00000
  42
-0.0242
  70
32
  0
VERTEX
  5
5DA
  100
AcDbEntity
  8
Layer 1
  62
0
  100
AcDb2dVertex
  10
6.19243
  20
6.15309
  30
0.00000
  42
-0.0538
  70
32
  0
VERTEX
  5
5DB
  100
AcDbEntity
  8
Layer 1
  62
0
  100
AcDb2dVertex
  10
6.30494
  20
6.26067
  30
0.00000
  42
-0.3090
  70
32
  0
VERTEX
  5
5DC
  100
AcDbEntity
  8
Layer 1
  62
0
  100
AcDb2dVertex
  10
6.35080
  20
6.25686
  30
0.00000
  70
32
  0
VERTEX
  5
5DD
  100
AcDbEntity
  8
Layer 1
  62
0
  100
AcDb2dVertex
  10
6.38341
  20
6.21351
  30
0.00000
  42
-0.0228
  70
32
  0
VERTEX
  5
5DE
  100
AcDbEntity
  8
Layer 1
  62
0
  100
AcDb2dVertex
  10
6.45646
  20
6.06369
  30
0.00000
  42
-0.2848
  70
32
  0
VERTEX
  5
5DF
  100
AcDbEntity
  8
Layer 1
  62
0
  100
AcDb2dVertex
  10
6.43491
  20
5.96077
  30
0.00000
  42
0.0208
  70
32
  0
VERTEX
  5
5E0
  100
AcDbEntity
  8
Layer 1
  62
0
  100
AcDb2dVertex
  10
5.92052
  20
5.37221
  30
0.00000
  42
0.1400
  70
32
  0
VERTEX
  5
5E1
  100
AcDbEntity
  8
Layer 1
  62
0
  100
AcDb2dVertex
  10
5.91559
  20
5.35443
  30
0.00000
  42
0.2888
  70
32
  0
VERTEX
  5
5E2
  100
AcDbEntity
  8
Layer 1
  62
0
  100
AcDb2dVertex
  10
5.92075
  20
5.34646
  30
0.00000
  42
0.1408
  70
32
  0
VERTEX
  5
5E3
  100
AcDbEntity
  8
Layer 1
  62
0
  100
AcDb2dVertex
  10
5.95814
  20
5.34319
  30
0.00000
  42
-0.0223
  70
32
  0
VERTEX
  5
5E4
  100
AcDbEntity
  8
Layer 1
  62
0
  100
AcDb2dVertex
  10
6.15414
  20
5.35179
  30
0.00000
  42
-0.1584
  70
32
  0
VERTEX
  5
5E5
  100
AcDbEntity
  8
Layer 1
  62
0
  100
AcDb2dVertex
  10
6.51168
  20
5.29755
  30
0.00000
  42
-0.3384
  70
32
  0
VERTEX
  5
5E6
  100
AcDbEntity
  8
Layer 1
  62
0
  100
AcDb2dVertex
  10
6.54984
  20
5.21066
  30
0.00000
  42
-0.0650
  70
32
  0
VERTEX
  5
5E7
  100
AcDbEntity
  8
Layer 1
  62
0
  100
AcDb2dVertex
  10
6.51911
  20
5.14814
  30
0.00000
  42
-0.2392
  70
32
  0
VERTEX
  5
5E8
  100
AcDbEntity
  8
Layer 1
  62
0
  100
AcDb2dVertex
  10
6.45502
  20
5.10783
  30
0.00000
  42
-0.0228
  70
32
  0
VERTEX
  5
5E9
  100
AcDbEntity
  8
Layer 1
  62
0
  100
AcDb2dVertex
  10
6.02452
  20
5.10357
  30
0.00000
  42
-0.4138
  70
32
  0
VERTEX
  5
5EA
  100
AcDbEntity
  8
Layer 1
  62
0
  100
AcDb2dVertex
  10
5.86897
  20
5.23082
  30
0.00000
  70
32
  0
VERTEX
  5
5EB
  100
AcDbEntity
  8
Layer 1
  62
0
  100
AcDb2dVertex
  10
5.86458
  20
5.25375
  30
0.00000
  42
0.4925
  70
32
  0
VERTEX
  5
5EC
  100
AcDbEntity
  8
Layer 1
  62
0
  100
AcDb2dVertex
  10
5.81648
  20
5.26871
  30
0.00000
  42
0.0208
  70
32
  0
VERTEX
  5
5ED
  100
AcDbEntity
  8
Layer 1
  62
0
  100
AcDb2dVertex
  10
5.61484
  20
5.04557
  30
0.00000
  42
-0.1175
  70
32
  0
VERTEX
  5
5EE
  100
AcDbEntity
  8
Layer 1
  62
0
  100
AcDb2dVertex
  10
5.56808
  20
5.00199
  30
0.00000
  42
-0.3751
  70
32
  0
VERTEX
  5
5EF
  100
AcDbEntity
  8
Layer 1
  62
0
  100
AcDb2dVertex
  10
5.50507
  20
5.01776
  30
0.00000
  42
-0.0538
  70
32
  0
VERTEX
  5
5F0
  100
AcDbEntity
  8
Layer 1
  62
0
  100
AcDb2dVertex
  10
5.48653
  20
5.04356
  30
0.00000
  42
0.2705
  70
32
  0
VERTEX
  5
5F1
  100
AcDbEntity
  8
Layer 1
  62
0
  100
AcDb2dVertex
  10
5.41401
  20
5.09744
  30
0.00000
  42
0.1631
  70
32
  0
VERTEX
  5
5F2
  100
AcDbEntity
  8
Layer 1
  62
0
  100
AcDb2dVertex
  10
5.33787
  20
5.05941
  30
0.00000
  42
0.0324
  70
32
  0
VERTEX
  5
5F3
  100
AcDbEntity
  8
Layer 1
  62
0
  100
AcDb2dVertex
  10
5.24718
  20
4.96661
  30
0.00000
  42
0.3003
  70
32
  0
VERTEX
  5
5F4
  100
AcDbEntity
  8
Layer 1
  62
0
  100
AcDb2dVertex
  10
5.24727
  20
4.92272
  30
0.00000
  42
0.1488
  70
32
  0
VERTEX
  5
5F5
  100
AcDbEntity
  8
Layer 1
  62
0
  100
AcDb2dVertex
  10
5.28552
  20
4.88931
  30
0.00000
  70
32
  0
VERTEX
  5
5F6
  100
AcDbEntity
  8
Layer 1
  62
0
  100
AcDb2dVertex
  10
5.90476
  20
4.71477
  30
0.00000
  42
0.3145
  70
32
  0
VERTEX
  5
5F7
  100
AcDbEntity
  8
Layer 1
  62
0
  100
AcDb2dVertex
  10
5.99662
  20
4.75239
  30
0.00000
  42
-0.2416
  70
32
  0
VERTEX
  5
5F8
  100
AcDbEntity
  8
Layer 1
  62
0
  100
AcDb2dVertex
  10
6.61966
  20
5.00714
  30
0.00000
  42
0.1529
  70
32
  0
VERTEX
  5
5F9
  100
AcDbEntity
  8
Layer 1
  62
0
  100
AcDb2dVertex
  10
6.66235
  20
5.02219
  30
0.00000
  42
0.2824
  70
32
  0
VERTEX
  5
5FA
  100
AcDbEntity
  8
Layer 1
  62
0
  100
AcDb2dVertex
  10
6.67404
  20
5.05637
  30
0.00000
  70
32
  0
VERTEX
  5
5FB
  100
AcDbEntity
  8
Layer 1
  62
0
  100
AcDb2dVertex
  10
6.65281
  20
5.12153
  30
0.00000
  42
-0.1899
  70
32
  0
VERTEX
  5
5FC
  100
AcDbEntity
  8
Layer 1
  62
0
  100
AcDb2dVertex
  10
6.65482
  20
5.16955
  30
0.00000
  42
-0.0662
  70
32
  0
VERTEX
  5
5FD
  100
AcDbEntity
  8
Layer 1
  62
0
  100
AcDb2dVertex
  10
6.68801
  20
5.21514
  30
0.00000
  42
-0.2033
  70
32
  0
VERTEX
  5
5FE
  100
AcDbEntity
  8
Layer 1
  62
0
  100
AcDb2dVertex
  10
6.75842
  20
5.25348
  30
0.00000
  70
32
  0
VERTEX
  5
5FF
  100
AcDbEntity
  8
Layer 1
  62
0
  100
AcDb2dVertex
  10
6.78354
  20
5.24945
  30
0.00000
  42
-0.0286
  70
32
  0
VERTEX
  5
600
  100
AcDbEntity
  8
Layer 1
  62
0
  100
AcDb2dVertex
  10
6.91773
  20
5.19758
  30
0.00000
  42
0.2044
  70
32
  0
VERTEX
  5
601
  100
AcDbEntity
  8
Layer 1
  62
0
  100
AcDb2dVertex
  10
7.06512
  20
5.19118
  30
0.00000
  42
-0.5669
  70
32
  0
VERTEX
  5
602
  100
AcDbEntity
  8
Layer 1
  62
0
  100
AcDb2dVertex
  10
7.07278
  20
5.18244
  30
0.00000
  42
0.0665
  70
32
  0
VERTEX
  5
603
  100
AcDbEntity
  8
Layer 1
  62
0
  100
AcDb2dVertex
  10
7.06920
  20
5.14536
  30
0.00000
  42
0.1153
  70
32
  0
VERTEX
  5
604
  100
AcDbEntity
  8
Layer 1
  62
0
  100
AcDb2dVertex
  10
7.07493
  20
5.12449
  30
0.00000
  42
0.1038
  70
32
  0
VERTEX
  5
605
  100
AcDbEntity
  8
Layer 1
  62
0
  100
AcDb2dVertex
  10
7.11488
  20
5.08257
  30
0.00000
  42
-0.0121
  70
32
  0
VERTEX
  5
606
  100
AcDbEntity
  8
Layer 1
  62
0
  100
AcDb2dVertex
  10
7.20777
  20
5.01789
  30
0.00000
  42
-0.1510
  70
32
  0
VERTEX
  5
607
  100
AcDbEntity
  8
Layer 1
  62
0
  100
AcDb2dVertex
  10
7.23944
  20
4.97064
  30
0.00000
  42
0.0062
  70
32
  0
VERTEX
  5
608
  100
AcDbEntity
  8
Layer 1
  62
0
  100
AcDb2dVertex
  10
7.25816
  20
4.92344
  30
0.00000
  42
-0.2835
  70
32
  0
VERTEX
  5
609
  100
AcDbEntity
  8
Layer 1
  62
0
  100
AcDb2dVertex
  10
7.24352
  20
4.85684
  30
0.00000
  42
-0.0286
  70
32
  0
VERTEX
  5
60A
  100
AcDbEntity
  8
Layer 1
  62
0
  100
AcDb2dVertex
  10
7.20818
  20
4.82092
  30
0.00000
  42
-0.2190
  70
32
  0
VERTEX
  5
60B
  100
AcDbEntity
  8
Layer 1
  62
0
  100
AcDb2dVertex
  10
7.12814
  20
4.80125
  30
0.00000
  70
32
  0
VERTEX
  5
60C
  100
AcDbEntity
  8
Layer 1
  62
0
  100
AcDb2dVertex
  10
7.03198
  20
4.82772
  30
0.00000
  70
32
  0
VERTEX
  5
60D
  100
AcDbEntity
  8
Layer 1
  62
0
  100
AcDb2dVertex
  10
7.01151
  20
4.82736
  30
0.00000
  42
0.4977
  70
32
  0
VERTEX
  5
60E
  100
AcDbEntity
  8
Layer 1
  62
0
  100
AcDb2dVertex
  10
6.99714
  20
4.79471
  30
0.00000
  42
0.0192
  70
32
  0
VERTEX
  5
60F
  100
AcDbEntity
  8
Layer 1
  62
0
  100
AcDb2dVertex
  10
7.01447
  20
4.75588
  30
0.00000
  42
-0.2872
  70
32
  0
VERTEX
  5
610
  100
AcDbEntity
  8
Layer 1
  62
0
  100
AcDb2dVertex
  10
7.04842
  20
4.09244
  30
0.00000
  42
0.0171
  70
32
  0
VERTEX
  5
611
  100
AcDbEntity
  8
Layer 1
  62
0
  100
AcDb2dVertex
  10
6.98970
  20
4.00174
  30
0.00000
  42
0.1991
  70
32
  0
VERTEX
  5
612
  100
AcDbEntity
  8
Layer 1
  62
0
  100
AcDb2dVertex
  10
6.98477
  20
3.96479
  30
0.00000
  42
0.3693
  70
32
  0
VERTEX
  5
613
  100
AcDbEntity
  8
Layer 1
  62
0
  100
AcDb2dVertex
  10
7.00802
  20
3.95033
  30
0.00000
  70
32
  0
VERTEX
  5
614
  100
AcDbEntity
  8
Layer 1
  62
0
  100
AcDb2dVertex
  10
7.02795
  20
3.95579
  30
0.00000
  42
-0.0295
  70
32
  0
VERTEX
  5
615
  100
AcDbEntity
  8
Layer 1
  62
0
  100
AcDb2dVertex
  10
7.13562
  20
3.99946
  30
0.00000
  42
-0.1995
  70
32
  0
VERTEX
  5
616
  100
AcDbEntity
  8
Layer 1
  62
0
  100
AcDb2dVertex
  10
7.18744
  20
3.99802
  30
0.00000
  42
-0.2067
  70
32
  0
VERTEX
  5
617
  100
AcDbEntity
  8
Layer 1
  62
0
  100
AcDb2dVertex
  10
7.24885
  20
3.91656
  30
0.00000
  42
-0.1017
  70
32
  0
VERTEX
  5
618
  100
AcDbEntity
  8
Layer 1
  62
0
  100
AcDb2dVertex
  10
7.26237
  20
3.87042
  30
0.00000
  42
-0.1745
  70
32
  0
VERTEX
  5
619
  100
AcDbEntity
  8
Layer 1
  62
0
  100
AcDb2dVertex
  10
7.24199
  20
3.82478
  30
0.00000
  42
-0.1255
  70
32
  0
VERTEX
  5
61A
  100
AcDbEntity
  8
Layer 1
  62
0
  100
AcDb2dVertex
  10
7.05267
  20
3.68299
  30
0.00000
  42
-0.0339
  70
32
  0
VERTEX
  5
61B
  100
AcDbEntity
  8
Layer 1
  62
0
  100
AcDb2dVertex
  10
6.80956
  20
3.54768
  30
0.00000
  42
-0.1553
  70
32
  0
VERTEX
  5
61C
  100
AcDbEntity
  8
Layer 1
  62
0
  100
AcDb2dVertex
  10
6.75613
  20
3.54687
  30
0.00000
  42
-0.4943
  70
32
  0
VERTEX
  5
61D
  100
AcDbEntity
  8
Layer 1
  62
0
  100
AcDb2dVertex
  10
6.65926
  20
3.71264
  30
0.00000
  42
0.0198
  70
32
  0
VERTEX
  5
61E
  100
AcDbEntity
  8
Layer 1
  62
0
  100
AcDb2dVertex
  10
6.68461
  20
3.74882
  30
0.00000
  42
0.0231
  70
32
  0
VERTEX
  5
61F
  100
AcDbEntity
  8
Layer 1
  62
0
  100
AcDb2dVertex
  10
6.70113
  20
3.77332
  30
0.00000
  42
0.1428
  70
32
  0
VERTEX
  5
620
  100
AcDbEntity
  8
Layer 1
  62
0
  100
AcDb2dVertex
  10
6.70239
  20
3.77803
  30
0.00000
  42
0.3321
  70
32
  0
VERTEX
  5
621
  100
AcDbEntity
  8
Layer 1
  62
0
  100
AcDb2dVertex
  10
6.68496
  20
3.79572
  30
0.00000
  42
0.1732
  70
32
  0
VERTEX
  5
622
  100
AcDbEntity
  8
Layer 1
  62
0
  100
AcDb2dVertex
  10
6.64528
  20
3.79097
  30
0.00000
  70
32
  0
VERTEX
  5
623
  100
AcDbEntity
  8
Layer 1
  62
0
  100
AcDb2dVertex
  10
6.54984
  20
3.74197
  30
0.00000
  42
0.2611
  70
32
  0
VERTEX
  5
624
  100
AcDbEntity
  8
Layer 1
  62
0
  100
AcDb2dVertex
  10
6.53564
  20
3.70981
  30
0.00000
  42
-0.2326
  70
32
  0
VERTEX
  5
625
  100
AcDbEntity
  8
Layer 1
  62
0
  100
AcDb2dVertex
  10
6.52310
  20
3.57746
  30
0.00000
  42
-0.2659
  70
32
  0
VERTEX
  5
626
  100
AcDbEntity
  8
Layer 1
  62
0
  100
AcDb2dVertex
  10
6.45663
  20
3.53783
  30
0.00000
  42
-0.0147
  70
32
  0
VERTEX
  5
627
  100
AcDbEntity
  8
Layer 1
  62
0
  100
AcDb2dVertex
  10
5.98421
  20
3.53747
  30
0.00000
  42
-0.4200
  70
32
  0
VERTEX
  5
628
  100
AcDbEntity
  8
Layer 1
  62
0
  100
AcDb2dVertex
  10
5.87508
  20
3.64476
  30
0.00000
  42
-0.4200
  70
32
  0
VERTEX
  5
629
  100
AcDbEntity
  8
Layer 1
  62
0
  100
AcDb2dVertex
  10
5.98452
  20
3.75174
  30
0.00000
  42
-0.0060
  70
32
  0
VERTEX
  5
62A
  100
AcDbEntity
  8
Layer 1
  62
0
  100
AcDb2dVertex
  10
6.30494
  20
3.75823
  30
0.00000
  42
0.1413
  70
32
  0
VERTEX
  5
62B
  100
AcDbEntity
  8
Layer 1
  62
0
  100
AcDb2dVertex
  10
6.34113
  20
3.76943
  30
0.00000
  42
0.4618
  70
32
  0
VERTEX
  5
62C
  100
AcDbEntity
  8
Layer 1
  62
0
  100
AcDb2dVertex
  10
6.34108
  20
3.78797
  30
0.00000
  70
32
  0
VERTEX
  5
62D
  100
AcDbEntity
  8
Layer 1
  62
0
  100
AcDb2dVertex
  10
6.30435
  20
3.80226
  30
0.00000
  42
-0.0978
  70
32
  0
VERTEX
  5
62E
  100
AcDbEntity
  8
Layer 1
  62
0
  100
AcDb2dVertex
  10
6.13958
  20
3.89228
  30
0.00000
  42
0.0085
  70
32
  0
VERTEX
  5
62F
  100
AcDbEntity
  8
Layer 1
  62
0
  100
AcDb2dVertex
  10
5.92612
  20
4.05464
  30
0.00000
  42
0.0091
  70
32
  0
VERTEX
  5
630
  100
AcDbEntity
  8
Layer 1
  62
0
  100
AcDb2dVertex
  10
5.43721
  20
4.23679
  30
0.00000
  42
0.1479
  70
32
  0
VERTEX
  5
631
  100
AcDbEntity
  8
Layer 1
  62
0
  100
AcDb2dVertex
  10
5.33241
  20
4.24660
  30
0.00000
  42
-0.2817
  70
32
  0
VERTEX
  5
632
  100
AcDbEntity
  8
Layer 1
  62
0
  100
AcDb2dVertex
  10
5.31997
  20
4.25170
  30
0.00000
  42
-0.2817
  70
32
  0
VERTEX
  5
633
  100
AcDbEntity
  8
Layer 1
  62
0
  100
AcDb2dVertex
  10
5.31884
  20
4.26510
  30
0.00000
  42
0.3610
  70
32
  0
VERTEX
  5
634
  100
AcDbEntity
  8
Layer 1
  62
0
  100
AcDb2dVertex
  10
5.31521
  20
4.28113
  30
0.00000
  42
0.0139
  70
32
  0
VERTEX
  5
635
  100
AcDbEntity
  8
Layer 1
  62
0
  100
AcDb2dVertex
  10
4.86549
  20
4.44761
  30
0.00000
  42
0.1808
  70
32
  0
VERTEX
  5
636
  100
AcDbEntity
  8
Layer 1
  62
0
  100
AcDb2dVertex
  10
4.78716
  20
4.45639
  30
0.00000
  70
32
  0
VERTEX
  5
637
  100
AcDbEntity
  8
Layer 1
  62
0
  100
AcDb2dVertex
  10
4.72347
  20
4.39619
  30
0.00000
  42
-0.0338
  70
32
  0
VERTEX
  5
638
  100
AcDbEntity
  8
Layer 1
  62
0
  100
AcDb2dVertex
  10
4.30130
  20
3.93805
  30
0.00000
  42
-0.4938
  70
32
  0
VERTEX
  5
639
  100
AcDbEntity
  8
Layer 1
  62
0
  100
AcDb2dVertex
  10
4.22261
  20
3.98212
  30
0.00000
  42
0.0365
  70
32
  0
VERTEX
  5
63A
  100
AcDbEntity
  8
Layer 1
  62
0
  100
AcDb2dVertex
  10
4.16501
  20
4.17521
  30
0.00000
  42
0.4376
  70
32
  0
VERTEX
  5
63B
  100
AcDbEntity
  8
Layer 1
  62
0
  100
AcDb2dVertex
  10
4.11570
  20
4.18949
  30
0.00000
  42
-0.0250
  70
32
  0
VERTEX
  5
63C
  100
AcDbEntity
  8
Layer 1
  62
0
  100
AcDb2dVertex
  10
3.89471
  20
4.00040
  30
0.00000
  42
0.0456
  70
32
  0
VERTEX
  5
63D
  100
AcDbEntity
  8
Layer 1
  62
0
  100
AcDb2dVertex
  10
3.68385
  20
3.80051
  30
0.00000
  42
0.5130
  70
32
  0
VERTEX
  5
63E
  100
AcDbEntity
  8
Layer 1
  62
0
  100
AcDb2dVertex
  10
3.69178
  20
3.76266
  30
0.00000
  42
0.0730
  70
32
  0
VERTEX
  5
63F
  100
AcDbEntity
  8
Layer 1
  62
0
  100
AcDb2dVertex
  10
3.71574
  20
3.75675
  30
0.00000
  42
-0.0196
  70
32
  0
VERTEX
  5
640
  100
AcDbEntity
  8
Layer 1
  62
0
  100
AcDb2dVertex
  10
3.85817
  20
3.75039
  30
0.00000
  42
-0.4227
  70
32
  0
VERTEX
  5
641
  100
AcDbEntity
  8
Layer 1
  62
0
  100
AcDb2dVertex
  10
3.96855
  20
3.64471
  30
0.00000
  42
-0.4227
  70
32
  0
VERTEX
  5
642
  100
AcDbEntity
  8
Layer 1
  62
0
  100
AcDb2dVertex
  10
3.85973
  20
3.53742
  30
0.00000
  42
-0.0069
  70
32
  0
VERTEX
  5
643
  100
AcDbEntity
  8
Layer 1
  62
0
  100
AcDb2dVertex
  10
3.40370
  20
3.53398
  30
0.00000
  42
0.1621
  70
32
  0
VERTEX
  5
644
  100
AcDbEntity
  8
Layer 1
  62
0
  100
AcDb2dVertex
  10
3.32434
  20
3.48901
  30
0.00000
  42
-0.0300
  70
32
  0
VERTEX
  5
645
  100
AcDbEntity
  8
Layer 1
  62
0
  100
AcDb2dVertex
  10
3.07008
  20
3.24894
  30
0.00000
  42
-0.3283
  70
32
  0
VERTEX
  5
646
  100
AcDbEntity
  8
Layer 1
  62
0
  100
AcDb2dVertex
  10
3.05107
  20
3.24785
  30
0.00000
  42
-0.3282
  70
32
  0
VERTEX
  5
647
  100
AcDbEntity
  8
Layer 1
  62
0
  100
AcDb2dVertex
  10
3.04437
  20
3.26565
  30
0.00000
  42
-0.0329
  70
32
  0
VERTEX
  5
648
  100
AcDbEntity
  8
Layer 1
  62
0
  100
AcDb2dVertex
  10
3.18236
  20
3.46326
  30
0.00000
  42
0.0506
  70
32
  0
VERTEX
  5
649
  100
AcDbEntity
  8
Layer 1
  62
0
  100
AcDb2dVertex
  10
3.29939
  20
3.67873
  30
0.00000
  42
0.2775
  70
32
  0
VERTEX
  5
64A
  100
AcDbEntity
  8
Layer 1
  62
0
  100
AcDb2dVertex
  10
3.26548
  20
3.77905
  30
0.00000
  42
0.2775
  70
32
  0
VERTEX
  5
64B
  100
AcDbEntity
  8
Layer 1
  62
0
  100
AcDb2dVertex
  10
3.16095
  20
3.79612
  30
0.00000
  42
0.4828
  70
32
  0
VERTEX
  5
64C
  100
AcDbEntity
  8
Layer 1
  62
0
  100
AcDb2dVertex
  10
3.14608
  20
3.76544
  30
0.00000
  70
32
  0
VERTEX
  5
64D
  100
AcDbEntity
  8
Layer 1
  62
0
  100
AcDb2dVertex
  10
3.18496
  20
3.71268
  30
0.00000
  42
-0.1712
  70
32
  0
VERTEX
  5
64E
  100
AcDbEntity
  8
Layer 1
  62
0
  100
AcDb2dVertex
  10
3.19996
  20
3.66668
  30
0.00000
  42
-0.4847
  70
32
  0
VERTEX
  5
64F
  100
AcDbEntity
  8
Layer 1
  62
0
  100
AcDb2dVertex
  10
3.01181
  20
3.55910
  30
0.00000
  70
32
  0
VERTEX
  5
650
  100
AcDbEntity
  8
Layer 1
  62
0
  100
AcDb2dVertex
  10
2.66510
  20
3.76320
  30
0.00000
  42
-0.3035
  70
32
  0
VERTEX
  5
651
  100
AcDbEntity
  8
Layer 1
  62
0
  100
AcDb2dVertex
  10
2.60097
  20
3.90585
  30
0.00000
  42
-0.5184
  70
32
  0
VERTEX
  5
652
  100
AcDbEntity
  8
Layer 1
  62
0
  100
AcDb2dVertex
  10
2.70846
  20
3.99897
  30
0.00000
  42
-0.0316
  70
32
  0
VERTEX
  5
653
  100
AcDbEntity
  8
Layer 1
  62
0
  100
AcDb2dVertex
  10
2.81635
  20
3.95422
  30
0.00000
  42
0.0419
  70
32
  0
VERTEX
  5
654
  100
AcDbEntity
  8
Layer 1
  62
0
  100
AcDb2dVertex
  10
2.86047
  20
3.93823
  30
0.00000
  42
0.3377
  70
32
  0
VERTEX
  5
655
  100
AcDbEntity
  8
Layer 1
  62
0
  100
AcDb2dVertex
  10
2.88898
  20
3.94873
  30
0.00000
  42
0.3376
  70
32
  0
VERTEX
  5
656
  100
AcDbEntity
  8
Layer 1
  62
0
  100
AcDb2dVertex
  10
2.88645
  20
3.97899
  30
0.00000
  42
-0.1661
  70
32
  0
VERTEX
  5
657
  100
AcDbEntity
  8
Layer 1
  62
0
  100
AcDb2dVertex
  10
2.73076
  20
4.40577
  30
0.00000
  42
-0.1287
  70
32
  0
VERTEX
  5
658
  100
AcDbEntity
  8
Layer 1
  62
0
  100
AcDb2dVertex
  10
2.84448
  20
4.78365
  30
0.00000
  42
0.2334
  70
32
  0
VERTEX
  5
659
  100
AcDbEntity
  8
Layer 1
  62
0
  100
AcDb2dVertex
  10
2.84645
  20
4.81885
  30
0.00000
  42
0.2693
  70
32
  0
VERTEX
  5
65A
  100
AcDbEntity
  8
Layer 1
  62
0
  100
AcDb2dVertex
  10
2.81326
  20
4.82745
  30
0.00000
  70
32
  0
VERTEX
  5
65B
  100
AcDbEntity
  8
Layer 1
  62
0
  100
AcDb2dVertex
  10
2.78760
  20
4.81930
  30
0.00000
  42
-0.0930
  70
32
  0
VERTEX
  5
65C
  100
AcDbEntity
  8
Layer 1
  62
0
  100
AcDb2dVertex
  10
2.70590
  20
4.79942
  30
0.00000
  42
-0.3144
  70
32
  0
VERTEX
  5
65D
  100
AcDbEntity
  8
Layer 1
  62
0
  100
AcDb2dVertex
  10
2.59595
  20
4.88423
  30
0.00000
  42
-0.3144
  70
32
  0
VERTEX
  5
65E
  100
AcDbEntity
  8
Layer 1
  62
0
  100
AcDb2dVertex
  10
2.63760
  20
5.01668
  30
0.00000
  42
-0.0728
  70
32
  0
VERTEX
  5
65F
  100
AcDbEntity
  8
Layer 1
  62
0
  100
AcDb2dVertex
  10
3.07863
  20
5.26387
  30
0.00000
  42
0.2439
  70
32
  0
VERTEX
  5
660
  100
AcDbEntity
  8
Layer 1
  62
0
  100
AcDb2dVertex
  10
3.12615
  20
5.31708
  30
0.00000
  42
-0.0133
  70
32
  0
VERTEX
  5
661
  100
AcDbEntity
  8
Layer 1
  62
0
  100
AcDb2dVertex
  10
3.14953
  20
5.40701
  30
0.00000
  70
32
  0
VERTEX
  5
662
  100
AcDbEntity
  8
Layer 1
  62
0
  100
AcDb2dVertex
  10
3.16167
  20
5.42667
  30
0.00000
  42
-0.2536
  70
32
  0
VERTEX
  5
663
  100
AcDbEntity
  8
Layer 1
  62
0
  100
AcDb2dVertex
  10
3.22585
  20
5.44074
  30
0.00000
  42
0.0698
  70
32
  0
VERTEX
  5
664
  100
AcDbEntity
  8
Layer 1
  62
0
  100
AcDb2dVertex
  10
3.68927
  20
5.35595
  30
0.00000
  42
-0.1391
  70
32
  0
VERTEX
  5
665
  100
AcDbEntity
  8
Layer 1
  62
0
  100
AcDb2dVertex
  10
3.90080
  20
5.32241
  30
0.00000
  42
0.1156
  70
32
  0
VERTEX
  5
666
  100
AcDbEntity
  8
Layer 1
  62
0
  100
AcDb2dVertex
  10
4.08170
  20
5.21393
  30
0.00000
  42
0.0755
  70
32
  0
VERTEX
  5
667
  100
AcDbEntity
  8
Layer 1
  62
0
  100
AcDb2dVertex
  10
4.13137
  20
5.20197
  30
0.00000
  42
0.3140
  70
32
  0
VERTEX
  5
668
  100
AcDbEntity
  8
Layer 1
  62
0
  100
AcDb2dVertex
  10
4.15542
  20
5.21886
  30
0.00000
  42
-0.0077
  70
32
  0
VERTEX
  5
669
  100
AcDbEntity
  8
Layer 1
  62
0
  100
AcDb2dVertex
  10
4.17679
  20
5.27798
  30
0.00000
  42
-0.1852
  70
32
  0
VERTEX
  5
66A
  100
AcDbEntity
  8
Layer 1
  62
0
  100
AcDb2dVertex
  10
4.23882
  20
5.32747
  30
0.00000
  42
-0.0861
  70
32
  0
VERTEX
  5
66B
  100
AcDbEntity
  8
Layer 1
  62
0
  100
AcDb2dVertex
  10
4.71720
  20
5.33938
  30
0.00000
  42
-0.3974
  70
32
  0
VERTEX
  5
66C
  100
AcDbEntity
  8
Layer 1
  62
0
  100
AcDb2dVertex
  10
4.82379
  20
5.22264
  30
0.00000
  42
-0.3974
  70
32
  0
VERTEX
  5
66D
  100
AcDbEntity
  8
Layer 1
  62
0
  100
AcDb2dVertex
  10
4.71339
  20
5.10948
  30
0.00000
  42
-0.0068
  70
32
  0
VERTEX
  5
66E
  100
AcDbEntity
  8
Layer 1
  62
0
  100
AcDb2dVertex
  10
4.63443
  20
5.09533
  30
0.00000
  42
0.3258
  70
32
  0
VERTEX
  5
66F
  100
AcDbEntity
  8
Layer 1
  62
0
  100
AcDb2dVertex
  10
4.62140
  20
5.07726
  30
0.00000
  42
0.3255
  70
32
  0
VERTEX
  5
670
  100
AcDbEntity
  8
Layer 1
  62
0
  100
AcDb2dVertex
  10
4.63457
  20
5.05932
  30
0.00000
  70
32
  0
VERTEX
  5
671
  100
AcDbEntity
  8
Layer 1
  62
0
  100
AcDb2dVertex
  10
4.82814
  20
5.01225
  30
0.00000
  42
0.2164
  70
32
  0
VERTEX
  5
672
  100
AcDbEntity
  8
Layer 1
  62
0
  100
AcDb2dVertex
  10
4.90540
  20
5.05171
  30
0.00000
  42
0.0360
  70
32
  0
VERTEX
  5
673
  100
AcDbEntity
  8
Layer 1
  62
0
  100
AcDb2dVertex
  10
5.04312
  20
5.25966
  30
0.00000
  70
32
  0
SEQEND
  5
674
  100
AcDbEntity
  8
Layer 1
  62
0
  0
POLYLINE
  5
675
  100
AcDbEntity
  8
Layer 1
  62
0
  100
AcDb2dPolyline
 66
     1
  10
0
  20
0
  30
0
  70
1
  0
VERTEX
  5
676
  100
AcDbEntity
  8
Layer 1
  62
0
  100
AcDb2dVertex
  10
9.14786
  20
0.50850
  30
0.00000
  42
-0.3577
  70
32
  0
VERTEX
  5
677
  100
AcDbEntity
  8
Layer 1
  62
0
  100
AcDb2dVertex
  10
8.77898
  20
0.45032
  30
0.00000
  42
-0.5058
  70
32
  0
VERTEX
  5
678
  100
AcDbEntity
  8
Layer 1
  62
0
  100
AcDb2dVertex
  10
8.77119
  20
0.53448
  30
0.00000
  42
-0.2554
  70
32
  0
VERTEX
  5
679
  100
AcDbEntity
  8
Layer 1
  62
0
  100
AcDb2dVertex
  10
8.84912
  20
0.55669
  30
0.00000
  42
0.0425
  70
32
  0
VERTEX
  5
67A
  100
AcDbEntity
  8
Layer 1
  62
0
  100
AcDb2dVertex
  10
8.94801
  20
0.53792
  30
0.00000
  42
0.1900
  70
32
  0
VERTEX
  5
67B
  100
AcDbEntity
  8
Layer 1
  62
0
  100
AcDb2dVertex
  10
9.00790
  20
0.56556
  30
0.00000
  42
0.3304
  70
32
  0
VERTEX
  5
67C
  100
AcDbEntity
  8
Layer 1
  62
0
  100
AcDb2dVertex
  10
9.02487
  20
0.62526
  30
0.00000
  42
0.1462
  70
32
  0
VERTEX
  5
67D
  100
AcDbEntity
  8
Layer 1
  62
0
  100
AcDb2dVertex
  10
8.96244
  20
0.70745
  30
0.00000
  70
32
  0
VERTEX
  5
67E
  100
AcDbEntity
  8
Layer 1
  62
0
  100
AcDb2dVertex
  10
8.84446
  20
0.78502
  30
0.00000
  42
-0.2754
  70
32
  0
VERTEX
  5
67F
  100
AcDbEntity
  8
Layer 1
  62
0
  100
AcDb2dVertex
  10
8.73753
  20
0.95698
  30
0.00000
  42
-0.2754
  70
32
  0
VERTEX
  5
680
  100
AcDbEntity
  8
Layer 1
  62
0
  100
AcDb2dVertex
  10
8.83788
  20
1.13284
  30
0.00000
  42
-0.1055
  70
32
  0
VERTEX
  5
681
  100
AcDbEntity
  8
Layer 1
  62
0
  100
AcDb2dVertex
  10
9.01533
  20
1.15533
  30
0.00000
  42
-0.0899
  70
32
  0
VERTEX
  5
682
  100
AcDbEntity
  8
Layer 1
  62
0
  100
AcDb2dVertex
  10
9.08672
  20
1.14686
  30
0.00000
  42
-0.3814
  70
32
  0
VERTEX
  5
683
  100
AcDbEntity
  8
Layer 1
  62
0
  100
AcDb2dVertex
  10
9.12408
  20
1.07537
  30
0.00000
  42
-0.3814
  70
32
  0
VERTEX
  5
684
  100
AcDbEntity
  8
Layer 1
  62
0
  100
AcDb2dVertex
  10
9.05725
  20
1.03019
  30
0.00000
  42
0.0471
  70
32
  0
VERTEX
  5
685
  100
AcDbEntity
  8
Layer 1
  62
0
  100
AcDb2dVertex
  10
8.95572
  20
1.03158
  30
0.00000
  42
0.4397
  70
32
  0
VERTEX
  5
686
  100
AcDbEntity
  8
Layer 1
  62
0
  100
AcDb2dVertex
  10
8.89566
  20
0.95683
  30
0.00000
  42
0.1944
  70
32
  0
VERTEX
  5
687
  100
AcDbEntity
  8
Layer 1
  62
0
  100
AcDb2dVertex
  10
8.94519
  20
0.89000
  30
0.00000
  42
-0.0051
  70
32
  0
VERTEX
  5
688
  100
AcDbEntity
  8
Layer 1
  62
0
  100
AcDb2dVertex
  10
9.02272
  20
0.83962
  30
0.00000
  42
-0.4268
  70
32
  0
VERTEX
  5
689
  100
AcDbEntity
  8
Layer 1
  62
0
  100
AcDb2dVertex
  10
9.14786
  20
0.50850
  30
0.00000
  70
32
  0
SEQEND
  5
68A
  100
AcDbEntity
  8
Layer 1
  62
0
  0
POLYLINE
  5
68B
  100
AcDbEntity
  8
Layer 1
  62
0
  100
AcDb2dPolyline
 66
     1
  10
0
  20
0
  30
0
  70
1
  0
VERTEX
  5
68C
  100
AcDbEntity
  8
Layer 1
  62
0
  100
AcDb2dVertex
  10
8.06412
  20
0.99870
  30
0.00000
  42
-0.0853
  70
32
  0
VERTEX
  5
68D
  100
AcDbEntity
  8
Layer 1
  62
0
  100
AcDb2dVertex
  10
8.07254
  20
1.11058
  30
0.00000
  42
-0.2964
  70
32
  0
VERTEX
  5
68E
  100
AcDbEntity
  8
Layer 1
  62
0
  100
AcDb2dVertex
  10
8.13542
  20
1.15251
  30
0.00000
  42
-0.0198
  70
32
  0
VERTEX
  5
68F
  100
AcDbEntity
  8
Layer 1
  62
0
  100
AcDb2dVertex
  10
8.38978
  20
1.15551
  30
0.00000
  42
-0.1012
  70
32
  0
VERTEX
  5
690
  100
AcDbEntity
  8
Layer 1
  62
0
  100
AcDb2dVertex
  10
8.50058
  20
1.14494
  30
0.00000
  42
-0.4149
  70
32
  0
VERTEX
  5
691
  100
AcDbEntity
  8
Layer 1
  62
0
  100
AcDb2dVertex
  10
8.53153
  20
1.06965
  30
0.00000
  70
32
  0
VERTEX
  5
692
  100
AcDbEntity
  8
Layer 1
  62
0
  100
AcDb2dVertex
  10
8.52042
  20
1.05133
  30
0.00000
  42
-0.1627
  70
32
  0
VERTEX
  5
693
  100
AcDbEntity
  8
Layer 1
  62
0
  100
AcDb2dVertex
  10
8.47120
  20
1.03171
  30
0.00000
  70
32
  0
VERTEX
  5
694
  100
AcDbEntity
  8
Layer 1
  62
0
  100
AcDb2dVertex
  10
8.28730
  20
1.02374
  30
0.00000
  42
0.3548
  70
32
  0
VERTEX
  5
695
  100
AcDbEntity
  8
Layer 1
  62
0
  100
AcDb2dVertex
  10
8.21917
  20
0.96693
  30
0.00000
  42
0.3548
  70
32
  0
VERTEX
  5
696
  100
AcDbEntity
  8
Layer 1
  62
0
  100
AcDb2dVertex
  10
8.26079
  20
0.88857
  30
0.00000
  42
0.0449
  70
32
  0
VERTEX
  5
697
  100
AcDbEntity
  8
Layer 1
  62
0
  100
AcDb2dVertex
  10
8.31700
  20
0.88069
  30
0.00000
  42
-0.0681
  70
32
  0
VERTEX
  5
698
  100
AcDbEntity
  8
Layer 1
  62
0
  100
AcDb2dVertex
  10
8.40917
  20
0.87003
  30
0.00000
  42
-0.2369
  70
32
  0
VERTEX
  5
699
  100
AcDbEntity
  8
Layer 1
  62
0
  100
AcDb2dVertex
  10
8.43967
  20
0.84230
  30
0.00000
  70
32
  0
VERTEX
  5
69A
  100
AcDbEntity
  8
Layer 1
  62
0
  100
AcDb2dVertex
  10
8.44151
  20
0.82125
  30
0.00000
  42
-0.5096
  70
32
  0
VERTEX
  5
69B
  100
AcDbEntity
  8
Layer 1
  62
0
  100
AcDb2dVertex
  10
8.38480
  20
0.75918
  30
0.00000
  42
0.0555
  70
32
  0
VERTEX
  5
69C
  100
AcDbEntity
  8
Layer 1
  62
0
  100
AcDb2dVertex
  10
8.23897
  20
0.74193
  30
0.00000
  42
0.2430
  70
32
  0
VERTEX
  5
69D
  100
AcDbEntity
  8
Layer 1
  62
0
  100
AcDb2dVertex
  10
8.21680
  20
0.70758
  30
0.00000
  42
0.0349
  70
32
  0
VERTEX
  5
69E
  100
AcDbEntity
  8
Layer 1
  62
0
  100
AcDb2dVertex
  10
8.22016
  20
0.62607
  30
0.00000
  42
0.3607
  70
32
  0
VERTEX
  5
69F
  100
AcDbEntity
  8
Layer 1
  62
0
  100
AcDb2dVertex
  10
8.28542
  20
0.56260
  30
0.00000
  42
0.0088
  70
32
  0
VERTEX
  5
6A0
  100
AcDbEntity
  8
Layer 1
  62
0
  100
AcDb2dVertex
  10
8.39264
  20
0.55848
  30
0.00000
  42
-0.0700
  70
32
  0
VERTEX
  5
6A1
  100
AcDbEntity
  8
Layer 1
  62
0
  100
AcDb2dVertex
  10
8.49651
  20
0.55190
  30
0.00000
  42
-0.3327
  70
32
  0
VERTEX
  5
6A2
  100
AcDbEntity
  8
Layer 1
  62
0
  100
AcDb2dVertex
  10
8.53408
  20
0.50742
  30
0.00000
  42
-0.0352
  70
32
  0
VERTEX
  5
6A3
  100
AcDbEntity
  8
Layer 1
  62
0
  100
AcDb2dVertex
  10
8.53498
  20
0.46573
  30
0.00000
  42
-0.2207
  70
32
  0
VERTEX
  5
6A4
  100
AcDbEntity
  8
Layer 1
  62
0
  100
AcDb2dVertex
  10
8.51800
  20
0.42972
  30
0.00000
  42
-0.1466
  70
32
  0
VERTEX
  5
6A5
  100
AcDbEntity
  8
Layer 1
  62
0
  100
AcDb2dVertex
  10
8.47004
  20
0.41485
  30
0.00000
  42
-0.0119
  70
32
  0
VERTEX
  5
6A6
  100
AcDbEntity
  8
Layer 1
  62
0
  100
AcDb2dVertex
  10
8.21770
  20
0.41283
  30
0.00000
  42
-0.0722
  70
32
  0
VERTEX
  5
6A7
  100
AcDbEntity
  8
Layer 1
  62
0
  100
AcDb2dVertex
  10
8.10869
  20
0.41906
  30
0.00000
  42
-0.3029
  70
32
  0
VERTEX
  5
6A8
  100
AcDbEntity
  8
Layer 1
  62
0
  100
AcDb2dVertex
  10
8.06815
  20
0.47674
  30
0.00000
  42
-0.0119
  70
32
  0
VERTEX
  5
6A9
  100
AcDbEntity
  8
Layer 1
  62
0
  100
AcDb2dVertex
  10
8.06412
  20
0.99870
  30
0.00000
  70
32
  0
SEQEND
  5
6AA
  100
AcDbEntity
  8
Layer 1
  62
0
  0
POLYLINE
  5
6AB
  100
AcDbEntity
  8
Layer 1
  62
0
  100
AcDb2dPolyline
 66
     1
  10
0
  20
0
  30
0
  70
1
  0
VERTEX
  5
6AC
  100
AcDbEntity
  8
Layer 1
  62
0
  100
AcDb2dVertex
  10
7.64137
  20
0.64958
  30
0.00000
  42
0.1319
  70
32
  0
VERTEX
  5
6AD
  100
AcDbEntity
  8
Layer 1
  62
0
  100
AcDb2dVertex
  10
7.66600
  20
0.86600
  30
0.00000
  42
0.4486
  70
32
  0
VERTEX
  5
6AE
  100
AcDbEntity
  8
Layer 1
  62
0
  100
AcDb2dVertex
  10
7.45944
  20
1.02186
  30
0.00000
  42
0.2251
  70
32
  0
VERTEX
  5
6AF
  100
AcDbEntity
  8
Layer 1
  62
0
  100
AcDb2dVertex
  10
7.43485
  20
0.99588
  30
0.00000
  42
0.0924
  70
32
  0
VERTEX
  5
6B0
  100
AcDbEntity
  8
Layer 1
  62
0
  100
AcDb2dVertex
  10
7.42795
  20
0.90653
  30
0.00000
  70
32
  0
VERTEX
  5
6B1
  100
AcDbEntity
  8
Layer 1
  62
0
  100
AcDb2dVertex
  10
7.42903
  20
0.62383
  30
0.00000
  42
0.4106
  70
32
  0
VERTEX
  5
6B2
  100
AcDbEntity
  8
Layer 1
  62
0
  100
AcDb2dVertex
  10
7.47834
  20
0.56283
  30
0.00000
  42
0.2940
  70
32
  0
VERTEX
  5
6B3
  100
AcDbEntity
  8
Layer 1
  62
0
  100
AcDb2dVertex
  10
7.64137
  20
0.64958
  30
0.00000
  70
32
  0
SEQEND
  5
6B4
  100
AcDbEntity
  8
Layer 1
  62
0
  0
POLYLINE
  5
6B5
  100
AcDbEntity
  8
Layer 1
  62
0
  100
AcDb2dPolyline
 66
     1
  10
0
  20
0
  30
0
  70
1
  0
VERTEX
  5
6B6
  100
AcDbEntity
  8
Layer 1
  62
0
  100
AcDb2dVertex
  10
7.82683
  20
0.86810
  30
0.00000
  42
-0.5125
  70
32
  0
VERTEX
  5
6B7
  100
AcDbEntity
  8
Layer 1
  62
0
  100
AcDb2dVertex
  10
7.45474
  20
0.41727
  30
0.00000
  42
-0.0782
  70
32
  0
VERTEX
  5
6B8
  100
AcDbEntity
  8
Layer 1
  62
0
  100
AcDb2dVertex
  10
7.34675
  20
0.41619
  30
0.00000
  42
-0.3036
  70
32
  0
VERTEX
  5
6B9
  100
AcDbEntity
  8
Layer 1
  62
0
  100
AcDb2dVertex
  10
7.30223
  20
0.47513
  30
0.00000
  42
-0.0117
  70
32
  0
VERTEX
  5
6BA
  100
AcDbEntity
  8
Layer 1
  62
0
  100
AcDb2dVertex
  10
7.29610
  20
1.04080
  30
0.00000
  70
32
  0
VERTEX
  5
6BB
  100
AcDbEntity
  8
Layer 1
  62
0
  100
AcDb2dVertex
  10
7.29623
  20
1.08170
  30
0.00000
  42
-0.1211
  70
32
  0
VERTEX
  5
6BC
  100
AcDbEntity
  8
Layer 1
  62
0
  100
AcDb2dVertex
  10
7.30326
  20
1.12837
  30
0.00000
  42
-0.2819
  70
32
  0
VERTEX
  5
6BD
  100
AcDbEntity
  8
Layer 1
  62
0
  100
AcDb2dVertex
  10
7.34424
  20
1.15622
  30
0.00000
  42
-0.0251
  70
32
  0
VERTEX
  5
6BE
  100
AcDbEntity
  8
Layer 1
  62
0
  100
AcDb2dVertex
  10
7.45644
  20
1.15663
  30
0.00000
  42
-0.4330
  70
32
  0
VERTEX
  5
6BF
  100
AcDbEntity
  8
Layer 1
  62
0
  100
AcDb2dVertex
  10
7.82683
  20
0.86810
  30
0.00000
  70
32
  0
SEQEND
  5
6C0
  100
AcDbEntity
  8
Layer 1
  62
0
  0
POLYLINE
  5
6C1
  100
AcDbEntity
  8
Layer 1
  62
0
  100
AcDb2dPolyline
 66
     1
  10
0
  20
0
  30
0
  70
1
  0
VERTEX
  5
6C2
  100
AcDbEntity
  8
Layer 1
  62
0
  100
AcDb2dVertex
  10
7.01855
  20
0.55777
  30
0.00000
  42
-0.0998
  70
32
  0
VERTEX
  5
6C3
  100
AcDbEntity
  8
Layer 1
  62
0
  100
AcDb2dVertex
  10
7.00856
  20
0.44920
  30
0.00000
  42
-0.2313
  70
32
  0
VERTEX
  5
6C4
  100
AcDbEntity
  8
Layer 1
  62
0
  100
AcDb2dVertex
  10
6.97989
  20
0.41991
  30
0.00000
  42
-0.4703
  70
32
  0
VERTEX
  5
6C5
  100
AcDbEntity
  8
Layer 1
  62
0
  100
AcDb2dVertex
  10
6.87195
  20
0.48969
  30
0.00000
  42
-0.0302
  70
32
  0
VERTEX
  5
6C6
  100
AcDbEntity
  8
Layer 1
  62
0
  100
AcDb2dVertex
  10
6.86734
  20
0.60220
  30
0.00000
  70
32
  0
VERTEX
  5
6C7
  100
AcDbEntity
  8
Layer 1
  62
0
  100
AcDb2dVertex
  10
6.86774
  20
1.08192
  30
0.00000
  70
32
  0
VERTEX
  5
6C8
  100
AcDbEntity
  8
Layer 1
  62
0
  100
AcDb2dVertex
  10
6.87052
  20
1.11072
  30
0.00000
  42
-0.1499
  70
32
  0
VERTEX
  5
6C9
  100
AcDbEntity
  8
Layer 1
  62
0
  100
AcDb2dVertex
  10
6.89614
  20
1.14274
  30
0.00000
  42
-0.1905
  70
32
  0
VERTEX
  5
6CA
  100
AcDbEntity
  8
Layer 1
  62
0
  100
AcDb2dVertex
  10
6.98231
  20
1.14507
  30
0.00000
  70
32
  0
VERTEX
  5
6CB
  100
AcDbEntity
  8
Layer 1
  62
0
  100
AcDb2dVertex
  10
6.99973
  20
1.13172
  30
0.00000
  42
-0.1485
  70
32
  0
VERTEX
  5
6CC
  100
AcDbEntity
  8
Layer 1
  62
0
  100
AcDb2dVertex
  10
7.01671
  20
1.08040
  30
0.00000
  42
-0.0088
  70
32
  0
VERTEX
  5
6CD
  100
AcDbEntity
  8
Layer 1
  62
0
  100
AcDb2dVertex
  10
7.01855
  20
0.55777
  30
0.00000
  70
32
  0
SEQEND
  5
6CE
  100
AcDbEntity
  8
Layer 1
  62
0
  0
POLYLINE
  5
6CF
  100
AcDbEntity
  8
Layer 1
  62
0
  100
AcDb2dPolyline
 66
     1
  10
0
  20
0
  30
0
  70
1
  0
VERTEX
  5
6D0
  100
AcDbEntity
  8
Layer 1
  62
0
  100
AcDb2dVertex
  10
6.63614
  20
0.55494
  30
0.00000
  42
-0.4346
  70
32
  0
VERTEX
  5
6D1
  100
AcDbEntity
  8
Layer 1
  62
0
  100
AcDb2dVertex
  10
6.23104
  20
0.45328
  30
0.00000
  42
-0.3779
  70
32
  0
VERTEX
  5
6D2
  100
AcDbEntity
  8
Layer 1
  62
0
  100
AcDb2dVertex
  10
6.21935
  20
0.50299
  30
0.00000
  42
-0.0253
  70
32
  0
VERTEX
  5
6D3
  100
AcDbEntity
  8
Layer 1
  62
0
  100
AcDb2dVertex
  10
6.23269
  20
0.53085
  30
0.00000
  42
-0.3189
  70
32
  0
VERTEX
  5
6D4
  100
AcDbEntity
  8
Layer 1
  62
0
  100
AcDb2dVertex
  10
6.28796
  20
0.56256
  30
0.00000
  42
-0.0187
  70
32
  0
VERTEX
  5
6D5
  100
AcDbEntity
  8
Layer 1
  62
0
  100
AcDb2dVertex
  10
6.36939
  20
0.54343
  30
0.00000
  42
0.3352
  70
32
  0
VERTEX
  5
6D6
  100
AcDbEntity
  8
Layer 1
  62
0
  100
AcDb2dVertex
  10
6.47424
  20
0.58074
  30
0.00000
  42
0.2123
  70
32
  0
VERTEX
  5
6D7
  100
AcDbEntity
  8
Layer 1
  62
0
  100
AcDb2dVertex
  10
6.48875
  20
0.62105
  30
0.00000
  42
0.1875
  70
32
  0
VERTEX
  5
6D8
  100
AcDbEntity
  8
Layer 1
  62
0
  100
AcDb2dVertex
  10
6.44683
  20
0.68729
  30
0.00000
  42
-0.0075
  70
32
  0
VERTEX
  5
6D9
  100
AcDbEntity
  8
Layer 1
  62
0
  100
AcDb2dVertex
  10
6.29293
  20
0.80146
  30
0.00000
  42
-0.3940
  70
32
  0
VERTEX
  5
6DA
  100
AcDbEntity
  8
Layer 1
  62
0
  100
AcDb2dVertex
  10
6.22701
  20
1.04703
  30
0.00000
  42
-0.3132
  70
32
  0
VERTEX
  5
6DB
  100
AcDbEntity
  8
Layer 1
  62
0
  100
AcDb2dVertex
  10
6.50613
  20
1.15372
  30
0.00000
  42
-0.1030
  70
32
  0
VERTEX
  5
6DC
  100
AcDbEntity
  8
Layer 1
  62
0
  100
AcDb2dVertex
  10
6.57537
  20
1.14274
  30
0.00000
  42
-0.3758
  70
32
  0
VERTEX
  5
6DD
  100
AcDbEntity
  8
Layer 1
  62
0
  100
AcDb2dVertex
  10
6.60040
  20
1.08783
  30
0.00000
  70
32
  0
VERTEX
  5
6DE
  100
AcDbEntity
  8
Layer 1
  62
0
  100
AcDb2dVertex
  10
6.56628
  20
1.03095
  30
0.00000
  42
-0.2546
  70
32
  0
VERTEX
  5
6DF
  100
AcDbEntity
  8
Layer 1
  62
0
  100
AcDb2dVertex
  10
6.53094
  20
1.01819
  30
0.00000
  42
0.0521
  70
32
  0
VERTEX
  5
6E0
  100
AcDbEntity
  8
Layer 1
  62
0
  100
AcDb2dVertex
  10
6.40571
  20
1.02880
  30
0.00000
  42
0.5470
  70
32
  0
VERTEX
  5
6E1
  100
AcDbEntity
  8
Layer 1
  62
0
  100
AcDb2dVertex
  10
6.36003
  20
0.95705
  30
0.00000
  42
0.1046
  70
32
  0
VERTEX
  5
6E2
  100
AcDbEntity
  8
Layer 1
  62
0
  100
AcDb2dVertex
  10
6.39814
  20
0.90752
  30
0.00000
  42
-0.0549
  70
32
  0
VERTEX
  5
6E3
  100
AcDbEntity
  8
Layer 1
  62
0
  100
AcDb2dVertex
  10
6.59391
  20
0.73746
  30
0.00000
  42
-0.2769
  70
32
  0
VERTEX
  5
6E4
  100
AcDbEntity
  8
Layer 1
  62
0
  100
AcDb2dVertex
  10
6.63614
  20
0.55494
  30
0.00000
  70
32
  0
SEQEND
  5
6E5
  100
AcDbEntity
  8
Layer 1
  62
0
  0
POLYLINE
  5
6E6
  100
AcDbEntity
  8
Layer 1
  62
0
  100
AcDb2dPolyline
 66
     1
  10
0
  20
0
  30
0
  70
1
  0
VERTEX
  5
6E7
  100
AcDbEntity
  8
Layer 1
  62
0
  100
AcDb2dVertex
  10
5.57346
  20
0.48915
  30
0.00000
  42
-0.4467
  70
32
  0
VERTEX
  5
6E8
  100
AcDbEntity
  8
Layer 1
  62
0
  100
AcDb2dVertex
  10
5.46270
  20
0.42036
  30
0.00000
  70
32
  0
VERTEX
  5
6E9
  100
AcDbEntity
  8
Layer 1
  62
0
  100
AcDb2dVertex
  10
5.44586
  20
0.43061
  30
0.00000
  42
-0.1625
  70
32
  0
VERTEX
  5
6EA
  100
AcDbEntity
  8
Layer 1
  62
0
  100
AcDb2dVertex
  10
5.42776
  20
0.47719
  30
0.00000
  42
-0.0104
  70
32
  0
VERTEX
  5
6EB
  100
AcDbEntity
  8
Layer 1
  62
0
  100
AcDb2dVertex
  10
5.42346
  20
0.91204
  30
0.00000
  42
-0.0526
  70
32
  0
VERTEX
  5
6EC
  100
AcDbEntity
  8
Layer 1
  62
0
  100
AcDb2dVertex
  10
5.43269
  20
1.10884
  30
0.00000
  42
-0.4359
  70
32
  0
VERTEX
  5
6ED
  100
AcDbEntity
  8
Layer 1
  62
0
  100
AcDb2dVertex
  10
5.48899
  20
1.13043
  30
0.00000
  42
-0.0977
  70
32
  0
VERTEX
  5
6EE
  100
AcDbEntity
  8
Layer 1
  62
0
  100
AcDb2dVertex
  10
5.54672
  20
1.08676
  30
0.00000
  70
32
  0
VERTEX
  5
6EF
  100
AcDbEntity
  8
Layer 1
  62
0
  100
AcDb2dVertex
  10
5.77393
  20
0.81534
  30
0.00000
  42
0.3921
  70
32
  0
VERTEX
  5
6F0
  100
AcDbEntity
  8
Layer 1
  62
0
  100
AcDb2dVertex
  10
5.80551
  20
0.81324
  30
0.00000
  42
0.1779
  70
32
  0
VERTEX
  5
6F1
  100
AcDbEntity
  8
Layer 1
  62
0
  100
AcDb2dVertex
  10
5.82042
  20
0.85028
  30
0.00000
  42
0.0098
  70
32
  0
VERTEX
  5
6F2
  100
AcDbEntity
  8
Layer 1
  62
0
  100
AcDb2dVertex
  10
5.82535
  20
0.99978
  30
0.00000
  42
-0.0807
  70
32
  0
VERTEX
  5
6F3
  100
AcDbEntity
  8
Layer 1
  62
0
  100
AcDb2dVertex
  10
5.83435
  20
1.10978
  30
0.00000
  42
-0.2158
  70
32
  0
VERTEX
  5
6F4
  100
AcDbEntity
  8
Layer 1
  62
0
  100
AcDb2dVertex
  10
5.86306
  20
1.14418
  30
0.00000
  42
-0.1886
  70
32
  0
VERTEX
  5
6F5
  100
AcDbEntity
  8
Layer 1
  62
0
  100
AcDb2dVertex
  10
5.94771
  20
1.14297
  30
0.00000
  42
-0.1220
  70
32
  0
VERTEX
  5
6F6
  100
AcDbEntity
  8
Layer 1
  62
0
  100
AcDb2dVertex
  10
5.97194
  20
1.11372
  30
0.00000
  70
32
  0
VERTEX
  5
6F7
  100
AcDbEntity
  8
Layer 1
  62
0
  100
AcDb2dVertex
  10
5.97449
  20
1.04300
  30
0.00000
  42
-0.0076
  70
32
  0
VERTEX
  5
6F8
  100
AcDbEntity
  8
Layer 1
  62
0
  100
AcDb2dVertex
  10
5.97113
  20
0.49081
  30
0.00000
  42
-0.5495
  70
32
  0
VERTEX
  5
6F9
  100
AcDbEntity
  8
Layer 1
  62
0
  100
AcDb2dVertex
  10
5.90408
  20
0.44463
  30
0.00000
  42
-0.0926
  70
32
  0
VERTEX
  5
6FA
  100
AcDbEntity
  8
Layer 1
  62
0
  100
AcDb2dVertex
  10
5.85235
  20
0.48431
  30
0.00000
  70
32
  0
VERTEX
  5
6FB
  100
AcDbEntity
  8
Layer 1
  62
0
  100
AcDb2dVertex
  10
5.63854
  20
0.74498
  30
0.00000
  42
0.3882
  70
32
  0
VERTEX
  5
6FC
  100
AcDbEntity
  8
Layer 1
  62
0
  100
AcDb2dVertex
  10
5.60262
  20
0.74592
  30
0.00000
  42
0.1786
  70
32
  0
VERTEX
  5
6FD
  100
AcDbEntity
  8
Layer 1
  62
0
  100
AcDb2dVertex
  10
5.58403
  20
0.70628
  30
0.00000
  42
-0.0073
  70
32
  0
VERTEX
  5
6FE
  100
AcDbEntity
  8
Layer 1
  62
0
  100
AcDb2dVertex
  10
5.57346
  20
0.48915
  30
0.00000
  70
32
  0
SEQEND
  5
6FF
  100
AcDbEntity
  8
Layer 1
  62
0
  0
POLYLINE
  5
700
  100
AcDbEntity
  8
Layer 1
  62
0
  100
AcDb2dPolyline
 66
     1
  10
0
  20
0
  30
0
  70
1
  0
VERTEX
  5
701
  100
AcDbEntity
  8
Layer 1
  62
0
  100
AcDb2dVertex
  10
4.83710
  20
1.02517
  30
0.00000
  42
0.3394
  70
32
  0
VERTEX
  5
702
  100
AcDbEntity
  8
Layer 1
  62
0
  100
AcDb2dVertex
  10
4.72938
  20
0.86658
  30
0.00000
  42
0.0585
  70
32
  0
VERTEX
  5
703
  100
AcDbEntity
  8
Layer 1
  62
0
  100
AcDb2dVertex
  10
4.73668
  20
0.64582
  30
0.00000
  42
0.2588
  70
32
  0
VERTEX
  5
704
  100
AcDbEntity
  8
Layer 1
  62
0
  100
AcDb2dVertex
  10
4.80373
  20
0.56439
  30
0.00000
  42
0.2780
  70
32
  0
VERTEX
  5
705
  100
AcDbEntity
  8
Layer 1
  62
0
  100
AcDb2dVertex
  10
4.92273
  20
0.54908
  30
0.00000
  42
0.1683
  70
32
  0
VERTEX
  5
706
  100
AcDbEntity
  8
Layer 1
  62
0
  100
AcDb2dVertex
  10
5.03211
  20
0.68770
  30
0.00000
  42
0.5594
  70
32
  0
VERTEX
  5
707
  100
AcDbEntity
  8
Layer 1
  62
0
  100
AcDb2dVertex
  10
4.83710
  20
1.02517
  30
0.00000
  70
32
  0
SEQEND
  5
708
  100
AcDbEntity
  8
Layer 1
  62
0
  0
POLYLINE
  5
709
  100
AcDbEntity
  8
Layer 1
  62
0
  100
AcDb2dPolyline
 66
     1
  10
0
  20
0
  30
0
  70
1
  0
VERTEX
  5
70A
  100
AcDbEntity
  8
Layer 1
  62
0
  100
AcDb2dVertex
  10
5.19307
  20
0.73495
  30
0.00000
  42
-0.4445
  70
32
  0
VERTEX
  5
70B
  100
AcDbEntity
  8
Layer 1
  62
0
  100
AcDb2dVertex
  10
4.85669
  20
0.41023
  30
0.00000
  42
-0.4445
  70
32
  0
VERTEX
  5
70C
  100
AcDbEntity
  8
Layer 1
  62
0
  100
AcDb2dVertex
  10
4.56806
  20
0.77803
  30
0.00000
  42
-0.4577
  70
32
  0
VERTEX
  5
70D
  100
AcDbEntity
  8
Layer 1
  62
0
  100
AcDb2dVertex
  10
4.85501
  20
1.15340
  30
0.00000
  42
-0.5360
  70
32
  0
VERTEX
  5
70E
  100
AcDbEntity
  8
Layer 1
  62
0
  100
AcDb2dVertex
  10
5.19307
  20
0.73495
  30
0.00000
  70
32
  0
SEQEND
  5
70F
  100
AcDbEntity
  8
Layer 1
  62
0
  0
POLYLINE
  5
710
  100
AcDbEntity
  8
Layer 1
  62
0
  100
AcDb2dPolyline
 66
     1
  10
0
  20
0
  30
0
  70
1
  0
VERTEX
  5
711
  100
AcDbEntity
  8
Layer 1
  62
0
  100
AcDb2dVertex
  10
4.11077
  20
0.86322
  30
0.00000
  42
0.3700
  70
32
  0
VERTEX
  5
712
  100
AcDbEntity
  8
Layer 1
  62
0
  100
AcDb2dVertex
  10
4.16335
  20
0.97859
  30
0.00000
  42
0.2032
  70
32
  0
VERTEX
  5
713
  100
AcDbEntity
  8
Layer 1
  62
0
  100
AcDb2dVertex
  10
4.13926
  20
1.01451
  30
0.00000
  42
0.0928
  70
32
  0
VERTEX
  5
714
  100
AcDbEntity
  8
Layer 1
  62
0
  100
AcDb2dVertex
  10
4.01595
  20
1.02432
  30
0.00000
  42
0.2456
  70
32
  0
VERTEX
  5
715
  100
AcDbEntity
  8
Layer 1
  62
0
  100
AcDb2dVertex
  10
3.98751
  20
0.99409
  30
0.00000
  42
0.0375
  70
32
  0
VERTEX
  5
716
  100
AcDbEntity
  8
Layer 1
  62
0
  100
AcDb2dVertex
  10
3.98622
  20
0.89345
  30
0.00000
  42
0.2949
  70
32
  0
VERTEX
  5
717
  100
AcDbEntity
  8
Layer 1
  62
0
  100
AcDb2dVertex
  10
4.01277
  20
0.84719
  30
0.00000
  70
32
  0
VERTEX
  5
718
  100
AcDbEntity
  8
Layer 1
  62
0
  100
AcDb2dVertex
  10
4.03651
  20
0.84741
  30
0.00000
  42
0.1774
  70
32
  0
VERTEX
  5
719
  100
AcDbEntity
  8
Layer 1
  62
0
  100
AcDb2dVertex
  10
4.11077
  20
0.86322
  30
0.00000
  70
32
  0
SEQEND
  5
71A
  100
AcDbEntity
  8
Layer 1
  62
0
  0
POLYLINE
  5
71B
  100
AcDbEntity
  8
Layer 1
  62
0
  100
AcDb2dPolyline
 66
     1
  10
0
  20
0
  30
0
  70
1
  0
VERTEX
  5
71C
  100
AcDbEntity
  8
Layer 1
  62
0
  100
AcDb2dVertex
  10
4.24397
  20
0.44633
  30
0.00000
  42
-0.0464
  70
32
  0
VERTEX
  5
71D
  100
AcDbEntity
  8
Layer 1
  62
0
  100
AcDb2dVertex
  10
4.13303
  20
0.59346
  30
0.00000
  42
0.0530
  70
32
  0
VERTEX
  5
71E
  100
AcDbEntity
  8
Layer 1
  62
0
  100
AcDb2dVertex
  10
4.06227
  20
0.69258
  30
0.00000
  42
0.4321
  70
32
  0
VERTEX
  5
71F
  100
AcDbEntity
  8
Layer 1
  62
0
  100
AcDb2dVertex
  10
3.99679
  20
0.69777
  30
0.00000
  42
0.1566
  70
32
  0
VERTEX
  5
720
  100
AcDbEntity
  8
Layer 1
  62
0
  100
AcDb2dVertex
  10
3.98375
  20
0.66033
  30
0.00000
  42
-0.0100
  70
32
  0
VERTEX
  5
721
  100
AcDbEntity
  8
Layer 1
  62
0
  100
AcDb2dVertex
  10
3.97600
  20
0.47643
  30
0.00000
  42
-0.5070
  70
32
  0
VERTEX
  5
722
  100
AcDbEntity
  8
Layer 1
  62
0
  100
AcDb2dVertex
  10
3.89427
  20
0.41744
  30
0.00000
  70
32
  0
VERTEX
  5
723
  100
AcDbEntity
  8
Layer 1
  62
0
  100
AcDb2dVertex
  10
3.87608
  20
0.42712
  30
0.00000
  42
-0.1644
  70
32
  0
VERTEX
  5
724
  100
AcDbEntity
  8
Layer 1
  62
0
  100
AcDb2dVertex
  10
3.85351
  20
0.47558
  30
0.00000
  42
-0.0147
  70
32
  0
VERTEX
  5
725
  100
AcDbEntity
  8
Layer 1
  62
0
  100
AcDb2dVertex
  10
3.84997
  20
1.10754
  30
0.00000
  42
-0.1698
  70
32
  0
VERTEX
  5
726
  100
AcDbEntity
  8
Layer 1
  62
0
  100
AcDb2dVertex
  10
3.86332
  20
1.14243
  30
0.00000
  42
-0.1689
  70
32
  0
VERTEX
  5
727
  100
AcDbEntity
  8
Layer 1
  62
0
  100
AcDb2dVertex
  10
3.89825
  20
1.15555
  30
0.00000
  42
-0.0399
  70
32
  0
VERTEX
  5
728
  100
AcDbEntity
  8
Layer 1
  62
0
  100
AcDb2dVertex
  10
4.13796
  20
1.14955
  30
0.00000
  42
-0.5682
  70
32
  0
VERTEX
  5
729
  100
AcDbEntity
  8
Layer 1
  62
0
  100
AcDb2dVertex
  10
4.30255
  20
0.85905
  30
0.00000
  70
32
  0
VERTEX
  5
72A
  100
AcDbEntity
  8
Layer 1
  62
0
  100
AcDb2dVertex
  10
4.24746
  20
0.78229
  30
0.00000
  42
0.0829
  70
32
  0
VERTEX
  5
72B
  100
AcDbEntity
  8
Layer 1
  62
0
  100
AcDb2dVertex
  10
4.22382
  20
0.73477
  30
0.00000
  42
0.1956
  70
32
  0
VERTEX
  5
72C
  100
AcDbEntity
  8
Layer 1
  62
0
  100
AcDb2dVertex
  10
4.22592
  20
0.71161
  30
0.00000
  70
32
  0
VERTEX
  5
72D
  100
AcDbEntity
  8
Layer 1
  62
0
  100
AcDb2dVertex
  10
4.34931
  20
0.52395
  30
0.00000
  42
-0.1197
  70
32
  0
VERTEX
  5
72E
  100
AcDbEntity
  8
Layer 1
  62
0
  100
AcDb2dVertex
  10
4.37144
  20
0.46608
  30
0.00000
  42
-0.3810
  70
32
  0
VERTEX
  5
72F
  100
AcDbEntity
  8
Layer 1
  62
0
  100
AcDb2dVertex
  10
4.33883
  20
0.41919
  30
0.00000
  42
-0.2120
  70
32
  0
VERTEX
  5
730
  100
AcDbEntity
  8
Layer 1
  62
0
  100
AcDb2dVertex
  10
4.24397
  20
0.44633
  30
0.00000
  70
32
  0
SEQEND
  5
731
  100
AcDbEntity
  8
Layer 1
  62
0
  0
POLYLINE
  5
732
  100
AcDbEntity
  8
Layer 1
  62
0
  100
AcDb2dPolyline
 66
     1
  10
0
  20
0
  30
0
  70
1
  0
VERTEX
  5
733
  100
AcDbEntity
  8
Layer 1
  62
0
  100
AcDb2dVertex
  10
3.57336
  20
0.55768
  30
0.00000
  42
-0.1073
  70
32
  0
VERTEX
  5
734
  100
AcDbEntity
  8
Layer 1
  62
0
  100
AcDb2dVertex
  10
3.56230
  20
0.44862
  30
0.00000
  42
-0.4818
  70
32
  0
VERTEX
  5
735
  100
AcDbEntity
  8
Layer 1
  62
0
  100
AcDb2dVertex
  10
3.47294
  20
0.42712
  30
0.00000
  42
-0.1644
  70
32
  0
VERTEX
  5
736
  100
AcDbEntity
  8
Layer 1
  62
0
  100
AcDb2dVertex
  10
3.45042
  20
0.47558
  30
0.00000
  42
-0.0131
  70
32
  0
VERTEX
  5
737
  100
AcDbEntity
  8
Layer 1
  62
0
  100
AcDb2dVertex
  10
3.44450
  20
0.59991
  30
0.00000
  70
32
  0
VERTEX
  5
738
  100
AcDbEntity
  8
Layer 1
  62
0
  100
AcDb2dVertex
  10
3.44441
  20
1.08170
  30
0.00000
  42
-0.3233
  70
32
  0
VERTEX
  5
739
  100
AcDbEntity
  8
Layer 1
  62
0
  100
AcDb2dVertex
  10
3.47353
  20
1.15058
  30
0.00000
  42
-0.1103
  70
32
  0
VERTEX
  5
73A
  100
AcDbEntity
  8
Layer 1
  62
0
  100
AcDb2dVertex
  10
3.53480
  20
1.14583
  30
0.00000
  42
-0.2597
  70
32
  0
VERTEX
  5
73B
  100
AcDbEntity
  8
Layer 1
  62
0
  100
AcDb2dVertex
  10
3.57121
  20
1.08085
  30
0.00000
  42
-0.0101
  70
32
  0
VERTEX
  5
73C
  100
AcDbEntity
  8
Layer 1
  62
0
  100
AcDb2dVertex
  10
3.57336
  20
0.55768
  30
0.00000
  70
32
  0
SEQEND
  5
73D
  100
AcDbEntity
  8
Layer 1
  62
0
  0
POLYLINE
  5
73E
  100
AcDbEntity
  8
Layer 1
  62
0
  100
AcDb2dPolyline
 66
     1
  10
0
  20
0
  30
0
  70
1
  0
VERTEX
  5
73F
  100
AcDbEntity
  8
Layer 1
  62
0
  100
AcDb2dVertex
  10
2.60428
  20
0.86600
  30
0.00000
  42
0.4348
  70
32
  0
VERTEX
  5
740
  100
AcDbEntity
  8
Layer 1
  62
0
  100
AcDb2dVertex
  10
2.41989
  20
1.02607
  30
0.00000
  42
0.3223
  70
32
  0
VERTEX
  5
741
  100
AcDbEntity
  8
Layer 1
  62
0
  100
AcDb2dVertex
  10
2.37380
  20
0.99593
  30
0.00000
  42
0.0924
  70
32
  0
VERTEX
  5
742
  100
AcDbEntity
  8
Layer 1
  62
0
  100
AcDb2dVertex
  10
2.36690
  20
0.90653
  30
0.00000
  70
32
  0
VERTEX
  5
743
  100
AcDbEntity
  8
Layer 1
  62
0
  100
AcDb2dVertex
  10
2.36798
  20
0.62383
  30
0.00000
  42
0.4115
  70
32
  0
VERTEX
  5
744
  100
AcDbEntity
  8
Layer 1
  62
0
  100
AcDb2dVertex
  10
2.41729
  20
0.56292
  30
0.00000
  42
0.2946
  70
32
  0
VERTEX
  5
745
  100
AcDbEntity
  8
Layer 1
  62
0
  100
AcDb2dVertex
  10
2.58001
  20
0.64967
  30
0.00000
  42
0.1299
  70
32
  0
VERTEX
  5
746
  100
AcDbEntity
  8
Layer 1
  62
0
  100
AcDb2dVertex
  10
2.60428
  20
0.86600
  30
0.00000
  70
32
  0
SEQEND
  5
747
  100
AcDbEntity
  8
Layer 1
  62
0
  0
POLYLINE
  5
748
  100
AcDbEntity
  8
Layer 1
  62
0
  100
AcDb2dPolyline
 66
     1
  10
0
  20
0
  30
0
  70
1
  0
VERTEX
  5
749
  100
AcDbEntity
  8
Layer 1
  62
0
  100
AcDb2dVertex
  10
2.76525
  20
0.86806
  30
0.00000
  42
-0.5127
  70
32
  0
VERTEX
  5
74A
  100
AcDbEntity
  8
Layer 1
  62
0
  100
AcDb2dVertex
  10
2.39369
  20
0.41727
  30
0.00000
  42
-0.0787
  70
32
  0
VERTEX
  5
74B
  100
AcDbEntity
  8
Layer 1
  62
0
  100
AcDb2dVertex
  10
2.28570
  20
0.41628
  30
0.00000
  42
-0.3034
  70
32
  0
VERTEX
  5
74C
  100
AcDbEntity
  8
Layer 1
  62
0
  100
AcDb2dVertex
  10
2.24118
  20
0.47518
  30
0.00000
  42
-0.0116
  70
32
  0
VERTEX
  5
74D
  100
AcDbEntity
  8
Layer 1
  62
0
  100
AcDb2dVertex
  10
2.23500
  20
1.04080
  30
0.00000
  70
32
  0
VERTEX
  5
74E
  100
AcDbEntity
  8
Layer 1
  62
0
  100
AcDb2dVertex
  10
2.23518
  20
1.08170
  30
0.00000
  42
-0.1212
  70
32
  0
VERTEX
  5
74F
  100
AcDbEntity
  8
Layer 1
  62
0
  100
AcDb2dVertex
  10
2.24217
  20
1.12837
  30
0.00000
  42
-0.2818
  70
32
  0
VERTEX
  5
750
  100
AcDbEntity
  8
Layer 1
  62
0
  100
AcDb2dVertex
  10
2.28315
  20
1.15627
  30
0.00000
  42
-0.0249
  70
32
  0
VERTEX
  5
751
  100
AcDbEntity
  8
Layer 1
  62
0
  100
AcDb2dVertex
  10
2.39539
  20
1.15663
  30
0.00000
  42
-0.4332
  70
32
  0
VERTEX
  5
752
  100
AcDbEntity
  8
Layer 1
  62
0
  100
AcDb2dVertex
  10
2.76525
  20
0.86806
  30
0.00000
  70
32
  0
SEQEND
  5
753
  100
AcDbEntity
  8
Layer 1
  62
0
  0
POLYLINE
  5
754
  100
AcDbEntity
  8
Layer 1
  62
0
  100
AcDb2dPolyline
 66
     1
  10
0
  20
0
  30
0
  70
1
  0
VERTEX
  5
755
  100
AcDbEntity
  8
Layer 1
  62
0
  100
AcDb2dVertex
  10
1.67874
  20
0.41301
  30
0.00000
  42
-0.0808
  70
32
  0
VERTEX
  5
756
  100
AcDbEntity
  8
Layer 1
  62
0
  100
AcDb2dVertex
  10
1.57053
  20
0.42036
  30
0.00000
  42
-0.3013
  70
32
  0
VERTEX
  5
757
  100
AcDbEntity
  8
Layer 1
  62
0
  100
AcDb2dVertex
  10
1.53273
  20
0.47746
  30
0.00000
  42
-0.0099
  70
32
  0
VERTEX
  5
758
  100
AcDbEntity
  8
Layer 1
  62
0
  100
AcDb2dVertex
  10
1.52932
  20
0.99852
  30
0.00000
  42
-0.0753
  70
32
  0
VERTEX
  5
759
  100
AcDbEntity
  8
Layer 1
  62
0
  100
AcDb2dVertex
  10
1.53644
  20
1.10969
  30
0.00000
  42
-0.2194
  70
32
  0
VERTEX
  5
75A
  100
AcDbEntity
  8
Layer 1
  62
0
  100
AcDb2dVertex
  10
1.56385
  20
1.14449
  30
0.00000
  42
-0.1640
  70
32
  0
VERTEX
  5
75B
  100
AcDbEntity
  8
Layer 1
  62
0
  100
AcDb2dVertex
  10
1.65092
  20
1.14525
  30
0.00000
  42
-0.1527
  70
32
  0
VERTEX
  5
75C
  100
AcDbEntity
  8
Layer 1
  62
0
  100
AcDb2dVertex
  10
1.66897
  20
1.13258
  30
0.00000
  42
-0.1487
  70
32
  0
VERTEX
  5
75D
  100
AcDbEntity
  8
Layer 1
  62
0
  100
AcDb2dVertex
  10
1.68183
  20
1.08237
  30
0.00000
  42
0.0058
  70
32
  0
VERTEX
  5
75E
  100
AcDbEntity
  8
Layer 1
  62
0
  100
AcDb2dVertex
  10
1.68653
  20
0.62584
  30
0.00000
  42
0.3593
  70
32
  0
VERTEX
  5
75F
  100
AcDbEntity
  8
Layer 1
  62
0
  100
AcDb2dVertex
  10
1.74704
  20
0.56256
  30
0.00000
  70
32
  0
VERTEX
  5
760
  100
AcDbEntity
  8
Layer 1
  62
0
  100
AcDb2dVertex
  10
1.92807
  20
0.55441
  30
0.00000
  42
-0.5348
  70
32
  0
VERTEX
  5
761
  100
AcDbEntity
  8
Layer 1
  62
0
  100
AcDb2dVertex
  10
1.99342
  20
0.44472
  30
0.00000
  70
32
  0
VERTEX
  5
762
  100
AcDbEntity
  8
Layer 1
  62
0
  100
AcDb2dVertex
  10
1.98056
  20
0.42900
  30
0.00000
  42
-0.1434
  70
32
  0
VERTEX
  5
763
  100
AcDbEntity
  8
Layer 1
  62
0
  100
AcDb2dVertex
  10
1.93139
  20
0.41453
  30
0.00000
  42
-0.0116
  70
32
  0
VERTEX
  5
764
  100
AcDbEntity
  8
Layer 1
  62
0
  100
AcDb2dVertex
  10
1.67874
  20
0.41301
  30
0.00000
  70
32
  0
SEQEND
  5
765
  100
AcDbEntity
  8
Layer 1
  62
0
  0
POLYLINE
  5
766
  100
AcDbEntity
  8
Layer 1
  62
0
  100
AcDb2dPolyline
 66
     1
  10
0
  20
0
  30
0
  70
1
  0
VERTEX
  5
767
  100
AcDbEntity
  8
Layer 1
  62
0
  100
AcDb2dVertex
  10
0.94058
  20
1.02513
  30
0.00000
  42
0.3392
  70
32
  0
VERTEX
  5
768
  100
AcDbEntity
  8
Layer 1
  62
0
  100
AcDb2dVertex
  10
0.83368
  20
0.86658
  30
0.00000
  42
0.3018
  70
32
  0
VERTEX
  5
769
  100
AcDbEntity
  8
Layer 1
  62
0
  100
AcDb2dVertex
  10
0.93503
  20
0.54867
  30
0.00000
  42
0.3165
  70
32
  0
VERTEX
  5
76A
  100
AcDbEntity
  8
Layer 1
  62
0
  100
AcDb2dVertex
  10
1.02635
  20
0.54903
  30
0.00000
  42
0.2034
  70
32
  0
VERTEX
  5
76B
  100
AcDbEntity
  8
Layer 1
  62
0
  100
AcDb2dVertex
  10
1.15472
  20
0.73374
  30
0.00000
  42
0.5230
  70
32
  0
VERTEX
  5
76C
  100
AcDbEntity
  8
Layer 1
  62
0
  100
AcDb2dVertex
  10
0.94058
  20
1.02513
  30
0.00000
  70
32
  0
SEQEND
  5
76D
  100
AcDbEntity
  8
Layer 1
  62
0
  0
POLYLINE
  5
76E
  100
AcDbEntity
  8
Layer 1
  62
0
  100
AcDb2dPolyline
 66
     1
  10
0
  20
0
  30
0
  70
1
  0
VERTEX
  5
76F
  100
AcDbEntity
  8
Layer 1
  62
0
  100
AcDb2dVertex
  10
0.67195
  20
0.77808
  30
0.00000
  42
-0.2699
  70
32
  0
VERTEX
  5
770
  100
AcDbEntity
  8
Layer 1
  62
0
  100
AcDb2dVertex
  10
0.77582
  20
1.08544
  30
0.00000
  42
-0.2699
  70
32
  0
VERTEX
  5
771
  100
AcDbEntity
  8
Layer 1
  62
0
  100
AcDb2dVertex
  10
1.09443
  20
1.14682
  30
0.00000
  42
-0.3541
  70
32
  0
VERTEX
  5
772
  100
AcDbEntity
  8
Layer 1
  62
0
  100
AcDb2dVertex
  10
1.30408
  20
0.73199
  30
0.00000
  42
-0.1116
  70
32
  0
VERTEX
  5
773
  100
AcDbEntity
  8
Layer 1
  62
0
  100
AcDb2dVertex
  10
1.21679
  20
0.51177
  30
0.00000
  42
-0.3387
  70
32
  0
VERTEX
  5
774
  100
AcDbEntity
  8
Layer 1
  62
0
  100
AcDb2dVertex
  10
0.84249
  20
0.43644
  30
0.00000
  42
-0.3387
  70
32
  0
VERTEX
  5
775
  100
AcDbEntity
  8
Layer 1
  62
0
  100
AcDb2dVertex
  10
0.67195
  20
0.77808
  30
0.00000
  70
32
  0
SEQEND
  5
776
  100
AcDbEntity
  8
Layer 1
  62
0
  0
POLYLINE
  5
777
  100
AcDbEntity
  8
Layer 1
  62
0
  100
AcDb2dPolyline
 66
     1
  10
0
  20
0
  30
0
  70
1
  0
VERTEX
  5
778
  100
AcDbEntity
  8
Layer 1
  62
0
  100
AcDb2dVertex
  10
9.55185
  20
1.47762
  30
0.00000
  70
32
  0
VERTEX
  5
779
  100
AcDbEntity
  8
Layer 1
  62
0
  100
AcDb2dVertex
  10
0.22474
  20
1.47529
  30
0.00000
  42
0.2692
  70
32
  0
VERTEX
  5
77A
  100
AcDbEntity
  8
Layer 1
  62
0
  100
AcDb2dVertex
  10
0.17466
  20
1.44376
  30
0.00000
  42
0.1100
  70
32
  0
VERTEX
  5
77B
  100
AcDbEntity
  8
Layer 1
  62
0
  100
AcDb2dVertex
  10
0.16633
  20
1.35441
  30
0.00000
  70
32
  0
VERTEX
  5
77C
  100
AcDbEntity
  8
Layer 1
  62
0
  100
AcDb2dVertex
  10
0.16889
  20
0.22378
  30
0.00000
  42
0.2846
  70
32
  0
VERTEX
  5
77D
  100
AcDbEntity
  8
Layer 1
  62
0
  100
AcDb2dVertex
  10
0.20225
  20
0.17554
  30
0.00000
  42
0.0997
  70
32
  0
VERTEX
  5
77E
  100
AcDbEntity
  8
Layer 1
  62
0
  100
AcDb2dVertex
  10
0.29228
  20
0.16789
  30
0.00000
  70
32
  0
VERTEX
  5
77F
  100
AcDbEntity
  8
Layer 1
  62
0
  100
AcDb2dVertex
  10
9.33368
  20
0.16762
  30
0.00000
  42
0.0082
  70
32
  0
VERTEX
  5
780
  100
AcDbEntity
  8
Layer 1
  62
0
  100
AcDb2dVertex
  10
9.61930
  20
0.17021
  30
0.00000
  42
0.2732
  70
32
  0
VERTEX
  5
781
  100
AcDbEntity
  8
Layer 1
  62
0
  100
AcDb2dVertex
  10
9.66870
  20
0.20175
  30
0.00000
  42
0.1072
  70
32
  0
VERTEX
  5
782
  100
AcDbEntity
  8
Layer 1
  62
0
  100
AcDb2dVertex
  10
9.67685
  20
0.29110
  30
0.00000
  70
32
  0
VERTEX
  5
783
  100
AcDbEntity
  8
Layer 1
  62
0
  100
AcDb2dVertex
  10
9.67434
  20
1.42173
  30
0.00000
  42
0.2832
  70
32
  0
VERTEX
  5
784
  100
AcDbEntity
  8
Layer 1
  62
0
  100
AcDb2dVertex
  10
9.64160
  20
1.46996
  30
0.00000
  42
0.1005
  70
32
  0
VERTEX
  5
785
  100
AcDbEntity
  8
Layer 1
  62
0
  100
AcDb2dVertex
  10
9.55185
  20
1.47762
  30
0.00000
  70
32
  0
SEQEND
  5
786
  100
AcDbEntity
  8
Layer 1
  62
0
  0
POLYLINE
  5
787
  100
AcDbEntity
  8
Layer 1
  62
0
  100
AcDb2dPolyline
 66
     1
  10
0
  20
0
  30
0
  70
1
  0
VERTEX
  5
788
  100
AcDbEntity
  8
Layer 1
  62
0
  100
AcDb2dVertex
  10
9.54517
  20
1.64750
  30
0.00000
  70
32
  0
VERTEX
  5
789
  100
AcDbEntity
  8
Layer 1
  62
0
  100
AcDb2dVertex
  10
9.59551
  20
1.65440
  30
0.00000
  42
0.3544
  70
32
  0
VERTEX
  5
78A
  100
AcDbEntity
  8
Layer 1
  62
0
  100
AcDb2dVertex
  10
9.61289
  20
1.67845
  30
0.00000
  70
32
  0
VERTEX
  5
78B
  100
AcDbEntity
  8
Layer 1
  62
0
  100
AcDb2dVertex
  10
9.60698
  20
1.69892
  30
0.00000
  70
32
  0
VERTEX
  5
78C
  100
AcDbEntity
  8
Layer 1
  62
0
  100
AcDb2dVertex
  10
4.98315
  20
9.48357
  30
0.00000
  70
32
  0
VERTEX
  5
78D
  100
AcDbEntity
  8
Layer 1
  62
0
  100
AcDb2dVertex
  10
4.95628
  20
9.52200
  30
0.00000
  42
0.2837
  70
32
  0
VERTEX
  5
78E
  100
AcDbEntity
  8
Layer 1
  62
0
  100
AcDb2dVertex
  10
4.92090
  20
9.52182
  30
0.00000
  42
0.1174
  70
32
  0
VERTEX
  5
78F
  100
AcDbEntity
  8
Layer 1
  62
0
  100
AcDb2dVertex
  10
4.85542
  20
9.45016
  30
0.00000
  70
32
  0
VERTEX
  5
790
  100
AcDbEntity
  8
Layer 1
  62
0
  100
AcDb2dVertex
  10
0.26675
  20
1.71845
  30
0.00000
  42
0.3089
  70
32
  0
VERTEX
  5
791
  100
AcDbEntity
  8
Layer 1
  62
0
  100
AcDb2dVertex
  10
0.27477
  20
1.66434
  30
0.00000
  42
0.1563
  70
32
  0
VERTEX
  5
792
  100
AcDbEntity
  8
Layer 1
  62
0
  100
AcDb2dVertex
  10
0.31413
  20
1.64943
  30
0.00000
  70
32
  0
VERTEX
  5
793
  100
AcDbEntity
  8
Layer 1
  62
0
  100
AcDb2dVertex
  10
1.94366
  20
1.64692
  30
0.00000
  70
32
  0
VERTEX
  5
794
  100
AcDbEntity
  8
Layer 1
  62
0
  100
AcDb2dVertex
  10
9.54517
  20
1.64750
  30
0.00000
  70
32
  0
SEQEND
  5
795
  100
AcDbEntity
  8
Layer 1
  62
0
  0
POLYLINE
  5
796
  100
AcDbEntity
  8
Layer 1
  62
0
  100
AcDb2dPolyline
 66
     1
  10
0
  20
0
  30
0
  70
1
  0
VERTEX
  5
797
  100
AcDbEntity
  8
Layer 1
  62
0
  100
AcDb2dVertex
  10
4.83387
  20
9.77398
  30
0.00000
  42
-0.1205
  70
32
  0
VERTEX
  5
798
  100
AcDbEntity
  8
Layer 1
  62
0
  100
AcDb2dVertex
  10
4.89976
  20
9.86145
  30
0.00000
  42
-0.3048
  70
32
  0
VERTEX
  5
799
  100
AcDbEntity
  8
Layer 1
  62
0
  100
AcDb2dVertex
  10
4.94701
  20
9.86763
  30
0.00000
  70
32
  0
VERTEX
  5
79A
  100
AcDbEntity
  8
Layer 1
  62
0
  100
AcDb2dVertex
  10
4.98951
  20
9.81406
  30
0.00000
  70
32
  0
VERTEX
  5
79B
  100
AcDbEntity
  8
Layer 1
  62
0
  100
AcDb2dVertex
  10
9.72553
  20
1.85223
  30
0.00000
  42
-0.0757
  70
32
  0
VERTEX
  5
79C
  100
AcDbEntity
  8
Layer 1
  62
0
  100
AcDb2dVertex
  10
9.83132
  20
1.63004
  30
0.00000
  42
-0.0089
  70
32
  0
VERTEX
  5
79D
  100
AcDbEntity
  8
Layer 1
  62
0
  100
AcDb2dVertex
  10
9.83880
  20
0.07253
  30
0.00000
  42
-0.1695
  70
32
  0
VERTEX
  5
79E
  100
AcDbEntity
  8
Layer 1
  62
0
  100
AcDb2dVertex
  10
9.82066
  20
0.02237
  30
0.00000
  42
-0.1685
  70
32
  0
VERTEX
  5
79F
  100
AcDbEntity
  8
Layer 1
  62
0
  100
AcDb2dVertex
  10
9.77041
  20
0.00445
  30
0.00000
  70
32
  0
VERTEX
  5
7A0
  100
AcDbEntity
  8
Layer 1
  62
0
  100
AcDb2dVertex
  10
0.15585
  20
0.00168
  30
0.00000
  42
-0.0694
  70
32
  0
VERTEX
  5
7A1
  100
AcDbEntity
  8
Layer 1
  62
0
  100
AcDb2dVertex
  10
0.04675
  20
0.00678
  30
0.00000
  42
-0.2865
  70
32
  0
VERTEX
  5
7A2
  100
AcDbEntity
  8
Layer 1
  62
0
  100
AcDb2dVertex
  10
0.00559
  20
0.07056
  30
0.00000
  42
-0.0103
  70
32
  0
VERTEX
  5
7A3
  100
AcDbEntity
  8
Layer 1
  62
0
  100
AcDb2dVertex
  10
0.01096
  20
1.63089
  30
0.00000
  42
-0.0670
  70
32
  0
VERTEX
  5
7A4
  100
AcDbEntity
  8
Layer 1
  62
0
  100
AcDb2dVertex
  10
0.06601
  20
1.76476
  30
0.00000
  42
-0.0088
  70
32
  0
VERTEX
  5
7A5
  100
AcDbEntity
  8
Layer 1
  62
0
  100
AcDb2dVertex
  10
0.38342
  20
2.30284
  30
0.00000
  70
32
  0
VERTEX
  5
7A6
  100
AcDbEntity
  8
Layer 1
  62
0
  100
AcDb2dVertex
  10
4.83387
  20
9.77398
  30
0.00000
  70
32
  0
SEQEND
  5
7A7
  100
AcDbEntity
  8
Layer 1
  62
0
 0
ENDSEC
 0
EOF
