  0
SECTION
  2
HEADER
  9
$ACADVER
  1
AC1009
  9
$DWGCODEPAGE
  3
ansi_1252
  9
$INSBASE
 10
0.0
 20
0.0
 30
0.0
  9
$EXTMIN
 10
-15.11092692956003
 20
-0.5952025539797603
 30
0.0
  9
$EXTMAX
 10
22.50186140492271
 20
18.9957595662571
 30
0.0
  9
$LIMMIN
 10
0.0
 20
0.0
  9
$LIMMAX
 10
420.0
 20
297.0
  9
$ORTHOMODE
 70
     0
  9
$REGENMODE
 70
     1
  9
$FILLMODE
 70
     1
  9
$QTEXTMODE
 70
     0
  9
$MIRRTEXT
 70
     0
  9
$DRAGMODE
 70
     2
  9
$LTSCALE
 40
1.0
  9
$OSMODE
 70
    37
  9
$ATTMODE
 70
     1
  9
$TEXTSIZE
 40
2.5
  9
$TRACEWID
 40
1.0
  9
$TEXTSTYLE
  7
STANDARD
  9
$CLAYER
  8
1
  9
$CELTYPE
  6
BYLAYER
  9
$CECOLOR
 62
     1
  9
$DIMSCALE
 40
1.0
  9
$DIMASZ
 40
2.5
  9
$DIMEXO
 40
0.625
  9
$DIMDLI
 40
3.75
  9
$DIMRND
 40
0.0
  9
$DIMDLE
 40
0.0
  9
$DIMEXE
 40
1.25
  9
$DIMTP
 40
0.0
  9
$DIMTM
 40
0.0
  9
$DIMTXT
 40
2.5
  9
$DIMCEN
 40
2.5
  9
$DIMTSZ
 40
0.0
  9
$DIMTOL
 70
     0
  9
$DIMLIM
 70
     0
  9
$DIMTIH
 70
     0
  9
$DIMTOH
 70
     0
  9
$DIMSE1
 70
     0
  9
$DIMSE2
 70
     0
  9
$DIMTAD
 70
     1
  9
$DIMZIN
 70
     8
  9
$DIMBLK
  1

  9
$DIMASO
 70
     1
  9
$DIMSHO
 70
     1
  9
$DIMPOST
  1

  9
$DIMAPOST
  1

  9
$DIMALT
 70
     0
  9
$DIMALTD
 70
     3
  9
$DIMALTF
 40
0.03937007874016
  9
$DIMLFAC
 40
1.0
  9
$DIMTOFL
 70
     1
  9
$DIMTVP
 40
0.0
  9
$DIMTIX
 70
     0
  9
$DIMSOXD
 70
     0
  9
$DIMSAH
 70
     0
  9
$DIMBLK1
  1

  9
$DIMBLK2
  1

  9
$DIMSTYLE
  2
STANDARD
  9
$DIMCLRD
 70
     0
  9
$DIMCLRE
 70
     0
  9
$DIMCLRT
 70
     0
  9
$DIMTFAC
 40
1.0
  9
$DIMGAP
 40
0.09
  9
$LUNITS
 70
     2
  9
$LUPREC
 70
     4
  9
$SKETCHINC
 40
1.0
  9
$FILLETRAD
 40
0.0
  9
$AUNITS
 70
     0
  9
$AUPREC
 70
     0
  9
$MENU
  1
.
  9
$ELEVATION
 40
0.0
  9
$PELEVATION
 40
0.0
  9
$THICKNESS
 40
0.0
  9
$LIMCHECK
 70
     0
  9
$CHAMFERA
 40
0.0
  9
$CHAMFERB
 40
0.0
  9
$SKPOLY
 70
     0
  9
$TDCREATE
 40
2453353.508792488
  9
$TDUPDATE
 40
4909549.848902222
  9
$TDINDWG
 40
9791572.06217926
  9
$TDUSRTIMER
 40
9791572.06217926
  9
$USRTIMER
 70
     1
  9
$ANGBASE
 50
0.0
  9
$ANGDIR
 70
     0
  9
$PDMODE
 70
     0
  9
$PDSIZE
 40
0.0
  9
$PLINEWID
 40
0.0
  9
$COORDS
 70
     1
  9
$SPLFRAME
 70
     0
  9
$SPLINETYPE
 70
     6
  9
$SPLINESEGS
 70
     8
  9
$ATTDIA
 70
     0
  9
$ATTREQ
 70
     1
  9
$HANDLING
 70
     1
  9
$HANDSEED
  5
1C4
  9
$SURFTAB1
 70
     6
  9
$SURFTAB2
 70
     6
  9
$SURFTYPE
 70
     6
  9
$SURFU
 70
     6
  9
$SURFV
 70
     6
  9
$UCSNAME
  2

  9
$UCSORG
 10
0.0
 20
0.0
 30
0.0
  9
$UCSXDIR
 10
1.0
 20
0.0
 30
0.0
  9
$UCSYDIR
 10
0.0
 20
1.0
 30
0.0
  9
$PUCSNAME
  2

  9
$PUCSORG
 10
0.0
 20
0.0
 30
0.0
  9
$PUCSXDIR
 10
1.0
 20
0.0
 30
0.0
  9
$PUCSYDIR
 10
0.0
 20
1.0
 30
0.0
  9
$USERI1
 70
     0
  9
$USERI2
 70
     0
  9
$USERI3
 70
     0
  9
$USERI4
 70
     0
  9
$USERI5
 70
     0
  9
$USERR1
 40
0.0
  9
$USERR2
 40
0.0
  9
$USERR3
 40
0.0
  9
$USERR4
 40
0.0
  9
$USERR5
 40
0.0
  9
$WORLDVIEW
 70
     1
  9
$SHADEDGE
 70
     3
  9
$SHADEDIF
 70
    70
  9
$TILEMODE
 70
     1
  9
$MAXACTVP
 70
    64
  9
$PLIMCHECK
 70
     0
  9
$PEXTMIN
 10
0.0
 20
0.0
 30
0.0
  9
$PEXTMAX
 10
0.0
 20
0.0
 30
0.0
  9
$PLIMMIN
 10
0.0
 20
0.0
  9
$PLIMMAX
 10
0.0
 20
0.0
  9
$UNITMODE
 70
     0
  9
$VISRETAIN
 70
     1
  9
$PLINEGEN
 70
     0
  9
$PSLTSCALE
 70
     1
  0
ENDSEC
  0
SECTION
  2
TABLES
  0
TABLE
  2
VPORT
 70
     1
  0
VPORT
  2
*ACTIVE
 70
     0
 10
0.0
 20
0.0
 11
1.0
 21
1.0
 12
11.52814612064778
 22
10.66837317469128
 13
0.0
 23
0.0
 14
1.0
 24
1.0
 15
1.0
 25
1.0
 16
0.0
 26
0.0
 36
1.0
 17
0.0
 27
0.0
 37
0.0
 40
26.92664010817521
 41
1.664827586206897
 42
50.0
 43
0.0
 44
0.0
 50
0.0
 51
0.0
 71
    16
 72
  1000
 73
     1
 74
     1
 75
     0
 76
     0
 77
     0
 78
     0
  0
ENDTAB
  0
TABLE
  2
LTYPE
 70
     1
  0
LTYPE
  2
CONTINUOUS
 70
     0
  3
Solid line
 72
    65
 73
     0
 40
0.0
  0
ENDTAB
  0
TABLE
  2
LAYER
 70
     3
  0
LAYER
  2
0
 70
     0
 62
     7
  6
CONTINUOUS
  0
LAYER
  2
2
 70
     0
 62
     7
  6
CONTINUOUS
  0
LAYER
  2
1
 70
     0
 62
     7
  6
CONTINUOUS
  0
ENDTAB
  0
TABLE
  2
STYLE
 70
     1
  0
STYLE
  2
STANDARD
 70
     0
 40
0.0
 41
1.0
 50
0.0
 71
     0
 42
2.5
  3
txt
  4

  0
ENDTAB
  0
TABLE
  2
VIEW
 70
     0
  0
ENDTAB
  0
TABLE
  2
UCS
 70
     0
  0
ENDTAB
  0
TABLE
  2
APPID
 70
     1
  0
APPID
  2
ACAD
 70
     0
  0
ENDTAB
  0
TABLE
  2
DIMSTYLE
 70
     1
  0
DIMSTYLE
  2
STANDARD
 70
     0
  3

  4

  5

  6

  7

 40
1.0
 41
0.18
 42
0.0625
 43
0.38
 44
0.18
 45
0.0
 46
0.0
 47
0.0
 48
0.0
140
0.18
141
0.09
142
0.0
143
25.4
144
1.0
145
0.0
146
1.0
147
0.09
 71
     0
 72
     0
 73
     1
 74
     1
 75
     0
 76
     0
 77
     0
 78
     0
170
     0
171
     2
172
     0
173
     0
174
     0
175
     0
176
     0
177
     0
178
     0
  0
ENDTAB
  0
ENDSEC
  0
SECTION
  2
BLOCKS
  0
BLOCK
  8
0
  2
$MODEL_SPACE
 70
     0
 10
0.0
 20
0.0
 30
0.0
  3
$MODEL_SPACE
  1

  0
ENDBLK
  5
21
  8
0
  0
BLOCK
 67
     1
  8
0
  2
$PAPER_SPACE
 70
     0
 10
0.0
 20
0.0
 30
0.0
  3
$PAPER_SPACE
  1

  0
ENDBLK
  5
76
 67
     1
  8
0
  0
ENDSEC
  0
SECTION
  2
ENTITIES
  0
CIRCLE
  5
AF
  8
1
 62
     7
 10
3.518099646046464
 20
5.243770113185111
 30
0.0
 40
0.2506743070691959
  0
CIRCLE
  5
B0
  8
1
 62
     7
 10
4.388611175090889
 20
5.736934351961237
 30
0.0
 40
0.2506743070691959
  0
CIRCLE
  5
B1
  8
1
 62
     7
 10
5.258643678337172
 20
6.228912981837776
 30
0.0
 40
0.2506743070691968
  0
CIRCLE
  5
B2
  8
1
 62
     7
 10
6.129155207381597
 20
6.722077220613902
 30
0.0
 40
0.2506743070691968
  0
CIRCLE
  5
B3
  8
1
 62
     7
 10
6.999427223526952
 20
7.214648654940234
 30
0.0
 40
0.2506743070691968
  0
CIRCLE
  5
B4
  8
1
 62
     1
 10
10.87723852606015
 20
9.469309631515039
 30
0.0
 40
0.2506743070691968
  0
CIRCLE
  5
BA
  8
1
 62
     7
 10
4.50324251469913
 20
3.503226080894403
 30
0.0
 40
0.2506743070691968
  0
CIRCLE
  5
BB
  8
1
 62
     7
 10
5.373754043743555
 20
3.996390319670528
 30
0.0
 40
0.2506743070691968
  0
CIRCLE
  5
BC
  8
1
 62
     7
 10
6.243786546989838
 20
4.488368949547068
 30
0.0
 40
0.250674307069195
  0
CIRCLE
  5
BD
  8
1
 62
     7
 10
7.114298076034263
 20
4.981533188323193
 30
0.0
 40
0.2506743070691968
  0
CIRCLE
  5
BE
  8
1
 62
     7
 10
7.984570092179617
 20
5.474104622649526
 30
0.0
 40
0.2506743070691968
  0
CIRCLE
  5
BF
  8
1
 62
     7
 10
2.542193860908196
 20
6.98081377698615
 30
0.0
 40
0.2506743070691968
  0
CIRCLE
  5
C0
  8
1
 62
     7
 10
3.403468306438224
 20
7.477478384251944
 30
0.0
 40
0.2506743070691964
  0
CIRCLE
  5
C1
  8
1
 62
     7
 10
4.273500809684509
 20
7.96945701412848
 30
0.0
 40
0.2506743070691959
  0
CIRCLE
  5
C2
  8
1
 62
     7
 10
5.144012338728933
 20
8.46262125290461
 30
0.0
 40
0.2506743070691968
  0
CIRCLE
  5
C3
  8
1
 62
     7
 10
6.014284354874286
 20
8.955192687230943
 30
0.0
 40
0.2506743070691968
  0
CIRCLE
  5
D0
  8
1
 62
     7
 10
12.94797446428276
 20
6.020224387166582
 30
0.0
 40
0.2506743070691968
  0
CIRCLE
  5
D1
  8
1
 62
     7
 10
8.877973027995349
 20
5.997028053983845
 30
0.0
 40
0.2506743070691968
  0
CIRCLE
  5
D2
  8
1
 62
     7
 10
12.87684060214868
 20
4.997030029399872
 30
0.0
 40
0.2506743070691968
  0
CIRCLE
  5
D3
  8
1
 62
     7
 10
12.87723852606015
 20
3.996529589488194
 30
0.0
 40
0.2506743070691968
  0
CIRCLE
  5
D4
  8
1
 62
     7
 10
12.87684060214868
 20
2.997030029399872
 30
0.0
 40
0.2506743070691968
  0
CIRCLE
  5
D5
  8
1
 62
     7
 10
12.87723852606015
 20
1.996529589488194
 30
0.0
 40
0.2506743070691968
  0
CIRCLE
  5
D7
  8
1
 62
     7
 10
10.87723852606014
 20
0.9965295894881938
 30
0.0
 40
0.2506743070691968
  0
CIRCLE
  5
D8
  8
1
 62
     7
 10
8.877238526060145
 20
0.9965295894881949
 30
0.0
 40
0.2506743070691968
  0
CIRCLE
  5
D9
  8
1
 62
     7
 10
8.877238526060145
 20
1.996529589488195
 30
0.0
 40
0.2506743070691968
  0
CIRCLE
  5
DA
  8
1
 62
     7
 10
10.87723852606015
 20
1.996529589488194
 30
0.0
 40
0.2506743070691968
  0
CIRCLE
  5
DB
  8
1
 62
     7
 10
10.87684060214868
 20
2.997030029399872
 30
0.0
 40
0.2506743070691968
  0
CIRCLE
  5
DC
  8
1
 62
     7
 10
10.87723852606015
 20
3.996529589488194
 30
0.0
 40
0.2506743070691968
  0
CIRCLE
  5
DD
  8
1
 62
     7
 10
10.87684060214868
 20
4.997030029399872
 30
0.0
 40
0.2506743070691968
  0
CIRCLE
  5
DE
  8
1
 62
     7
 10
8.876840602148679
 20
4.997030029399873
 30
0.0
 40
0.2506743070691968
  0
CIRCLE
  5
DF
  8
1
 62
     7
 10
8.877238526060145
 20
3.996529589488195
 30
0.0
 40
0.2506743070691968
  0
CIRCLE
  5
E0
  8
1
 62
     7
 10
8.876840602148679
 20
2.997030029399873
 30
0.0
 40
0.2506743070691968
  0
CIRCLE
  5
F2
  8
1
 62
     7
 10
10.87723852606014
 20
0.9965295894881938
 30
0.0
 40
0.2506743070691968
  0
CIRCLE
  5
F3
  8
1
 62
     7
 10
8.877238526060143
 20
0.9965295894881938
 30
0.0
 40
0.2506743070691968
  0
CIRCLE
  5
F4
  8
1
 62
     7
 10
11.87723852606014
 20
0.9965295894881938
 30
0.0
 40
0.2506743070691968
  0
CIRCLE
  5
F5
  8
1
 62
     7
 10
9.877238526060143
 20
0.9965295894881938
 30
0.0
 40
0.2506743070691968
  0
CIRCLE
  5
F6
  8
1
 62
     7
 10
4.010671080372797
 20
4.373498097039756
 30
0.0
 40
0.2506743070691968
  0
CIRCLE
  5
F7
  8
1
 62
     7
 10
3.025528211720132
 20
6.114042129330465
 30
0.0
 40
0.2506743070691959
  0
CIRCLE
  5
FD
  8
1
 62
     7
 10
12.87723852606015
 20
0.9965295894881938
 30
0.0
 40
0.2506743070691968
  0
CIRCLE
  5
14A
  8
1
 62
     7
 10
3.518099646046464
 20
13.75086822295096
 30
0.0
 40
0.2506743070691959
  0
CIRCLE
  5
14B
  8
1
 62
     7
 10
4.388611175090889
 20
13.25770398417483
 30
0.0
 40
0.2506743070691959
  0
CIRCLE
  5
14C
  8
1
 62
     7
 10
5.258643678337172
 20
12.76572535429829
 30
0.0
 40
0.2506743070691968
  0
CIRCLE
  5
14D
  8
1
 62
     7
 10
6.129155207381597
 20
12.27256111552217
 30
0.0
 40
0.2506743070691968
  0
CIRCLE
  5
14E
  8
1
 62
     7
 10
6.999427223526952
 20
11.77998968119584
 30
0.0
 40
0.2506743070691968
  0
CIRCLE
  5
14F
  8
1
 62
     7
 10
4.50324251469913
 20
15.49141225524167
 30
0.0
 40
0.2506743070691968
  0
CIRCLE
  5
150
  8
1
 62
     7
 10
5.373754043743555
 20
14.99824801646554
 30
0.0
 40
0.2506743070691968
  0
CIRCLE
  5
151
  8
1
 62
     7
 10
6.243786546989838
 20
14.506269386589
 30
0.0
 40
0.250674307069195
  0
CIRCLE
  5
152
  8
1
 62
     7
 10
7.114298076034263
 20
14.01310514781288
 30
0.0
 40
0.2506743070691968
  0
CIRCLE
  5
153
  8
1
 62
     7
 10
7.984570092179617
 20
13.52053371348654
 30
0.0
 40
0.2506743070691968
  0
CIRCLE
  5
154
  8
1
 62
     7
 10
2.542193860908196
 20
12.01382455914992
 30
0.0
 40
0.2506743070691968
  0
CIRCLE
  5
155
  8
1
 62
     7
 10
3.403468306438224
 20
11.51715995188413
 30
0.0
 40
0.2506743070691964
  0
CIRCLE
  5
156
  8
1
 62
     7
 10
4.273500809684509
 20
11.02518132200759
 30
0.0
 40
0.2506743070691959
  0
CIRCLE
  5
157
  8
1
 62
     7
 10
5.144012338728933
 20
10.53201708323146
 30
0.0
 40
0.2506743070691968
  0
CIRCLE
  5
158
  8
1
 62
     7
 10
6.014284354874286
 20
10.03944564890513
 30
0.0
 40
0.2506743070691968
  0
CIRCLE
  5
159
  8
1
 62
     7
 10
8.877973027995349
 20
12.99761028215223
 30
0.0
 40
0.2506743070691968
  0
CIRCLE
  5
15A
  8
1
 62
     7
 10
8.876840602148679
 20
13.9976083067362
 30
0.0
 40
0.2506743070691968
  0
CIRCLE
  5
15B
  8
1
 62
     7
 10
8.877238526060145
 20
14.99810874664788
 30
0.0
 40
0.2506743070691968
  0
CIRCLE
  5
15C
  8
1
 62
     7
 10
8.876840602148679
 20
15.9976083067362
 30
0.0
 40
0.2506743070691968
  0
CIRCLE
  5
15D
  8
1
 62
     7
 10
4.010671080372797
 20
14.62114023909631
 30
0.0
 40
0.2506743070691968
  0
CIRCLE
  5
15E
  8
1
 62
     7
 10
3.025528211720132
 20
12.88059620680561
 30
0.0
 40
0.2506743070691959
  0
CIRCLE
  5
15F
  8
1
 62
     7
 10
12.87723852606015
 20
12.99810874664788
 30
0.0
 40
0.2506743070691968
  0
CIRCLE
  5
160
  8
1
 62
     7
 10
12.87684060214868
 20
13.9976083067362
 30
0.0
 40
0.2506743070691968
  0
CIRCLE
  5
161
  8
1
 62
     7
 10
12.87723852606015
 20
14.99810874664788
 30
0.0
 40
0.2506743070691968
  0
CIRCLE
  5
162
  8
1
 62
     7
 10
12.87684060214868
 20
15.9976083067362
 30
0.0
 40
0.2506743070691968
  0
CIRCLE
  5
163
  8
1
 62
     7
 10
12.87723852606015
 20
16.99810874664788
 30
0.0
 40
0.2506743070691968
  0
CIRCLE
  5
164
  8
1
 62
     7
 10
10.87723852606014
 20
17.99810874664788
 30
0.0
 40
0.2506743070691968
  0
CIRCLE
  5
165
  8
1
 62
     7
 10
8.877238526060145
 20
17.99810874664788
 30
0.0
 40
0.2506743070691968
  0
CIRCLE
  5
166
  8
1
 62
     7
 10
8.877238526060145
 20
16.99810874664788
 30
0.0
 40
0.2506743070691968
  0
CIRCLE
  5
167
  8
1
 62
     7
 10
10.87723852606015
 20
16.99810874664788
 30
0.0
 40
0.2506743070691968
  0
CIRCLE
  5
168
  8
1
 62
     7
 10
10.87684060214868
 20
15.9976083067362
 30
0.0
 40
0.2506743070691968
  0
CIRCLE
  5
169
  8
1
 62
     7
 10
10.87723852606015
 20
14.99810874664788
 30
0.0
 40
0.2506743070691968
  0
CIRCLE
  5
16A
  8
1
 62
     7
 10
10.87684060214868
 20
13.9976083067362
 30
0.0
 40
0.2506743070691968
  0
CIRCLE
  5
16B
  8
1
 62
     7
 10
10.87723852606014
 20
17.99810874664788
 30
0.0
 40
0.2506743070691968
  0
CIRCLE
  5
16C
  8
1
 62
     7
 10
8.877238526060143
 20
17.99810874664788
 30
0.0
 40
0.2506743070691968
  0
CIRCLE
  5
16D
  8
1
 62
     7
 10
11.87723852606014
 20
17.99810874664788
 30
0.0
 40
0.2506743070691968
  0
CIRCLE
  5
16E
  8
1
 62
     7
 10
9.877238526060143
 20
17.99810874664788
 30
0.0
 40
0.2506743070691968
  0
CIRCLE
  5
16F
  8
1
 62
     7
 10
12.87723852606015
 20
17.99810874664788
 30
0.0
 40
0.2506743070691968
  0
CIRCLE
  5
170
  8
1
 62
     7
 10
18.27691359777766
 20
5.243770113185111
 30
0.0
 40
0.2506743070691968
  0
CIRCLE
  5
171
  8
1
 62
     7
 10
17.40640206873324
 20
5.736934351961237
 30
0.0
 40
0.2506743070691968
  0
CIRCLE
  5
172
  8
1
 62
     7
 10
16.53636956548695
 20
6.228912981837776
 30
0.0
 40
0.2506743070691968
  0
CIRCLE
  5
173
  8
1
 62
     7
 10
15.66585803644253
 20
6.722077220613902
 30
0.0
 40
0.250674307069195
  0
CIRCLE
  5
174
  8
1
 62
     7
 10
14.79558602029717
 20
7.214648654940234
 30
0.0
 40
0.2506743070691968
  0
CIRCLE
  5
175
  8
1
 62
     7
 10
17.291770729125
 20
3.503226080894403
 30
0.0
 40
0.2506743070691968
  0
CIRCLE
  5
176
  8
1
 62
     7
 10
16.42125920008057
 20
3.996390319670528
 30
0.0
 40
0.2506743070691968
  0
CIRCLE
  5
177
  8
1
 62
     7
 10
15.55122669683429
 20
4.488368949547068
 30
0.0
 40
0.2506743070691968
  0
CIRCLE
  5
178
  8
1
 62
     7
 10
14.68071516778986
 20
4.981533188323193
 30
0.0
 40
0.250674307069195
  0
CIRCLE
  5
179
  8
1
 62
     7
 10
13.81044315164451
 20
5.474104622649526
 30
0.0
 40
0.2506743070691968
  0
CIRCLE
  5
17A
  8
1
 62
     7
 10
19.25281938291593
 20
6.98081377698615
 30
0.0
 40
0.2506743070691968
  0
CIRCLE
  5
17B
  8
1
 62
     7
 10
18.3915449373859
 20
7.477478384251944
 30
0.0
 40
0.2506743070691968
  0
CIRCLE
  5
17C
  8
1
 62
     7
 10
17.52151243413962
 20
7.96945701412848
 30
0.0
 40
0.2506743070691968
  0
CIRCLE
  5
17D
  8
1
 62
     7
 10
16.65100090509519
 20
8.46262125290461
 30
0.0
 40
0.2506743070691968
  0
CIRCLE
  5
17E
  8
1
 62
     7
 10
15.78072888894984
 20
8.955192687230943
 30
0.0
 40
0.2506743070691986
  0
CIRCLE
  5
17F
  8
1
 62
     7
 10
17.78434216345133
 20
4.373498097039756
 30
0.0
 40
0.2506743070691968
  0
CIRCLE
  5
180
  8
1
 62
     7
 10
18.76948503210399
 20
6.114042129330465
 30
0.0
 40
0.2506743070691968
  0
CIRCLE
  5
181
  8
1
 62
     7
 10
18.27691359777766
 20
13.75086822295096
 30
0.0
 40
0.2506743070691968
  0
CIRCLE
  5
182
  8
1
 62
     7
 10
17.40640206873324
 20
13.25770398417483
 30
0.0
 40
0.2506743070691968
  0
CIRCLE
  5
183
  8
1
 62
     7
 10
16.53636956548695
 20
12.76572535429829
 30
0.0
 40
0.2506743070691968
  0
CIRCLE
  5
184
  8
1
 62
     7
 10
15.66585803644253
 20
12.27256111552217
 30
0.0
 40
0.250674307069195
  0
CIRCLE
  5
185
  8
1
 62
     7
 10
14.79558602029717
 20
11.77998968119584
 30
0.0
 40
0.2506743070691968
  0
CIRCLE
  5
186
  8
1
 62
     7
 10
17.291770729125
 20
15.49141225524167
 30
0.0
 40
0.2506743070691968
  0
CIRCLE
  5
187
  8
1
 62
     7
 10
16.42125920008057
 20
14.99824801646554
 30
0.0
 40
0.2506743070691968
  0
CIRCLE
  5
188
  8
1
 62
     7
 10
15.55122669683429
 20
14.506269386589
 30
0.0
 40
0.2506743070691968
  0
CIRCLE
  5
189
  8
1
 62
     7
 10
14.68071516778986
 20
14.01310514781288
 30
0.0
 40
0.250674307069195
  0
CIRCLE
  5
18A
  8
1
 62
     7
 10
13.81044315164451
 20
13.52053371348654
 30
0.0
 40
0.2506743070691968
  0
CIRCLE
  5
18B
  8
1
 62
     7
 10
19.25281938291593
 20
12.01382455914992
 30
0.0
 40
0.2506743070691968
  0
CIRCLE
  5
18C
  8
1
 62
     7
 10
18.3915449373859
 20
11.51715995188413
 30
0.0
 40
0.2506743070691968
  0
CIRCLE
  5
18D
  8
1
 62
     7
 10
17.52151243413962
 20
11.02518132200759
 30
0.0
 40
0.2506743070691968
  0
CIRCLE
  5
18E
  8
1
 62
     7
 10
16.65100090509519
 20
10.53201708323146
 30
0.0
 40
0.2506743070691968
  0
CIRCLE
  5
18F
  8
1
 62
     7
 10
15.78072888894984
 20
10.03944564890513
 30
0.0
 40
0.2506743070691986
  0
CIRCLE
  5
190
  8
1
 62
     7
 10
17.78434216345133
 20
14.62114023909631
 30
0.0
 40
0.2506743070691968
  0
CIRCLE
  5
191
  8
1
 62
     7
 10
18.76948503210399
 20
12.88059620680561
 30
0.0
 40
0.2506743070691968
  0
CIRCLE
  5
194
  8
1
 62
     7
 10
14.85444147570851
 20
9.496003836653443
 30
0.0
 40
0.2506743070691968
  0
CIRCLE
  5
197
  8
1
 62
     7
 10
6.966037610607788
 20
9.455776064333543
 30
0.0
 40
0.2506743070691968
  0
POLYLINE
  5
199
  8
1
 62
     1
 66
     1
 10
0.0
 20
0.0
 30
0.0
 70
     1
  0
VERTEX
  5
1BE
  8
1
 62
     1
 10
21.80457740350384
 20
9.510535367397099
 30
0.0
  0
VERTEX
  5
1BF
  8
1
 62
     1
 10
16.3338793058363
 20
18.93709586231772
 30
0.0
  0
VERTEX
  5
1C0
  8
1
 62
     1
 10
5.434889398090455
 20
18.91261258076274
 30
0.0
  0
VERTEX
  5
1C1
  8
1
 62
     1
 10
0.0065975880121503
 20
9.461568804287133
 30
0.0
  0
VERTEX
  5
1C2
  8
1
 62
     1
 10
5.477295685679698
 20
0.0350083093665052
 30
0.0
  0
VERTEX
  5
1C3
  8
1
 62
     1
 10
16.37628559342553
 20
0.0594915909214869
 30
0.0
  0
SEQEND
  5
1BD
  8
1
 62
     1
  0
CIRCLE
  5
19A
  8
1
 62
     4
 10
6.204872354175869
 20
1.432869890675372
 30
0.0
 40
0.2506743070691968
  0
CIRCLE
  5
19B
  8
1
 62
     4
 10
6.713656638245398
 20
2.294345276795461
 30
0.0
 40
0.2506743070691968
  0
CIRCLE
  5
19C
  8
1
 62
     4
 10
7.222616701729903
 20
3.154554078620947
 30
0.0
 40
0.2506743070691968
  0
CIRCLE
  5
19D
  8
1
 62
     4
 10
7.731400985799432
 20
4.016029464741036
 30
0.0
 40
0.2506743070691968
  0
CIRCLE
  5
1A1
  8
1
 62
   150
 10
14.04572946919176
 20
14.94829967479343
 30
0.0
 40
0.2506743070691968
  0
CIRCLE
  5
1A2
  8
1
 62
   150
 10
14.5377052132207
 20
15.81948344179904
 30
0.0
 40
0.2506743070691968
  0
CIRCLE
  5
1A3
  8
1
 62
   150
 10
15.02849600320731
 20
16.69018656538623
 30
0.0
 40
0.2506743070691968
  0
CIRCLE
  5
1A4
  8
1
 62
   150
 10
15.52047174723624
 20
17.56137033239184
 30
0.0
 40
0.2506743070691968
  0
CIRCLE
  5
1A5
  8
1
 62
     2
 10
4.55679317469686
 20
9.472305601758928
 30
0.0
 40
0.2506743070691968
  0
CIRCLE
  5
1A6
  8
1
 62
     2
 10
3.556341788327988
 20
9.482220848579017
 30
0.0
 40
0.2506743070691977
  0
CIRCLE
  5
1A7
  8
1
 62
     2
 10
2.556899432199222
 20
9.492921583879365
 30
0.0
 40
0.2506743070691964
  0
CIRCLE
  5
1A8
  8
1
 62
     2
 10
1.556448045830349
 20
9.502836830699454
 30
0.0
 40
0.2506743070691972
  0
CIRCLE
  5
1A9
  8
1
 62
     3
 10
17.18158105924896
 20
9.469657612855082
 30
0.0
 40
0.2506743070691968
  0
CIRCLE
  5
1AA
  8
1
 62
     3
 10
18.18203651694306
 20
9.479153179030304
 30
0.0
 40
0.2506743070691968
  0
CIRCLE
  5
1AB
  8
1
 62
     3
 10
19.18148327399074
 20
9.489434656895192
 30
0.0
 40
0.2506743070691968
  0
CIRCLE
  5
1AC
  8
1
 62
     3
 10
20.18193873168483
 20
9.498930223070413
 30
0.0
 40
0.2506743070691968
  0
CIRCLE
  5
1AD
  8
1
 62
   200
 10
14.06290157461027
 20
4.038538094087038
 30
0.0
 40
0.2506743070691968
  0
CIRCLE
  5
1AE
  8
1
 62
   200
 10
14.56998588121304
 20
3.176060967083608
 30
0.0
 40
0.2506743070691968
  0
CIRCLE
  5
1AF
  8
1
 62
   200
 10
15.07587703693367
 20
2.314043758714871
 30
0.0
 40
0.2506743070691968
  0
CIRCLE
  5
1B0
  8
1
 62
   200
 10
15.58296134353644
 20
1.451566631711442
 30
0.0
 40
0.250674307069195
  0
CIRCLE
  5
1B1
  8
1
 62
    75
 10
7.746373133638173
 20
14.97013421519725
 30
0.0
 40
0.2506743070691968
  0
CIRCLE
  5
1B2
  8
1
 62
    75
 10
7.241181895529824
 20
15.83372155967692
 30
0.0
 40
0.2506743070691968
  0
CIRCLE
  5
1B3
  8
1
 62
    75
 10
6.73580960334573
 20
16.69604306309243
 30
0.0
 40
0.2506743070691968
  0
CIRCLE
  5
1B4
  8
1
 62
    75
 10
6.23061836523738
 20
17.5596304075721
 30
0.0
 40
0.2506743070691968
  0
ENDSEC
  0
EOF
