   0
SECTION
   2
ENTITIES
  0
ARC
  8
TRACE
  6
CONTINUOUS
 62
3
 10
170.72466102
 20
124.30909505
 30
0.00000000
 40
121.77966700
 50
76.48152600
 51
114.99968700
  0
ARC
  8
TRACE
  6
CONTINUOUS
 62
3
 10
135.53110602
 20
128.61606105
 30
0.00000000
 40
130.65680400
 50
8.52274200
 51
60.84096000
  0
ARC
  8
TRACE
  6
CONTINUOUS
 62
3
 10
1379.33377402
 20
254.43112305
 30
0.00000000
 40
1119.66060400
 50
185.45562300
 51
186.76377200
  0
ARC
  8
TRACE
  6
CONTINUOUS
 62
3
 10
277.46253702
 20
122.88429105
 30
0.00000000
 40
10.00192500
 50
181.84728400
 51
314.86384600
  0
ARC
  8
TRACE
  6
CONTINUOUS
 62
3
 10
-689.07439698
 20
371.82575205
 30
0.00000000
 40
1006.69465800
 50
345.26622800
 51
353.51606000
  0
ARC
  8
TRACE
  6
CONTINUOUS
 62
3
 10
-5995.04848798
 20
1616.94831505
 30
0.00000000
 40
6450.95935100
 50
347.83793000
 51
349.02405500
  0
ARC
  8
TRACE
  6
CONTINUOUS
 62
3
 10
288.19341202
 20
398.48438405
 30
0.00000000
 40
50.66398100
 50
348.87174000
 51
9.47538200
  0
ARC
  8
TRACE
  6
CONTINUOUS
 62
3
 10
376.47001902
 20
416.95599505
 30
0.00000000
 40
39.62102300
 50
131.77207400
 51
194.81509500
  0
ARC
  8
TRACE
  6
CONTINUOUS
 62
3
 10
342.24359502
 20
454.08104205
 30
0.00000000
 40
10.89645600
 50
315.95361900
 51
75.71115400
  0
ARC
  8
TRACE
  6
CONTINUOUS
 62
3
 10
349.19210802
 20
446.62056105
 30
0.00000000
 40
18.51634700
 50
103.29832700
 51
171.95448400
  0
ARC
  8
TRACE
  6
CONTINUOUS
 62
3
 10
249.49350902
 20
469.22737305
 30
0.00000000
 40
83.79017600
 50
324.68573200
 51
346.17992600
  0
ARC
  8
TRACE
  6
CONTINUOUS
 62
3
 10
311.02018602
 20
425.55133805
 30
0.00000000
 40
8.33771400
 50
175.50356400
 51
325.18878800
  0
ARC
  8
TRACE
  6
CONTINUOUS
 62
3
 10
327.97105402
 20
423.55502505
 30
0.00000000
 40
25.40152500
 50
140.42335600
 51
174.01183200
  0
ARC
  8
TRACE
  6
CONTINUOUS
 62
3
 10
339.72915902
 20
443.72068505
 30
0.00000000
 40
31.58891100
 50
126.10732500
 51
187.24197400
  0
ARC
  8
TRACE
  6
CONTINUOUS
 62
3
 10
311.00600302
 20
473.76996605
 30
0.00000000
 40
11.07574400
 50
335.86839400
 51
120.80660800
  0
ARC
  8
TRACE
  6
CONTINUOUS
 62
3
 10
355.84103302
 20
444.38737505
 30
0.00000000
 40
63.74841200
 50
142.40025900
 51
154.74060900
  0
ARC
  8
TRACE
  6
CONTINUOUS
 62
3
 10
220.85706202
 20
471.03436105
 30
0.00000000
 40
77.33284600
 50
327.77603700
 51
0.41160400
  0
ARC
  8
TRACE
  6
CONTINUOUS
 62
3
 10
275.43983702
 20
445.90515105
 30
0.00000000
 40
19.41413200
 50
248.44034300
 51
303.93688900
  0
ARC
  8
TRACE
  6
CONTINUOUS
 62
3
 10
194.43102302
 20
241.74772705
 30
0.00000000
 40
200.22805800
 50
68.34895000
 51
86.24230000
  0
ARC
  8
TRACE
  6
CONTINUOUS
 62
3
 10
316.80957002
 20
-501.70548195
 30
0.00000000
 40
949.55725600
 50
96.60709200
 51
104.24256500
  0
ARC
  8
TRACE
  6
CONTINUOUS
 62
3
 10
227.76812102
 20
-11.06758695
 30
0.00000000
 40
453.40083900
 50
108.59458000
 51
121.29323000
  0
ARC
  8
TRACE
  6
CONTINUOUS
 62
3
 10
-4.20392198
 20
371.62072105
 30
0.00000000
 40
5.92109900
 50
126.62741200
 51
269.99523200
  0
ARC
  8
TRACE
  6
CONTINUOUS
 62
3
 10
22.91175702
 20
289.67924205
 30
0.00000000
 40
80.71174000
 50
58.55571800
 51
109.63111900
  0
ARC
  8
TRACE
  6
CONTINUOUS
 62
3
 10
32.42999602
 20
289.07454405
 30
0.00000000
 40
76.72742600
 50
17.81410600
 51
64.86795400
  0
ARC
  8
TRACE
  6
CONTINUOUS
 62
3
 10
-254.44165598
 20
208.69948405
 30
0.00000000
 40
374.60257900
 50
3.97681700
 51
16.09450400
  0
LINE
  8
TRACE
  6
CONTINUOUS
 62
3
 10
283.31816302
 20
264.66629905
 30
0.00000000
 11
311.14954842
 21
257.86877116
 31
0.00000000
  0
LINE
  8
TRACE
  6
CONTINUOUS
 62
3
 10
177.15052202
 20
-109.26961495
 30
0.00000000
 11
149.38771887
 21
-141.49172801
 31
0.00000000
  0
LINE
  8
TRACE
  6
CONTINUOUS
 62
3
 10
208.23483702
 20
-272.99186295
 30
0.00000000
 11
259.42392680
 21
-264.66843410
 31
0.00000000
  0
LINE
  8
TRACE
  6
CONTINUOUS
 62
3
 10
205.47103196
 20
-389.44205968
 30
0.00000000
 11
175.86129174
 21
-393.84060822
 31
0.00000000
  0
LINE
  8
TRACE
  6
CONTINUOUS
 62
3
 10
251.12773402
 20
-364.03042295
 30
0.00000000
 11
260.92152843
 21
-341.14492387
 31
0.00000000
  0
LINE
  8
TRACE
  6
CONTINUOUS
 62
3
 10
-27.92081298
 20
-398.76166695
 30
0.00000000
 11
-13.34071058
 21
-440.73468777
 31
0.00000000
  0
LINE
  8
TRACE
  6
CONTINUOUS
 62
3
 10
38.73219302
 20
-399.10000695
 30
0.00000000
 11
18.74786094
 21
-442.68029669
 31
0.00000000
  0
LINE
  8
TRACE
  6
CONTINUOUS
 62
3
 10
2.52979902
 20
-377.44623895
 30
0.00000000
 11
2.52979902
 21
-353.83863922
 31
0.00000000
  0
LINE
  8
TRACE
  6
CONTINUOUS
 62
3
 10
-73.25838998
 20
-362.22093295
 30
0.00000000
 11
-102.79956709
 21
-344.95660872
 31
0.00000000
  0
LINE
  8
TRACE
  6
CONTINUOUS
 62
3
 10
84.06977002
 20
-368.64939595
 30
0.00000000
 11
113.77250171
 21
-356.17424863
 31
0.00000000
  0
LINE
  8
TRACE
  6
CONTINUOUS
 62
3
 10
10.64996202
 20
-286.43274495
 30
0.00000000
 11
12.38628585
 21
-316.94243321
 31
0.00000000
  0
LINE
  8
TRACE
  6
CONTINUOUS
 62
3
 10
-14.19347198
 20
-64.05154495
 30
0.00000000
 11
-2.51453566
 21
-106.22548052
 31
0.00000000
  0
LINE
  8
TRACE
  6
CONTINUOUS
 62
3
 10
-31.80031198
 20
12.70684805
 30
0.00000000
 11
-61.04440345
 21
9.66334561
 31
0.00000000
  0
LINE
  8
TRACE
  6
CONTINUOUS
 62
3
 10
54.86429302
 20
148.00684105
 30
0.00000000
 11
33.03159056
 21
144.29063622
 31
0.00000000
  0
ARC
  8
TRACE
  6
CONTINUOUS
 62
3
 10
217.95734502
 20
115.52016105
 30
0.00000000
 40
61.80543500
 50
107.40522200
 51
140.93987200
  0
ARC
  8
TRACE
  6
CONTINUOUS
 62
3
 10
-132916.23269998
 20
-43752.77581595
 30
0.00000000
 40
140185.75297400
 50
18.19912500
 51
18.25765100
  0
ARC
  8
TRACE
  6
CONTINUOUS
 62
3
 10
222.00640402
 20
21.11657905
 30
0.00000000
 40
36.11115000
 50
302.09138500
 51
14.39873000
  0
ARC
  8
TRACE
  6
CONTINUOUS
 62
3
 10
228.21226002
 20
-7.73744995
 30
0.00000000
 40
6.61406000
 50
228.94425100
 51
270.00000000
  0
ARC
  8
TRACE
  6
CONTINUOUS
 62
3
 10
100.29291102
 20
-152.90527195
 30
0.00000000
 40
186.87263300
 50
48.60237400
 51
82.12869800
  0
ARC
  8
TRACE
  6
CONTINUOUS
 62
3
 10
116.30595102
 20
-29.33249095
 30
0.00000000
 40
62.28020900
 50
81.15263200
 51
156.87776500
  0
ARC
  8
TRACE
  6
CONTINUOUS
 62
3
 10
56.92311702
 20
-2.47548295
 30
0.00000000
 40
3.19272000
 50
202.46131900
 51
311.26287600
  0
ARC
  8
TRACE
  6
CONTINUOUS
 62
3
 10
12269.65758102
 20
1817.01220905
 30
0.00000000
 40
12350.62489300
 50
187.80184400
 51
188.47734000
  0
ARC
  8
TRACE
  6
CONTINUOUS
 62
3
 10
-1042.03313098
 20
27.24082705
 30
0.00000000
 40
1081.51012000
 50
6.40317800
 51
13.34414400
  0
ARC
  8
TRACE
  6
CONTINUOUS
 62
3
 10
27.96642502
 20
283.11240205
 30
0.00000000
 40
18.76366500
 50
134.81145500
 51
199.48763800
  0
ARC
  8
TRACE
  6
CONTINUOUS
 62
3
 10
-5.50726598
 20
309.13958105
 30
0.00000000
 40
23.91089800
 50
327.87324400
 51
34.48913400
  0
ARC
  8
TRACE
  6
CONTINUOUS
 62
3
 10
23.45220702
 20
327.43110405
 30
0.00000000
 40
10.40038400
 50
156.43142800
 51
207.18751500
  0
ARC
  8
TRACE
  6
CONTINUOUS
 62
3
 10
33.46292902
 20
322.21947405
 30
0.00000000
 40
21.67371500
 50
133.94017800
 51
154.38451600
  0
ARC
  8
TRACE
  6
CONTINUOUS
 62
3
 10
21.36899402
 20
329.43088305
 30
0.00000000
 40
8.89684000
 50
57.18980300
 51
109.33461700
  0
ARC
  8
TRACE
  6
CONTINUOUS
 62
3
 10
167.19118002
 20
411.12660005
 30
0.00000000
 40
159.34153200
 50
207.76075000
 51
216.92694300
  0
ARC
  8
TRACE
  6
CONTINUOUS
 62
3
 10
30.32388502
 20
307.98352205
 30
0.00000000
 40
12.04053100
 50
336.64349200
 51
37.99033100
  0
ARC
  8
TRACE
  6
CONTINUOUS
 62
3
 10
-0.05275598
 20
314.82024605
 30
0.00000000
 40
43.02656100
 50
326.18602800
 51
344.34536700
  0
ARC
  8
TRACE
  6
CONTINUOUS
 62
3
 10
116.16116502
 20
273.43589705
 30
0.00000000
 40
82.33366200
 50
167.77080800
 51
185.94955800
  0
ARC
  8
TRACE
  6
CONTINUOUS
 62
3
 10
865.28265302
 20
1038.81344605
 30
0.00000000
 40
1135.87507500
 50
224.87561800
 51
230.88369100
  0
ARC
  8
TRACE
  6
CONTINUOUS
 62
3
 10
161.25827002
 20
169.52907005
 30
0.00000000
 40
17.39907100
 50
223.62140700
 51
300.03247800
  0
ARC
  8
TRACE
  6
CONTINUOUS
 62
3
 10
-41.70205698
 20
150.32959605
 30
0.00000000
 40
43.30212700
 50
96.52764300
 51
140.69327700
  0
ARC
  8
TRACE
  6
CONTINUOUS
 62
3
 10
-24.93131898
 20
104.25333305
 30
0.00000000
 40
91.70059800
 50
82.09846500
 51
103.68407400
  0
ARC
  8
TRACE
  6
CONTINUOUS
 62
3
 10
-19.36439998
 20
170.86123805
 30
0.00000000
 40
25.22419000
 50
6.63552200
 51
73.79541900
  0
ARC
  8
TRACE
  6
CONTINUOUS
 62
3
 10
-40.65948198
 20
167.19206405
 30
0.00000000
 40
46.81557800
 50
334.81725900
 51
8.08458800
  0
ARC
  8
TRACE
  6
CONTINUOUS
 62
3
 10
117.53030302
 20
61.08984105
 30
0.00000000
 40
144.36919600
 50
143.34789100
 51
159.35592000
  0
ARC
  8
TRACE
  6
CONTINUOUS
 62
3
 10
0.50484402
 20
106.26242405
 30
0.00000000
 40
18.95908400
 50
162.41963000
 51
208.33378100
  0
ARC
  8
TRACE
  6
CONTINUOUS
 62
3
 10
79.44182602
 20
126.63241905
 30
0.00000000
 40
100.03286400
 50
197.07268600
 51
213.18827800
  0
ARC
  8
TRACE
  6
CONTINUOUS
 62
3
 10
-74.05903598
 20
24.87892105
 30
0.00000000
 40
84.13501300
 50
20.52569100
 51
33.95779200
  0
ARC
  8
TRACE
  6
CONTINUOUS
 62
3
 10
459.44067702
 20
187.92660905
 30
0.00000000
 40
473.91194000
 50
196.36757100
 51
203.15280000
  0
ARC
  8
TRACE
  6
CONTINUOUS
 62
3
 10
-235.03059798
 20
-65.24097995
 30
0.00000000
 40
267.22089000
 50
2.38275700
 51
14.48360000
  0
ARC
  8
TRACE
  6
CONTINUOUS
 62
3
 10
-247.44730798
 20
0.96995105
 30
0.00000000
 40
284.78793800
 50
340.62019700
 51
348.84396200
  0
ARC
  8
TRACE
  6
CONTINUOUS
 62
3
 10
1.45550002
 20
-84.49846495
 30
0.00000000
 40
21.71646900
 50
265.89920400
 51
335.42256400
  0
ARC
  8
TRACE
  6
CONTINUOUS
 62
3
 10
-22.64771298
 20
-32.68218495
 30
0.00000000
 40
76.50260900
 50
249.83684800
 51
280.82943500
  0
ARC
  8
TRACE
  6
CONTINUOUS
 62
3
 10
-33.62575298
 20
-82.18826695
 30
0.00000000
 40
27.10282000
 50
193.49760000
 51
235.39530800
  0
ARC
  8
TRACE
  6
CONTINUOUS
 62
3
 10
-808.91895198
 20
-47.53947895
 30
0.00000000
 40
750.05900000
 50
356.86845000
 51
9.49969700
  0
ARC
  8
TRACE
  6
CONTINUOUS
 62
3
 10
-54.84450898
 20
78.46855005
 30
0.00000000
 40
14.47213900
 50
141.85460800
 51
188.80988600
  0
ARC
  8
TRACE
  6
CONTINUOUS
 62
3
 10
-116.33749598
 20
110.17528405
 30
0.00000000
 40
55.04118700
 50
335.56555800
 51
24.80809900
  0
ARC
  8
TRACE
  6
CONTINUOUS
 62
3
 10
-22.65493598
 20
165.07081805
 30
0.00000000
 40
54.06313000
 50
166.42515300
 51
216.03121100
  0
ARC
  8
TRACE
  6
CONTINUOUS
 62
3
 10
157.31465302
 20
-154.99760095
 30
0.00000000
 40
153.62577500
 50
91.03801000
 51
130.01874900
  0
ARC
  8
TRACE
  6
CONTINUOUS
 62
3
 10
153.39415102
 20
-102.38486895
 30
0.00000000
 40
100.99423900
 50
40.08987200
 51
89.35468300
  0
ARC
  8
TRACE
  6
CONTINUOUS
 62
3
 10
27.92430302
 20
-200.73259895
 30
0.00000000
 40
260.45240700
 50
18.09996500
 51
38.13937500
  0
ARC
  8
TRACE
  6
CONTINUOUS
 62
3
 10
315.80289802
 20
-107.81468595
 30
0.00000000
 40
42.06296600
 50
196.57831400
 51
264.93239000
  0
ARC
  8
TRACE
  6
CONTINUOUS
 62
3
 10
306.55030502
 20
-72.77515595
 30
0.00000000
 40
77.13707000
 50
274.11639600
 51
294.87626400
  0
ARC
  8
TRACE
  6
CONTINUOUS
 62
3
 10
342.04145702
 20
-148.40139995
 30
0.00000000
 40
6.41373800
 50
36.82789400
 51
118.32022100
  0
ARC
  8
TRACE
  6
CONTINUOUS
 62
3
 10
343.52576702
 20
-149.44208595
 30
0.00000000
 40
6.09784500
 50
332.29994600
 51
53.23815200
  0
ARC
  8
TRACE
  6
CONTINUOUS
 62
3
 10
358.66519702
 20
-167.18578695
 30
0.00000000
 40
17.80896600
 50
123.15735300
 51
150.88537700
  0
ARC
  8
TRACE
  6
CONTINUOUS
 62
3
 10
350.40185202
 20
-187.33063895
 30
0.00000000
 40
29.71929700
 50
64.23125500
 51
104.21006400
  0
ARC
  8
TRACE
  6
CONTINUOUS
 62
3
 10
359.62940702
 20
-168.61512995
 30
0.00000000
 40
8.85504600
 50
319.20815400
 51
65.35427700
  0
ARC
  8
TRACE
  6
CONTINUOUS
 62
3
 10
336.62409402
 20
-141.48044595
 30
0.00000000
 40
44.34365100
 50
286.27356700
 51
312.06552600
  0
ARC
  8
TRACE
  6
CONTINUOUS
 62
3
 10
389.54438902
 20
-231.44478595
 30
0.00000000
 40
62.34005800
 50
130.50908500
 51
181.78859417
  0
ARC
  8
TRACE
  6
CONTINUOUS
 62
3
 10
341.92240202
 20
-256.89193295
 30
0.00000000
 40
27.71361400
 50
122.00419462
 51
180.90938000
  0
ARC
  8
TRACE
  6
CONTINUOUS
 62
3
 10
270.20825102
 20
-252.34103195
 30
0.00000000
 40
44.28613800
 50
330.00308700
 51
353.52941300
  0
ARC
  8
TRACE
  6
CONTINUOUS
 62
3
 10
304.69001402
 20
-263.76795395
 30
0.00000000
 40
11.39239400
 50
233.53452400
 51
289.87118600
  0
ARC
  8
TRACE
  6
CONTINUOUS
 62
3
 10
339.53917302
 20
-203.12477295
 30
0.00000000
 40
81.27106800
 50
200.56566800
 51
239.19522000
  0
ARC
  8
TRACE
  6
CONTINUOUS
 62
3
 10
-316.97828698
 20
-487.78877795
 30
0.00000000
 40
634.42021200
 50
23.80964900
 51
28.52284500
  0
ARC
  8
TRACE
  6
CONTINUOUS
 62
3
 10
228.60551702
 20
-189.31769695
 30
0.00000000
 40
12.65094400
 50
20.69305700
 51
90.00000000
  0
ARC
  8
TRACE
  6
CONTINUOUS
 62
3
 10
119.56386002
 20
-92.38598795
 30
0.00000000
 40
18.47947800
 50
154.97240400
 51
209.33980800
  0
ARC
  8
TRACE
  6
CONTINUOUS
 62
3
 10
133.41767302
 20
-95.82642495
 30
0.00000000
 40
32.60360500
 50
141.17756800
 51
159.79943500
  0
ARC
  8
TRACE
  6
CONTINUOUS
 62
3
 10
-75.12021298
 20
-290.06548995
 30
0.00000000
 40
282.18064800
 50
49.53337300
 51
61.78777100
  0
ARC
  8
TRACE
  6
CONTINUOUS
 62
3
 10
60.57400602
 20
-39.51005695
 30
0.00000000
 40
2.97872600
 50
133.39887100
 51
219.56029500
  0
ARC
  8
TRACE
  6
CONTINUOUS
 62
3
 10
201.74793002
 20
-20.82656495
 30
0.00000000
 40
210.74601900
 50
238.30786800
 51
246.29318700
  0
ARC
  8
TRACE
  6
CONTINUOUS
 62
3
 10
119.77520902
 20
-209.32252195
 30
0.00000000
 40
5.24974400
 50
238.29322800
 51
341.10879600
  0
ARC
  8
TRACE
  6
CONTINUOUS
 62
3
 10
41.15656402
 20
-199.08805595
 30
0.00000000
 40
84.43328300
 50
351.87434100
 51
12.00133900
  0
ARC
  8
TRACE
  6
CONTINUOUS
 62
3
 10
86.67179102
 20
-200.64575895
 30
0.00000000
 40
41.71009900
 50
27.27524100
 51
68.45864900
  0
ARC
  8
TRACE
  6
CONTINUOUS
 62
3
 10
107.48447302
 20
-151.47772395
 30
0.00000000
 40
11.73839300
 50
90.95155000
 51
242.07165500
  0
ARC
  8
TRACE
  6
CONTINUOUS
 62
3
 10
103.00192202
 20
-184.71072495
 30
0.00000000
 40
45.17371300
 50
20.18845100
 51
84.55363600
  0
ARC
  8
TRACE
  6
CONTINUOUS
 62
3
 10
-21.55208498
 20
-211.76681595
 30
0.00000000
 40
172.31299600
 50
5.94239700
 51
14.32910200
  0
ARC
  8
TRACE
  6
CONTINUOUS
 62
3
 10
180.28079402
 20
-189.19442595
 30
0.00000000
 40
30.81151300
 50
188.83641000
 51
230.74273800
  0
ARC
  8
TRACE
  6
CONTINUOUS
 62
3
 10
150.51350302
 20
-225.07195295
 30
0.00000000
 40
15.80952900
 50
359.06203100
 51
49.48956000
  0
ARC
  8
TRACE
  6
CONTINUOUS
 62
3
 10
196.30540602
 20
-218.67029795
 30
0.00000000
 40
30.71532900
 50
192.52377400
 51
228.87789800
  0
ARC
  8
TRACE
  6
CONTINUOUS
 62
3
 10
181.17556702
 20
-139.36688095
 30
0.00000000
 40
102.56698700
 50
267.16632400
 51
283.65034000
  0
ARC
  8
TRACE
  6
CONTINUOUS
 62
3
 10
224.47563702
 20
-318.82948195
 30
0.00000000
 40
82.04562300
 50
74.59996500
 51
103.45799100
  0
ARC
  8
TRACE
  6
CONTINUOUS
 62
3
 10
238.46952602
 20
-258.94405295
 30
0.00000000
 40
20.73490700
 50
13.60210200
 51
67.92117000
  0
ARC
  8
TRACE
  6
CONTINUOUS
 62
3
 10
252.16338002
 20
-255.13983495
 30
0.00000000
 40
6.54786500
 50
350.94050000
 51
9.42425600
  0
ARC
  8
TRACE
  6
CONTINUOUS
 62
3
 10
253.24578802
 20
-276.74009495
 30
0.00000000
 40
7.71506500
 50
342.86700400
 51
16.55707000
  0
ARC
  8
TRACE
  6
CONTINUOUS
 62
3
 10
225.24101602
 20
-265.52030595
 30
0.00000000
 40
37.86310800
 50
288.58870200
 51
339.12370200
  0
ARC
  8
TRACE
  6
CONTINUOUS
 62
3
 10
191.20448802
 20
-0.01213895
 30
0.00000000
 40
304.90217600
 50
264.10669700
 51
278.69743200
  0
ARC
  8
TRACE
  6
CONTINUOUS
 62
3
 10
169.86719302
 20
-274.62798595
 30
0.00000000
 40
30.35831800
 50
204.71335900
 51
250.82980600
  0
ARC
  8
TRACE
  6
CONTINUOUS
 62
3
 10
108.86995902
 20
-261.80087095
 30
0.00000000
 40
21.90458800
 50
19.55657900
 51
87.33847500
  0
ARC
  8
TRACE
  6
CONTINUOUS
 62
3
 10
114.94989702
 20
-229.15837495
 30
0.00000000
 40
11.89295900
 50
194.20809300
 51
244.80527600
  0
ARC
  8
TRACE
  6
CONTINUOUS
 62
3
 10
45.70562202
 20
-285.79336395
 30
0.00000000
 40
78.84437600
 50
42.94457600
 51
57.64585000
  0
ARC
  8
TRACE
  6
CONTINUOUS
 62
3
 10
104.66411302
 20
-203.34934495
 30
0.00000000
 40
23.06419300
 50
184.23716400
 51
223.37472300
  0
ARC
  8
TRACE
  6
CONTINUOUS
 62
3
 10
87.99392102
 20
-205.74427595
 30
0.00000000
 40
6.36854100
 50
61.51260800
 51
173.77255600
  0
ARC
  8
TRACE
  6
CONTINUOUS
 62
3
 10
257.12727002
 20
-872.31796595
 30
0.00000000
 40
517.49447400
 50
96.11358000
 51
98.55517700
  0
ARC
  8
TRACE
  6
CONTINUOUS
 62
3
 10
192.13414702
 20
-318.16238995
 30
0.00000000
 40
40.81803000
 50
284.00769500
 51
320.10705600
  0
ARC
  8
TRACE
  6
CONTINUOUS
 62
3
 10
252.25751602
 20
-359.21870395
 30
0.00000000
 40
32.42102700
 50
119.19344000
 51
152.68494100
  0
ARC
  8
TRACE
  6
CONTINUOUS
 62
3
 10
242.30782002
 20
-342.97442295
 30
0.00000000
 40
13.40876800
 50
58.28487000
 51
115.93326300
  0
ARC
  8
TRACE
  6
CONTINUOUS
 62
3
 10
270.08760602
 20
-357.43363995
 30
0.00000000
 40
14.24403200
 50
3.88965700
 51
71.72340300
  0
ARC
  8
TRACE
  6
CONTINUOUS
 62
3
 10
228.12560202
 20
-359.05793195
 30
0.00000000
 40
56.23292800
 50
326.04800000
 51
2.64043600
  0
ARC
  8
TRACE
  6
CONTINUOUS
 62
3
 10
207.19871702
 20
-351.04001895
 30
0.00000000
 40
78.23219400
 50
291.09929000
 51
329.73935300
  0
ARC
  8
TRACE
  6
CONTINUOUS
 62
3
 10
246.70394302
 20
-883.61098495
 30
0.00000000
 40
459.72356800
 50
91.41380600
 51
96.25683200
  0
ARC
  8
TRACE
  6
CONTINUOUS
 62
3
 10
194.29183202
 20
-409.93861795
 30
0.00000000
 40
16.84619500
 50
187.38357900
 51
277.87779200
  0
ARC
  8
TRACE
  6
CONTINUOUS
 62
3
 10
194.97224102
 20
-376.77995995
 30
0.00000000
 40
21.96057600
 50
132.47179000
 51
202.20561600
  0
ARC
  8
TRACE
  6
CONTINUOUS
 62
3
 10
34.78458502
 20
-227.52941195
 30
0.00000000
 40
94.05295100
 50
106.34871150
 51
161.48166200
  0
ARC
  8
TRACE
  6
CONTINUOUS
 62
3
 10
30.45266202
 20
-226.94328195
 30
0.00000000
 40
89.76291200
 50
160.95820100
 51
192.72590900
  0
ARC
  8
TRACE
  6
CONTINUOUS
 62
3
 10
18.19108602
 20
-219.64192095
 30
0.00000000
 40
80.01618600
 50
199.77753200
 51
231.08909600
  0
ARC
  8
TRACE
  6
CONTINUOUS
 62
3
 10
-67.19713098
 20
-314.12071795
 30
0.00000000
 40
47.66496100
 50
356.01173921
 51
42.52337000
  0
ARC
  8
TRACE
  6
CONTINUOUS
 62
3
 10
-6.51571498
 20
-129.90856195
 30
0.00000000
 40
187.98658100
 50
265.99431613
 51
283.12335462
  0
ARC
  8
TRACE
  6
CONTINUOUS
 62
3
 10
82.18171902
 20
-350.66800395
 30
0.00000000
 40
19.27698200
 50
51.63828700
 51
52.93262000
  0
ARC
  8
TRACE
  6
CONTINUOUS
 62
3
 10
72.62713002
 20
-359.69419995
 30
0.00000000
 40
47.45025900
 50
272.66495900
 51
333.23802000
  0
ARC
  8
TRACE
  6
CONTINUOUS
 62
3
 10
73.58848302
 20
-414.99485395
 30
0.00000000
 40
7.99917300
 50
81.04694800
 51
154.31517500
  0
ARC
  8
TRACE
  6
CONTINUOUS
 62
3
 10
329.55821002
 20
-626.38757795
 30
0.00000000
 40
339.74642700
 50
140.77169700
 51
147.69677900
  0
ARC
  8
TRACE
  6
CONTINUOUS
 62
3
 10
-53.69521798
 20
-1371.88245595
 30
0.00000000
 40
932.02180900
 50
84.08244400
 51
89.18463400
  0
ARC
  8
TRACE
  6
CONTINUOUS
 62
3
 10
472.65747402
 20
-172.94180995
 30
0.00000000
 40
578.40911700
 50
203.53895600
 51
207.49258500
  0
ARC
  8
TRACE
  6
CONTINUOUS
 62
3
 10
-66.52068098
 20
-407.71439195
 30
0.00000000
 40
9.66553900
 50
22.96946900
 51
86.53538100
  0
ARC
  8
TRACE
  6
CONTINUOUS
 62
3
 10
-53.96290898
 20
-332.46498295
 30
0.00000000
 40
66.68530600
 50
216.93207000
 51
259.65617400
  0
ARC
  8
TRACE
  6
CONTINUOUS
 62
3
 10
-74.50422298
 20
-364.44942095
 30
0.00000000
 40
33.74621000
 50
153.23385600
 51
193.86121800
  0
ARC
  8
TRACE
  6
CONTINUOUS
 62
3
 10
-28.45527198
 20
-427.51060795
 30
0.00000000
 40
112.85381400
 50
116.72799800
 51
128.21438600
  0
ARC
  8
TRACE
  6
CONTINUOUS
 62
3
 10
-72.33020598
 20
-345.46404595
 30
0.00000000
 40
19.97206100
 50
64.69798800
 51
110.15529300
  0
ARC
  8
TRACE
  6
CONTINUOUS
 62
3
 10
-73.96833298
 20
-360.57332295
 30
0.00000000
 40
34.69079900
 50
45.00000000
 51
72.94581400
  0
ARC
  8
1
  6
CONTINUOUS
 62
3
 10
-187.12593864
 20
28.98618131
 30
0.00000000
 40
323.53171171
 50
40.09846779
 51
46.81840418
  0
ARC
  8
1
  6
CONTINUOUS
 62
3
 10
200.81064602
 20
162.68970722
 30
0.00000000
 40
11.88192571
 50
16.70911735
 51
96.48034574
  0
LINE
  8
1
  6
CONTINUOUS
 62
3
 10
225.45106502
 20
20.49258405
 30
0.00000000
 11
237.71361095
 21
-11.14916376
 31
0.00000000
  0
LINE
  8
1
  6
CONTINUOUS
 62
3
 10
230.65830378
 20
-37.34574987
 30
0.00000000
 11
232.77293263
 21
-39.88330532
 31
0.00000000
  0
ARC
  8
1
  6
CONTINUOUS
 62
3
 10
-128.41895496
 20
-431.77770803
 30
0.00000000
 40
306.63609063
 50
3.67869718
 51
8.75976158
  0
ARC
  8
1
  6
CONTINUOUS
 62
3
 10
273.47696502
 20
-314.21241326
 30
0.00000000
 40
29.71530104
 50
215.73666717
 51
272.07830676
  0
ARC
  8
1
  6
CONTINUOUS
 62
3
 10
571.56466243
 20
-231.20319733
 30
0.00000000
 40
313.92954769
 50
184.56170589
 51
187.93509009
  0
ARC
  8
1
  6
CONTINUOUS
 62
3
 10
362.86807164
 20
149.70549266
 30
0.00000000
 40
361.06742078
 50
224.07233379
 51
241.03365795
  0
ARC
  8
1
  6
CONTINUOUS
 62
3
 10
236.80074213
 20
-60.95850624
 30
0.00000000
 40
115.99810374
 50
245.12356006
 51
265.94869835
  0
ARC
  8
1
  6
CONTINUOUS
 62
3
 10
-18.16395540
 20
-227.52941195
 30
0.00000000
 40
94.05295100
 50
18.51833800
 51
73.65128850
  0
ARC
  8
1
  6
CONTINUOUS
 62
3
 10
-13.83203240
 20
-226.94328195
 30
0.00000000
 40
89.76291200
 50
347.27409100
 51
19.04179900
  0
ARC
  8
1
  6
CONTINUOUS
 62
3
 10
-1.57045640
 20
-219.64192095
 30
0.00000000
 40
80.01618600
 50
308.91090400
 51
340.22246800
  0
ARC
  8
1
  6
CONTINUOUS
 62
3
 10
83.81776060
 20
-314.12071795
 30
0.00000000
 40
47.66496100
 50
137.47663000
 51
178.63538942
  0
ARC
  8
1
  6
CONTINUOUS
 62
3
 10
-0.83305685
 20
-123.47471890
 30
0.00000000
 40
17.33100100
 50
87.56745054
 51
115.42568397
  0
LINE
  8
1
  6
CONTINUOUS
 62
3
 10
33.35659185
 20
140.44626937
 30
0.00000000
 11
32.73024211
 21
147.85521891
 31
0.00000000
  0
ARC
  8
1
  6
CONTINUOUS
 62
3
 10
215.01049976
 20
40.51448270
 30
0.00000000
 40
56.43193798
 50
283.52922356
 51
297.64128114
  0
ARC
  8
1
  6
CONTINUOUS
 62
3
 10
10.25802266
 20
-246.49092361
 30
0.00000000
 40
107.62554292
 50
236.31226993
 51
302.93323675
  0
ARC
  8
1
  6
CONTINUOUS
 62
3
 10
75.32903289
 20
-372.93956773
 30
0.00000000
 40
41.94015046
 50
1.80665885
 51
81.92674067
  0
ARC
  8
TRACE
  6
CONTINUOUS
 62
3
 10
82.18171902
 20
-350.66800395
 30
0.00000000
 40
19.27698200
 50
92.86241000
 51
134.08652400
  0
ARC
  8
1
  6
CONTINUOUS
 62
3
 10
101.25705925
 20
-372.79140800
 30
0.00000000
 40
16.03431864
 50
328.95557539
 51
4.19913817
  0
ARC
  8
1
  6
CONTINUOUS
 62
3
 10
-79.61739136
 20
-357.40026203
 30
0.00000000
 40
26.31079207
 50
135.13984214
 51
161.95885803
  0
ARC
  8
1
  6
CONTINUOUS
 62
3
 10
-248.87042464
 20
124.30909505
 30
0.00000000
 40
121.77966700
 50
65.00031300
 51
103.51847400
  0
ARC
  8
1
  6
CONTINUOUS
 62
3
 10
-213.67686964
 20
128.61606105
 30
0.00000000
 40
130.65680400
 50
119.15904000
 51
171.47725800
  0
ARC
  8
1
  6
CONTINUOUS
 62
3
 10
-1457.47953764
 20
254.43112305
 30
0.00000000
 40
1119.66060400
 50
353.23622800
 51
354.54437700
  0
ARC
  8
1
  6
CONTINUOUS
 62
3
 10
-355.60830064
 20
122.88429105
 30
0.00000000
 40
10.00192500
 50
225.13615400
 51
358.15271600
  0
ARC
  8
1
  6
CONTINUOUS
 62
3
 10
610.92863336
 20
371.82575205
 30
0.00000000
 40
1006.69465800
 50
186.48394000
 51
194.73377200
  0
ARC
  8
1
  6
CONTINUOUS
 62
3
 10
5916.90272436
 20
1616.94831505
 30
0.00000000
 40
6450.95935100
 50
190.97594500
 51
192.16207000
  0
ARC
  8
1
  6
CONTINUOUS
 62
3
 10
-366.33917564
 20
398.48438405
 30
0.00000000
 40
50.66398100
 50
170.52461800
 51
191.12826000
  0
ARC
  8
1
  6
CONTINUOUS
 62
3
 10
-454.61578264
 20
416.95599505
 30
0.00000000
 40
39.62102300
 50
345.18490500
 51
48.22792600
  0
ARC
  8
1
  6
CONTINUOUS
 62
3
 10
-420.38935864
 20
454.08104205
 30
0.00000000
 40
10.89645600
 50
104.28884600
 51
224.04638100
  0
ARC
  8
1
  6
CONTINUOUS
 62
3
 10
-427.33787164
 20
446.62056105
 30
0.00000000
 40
18.51634700
 50
8.04551600
 51
76.70167300
  0
ARC
  8
1
  6
CONTINUOUS
 62
3
 10
-327.63927264
 20
469.22737305
 30
0.00000000
 40
83.79017600
 50
193.82007400
 51
215.31426800
  0
ARC
  8
1
  6
CONTINUOUS
 62
3
 10
-389.16594964
 20
425.55133805
 30
0.00000000
 40
8.33771400
 50
214.81121200
 51
4.49643600
  0
ARC
  8
1
  6
CONTINUOUS
 62
3
 10
-406.11681764
 20
423.55502505
 30
0.00000000
 40
25.40152500
 50
5.98816800
 51
39.57664400
  0
ARC
  8
1
  6
CONTINUOUS
 62
3
 10
-417.87492264
 20
443.72068505
 30
0.00000000
 40
31.58891100
 50
352.75802600
 51
53.89267500
  0
ARC
  8
1
  6
CONTINUOUS
 62
3
 10
-389.15176664
 20
473.76996605
 30
0.00000000
 40
11.07574400
 50
59.19339200
 51
204.13160600
  0
ARC
  8
1
  6
CONTINUOUS
 62
3
 10
-433.98679664
 20
444.38737505
 30
0.00000000
 40
63.74841200
 50
25.25939100
 51
37.59974100
  0
ARC
  8
1
  6
CONTINUOUS
 62
3
 10
-299.00282564
 20
471.03436105
 30
0.00000000
 40
77.33284600
 50
179.58839600
 51
212.22396300
  0
ARC
  8
1
  6
CONTINUOUS
 62
3
 10
-353.58560064
 20
445.90515105
 30
0.00000000
 40
19.41413200
 50
236.06311100
 51
291.55965700
  0
ARC
  8
1
  6
CONTINUOUS
 62
3
 10
-272.57678664
 20
241.74772705
 30
0.00000000
 40
200.22805800
 50
93.75770000
 51
111.65105000
  0
ARC
  8
1
  6
CONTINUOUS
 62
3
 10
-394.95533364
 20
-501.70548195
 30
0.00000000
 40
949.55725600
 50
75.75743500
 51
83.39290800
  0
ARC
  8
1
  6
CONTINUOUS
 62
3
 10
-305.91388464
 20
-11.06758695
 30
0.00000000
 40
453.40083900
 50
58.70677000
 51
71.40542000
  0
ARC
  8
1
  6
CONTINUOUS
 62
3
 10
-73.94184164
 20
371.62072105
 30
0.00000000
 40
5.92109900
 50
270.00476800
 51
53.37258800
  0
ARC
  8
1
  6
CONTINUOUS
 62
3
 10
-101.05752064
 20
289.67924205
 30
0.00000000
 40
80.71174000
 50
70.36888100
 51
121.44428200
  0
ARC
  8
1
  6
CONTINUOUS
 62
3
 10
-110.57575964
 20
289.07454405
 30
0.00000000
 40
76.72742600
 50
115.13204600
 51
162.18589400
  0
ARC
  8
1
  6
CONTINUOUS
 62
3
 10
176.29589236
 20
208.69948405
 30
0.00000000
 40
374.60257900
 50
163.90549600
 51
176.02318300
  0
LINE
  8
1
  6
CONTINUOUS
 62
3
 10
-361.46392664
 20
264.66629905
 30
0.00000000
 11
-389.29531204
 21
257.86877116
 31
0.00000000
  0
LINE
  8
1
  6
CONTINUOUS
 62
3
 10
-255.29628564
 20
-109.26961495
 30
0.00000000
 11
-227.53348249
 21
-141.49172801
 31
0.00000000
  0
LINE
  8
1
  6
CONTINUOUS
 62
3
 10
-286.38060064
 20
-272.99186295
 30
0.00000000
 11
-337.56969042
 21
-264.66843410
 31
0.00000000
  0
LINE
  8
1
  6
CONTINUOUS
 62
3
 10
-283.61679558
 20
-389.44205968
 30
0.00000000
 11
-254.00705536
 21
-393.84060822
 31
0.00000000
  0
LINE
  8
1
  6
CONTINUOUS
 62
3
 10
-329.27349764
 20
-364.03042295
 30
0.00000000
 11
-339.06729205
 21
-341.14492387
 31
0.00000000
  0
LINE
  8
1
  6
CONTINUOUS
 62
3
 10
-133.01005664
 20
148.00684105
 30
0.00000000
 11
-111.17735418
 21
144.29063622
 31
0.00000000
  0
ARC
  8
1
  6
CONTINUOUS
 62
3
 10
-296.10310864
 20
115.52016105
 30
0.00000000
 40
61.80543500
 50
39.06012800
 51
72.59477800
  0
ARC
  8
1
  6
CONTINUOUS
 62
3
 10
132838.08693636
 20
-43752.77581595
 30
0.00000000
 40
140185.75297400
 50
161.74234900
 51
161.80087500
  0
ARC
  8
1
  6
CONTINUOUS
 62
3
 10
-300.15216764
 20
21.11657905
 30
0.00000000
 40
36.11115000
 50
165.60127000
 51
237.90861500
  0
ARC
  8
1
  6
CONTINUOUS
 62
3
 10
-306.35802364
 20
-7.73744995
 30
0.00000000
 40
6.61406000
 50
270.00000000
 51
311.05574900
  0
ARC
  8
1
  6
CONTINUOUS
 62
3
 10
-178.43867464
 20
-152.90527195
 30
0.00000000
 40
186.87263300
 50
97.87130200
 51
131.39762600
  0
ARC
  8
1
  6
CONTINUOUS
 62
3
 10
-194.45171464
 20
-29.33249095
 30
0.00000000
 40
62.28020900
 50
23.12223500
 51
98.84736800
  0
ARC
  8
1
  6
CONTINUOUS
 62
3
 10
-135.06888064
 20
-2.47548295
 30
0.00000000
 40
3.19272000
 50
228.73712400
 51
337.53868100
  0
ARC
  8
1
  6
CONTINUOUS
 62
3
 10
-12347.80334464
 20
1817.01220905
 30
0.00000000
 40
12350.62489300
 50
351.52266000
 51
352.19815600
  0
ARC
  8
1
  6
CONTINUOUS
 62
3
 10
963.88736736
 20
27.24082705
 30
0.00000000
 40
1081.51012000
 50
166.65585600
 51
173.59682200
  0
ARC
  8
1
  6
CONTINUOUS
 62
3
 10
-106.11218864
 20
283.11240205
 30
0.00000000
 40
18.76366500
 50
340.51236200
 51
45.18854500
  0
ARC
  8
1
  6
CONTINUOUS
 62
3
 10
-72.63849764
 20
309.13958105
 30
0.00000000
 40
23.91089800
 50
145.51086600
 51
212.12675600
  0
ARC
  8
1
  6
CONTINUOUS
 62
3
 10
-101.59797064
 20
327.43110405
 30
0.00000000
 40
10.40038400
 50
332.81248500
 51
23.56857200
  0
ARC
  8
1
  6
CONTINUOUS
 62
3
 10
-111.60869264
 20
322.21947405
 30
0.00000000
 40
21.67371500
 50
25.61548400
 51
46.05982200
  0
ARC
  8
1
  6
CONTINUOUS
 62
3
 10
-99.51475764
 20
329.43088305
 30
0.00000000
 40
8.89684000
 50
70.66538300
 51
122.81019700
  0
ARC
  8
1
  6
CONTINUOUS
 62
3
 10
-245.33694364
 20
411.12660005
 30
0.00000000
 40
159.34153200
 50
323.07305700
 51
332.23925000
  0
ARC
  8
1
  6
CONTINUOUS
 62
3
 10
-108.46964864
 20
307.98352205
 30
0.00000000
 40
12.04053100
 50
142.00966900
 51
203.35650800
  0
ARC
  8
1
  6
CONTINUOUS
 62
3
 10
-78.09300764
 20
314.82024605
 30
0.00000000
 40
43.02656100
 50
195.65463300
 51
213.81397200
  0
ARC
  8
1
  6
CONTINUOUS
 62
3
 10
-194.30692864
 20
273.43589705
 30
0.00000000
 40
82.33366200
 50
354.05044200
 51
12.22919200
  0
ARC
  8
1
  6
CONTINUOUS
 62
3
 10
-943.42841664
 20
1038.81344605
 30
0.00000000
 40
1135.87507500
 50
309.11630900
 51
315.12438200
  0
ARC
  8
1
  6
CONTINUOUS
 62
3
 10
-239.40403364
 20
169.52907005
 30
0.00000000
 40
17.39907100
 50
239.96752200
 51
316.37859300
  0
ARC
  8
1
  6
CONTINUOUS
 62
3
 10
-235.46041664
 20
-154.99760095
 30
0.00000000
 40
153.62577500
 50
49.98125100
 51
88.96199000
  0
ARC
  8
1
  6
CONTINUOUS
 62
3
 10
-231.53991464
 20
-102.38486895
 30
0.00000000
 40
100.99423900
 50
90.64531700
 51
139.91012800
  0
ARC
  8
1
  6
CONTINUOUS
 62
3
 10
-106.07006664
 20
-200.73259895
 30
0.00000000
 40
260.45240700
 50
141.86062500
 51
161.90003500
  0
ARC
  8
1
  6
CONTINUOUS
 62
3
 10
-393.94866164
 20
-107.81468595
 30
0.00000000
 40
42.06296600
 50
275.06761000
 51
343.42168600
  0
ARC
  8
1
  6
CONTINUOUS
 62
3
 10
-384.69606864
 20
-72.77515595
 30
0.00000000
 40
77.13707000
 50
245.12373600
 51
265.88360400
  0
ARC
  8
1
  6
CONTINUOUS
 62
3
 10
-420.18722064
 20
-148.40139995
 30
0.00000000
 40
6.41373800
 50
61.67977900
 51
143.17210600
  0
ARC
  8
1
  6
CONTINUOUS
 62
3
 10
-421.67153064
 20
-149.44208595
 30
0.00000000
 40
6.09784500
 50
126.76184800
 51
207.70005400
  0
ARC
  8
1
  6
CONTINUOUS
 62
3
 10
-436.81096064
 20
-167.18578695
 30
0.00000000
 40
17.80896600
 50
29.11462300
 51
56.84264700
  0
ARC
  8
1
  6
CONTINUOUS
 62
3
 10
-428.54761564
 20
-187.33063895
 30
0.00000000
 40
29.71929700
 50
75.78993600
 51
115.76874500
  0
ARC
  8
1
  6
CONTINUOUS
 62
3
 10
-437.77517064
 20
-168.61512995
 30
0.00000000
 40
8.85504600
 50
114.64572300
 51
220.79184600
  0
ARC
  8
1
  6
CONTINUOUS
 62
3
 10
-414.76985764
 20
-141.48044595
 30
0.00000000
 40
44.34365100
 50
227.93447400
 51
253.72643300
  0
ARC
  8
1
  6
CONTINUOUS
 62
3
 10
-467.69015264
 20
-231.44478595
 30
0.00000000
 40
62.34005800
 50
358.21140583
 51
49.49091500
  0
ARC
  8
1
  6
CONTINUOUS
 62
3
 10
-420.06816564
 20
-256.89193295
 30
0.00000000
 40
27.71361400
 50
359.09062000
 51
57.99580538
  0
ARC
  8
1
  6
CONTINUOUS
 62
3
 10
-348.35401464
 20
-252.34103195
 30
0.00000000
 40
44.28613800
 50
186.47058700
 51
209.99691300
  0
ARC
  8
1
  6
CONTINUOUS
 62
3
 10
-382.83577764
 20
-263.76795395
 30
0.00000000
 40
11.39239400
 50
250.12881400
 51
306.46547600
  0
ARC
  8
1
  6
CONTINUOUS
 62
3
 10
-417.68493664
 20
-203.12477295
 30
0.00000000
 40
81.27106800
 50
300.80478000
 51
339.43433200
  0
ARC
  8
1
  6
CONTINUOUS
 62
3
 10
238.83252336
 20
-487.78877795
 30
0.00000000
 40
634.42021200
 50
151.47715500
 51
156.19035100
  0
ARC
  8
1
  6
CONTINUOUS
 62
3
 10
-306.75128064
 20
-189.31769695
 30
0.00000000
 40
12.65094400
 50
90.00000000
 51
159.30694300
  0
ARC
  8
1
  6
CONTINUOUS
 62
3
 10
-197.70962364
 20
-92.38598795
 30
0.00000000
 40
18.47947800
 50
330.66019200
 51
25.02759600
  0
ARC
  8
1
  6
CONTINUOUS
 62
3
 10
-211.56343664
 20
-95.82642495
 30
0.00000000
 40
32.60360500
 50
20.20056500
 51
38.82243200
  0
ARC
  8
1
  6
CONTINUOUS
 62
3
 10
-3.02555064
 20
-290.06548995
 30
0.00000000
 40
282.18064800
 50
118.21222900
 51
130.46662700
  0
ARC
  8
1
  6
CONTINUOUS
 62
3
 10
-138.71976964
 20
-39.51005695
 30
0.00000000
 40
2.97872600
 50
320.43970500
 51
46.60112900
  0
ARC
  8
1
  6
CONTINUOUS
 62
3
 10
-279.89369364
 20
-20.82656495
 30
0.00000000
 40
210.74601900
 50
293.70681300
 51
301.69213200
  0
ARC
  8
1
  6
CONTINUOUS
 62
3
 10
-197.92097264
 20
-209.32252195
 30
0.00000000
 40
5.24974400
 50
198.89120400
 51
301.70677200
  0
ARC
  8
1
  6
CONTINUOUS
 62
3
 10
-119.30232764
 20
-199.08805595
 30
0.00000000
 40
84.43328300
 50
167.99866100
 51
188.12565900
  0
ARC
  8
1
  6
CONTINUOUS
 62
3
 10
-164.81755464
 20
-200.64575895
 30
0.00000000
 40
41.71009900
 50
111.54135100
 51
152.72475900
  0
ARC
  8
1
  6
CONTINUOUS
 62
3
 10
-185.63023664
 20
-151.47772395
 30
0.00000000
 40
11.73839300
 50
297.92834500
 51
89.04845000
  0
ARC
  8
1
  6
CONTINUOUS
 62
3
 10
-181.14768564
 20
-184.71072495
 30
0.00000000
 40
45.17371300
 50
95.44636400
 51
159.81154900
  0
ARC
  8
1
  6
CONTINUOUS
 62
3
 10
-56.59367864
 20
-211.76681595
 30
0.00000000
 40
172.31299600
 50
165.67089800
 51
174.05760300
  0
ARC
  8
1
  6
CONTINUOUS
 62
3
 10
-258.42655764
 20
-189.19442595
 30
0.00000000
 40
30.81151300
 50
309.25726200
 51
351.16359000
  0
ARC
  8
1
  6
CONTINUOUS
 62
3
 10
-228.65926664
 20
-225.07195295
 30
0.00000000
 40
15.80952900
 50
130.51044000
 51
180.93796900
  0
ARC
  8
1
  6
CONTINUOUS
 62
3
 10
-274.45116964
 20
-218.67029795
 30
0.00000000
 40
30.71532900
 50
311.12210200
 51
347.47622600
  0
ARC
  8
1
  6
CONTINUOUS
 62
3
 10
-259.32133064
 20
-139.36688095
 30
0.00000000
 40
102.56698700
 50
256.34966000
 51
272.83367600
  0
ARC
  8
1
  6
CONTINUOUS
 62
3
 10
-302.62140064
 20
-318.82948195
 30
0.00000000
 40
82.04562300
 50
76.54200900
 51
105.40003500
  0
ARC
  8
1
  6
CONTINUOUS
 62
3
 10
-316.61528964
 20
-258.94405295
 30
0.00000000
 40
20.73490700
 50
112.07883000
 51
166.39789800
  0
ARC
  8
1
  6
CONTINUOUS
 62
3
 10
-330.30914364
 20
-255.13983495
 30
0.00000000
 40
6.54786500
 50
170.57574400
 51
189.05950000
  0
ARC
  8
1
  6
CONTINUOUS
 62
3
 10
-331.39155164
 20
-276.74009495
 30
0.00000000
 40
7.71506500
 50
163.44293000
 51
197.13299600
  0
ARC
  8
1
  6
CONTINUOUS
 62
3
 10
-303.38677964
 20
-265.52030595
 30
0.00000000
 40
37.86310800
 50
200.87629800
 51
251.41129800
  0
ARC
  8
1
  6
CONTINUOUS
 62
3
 10
-269.35025164
 20
-0.01213895
 30
0.00000000
 40
304.90217600
 50
261.30256800
 51
275.89330300
  0
ARC
  8
1
  6
CONTINUOUS
 62
3
 10
-248.01295664
 20
-274.62798595
 30
0.00000000
 40
30.35831800
 50
289.17019400
 51
335.28664100
  0
ARC
  8
1
  6
CONTINUOUS
 62
3
 10
-890.53671464
 20
-23.01249395
 30
0.00000000
 40
721.03889100
 50
338.48423200
 51
341.27637000
  0
ARC
  8
1
  6
CONTINUOUS
 62
3
 10
-187.01572264
 20
-261.80087095
 30
0.00000000
 40
21.90458800
 50
92.66152500
 51
160.44342100
  0
ARC
  8
1
  6
CONTINUOUS
 62
3
 10
-193.09566064
 20
-229.15837495
 30
0.00000000
 40
11.89295900
 50
295.19472400
 51
345.79190700
  0
ARC
  8
1
  6
CONTINUOUS
 62
3
 10
-123.85138564
 20
-285.79336395
 30
0.00000000
 40
78.84437600
 50
122.35415000
 51
137.05542400
  0
ARC
  8
1
  6
CONTINUOUS
 62
3
 10
-182.80987664
 20
-203.34934495
 30
0.00000000
 40
23.06419300
 50
316.62527700
 51
355.76283600
  0
ARC
  8
1
  6
CONTINUOUS
 62
3
 10
-166.13968464
 20
-205.74427595
 30
0.00000000
 40
6.36854100
 50
6.22744400
 51
118.48739200
  0
ARC
  8
1
  6
CONTINUOUS
 62
3
 10
-335.27303364
 20
-872.31796595
 30
0.00000000
 40
517.49447400
 50
81.44482300
 51
83.88642000
  0
ARC
  8
1
  6
CONTINUOUS
 62
3
 10
-270.27991064
 20
-318.16238995
 30
0.00000000
 40
40.81803000
 50
219.89294400
 51
255.99230500
  0
ARC
  8
1
  6
CONTINUOUS
 62
3
 10
-330.40327964
 20
-359.21870395
 30
0.00000000
 40
32.42102700
 50
27.31505900
 51
60.80656000
  0
ARC
  8
1
  6
CONTINUOUS
 62
3
 10
-320.45358364
 20
-342.97442295
 30
0.00000000
 40
13.40876800
 50
64.06673700
 51
121.71513000
  0
ARC
  8
1
  6
CONTINUOUS
 62
3
 10
-348.23336964
 20
-357.43363995
 30
0.00000000
 40
14.24403200
 50
108.27659700
 51
176.11034300
  0
ARC
  8
1
  6
CONTINUOUS
 62
3
 10
-306.27136564
 20
-359.05793195
 30
0.00000000
 40
56.23292800
 50
177.35956400
 51
213.95200000
  0
ARC
  8
1
  6
CONTINUOUS
 62
3
 10
-285.34448064
 20
-351.04001895
 30
0.00000000
 40
78.23219400
 50
210.26064700
 51
248.90071000
  0
ARC
  8
1
  6
CONTINUOUS
 62
3
 10
-324.84970664
 20
-883.61098495
 30
0.00000000
 40
459.72356800
 50
83.74316800
 51
88.58619400
  0
ARC
  8
1
  6
CONTINUOUS
 62
3
 10
-272.43759564
 20
-409.93861795
 30
0.00000000
 40
16.84619500
 50
262.12220800
 51
352.61642100
  0
ARC
  8
1
  6
CONTINUOUS
 62
3
 10
-273.11800464
 20
-376.77995995
 30
0.00000000
 40
21.96057600
 50
337.79438400
 51
47.52821000
  0
ARC
  8
1
  6
CONTINUOUS
 62
3
 10
108.98017502
 20
28.98618131
 30
0.00000000
 40
323.53171171
 50
133.18159582
 51
139.90153221
  0
ARC
  8
1
  6
CONTINUOUS
 62
3
 10
-278.95640964
 20
162.68970722
 30
0.00000000
 40
11.88192571
 50
83.51965426
 51
163.29088265
  0
LINE
  8
1
  6
CONTINUOUS
 62
3
 10
-303.59682864
 20
20.49258405
 30
0.00000000
 11
-315.85937457
 21
-11.14916376
 31
0.00000000
  0
LINE
  8
1
  6
CONTINUOUS
 62
3
 10
-308.80406739
 20
-37.34574987
 30
0.00000000
 11
-310.91869625
 21
-39.88330532
 31
0.00000000
  0
ARC
  8
1
  6
CONTINUOUS
 62
3
 10
50.27319135
 20
-431.77770803
 30
0.00000000
 40
306.63609063
 50
171.24023842
 51
176.32130282
  0
ARC
  8
1
  6
CONTINUOUS
 62
3
 10
-351.62272864
 20
-314.21241326
 30
0.00000000
 40
29.71530104
 50
267.92169324
 51
324.26333283
  0
ARC
  8
1
  6
CONTINUOUS
 62
3
 10
-649.71042605
 20
-231.20319733
 30
0.00000000
 40
313.92954769
 50
352.06490991
 51
355.43829411
  0
ARC
  8
1
  6
CONTINUOUS
 62
3
 10
-441.01383526
 20
149.70549266
 30
0.00000000
 40
361.06742078
 50
298.96634205
 51
315.92766621
  0
ARC
  8
1
  6
CONTINUOUS
 62
3
 10
-314.94650575
 20
-60.95850624
 30
0.00000000
 40
115.99810374
 50
274.05130165
 51
294.87643994
  0
LINE
  8
1
  6
CONTINUOUS
 62
3
 10
-111.50235547
 20
140.44626937
 30
0.00000000
 11
-110.87600573
 21
147.85521891
 31
0.00000000
  0
ARC
  8
1
  6
CONTINUOUS
 62
3
 10
-293.15626338
 20
40.51448270
 30
0.00000000
 40
56.43193798
 50
242.35871886
 51
256.47077644
  0
ARC
  8
1
  6
CONTINUOUS
 62
3
 10
393.19513455
 20
-170.81282965
 30
0.00000000
 40
276.63633076
 50
197.60201129
 51
204.90765553
   0
ENDSEC
   0
EOF
