  0
SECTION
  2
HEADER
  9
$ACADVER
  1
AC1014
  9
$HANDSEED
  5
FFFF
  9
$MEASUREMENT
 70
     1
  0
ENDSEC
  0
SECTION
  2
TABLES
  0
TABLE
  2
VPORT
  5
8
330
0
100
AcDbSymbolTable
 70
     4
  0
VPORT
  5
2E
330
8
100
AcDbSymbolTableRecord
100
AcDbViewportTableRecord
  2
*ACTIVE
 70
     0
 10
0.0
 20
0.0
 11
1.0
 21
1.0
 12
210.0
 22
148.5
 13
0.0
 23
0.0
 14
10.0
 24
10.0
 15
10.0
 25
10.0
 16
0.0
 26
0.0
 36
1.0
 17
0.0
 27
0.0
 37
0.0
 40
341.0
 41
1.24
 42
50.0
 43
0.0
 44
0.0
 50
0.0
 51
0.0
 71
     0
 72
   100
 73
     1
 74
     3
 75
     0
 76
     0
 77
     0
 78
     0
  0
ENDTAB
  0
TABLE
  2
LTYPE
  5
5
330
0
100
AcDbSymbolTable
 70
     1
  0
LTYPE
  5
14
330
5
100
AcDbSymbolTableRecord
100
AcDbLinetypeTableRecord
  2
BYBLOCK
 70
     0
  3

 72
    65
 73
     0
 40
0.0
  0
LTYPE
  5
15
330
5
100
AcDbSymbolTableRecord
100
AcDbLinetypeTableRecord
  2
BYLAYER
 70
     0
  3

 72
    65
 73
     0
 40
0.0
  0
LTYPE
  5
16
330
5
100
AcDbSymbolTableRecord
100
AcDbLinetypeTableRecord
  2
CONTINUOUS
 70
     0
  3
Solid line
 72
    65
 73
     0
 40
0.0
  0
ENDTAB
  0
TABLE
  2
LAYER
  5
2
100
AcDbSymbolTable
 70
2
  0
LAYER
  5
50
100
AcDbSymbolTableRecord
100
AcDbLayerTableRecord
  2
0
 70
0
  6
CONTINUOUS
  0
LAYER
  5
51
100
AcDbSymbolTableRecord
100
AcDbLayerTableRecord
  2
Layer_1
 70
0
  6
CONTINUOUS
  0
ENDTAB
  0
TABLE
  2
STYLE
  5
3
330
0
100
AcDbSymbolTable
 70
     1
  0
STYLE
  5
11
330
3
100
AcDbSymbolTableRecord
100
AcDbTextStyleTableRecord
  2
STANDARD
 70
     0
 40
0.0
 41
1.0
 50
0.0
 71
     0
 42
2.5
  3
txt
  4

  0
ENDTAB
  0
TABLE
  2
VIEW
  5
6
330
0
100
AcDbSymbolTable
 70
     0
  0
ENDTAB
  0
TABLE
  2
UCS
  5
7
330
0
100
AcDbSymbolTable
 70
     0
  0
ENDTAB
  0
TABLE
  2
APPID
  5
9
330
0
100
AcDbSymbolTable
 70
     2
  0
APPID
  5
12
330
9
100
AcDbSymbolTableRecord
100
AcDbRegAppTableRecord
  2
ACAD
 70
     0
  0
ENDTAB
  0
TABLE
  2
DIMSTYLE
  5
A
330
0
100
AcDbSymbolTable
 70
     1
  0
DIMSTYLE
105
27
330
A
100
AcDbSymbolTableRecord
100
AcDbDimStyleTableRecord
  2
ISO-25
 70
     0
  3

  4

  5

  6

  7

 40
1.0
 41
2.5
 42
0.625
 43
3.75
 44
1.25
 45
0.0
 46
0.0
 47
0.0
 48
0.0
140
2.5
141
2.5
142
0.0
143
0.03937007874016
144
1.0
145
0.0
146
1.0
147
0.625
 71
     0
 72
     0
 73
     0
 74
     0
 75
     0
 76
     0
 77
     1
 78
     8
170
     0
171
     3
172
     1
173
     0
174
     0
175
     0
176
     0
177
     0
178
     0
270
     2
271
     2
272
     2
273
     2
274
     3
340
11
275
     0
280
     0
281
     0
282
     0
283
     0
284
     8
285
     0
286
     0
287
     3
288
     0
  0
ENDTAB
  0
TABLE
  2
BLOCK_RECORD
  5
1
330
0
100
AcDbSymbolTable
 70
     1
  0
BLOCK_RECORD
  5
1F
330
1
100
AcDbSymbolTableRecord
100
AcDbBlockTableRecord
  2
*MODEL_SPACE
  0
BLOCK_RECORD
  5
1B
330
1
100
AcDbSymbolTableRecord
100
AcDbBlockTableRecord
  2
*PAPER_SPACE
  0
ENDTAB
  0
ENDSEC
  0
SECTION
  2
BLOCKS
  0
BLOCK
  5
20
330
1F
100
AcDbEntity
  8
0
100
AcDbBlockBegin
  2
*MODEL_SPACE
 70
     0
 10
0.0
 20
0.0
 30
0.0
  3
*MODEL_SPACE
  1

  0
ENDBLK
  5
21
330
1F
100
AcDbEntity
  8
0
100
AcDbBlockEnd
  0
BLOCK
  5
1C
330
1B
100
AcDbEntity
 67
     1
  8
0
100
AcDbBlockBegin
  2
*PAPER_SPACE
  1

  0
ENDBLK
  5
1D
330
1B
100
AcDbEntity
 67
     1
  8
0
100
AcDbBlockEnd
  0
ENDSEC
  0
SECTION
  2
ENTITIES
  0
SPLINE
  5
100
100
AcDbEntity
  8
Layer_1
 62
1
100
AcDbSpline
 70
8
 71
3
 72
8
 73
4
 74
0
 40
0
 40
0
 40
0
 40
0
 40
1
 40
1
 40
1
 40
1
 10
501.458936
 20
328.111215
 30
0.0
 10
484.301631
 20
328.435319
 30
0.0
 10
411.447403
 20
253.419072
 30
0.0
 10
415.318335
 20
161.199377
 30
0.0
  0
SPLINE
  5
101
100
AcDbEntity
  8
Layer_1
 62
1
100
AcDbSpline
 70
8
 71
3
 72
8
 73
4
 74
0
 40
0
 40
0
 40
0
 40
0
 40
1
 40
1
 40
1
 40
1
 10
415.318335
 20
161.199377
 30
0.0
 10
408.447127
 20
158.635416
 30
0.0
 10
401.575722
 20
159.234038
 30
0.0
 10
394.704542
 20
160.722026
 30
0.0
  0
LINE
  5
102
100
AcDbEntity
  8
Layer_1
 62
1
100
AcDbLine
 10
394.704542
 20
160.722026
 30
0.0
 11
394.457033
 21
165.062830
 31
0.0
  0
SPLINE
  5
103
100
AcDbEntity
  8
Layer_1
 62
1
100
AcDbSpline
 70
8
 71
3
 72
8
 73
4
 74
0
 40
0
 40
0
 40
0
 40
0
 40
1
 40
1
 40
1
 40
1
 10
394.457033
 20
165.062830
 30
0.0
 10
399.253992
 20
224.149467
 30
0.0
 10
337.385124
 20
333.917429
 30
0.0
 10
304.058292
 20
327.316901
 30
0.0
  0
SPLINE
  5
104
100
AcDbEntity
  8
Layer_1
 62
1
100
AcDbSpline
 70
8
 71
3
 72
8
 73
4
 74
0
 40
0
 40
0
 40
0
 40
0
 40
1
 40
1
 40
1
 40
1
 10
304.058292
 20
327.316901
 30
0.0
 10
289.341983
 20
305.468357
 30
0.0
 10
311.500605
 20
240.665647
 30
0.0
 10
342.690196
 20
185.151323
 30
0.0
  0
SPLINE
  5
105
100
AcDbEntity
  8
Layer_1
 62
1
100
AcDbSpline
 70
8
 71
3
 72
8
 73
4
 74
0
 40
0
 40
0
 40
0
 40
0
 40
1
 40
1
 40
1
 40
1
 10
342.690196
 20
185.151323
 30
0.0
 10
347.573064
 20
177.763817
 30
0.0
 10
352.403523
 20
171.097785
 30
0.0
 10
359.305493
 20
172.796396
 30
0.0
  0
SPLINE
  5
106
100
AcDbEntity
  8
Layer_1
 62
1
100
AcDbSpline
 70
8
 71
3
 72
8
 73
4
 74
0
 40
0
 40
0
 40
0
 40
0
 40
1
 40
1
 40
1
 40
1
 10
359.305493
 20
172.796396
 30
0.0
 10
369.190214
 20
149.124894
 30
0.0
 10
384.129534
 20
118.367986
 30
0.0
 10
365.869361
 20
82.390467
 30
0.0
  0
SPLINE
  5
107
100
AcDbEntity
  8
Layer_1
 62
1
100
AcDbSpline
 70
8
 71
3
 72
8
 73
4
 74
0
 40
0
 40
0
 40
0
 40
0
 40
1
 40
1
 40
1
 40
1
 10
365.869361
 20
82.390467
 30
0.0
 10
357.121714
 20
59.190022
 30
0.0
 10
347.675031
 20
24.473073
 30
0.0
 10
388.253647
 20
3.984499
 30
0.0
  0
LINE
  5
108
100
AcDbEntity
  8
Layer_1
 62
1
100
AcDbLine
 10
388.253647
 20
3.984499
 30
0.0
 11
388.253647
 21
69.415413
 31
0.0
  0
LINE
  5
109
100
AcDbEntity
  8
Layer_1
 62
1
100
AcDbLine
 10
388.253647
 20
69.415413
 30
0.0
 11
395.104168
 21
69.415413
 31
0.0
  0
LINE
  5
10a
100
AcDbEntity
  8
Layer_1
 62
1
100
AcDbLine
 10
395.104168
 20
69.415413
 30
0.0
 11
395.104168
 21
1.645159
 31
0.0
  0
SPLINE
  5
10b
100
AcDbEntity
  8
Layer_1
 62
1
100
AcDbSpline
 70
8
 71
3
 72
8
 73
4
 74
0
 40
0
 40
0
 40
0
 40
0
 40
1
 40
1
 40
1
 40
1
 10
395.104168
 20
1.645159
 30
0.0
 10
400.744408
 20
0.067452
 30
0.0
 10
406.798046
 20
-0.683513
 30
0.0
 10
414.454566
 20
1.771369
 30
0.0
  0
LINE
  5
10c
100
AcDbEntity
  8
Layer_1
 62
1
100
AcDbLine
 10
414.454566
 20
1.771369
 30
0.0
 11
414.454566
 21
69.415413
 31
0.0
  0
LINE
  5
10d
100
AcDbEntity
  8
Layer_1
 62
1
100
AcDbLine
 10
414.454566
 20
69.415413
 30
0.0
 11
421.305623
 21
69.415413
 31
0.0
  0
LINE
  5
10e
100
AcDbEntity
  8
Layer_1
 62
1
100
AcDbLine
 10
421.305623
 20
69.415413
 30
0.0
 11
421.305623
 21
4.679584
 31
0.0
  0
SPLINE
  5
10f
100
AcDbEntity
  8
Layer_1
 62
1
100
AcDbSpline
 70
8
 71
3
 72
8
 73
4
 74
0
 40
0
 40
0
 40
0
 40
0
 40
1
 40
1
 40
1
 40
1
 10
421.305623
 20
4.679584
 30
0.0
 10
458.197289
 20
25.350731
 30
0.0
 10
459.994282
 20
39.872899
 30
0.0
 10
439.269745
 20
90.116864
 30
0.0
  0
SPLINE
  5
110
100
AcDbEntity
  8
Layer_1
 62
1
100
AcDbSpline
 70
8
 71
3
 72
8
 73
4
 74
0
 40
0
 40
0
 40
0
 40
0
 40
1
 40
1
 40
1
 40
1
 10
439.269745
 20
90.116864
 30
0.0
 10
433.029162
 20
111.126305
 30
0.0
 10
429.906486
 20
137.178597
 30
0.0
 10
452.404649
 20
172.789227
 30
0.0
  0
SPLINE
  5
111
100
AcDbEntity
  8
Layer_1
 62
1
100
AcDbSpline
 70
8
 71
3
 72
8
 73
4
 74
0
 40
0
 40
0
 40
0
 40
0
 40
1
 40
1
 40
1
 40
1
 10
452.404649
 20
172.789227
 30
0.0
 10
476.865781
 20
174.165456
 30
0.0
 10
527.790297
 20
314.569544
 30
0.0
 10
501.853623
 20
328.089174
 30
0.0
  0
SPLINE
  5
112
100
AcDbEntity
  8
Layer_1
 62
1
100
AcDbSpline
 70
8
 71
3
 72
8
 73
4
 74
0
 40
0
 40
0
 40
0
 40
0
 40
1
 40
1
 40
1
 40
1
 10
501.853623
 20
328.089174
 30
0.0
 10
501.725494
 20
328.101027
 30
0.0
 10
501.594035
 20
328.108647
 30
0.0
 10
501.458936
 20
328.111187
 30
0.0
  0
LINE
  5
113
100
AcDbEntity
  8
Layer_1
 62
1
100
AcDbLine
 10
501.458936
 20
328.111187
 30
0.0
 11
501.458936
 21
328.111215
 31
0.0
  0
LINE
  5
114
100
AcDbEntity
  8
Layer_1
 62
1
100
AcDbLine
 10
288.662646
 20
336.049779
 30
0.0
 11
199.682346
 21
352.044512
 31
0.0
  0
LINE
  5
115
100
AcDbEntity
  8
Layer_1
 62
1
100
AcDbLine
 10
199.682346
 20
352.044512
 30
0.0
 11
200.893361
 21
358.781523
 31
0.0
  0
LINE
  5
116
100
AcDbEntity
  8
Layer_1
 62
1
100
AcDbLine
 10
200.893361
 20
358.781523
 30
0.0
 11
289.694648
 21
342.818972
 31
0.0
  0
LINE
  5
117
100
AcDbEntity
  8
Layer_1
 62
1
100
AcDbLine
 10
289.694648
 20
342.818972
 30
0.0
 11
295.554090
 21
376.767706
 31
0.0
  0
SPLINE
  5
118
100
AcDbEntity
  8
Layer_1
 62
1
100
AcDbSpline
 70
8
 71
3
 72
8
 73
4
 74
0
 40
0
 40
0
 40
0
 40
0
 40
1
 40
1
 40
1
 40
1
 10
295.554090
 20
376.767706
 30
0.0
 10
276.654681
 20
401.063292
 30
0.0
 10
273.816087
 20
410.157590
 30
0.0
 10
267.694715
 20
406.601508
 30
0.0
  0
SPLINE
  5
119
100
AcDbEntity
  8
Layer_1
 62
1
100
AcDbSpline
 70
8
 71
3
 72
8
 73
4
 74
0
 40
0
 40
0
 40
0
 40
0
 40
1
 40
1
 40
1
 40
1
 10
267.694715
 20
406.601508
 30
0.0
 10
254.650240
 20
400.858068
 30
0.0
 10
241.917731
 20
399.595465
 30
0.0
 10
198.427292
 20
411.073119
 30
0.0
  0
SPLINE
  5
11a
100
AcDbEntity
  8
Layer_1
 62
1
100
AcDbSpline
 70
8
 71
3
 72
8
 73
4
 74
0
 40
0
 40
0
 40
0
 40
0
 40
1
 40
1
 40
1
 40
1
 10
198.427292
 20
411.073119
 30
0.0
 10
144.511948
 20
414.882732
 30
0.0
 10
138.477690
 20
377.758803
 30
0.0
 10
103.440326
 20
369.811654
 30
0.0
  0
LINE
  5
11b
100
AcDbEntity
  8
Layer_1
 62
1
100
AcDbLine
 10
103.440326
 20
369.811654
 30
0.0
 11
103.238554
 21
369.845058
 31
0.0
  0
LINE
  5
11c
100
AcDbEntity
  8
Layer_1
 62
1
100
AcDbLine
 10
103.238554
 20
369.845058
 30
0.0
 11
103.218008
 21
369.761921
 31
0.0
  0
SPLINE
  5
11d
100
AcDbEntity
  8
Layer_1
 62
1
100
AcDbSpline
 70
8
 71
3
 72
8
 73
4
 74
0
 40
0
 40
0
 40
0
 40
0
 40
1
 40
1
 40
1
 40
1
 10
103.218008
 20
369.761921
 30
0.0
 10
102.763760
 20
369.660863
 30
0.0
 10
102.306075
 20
369.563343
 30
0.0
 10
101.841969
 20
369.472200
 30
0.0
  0
LINE
  5
11e
100
AcDbEntity
  8
Layer_1
 62
1
100
AcDbLine
 10
101.841969
 20
369.472200
 30
0.0
 11
100.130130
 21
360.117360
 31
0.0
  0
LINE
  5
11f
100
AcDbEntity
  8
Layer_1
 62
1
100
AcDbLine
 10
100.130130
 20
360.117360
 30
0.0
 11
98.476805
 21
350.751460
 31
0.0
  0
SPLINE
  5
120
100
AcDbEntity
  8
Layer_1
 62
1
100
AcDbSpline
 70
8
 71
3
 72
8
 73
4
 74
0
 40
0
 40
0
 40
0
 40
0
 40
1
 40
1
 40
1
 40
1
 10
98.476805
 20
350.751460
 30
0.0
 10
98.880117
 20
350.504391
 30
0.0
 10
99.275189
 20
350.253586
 30
0.0
 10
99.665807
 20
350.000656
 30
0.0
  0
LINE
  5
121
100
AcDbEntity
  8
Layer_1
 62
1
100
AcDbLine
 10
99.665807
 20
350.000656
 30
0.0
 11
99.656098
 21
349.915574
 31
0.0
  0
LINE
  5
122
100
AcDbEntity
  8
Layer_1
 62
1
100
AcDbLine
 10
99.656098
 20
349.915574
 30
0.0
 11
99.856871
 21
349.876616
 31
0.0
  0
SPLINE
  5
123
100
AcDbEntity
  8
Layer_1
 62
1
100
AcDbSpline
 70
8
 71
3
 72
8
 73
4
 74
0
 40
0
 40
0
 40
0
 40
0
 40
1
 40
1
 40
1
 40
1
 10
99.856871
 20
349.876616
 30
0.0
 10
129.933175
 20
330.224876
 30
0.0
 10
122.660960
 20
293.323538
 30
0.0
 10
174.527845
 20
278.118149
 30
0.0
  0
SPLINE
  5
124
100
AcDbEntity
  8
Layer_1
 62
1
100
AcDbSpline
 70
8
 71
3
 72
8
 73
4
 74
0
 40
0
 40
0
 40
0
 40
0
 40
1
 40
1
 40
1
 40
1
 10
174.527845
 20
278.118149
 30
0.0
 10
219.292907
 20
273.731334
 30
0.0
 10
230.788633
 20
268.113596
 30
0.0
 10
241.016302
 20
258.186850
 30
0.0
  0
SPLINE
  5
125
100
AcDbEntity
  8
Layer_1
 62
1
100
AcDbSpline
 70
8
 71
3
 72
8
 73
4
 74
0
 40
0
 40
0
 40
0
 40
0
 40
1
 40
1
 40
1
 40
1
 10
241.016302
 20
258.186850
 30
0.0
 10
245.516025
 20
252.721537
 30
0.0
 10
251.344086
 20
260.257954
 30
0.0
 10
277.521518
 20
276.450738
 30
0.0
  0
LINE
  5
126
100
AcDbEntity
  8
Layer_1
 62
1
100
AcDbLine
 10
277.521518
 20
276.450738
 30
0.0
 11
283.851830
 21
310.314829
 31
0.0
  0
LINE
  5
127
100
AcDbEntity
  8
Layer_1
 62
1
100
AcDbLine
 10
283.851830
 20
310.314829
 30
0.0
 11
195.050551
 21
326.277378
 31
0.0
  0
LINE
  5
128
100
AcDbEntity
  8
Layer_1
 62
1
100
AcDbLine
 10
195.050551
 20
326.277378
 30
0.0
 11
196.261569
 21
333.014389
 31
0.0
  0
LINE
  5
129
100
AcDbEntity
  8
Layer_1
 62
1
100
AcDbLine
 10
196.261569
 20
333.014389
 30
0.0
 11
285.241887
 21
317.019659
 31
0.0
  0
LINE
  5
12a
100
AcDbEntity
  8
Layer_1
 62
1
100
AcDbLine
 10
285.241887
 20
317.019659
 30
0.0
 11
286.885634
 21
326.544097
 31
0.0
  0
LINE
  5
12b
100
AcDbEntity
  8
Layer_1
 62
1
100
AcDbLine
 10
286.885634
 20
326.544097
 30
0.0
 11
288.662618
 21
336.049613
 31
0.0
  0
LINE
  5
12c
100
AcDbEntity
  8
Layer_1
 62
1
100
AcDbLine
 10
288.662618
 20
336.049613
 30
0.0
 11
288.662646
 21
336.049779
 31
0.0
  0
LINE
  5
12d
100
AcDbEntity
  8
Layer_1
 62
1
100
AcDbLine
 10
242.678362
 20
368.715424
 30
0.0
 11
242.037066
 21
365.147824
 31
0.0
  0
SPLINE
  5
12e
100
AcDbEntity
  8
Layer_1
 62
1
100
AcDbSpline
 70
8
 71
3
 72
8
 73
4
 74
0
 40
0
 40
0
 40
0
 40
0
 40
1
 40
1
 40
1
 40
1
 10
242.037066
 20
365.147824
 30
0.0
 10
241.901988
 20
364.396374
 30
0.0
 10
241.188421
 20
363.900253
 30
0.0
 10
240.436967
 20
364.035333
 30
0.0
  0
LINE
  5
12f
100
AcDbEntity
  8
Layer_1
 62
1
100
AcDbLine
 10
240.436967
 20
364.035333
 30
0.0
 11
237.030477
 21
364.647667
 31
0.0
  0
SPLINE
  5
130
100
AcDbEntity
  8
Layer_1
 62
1
100
AcDbSpline
 70
8
 71
3
 72
8
 73
4
 74
0
 40
0
 40
0
 40
0
 40
0
 40
1
 40
1
 40
1
 40
1
 10
237.030477
 20
364.647667
 30
0.0
 10
235.718581
 20
363.261057
 30
0.0
 10
233.796660
 20
362.628239
 30
0.0
 10
231.917590
 20
362.964181
 30
0.0
  0
SPLINE
  5
131
100
AcDbEntity
  8
Layer_1
 62
1
100
AcDbSpline
 70
8
 71
3
 72
8
 73
4
 74
0
 40
0
 40
0
 40
0
 40
0
 40
1
 40
1
 40
1
 40
1
 10
231.917590
 20
362.964181
 30
0.0
 10
230.438585
 20
363.230027
 30
0.0
 10
229.125767
 20
364.072523
 30
0.0
 10
228.267945
 20
365.306326
 30
0.0
  0
SPLINE
  5
132
100
AcDbEntity
  8
Layer_1
 62
1
100
AcDbSpline
 70
8
 71
3
 72
8
 73
4
 74
0
 40
0
 40
0
 40
0
 40
0
 40
1
 40
1
 40
1
 40
1
 10
228.267945
 20
365.306326
 30
0.0
 10
227.410123
 20
366.540129
 30
0.0
 10
227.077568
 20
368.064170
 30
0.0
 10
227.343439
 20
369.543170
 30
0.0
  0
SPLINE
  5
133
100
AcDbEntity
  8
Layer_1
 62
1
100
AcDbSpline
 70
8
 71
3
 72
8
 73
4
 74
0
 40
0
 40
0
 40
0
 40
0
 40
1
 40
1
 40
1
 40
1
 10
227.343439
 20
369.543170
 30
0.0
 10
227.609292
 20
371.022169
 30
0.0
 10
228.451791
 20
372.334980
 30
0.0
 10
229.685592
 20
373.192796
 30
0.0
  0
SPLINE
  5
134
100
AcDbEntity
  8
Layer_1
 62
1
100
AcDbSpline
 70
8
 71
3
 72
8
 73
4
 74
0
 40
0
 40
0
 40
0
 40
0
 40
1
 40
1
 40
1
 40
1
 10
229.685592
 20
373.192796
 30
0.0
 10
230.919394
 20
374.050612
 30
0.0
 10
232.443431
 20
374.383164
 30
0.0
 10
233.922426
 20
374.117293
 30
0.0
  0
SPLINE
  5
135
100
AcDbEntity
  8
Layer_1
 62
1
100
AcDbSpline
 70
8
 71
3
 72
8
 73
4
 74
0
 40
0
 40
0
 40
0
 40
0
 40
1
 40
1
 40
1
 40
1
 10
233.922426
 20
374.117293
 30
0.0
 10
235.726977
 20
373.790004
 30
0.0
 10
237.261498
 20
372.609502
 30
0.0
 10
238.040576
 20
370.949213
 30
0.0
  0
LINE
  5
136
100
AcDbEntity
  8
Layer_1
 62
1
100
AcDbLine
 10
238.040576
 20
370.949213
 30
0.0
 11
241.565867
 21
370.315522
 31
0.0
  0
SPLINE
  5
137
100
AcDbEntity
  8
Layer_1
 62
1
100
AcDbSpline
 70
8
 71
3
 72
8
 73
4
 74
0
 40
0
 40
0
 40
0
 40
0
 40
1
 40
1
 40
1
 40
1
 10
241.565867
 20
370.315522
 30
0.0
 10
242.317321
 20
370.180445
 30
0.0
 10
242.813436
 20
369.466846
 30
0.0
 10
242.678362
 20
368.715424
 30
0.0
  0
LINE
  5
138
100
AcDbEntity
  8
Layer_1
 62
1
100
AcDbLine
 10
242.678362
 20
368.715424
 30
0.0
 11
242.678362
 21
368.715424
 31
0.0
  0
LINE
  5
139
100
AcDbEntity
  8
Layer_1
 62
1
100
AcDbLine
 10
231.431936
 20
306.150403
 30
0.0
 11
230.790634
 21
302.582778
 31
0.0
  0
SPLINE
  5
13a
100
AcDbEntity
  8
Layer_1
 62
1
100
AcDbSpline
 70
8
 71
3
 72
8
 73
4
 74
0
 40
0
 40
0
 40
0
 40
0
 40
1
 40
1
 40
1
 40
1
 10
230.790634
 20
302.582778
 30
0.0
 10
230.655557
 20
301.831326
 30
0.0
 10
229.941986
 20
301.335206
 30
0.0
 10
229.190536
 20
301.470283
 30
0.0
  0
SPLINE
  5
13b
100
AcDbEntity
  8
Layer_1
 62
1
100
AcDbSpline
 70
8
 71
3
 72
8
 73
4
 74
0
 40
0
 40
0
 40
0
 40
0
 40
1
 40
1
 40
1
 40
1
 10
229.190536
 20
301.470283
 30
0.0
 10
229.190536
 20
301.470283
 30
0.0
 10
225.784046
 20
302.082620
 30
0.0
 10
225.784046
 20
302.082620
 30
0.0
  0
SPLINE
  5
13c
100
AcDbEntity
  8
Layer_1
 62
1
100
AcDbSpline
 70
8
 71
3
 72
8
 73
4
 74
0
 40
0
 40
0
 40
0
 40
0
 40
1
 40
1
 40
1
 40
1
 10
225.784046
 20
302.082620
 30
0.0
 10
224.472145
 20
300.696021
 30
0.0
 10
222.550226
 20
300.063212
 30
0.0
 10
220.671161
 20
300.399159
 30
0.0
  0
SPLINE
  5
13d
100
AcDbEntity
  8
Layer_1
 62
1
100
AcDbSpline
 70
8
 71
3
 72
8
 73
4
 74
0
 40
0
 40
0
 40
0
 40
0
 40
1
 40
1
 40
1
 40
1
 10
220.671161
 20
300.399159
 30
0.0
 10
219.192162
 20
300.665005
 30
0.0
 10
217.879346
 20
301.507497
 30
0.0
 10
217.021525
 20
302.741295
 30
0.0
  0
SPLINE
  5
13e
100
AcDbEntity
  8
Layer_1
 62
1
100
AcDbSpline
 70
8
 71
3
 72
8
 73
4
 74
0
 40
0
 40
0
 40
0
 40
0
 40
1
 40
1
 40
1
 40
1
 10
217.021525
 20
302.741295
 30
0.0
 10
216.163703
 20
303.975092
 30
0.0
 10
215.831144
 20
305.499127
 30
0.0
 10
216.097008
 20
306.978123
 30
0.0
  0
SPLINE
  5
13f
100
AcDbEntity
  8
Layer_1
 62
1
100
AcDbSpline
 70
8
 71
3
 72
8
 73
4
 74
0
 40
0
 40
0
 40
0
 40
0
 40
1
 40
1
 40
1
 40
1
 10
216.097008
 20
306.978123
 30
0.0
 10
216.362854
 20
308.457127
 30
0.0
 10
217.205351
 20
309.769946
 30
0.0
 10
218.439154
 20
310.627768
 30
0.0
  0
SPLINE
  5
140
100
AcDbEntity
  8
Layer_1
 62
1
100
AcDbSpline
 70
8
 71
3
 72
8
 73
4
 74
0
 40
0
 40
0
 40
0
 40
0
 40
1
 40
1
 40
1
 40
1
 10
218.439154
 20
310.627768
 30
0.0
 10
219.672957
 20
311.485589
 30
0.0
 10
221.196998
 20
311.818144
 30
0.0
 10
222.675998
 20
311.552272
 30
0.0
  0
SPLINE
  5
141
100
AcDbEntity
  8
Layer_1
 62
1
100
AcDbSpline
 70
8
 71
3
 72
8
 73
4
 74
0
 40
0
 40
0
 40
0
 40
0
 40
1
 40
1
 40
1
 40
1
 10
222.675998
 20
311.552272
 30
0.0
 10
224.480549
 20
311.224984
 30
0.0
 10
226.015069
 20
310.044483
 30
0.0
 10
226.794147
 20
308.384194
 30
0.0
  0
LINE
  5
142
100
AcDbEntity
  8
Layer_1
 62
1
100
AcDbLine
 10
226.794147
 20
308.384194
 30
0.0
 11
230.319442
 21
307.750502
 31
0.0
  0
SPLINE
  5
143
100
AcDbEntity
  8
Layer_1
 62
1
100
AcDbSpline
 70
8
 71
3
 72
8
 73
4
 74
0
 40
0
 40
0
 40
0
 40
0
 40
1
 40
1
 40
1
 40
1
 10
230.319442
 20
307.750502
 30
0.0
 10
231.070892
 20
307.615424
 30
0.0
 10
231.567008
 20
306.901827
 30
0.0
 10
231.431936
 20
306.150403
 30
0.0
  0
LINE
  5
144
100
AcDbEntity
  8
Layer_1
 62
1
100
AcDbLine
 10
231.431936
 20
306.150403
 30
0.0
 11
231.431936
 21
306.150403
 31
0.0
  0
SPLINE
  5
145
100
AcDbEntity
  8
Layer_1
 62
1
100
AcDbSpline
 70
8
 71
3
 72
8
 73
4
 74
0
 40
0
 40
0
 40
0
 40
0
 40
1
 40
1
 40
1
 40
1
 10
535.907149
 20
292.938799
 30
0.0
 10
517.298742
 20
290.154395
 30
0.0
 10
508.517257
 20
272.629975
 30
0.0
 10
506.299724
 20
245.259218
 30
0.0
  0
SPLINE
  5
146
100
AcDbEntity
  8
Layer_1
 62
1
100
AcDbSpline
 70
8
 71
3
 72
8
 73
4
 74
0
 40
0
 40
0
 40
0
 40
0
 40
1
 40
1
 40
1
 40
1
 10
506.299724
 20
245.259218
 30
0.0
 10
502.385640
 20
238.446684
 30
0.0
 10
498.918032
 20
229.726920
 30
0.0
 10
496.575193
 20
220.293586
 30
0.0
  0
SPLINE
  5
147
100
AcDbEntity
  8
Layer_1
 62
1
100
AcDbSpline
 70
8
 71
3
 72
8
 73
4
 74
0
 40
0
 40
0
 40
0
 40
0
 40
1
 40
1
 40
1
 40
1
 10
496.575193
 20
220.293586
 30
0.0
 10
489.927815
 20
193.528364
 30
0.0
 10
492.338078
 20
161.020682
 30
0.0
 10
519.304016
 20
150.034025
 30
0.0
  0
LINE
  5
148
100
AcDbEntity
  8
Layer_1
 62
1
100
AcDbLine
 10
519.304016
 20
150.034025
 30
0.0
 11
519.304016
 21
220.215297
 31
0.0
  0
LINE
  5
149
100
AcDbEntity
  8
Layer_1
 62
1
100
AcDbLine
 10
519.304016
 20
220.215297
 30
0.0
 11
526.155073
 21
220.215297
 31
0.0
  0
LINE
  5
14a
100
AcDbEntity
  8
Layer_1
 62
1
100
AcDbLine
 10
526.155073
 20
220.215297
 30
0.0
 11
526.155073
 21
147.847339
 31
0.0
  0
SPLINE
  5
14b
100
AcDbEntity
  8
Layer_1
 62
1
100
AcDbSpline
 70
8
 71
3
 72
8
 73
4
 74
0
 40
0
 40
0
 40
0
 40
0
 40
1
 40
1
 40
1
 40
1
 10
526.155073
 20
147.847339
 30
0.0
 10
528.937418
 20
147.180166
 30
0.0
 10
531.927590
 20
146.703436
 30
0.0
 10
535.138207
 20
146.438994
 30
0.0
  0
SPLINE
  5
14c
100
AcDbEntity
  8
Layer_1
 62
1
100
AcDbSpline
 70
8
 71
3
 72
8
 73
4
 74
0
 40
0
 40
0
 40
0
 40
0
 40
1
 40
1
 40
1
 40
1
 10
535.138207
 20
146.438994
 30
0.0
 10
538.826033
 20
146.264213
 30
0.0
 10
542.282041
 20
146.524112
 30
0.0
 10
545.505471
 20
147.169893
 30
0.0
  0
LINE
  5
14d
100
AcDbEntity
  8
Layer_1
 62
1
100
AcDbLine
 10
545.505471
 20
147.169893
 30
0.0
 11
545.505471
 21
220.215297
 31
0.0
  0
LINE
  5
14e
100
AcDbEntity
  8
Layer_1
 62
1
100
AcDbLine
 10
545.505471
 20
220.215297
 30
0.0
 11
552.355992
 21
220.215297
 31
0.0
  0
LINE
  5
14f
100
AcDbEntity
  8
Layer_1
 62
1
100
AcDbLine
 10
552.355992
 20
220.215297
 30
0.0
 11
552.355992
 21
149.252947
 31
0.0
  0
SPLINE
  5
150
100
AcDbEntity
  8
Layer_1
 62
1
100
AcDbSpline
 70
8
 71
3
 72
8
 73
4
 74
0
 40
0
 40
0
 40
0
 40
0
 40
1
 40
1
 40
1
 40
1
 10
552.355992
 20
149.252947
 30
0.0
 10
575.103865
 20
158.748709
 30
0.0
 10
583.117424
 20
190.305584
 30
0.0
 10
575.286547
 20
220.691011
 30
0.0
  0
SPLINE
  5
151
100
AcDbEntity
  8
Layer_1
 62
1
100
AcDbSpline
 70
8
 71
3
 72
8
 73
4
 74
0
 40
0
 40
0
 40
0
 40
0
 40
1
 40
1
 40
1
 40
1
 10
575.286547
 20
220.691011
 30
0.0
 10
573.181480
 20
228.859200
 30
0.0
 10
569.931691
 20
236.942919
 30
0.0
 10
565.515139
 20
244.490275
 30
0.0
  0
SPLINE
  5
152
100
AcDbEntity
  8
Layer_1
 62
1
100
AcDbSpline
 70
8
 71
3
 72
8
 73
4
 74
0
 40
0
 40
0
 40
0
 40
0
 40
1
 40
1
 40
1
 40
1
 10
565.515139
 20
244.490275
 30
0.0
 10
563.448059
 20
274.572200
 30
0.0
 10
552.305728
 20
288.448785
 30
0.0
 10
535.907149
 20
292.938799
 30
0.0
  0
LINE
  5
153
100
AcDbEntity
  8
Layer_1
 62
1
100
AcDbLine
 10
535.907149
 20
292.938799
 30
0.0
 11
535.907149
 21
292.938799
 31
0.0
  0
LINE
  5
154
100
AcDbEntity
  8
Layer_1
 62
1
100
AcDbLine
 10
299.444523
 20
448.538251
 30
0.0
 11
299.444523
 21
448.538251
 31
0.0
  0
SPLINE
  5
155
100
AcDbEntity
  8
Layer_1
 62
1
100
AcDbSpline
 70
8
 71
3
 72
8
 73
4
 74
0
 40
0
 40
0
 40
0
 40
0
 40
1
 40
1
 40
1
 40
1
 10
299.444523
 20
448.538251
 30
0.0
 10
299.444523
 20
448.498430
 30
0.0
 10
299.449321
 20
448.458552
 30
0.0
 10
299.450450
 20
448.418730
 30
0.0
  0
SPLINE
  5
156
100
AcDbEntity
  8
Layer_1
 62
1
100
AcDbSpline
 70
8
 71
3
 72
8
 73
4
 74
0
 40
0
 40
0
 40
0
 40
0
 40
1
 40
1
 40
1
 40
1
 10
299.450450
 20
448.418730
 30
0.0
 10
299.458070
 20
448.173338
 30
0.0
 10
299.470205
 20
447.927184
 30
0.0
 10
299.483724
 20
447.681114
 30
0.0
  0
SPLINE
  5
157
100
AcDbEntity
  8
Layer_1
 62
1
100
AcDbSpline
 70
8
 71
3
 72
8
 73
4
 74
0
 40
0
 40
0
 40
0
 40
0
 40
1
 40
1
 40
1
 40
1
 10
299.483724
 20
447.681114
 30
0.0
 10
299.487675
 20
447.612562
 30
0.0
 10
299.489932
 20
447.544095
 30
0.0
 10
299.494166
 20
447.475656
 30
0.0
  0
SPLINE
  5
158
100
AcDbEntity
  8
Layer_1
 62
1
100
AcDbSpline
 70
8
 71
3
 72
8
 73
4
 74
0
 40
0
 40
0
 40
0
 40
0
 40
1
 40
1
 40
1
 40
1
 10
299.494166
 20
447.475656
 30
0.0
 10
299.894921
 20
440.927564
 30
0.0
 10
302.357141
 20
434.133488
 30
0.0
 10
307.307883
 20
427.042542
 30
0.0
  0
SPLINE
  5
159
100
AcDbEntity
  8
Layer_1
 62
1
100
AcDbSpline
 70
8
 71
3
 72
8
 73
4
 74
0
 40
0
 40
0
 40
0
 40
0
 40
1
 40
1
 40
1
 40
1
 10
307.307883
 20
427.042542
 30
0.0
 10
323.410298
 20
412.967216
 30
0.0
 10
342.454428
 20
406.112490
 30
0.0
 10
360.694168
 20
404.774870
 30
0.0
  0
SPLINE
  5
15a
100
AcDbEntity
  8
Layer_1
 62
1
100
AcDbSpline
 70
8
 71
3
 72
8
 73
4
 74
0
 40
0
 40
0
 40
0
 40
0
 40
1
 40
1
 40
1
 40
1
 10
360.694168
 20
404.774870
 30
0.0
 10
390.259852
 20
402.606754
 30
0.0
 10
417.708842
 20
414.936252
 30
0.0
 10
427.090925
 20
434.507517
 30
0.0
  0
LINE
  5
15b
100
AcDbEntity
  8
Layer_1
 62
1
100
AcDbLine
 10
427.090925
 20
434.507517
 30
0.0
 11
360.304616
 21
433.385938
 31
0.0
  0
LINE
  5
15c
100
AcDbEntity
  8
Layer_1
 62
1
100
AcDbLine
 10
360.304616
 20
433.385938
 30
0.0
 11
360.189582
 21
440.235471
 31
0.0
  0
LINE
  5
15d
100
AcDbEntity
  8
Layer_1
 62
1
100
AcDbLine
 10
360.189582
 20
440.235471
 30
0.0
 11
429.551366
 21
441.400287
 31
0.0
  0
SPLINE
  5
15e
100
AcDbEntity
  8
Layer_1
 62
1
100
AcDbSpline
 70
8
 71
3
 72
8
 73
4
 74
0
 40
0
 40
0
 40
0
 40
0
 40
1
 40
1
 40
1
 40
1
 10
429.551366
 20
441.400287
 30
0.0
 10
430.300356
 20
444.500780
 30
0.0
 10
430.626520
 20
447.738010
 30
0.0
 10
430.468024
 20
451.092532
 30
0.0
  0
SPLINE
  5
15f
100
AcDbEntity
  8
Layer_1
 62
1
100
AcDbSpline
 70
8
 71
3
 72
8
 73
4
 74
0
 40
0
 40
0
 40
0
 40
0
 40
1
 40
1
 40
1
 40
1
 10
430.468024
 20
451.092532
 30
0.0
 10
430.513772
 20
454.450383
 30
0.0
 10
430.079094
 20
457.674575
 30
0.0
 10
429.226444
 20
460.748003
 30
0.0
  0
LINE
  5
160
100
AcDbEntity
  8
Layer_1
 62
1
100
AcDbLine
 10
429.226444
 20
460.748003
 30
0.0
 11
359.864660
 21
459.583159
 31
0.0
  0
LINE
  5
161
100
AcDbEntity
  8
Layer_1
 62
1
100
AcDbLine
 10
359.864660
 20
459.583159
 30
0.0
 11
359.749626
 21
466.433248
 31
0.0
  0
LINE
  5
162
100
AcDbEntity
  8
Layer_1
 62
1
100
AcDbLine
 10
359.749626
 20
466.433248
 30
0.0
 11
426.535398
 21
467.554828
 31
0.0
  0
SPLINE
  5
163
100
AcDbEntity
  8
Layer_1
 62
1
100
AcDbSpline
 70
8
 71
3
 72
8
 73
4
 74
0
 40
0
 40
0
 40
0
 40
0
 40
1
 40
1
 40
1
 40
1
 10
426.535398
 20
467.554828
 30
0.0
 10
416.504007
 20
486.794551
 30
0.0
 10
388.669643
 20
498.194221
 30
0.0
 10
359.202454
 20
495.043331
 30
0.0
  0
SPLINE
  5
164
100
AcDbEntity
  8
Layer_1
 62
1
100
AcDbSpline
 70
8
 71
3
 72
8
 73
4
 74
0
 40
0
 40
0
 40
0
 40
0
 40
1
 40
1
 40
1
 40
1
 10
359.202454
 20
495.043331
 30
0.0
 10
341.010409
 20
493.098075
 30
0.0
 10
322.197391
 20
485.607480
 30
0.0
 10
306.569816
 20
470.992980
 30
0.0
  0
SPLINE
  5
165
100
AcDbEntity
  8
Layer_1
 62
1
100
AcDbSpline
 70
8
 71
3
 72
8
 73
4
 74
0
 40
0
 40
0
 40
0
 40
0
 40
1
 40
1
 40
1
 40
1
 10
306.569816
 20
470.992980
 30
0.0
 10
301.859950
 20
463.739784
 30
0.0
 10
299.627234
 20
456.866911
 30
0.0
 10
299.446583
 20
450.309054
 30
0.0
  0
SPLINE
  5
166
100
AcDbEntity
  8
Layer_1
 62
1
100
AcDbSpline
 70
8
 71
3
 72
8
 73
4
 74
0
 40
0
 40
0
 40
0
 40
0
 40
1
 40
1
 40
1
 40
1
 10
299.446583
 20
450.309054
 30
0.0
 10
299.446583
 20
450.240474
 30
0.0
 10
299.443761
 20
450.171979
 30
0.0
 10
299.443761
 20
450.103343
 30
0.0
  0
SPLINE
  5
167
100
AcDbEntity
  8
Layer_1
 62
1
100
AcDbSpline
 70
8
 71
3
 72
8
 73
4
 74
0
 40
0
 40
0
 40
0
 40
0
 40
1
 40
1
 40
1
 40
1
 10
299.443761
 20
450.103343
 30
0.0
 10
299.437552
 20
449.856934
 30
0.0
 10
299.434165
 20
449.610554
 30
0.0
 10
299.436423
 20
449.364993
 30
0.0
  0
SPLINE
  5
168
100
AcDbEntity
  8
Layer_1
 62
1
100
AcDbSpline
 70
8
 71
3
 72
8
 73
4
 74
0
 40
0
 40
0
 40
0
 40
0
 40
1
 40
1
 40
1
 40
1
 10
299.436423
 20
449.364993
 30
0.0
 10
299.436423
 20
449.207400
 30
0.0
 10
299.439245
 20
449.049412
 30
0.0
 10
299.441503
 20
448.891509
 30
0.0
  0
SPLINE
  5
169
100
AcDbEntity
  8
Layer_1
 62
1
100
AcDbSpline
 70
8
 71
3
 72
8
 73
4
 74
0
 40
0
 40
0
 40
0
 40
0
 40
1
 40
1
 40
1
 40
1
 10
299.441503
 20
448.891509
 30
0.0
 10
299.444325
 20
448.773737
 30
0.0
 10
299.441503
 20
448.655797
 30
0.0
 10
299.444608
 20
448.538195
 30
0.0
  0
LINE
  5
16a
100
AcDbEntity
  8
Layer_1
 62
1
100
AcDbLine
 10
299.444608
 20
448.538195
 30
0.0
 11
299.444523
 21
448.538251
 31
0.0
  0
SPLINE
  5
16b
100
AcDbEntity
  8
Layer_1
 62
1
100
AcDbSpline
 70
8
 71
3
 72
8
 73
4
 74
0
 40
0
 40
0
 40
0
 40
0
 40
1
 40
1
 40
1
 40
1
 10
405.214892
 20
259.558450
 30
0.0
 10
407.343328
 20
259.568327
 30
0.0
 10
409.117377
 20
260.375314
 30
0.0
 10
410.581517
 20
261.879615
 30
0.0
  0
SPLINE
  5
16c
100
AcDbEntity
  8
Layer_1
 62
1
100
AcDbSpline
 70
8
 71
3
 72
8
 73
4
 74
0
 40
0
 40
0
 40
0
 40
0
 40
1
 40
1
 40
1
 40
1
 10
410.581517
 20
261.879615
 30
0.0
 10
411.624131
 20
262.473354
 30
0.0
 10
412.712690
 20
263.171430
 30
0.0
 10
413.862915
 20
264.007316
 30
0.0
  0
SPLINE
  5
16d
100
AcDbEntity
  8
Layer_1
 62
1
100
AcDbSpline
 70
8
 71
3
 72
8
 73
4
 74
0
 40
0
 40
0
 40
0
 40
0
 40
1
 40
1
 40
1
 40
1
 10
413.862915
 20
264.007316
 30
0.0
 10
436.885136
 20
275.774035
 30
0.0
 10
431.665352
 20
292.000147
 30
0.0
 10
437.227811
 20
306.523641
 30
0.0
  0
SPLINE
  5
16e
100
AcDbEntity
  8
Layer_1
 62
1
100
AcDbSpline
 70
8
 71
3
 72
8
 73
4
 74
0
 40
0
 40
0
 40
0
 40
0
 40
1
 40
1
 40
1
 40
1
 10
437.227811
 20
306.523641
 30
0.0
 10
444.348560
 20
313.218940
 30
0.0
 10
450.526037
 20
323.343719
 30
0.0
 10
453.456153
 20
334.828019
 30
0.0
  0
SPLINE
  5
16f
100
AcDbEntity
  8
Layer_1
 62
1
100
AcDbSpline
 70
8
 71
3
 72
8
 73
4
 74
0
 40
0
 40
0
 40
0
 40
0
 40
1
 40
1
 40
1
 40
1
 10
453.456153
 20
334.828019
 30
0.0
 10
458.289914
 20
353.773569
 30
0.0
 10
454.285773
 20
376.418854
 30
0.0
 10
431.098875
 20
393.470696
 30
0.0
  0
SPLINE
  5
170
100
AcDbEntity
  8
Layer_1
 62
1
100
AcDbSpline
 70
8
 71
3
 72
8
 73
4
 74
0
 40
0
 40
0
 40
0
 40
0
 40
1
 40
1
 40
1
 40
1
 10
431.098875
 20
393.470696
 30
0.0
 10
427.878607
 20
393.714733
 30
0.0
 10
424.508112
 20
393.273196
 30
0.0
 10
420.806570
 20
392.709486
 30
0.0
  0
LINE
  5
171
100
AcDbEntity
  8
Layer_1
 62
1
100
AcDbLine
 10
420.806570
 20
392.709486
 30
0.0
 11
420.806570
 21
335.072734
 31
0.0
  0
LINE
  5
172
100
AcDbEntity
  8
Layer_1
 62
1
100
AcDbLine
 10
420.806570
 20
335.072734
 30
0.0
 11
413.955512
 21
335.072734
 31
0.0
  0
LINE
  5
173
100
AcDbEntity
  8
Layer_1
 62
1
100
AcDbLine
 10
413.955512
 20
335.072734
 30
0.0
 11
413.955512
 21
391.987392
 31
0.0
  0
SPLINE
  5
174
100
AcDbEntity
  8
Layer_1
 62
1
100
AcDbSpline
 70
8
 71
3
 72
8
 73
4
 74
0
 40
0
 40
0
 40
0
 40
0
 40
1
 40
1
 40
1
 40
1
 10
413.955512
 20
391.987392
 30
0.0
 10
410.477829
 20
391.390859
 30
0.0
 10
407.268370
 20
391.138496
 30
0.0
 10
404.280596
 20
391.107649
 30
0.0
  0
SPLINE
  5
175
100
AcDbEntity
  8
Layer_1
 62
1
100
AcDbSpline
 70
8
 71
3
 72
8
 73
4
 74
0
 40
0
 40
0
 40
0
 40
0
 40
1
 40
1
 40
1
 40
1
 10
404.280596
 20
391.107649
 30
0.0
 10
401.292878
 20
391.138665
 30
0.0
 10
398.082798
 20
391.390944
 30
0.0
 10
394.605115
 20
391.987392
 30
0.0
  0
LINE
  5
176
100
AcDbEntity
  8
Layer_1
 62
1
100
AcDbLine
 10
394.605115
 20
391.987392
 30
0.0
 11
394.605115
 21
335.072734
 31
0.0
  0
LINE
  5
177
100
AcDbEntity
  8
Layer_1
 62
1
100
AcDbLine
 10
394.605115
 20
335.072734
 30
0.0
 11
387.754594
 21
335.072734
 31
0.0
  0
LINE
  5
178
100
AcDbEntity
  8
Layer_1
 62
1
100
AcDbLine
 10
387.754594
 20
335.072734
 30
0.0
 11
387.754594
 21
392.710586
 31
0.0
  0
SPLINE
  5
179
100
AcDbEntity
  8
Layer_1
 62
1
100
AcDbSpline
 70
8
 71
3
 72
8
 73
4
 74
0
 40
0
 40
0
 40
0
 40
0
 40
1
 40
1
 40
1
 40
1
 10
387.754594
 20
392.710586
 30
0.0
 10
384.746048
 20
393.168690
 30
0.0
 10
381.956762
 20
393.545626
 30
0.0
 10
379.292330
 20
393.540150
 30
0.0
  0
SPLINE
  5
17a
100
AcDbEntity
  8
Layer_1
 62
1
100
AcDbSpline
 70
8
 71
3
 72
8
 73
4
 74
0
 40
0
 40
0
 40
0
 40
0
 40
1
 40
1
 40
1
 40
1
 10
379.292330
 20
393.540150
 30
0.0
 10
378.676352
 20
393.540150
 30
0.0
 10
378.066695
 20
393.516444
 30
0.0
 10
377.461752
 20
393.470696
 30
0.0
  0
SPLINE
  5
17b
100
AcDbEntity
  8
Layer_1
 62
1
100
AcDbSpline
 70
8
 71
3
 72
8
 73
4
 74
0
 40
0
 40
0
 40
0
 40
0
 40
1
 40
1
 40
1
 40
1
 10
377.461752
 20
393.470696
 30
0.0
 10
354.313518
 20
376.447274
 30
0.0
 10
350.284260
 20
353.849148
 30
0.0
 10
355.080768
 20
334.922818
 30
0.0
  0
SPLINE
  5
17c
100
AcDbEntity
  8
Layer_1
 62
1
100
AcDbSpline
 70
8
 71
3
 72
8
 73
4
 74
0
 40
0
 40
0
 40
0
 40
0
 40
1
 40
1
 40
1
 40
1
 10
355.080768
 20
334.922818
 30
0.0
 10
358.001118
 20
323.399486
 30
0.0
 10
364.193046
 20
313.237369
 30
0.0
 10
371.333353
 20
306.523641
 30
0.0
  0
SPLINE
  5
17d
100
AcDbEntity
  8
Layer_1
 62
1
100
AcDbSpline
 70
8
 71
3
 72
8
 73
4
 74
0
 40
0
 40
0
 40
0
 40
0
 40
1
 40
1
 40
1
 40
1
 10
371.333353
 20
306.523641
 30
0.0
 10
376.895840
 20
292.000147
 30
0.0
 10
371.676027
 20
275.774035
 30
0.0
 10
394.698248
 20
264.007316
 30
0.0
  0
SPLINE
  5
17e
100
AcDbEntity
  8
Layer_1
 62
1
100
AcDbSpline
 70
8
 71
3
 72
8
 73
4
 74
0
 40
0
 40
0
 40
0
 40
0
 40
1
 40
1
 40
1
 40
1
 10
394.698248
 20
264.007316
 30
0.0
 10
395.848473
 20
263.171430
 30
0.0
 10
396.936468
 20
262.473354
 30
0.0
 10
397.979082
 20
261.879615
 30
0.0
  0
SPLINE
  5
17f
100
AcDbEntity
  8
Layer_1
 62
1
100
AcDbSpline
 70
8
 71
3
 72
8
 73
4
 74
0
 40
0
 40
0
 40
0
 40
0
 40
1
 40
1
 40
1
 40
1
 10
397.979082
 20
261.879615
 30
0.0
 10
399.652603
 20
260.160232
 30
0.0
 10
401.731000
 20
259.351807
 30
0.0
 10
404.280596
 20
259.603662
 30
0.0
  0
SPLINE
  5
180
100
AcDbEntity
  8
Layer_1
 62
1
100
AcDbSpline
 70
8
 71
3
 72
8
 73
4
 74
0
 40
0
 40
0
 40
0
 40
0
 40
1
 40
1
 40
1
 40
1
 10
404.280596
 20
259.603662
 30
0.0
 10
404.599253
 20
259.572222
 30
0.0
 10
404.910826
 20
259.557067
 30
0.0
 10
405.214892
 20
259.558450
 30
0.0
  0
LINE
  5
181
100
AcDbEntity
  8
Layer_1
 62
1
100
AcDbLine
 10
405.214892
 20
259.558450
 30
0.0
 11
405.214892
 21
259.558450
 31
0.0
  0
SPLINE
  5
182
100
AcDbEntity
  8
Layer_1
 62
1
100
AcDbSpline
 70
8
 71
3
 72
8
 73
4
 74
0
 40
0
 40
0
 40
0
 40
0
 40
1
 40
1
 40
1
 40
1
 10
326.381590
 20
175.939846
 30
0.0
 10
324.113370
 20
175.987175
 30
0.0
 10
322.018632
 20
175.436305
 30
0.0
 10
320.218449
 20
174.397558
 30
0.0
  0
SPLINE
  5
183
100
AcDbEntity
  8
Layer_1
 62
1
100
AcDbSpline
 70
8
 71
3
 72
8
 73
4
 74
0
 40
0
 40
0
 40
0
 40
0
 40
1
 40
1
 40
1
 40
1
 10
320.218449
 20
174.397558
 30
0.0
 10
319.931316
 20
174.260822
 30
0.0
 10
319.643675
 20
174.118130
 30
0.0
 10
319.354708
 20
173.962089
 30
0.0
  0
SPLINE
  5
184
100
AcDbEntity
  8
Layer_1
 62
1
100
AcDbSpline
 70
8
 71
3
 72
8
 73
4
 74
0
 40
0
 40
0
 40
0
 40
0
 40
1
 40
1
 40
1
 40
1
 10
319.354708
 20
173.962089
 30
0.0
 10
309.705784
 20
168.135837
 30
0.0
 10
302.606033
 20
159.412772
 30
0.0
 10
302.275833
 20
142.997006
 30
0.0
  0
SPLINE
  5
185
100
AcDbEntity
  8
Layer_1
 62
1
100
AcDbSpline
 70
8
 71
3
 72
8
 73
4
 74
0
 40
0
 40
0
 40
0
 40
0
 40
1
 40
1
 40
1
 40
1
 10
302.275833
 20
142.997006
 30
0.0
 10
295.425199
 20
132.440032
 30
0.0
 10
291.537757
 20
122.065346
 30
0.0
 10
289.866324
 20
112.505435
 30
0.0
  0
SPLINE
  5
186
100
AcDbEntity
  8
Layer_1
 62
1
100
AcDbSpline
 70
8
 71
3
 72
8
 73
4
 74
0
 40
0
 40
0
 40
0
 40
0
 40
1
 40
1
 40
1
 40
1
 10
289.866324
 20
112.505435
 30
0.0
 10
285.377438
 20
86.831397
 30
0.0
 10
296.870176
 20
67.038052
 30
0.0
 10
309.862220
 20
65.371586
 30
0.0
  0
LINE
  5
187
100
AcDbEntity
  8
Layer_1
 62
1
100
AcDbLine
 10
309.862220
 20
65.371586
 30
0.0
 11
309.862220
 21
112.172497
 31
0.0
  0
LINE
  5
188
100
AcDbEntity
  8
Layer_1
 62
1
100
AcDbLine
 10
309.862220
 20
112.172497
 30
0.0
 11
316.712713
 21
112.172497
 31
0.0
  0
LINE
  5
189
100
AcDbEntity
  8
Layer_1
 62
1
100
AcDbLine
 10
316.712713
 20
112.172497
 30
0.0
 11
316.712713
 21
69.824855
 31
0.0
  0
SPLINE
  5
18a
100
AcDbEntity
  8
Layer_1
 62
1
100
AcDbSpline
 70
8
 71
3
 72
8
 73
4
 74
0
 40
0
 40
0
 40
0
 40
0
 40
1
 40
1
 40
1
 40
1
 10
316.712713
 20
69.824855
 30
0.0
 10
320.032267
 20
72.403689
 30
0.0
 10
323.322611
 20
73.419632
 30
0.0
 10
326.381590
 20
73.470037
 30
0.0
  0
SPLINE
  5
18b
100
AcDbEntity
  8
Layer_1
 62
1
100
AcDbSpline
 70
8
 71
3
 72
8
 73
4
 74
0
 40
0
 40
0
 40
0
 40
0
 40
1
 40
1
 40
1
 40
1
 10
326.381590
 20
73.470037
 30
0.0
 10
329.444463
 20
73.419548
 30
0.0
 10
332.739323
 20
72.401516
 30
0.0
 10
336.063138
 20
69.815485
 30
0.0
  0
LINE
  5
18c
100
AcDbEntity
  8
Layer_1
 62
1
100
AcDbLine
 10
336.063138
 20
69.815485
 30
0.0
 11
336.063138
 21
112.172497
 31
0.0
  0
LINE
  5
18d
100
AcDbEntity
  8
Layer_1
 62
1
100
AcDbLine
 10
336.063138
 20
112.172497
 30
0.0
 11
342.913631
 21
112.172497
 31
0.0
  0
LINE
  5
18e
100
AcDbEntity
  8
Layer_1
 62
1
100
AcDbLine
 10
342.913631
 20
112.172497
 30
0.0
 11
342.913631
 21
65.371022
 31
0.0
  0
SPLINE
  5
18f
100
AcDbEntity
  8
Layer_1
 62
1
100
AcDbSpline
 70
8
 71
3
 72
8
 73
4
 74
0
 40
0
 40
0
 40
0
 40
0
 40
1
 40
1
 40
1
 40
1
 10
342.913631
 20
65.371022
 30
0.0
 10
354.055567
 20
66.810581
 30
0.0
 10
364.090910
 20
81.582600
 30
0.0
 10
363.883533
 20
101.958480
 30
0.0
  0
LINE
  5
190
100
AcDbEntity
  8
Layer_1
 62
1
100
AcDbLine
 10
363.883533
 20
101.958480
 30
0.0
 11
363.883533
 21
101.956786
 31
0.0
  0
SPLINE
  5
191
100
AcDbEntity
  8
Layer_1
 62
1
100
AcDbSpline
 70
8
 71
3
 72
8
 73
4
 74
0
 40
0
 40
0
 40
0
 40
0
 40
1
 40
1
 40
1
 40
1
 10
363.883533
 20
101.956786
 30
0.0
 10
363.849553
 20
105.290649
 30
0.0
 10
363.541790
 20
108.774288
 30
0.0
 10
362.919462
 20
112.374201
 30
0.0
  0
SPLINE
  5
192
100
AcDbEntity
  8
Layer_1
 62
1
100
AcDbSpline
 70
8
 71
3
 72
8
 73
4
 74
0
 40
0
 40
0
 40
0
 40
0
 40
1
 40
1
 40
1
 40
1
 10
362.919462
 20
112.374201
 30
0.0
 10
361.260700
 20
121.969813
 30
0.0
 10
357.369505
 20
132.390502
 30
0.0
 10
350.487883
 20
142.995312
 30
0.0
  0
SPLINE
  5
193
100
AcDbEntity
  8
Layer_1
 62
1
100
AcDbSpline
 70
8
 71
3
 72
8
 73
4
 74
0
 40
0
 40
0
 40
0
 40
0
 40
1
 40
1
 40
1
 40
1
 10
350.487883
 20
142.995312
 30
0.0
 10
350.157683
 20
159.411050
 30
0.0
 10
343.057960
 20
168.134116
 30
0.0
 10
333.409036
 20
173.960368
 30
0.0
  0
SPLINE
  5
194
100
AcDbEntity
  8
Layer_1
 62
1
100
AcDbSpline
 70
8
 71
3
 72
8
 73
4
 74
0
 40
0
 40
0
 40
0
 40
0
 40
1
 40
1
 40
1
 40
1
 10
333.409036
 20
173.960368
 30
0.0
 10
333.121536
 20
174.115618
 30
0.0
 10
332.834290
 20
174.256927
 30
0.0
 10
332.548597
 20
174.393071
 30
0.0
  0
LINE
  5
195
100
AcDbEntity
  8
Layer_1
 62
1
100
AcDbLine
 10
332.548597
 20
174.393071
 30
0.0
 11
332.544081
 21
174.397502
 31
0.0
  0
SPLINE
  5
196
100
AcDbEntity
  8
Layer_1
 62
1
100
AcDbSpline
 70
8
 71
3
 72
8
 73
4
 74
0
 40
0
 40
0
 40
0
 40
0
 40
1
 40
1
 40
1
 40
1
 10
332.544081
 20
174.397502
 30
0.0
 10
330.743842
 20
175.436305
 30
0.0
 10
328.648850
 20
175.987203
 30
0.0
 10
326.380404
 20
175.939790
 30
0.0
  0
LINE
  5
197
100
AcDbEntity
  8
Layer_1
 62
1
100
AcDbLine
 10
326.380404
 20
175.939790
 30
0.0
 11
326.381590
 21
175.939846
 31
0.0
  0
SPLINE
  5
198
100
AcDbEntity
  8
Layer_1
 62
1
100
AcDbSpline
 70
8
 71
3
 72
8
 73
4
 74
0
 40
0
 40
0
 40
0
 40
0
 40
1
 40
1
 40
1
 40
1
 10
324.356504
 20
58.342638
 30
0.0
 10
317.568157
 20
58.248037
 30
0.0
 10
310.853356
 20
52.011011
 30
0.0
 10
311.221600
 20
39.443684
 30
0.0
  0
SPLINE
  5
199
100
AcDbEntity
  8
Layer_1
 62
1
100
AcDbSpline
 70
8
 71
3
 72
8
 73
4
 74
0
 40
0
 40
0
 40
0
 40
0
 40
1
 40
1
 40
1
 40
1
 10
311.221600
 20
39.443684
 30
0.0
 10
306.511085
 20
36.458760
 30
0.0
 10
302.108672
 20
30.075992
 30
0.0
 10
302.623192
 20
23.918693
 30
0.0
  0
SPLINE
  5
19a
100
AcDbEntity
  8
Layer_1
 62
1
100
AcDbSpline
 70
8
 71
3
 72
8
 73
4
 74
0
 40
0
 40
0
 40
0
 40
0
 40
1
 40
1
 40
1
 40
1
 10
302.623192
 20
23.918693
 30
0.0
 10
302.889017
 20
20.737371
 30
0.0
 10
304.470082
 20
17.616981
 30
0.0
 10
307.996421
 20
15.055702
 30
0.0
  0
LINE
  5
19b
100
AcDbEntity
  8
Layer_1
 62
1
100
AcDbLine
 10
307.996421
 20
15.055702
 30
0.0
 11
307.996421
 21
24.187679
 31
0.0
  0
LINE
  5
19c
100
AcDbEntity
  8
Layer_1
 62
1
100
AcDbLine
 10
307.996421
 20
24.187679
 30
0.0
 11
314.846942
 21
24.187679
 31
0.0
  0
LINE
  5
19d
100
AcDbEntity
  8
Layer_1
 62
1
100
AcDbLine
 10
314.846942
 20
24.187679
 30
0.0
 11
314.846942
 21
5.662451
 31
0.0
  0
SPLINE
  5
19e
100
AcDbEntity
  8
Layer_1
 62
1
100
AcDbSpline
 70
8
 71
3
 72
8
 73
4
 74
0
 40
0
 40
0
 40
0
 40
0
 40
1
 40
1
 40
1
 40
1
 10
314.846942
 20
5.662451
 30
0.0
 10
322.303140
 20
-1.564893
 30
0.0
 10
328.576037
 20
-0.749130
 30
0.0
 10
334.003311
 20
5.820101
 30
0.0
  0
LINE
  5
19f
100
AcDbEntity
  8
Layer_1
 62
1
100
AcDbLine
 10
334.003311
 20
5.820101
 30
0.0
 11
334.197904
 21
6.390048
 31
0.0
  0
LINE
  5
1a0
100
AcDbEntity
  8
Layer_1
 62
1
100
AcDbLine
 10
334.197904
 20
6.390048
 30
0.0
 11
334.197904
 21
24.187679
 31
0.0
  0
LINE
  5
1a1
100
AcDbEntity
  8
Layer_1
 62
1
100
AcDbLine
 10
334.197904
 20
24.187679
 30
0.0
 11
341.048396
 21
24.187679
 31
0.0
  0
LINE
  5
1a2
100
AcDbEntity
  8
Layer_1
 62
1
100
AcDbLine
 10
341.048396
 20
24.187679
 30
0.0
 11
341.048396
 21
15.268469
 31
0.0
  0
SPLINE
  5
1a3
100
AcDbEntity
  8
Layer_1
 62
1
100
AcDbSpline
 70
8
 71
3
 72
8
 73
4
 74
0
 40
0
 40
0
 40
0
 40
0
 40
1
 40
1
 40
1
 40
1
 10
341.048396
 20
15.268469
 30
0.0
 10
344.180188
 20
17.803586
 30
0.0
 10
345.877049
 20
20.768528
 30
0.0
 10
346.334560
 20
23.877347
 30
0.0
  0
SPLINE
  5
1a4
100
AcDbEntity
  8
Layer_1
 62
1
100
AcDbSpline
 70
8
 71
3
 72
8
 73
4
 74
0
 40
0
 40
0
 40
0
 40
0
 40
1
 40
1
 40
1
 40
1
 10
346.334560
 20
23.877347
 30
0.0
 10
347.158451
 20
29.476156
 30
0.0
 10
343.968747
 20
35.539249
 30
0.0
 10
337.931280
 20
40.386249
 30
0.0
  0
SPLINE
  5
1a5
100
AcDbEntity
  8
Layer_1
 62
1
100
AcDbSpline
 70
8
 71
3
 72
8
 73
4
 74
0
 40
0
 40
0
 40
0
 40
0
 40
1
 40
1
 40
1
 40
1
 10
337.931280
 20
40.386249
 30
0.0
 10
338.006295
 20
52.389330
 30
0.0
 10
331.144824
 20
58.437267
 30
0.0
 10
324.356504
 20
58.342638
 30
0.0
  0
LINE
  5
1a6
100
AcDbEntity
  8
Layer_1
 62
1
100
AcDbLine
 10
324.356504
 20
58.342638
 30
0.0
 11
324.356504
 21
58.342638
 31
0.0
  0
LINE
  5
1a7
100
AcDbEntity
  8
Layer_1
 62
1
100
AcDbLine
 10
509.466709
 20
0.421133
 30
0.0
 11
509.577481
 21
0.568876
 31
0.0
  0
SPLINE
  5
1a8
100
AcDbEntity
  8
Layer_1
 62
1
100
AcDbSpline
 70
8
 71
3
 72
8
 73
4
 74
0
 40
0
 40
0
 40
0
 40
0
 40
1
 40
1
 40
1
 40
1
 10
509.577481
 20
0.568876
 30
0.0
 10
537.131853
 20
5.410342
 30
0.0
 10
545.378725
 20
31.846795
 30
0.0
 10
545.405931
 20
47.910009
 30
0.0
  0
SPLINE
  5
1a9
100
AcDbEntity
  8
Layer_1
 62
1
100
AcDbSpline
 70
8
 71
3
 72
8
 73
4
 74
0
 40
0
 40
0
 40
0
 40
0
 40
1
 40
1
 40
1
 40
1
 10
545.405931
 20
47.910009
 30
0.0
 10
553.404701
 20
54.393500
 30
0.0
 10
559.746799
 20
64.538034
 30
0.0
 10
563.423506
 20
75.767346
 30
0.0
  0
SPLINE
  5
1aa
100
AcDbEntity
  8
Layer_1
 62
1
100
AcDbSpline
 70
8
 71
3
 72
8
 73
4
 74
0
 40
0
 40
0
 40
0
 40
0
 40
1
 40
1
 40
1
 40
1
 10
563.423506
 20
75.767346
 30
0.0
 10
572.590140
 20
103.763734
 30
0.0
 10
565.189426
 20
138.501451
 30
0.0
 10
525.604627
 20
140.061096
 30
0.0
  0
LINE
  5
1ab
100
AcDbEntity
  8
Layer_1
 62
1
100
AcDbLine
 10
525.604627
 20
140.061096
 30
0.0
 11
525.604627
 21
76.147669
 31
0.0
  0
LINE
  5
1ac
100
AcDbEntity
  8
Layer_1
 62
1
100
AcDbLine
 10
525.604627
 20
76.147669
 30
0.0
 11
518.758537
 21
76.147669
 31
0.0
  0
LINE
  5
1ad
100
AcDbEntity
  8
Layer_1
 62
1
100
AcDbLine
 10
518.758537
 20
76.147669
 30
0.0
 11
518.758537
 21
139.001634
 31
0.0
  0
LINE
  5
1ae
100
AcDbEntity
  8
Layer_1
 62
1
100
AcDbLine
 10
518.758537
 20
139.001634
 30
0.0
 11
509.088559
 21
136.738353
 31
0.0
  0
LINE
  5
1af
100
AcDbEntity
  8
Layer_1
 62
1
100
AcDbLine
 10
509.088559
 20
136.738353
 30
0.0
 11
499.420247
 21
139.001098
 31
0.0
  0
LINE
  5
1b0
100
AcDbEntity
  8
Layer_1
 62
1
100
AcDbLine
 10
499.420247
 20
139.001098
 30
0.0
 11
499.420247
 21
76.147669
 31
0.0
  0
LINE
  5
1b1
100
AcDbEntity
  8
Layer_1
 62
1
100
AcDbLine
 10
499.420247
 20
76.147669
 30
0.0
 11
492.574157
 21
76.147669
 31
0.0
  0
LINE
  5
1b2
100
AcDbEntity
  8
Layer_1
 62
1
100
AcDbLine
 10
492.574157
 20
76.147669
 30
0.0
 11
492.574157
 21
140.059431
 31
0.0
  0
SPLINE
  5
1b3
100
AcDbEntity
  8
Layer_1
 62
1
100
AcDbSpline
 70
8
 71
3
 72
8
 73
4
 74
0
 40
0
 40
0
 40
0
 40
0
 40
1
 40
1
 40
1
 40
1
 10
492.574157
 20
140.059431
 30
0.0
 10
462.554602
 20
138.877004
 30
0.0
 10
451.042080
 20
118.616017
 30
0.0
 10
451.230266
 20
96.681537
 30
0.0
  0
SPLINE
  5
1b4
100
AcDbEntity
  8
Layer_1
 62
1
100
AcDbSpline
 70
8
 71
3
 72
8
 73
4
 74
0
 40
0
 40
0
 40
0
 40
0
 40
1
 40
1
 40
1
 40
1
 10
451.230266
 20
96.681537
 30
0.0
 10
451.289561
 20
89.773386
 30
0.0
 10
452.508987
 20
82.699966
 30
0.0
 10
454.675889
 20
76.004356
 30
0.0
  0
SPLINE
  5
1b5
100
AcDbEntity
  8
Layer_1
 62
1
100
AcDbSpline
 70
8
 71
3
 72
8
 73
4
 74
0
 40
0
 40
0
 40
0
 40
0
 40
1
 40
1
 40
1
 40
1
 10
454.675889
 20
76.004356
 30
0.0
 10
458.340516
 20
64.680923
 30
0.0
 10
464.714590
 20
54.439022
 30
0.0
 10
472.769551
 20
47.910009
 30
0.0
  0
SPLINE
  5
1b6
100
AcDbEntity
  8
Layer_1
 62
1
100
AcDbSpline
 70
8
 71
3
 72
8
 73
4
 74
0
 40
0
 40
0
 40
0
 40
0
 40
1
 40
1
 40
1
 40
1
 10
472.769551
 20
47.910009
 30
0.0
 10
472.796926
 20
31.846795
 30
0.0
 10
481.044137
 20
5.410342
 30
0.0
 10
508.598537
 20
0.568876
 30
0.0
  0
LINE
  5
1b7
100
AcDbEntity
  8
Layer_1
 62
1
100
AcDbLine
 10
508.598537
 20
0.568876
 30
0.0
 11
508.709337
 21
0.421133
 31
0.0
  0
SPLINE
  5
1b8
100
AcDbEntity
  8
Layer_1
 62
1
100
AcDbSpline
 70
8
 71
3
 72
8
 73
4
 74
0
 40
0
 40
0
 40
0
 40
0
 40
1
 40
1
 40
1
 40
1
 10
508.709337
 20
0.421133
 30
0.0
 10
508.836958
 20
0.440889
 30
0.0
 10
508.961192
 20
0.464736
 30
0.0
 10
509.088023
 20
0.485649
 30
0.0
  0
SPLINE
  5
1b9
100
AcDbEntity
  8
Layer_1
 62
1
100
AcDbSpline
 70
8
 71
3
 72
8
 73
4
 74
0
 40
0
 40
0
 40
0
 40
0
 40
1
 40
1
 40
1
 40
1
 10
509.088023
 20
0.485649
 30
0.0
 10
509.214882
 20
0.464482
 30
0.0
 10
509.339088
 20
0.441171
 30
0.0
 10
509.466709
 20
0.421133
 30
0.0
  0
LINE
  5
1ba
100
AcDbEntity
  8
Layer_1
 62
1
100
AcDbLine
 10
509.466709
 20
0.421133
 30
0.0
 11
509.466709
 21
0.421133
 31
0.0
  0
LINE
  5
1bb
100
AcDbEntity
  8
Layer_1
 62
1
100
AcDbLine
 10
459.001340
 20
468.874329
 30
0.0
 11
459.001340
 21
468.874329
 31
0.0
  0
SPLINE
  5
1bc
100
AcDbEntity
  8
Layer_1
 62
1
100
AcDbSpline
 70
8
 71
3
 72
8
 73
4
 74
0
 40
0
 40
0
 40
0
 40
0
 40
1
 40
1
 40
1
 40
1
 10
459.001340
 20
468.874329
 30
0.0
 10
454.890519
 20
464.744092
 30
0.0
 10
452.680945
 20
460.496534
 30
0.0
 10
451.269128
 20
456.431349
 30
0.0
  0
SPLINE
  5
1bd
100
AcDbEntity
  8
Layer_1
 62
1
100
AcDbSpline
 70
8
 71
3
 72
8
 73
4
 74
0
 40
0
 40
0
 40
0
 40
0
 40
1
 40
1
 40
1
 40
1
 10
451.269128
 20
456.431349
 30
0.0
 10
451.108459
 20
456.091046
 30
0.0
 10
450.947480
 20
455.757798
 30
0.0
 10
450.788165
 20
455.407052
 30
0.0
  0
LINE
  5
1be
100
AcDbEntity
  8
Layer_1
 62
1
100
AcDbLine
 10
450.788165
 20
455.407052
 30
0.0
 11
450.899530
 21
455.320438
 31
0.0
  0
SPLINE
  5
1bf
100
AcDbEntity
  8
Layer_1
 62
1
100
AcDbSpline
 70
8
 71
3
 72
8
 73
4
 74
0
 40
0
 40
0
 40
0
 40
0
 40
1
 40
1
 40
1
 40
1
 10
450.899530
 20
455.320438
 30
0.0
 10
450.209525
 20
453.139791
 30
0.0
 10
449.724272
 20
451.020585
 30
0.0
 10
449.268737
 20
449.010880
 30
0.0
  0
SPLINE
  5
1c0
100
AcDbEntity
  8
Layer_1
 62
1
100
AcDbSpline
 70
8
 71
3
 72
8
 73
4
 74
0
 40
0
 40
0
 40
0
 40
0
 40
1
 40
1
 40
1
 40
1
 10
449.268737
 20
449.010880
 30
0.0
 10
449.298399
 20
431.345491
 30
0.0
 10
456.845275
 20
411.093280
 30
0.0
 10
469.030756
 20
395.134009
 30
0.0
  0
SPLINE
  5
1c1
100
AcDbEntity
  8
Layer_1
 62
1
100
AcDbSpline
 70
8
 71
3
 72
8
 73
4
 74
0
 40
0
 40
0
 40
0
 40
0
 40
1
 40
1
 40
1
 40
1
 10
469.030756
 20
395.134009
 30
0.0
 10
485.314583
 20
373.807294
 30
0.0
 10
509.882450
 20
360.152508
 30
0.0
 10
535.865070
 20
370.576301
 30
0.0
  0
LINE
  5
1c2
100
AcDbEntity
  8
Layer_1
 62
1
100
AcDbLine
 10
535.865070
 20
370.576301
 30
0.0
 11
489.981184
 21
416.460159
 31
0.0
  0
LINE
  5
1c3
100
AcDbEntity
  8
Layer_1
 62
1
100
AcDbLine
 10
489.981184
 20
416.460159
 30
0.0
 11
494.825218
 21
421.304193
 31
0.0
  0
LINE
  5
1c4
100
AcDbEntity
  8
Layer_1
 62
1
100
AcDbLine
 10
494.825218
 20
421.304193
 30
0.0
 11
542.420189
 21
373.709250
 31
0.0
  0
SPLINE
  5
1c5
100
AcDbEntity
  8
Layer_1
 62
1
100
AcDbSpline
 70
8
 71
3
 72
8
 73
4
 74
0
 40
0
 40
0
 40
0
 40
0
 40
1
 40
1
 40
1
 40
1
 10
542.420189
 20
373.709250
 30
0.0
 10
544.872023
 20
375.074585
 30
0.0
 10
547.331336
 20
376.661266
 30
0.0
 10
549.792257
 20
378.487018
 30
0.0
  0
LINE
  5
1c6
100
AcDbEntity
  8
Layer_1
 62
1
100
AcDbLine
 10
549.792257
 20
378.487018
 30
0.0
 11
550.021421
 21
378.308513
 31
0.0
  0
SPLINE
  5
1c7
100
AcDbEntity
  8
Layer_1
 62
1
100
AcDbSpline
 70
8
 71
3
 72
8
 73
4
 74
0
 40
0
 40
0
 40
0
 40
0
 40
1
 40
1
 40
1
 40
1
 10
550.021421
 20
378.308513
 30
0.0
 10
550.241018
 20
378.587546
 30
0.0
 10
550.453899
 20
378.867059
 30
0.0
 10
550.667315
 20
379.146092
 30
0.0
  0
SPLINE
  5
1c8
100
AcDbEntity
  8
Layer_1
 62
1
100
AcDbSpline
 70
8
 71
3
 72
8
 73
4
 74
0
 40
0
 40
0
 40
0
 40
0
 40
1
 40
1
 40
1
 40
1
 10
550.667315
 20
379.146092
 30
0.0
 10
550.946151
 20
379.359367
 30
0.0
 10
551.225240
 20
379.571796
 30
0.0
 10
551.504132
 20
379.791195
 30
0.0
  0
LINE
  5
1c9
100
AcDbEntity
  8
Layer_1
 62
1
100
AcDbLine
 10
551.504132
 20
379.791195
 30
0.0
 11
551.325598
 21
380.020360
 31
0.0
  0
SPLINE
  5
1ca
100
AcDbEntity
  8
Layer_1
 62
1
100
AcDbSpline
 70
8
 71
3
 72
8
 73
4
 74
0
 40
0
 40
0
 40
0
 40
0
 40
1
 40
1
 40
1
 40
1
 10
551.325598
 20
380.020360
 30
0.0
 10
553.151379
 20
382.481309
 30
0.0
 10
554.738032
 20
384.940594
 30
0.0
 10
556.103367
 20
387.392428
 30
0.0
  0
LINE
  5
1cb
100
AcDbEntity
  8
Layer_1
 62
1
100
AcDbLine
 10
556.103367
 20
387.392428
 30
0.0
 11
508.508395
 21
434.987399
 31
0.0
  0
LINE
  5
1cc
100
AcDbEntity
  8
Layer_1
 62
1
100
AcDbLine
 10
508.508395
 20
434.987399
 30
0.0
 11
513.352457
 21
439.831433
 31
0.0
  0
LINE
  5
1cd
100
AcDbEntity
  8
Layer_1
 62
1
100
AcDbLine
 10
513.352457
 20
439.831433
 30
0.0
 11
559.236344
 21
393.947575
 31
0.0
  0
SPLINE
  5
1ce
100
AcDbEntity
  8
Layer_1
 62
1
100
AcDbSpline
 70
8
 71
3
 72
8
 73
4
 74
0
 40
0
 40
0
 40
0
 40
0
 40
1
 40
1
 40
1
 40
1
 10
559.236344
 20
393.947575
 30
0.0
 10
569.631294
 20
419.858087
 30
0.0
 10
556.081269
 20
444.361805
 30
0.0
 10
534.856380
 20
460.646225
 30
0.0
  0
SPLINE
  5
1cf
100
AcDbEntity
  8
Layer_1
 62
1
100
AcDbSpline
 70
8
 71
3
 72
8
 73
4
 74
0
 40
0
 40
0
 40
0
 40
0
 40
1
 40
1
 40
1
 40
1
 10
534.856380
 20
460.646225
 30
0.0
 10
518.869930
 20
472.911518
 30
0.0
 10
498.532714
 20
480.514105
 30
0.0
 10
480.801736
 20
480.543880
 30
0.0
  0
SPLINE
  5
1d0
100
AcDbEntity
  8
Layer_1
 62
1
100
AcDbSpline
 70
8
 71
3
 72
8
 73
4
 74
0
 40
0
 40
0
 40
0
 40
0
 40
1
 40
1
 40
1
 40
1
 10
480.801736
 20
480.543880
 30
0.0
 10
478.792004
 20
480.088345
 30
0.0
 10
476.672825
 20
479.603092
 30
0.0
 10
474.492207
 20
478.913087
 30
0.0
  0
LINE
  5
1d1
100
AcDbEntity
  8
Layer_1
 62
1
100
AcDbLine
 10
474.492207
 20
478.913087
 30
0.0
 11
474.405565
 21
479.024480
 31
0.0
  0
SPLINE
  5
1d2
100
AcDbEntity
  8
Layer_1
 62
1
100
AcDbSpline
 70
8
 71
3
 72
8
 73
4
 74
0
 40
0
 40
0
 40
0
 40
0
 40
1
 40
1
 40
1
 40
1
 10
474.405565
 20
479.024480
 30
0.0
 10
474.054847
 20
478.865194
 30
0.0
 10
473.721571
 20
478.704158
 30
0.0
 10
473.381268
 20
478.543488
 30
0.0
  0
SPLINE
  5
1d3
100
AcDbEntity
  8
Layer_1
 62
1
100
AcDbSpline
 70
8
 71
3
 72
8
 73
4
 74
0
 40
0
 40
0
 40
0
 40
0
 40
1
 40
1
 40
1
 40
1
 10
473.381268
 20
478.543488
 30
0.0
 10
469.005638
 20
477.023863
 30
0.0
 10
464.418878
 20
474.579310
 30
0.0
 10
459.994282
 20
469.835296
 30
0.0
  0
SPLINE
  5
1d4
100
AcDbEntity
  8
Layer_1
 62
1
100
AcDbSpline
 70
8
 71
3
 72
8
 73
4
 74
0
 40
0
 40
0
 40
0
 40
0
 40
1
 40
1
 40
1
 40
1
 10
459.994282
 20
469.835296
 30
0.0
 10
459.988073
 20
469.829652
 30
0.0
 10
459.982711
 20
469.823160
 30
0.0
 10
459.976784
 20
469.817798
 30
0.0
  0
SPLINE
  5
1d5
100
AcDbEntity
  8
Layer_1
 62
1
100
AcDbSpline
 70
8
 71
3
 72
8
 73
4
 74
0
 40
0
 40
0
 40
0
 40
0
 40
1
 40
1
 40
1
 40
1
 10
459.976784
 20
469.817798
 30
0.0
 10
459.640263
 20
469.503741
 30
0.0
 10
459.314550
 20
469.189487
 30
0.0
 10
459.000437
 20
468.874188
 30
0.0
  0
LINE
  5
1d6
100
AcDbEntity
  8
Layer_1
 62
1
100
AcDbLine
 10
459.000437
 20
468.874188
 30
0.0
 11
459.001340
 21
468.874329
 31
0.0
  0
LINE
  5
1d7
100
AcDbEntity
  8
Layer_1
 62
1
100
AcDbLine
 10
49.957324
 20
407.098518
 30
0.0
 11
49.957053
 21
407.095498
 31
0.0
  0
SPLINE
  5
1d8
100
AcDbEntity
  8
Layer_1
 62
1
100
AcDbSpline
 70
8
 71
3
 72
8
 73
4
 74
0
 40
0
 40
0
 40
0
 40
0
 40
1
 40
1
 40
1
 40
1
 10
49.957053
 20
407.095498
 30
0.0
 10
48.939049
 20
407.112347
 30
0.0
 10
47.901496
 20
407.071961
 30
0.0
 10
46.844472
 20
406.975972
 30
0.0
  0
SPLINE
  5
1d9
100
AcDbEntity
  8
Layer_1
 62
1
100
AcDbSpline
 70
8
 71
3
 72
8
 73
4
 74
0
 40
0
 40
0
 40
0
 40
0
 40
1
 40
1
 40
1
 40
1
 10
46.844472
 20
406.975972
 30
0.0
 10
46.698038
 20
406.962594
 30
0.0
 10
46.560006
 20
406.918212
 30
0.0
 10
46.427971
 20
406.850789
 30
0.0
  0
SPLINE
  5
1da
100
AcDbEntity
  8
Layer_1
 62
1
100
AcDbSpline
 70
8
 71
3
 72
8
 73
4
 74
0
 40
0
 40
0
 40
0
 40
0
 40
1
 40
1
 40
1
 40
1
 10
46.427971
 20
406.850789
 30
0.0
 10
33.927607
 20
405.098773
 30
0.0
 10
24.307411
 20
393.550110
 30
0.0
 10
18.086642
 20
370.438554
 30
0.0
  0
SPLINE
  5
1db
100
AcDbEntity
  8
Layer_1
 62
1
100
AcDbSpline
 70
8
 71
3
 72
8
 73
4
 74
0
 40
0
 40
0
 40
0
 40
0
 40
1
 40
1
 40
1
 40
1
 10
18.086642
 20
370.438554
 30
0.0
 10
14.099520
 20
345.384508
 30
0.0
 10
9.419186
 20
335.688797
 30
0.0
 10
4.669741
 20
327.529428
 30
0.0
  0
SPLINE
  5
1dc
100
AcDbEntity
  8
Layer_1
 62
1
100
AcDbSpline
 70
8
 71
3
 72
8
 73
4
 74
0
 40
0
 40
0
 40
0
 40
0
 40
1
 40
1
 40
1
 40
1
 10
4.669741
 20
327.529428
 30
0.0
 10
3.501999
 20
325.523305
 30
0.0
 10
2.330255
 20
323.610424
 30
0.0
 10
1.163430
 20
321.584627
 30
0.0
  0
SPLINE
  5
1dd
100
AcDbEntity
  8
Layer_1
 62
1
100
AcDbSpline
 70
8
 71
3
 72
8
 73
4
 74
0
 40
0
 40
0
 40
0
 40
0
 40
1
 40
1
 40
1
 40
1
 10
1.163430
 20
321.584627
 30
0.0
 10
-3.317509
 20
294.713478
 30
0.0
 10
12.136210
 20
274.950443
 30
0.0
 10
30.471751
 20
266.962284
 30
0.0
  0
LINE
  5
1de
100
AcDbEntity
  8
Layer_1
 62
1
100
AcDbLine
 10
30.471751
 20
266.962284
 30
0.0
 11
31.880906
 21
326.250264
 31
0.0
  0
LINE
  5
1df
100
AcDbEntity
  8
Layer_1
 62
1
100
AcDbLine
 10
31.880906
 20
326.250264
 30
0.0
 11
38.729468
 21
326.087498
 31
0.0
  0
LINE
  5
1e0
100
AcDbEntity
  8
Layer_1
 62
1
100
AcDbLine
 10
38.729468
 20
326.087498
 30
0.0
 11
37.265187
 21
264.480676
 31
0.0
  0
SPLINE
  5
1e1
100
AcDbEntity
  8
Layer_1
 62
1
100
AcDbSpline
 70
8
 71
3
 72
8
 73
4
 74
0
 40
0
 40
0
 40
0
 40
0
 40
1
 40
1
 40
1
 40
1
 10
37.265187
 20
264.480676
 30
0.0
 10
40.325435
 20
263.580218
 30
0.0
 10
43.573579
 20
263.122369
 30
0.0
 10
46.910797
 20
263.085821
 30
0.0
  0
SPLINE
  5
1e2
100
AcDbEntity
  8
Layer_1
 62
1
100
AcDbSpline
 70
8
 71
3
 72
8
 73
4
 74
0
 40
0
 40
0
 40
0
 40
0
 40
1
 40
1
 40
1
 40
1
 10
46.910797
 20
263.085821
 30
0.0
 10
50.245529
 20
262.963788
 30
0.0
 10
53.510942
 20
263.267092
 30
0.0
 10
56.610131
 20
264.020908
 30
0.0
  0
LINE
  5
1e3
100
AcDbEntity
  8
Layer_1
 62
1
100
AcDbLine
 10
56.610131
 20
264.020908
 30
0.0
 11
58.074526
 21
325.627733
 31
0.0
  0
LINE
  5
1e4
100
AcDbEntity
  8
Layer_1
 62
1
100
AcDbLine
 10
58.074526
 20
325.627733
 30
0.0
 11
64.923642
 21
325.464956
 31
0.0
  0
LINE
  5
1e5
100
AcDbEntity
  8
Layer_1
 62
1
100
AcDbLine
 10
64.923642
 20
325.464956
 30
0.0
 11
63.514458
 21
266.176437
 31
0.0
  0
SPLINE
  5
1e6
100
AcDbEntity
  8
Layer_1
 62
1
100
AcDbSpline
 70
8
 71
3
 72
8
 73
4
 74
0
 40
0
 40
0
 40
0
 40
0
 40
1
 40
1
 40
1
 40
1
 10
63.514458
 20
266.176437
 30
0.0
 10
82.208915
 20
273.284344
 30
0.0
 10
98.584010
 20
292.291362
 30
0.0
 10
95.384789
 20
319.345256
 30
0.0
  0
SPLINE
  5
1e7
100
AcDbEntity
  8
Layer_1
 62
1
100
AcDbSpline
 70
8
 71
3
 72
8
 73
4
 74
0
 40
0
 40
0
 40
0
 40
0
 40
1
 40
1
 40
1
 40
1
 10
95.384789
 20
319.345256
 30
0.0
 10
94.414334
 20
321.232095
 30
0.0
 10
93.435198
 20
323.026481
 30
0.0
 10
92.461788
 20
324.881553
 30
0.0
  0
SPLINE
  5
1e8
100
AcDbEntity
  8
Layer_1
 62
1
100
AcDbSpline
 70
8
 71
3
 72
8
 73
4
 74
0
 40
0
 40
0
 40
0
 40
0
 40
1
 40
1
 40
1
 40
1
 10
92.461788
 20
324.881553
 30
0.0
 10
88.000405
 20
333.383826
 30
0.0
 10
83.657460
 20
343.159993
 30
0.0
 10
80.801721
 20
368.948020
 30
0.0
  0
SPLINE
  5
1e9
100
AcDbEntity
  8
Layer_1
 62
1
100
AcDbSpline
 70
8
 71
3
 72
8
 73
4
 74
0
 40
0
 40
0
 40
0
 40
0
 40
1
 40
1
 40
1
 40
1
 10
80.801721
 20
368.948020
 30
0.0
 10
76.601788
 20
388.143319
 30
0.0
 10
69.742335
 20
399.660041
 30
0.0
 10
60.558217
 20
404.467151
 30
0.0
  0
SPLINE
  5
1ea
100
AcDbEntity
  8
Layer_1
 62
1
100
AcDbSpline
 70
8
 71
3
 72
8
 73
4
 74
0
 40
0
 40
0
 40
0
 40
0
 40
1
 40
1
 40
1
 40
1
 10
60.558217
 20
404.467151
 30
0.0
 10
57.174491
 20
406.023977
 30
0.0
 10
53.080553
 20
407.032746
 30
0.0
 10
50.178637
 20
407.087511
 30
0.0
  0
SPLINE
  5
1eb
100
AcDbEntity
  8
Layer_1
 62
1
100
AcDbSpline
 70
8
 71
3
 72
8
 73
4
 74
0
 40
0
 40
0
 40
0
 40
0
 40
1
 40
1
 40
1
 40
1
 10
50.178637
 20
407.087511
 30
0.0
 10
50.104686
 20
407.089487
 30
0.0
 10
50.031884
 20
407.095414
 30
0.0
 10
49.957770
 20
407.097163
 30
0.0
  0
LINE
  5
1ec
100
AcDbEntity
  8
Layer_1
 62
1
100
AcDbLine
 10
49.957770
 20
407.097163
 30
0.0
 11
49.957324
 21
407.098518
 31
0.0
  0
SPLINE
  5
1ed
100
AcDbEntity
  8
Layer_1
 62
1
100
AcDbSpline
 70
8
 71
3
 72
8
 73
4
 74
0
 40
0
 40
0
 40
0
 40
0
 40
1
 40
1
 40
1
 40
1
 10
7.150442
 20
236.811832
 30
0.0
 10
7.059736
 20
236.522783
 30
0.0
 10
6.958080
 20
236.256013
 30
0.0
 10
6.848323
 20
236.005236
 30
0.0
  0
LINE
  5
1ee
100
AcDbEntity
  8
Layer_1
 62
1
100
AcDbLine
 10
6.848323
 20
236.005236
 30
0.0
 11
66.304417
 21
166.364374
 31
0.0
  0
LINE
  5
1ef
100
AcDbEntity
  8
Layer_1
 62
1
100
AcDbLine
 10
66.304417
 20
166.364374
 30
0.0
 11
61.039900
 21
161.869779
 31
0.0
  0
LINE
  5
1f0
100
AcDbEntity
  8
Layer_1
 62
1
100
AcDbLine
 10
61.039900
 20
161.869779
 30
0.0
 11
2.064459
 21
230.947644
 31
0.0
  0
SPLINE
  5
1f1
100
AcDbEntity
  8
Layer_1
 62
1
100
AcDbSpline
 70
8
 71
3
 72
8
 73
4
 74
0
 40
0
 40
0
 40
0
 40
0
 40
1
 40
1
 40
1
 40
1
 10
2.064459
 20
230.947644
 30
0.0
 10
-0.106338
 20
228.482916
 30
0.0
 10
-1.226506
 20
223.906843
 30
0.0
 10
2.756299
 20
209.074482
 30
0.0
  0
LINE
  5
1f2
100
AcDbEntity
  8
Layer_1
 62
1
100
AcDbLine
 10
2.756299
 20
209.074482
 30
0.0
 11
62.147227
 21
139.509922
 31
0.0
  0
LINE
  5
1f3
100
AcDbEntity
  8
Layer_1
 62
1
100
AcDbLine
 10
62.147227
 20
139.509922
 30
0.0
 11
56.882710
 21
135.015324
 31
0.0
  0
LINE
  5
1f4
100
AcDbEntity
  8
Layer_1
 62
1
100
AcDbLine
 10
56.882710
 20
135.015324
 30
0.0
 11
9.337411
 21
190.705115
 31
0.0
  0
SPLINE
  5
1f5
100
AcDbEntity
  8
Layer_1
 62
1
100
AcDbSpline
 70
8
 71
3
 72
8
 73
4
 74
0
 40
0
 40
0
 40
0
 40
0
 40
1
 40
1
 40
1
 40
1
 10
9.337411
 20
190.705115
 30
0.0
 10
13.168041
 20
179.744834
 30
0.0
 10
15.233654
 20
169.987082
 30
0.0
 10
15.990799
 20
161.119911
 30
0.0
  0
LINE
  5
1f6
100
AcDbEntity
  8
Layer_1
 62
1
100
AcDbLine
 10
15.990799
 20
161.119911
 30
0.0
 11
58.255947
 21
111.614792
 31
0.0
  0
LINE
  5
1f7
100
AcDbEntity
  8
Layer_1
 62
1
100
AcDbLine
 10
58.255947
 20
111.614792
 30
0.0
 11
52.982625
 21
107.112682
 31
0.0
  0
LINE
  5
1f8
100
AcDbEntity
  8
Layer_1
 62
1
100
AcDbLine
 10
52.982625
 20
107.112682
 30
0.0
 11
16.277169
 21
150.105721
 31
0.0
  0
SPLINE
  5
1f9
100
AcDbEntity
  8
Layer_1
 62
1
100
AcDbSpline
 70
8
 71
3
 72
8
 73
4
 74
0
 40
0
 40
0
 40
0
 40
0
 40
1
 40
1
 40
1
 40
1
 10
16.277169
 20
150.105721
 30
0.0
 10
16.061721
 20
143.870317
 30
0.0
 10
15.203145
 20
138.072778
 30
0.0
 10
13.907915
 20
132.572688
 30
0.0
  0
LINE
  5
1fa
100
AcDbEntity
  8
Layer_1
 62
1
100
AcDbLine
 10
13.907915
 20
132.572688
 30
0.0
 11
53.840609
 21
85.799590
 31
0.0
  0
LINE
  5
1fb
100
AcDbEntity
  8
Layer_1
 62
1
100
AcDbLine
 10
53.840609
 20
85.799590
 30
0.0
 11
48.567286
 21
81.297479
 31
0.0
  0
LINE
  5
1fc
100
AcDbEntity
  8
Layer_1
 62
1
100
AcDbLine
 10
48.567286
 20
81.297479
 30
0.0
 11
11.664276
 21
124.521921
 31
0.0
  0
SPLINE
  5
1fd
100
AcDbEntity
  8
Layer_1
 62
1
100
AcDbSpline
 70
8
 71
3
 72
8
 73
4
 74
0
 40
0
 40
0
 40
0
 40
0
 40
1
 40
1
 40
1
 40
1
 10
11.664276
 20
124.521921
 30
0.0
 10
8.536972
 20
114.766582
 30
0.0
 10
4.259640
 20
105.794721
 30
0.0
 10
0.173599
 20
96.692258
 30
0.0
  0
LINE
  5
1fe
100
AcDbEntity
  8
Layer_1
 62
1
100
AcDbLine
 10
0.173599
 20
96.692258
 30
0.0
 11
82.599420
 21
0.146982
 31
0.0
  0
SPLINE
  5
1ff
100
AcDbEntity
  8
Layer_1
 62
1
100
AcDbSpline
 70
8
 71
3
 72
8
 73
4
 74
0
 40
0
 40
0
 40
0
 40
0
 40
1
 40
1
 40
1
 40
1
 10
82.599420
 20
0.146982
 30
0.0
 10
84.126778
 20
1.668640
 30
0.0
 10
85.541361
 20
3.200542
 30
0.0
 10
86.856460
 20
4.741786
 30
0.0
  0
LINE
  5
200
100
AcDbEntity
  8
Layer_1
 62
1
100
AcDbLine
 10
86.856460
 20
4.741786
 30
0.0
 11
45.647133
 21
53.010227
 31
0.0
  0
LINE
  5
201
100
AcDbEntity
  8
Layer_1
 62
1
100
AcDbLine
 10
45.647133
 20
53.010227
 30
0.0
 11
50.904510
 21
57.498721
 31
0.0
  0
LINE
  5
202
100
AcDbEntity
  8
Layer_1
 62
1
100
AcDbLine
 10
50.904510
 20
57.498721
 30
0.0
 11
91.167884
 21
10.338253
 31
0.0
  0
SPLINE
  5
203
100
AcDbEntity
  8
Layer_1
 62
1
100
AcDbSpline
 70
8
 71
3
 72
8
 73
4
 74
0
 40
0
 40
0
 40
0
 40
0
 40
1
 40
1
 40
1
 40
1
 10
91.167884
 20
10.338253
 30
0.0
 10
117.934940
 20
49.055227
 30
0.0
 10
87.803315
 20
93.190730
 30
0.0
 10
120.012124
 20
134.127642
 30
0.0
  0
SPLINE
  5
204
100
AcDbEntity
  8
Layer_1
 62
1
100
AcDbSpline
 70
8
 71
3
 72
8
 73
4
 74
0
 40
0
 40
0
 40
0
 40
0
 40
1
 40
1
 40
1
 40
1
 10
120.012124
 20
134.127642
 30
0.0
 10
143.494678
 20
150.396822
 30
0.0
 10
184.264190
 20
161.767349
 30
0.0
 10
175.504407
 20
187.172835
 30
0.0
  0
SPLINE
  5
205
100
AcDbEntity
  8
Layer_1
 62
1
100
AcDbSpline
 70
8
 71
3
 72
8
 73
4
 74
0
 40
0
 40
0
 40
0
 40
0
 40
1
 40
1
 40
1
 40
1
 10
175.504407
 20
187.172835
 30
0.0
 10
184.583129
 20
197.443046
 30
0.0
 10
186.015887
 20
205.818157
 30
0.0
 10
175.707240
 20
211.281827
 30
0.0
  0
SPLINE
  5
206
100
AcDbEntity
  8
Layer_1
 62
1
100
AcDbSpline
 70
8
 71
3
 72
8
 73
4
 74
0
 40
0
 40
0
 40
0
 40
0
 40
1
 40
1
 40
1
 40
1
 10
175.707240
 20
211.281827
 30
0.0
 10
165.864769
 20
220.107711
 30
0.0
 10
155.875626
 20
227.072595
 30
0.0
 10
145.775909
 20
232.637726
 30
0.0
  0
LINE
  5
207
100
AcDbEntity
  8
Layer_1
 62
1
100
AcDbLine
 10
145.775909
 20
232.637726
 30
0.0
 11
162.727078
 21
212.782854
 31
0.0
  0
LINE
  5
208
100
AcDbEntity
  8
Layer_1
 62
1
100
AcDbLine
 10
162.727078
 20
212.782854
 30
0.0
 11
157.462561
 21
208.288276
 31
0.0
  0
LINE
  5
209
100
AcDbEntity
  8
Layer_1
 62
1
100
AcDbLine
 10
157.462561
 20
208.288276
 30
0.0
 11
130.309651
 21
240.092463
 31
0.0
  0
SPLINE
  5
20a
100
AcDbEntity
  8
Layer_1
 62
1
100
AcDbSpline
 70
8
 71
3
 72
8
 73
4
 74
0
 40
0
 40
0
 40
0
 40
0
 40
1
 40
1
 40
1
 40
1
 10
130.309651
 20
240.092463
 30
0.0
 10
121.998686
 20
243.563065
 30
0.0
 10
113.626169
 20
246.257373
 30
0.0
 10
105.212532
 20
248.425830
 30
0.0
  0
LINE
  5
20b
100
AcDbEntity
  8
Layer_1
 62
1
100
AcDbLine
 10
105.212532
 20
248.425830
 30
0.0
 11
139.285531
 21
208.516131
 31
0.0
  0
LINE
  5
20c
100
AcDbEntity
  8
Layer_1
 62
1
100
AcDbLine
 10
139.285531
 20
208.516131
 30
0.0
 11
134.021014
 21
204.021536
 31
0.0
  0
LINE
  5
20d
100
AcDbEntity
  8
Layer_1
 62
1
100
AcDbLine
 10
134.021014
 20
204.021536
 30
0.0
 11
93.871827
 21
251.048250
 31
0.0
  0
SPLINE
  5
20e
100
AcDbEntity
  8
Layer_1
 62
1
100
AcDbSpline
 70
8
 71
3
 72
8
 73
4
 74
0
 40
0
 40
0
 40
0
 40
0
 40
1
 40
1
 40
1
 40
1
 10
93.871827
 20
251.048250
 30
0.0
 10
86.863769
 20
252.496521
 30
0.0
 10
79.833445
 20
253.658710
 30
0.0
 10
72.791407
 20
254.676011
 30
0.0
  0
LINE
  5
20f
100
AcDbEntity
  8
Layer_1
 62
1
100
AcDbLine
 10
72.791407
 20
254.676011
 30
0.0
 11
116.465635
 21
203.520433
 31
0.0
  0
LINE
  5
210
100
AcDbEntity
  8
Layer_1
 62
1
100
AcDbLine
 10
116.465635
 20
203.520433
 30
0.0
 11
111.201118
 21
199.025838
 31
0.0
  0
LINE
  5
211
100
AcDbEntity
  8
Layer_1
 62
1
100
AcDbLine
 10
111.201118
 20
199.025838
 30
0.0
 11
63.365524
 21
255.055634
 31
0.0
  0
SPLINE
  5
212
100
AcDbEntity
  8
Layer_1
 62
1
100
AcDbSpline
 70
8
 71
3
 72
8
 73
4
 74
0
 40
0
 40
0
 40
0
 40
0
 40
1
 40
1
 40
1
 40
1
 10
63.365524
 20
255.055634
 30
0.0
 10
58.059492
 20
253.977584
 30
0.0
 10
52.761391
 20
253.005625
 30
0.0
 10
47.452678
 20
251.893777
 30
0.0
  0
LINE
  5
213
100
AcDbEntity
  8
Layer_1
 62
1
100
AcDbLine
 10
47.452678
 20
251.893777
 30
0.0
 11
93.281870
 21
198.214097
 31
0.0
  0
LINE
  5
214
100
AcDbEntity
  8
Layer_1
 62
1
100
AcDbLine
 10
93.281870
 20
198.214097
 30
0.0
 11
88.017353
 21
193.719499
 31
0.0
  0
LINE
  5
215
100
AcDbEntity
  8
Layer_1
 62
1
100
AcDbLine
 10
88.017353
 20
193.719499
 30
0.0
 11
39.823111
 21
250.169342
 31
0.0
  0
SPLINE
  5
216
100
AcDbEntity
  8
Layer_1
 62
1
100
AcDbSpline
 70
8
 71
3
 72
8
 73
4
 74
0
 40
0
 40
0
 40
0
 40
0
 40
1
 40
1
 40
1
 40
1
 10
39.823111
 20
250.169342
 30
0.0
 10
35.081636
 20
249.002114
 30
0.0
 10
30.323680
 20
247.620670
 30
0.0
 10
25.534058
 20
245.843282
 30
0.0
  0
LINE
  5
217
100
AcDbEntity
  8
Layer_1
 62
1
100
AcDbLine
 10
25.534058
 20
245.843282
 30
0.0
 11
70.150993
 21
193.583499
 31
0.0
  0
LINE
  5
218
100
AcDbEntity
  8
Layer_1
 62
1
100
AcDbLine
 10
70.150993
 20
193.583499
 30
0.0
 11
64.886476
 21
189.088901
 31
0.0
  0
LINE
  5
219
100
AcDbEntity
  8
Layer_1
 62
1
100
AcDbLine
 10
64.886476
 20
189.088901
 30
0.0
 11
18.797809
 21
243.072509
 31
0.0
  0
SPLINE
  5
21a
100
AcDbEntity
  8
Layer_1
 62
1
100
AcDbSpline
 70
8
 71
3
 72
8
 73
4
 74
0
 40
0
 40
0
 40
0
 40
0
 40
1
 40
1
 40
1
 40
1
 10
18.797809
 20
243.072509
 30
0.0
 10
14.941977
 20
241.323245
 30
0.0
 10
11.062240
 20
239.270208
 30
0.0
 10
7.150442
 20
236.811832
 30
0.0
  0
LINE
  5
21b
100
AcDbEntity
  8
Layer_1
 62
1
100
AcDbLine
 10
7.150442
 20
236.811832
 30
0.0
 11
7.150442
 21
236.811832
 31
0.0
  0
SPLINE
  5
21c
100
AcDbEntity
  8
Layer_1
 62
1
100
AcDbSpline
 70
8
 71
3
 72
8
 73
4
 74
0
 40
0
 40
0
 40
0
 40
0
 40
1
 40
1
 40
1
 40
1
 10
288.335099
 20
18.390784
 30
0.0
 10
288.425805
 20
18.679833
 30
0.0
 10
288.527462
 20
18.946603
 30
0.0
 10
288.637218
 20
19.197380
 30
0.0
  0
LINE
  5
21d
100
AcDbEntity
  8
Layer_1
 62
1
100
AcDbLine
 10
288.637218
 20
19.197380
 30
0.0
 11
229.181118
 21
88.838242
 31
0.0
  0
LINE
  5
21e
100
AcDbEntity
  8
Layer_1
 62
1
100
AcDbLine
 10
229.181118
 20
88.838242
 30
0.0
 11
234.445635
 21
93.332837
 31
0.0
  0
LINE
  5
21f
100
AcDbEntity
  8
Layer_1
 62
1
100
AcDbLine
 10
234.445635
 20
93.332837
 30
0.0
 11
293.421082
 21
24.254972
 31
0.0
  0
SPLINE
  5
220
100
AcDbEntity
  8
Layer_1
 62
1
100
AcDbSpline
 70
8
 71
3
 72
8
 73
4
 74
0
 40
0
 40
0
 40
0
 40
0
 40
1
 40
1
 40
1
 40
1
 10
293.421082
 20
24.254972
 30
0.0
 10
295.591879
 20
26.719700
 30
0.0
 10
296.712047
 20
31.295773
 30
0.0
 10
292.729243
 20
46.128134
 30
0.0
  0
LINE
  5
221
100
AcDbEntity
  8
Layer_1
 62
1
100
AcDbLine
 10
292.729243
 20
46.128134
 30
0.0
 11
233.338308
 21
115.692694
 31
0.0
  0
LINE
  5
222
100
AcDbEntity
  8
Layer_1
 62
1
100
AcDbLine
 10
233.338308
 20
115.692694
 30
0.0
 11
238.602825
 21
120.187292
 31
0.0
  0
LINE
  5
223
100
AcDbEntity
  8
Layer_1
 62
1
100
AcDbLine
 10
238.602825
 20
120.187292
 30
0.0
 11
286.148131
 21
64.497501
 31
0.0
  0
SPLINE
  5
224
100
AcDbEntity
  8
Layer_1
 62
1
100
AcDbSpline
 70
8
 71
3
 72
8
 73
4
 74
0
 40
0
 40
0
 40
0
 40
0
 40
1
 40
1
 40
1
 40
1
 10
286.148131
 20
64.497501
 30
0.0
 10
282.317500
 20
75.457782
 30
0.0
 10
280.251882
 20
85.215534
 30
0.0
 10
279.494736
 20
94.082705
 30
0.0
  0
LINE
  5
225
100
AcDbEntity
  8
Layer_1
 62
1
100
AcDbLine
 10
279.494736
 20
94.082705
 30
0.0
 11
237.229588
 21
143.587824
 31
0.0
  0
LINE
  5
226
100
AcDbEntity
  8
Layer_1
 62
1
100
AcDbLine
 10
237.229588
 20
143.587824
 30
0.0
 11
242.502910
 21
148.089934
 31
0.0
  0
LINE
  5
227
100
AcDbEntity
  8
Layer_1
 62
1
100
AcDbLine
 10
242.502910
 20
148.089934
 30
0.0
 11
279.208365
 21
105.096895
 31
0.0
  0
SPLINE
  5
228
100
AcDbEntity
  8
Layer_1
 62
1
100
AcDbSpline
 70
8
 71
3
 72
8
 73
4
 74
0
 40
0
 40
0
 40
0
 40
0
 40
1
 40
1
 40
1
 40
1
 10
279.208365
 20
105.096895
 30
0.0
 10
279.423814
 20
111.332299
 30
0.0
 10
280.282390
 20
117.129838
 30
0.0
 10
281.577621
 20
122.629928
 30
0.0
  0
LINE
  5
229
100
AcDbEntity
  8
Layer_1
 62
1
100
AcDbLine
 10
281.577621
 20
122.629928
 30
0.0
 11
241.644926
 21
169.403026
 31
0.0
  0
LINE
  5
22a
100
AcDbEntity
  8
Layer_1
 62
1
100
AcDbLine
 10
241.644926
 20
169.403026
 30
0.0
 11
246.918249
 21
173.905137
 31
0.0
  0
LINE
  5
22b
100
AcDbEntity
  8
Layer_1
 62
1
100
AcDbLine
 10
246.918249
 20
173.905137
 30
0.0
 11
283.821265
 21
130.680695
 31
0.0
  0
SPLINE
  5
22c
100
AcDbEntity
  8
Layer_1
 62
1
100
AcDbSpline
 70
8
 71
3
 72
8
 73
4
 74
0
 40
0
 40
0
 40
0
 40
0
 40
1
 40
1
 40
1
 40
1
 10
283.821265
 20
130.680695
 30
0.0
 10
286.948570
 20
140.436034
 30
0.0
 10
291.225901
 20
149.407895
 30
0.0
 10
295.311943
 20
158.510358
 30
0.0
  0
LINE
  5
22d
100
AcDbEntity
  8
Layer_1
 62
1
100
AcDbLine
 10
295.311943
 20
158.510358
 30
0.0
 11
212.886115
 21
255.055631
 31
0.0
  0
SPLINE
  5
22e
100
AcDbEntity
  8
Layer_1
 62
1
100
AcDbSpline
 70
8
 71
3
 72
8
 73
4
 74
0
 40
0
 40
0
 40
0
 40
0
 40
1
 40
1
 40
1
 40
1
 10
212.886115
 20
255.055631
 30
0.0
 10
211.358757
 20
253.533973
 30
0.0
 10
209.944174
 20
252.002071
 30
0.0
 10
208.629075
 20
250.460827
 30
0.0
  0
LINE
  5
22f
100
AcDbEntity
  8
Layer_1
 62
1
100
AcDbLine
 10
208.629075
 20
250.460827
 30
0.0
 11
249.838402
 21
202.192389
 31
0.0
  0
LINE
  5
230
100
AcDbEntity
  8
Layer_1
 62
1
100
AcDbLine
 10
249.838402
 20
202.192389
 30
0.0
 11
244.581025
 21
197.703895
 31
0.0
  0
LINE
  5
231
100
AcDbEntity
  8
Layer_1
 62
1
100
AcDbLine
 10
244.581025
 20
197.703895
 30
0.0
 11
204.317651
 21
244.864363
 31
0.0
  0
SPLINE
  5
232
100
AcDbEntity
  8
Layer_1
 62
1
100
AcDbSpline
 70
8
 71
3
 72
8
 73
4
 74
0
 40
0
 40
0
 40
0
 40
0
 40
1
 40
1
 40
1
 40
1
 10
204.317651
 20
244.864363
 30
0.0
 10
177.550595
 20
206.147389
 30
0.0
 10
207.682219
 20
162.011886
 30
0.0
 10
175.473411
 20
121.074974
 30
0.0
  0
SPLINE
  5
233
100
AcDbEntity
  8
Layer_1
 62
1
100
AcDbSpline
 70
8
 71
3
 72
8
 73
4
 74
0
 40
0
 40
0
 40
0
 40
0
 40
1
 40
1
 40
1
 40
1
 10
175.473411
 20
121.074974
 30
0.0
 10
151.990857
 20
104.805794
 30
0.0
 10
111.221345
 20
93.435267
 30
0.0
 10
119.981128
 20
68.029781
 30
0.0
  0
SPLINE
  5
234
100
AcDbEntity
  8
Layer_1
 62
1
100
AcDbSpline
 70
8
 71
3
 72
8
 73
4
 74
0
 40
0
 40
0
 40
0
 40
0
 40
1
 40
1
 40
1
 40
1
 10
119.981128
 20
68.029781
 30
0.0
 10
110.902406
 20
57.759570
 30
0.0
 10
109.469648
 20
49.384459
 30
0.0
 10
119.778295
 20
43.920789
 30
0.0
  0
SPLINE
  5
235
100
AcDbEntity
  8
Layer_1
 62
1
100
AcDbSpline
 70
8
 71
3
 72
8
 73
4
 74
0
 40
0
 40
0
 40
0
 40
0
 40
1
 40
1
 40
1
 40
1
 10
119.778295
 20
43.920789
 30
0.0
 10
129.620766
 20
35.094905
 30
0.0
 10
139.609909
 20
28.130021
 30
0.0
 10
149.709626
 20
22.564890
 30
0.0
  0
LINE
  5
236
100
AcDbEntity
  8
Layer_1
 62
1
100
AcDbLine
 10
149.709626
 20
22.564890
 30
0.0
 11
132.758457
 21
42.419762
 31
0.0
  0
LINE
  5
237
100
AcDbEntity
  8
Layer_1
 62
1
100
AcDbLine
 10
132.758457
 20
42.419762
 30
0.0
 11
138.022973
 21
46.914340
 31
0.0
  0
LINE
  5
238
100
AcDbEntity
  8
Layer_1
 62
1
100
AcDbLine
 10
138.022973
 20
46.914340
 30
0.0
 11
165.175884
 21
15.110153
 31
0.0
  0
SPLINE
  5
239
100
AcDbEntity
  8
Layer_1
 62
1
100
AcDbSpline
 70
8
 71
3
 72
8
 73
4
 74
0
 40
0
 40
0
 40
0
 40
0
 40
1
 40
1
 40
1
 40
1
 10
165.175884
 20
15.110153
 30
0.0
 10
173.486849
 20
11.639551
 30
0.0
 10
181.859366
 20
8.945232
 30
0.0
 10
190.273003
 20
6.776778
 30
0.0
  0
LINE
  5
23a
100
AcDbEntity
  8
Layer_1
 62
1
100
AcDbLine
 10
190.273003
 20
6.776778
 30
0.0
 11
156.200004
 21
46.686485
 31
0.0
  0
LINE
  5
23b
100
AcDbEntity
  8
Layer_1
 62
1
100
AcDbLine
 10
156.200004
 20
46.686485
 30
0.0
 11
161.464521
 21
51.181080
 31
0.0
  0
LINE
  5
23c
100
AcDbEntity
  8
Layer_1
 62
1
100
AcDbLine
 10
161.464521
 20
51.181080
 30
0.0
 11
201.613708
 21
4.154369
 31
0.0
  0
SPLINE
  5
23d
100
AcDbEntity
  8
Layer_1
 62
1
100
AcDbSpline
 70
8
 71
3
 72
8
 73
4
 74
0
 40
0
 40
0
 40
0
 40
0
 40
1
 40
1
 40
1
 40
1
 10
201.613708
 20
4.154369
 30
0.0
 10
208.621765
 20
2.706089
 30
0.0
 10
215.652090
 20
1.543898
 30
0.0
 10
222.694127
 20
0.526600
 30
0.0
  0
LINE
  5
23e
100
AcDbEntity
  8
Layer_1
 62
1
100
AcDbLine
 10
222.694127
 20
0.526600
 30
0.0
 11
179.019900
 21
51.682183
 31
0.0
  0
LINE
  5
23f
100
AcDbEntity
  8
Layer_1
 62
1
100
AcDbLine
 10
179.019900
 20
51.682183
 30
0.0
 11
184.284417
 21
56.176778
 31
0.0
  0
LINE
  5
240
100
AcDbEntity
  8
Layer_1
 62
1
100
AcDbLine
 10
184.284417
 20
56.176778
 30
0.0
 11
232.120011
 21
0.146982
 31
0.0
  0
SPLINE
  5
241
100
AcDbEntity
  8
Layer_1
 62
1
100
AcDbSpline
 70
8
 71
3
 72
8
 73
4
 74
0
 40
0
 40
0
 40
0
 40
0
 40
1
 40
1
 40
1
 40
1
 10
232.120011
 20
0.146982
 30
0.0
 10
237.426043
 20
1.225043
 30
0.0
 10
242.724144
 20
2.196988
 30
0.0
 10
248.032857
 20
3.308831
 30
0.0
  0
LINE
  5
242
100
AcDbEntity
  8
Layer_1
 62
1
100
AcDbLine
 10
248.032857
 20
3.308831
 30
0.0
 11
202.203665
 21
56.988519
 31
0.0
  0
LINE
  5
243
100
AcDbEntity
  8
Layer_1
 62
1
100
AcDbLine
 10
202.203665
 20
56.988519
 30
0.0
 11
207.468182
 21
61.483117
 31
0.0
  0
LINE
  5
244
100
AcDbEntity
  8
Layer_1
 62
1
100
AcDbLine
 10
207.468182
 20
61.483117
 30
0.0
 11
255.662424
 21
5.033265
 31
0.0
  0
SPLINE
  5
245
100
AcDbEntity
  8
Layer_1
 62
1
100
AcDbSpline
 70
8
 71
3
 72
8
 73
4
 74
0
 40
0
 40
0
 40
0
 40
0
 40
1
 40
1
 40
1
 40
1
 10
255.662424
 20
5.033265
 30
0.0
 10
260.403899
 20
6.200508
 30
0.0
 10
265.161855
 20
7.581958
 30
0.0
 10
269.951477
 20
9.359337
 30
0.0
  0
LINE
  5
246
100
AcDbEntity
  8
Layer_1
 62
1
100
AcDbLine
 10
269.951477
 20
9.359337
 30
0.0
 11
225.334542
 21
61.619117
 31
0.0
  0
LINE
  5
247
100
AcDbEntity
  8
Layer_1
 62
1
100
AcDbLine
 10
225.334542
 20
61.619117
 30
0.0
 11
230.599059
 21
66.113715
 31
0.0
  0
LINE
  5
248
100
AcDbEntity
  8
Layer_1
 62
1
100
AcDbLine
 10
230.599059
 20
66.113715
 30
0.0
 11
276.687726
 21
12.130110
 31
0.0
  0
SPLINE
  5
249
100
AcDbEntity
  8
Layer_1
 62
1
100
AcDbSpline
 70
8
 71
3
 72
8
 73
4
 74
0
 40
0
 40
0
 40
0
 40
0
 40
1
 40
1
 40
1
 40
1
 10
276.687726
 20
12.130110
 30
0.0
 10
280.543559
 20
13.879380
 30
0.0
 10
284.423302
 20
15.932408
 30
0.0
 10
288.335099
 20
18.390784
 30
0.0
  0
LINE
  5
24a
100
AcDbEntity
  8
Layer_1
 62
1
100
AcDbLine
 10
288.335099
 20
18.390784
 30
0.0
 11
288.335099
 21
18.390784
 31
0.0
  0
SPLINE
  5
24b
100
AcDbEntity
  8
Layer_1
 62
1
100
AcDbSpline
 70
8
 71
3
 72
8
 73
4
 74
0
 40
0
 40
0
 40
0
 40
0
 40
1
 40
1
 40
1
 40
1
 10
76.847333
 20
583.966293
 30
0.0
 10
94.004638
 20
583.642189
 30
0.0
 10
166.858865
 20
658.658436
 30
0.0
 10
162.987934
 20
750.878131
 30
0.0
  0
SPLINE
  5
24c
100
AcDbEntity
  8
Layer_1
 62
1
100
AcDbSpline
 70
8
 71
3
 72
8
 73
4
 74
0
 40
0
 40
0
 40
0
 40
0
 40
1
 40
1
 40
1
 40
1
 10
162.987934
 20
750.878131
 30
0.0
 10
169.859142
 20
753.442092
 30
0.0
 10
176.730547
 20
752.843470
 30
0.0
 10
183.601727
 20
751.355482
 30
0.0
  0
LINE
  5
24d
100
AcDbEntity
  8
Layer_1
 62
1
100
AcDbLine
 10
183.601727
 20
751.355482
 30
0.0
 11
183.849236
 21
747.014678
 31
0.0
  0
SPLINE
  5
24e
100
AcDbEntity
  8
Layer_1
 62
1
100
AcDbSpline
 70
8
 71
3
 72
8
 73
4
 74
0
 40
0
 40
0
 40
0
 40
0
 40
1
 40
1
 40
1
 40
1
 10
183.849236
 20
747.014678
 30
0.0
 10
179.052276
 20
687.928041
 30
0.0
 10
240.921145
 20
578.160081
 30
0.0
 10
274.247977
 20
584.760607
 30
0.0
  0
SPLINE
  5
24f
100
AcDbEntity
  8
Layer_1
 62
1
100
AcDbSpline
 70
8
 71
3
 72
8
 73
4
 74
0
 40
0
 40
0
 40
0
 40
0
 40
1
 40
1
 40
1
 40
1
 10
274.247977
 20
584.760607
 30
0.0
 10
288.964285
 20
606.609151
 30
0.0
 10
266.805664
 20
671.411861
 30
0.0
 10
235.616073
 20
726.926185
 30
0.0
  0
SPLINE
  5
250
100
AcDbEntity
  8
Layer_1
 62
1
100
AcDbSpline
 70
8
 71
3
 72
8
 73
4
 74
0
 40
0
 40
0
 40
0
 40
0
 40
1
 40
1
 40
1
 40
1
 10
235.616073
 20
726.926185
 30
0.0
 10
230.733205
 20
734.313691
 30
0.0
 10
225.902746
 20
740.979723
 30
0.0
 10
219.000776
 20
739.281112
 30
0.0
  0
SPLINE
  5
251
100
AcDbEntity
  8
Layer_1
 62
1
100
AcDbSpline
 70
8
 71
3
 72
8
 73
4
 74
0
 40
0
 40
0
 40
0
 40
0
 40
1
 40
1
 40
1
 40
1
 10
219.000776
 20
739.281112
 30
0.0
 10
209.116055
 20
762.952614
 30
0.0
 10
194.176735
 20
793.709530
 30
0.0
 10
212.436908
 20
829.687050
 30
0.0
  0
SPLINE
  5
252
100
AcDbEntity
  8
Layer_1
 62
1
100
AcDbSpline
 70
8
 71
3
 72
8
 73
4
 74
0
 40
0
 40
0
 40
0
 40
0
 40
1
 40
1
 40
1
 40
1
 10
212.436908
 20
829.687050
 30
0.0
 10
221.184555
 20
852.887495
 30
0.0
 10
230.631238
 20
887.604440
 30
0.0
 10
190.052621
 20
908.093012
 30
0.0
  0
LINE
  5
253
100
AcDbEntity
  8
Layer_1
 62
1
100
AcDbLine
 10
190.052621
 20
908.093012
 30
0.0
 11
190.052621
 21
842.662104
 31
0.0
  0
LINE
  5
254
100
AcDbEntity
  8
Layer_1
 62
1
100
AcDbLine
 10
190.052621
 20
842.662104
 30
0.0
 11
183.202100
 21
842.662104
 31
0.0
  0
LINE
  5
255
100
AcDbEntity
  8
Layer_1
 62
1
100
AcDbLine
 10
183.202100
 20
842.662104
 30
0.0
 11
183.202100
 21
910.432352
 31
0.0
  0
SPLINE
  5
256
100
AcDbEntity
  8
Layer_1
 62
1
100
AcDbSpline
 70
8
 71
3
 72
8
 73
4
 74
0
 40
0
 40
0
 40
0
 40
0
 40
1
 40
1
 40
1
 40
1
 10
183.202100
 20
910.432352
 30
0.0
 10
177.561861
 20
912.010059
 30
0.0
 10
171.508222
 20
912.761024
 30
0.0
 10
163.851703
 20
910.306142
 30
0.0
  0
LINE
  5
257
100
AcDbEntity
  8
Layer_1
 62
1
100
AcDbLine
 10
163.851703
 20
910.306142
 30
0.0
 11
163.851703
 21
842.662104
 31
0.0
  0
LINE
  5
258
100
AcDbEntity
  8
Layer_1
 62
1
100
AcDbLine
 10
163.851703
 20
842.662104
 30
0.0
 11
157.000646
 21
842.662104
 31
0.0
  0
LINE
  5
259
100
AcDbEntity
  8
Layer_1
 62
1
100
AcDbLine
 10
157.000646
 20
842.662104
 30
0.0
 11
157.000646
 21
907.397927
 31
0.0
  0
SPLINE
  5
25a
100
AcDbEntity
  8
Layer_1
 62
1
100
AcDbSpline
 70
8
 71
3
 72
8
 73
4
 74
0
 40
0
 40
0
 40
0
 40
0
 40
1
 40
1
 40
1
 40
1
 10
157.000646
 20
907.397927
 30
0.0
 10
120.108980
 20
886.726786
 30
0.0
 10
118.311986
 20
872.204618
 30
0.0
 10
139.036524
 20
821.960652
 30
0.0
  0
SPLINE
  5
25b
100
AcDbEntity
  8
Layer_1
 62
1
100
AcDbSpline
 70
8
 71
3
 72
8
 73
4
 74
0
 40
0
 40
0
 40
0
 40
0
 40
1
 40
1
 40
1
 40
1
 10
139.036524
 20
821.960652
 30
0.0
 10
145.277106
 20
800.951212
 30
0.0
 10
148.399782
 20
774.898911
 30
0.0
 10
125.901619
 20
739.288281
 30
0.0
  0
SPLINE
  5
25c
100
AcDbEntity
  8
Layer_1
 62
1
100
AcDbSpline
 70
8
 71
3
 72
8
 73
4
 74
0
 40
0
 40
0
 40
0
 40
0
 40
1
 40
1
 40
1
 40
1
 10
125.901619
 20
739.288281
 30
0.0
 10
101.440488
 20
737.912052
 30
0.0
 10
50.515972
 20
597.507964
 30
0.0
 10
76.452645
 20
583.988334
 30
0.0
  0
SPLINE
  5
25d
100
AcDbEntity
  8
Layer_1
 62
1
100
AcDbSpline
 70
8
 71
3
 72
8
 73
4
 74
0
 40
0
 40
0
 40
0
 40
0
 40
1
 40
1
 40
1
 40
1
 10
76.452645
 20
583.988334
 30
0.0
 10
76.580774
 20
583.976481
 30
0.0
 10
76.712233
 20
583.968861
 30
0.0
 10
76.847333
 20
583.966321
 30
0.0
  0
LINE
  5
25e
100
AcDbEntity
  8
Layer_1
 62
1
100
AcDbLine
 10
76.847333
 20
583.966321
 30
0.0
 11
76.847333
 21
583.966293
 31
0.0
  0
LINE
  5
25f
100
AcDbEntity
  8
Layer_1
 62
1
100
AcDbLine
 10
291.907383
 20
581.687151
 30
0.0
 11
380.887704
 21
565.692415
 31
0.0
  0
LINE
  5
260
100
AcDbEntity
  8
Layer_1
 62
1
100
AcDbLine
 10
380.887704
 20
565.692415
 30
0.0
 11
379.676660
 21
558.955404
 31
0.0
  0
LINE
  5
261
100
AcDbEntity
  8
Layer_1
 62
1
100
AcDbLine
 10
379.676660
 20
558.955404
 30
0.0
 11
290.875381
 21
574.917955
 31
0.0
  0
LINE
  5
262
100
AcDbEntity
  8
Layer_1
 62
1
100
AcDbLine
 10
290.875381
 20
574.917955
 30
0.0
 11
285.015940
 21
540.969221
 31
0.0
  0
SPLINE
  5
263
100
AcDbEntity
  8
Layer_1
 62
1
100
AcDbSpline
 70
8
 71
3
 72
8
 73
4
 74
0
 40
0
 40
0
 40
0
 40
0
 40
1
 40
1
 40
1
 40
1
 10
285.015940
 20
540.969221
 30
0.0
 10
303.915346
 20
516.673635
 30
0.0
 10
306.753937
 20
507.579338
 30
0.0
 10
312.875309
 20
511.135419
 30
0.0
  0
SPLINE
  5
264
100
AcDbEntity
  8
Layer_1
 62
1
100
AcDbSpline
 70
8
 71
3
 72
8
 73
4
 74
0
 40
0
 40
0
 40
0
 40
0
 40
1
 40
1
 40
1
 40
1
 10
312.875309
 20
511.135419
 30
0.0
 10
325.919790
 20
516.878859
 30
0.0
 10
338.652302
 20
518.141462
 30
0.0
 10
382.142746
 20
506.663809
 30
0.0
  0
SPLINE
  5
265
100
AcDbEntity
  8
Layer_1
 62
1
100
AcDbSpline
 70
8
 71
3
 72
8
 73
4
 74
0
 40
0
 40
0
 40
0
 40
0
 40
1
 40
1
 40
1
 40
1
 10
382.142746
 20
506.663809
 30
0.0
 10
436.058084
 20
502.854195
 30
0.0
 10
442.092334
 20
539.978124
 30
0.0
 10
477.129715
 20
547.925273
 30
0.0
  0
LINE
  5
266
100
AcDbEntity
  8
Layer_1
 62
1
100
AcDbLine
 10
477.129715
 20
547.925273
 30
0.0
 11
477.331476
 21
547.891870
 31
0.0
  0
LINE
  5
267
100
AcDbEntity
  8
Layer_1
 62
1
100
AcDbLine
 10
477.331476
 20
547.891870
 30
0.0
 11
477.352078
 21
547.975007
 31
0.0
  0
SPLINE
  5
268
100
AcDbEntity
  8
Layer_1
 62
1
100
AcDbSpline
 70
8
 71
3
 72
8
 73
4
 74
0
 40
0
 40
0
 40
0
 40
0
 40
1
 40
1
 40
1
 40
1
 10
477.352078
 20
547.975007
 30
0.0
 10
477.806343
 20
548.076065
 30
0.0
 10
478.264022
 20
548.173584
 30
0.0
 10
478.728137
 20
548.264727
 30
0.0
  0
LINE
  5
269
100
AcDbEntity
  8
Layer_1
 62
1
100
AcDbLine
 10
478.728137
 20
548.264727
 30
0.0
 11
480.439956
 21
557.619567
 31
0.0
  0
LINE
  5
26a
100
AcDbEntity
  8
Layer_1
 62
1
100
AcDbLine
 10
480.439956
 20
557.619567
 30
0.0
 11
482.093298
 21
566.985467
 31
0.0
  0
SPLINE
  5
26b
100
AcDbEntity
  8
Layer_1
 62
1
100
AcDbSpline
 70
8
 71
3
 72
8
 73
4
 74
0
 40
0
 40
0
 40
0
 40
0
 40
1
 40
1
 40
1
 40
1
 10
482.093298
 20
566.985467
 30
0.0
 10
481.689974
 20
567.232536
 30
0.0
 10
481.294892
 20
567.483341
 30
0.0
 10
480.904296
 20
567.736271
 30
0.0
  0
LINE
  5
26c
100
AcDbEntity
  8
Layer_1
 62
1
100
AcDbLine
 10
480.904296
 20
567.736271
 30
0.0
 11
480.913892
 21
567.821353
 31
0.0
  0
LINE
  5
26d
100
AcDbEntity
  8
Layer_1
 62
1
100
AcDbLine
 10
480.913892
 20
567.821353
 30
0.0
 11
480.713119
 21
567.860311
 31
0.0
  0
SPLINE
  5
26e
100
AcDbEntity
  8
Layer_1
 62
1
100
AcDbSpline
 70
8
 71
3
 72
8
 73
4
 74
0
 40
0
 40
0
 40
0
 40
0
 40
1
 40
1
 40
1
 40
1
 10
480.713119
 20
567.860311
 30
0.0
 10
450.636809
 20
587.512048
 30
0.0
 10
457.909027
 20
624.413394
 30
0.0
 10
406.042142
 20
639.618765
 30
0.0
  0
SPLINE
  5
26f
100
AcDbEntity
  8
Layer_1
 62
1
100
AcDbSpline
 70
8
 71
3
 72
8
 73
4
 74
0
 40
0
 40
0
 40
0
 40
0
 40
1
 40
1
 40
1
 40
1
 10
406.042142
 20
639.618765
 30
0.0
 10
361.277069
 20
644.005599
 30
0.0
 10
349.781340
 20
649.623346
 30
0.0
 10
339.553663
 20
659.550089
 30
0.0
  0
SPLINE
  5
270
100
AcDbEntity
  8
Layer_1
 62
1
100
AcDbSpline
 70
8
 71
3
 72
8
 73
4
 74
0
 40
0
 40
0
 40
0
 40
0
 40
1
 40
1
 40
1
 40
1
 10
339.553663
 20
659.550089
 30
0.0
 10
335.053940
 20
665.015379
 30
0.0
 10
329.225882
 20
657.478973
 30
0.0
 10
303.048472
 20
641.286191
 30
0.0
  0
LINE
  5
271
100
AcDbEntity
  8
Layer_1
 62
1
100
AcDbLine
 10
303.048472
 20
641.286191
 30
0.0
 11
296.718143
 21
607.422092
 31
0.0
  0
LINE
  5
272
100
AcDbEntity
  8
Layer_1
 62
1
100
AcDbLine
 10
296.718143
 20
607.422092
 30
0.0
 11
385.519422
 21
591.459547
 31
0.0
  0
LINE
  5
273
100
AcDbEntity
  8
Layer_1
 62
1
100
AcDbLine
 10
385.519422
 20
591.459547
 30
0.0
 11
384.308406
 21
584.722536
 31
0.0
  0
LINE
  5
274
100
AcDbEntity
  8
Layer_1
 62
1
100
AcDbLine
 10
384.308406
 20
584.722536
 30
0.0
 11
295.328086
 21
600.717254
 31
0.0
  0
LINE
  5
275
100
AcDbEntity
  8
Layer_1
 62
1
100
AcDbLine
 10
295.328086
 20
600.717254
 30
0.0
 11
293.684339
 21
591.192819
 31
0.0
  0
LINE
  5
276
100
AcDbEntity
  8
Layer_1
 62
1
100
AcDbLine
 10
293.684339
 20
591.192819
 30
0.0
 11
291.907355
 21
581.687320
 31
0.0
  0
LINE
  5
277
100
AcDbEntity
  8
Layer_1
 62
1
100
AcDbLine
 10
291.907355
 20
581.687320
 30
0.0
 11
291.907383
 21
581.687151
 31
0.0
  0
LINE
  5
278
100
AcDbEntity
  8
Layer_1
 62
1
100
AcDbLine
 10
337.891684
 20
549.021503
 30
0.0
 11
338.532978
 21
552.589103
 31
0.0
  0
SPLINE
  5
279
100
AcDbEntity
  8
Layer_1
 62
1
100
AcDbSpline
 70
8
 71
3
 72
8
 73
4
 74
0
 40
0
 40
0
 40
0
 40
0
 40
1
 40
1
 40
1
 40
1
 10
338.532978
 20
552.589103
 30
0.0
 10
338.668050
 20
553.340553
 30
0.0
 10
339.381620
 20
553.836675
 30
0.0
 10
340.133065
 20
553.701595
 30
0.0
  0
LINE
  5
27a
100
AcDbEntity
  8
Layer_1
 62
1
100
AcDbLine
 10
340.133065
 20
553.701595
 30
0.0
 11
343.539572
 21
553.089260
 31
0.0
  0
SPLINE
  5
27b
100
AcDbEntity
  8
Layer_1
 62
1
100
AcDbSpline
 70
8
 71
3
 72
8
 73
4
 74
0
 40
0
 40
0
 40
0
 40
0
 40
1
 40
1
 40
1
 40
1
 10
343.539572
 20
553.089260
 30
0.0
 10
344.851467
 20
554.475867
 30
0.0
 10
346.773384
 20
555.108685
 30
0.0
 10
348.652451
 20
554.772746
 30
0.0
  0
SPLINE
  5
27c
100
AcDbEntity
  8
Layer_1
 62
1
100
AcDbSpline
 70
8
 71
3
 72
8
 73
4
 74
0
 40
0
 40
0
 40
0
 40
0
 40
1
 40
1
 40
1
 40
1
 10
348.652451
 20
554.772746
 30
0.0
 10
350.131454
 20
554.506899
 30
0.0
 10
351.444272
 20
553.664402
 30
0.0
 10
352.302093
 20
552.430599
 30
0.0
  0
SPLINE
  5
27d
100
AcDbEntity
  8
Layer_1
 62
1
100
AcDbSpline
 70
8
 71
3
 72
8
 73
4
 74
0
 40
0
 40
0
 40
0
 40
0
 40
1
 40
1
 40
1
 40
1
 10
352.302093
 20
552.430599
 30
0.0
 10
353.159913
 20
551.196796
 30
0.0
 10
353.492468
 20
549.672756
 30
0.0
 10
353.226596
 20
548.193757
 30
0.0
  0
SPLINE
  5
27e
100
AcDbEntity
  8
Layer_1
 62
1
100
AcDbSpline
 70
8
 71
3
 72
8
 73
4
 74
0
 40
0
 40
0
 40
0
 40
0
 40
1
 40
1
 40
1
 40
1
 10
353.226596
 20
548.193757
 30
0.0
 10
352.960743
 20
546.714756
 30
0.0
 10
352.118243
 20
545.401944
 30
0.0
 10
350.884440
 20
544.544127
 30
0.0
  0
SPLINE
  5
27f
100
AcDbEntity
  8
Layer_1
 62
1
100
AcDbSpline
 70
8
 71
3
 72
8
 73
4
 74
0
 40
0
 40
0
 40
0
 40
0
 40
1
 40
1
 40
1
 40
1
 10
350.884440
 20
544.544127
 30
0.0
 10
349.650636
 20
543.686311
 30
0.0
 10
348.126597
 20
543.353761
 30
0.0
 10
346.647601
 20
543.619635
 30
0.0
  0
SPLINE
  5
280
100
AcDbEntity
  8
Layer_1
 62
1
100
AcDbSpline
 70
8
 71
3
 72
8
 73
4
 74
0
 40
0
 40
0
 40
0
 40
0
 40
1
 40
1
 40
1
 40
1
 10
346.647601
 20
543.619635
 30
0.0
 10
344.843057
 20
543.946929
 30
0.0
 10
343.308544
 20
545.127430
 30
0.0
 10
342.529470
 20
546.787715
 30
0.0
  0
LINE
  5
281
100
AcDbEntity
  8
Layer_1
 62
1
100
AcDbLine
 10
342.529470
 20
546.787715
 30
0.0
 11
339.004176
 21
547.421405
 31
0.0
  0
SPLINE
  5
282
100
AcDbEntity
  8
Layer_1
 62
1
100
AcDbSpline
 70
8
 71
3
 72
8
 73
4
 74
0
 40
0
 40
0
 40
0
 40
0
 40
1
 40
1
 40
1
 40
1
 10
339.004176
 20
547.421405
 30
0.0
 10
338.252703
 20
547.556482
 30
0.0
 10
337.756585
 20
548.270081
 30
0.0
 10
337.891684
 20
549.021503
 30
0.0
  0
LINE
  5
283
100
AcDbEntity
  8
Layer_1
 62
1
100
AcDbLine
 10
337.891684
 20
549.021503
 30
0.0
 11
337.891684
 21
549.021503
 31
0.0
  0
LINE
  5
284
100
AcDbEntity
  8
Layer_1
 62
1
100
AcDbLine
 10
349.138099
 20
611.586535
 30
0.0
 11
349.779392
 21
615.154163
 31
0.0
  0
SPLINE
  5
285
100
AcDbEntity
  8
Layer_1
 62
1
100
AcDbSpline
 70
8
 71
3
 72
8
 73
4
 74
0
 40
0
 40
0
 40
0
 40
0
 40
1
 40
1
 40
1
 40
1
 10
349.779392
 20
615.154163
 30
0.0
 10
349.914492
 20
615.905608
 30
0.0
 10
350.628063
 20
616.401726
 30
0.0
 10
351.379508
 20
616.266654
 30
0.0
  0
LINE
  5
286
100
AcDbEntity
  8
Layer_1
 62
1
100
AcDbLine
 10
351.379508
 20
616.266654
 30
0.0
 11
354.785986
 21
615.654317
 31
0.0
  0
SPLINE
  5
287
100
AcDbEntity
  8
Layer_1
 62
1
100
AcDbSpline
 70
8
 71
3
 72
8
 73
4
 74
0
 40
0
 40
0
 40
0
 40
0
 40
1
 40
1
 40
1
 40
1
 10
354.785986
 20
615.654317
 30
0.0
 10
356.097887
 20
617.040913
 30
0.0
 10
358.019804
 20
617.673719
 30
0.0
 10
359.898865
 20
617.337772
 30
0.0
  0
SPLINE
  5
288
100
AcDbEntity
  8
Layer_1
 62
1
100
AcDbSpline
 70
8
 71
3
 72
8
 73
4
 74
0
 40
0
 40
0
 40
0
 40
0
 40
1
 40
1
 40
1
 40
1
 10
359.898865
 20
617.337772
 30
0.0
 10
361.377869
 20
617.071931
 30
0.0
 10
362.690690
 20
616.229441
 30
0.0
 10
363.548516
 20
614.995642
 30
0.0
  0
SPLINE
  5
289
100
AcDbEntity
  8
Layer_1
 62
1
100
AcDbSpline
 70
8
 71
3
 72
8
 73
4
 74
0
 40
0
 40
0
 40
0
 40
0
 40
1
 40
1
 40
1
 40
1
 10
363.548516
 20
614.995642
 30
0.0
 10
364.406342
 20
613.761843
 30
0.0
 10
364.738903
 20
612.237805
 30
0.0
 10
364.473038
 20
610.758806
 30
0.0
  0
SPLINE
  5
28a
100
AcDbEntity
  8
Layer_1
 62
1
100
AcDbSpline
 70
8
 71
3
 72
8
 73
4
 74
0
 40
0
 40
0
 40
0
 40
0
 40
1
 40
1
 40
1
 40
1
 10
364.473038
 20
610.758806
 30
0.0
 10
364.207191
 20
609.279801
 30
0.0
 10
363.364693
 20
607.966982
 30
0.0
 10
362.130889
 20
607.109162
 30
0.0
  0
SPLINE
  5
28b
100
AcDbEntity
  8
Layer_1
 62
1
100
AcDbSpline
 70
8
 71
3
 72
8
 73
4
 74
0
 40
0
 40
0
 40
0
 40
0
 40
1
 40
1
 40
1
 40
1
 10
362.130889
 20
607.109162
 30
0.0
 10
360.897085
 20
606.251341
 30
0.0
 10
359.373043
 20
605.918787
 30
0.0
 10
357.894043
 20
606.184661
 30
0.0
  0
SPLINE
  5
28c
100
AcDbEntity
  8
Layer_1
 62
1
100
AcDbSpline
 70
8
 71
3
 72
8
 73
4
 74
0
 40
0
 40
0
 40
0
 40
0
 40
1
 40
1
 40
1
 40
1
 10
357.894043
 20
606.184661
 30
0.0
 10
356.089488
 20
606.511948
 30
0.0
 10
354.554963
 20
607.692453
 30
0.0
 10
353.775885
 20
609.352746
 30
0.0
  0
LINE
  5
28d
100
AcDbEntity
  8
Layer_1
 62
1
100
AcDbLine
 10
353.775885
 20
609.352746
 30
0.0
 11
350.250591
 21
609.986420
 31
0.0
  0
SPLINE
  5
28e
100
AcDbEntity
  8
Layer_1
 62
1
100
AcDbSpline
 70
8
 71
3
 72
8
 73
4
 74
0
 40
0
 40
0
 40
0
 40
0
 40
1
 40
1
 40
1
 40
1
 10
350.250591
 20
609.986420
 30
0.0
 10
349.499146
 20
610.121491
 30
0.0
 10
349.003027
 20
610.835090
 30
0.0
 10
349.138099
 20
611.586535
 30
0.0
  0
LINE
  5
28f
100
AcDbEntity
  8
Layer_1
 62
1
100
AcDbLine
 10
349.138099
 20
611.586535
 30
0.0
 11
349.138099
 21
611.586535
 31
0.0
  0
SPLINE
  5
290
100
AcDbEntity
  8
Layer_1
 62
1
100
AcDbSpline
 70
8
 71
3
 72
8
 73
4
 74
0
 40
0
 40
0
 40
0
 40
0
 40
1
 40
1
 40
1
 40
1
 10
42.399119
 20
619.138717
 30
0.0
 10
61.007526
 20
621.923122
 30
0.0
 10
69.789012
 20
639.447541
 30
0.0
 10
72.006545
 20
666.818299
 30
0.0
  0
SPLINE
  5
291
100
AcDbEntity
  8
Layer_1
 62
1
100
AcDbSpline
 70
8
 71
3
 72
8
 73
4
 74
0
 40
0
 40
0
 40
0
 40
0
 40
1
 40
1
 40
1
 40
1
 10
72.006545
 20
666.818299
 30
0.0
 10
75.920628
 20
673.630833
 30
0.0
 10
79.388236
 20
682.350596
 30
0.0
 10
81.731076
 20
691.783931
 30
0.0
  0
SPLINE
  5
292
100
AcDbEntity
  8
Layer_1
 62
1
100
AcDbSpline
 70
8
 71
3
 72
8
 73
4
 74
0
 40
0
 40
0
 40
0
 40
0
 40
1
 40
1
 40
1
 40
1
 10
81.731076
 20
691.783931
 30
0.0
 10
88.378453
 20
718.549152
 30
0.0
 10
85.968191
 20
751.056834
 30
0.0
 10
59.002253
 20
762.043492
 30
0.0
  0
LINE
  5
293
100
AcDbEntity
  8
Layer_1
 62
1
100
AcDbLine
 10
59.002253
 20
762.043492
 30
0.0
 11
59.002253
 21
691.862219
 31
0.0
  0
LINE
  5
294
100
AcDbEntity
  8
Layer_1
 62
1
100
AcDbLine
 10
59.002253
 20
691.862219
 30
0.0
 11
52.151195
 21
691.862219
 31
0.0
  0
LINE
  5
295
100
AcDbEntity
  8
Layer_1
 62
1
100
AcDbLine
 10
52.151195
 20
691.862219
 30
0.0
 11
52.151195
 21
764.230178
 31
0.0
  0
SPLINE
  5
296
100
AcDbEntity
  8
Layer_1
 62
1
100
AcDbSpline
 70
8
 71
3
 72
8
 73
4
 74
0
 40
0
 40
0
 40
0
 40
0
 40
1
 40
1
 40
1
 40
1
 10
52.151195
 20
764.230178
 30
0.0
 10
49.368851
 20
764.897351
 30
0.0
 10
46.378678
 20
765.374081
 30
0.0
 10
43.168062
 20
765.638523
 30
0.0
  0
SPLINE
  5
297
100
AcDbEntity
  8
Layer_1
 62
1
100
AcDbSpline
 70
8
 71
3
 72
8
 73
4
 74
0
 40
0
 40
0
 40
0
 40
0
 40
1
 40
1
 40
1
 40
1
 10
43.168062
 20
765.638523
 30
0.0
 10
39.480236
 20
765.813303
 30
0.0
 10
36.024227
 20
765.553405
 30
0.0
 10
32.800798
 20
764.907624
 30
0.0
  0
LINE
  5
298
100
AcDbEntity
  8
Layer_1
 62
1
100
AcDbLine
 10
32.800798
 20
764.907624
 30
0.0
 11
32.800798
 21
691.862219
 31
0.0
  0
LINE
  5
299
100
AcDbEntity
  8
Layer_1
 62
1
100
AcDbLine
 10
32.800798
 20
691.862219
 30
0.0
 11
25.950277
 21
691.862219
 31
0.0
  0
LINE
  5
29a
100
AcDbEntity
  8
Layer_1
 62
1
100
AcDbLine
 10
25.950277
 20
691.862219
 30
0.0
 11
25.950277
 21
762.824570
 31
0.0
  0
SPLINE
  5
29b
100
AcDbEntity
  8
Layer_1
 62
1
100
AcDbSpline
 70
8
 71
3
 72
8
 73
4
 74
0
 40
0
 40
0
 40
0
 40
0
 40
1
 40
1
 40
1
 40
1
 10
25.950277
 20
762.824570
 30
0.0
 10
3.202404
 20
753.328808
 30
0.0
 10
-4.811155
 20
721.771933
 30
0.0
 10
3.019721
 20
691.386505
 30
0.0
  0
SPLINE
  5
29c
100
AcDbEntity
  8
Layer_1
 62
1
100
AcDbSpline
 70
8
 71
3
 72
8
 73
4
 74
0
 40
0
 40
0
 40
0
 40
0
 40
1
 40
1
 40
1
 40
1
 10
3.019721
 20
691.386505
 30
0.0
 10
5.124789
 20
683.218317
 30
0.0
 10
8.374578
 20
675.134598
 30
0.0
 10
12.791130
 20
667.587242
 30
0.0
  0
SPLINE
  5
29d
100
AcDbEntity
  8
Layer_1
 62
1
100
AcDbSpline
 70
8
 71
3
 72
8
 73
4
 74
0
 40
0
 40
0
 40
0
 40
0
 40
1
 40
1
 40
1
 40
1
 10
12.791130
 20
667.587242
 30
0.0
 10
14.858210
 20
637.505316
 30
0.0
 10
26.000541
 20
623.628732
 30
0.0
 10
42.399119
 20
619.138717
 30
0.0
  0
LINE
  5
29e
100
AcDbEntity
  8
Layer_1
 62
1
100
AcDbLine
 10
42.399119
 20
619.138717
 30
0.0
 11
42.399119
 21
619.138717
 31
0.0
  0
LINE
  5
29f
100
AcDbEntity
  8
Layer_1
 62
1
100
AcDbLine
 10
287.916818
 20
465.803026
 30
0.0
 11
287.916818
 21
465.803026
 31
0.0
  0
SPLINE
  5
2a0
100
AcDbEntity
  8
Layer_1
 62
1
100
AcDbSpline
 70
8
 71
3
 72
8
 73
4
 74
0
 40
0
 40
0
 40
0
 40
0
 40
1
 40
1
 40
1
 40
1
 10
287.916818
 20
465.803026
 30
0.0
 10
287.916818
 20
465.842848
 30
0.0
 10
287.912020
 20
465.882726
 30
0.0
 10
287.910891
 20
465.922547
 30
0.0
  0
SPLINE
  5
2a1
100
AcDbEntity
  8
Layer_1
 62
1
100
AcDbSpline
 70
8
 71
3
 72
8
 73
4
 74
0
 40
0
 40
0
 40
0
 40
0
 40
1
 40
1
 40
1
 40
1
 10
287.910891
 20
465.922547
 30
0.0
 10
287.903271
 20
466.167940
 30
0.0
 10
287.891135
 20
466.414094
 30
0.0
 10
287.877617
 20
466.660163
 30
0.0
  0
SPLINE
  5
2a2
100
AcDbEntity
  8
Layer_1
 62
1
100
AcDbSpline
 70
8
 71
3
 72
8
 73
4
 74
0
 40
0
 40
0
 40
0
 40
0
 40
1
 40
1
 40
1
 40
1
 10
287.877617
 20
466.660163
 30
0.0
 10
287.873666
 20
466.728715
 30
0.0
 10
287.871408
 20
466.797182
 30
0.0
 10
287.867175
 20
466.865621
 30
0.0
  0
SPLINE
  5
2a3
100
AcDbEntity
  8
Layer_1
 62
1
100
AcDbSpline
 70
8
 71
3
 72
8
 73
4
 74
0
 40
0
 40
0
 40
0
 40
0
 40
1
 40
1
 40
1
 40
1
 10
287.867175
 20
466.865621
 30
0.0
 10
287.466447
 20
473.413713
 30
0.0
 10
285.004200
 20
480.207790
 30
0.0
 10
280.053449
 20
487.298736
 30
0.0
  0
SPLINE
  5
2a4
100
AcDbEntity
  8
Layer_1
 62
1
100
AcDbSpline
 70
8
 71
3
 72
8
 73
4
 74
0
 40
0
 40
0
 40
0
 40
0
 40
1
 40
1
 40
1
 40
1
 10
280.053449
 20
487.298736
 30
0.0
 10
263.951031
 20
501.374061
 30
0.0
 10
244.906902
 20
508.228787
 30
0.0
 10
226.667162
 20
509.566408
 30
0.0
  0
SPLINE
  5
2a5
100
AcDbEntity
  8
Layer_1
 62
1
100
AcDbSpline
 70
8
 71
3
 72
8
 73
4
 74
0
 40
0
 40
0
 40
0
 40
0
 40
1
 40
1
 40
1
 40
1
 10
226.667162
 20
509.566408
 30
0.0
 10
197.101477
 20
511.734524
 30
0.0
 10
169.652487
 20
499.405025
 30
0.0
 10
160.270404
 20
479.833760
 30
0.0
  0
LINE
  5
2a6
100
AcDbEntity
  8
Layer_1
 62
1
100
AcDbLine
 10
160.270404
 20
479.833760
 30
0.0
 11
227.056713
 21
480.955340
 31
0.0
  0
LINE
  5
2a7
100
AcDbEntity
  8
Layer_1
 62
1
100
AcDbLine
 10
227.056713
 20
480.955340
 30
0.0
 11
227.171747
 21
474.105806
 31
0.0
  0
LINE
  5
2a8
100
AcDbEntity
  8
Layer_1
 62
1
100
AcDbLine
 10
227.171747
 20
474.105806
 30
0.0
 11
157.809963
 21
472.940991
 31
0.0
  0
SPLINE
  5
2a9
100
AcDbEntity
  8
Layer_1
 62
1
100
AcDbSpline
 70
8
 71
3
 72
8
 73
4
 74
0
 40
0
 40
0
 40
0
 40
0
 40
1
 40
1
 40
1
 40
1
 10
157.809963
 20
472.940991
 30
0.0
 10
157.060973
 20
469.840497
 30
0.0
 10
156.734809
 20
466.603267
 30
0.0
 10
156.893305
 20
463.248746
 30
0.0
  0
SPLINE
  5
2aa
100
AcDbEntity
  8
Layer_1
 62
1
100
AcDbSpline
 70
8
 71
3
 72
8
 73
4
 74
0
 40
0
 40
0
 40
0
 40
0
 40
1
 40
1
 40
1
 40
1
 10
156.893305
 20
463.248746
 30
0.0
 10
156.847557
 20
459.890894
 30
0.0
 10
157.282236
 20
456.666703
 30
0.0
 10
158.134885
 20
453.593274
 30
0.0
  0
LINE
  5
2ab
100
AcDbEntity
  8
Layer_1
 62
1
100
AcDbLine
 10
158.134885
 20
453.593274
 30
0.0
 11
227.496669
 21
454.758118
 31
0.0
  0
LINE
  5
2ac
100
AcDbEntity
  8
Layer_1
 62
1
100
AcDbLine
 10
227.496669
 20
454.758118
 30
0.0
 11
227.611703
 21
447.908029
 31
0.0
  0
LINE
  5
2ad
100
AcDbEntity
  8
Layer_1
 62
1
100
AcDbLine
 10
227.611703
 20
447.908029
 30
0.0
 11
160.825931
 21
446.786450
 31
0.0
  0
SPLINE
  5
2ae
100
AcDbEntity
  8
Layer_1
 62
1
100
AcDbSpline
 70
8
 71
3
 72
8
 73
4
 74
0
 40
0
 40
0
 40
0
 40
0
 40
1
 40
1
 40
1
 40
1
 10
160.825931
 20
446.786450
 30
0.0
 10
170.857322
 20
427.546726
 30
0.0
 10
198.691686
 20
416.147056
 30
0.0
 10
228.158875
 20
419.297946
 30
0.0
  0
SPLINE
  5
2af
100
AcDbEntity
  8
Layer_1
 62
1
100
AcDbSpline
 70
8
 71
3
 72
8
 73
4
 74
0
 40
0
 40
0
 40
0
 40
0
 40
1
 40
1
 40
1
 40
1
 10
228.158875
 20
419.297946
 30
0.0
 10
246.350920
 20
421.243202
 30
0.0
 10
265.163938
 20
428.733798
 30
0.0
 10
280.791516
 20
443.348297
 30
0.0
  0
SPLINE
  5
2b0
100
AcDbEntity
  8
Layer_1
 62
1
100
AcDbSpline
 70
8
 71
3
 72
8
 73
4
 74
0
 40
0
 40
0
 40
0
 40
0
 40
1
 40
1
 40
1
 40
1
 10
280.791516
 20
443.348297
 30
0.0
 10
285.501419
 20
450.601493
 30
0.0
 10
287.734135
 20
457.474366
 30
0.0
 10
287.914757
 20
464.032223
 30
0.0
  0
SPLINE
  5
2b1
100
AcDbEntity
  8
Layer_1
 62
1
100
AcDbSpline
 70
8
 71
3
 72
8
 73
4
 74
0
 40
0
 40
0
 40
0
 40
0
 40
1
 40
1
 40
1
 40
1
 10
287.914757
 20
464.032223
 30
0.0
 10
287.914757
 20
464.100803
 30
0.0
 10
287.917580
 20
464.169298
 30
0.0
 10
287.917580
 20
464.237935
 30
0.0
  0
SPLINE
  5
2b2
100
AcDbEntity
  8
Layer_1
 62
1
100
AcDbSpline
 70
8
 71
3
 72
8
 73
4
 74
0
 40
0
 40
0
 40
0
 40
0
 40
1
 40
1
 40
1
 40
1
 10
287.917580
 20
464.237935
 30
0.0
 10
287.923788
 20
464.484343
 30
0.0
 10
287.927175
 20
464.730723
 30
0.0
 10
287.924917
 20
464.976284
 30
0.0
  0
SPLINE
  5
2b3
100
AcDbEntity
  8
Layer_1
 62
1
100
AcDbSpline
 70
8
 71
3
 72
8
 73
4
 74
0
 40
0
 40
0
 40
0
 40
0
 40
1
 40
1
 40
1
 40
1
 10
287.924917
 20
464.976284
 30
0.0
 10
287.924917
 20
465.133877
 30
0.0
 10
287.922095
 20
465.291865
 30
0.0
 10
287.919837
 20
465.449769
 30
0.0
  0
SPLINE
  5
2b4
100
AcDbEntity
  8
Layer_1
 62
1
100
AcDbSpline
 70
8
 71
3
 72
8
 73
4
 74
0
 40
0
 40
0
 40
0
 40
0
 40
1
 40
1
 40
1
 40
1
 10
287.919837
 20
465.449769
 30
0.0
 10
287.917015
 20
465.567540
 30
0.0
 10
287.919837
 20
465.685481
 30
0.0
 10
287.916733
 20
465.803083
 30
0.0
  0
LINE
  5
2b5
100
AcDbEntity
  8
Layer_1
 62
1
100
AcDbLine
 10
287.916733
 20
465.803083
 30
0.0
 11
287.916818
 21
465.803026
 31
0.0
  0
SPLINE
  5
2b6
100
AcDbEntity
  8
Layer_1
 62
1
100
AcDbSpline
 70
8
 71
3
 72
8
 73
4
 74
0
 40
0
 40
0
 40
0
 40
0
 40
1
 40
1
 40
1
 40
1
 10
166.300077
 20
647.991537
 30
0.0
 10
164.171641
 20
647.981659
 30
0.0
 10
162.397592
 20
647.174673
 30
0.0
 10
160.933452
 20
645.670372
 30
0.0
  0
SPLINE
  5
2b7
100
AcDbEntity
  8
Layer_1
 62
1
100
AcDbSpline
 70
8
 71
3
 72
8
 73
4
 74
0
 40
0
 40
0
 40
0
 40
0
 40
1
 40
1
 40
1
 40
1
 10
160.933452
 20
645.670372
 30
0.0
 10
159.890838
 20
645.076633
 30
0.0
 10
158.802279
 20
644.378556
 30
0.0
 10
157.652054
 20
643.542670
 30
0.0
  0
SPLINE
  5
2b8
100
AcDbEntity
  8
Layer_1
 62
1
100
AcDbSpline
 70
8
 71
3
 72
8
 73
4
 74
0
 40
0
 40
0
 40
0
 40
0
 40
1
 40
1
 40
1
 40
1
 10
157.652054
 20
643.542670
 30
0.0
 10
134.629833
 20
631.775951
 30
0.0
 10
139.849617
 20
615.549838
 30
0.0
 10
134.287158
 20
601.026344
 30
0.0
  0
SPLINE
  5
2b9
100
AcDbEntity
  8
Layer_1
 62
1
100
AcDbSpline
 70
8
 71
3
 72
8
 73
4
 74
0
 40
0
 40
0
 40
0
 40
0
 40
1
 40
1
 40
1
 40
1
 10
134.287158
 20
601.026344
 30
0.0
 10
127.166410
 20
594.331045
 30
0.0
 10
120.988932
 20
584.206266
 30
0.0
 10
118.058816
 20
572.721964
 30
0.0
  0
SPLINE
  5
2ba
100
AcDbEntity
  8
Layer_1
 62
1
100
AcDbSpline
 70
8
 71
3
 72
8
 73
4
 74
0
 40
0
 40
0
 40
0
 40
0
 40
1
 40
1
 40
1
 40
1
 10
118.058816
 20
572.721964
 30
0.0
 10
113.225055
 20
553.776409
 30
0.0
 10
117.229196
 20
531.131124
 30
0.0
 10
140.416094
 20
514.079282
 30
0.0
  0
SPLINE
  5
2bb
100
AcDbEntity
  8
Layer_1
 62
1
100
AcDbSpline
 70
8
 71
3
 72
8
 73
4
 74
0
 40
0
 40
0
 40
0
 40
0
 40
1
 40
1
 40
1
 40
1
 10
140.416094
 20
514.079282
 30
0.0
 10
143.636362
 20
513.835245
 30
0.0
 10
147.006858
 20
514.276781
 30
0.0
 10
150.708400
 20
514.840492
 30
0.0
  0
LINE
  5
2bc
100
AcDbEntity
  8
Layer_1
 62
1
100
AcDbLine
 10
150.708400
 20
514.840492
 30
0.0
 11
150.708400
 21
572.477249
 31
0.0
  0
LINE
  5
2bd
100
AcDbEntity
  8
Layer_1
 62
1
100
AcDbLine
 10
150.708400
 20
572.477249
 30
0.0
 11
157.559457
 21
572.477249
 31
0.0
  0
LINE
  5
2be
100
AcDbEntity
  8
Layer_1
 62
1
100
AcDbLine
 10
157.559457
 20
572.477249
 30
0.0
 11
157.559457
 21
515.562586
 31
0.0
  0
SPLINE
  5
2bf
100
AcDbEntity
  8
Layer_1
 62
1
100
AcDbSpline
 70
8
 71
3
 72
8
 73
4
 74
0
 40
0
 40
0
 40
0
 40
0
 40
1
 40
1
 40
1
 40
1
 10
157.559457
 20
515.562586
 30
0.0
 10
161.037140
 20
516.159119
 30
0.0
 10
164.246600
 20
516.411482
 30
0.0
 10
167.234373
 20
516.442329
 30
0.0
  0
SPLINE
  5
2c0
100
AcDbEntity
  8
Layer_1
 62
1
100
AcDbSpline
 70
8
 71
3
 72
8
 73
4
 74
0
 40
0
 40
0
 40
0
 40
0
 40
1
 40
1
 40
1
 40
1
 10
167.234373
 20
516.442329
 30
0.0
 10
170.222091
 20
516.411313
 30
0.0
 10
173.432171
 20
516.159034
 30
0.0
 10
176.909854
 20
515.562586
 30
0.0
  0
LINE
  5
2c1
100
AcDbEntity
  8
Layer_1
 62
1
100
AcDbLine
 10
176.909854
 20
515.562586
 30
0.0
 11
176.909854
 21
572.477249
 31
0.0
  0
LINE
  5
2c2
100
AcDbEntity
  8
Layer_1
 62
1
100
AcDbLine
 10
176.909854
 20
572.477249
 30
0.0
 11
183.760375
 21
572.477249
 31
0.0
  0
LINE
  5
2c3
100
AcDbEntity
  8
Layer_1
 62
1
100
AcDbLine
 10
183.760375
 20
572.477249
 30
0.0
 11
183.760375
 21
514.839391
 31
0.0
  0
SPLINE
  5
2c4
100
AcDbEntity
  8
Layer_1
 62
1
100
AcDbSpline
 70
8
 71
3
 72
8
 73
4
 74
0
 40
0
 40
0
 40
0
 40
0
 40
1
 40
1
 40
1
 40
1
 10
183.760375
 20
514.839391
 30
0.0
 10
186.768921
 20
514.381288
 30
0.0
 10
189.558208
 20
514.004352
 30
0.0
 10
192.222639
 20
514.009827
 30
0.0
  0
SPLINE
  5
2c5
100
AcDbEntity
  8
Layer_1
 62
1
100
AcDbSpline
 70
8
 71
3
 72
8
 73
4
 74
0
 40
0
 40
0
 40
0
 40
0
 40
1
 40
1
 40
1
 40
1
 10
192.222639
 20
514.009827
 30
0.0
 10
192.838618
 20
514.009827
 30
0.0
 10
193.448274
 20
514.033534
 30
0.0
 10
194.053217
 20
514.079282
 30
0.0
  0
SPLINE
  5
2c6
100
AcDbEntity
  8
Layer_1
 62
1
100
AcDbSpline
 70
8
 71
3
 72
8
 73
4
 74
0
 40
0
 40
0
 40
0
 40
0
 40
1
 40
1
 40
1
 40
1
 10
194.053217
 20
514.079282
 30
0.0
 10
217.201451
 20
531.102704
 30
0.0
 10
221.230709
 20
553.700830
 30
0.0
 10
216.434202
 20
572.627166
 30
0.0
  0
SPLINE
  5
2c7
100
AcDbEntity
  8
Layer_1
 62
1
100
AcDbSpline
 70
8
 71
3
 72
8
 73
4
 74
0
 40
0
 40
0
 40
0
 40
0
 40
1
 40
1
 40
1
 40
1
 10
216.434202
 20
572.627166
 30
0.0
 10
213.513851
 20
584.150499
 30
0.0
 10
207.321923
 20
594.312616
 30
0.0
 10
200.181616
 20
601.026344
 30
0.0
  0
SPLINE
  5
2c8
100
AcDbEntity
  8
Layer_1
 62
1
100
AcDbSpline
 70
8
 71
3
 72
8
 73
4
 74
0
 40
0
 40
0
 40
0
 40
0
 40
1
 40
1
 40
1
 40
1
 10
200.181616
 20
601.026344
 30
0.0
 10
194.619129
 20
615.549838
 30
0.0
 10
199.838942
 20
631.775951
 30
0.0
 10
176.816721
 20
643.542670
 30
0.0
  0
SPLINE
  5
2c9
100
AcDbEntity
  8
Layer_1
 62
1
100
AcDbSpline
 70
8
 71
3
 72
8
 73
4
 74
0
 40
0
 40
0
 40
0
 40
0
 40
1
 40
1
 40
1
 40
1
 10
176.816721
 20
643.542670
 30
0.0
 10
175.666496
 20
644.378556
 30
0.0
 10
174.578501
 20
645.076633
 30
0.0
 10
173.535888
 20
645.670372
 30
0.0
  0
SPLINE
  5
2ca
100
AcDbEntity
  8
Layer_1
 62
1
100
AcDbSpline
 70
8
 71
3
 72
8
 73
4
 74
0
 40
0
 40
0
 40
0
 40
0
 40
1
 40
1
 40
1
 40
1
 10
173.535888
 20
645.670372
 30
0.0
 10
171.862366
 20
647.389754
 30
0.0
 10
169.783969
 20
648.198180
 30
0.0
 10
167.234373
 20
647.946325
 30
0.0
  0
SPLINE
  5
2cb
100
AcDbEntity
  8
Layer_1
 62
1
100
AcDbSpline
 70
8
 71
3
 72
8
 73
4
 74
0
 40
0
 40
0
 40
0
 40
0
 40
1
 40
1
 40
1
 40
1
 10
167.234373
 20
647.946325
 30
0.0
 10
166.915716
 20
647.977764
 30
0.0
 10
166.604143
 20
647.992920
 30
0.0
 10
166.300077
 20
647.991537
 30
0.0
  0
LINE
  5
2cc
100
AcDbEntity
  8
Layer_1
 62
1
100
AcDbLine
 10
166.300077
 20
647.991537
 30
0.0
 11
166.300077
 21
647.991537
 31
0.0
  0
SPLINE
  5
2cd
100
AcDbEntity
  8
Layer_1
 62
1
100
AcDbSpline
 70
8
 71
3
 72
8
 73
4
 74
0
 40
0
 40
0
 40
0
 40
0
 40
1
 40
1
 40
1
 40
1
 10
251.924679
 20
736.137665
 30
0.0
 10
254.192899
 20
736.090336
 30
0.0
 10
256.287637
 20
736.641206
 30
0.0
 10
258.087820
 20
737.679953
 30
0.0
  0
SPLINE
  5
2ce
100
AcDbEntity
  8
Layer_1
 62
1
100
AcDbSpline
 70
8
 71
3
 72
8
 73
4
 74
0
 40
0
 40
0
 40
0
 40
0
 40
1
 40
1
 40
1
 40
1
 10
258.087820
 20
737.679953
 30
0.0
 10
258.374952
 20
737.816689
 30
0.0
 10
258.662593
 20
737.959381
 30
0.0
 10
258.951561
 20
738.115422
 30
0.0
  0
SPLINE
  5
2cf
100
AcDbEntity
  8
Layer_1
 62
1
100
AcDbSpline
 70
8
 71
3
 72
8
 73
4
 74
0
 40
0
 40
0
 40
0
 40
0
 40
1
 40
1
 40
1
 40
1
 10
258.951561
 20
738.115422
 30
0.0
 10
268.600484
 20
743.941674
 30
0.0
 10
275.700236
 20
752.664739
 30
0.0
 10
276.030436
 20
769.080505
 30
0.0
  0
SPLINE
  5
2d0
100
AcDbEntity
  8
Layer_1
 62
1
100
AcDbSpline
 70
8
 71
3
 72
8
 73
4
 74
0
 40
0
 40
0
 40
0
 40
0
 40
1
 40
1
 40
1
 40
1
 10
276.030436
 20
769.080505
 30
0.0
 10
282.881070
 20
779.637479
 30
0.0
 10
286.768512
 20
790.012165
 30
0.0
 10
288.439945
 20
799.572076
 30
0.0
  0
SPLINE
  5
2d1
100
AcDbEntity
  8
Layer_1
 62
1
100
AcDbSpline
 70
8
 71
3
 72
8
 73
4
 74
0
 40
0
 40
0
 40
0
 40
0
 40
1
 40
1
 40
1
 40
1
 10
288.439945
 20
799.572076
 30
0.0
 10
292.928830
 20
825.246114
 30
0.0
 10
281.436092
 20
845.039459
 30
0.0
 10
268.444049
 20
846.705925
 30
0.0
  0
LINE
  5
2d2
100
AcDbEntity
  8
Layer_1
 62
1
100
AcDbLine
 10
268.444049
 20
846.705925
 30
0.0
 11
268.444049
 21
799.905014
 31
0.0
  0
LINE
  5
2d3
100
AcDbEntity
  8
Layer_1
 62
1
100
AcDbLine
 10
268.444049
 20
799.905014
 30
0.0
 11
261.593556
 21
799.905014
 31
0.0
  0
LINE
  5
2d4
100
AcDbEntity
  8
Layer_1
 62
1
100
AcDbLine
 10
261.593556
 20
799.905014
 30
0.0
 11
261.593556
 21
842.252656
 31
0.0
  0
SPLINE
  5
2d5
100
AcDbEntity
  8
Layer_1
 62
1
100
AcDbSpline
 70
8
 71
3
 72
8
 73
4
 74
0
 40
0
 40
0
 40
0
 40
0
 40
1
 40
1
 40
1
 40
1
 10
261.593556
 20
842.252656
 30
0.0
 10
258.274002
 20
839.673822
 30
0.0
 10
254.983657
 20
838.657878
 30
0.0
 10
251.924679
 20
838.607474
 30
0.0
  0
SPLINE
  5
2d6
100
AcDbEntity
  8
Layer_1
 62
1
100
AcDbSpline
 70
8
 71
3
 72
8
 73
4
 74
0
 40
0
 40
0
 40
0
 40
0
 40
1
 40
1
 40
1
 40
1
 10
251.924679
 20
838.607474
 30
0.0
 10
248.861806
 20
838.657963
 30
0.0
 10
245.566946
 20
839.675995
 30
0.0
 10
242.243130
 20
842.262026
 30
0.0
  0
LINE
  5
2d7
100
AcDbEntity
  8
Layer_1
 62
1
100
AcDbLine
 10
242.243130
 20
842.262026
 30
0.0
 11
242.243130
 21
799.905014
 31
0.0
  0
LINE
  5
2d8
100
AcDbEntity
  8
Layer_1
 62
1
100
AcDbLine
 10
242.243130
 20
799.905014
 30
0.0
 11
235.392637
 21
799.905014
 31
0.0
  0
LINE
  5
2d9
100
AcDbEntity
  8
Layer_1
 62
1
100
AcDbLine
 10
235.392637
 20
799.905014
 30
0.0
 11
235.392637
 21
846.706489
 31
0.0
  0
SPLINE
  5
2da
100
AcDbEntity
  8
Layer_1
 62
1
100
AcDbSpline
 70
8
 71
3
 72
8
 73
4
 74
0
 40
0
 40
0
 40
0
 40
0
 40
1
 40
1
 40
1
 40
1
 10
235.392637
 20
846.706489
 30
0.0
 10
224.250702
 20
845.266930
 30
0.0
 10
214.215359
 20
830.494911
 30
0.0
 10
214.422736
 20
810.119031
 30
0.0
  0
LINE
  5
2db
100
AcDbEntity
  8
Layer_1
 62
1
100
AcDbLine
 10
214.422736
 20
810.119031
 30
0.0
 11
214.422736
 21
810.121853
 31
0.0
  0
SPLINE
  5
2dc
100
AcDbEntity
  8
Layer_1
 62
1
100
AcDbSpline
 70
8
 71
3
 72
8
 73
4
 74
0
 40
0
 40
0
 40
0
 40
0
 40
1
 40
1
 40
1
 40
1
 10
214.422736
 20
810.121853
 30
0.0
 10
214.456716
 20
806.787990
 30
0.0
 10
214.764479
 20
803.304352
 30
0.0
 10
215.386807
 20
799.704438
 30
0.0
  0
SPLINE
  5
2dd
100
AcDbEntity
  8
Layer_1
 62
1
100
AcDbSpline
 70
8
 71
3
 72
8
 73
4
 74
0
 40
0
 40
0
 40
0
 40
0
 40
1
 40
1
 40
1
 40
1
 10
215.386807
 20
799.704438
 30
0.0
 10
217.045568
 20
790.108826
 30
0.0
 10
220.936764
 20
779.688138
 30
0.0
 10
227.818386
 20
769.083327
 30
0.0
  0
SPLINE
  5
2de
100
AcDbEntity
  8
Layer_1
 62
1
100
AcDbSpline
 70
8
 71
3
 72
8
 73
4
 74
0
 40
0
 40
0
 40
0
 40
0
 40
1
 40
1
 40
1
 40
1
 10
227.818386
 20
769.083327
 30
0.0
 10
228.148586
 20
752.667590
 30
0.0
 10
235.248309
 20
743.944524
 30
0.0
 10
244.897233
 20
738.118272
 30
0.0
  0
SPLINE
  5
2df
100
AcDbEntity
  8
Layer_1
 62
1
100
AcDbSpline
 70
8
 71
3
 72
8
 73
4
 74
0
 40
0
 40
0
 40
0
 40
0
 40
1
 40
1
 40
1
 40
1
 10
244.897233
 20
738.118272
 30
0.0
 10
245.184732
 20
737.963022
 30
0.0
 10
245.471978
 20
737.821713
 30
0.0
 10
245.757672
 20
737.685569
 30
0.0
  0
LINE
  5
2e0
100
AcDbEntity
  8
Layer_1
 62
1
100
AcDbLine
 10
245.757672
 20
737.685569
 30
0.0
 11
245.762187
 21
737.681053
 31
0.0
  0
SPLINE
  5
2e1
100
AcDbEntity
  8
Layer_1
 62
1
100
AcDbSpline
 70
8
 71
3
 72
8
 73
4
 74
0
 40
0
 40
0
 40
0
 40
0
 40
1
 40
1
 40
1
 40
1
 10
245.762187
 20
737.681053
 30
0.0
 10
247.562426
 20
736.642250
 30
0.0
 10
249.657418
 20
736.091352
 30
0.0
 10
251.925864
 20
736.138765
 30
0.0
  0
LINE
  5
2e2
100
AcDbEntity
  8
Layer_1
 62
1
100
AcDbLine
 10
251.925864
 20
736.138765
 30
0.0
 11
251.924679
 21
736.137665
 31
0.0
  0
SPLINE
  5
2e3
100
AcDbEntity
  8
Layer_1
 62
1
100
AcDbSpline
 70
8
 71
3
 72
8
 73
4
 74
0
 40
0
 40
0
 40
0
 40
0
 40
1
 40
1
 40
1
 40
1
 10
24.177466
 20
552.653924
 30
0.0
 10
30.965815
 20
552.748524
 30
0.0
 10
37.680615
 20
558.985551
 30
0.0
 10
37.312371
 20
571.552878
 30
0.0
  0
SPLINE
  5
2e4
100
AcDbEntity
  8
Layer_1
 62
1
100
AcDbSpline
 70
8
 71
3
 72
8
 73
4
 74
0
 40
0
 40
0
 40
0
 40
0
 40
1
 40
1
 40
1
 40
1
 10
37.312371
 20
571.552878
 30
0.0
 10
42.022886
 20
574.537802
 30
0.0
 10
46.425299
 20
580.920579
 30
0.0
 10
45.910779
 20
587.077878
 30
0.0
  0
SPLINE
  5
2e5
100
AcDbEntity
  8
Layer_1
 62
1
100
AcDbSpline
 70
8
 71
3
 72
8
 73
4
 74
0
 40
0
 40
0
 40
0
 40
0
 40
1
 40
1
 40
1
 40
1
 10
45.910779
 20
587.077878
 30
0.0
 10
45.644954
 20
590.259199
 30
0.0
 10
44.063889
 20
593.379589
 30
0.0
 10
40.537551
 20
595.940869
 30
0.0
  0
LINE
  5
2e6
100
AcDbEntity
  8
Layer_1
 62
1
100
AcDbLine
 10
40.537551
 20
595.940869
 30
0.0
 11
40.537551
 21
586.808892
 31
0.0
  0
LINE
  5
2e7
100
AcDbEntity
  8
Layer_1
 62
1
100
AcDbLine
 10
40.537551
 20
586.808892
 30
0.0
 11
33.687029
 21
586.808892
 31
0.0
  0
LINE
  5
2e8
100
AcDbEntity
  8
Layer_1
 62
1
100
AcDbLine
 10
33.687029
 20
586.808892
 30
0.0
 11
33.687029
 21
605.334128
 31
0.0
  0
SPLINE
  5
2e9
100
AcDbEntity
  8
Layer_1
 62
1
100
AcDbSpline
 70
8
 71
3
 72
8
 73
4
 74
0
 40
0
 40
0
 40
0
 40
0
 40
1
 40
1
 40
1
 40
1
 10
33.687029
 20
605.334128
 30
0.0
 10
26.230830
 20
612.561472
 30
0.0
 10
19.957933
 20
611.745708
 30
0.0
 10
14.530659
 20
605.176478
 30
0.0
  0
LINE
  5
2ea
100
AcDbEntity
  8
Layer_1
 62
1
100
AcDbLine
 10
14.530659
 20
605.176478
 30
0.0
 11
14.336067
 21
604.606530
 31
0.0
  0
LINE
  5
2eb
100
AcDbEntity
  8
Layer_1
 62
1
100
AcDbLine
 10
14.336067
 20
604.606530
 30
0.0
 11
14.336067
 21
586.808892
 31
0.0
  0
LINE
  5
2ec
100
AcDbEntity
  8
Layer_1
 62
1
100
AcDbLine
 10
14.336067
 20
586.808892
 30
0.0
 11
7.485574
 21
586.808892
 31
0.0
  0
LINE
  5
2ed
100
AcDbEntity
  8
Layer_1
 62
1
100
AcDbLine
 10
7.485574
 20
586.808892
 30
0.0
 11
7.485574
 21
595.728102
 31
0.0
  0
SPLINE
  5
2ee
100
AcDbEntity
  8
Layer_1
 62
1
100
AcDbSpline
 70
8
 71
3
 72
8
 73
4
 74
0
 40
0
 40
0
 40
0
 40
0
 40
1
 40
1
 40
1
 40
1
 10
7.485574
 20
595.728102
 30
0.0
 10
4.353782
 20
593.192984
 30
0.0
 10
2.656921
 20
590.228042
 30
0.0
 10
2.199411
 20
587.119223
 30
0.0
  0
SPLINE
  5
2ef
100
AcDbEntity
  8
Layer_1
 62
1
100
AcDbSpline
 70
8
 71
3
 72
8
 73
4
 74
0
 40
0
 40
0
 40
0
 40
0
 40
1
 40
1
 40
1
 40
1
 10
2.199411
 20
587.119223
 30
0.0
 10
1.375519
 20
581.520414
 30
0.0
 10
4.565223
 20
575.457310
 30
0.0
 10
10.602690
 20
570.610312
 30
0.0
  0
SPLINE
  5
2f0
100
AcDbEntity
  8
Layer_1
 62
1
100
AcDbSpline
 70
8
 71
3
 72
8
 73
4
 74
0
 40
0
 40
0
 40
0
 40
0
 40
1
 40
1
 40
1
 40
1
 10
10.602690
 20
570.610312
 30
0.0
 10
10.527675
 20
558.607232
 30
0.0
 10
17.389147
 20
552.559294
 30
0.0
 10
24.177466
 20
552.653924
 30
0.0
  0
LINE
  5
2f1
100
AcDbEntity
  8
Layer_1
 62
1
100
AcDbLine
 10
24.177466
 20
552.653924
 30
0.0
 11
24.177466
 21
552.653924
 31
0.0
  0
LINE
  5
2f2
100
AcDbEntity
  8
Layer_1
 62
1
100
AcDbLine
 10
59.784494
 20
913.920139
 30
0.0
 11
59.673721
 21
913.772395
 31
0.0
  0
SPLINE
  5
2f3
100
AcDbEntity
  8
Layer_1
 62
1
100
AcDbSpline
 70
8
 71
3
 72
8
 73
4
 74
0
 40
0
 40
0
 40
0
 40
0
 40
1
 40
1
 40
1
 40
1
 10
59.673721
 20
913.772395
 30
0.0
 10
32.119350
 20
908.930930
 30
0.0
 10
23.872478
 20
882.494468
 30
0.0
 10
23.845272
 20
866.431254
 30
0.0
  0
SPLINE
  5
2f4
100
AcDbEntity
  8
Layer_1
 62
1
100
AcDbSpline
 70
8
 71
3
 72
8
 73
4
 74
0
 40
0
 40
0
 40
0
 40
0
 40
1
 40
1
 40
1
 40
1
 10
23.845272
 20
866.431254
 30
0.0
 10
15.846501
 20
859.947763
 30
0.0
 10
9.504404
 20
849.803229
 30
0.0
 10
5.827697
 20
838.573917
 30
0.0
  0
SPLINE
  5
2f5
100
AcDbEntity
  8
Layer_1
 62
1
100
AcDbSpline
 70
8
 71
3
 72
8
 73
4
 74
0
 40
0
 40
0
 40
0
 40
0
 40
1
 40
1
 40
1
 40
1
 10
5.827697
 20
838.573917
 30
0.0
 10
-3.338937
 20
810.577529
 30
0.0
 10
4.061776
 20
775.839812
 30
0.0
 10
43.646575
 20
774.280167
 30
0.0
  0
LINE
  5
2f6
100
AcDbEntity
  8
Layer_1
 62
1
100
AcDbLine
 10
43.646575
 20
774.280167
 30
0.0
 11
43.646575
 21
838.193595
 31
0.0
  0
LINE
  5
2f7
100
AcDbEntity
  8
Layer_1
 62
1
100
AcDbLine
 10
43.646575
 20
838.193595
 30
0.0
 11
50.492666
 21
838.193595
 31
0.0
  0
LINE
  5
2f8
100
AcDbEntity
  8
Layer_1
 62
1
100
AcDbLine
 10
50.492666
 20
838.193595
 30
0.0
 11
50.492666
 21
775.339630
 31
0.0
  0
LINE
  5
2f9
100
AcDbEntity
  8
Layer_1
 62
1
100
AcDbLine
 10
50.492666
 20
775.339630
 30
0.0
 11
60.162643
 21
777.602911
 31
0.0
  0
LINE
  5
2fa
100
AcDbEntity
  8
Layer_1
 62
1
100
AcDbLine
 10
60.162643
 20
777.602911
 30
0.0
 11
69.830956
 21
775.340166
 31
0.0
  0
LINE
  5
2fb
100
AcDbEntity
  8
Layer_1
 62
1
100
AcDbLine
 10
69.830956
 20
775.340166
 30
0.0
 11
69.830956
 21
838.193595
 31
0.0
  0
LINE
  5
2fc
100
AcDbEntity
  8
Layer_1
 62
1
100
AcDbLine
 10
69.830956
 20
838.193595
 30
0.0
 11
76.677046
 21
838.193595
 31
0.0
  0
LINE
  5
2fd
100
AcDbEntity
  8
Layer_1
 62
1
100
AcDbLine
 10
76.677046
 20
838.193595
 30
0.0
 11
76.677046
 21
774.281832
 31
0.0
  0
SPLINE
  5
2fe
100
AcDbEntity
  8
Layer_1
 62
1
100
AcDbSpline
 70
8
 71
3
 72
8
 73
4
 74
0
 40
0
 40
0
 40
0
 40
0
 40
1
 40
1
 40
1
 40
1
 10
76.677046
 20
774.281832
 30
0.0
 10
106.696600
 20
775.464259
 30
0.0
 10
118.209122
 20
795.725246
 30
0.0
 10
118.020936
 20
817.659727
 30
0.0
  0
SPLINE
  5
2ff
100
AcDbEntity
  8
Layer_1
 62
1
100
AcDbSpline
 70
8
 71
3
 72
8
 73
4
 74
0
 40
0
 40
0
 40
0
 40
0
 40
1
 40
1
 40
1
 40
1
 10
118.020936
 20
817.659727
 30
0.0
 10
117.961641
 20
824.567878
 30
0.0
 10
116.742216
 20
831.641298
 30
0.0
 10
114.575313
 20
838.336907
 30
0.0
  0
SPLINE
  5
300
100
AcDbEntity
  8
Layer_1
 62
1
100
AcDbSpline
 70
8
 71
3
 72
8
 73
4
 74
0
 40
0
 40
0
 40
0
 40
0
 40
1
 40
1
 40
1
 40
1
 10
114.575313
 20
838.336907
 30
0.0
 10
110.910686
 20
849.660340
 30
0.0
 10
104.536613
 20
859.902241
 30
0.0
 10
96.481652
 20
866.431254
 30
0.0
  0
SPLINE
  5
301
100
AcDbEntity
  8
Layer_1
 62
1
100
AcDbSpline
 70
8
 71
3
 72
8
 73
4
 74
0
 40
0
 40
0
 40
0
 40
0
 40
1
 40
1
 40
1
 40
1
 10
96.481652
 20
866.431254
 30
0.0
 10
96.454276
 20
882.494468
 30
0.0
 10
88.207065
 20
908.930930
 30
0.0
 10
60.652666
 20
913.772395
 30
0.0
  0
LINE
  5
302
100
AcDbEntity
  8
Layer_1
 62
1
100
AcDbLine
 10
60.652666
 20
913.772395
 30
0.0
 11
60.541865
 21
913.920139
 31
0.0
  0
SPLINE
  5
303
100
AcDbEntity
  8
Layer_1
 62
1
100
AcDbSpline
 70
8
 71
3
 72
8
 73
4
 74
0
 40
0
 40
0
 40
0
 40
0
 40
1
 40
1
 40
1
 40
1
 10
60.541865
 20
913.920139
 30
0.0
 10
60.414244
 20
913.900383
 30
0.0
 10
60.290010
 20
913.876535
 30
0.0
 10
60.163179
 20
913.855623
 30
0.0
  0
SPLINE
  5
304
100
AcDbEntity
  8
Layer_1
 62
1
100
AcDbSpline
 70
8
 71
3
 72
8
 73
4
 74
0
 40
0
 40
0
 40
0
 40
0
 40
1
 40
1
 40
1
 40
1
 10
60.163179
 20
913.855623
 30
0.0
 10
60.036321
 20
913.876789
 30
0.0
 10
59.912115
 20
913.900101
 30
0.0
 10
59.784494
 20
913.920139
 30
0.0
  0
LINE
  5
305
100
AcDbEntity
  8
Layer_1
 62
1
100
AcDbLine
 10
59.784494
 20
913.920139
 30
0.0
 11
59.784494
 21
913.920139
 31
0.0
  0
LINE
  5
306
100
AcDbEntity
  8
Layer_1
 62
1
100
AcDbLine
 10
104.590421
 20
429.620582
 30
0.0
 11
104.590421
 21
429.620582
 31
0.0
  0
SPLINE
  5
307
100
AcDbEntity
  8
Layer_1
 62
1
100
AcDbSpline
 70
8
 71
3
 72
8
 73
4
 74
0
 40
0
 40
0
 40
0
 40
0
 40
1
 40
1
 40
1
 40
1
 10
104.590421
 20
429.620582
 30
0.0
 10
108.701242
 20
433.750820
 30
0.0
 10
110.910816
 20
437.998377
 30
0.0
 10
112.322633
 20
442.063563
 30
0.0
  0
SPLINE
  5
308
100
AcDbEntity
  8
Layer_1
 62
1
100
AcDbSpline
 70
8
 71
3
 72
8
 73
4
 74
0
 40
0
 40
0
 40
0
 40
0
 40
1
 40
1
 40
1
 40
1
 10
112.322633
 20
442.063563
 30
0.0
 10
112.483302
 20
442.403866
 30
0.0
 10
112.644281
 20
442.737114
 30
0.0
 10
112.803596
 20
443.087860
 30
0.0
  0
LINE
  5
309
100
AcDbEntity
  8
Layer_1
 62
1
100
AcDbLine
 10
112.803596
 20
443.087860
 30
0.0
 11
112.692231
 21
443.174474
 31
0.0
  0
SPLINE
  5
30a
100
AcDbEntity
  8
Layer_1
 62
1
100
AcDbSpline
 70
8
 71
3
 72
8
 73
4
 74
0
 40
0
 40
0
 40
0
 40
0
 40
1
 40
1
 40
1
 40
1
 10
112.692231
 20
443.174474
 30
0.0
 10
113.382236
 20
445.355120
 30
0.0
 10
113.867489
 20
447.474327
 30
0.0
 10
114.323024
 20
449.484031
 30
0.0
  0
SPLINE
  5
30b
100
AcDbEntity
  8
Layer_1
 62
1
100
AcDbSpline
 70
8
 71
3
 72
8
 73
4
 74
0
 40
0
 40
0
 40
0
 40
0
 40
1
 40
1
 40
1
 40
1
 10
114.323024
 20
449.484031
 30
0.0
 10
114.293362
 20
467.149421
 30
0.0
 10
106.746486
 20
487.401631
 30
0.0
 10
94.561005
 20
503.360903
 30
0.0
  0
SPLINE
  5
30c
100
AcDbEntity
  8
Layer_1
 62
1
100
AcDbSpline
 70
8
 71
3
 72
8
 73
4
 74
0
 40
0
 40
0
 40
0
 40
0
 40
1
 40
1
 40
1
 40
1
 10
94.561005
 20
503.360903
 30
0.0
 10
78.277178
 20
524.687618
 30
0.0
 10
53.709310
 20
538.342404
 30
0.0
 10
27.726691
 20
527.918611
 30
0.0
  0
LINE
  5
30d
100
AcDbEntity
  8
Layer_1
 62
1
100
AcDbLine
 10
27.726691
 20
527.918611
 30
0.0
 11
73.610577
 21
482.034752
 31
0.0
  0
LINE
  5
30e
100
AcDbEntity
  8
Layer_1
 62
1
100
AcDbLine
 10
73.610577
 20
482.034752
 30
0.0
 11
68.766543
 21
477.190718
 31
0.0
  0
LINE
  5
30f
100
AcDbEntity
  8
Layer_1
 62
1
100
AcDbLine
 10
68.766543
 20
477.190718
 30
0.0
 11
21.171572
 21
524.785662
 31
0.0
  0
SPLINE
  5
310
100
AcDbEntity
  8
Layer_1
 62
1
100
AcDbSpline
 70
8
 71
3
 72
8
 73
4
 74
0
 40
0
 40
0
 40
0
 40
0
 40
1
 40
1
 40
1
 40
1
 10
21.171572
 20
524.785662
 30
0.0
 10
18.719738
 20
523.420327
 30
0.0
 10
16.260426
 20
521.833645
 30
0.0
 10
13.799504
 20
520.007893
 30
0.0
  0
LINE
  5
311
100
AcDbEntity
  8
Layer_1
 62
1
100
AcDbLine
 10
13.799504
 20
520.007893
 30
0.0
 11
13.570340
 21
520.186399
 31
0.0
  0
SPLINE
  5
312
100
AcDbEntity
  8
Layer_1
 62
1
100
AcDbSpline
 70
8
 71
3
 72
8
 73
4
 74
0
 40
0
 40
0
 40
0
 40
0
 40
1
 40
1
 40
1
 40
1
 10
13.570340
 20
520.186399
 30
0.0
 10
13.350743
 20
519.907366
 30
0.0
 10
13.137862
 20
519.627853
 30
0.0
 10
12.924446
 20
519.348820
 30
0.0
  0
SPLINE
  5
313
100
AcDbEntity
  8
Layer_1
 62
1
100
AcDbSpline
 70
8
 71
3
 72
8
 73
4
 74
0
 40
0
 40
0
 40
0
 40
0
 40
1
 40
1
 40
1
 40
1
 10
12.924446
 20
519.348820
 30
0.0
 10
12.645610
 20
519.135545
 30
0.0
 10
12.366521
 20
518.923116
 30
0.0
 10
12.087629
 20
518.703716
 30
0.0
  0
LINE
  5
314
100
AcDbEntity
  8
Layer_1
 62
1
100
AcDbLine
 10
12.087629
 20
518.703716
 30
0.0
 11
12.266163
 21
518.474552
 31
0.0
  0
SPLINE
  5
315
100
AcDbEntity
  8
Layer_1
 62
1
100
AcDbSpline
 70
8
 71
3
 72
8
 73
4
 74
0
 40
0
 40
0
 40
0
 40
0
 40
1
 40
1
 40
1
 40
1
 10
12.266163
 20
518.474552
 30
0.0
 10
10.440382
 20
516.013602
 30
0.0
 10
8.853729
 20
513.554318
 30
0.0
 10
7.488395
 20
511.102484
 30
0.0
  0
LINE
  5
316
100
AcDbEntity
  8
Layer_1
 62
1
100
AcDbLine
 10
7.488395
 20
511.102484
 30
0.0
 11
55.083366
 21
463.507513
 31
0.0
  0
LINE
  5
317
100
AcDbEntity
  8
Layer_1
 62
1
100
AcDbLine
 10
55.083366
 20
463.507513
 30
0.0
 11
50.239303
 21
458.663479
 31
0.0
  0
LINE
  5
318
100
AcDbEntity
  8
Layer_1
 62
1
100
AcDbLine
 10
50.239303
 20
458.663479
 30
0.0
 11
4.355418
 21
504.547337
 31
0.0
  0
SPLINE
  5
319
100
AcDbEntity
  8
Layer_1
 62
1
100
AcDbSpline
 70
8
 71
3
 72
8
 73
4
 74
0
 40
0
 40
0
 40
0
 40
0
 40
1
 40
1
 40
1
 40
1
 10
4.355418
 20
504.547337
 30
0.0
 10
-6.039532
 20
478.636825
 30
0.0
 10
7.510493
 20
454.133106
 30
0.0
 10
28.735381
 20
437.848687
 30
0.0
  0
SPLINE
  5
31a
100
AcDbEntity
  8
Layer_1
 62
1
100
AcDbSpline
 70
8
 71
3
 72
8
 73
4
 74
0
 40
0
 40
0
 40
0
 40
0
 40
1
 40
1
 40
1
 40
1
 10
28.735381
 20
437.848687
 30
0.0
 10
44.721831
 20
425.583393
 30
0.0
 10
65.059046
 20
417.980807
 30
0.0
 10
82.790024
 20
417.951032
 30
0.0
  0
SPLINE
  5
31b
100
AcDbEntity
  8
Layer_1
 62
1
100
AcDbSpline
 70
8
 71
3
 72
8
 73
4
 74
0
 40
0
 40
0
 40
0
 40
0
 40
1
 40
1
 40
1
 40
1
 10
82.790024
 20
417.951032
 30
0.0
 10
84.799757
 20
418.406567
 30
0.0
 10
86.918935
 20
418.891820
 30
0.0
 10
89.099554
 20
419.581825
 30
0.0
  0
LINE
  5
31c
100
AcDbEntity
  8
Layer_1
 62
1
100
AcDbLine
 10
89.099554
 20
419.581825
 30
0.0
 11
89.186196
 21
419.470432
 31
0.0
  0
SPLINE
  5
31d
100
AcDbEntity
  8
Layer_1
 62
1
100
AcDbSpline
 70
8
 71
3
 72
8
 73
4
 74
0
 40
0
 40
0
 40
0
 40
0
 40
1
 40
1
 40
1
 40
1
 10
89.186196
 20
419.470432
 30
0.0
 10
89.536913
 20
419.629718
 30
0.0
 10
89.870190
 20
419.790754
 30
0.0
 10
90.210493
 20
419.951423
 30
0.0
  0
SPLINE
  5
31e
100
AcDbEntity
  8
Layer_1
 62
1
100
AcDbSpline
 70
8
 71
3
 72
8
 73
4
 74
0
 40
0
 40
0
 40
0
 40
0
 40
1
 40
1
 40
1
 40
1
 10
90.210493
 20
419.951423
 30
0.0
 10
94.586123
 20
421.471049
 30
0.0
 10
99.172883
 20
423.915601
 30
0.0
 10
103.597479
 20
428.659616
 30
0.0
  0
SPLINE
  5
31f
100
AcDbEntity
  8
Layer_1
 62
1
100
AcDbSpline
 70
8
 71
3
 72
8
 73
4
 74
0
 40
0
 40
0
 40
0
 40
0
 40
1
 40
1
 40
1
 40
1
 10
103.597479
 20
428.659616
 30
0.0
 10
103.603687
 20
428.665260
 30
0.0
 10
103.609050
 20
428.671751
 30
0.0
 10
103.614976
 20
428.677113
 30
0.0
  0
SPLINE
  5
320
100
AcDbEntity
  8
Layer_1
 62
1
100
AcDbSpline
 70
8
 71
3
 72
8
 73
4
 74
0
 40
0
 40
0
 40
0
 40
0
 40
1
 40
1
 40
1
 40
1
 10
103.614976
 20
428.677113
 30
0.0
 10
103.951498
 20
428.991170
 30
0.0
 10
104.277211
 20
429.305425
 30
0.0
 10
104.591324
 20
429.620723
 30
0.0
  0
LINE
  5
321
100
AcDbEntity
  8
Layer_1
 62
1
100
AcDbLine
 10
104.591324
 20
429.620723
 30
0.0
 11
104.590421
 21
429.620582
 31
0.0
  0
LINE
  5
322
100
AcDbEntity
  8
Layer_1
 62
1
100
AcDbLine
 10
528.348956
 20
504.978993
 30
0.0
 11
528.349210
 21
504.982013
 31
0.0
  0
SPLINE
  5
323
100
AcDbEntity
  8
Layer_1
 62
1
100
AcDbSpline
 70
8
 71
3
 72
8
 73
4
 74
0
 40
0
 40
0
 40
0
 40
0
 40
1
 40
1
 40
1
 40
1
 10
528.349210
 20
504.982013
 30
0.0
 10
529.367214
 20
504.965164
 30
0.0
 10
530.404776
 20
505.005550
 30
0.0
 10
531.461811
 20
505.101539
 30
0.0
  0
SPLINE
  5
324
100
AcDbEntity
  8
Layer_1
 62
1
100
AcDbSpline
 70
8
 71
3
 72
8
 73
4
 74
0
 40
0
 40
0
 40
0
 40
0
 40
1
 40
1
 40
1
 40
1
 10
531.461811
 20
505.101539
 30
0.0
 10
531.608228
 20
505.114917
 30
0.0
 10
531.746262
 20
505.159299
 30
0.0
 10
531.878286
 20
505.226722
 30
0.0
  0
SPLINE
  5
325
100
AcDbEntity
  8
Layer_1
 62
1
100
AcDbSpline
 70
8
 71
3
 72
8
 73
4
 74
0
 40
0
 40
0
 40
0
 40
0
 40
1
 40
1
 40
1
 40
1
 10
531.878286
 20
505.226722
 30
0.0
 10
544.378670
 20
506.978738
 30
0.0
 10
553.998864
 20
518.527401
 30
0.0
 10
560.219634
 20
541.638957
 30
0.0
  0
SPLINE
  5
326
100
AcDbEntity
  8
Layer_1
 62
1
100
AcDbSpline
 70
8
 71
3
 72
8
 73
4
 74
0
 40
0
 40
0
 40
0
 40
0
 40
1
 40
1
 40
1
 40
1
 10
560.219634
 20
541.638957
 30
0.0
 10
564.206757
 20
566.693003
 30
0.0
 10
568.887074
 20
576.388714
 30
0.0
 10
573.636535
 20
584.548094
 30
0.0
  0
SPLINE
  5
327
100
AcDbEntity
  8
Layer_1
 62
1
100
AcDbSpline
 70
8
 71
3
 72
8
 73
4
 74
0
 40
0
 40
0
 40
0
 40
0
 40
1
 40
1
 40
1
 40
1
 10
573.636535
 20
584.548094
 30
0.0
 10
574.804258
 20
586.554214
 30
0.0
 10
575.976016
 20
588.467088
 30
0.0
 10
577.142836
 20
590.492879
 30
0.0
  0
SPLINE
  5
328
100
AcDbEntity
  8
Layer_1
 62
1
100
AcDbSpline
 70
8
 71
3
 72
8
 73
4
 74
0
 40
0
 40
0
 40
0
 40
0
 40
1
 40
1
 40
1
 40
1
 10
577.142836
 20
590.492879
 30
0.0
 10
581.623791
 20
617.364047
 30
0.0
 10
566.170064
 20
637.127082
 30
0.0
 10
547.834510
 20
645.115212
 30
0.0
  0
LINE
  5
329
100
AcDbEntity
  8
Layer_1
 62
1
100
AcDbLine
 10
547.834510
 20
645.115212
 30
0.0
 11
546.425374
 21
585.827238
 31
0.0
  0
LINE
  5
32a
100
AcDbEntity
  8
Layer_1
 62
1
100
AcDbLine
 10
546.425374
 20
585.827238
 30
0.0
 11
539.576800
 21
585.990024
 31
0.0
  0
LINE
  5
32b
100
AcDbEntity
  8
Layer_1
 62
1
100
AcDbLine
 10
539.576800
 20
585.990024
 30
0.0
 11
541.041082
 21
647.596849
 31
0.0
  0
SPLINE
  5
32c
100
AcDbEntity
  8
Layer_1
 62
1
100
AcDbSpline
 70
8
 71
3
 72
8
 73
4
 74
0
 40
0
 40
0
 40
0
 40
0
 40
1
 40
1
 40
1
 40
1
 10
541.041082
 20
647.596849
 30
0.0
 10
537.980834
 20
648.497279
 30
0.0
 10
534.732682
 20
648.955128
 30
0.0
 10
531.395460
 20
648.991676
 30
0.0
  0
SPLINE
  5
32d
100
AcDbEntity
  8
Layer_1
 62
1
100
AcDbSpline
 70
8
 71
3
 72
8
 73
4
 74
0
 40
0
 40
0
 40
0
 40
0
 40
1
 40
1
 40
1
 40
1
 10
531.395460
 20
648.991676
 30
0.0
 10
528.060751
 20
649.113737
 30
0.0
 10
524.795327
 20
648.810433
 30
0.0
 10
521.696132
 20
648.056589
 30
0.0
  0
LINE
  5
32e
100
AcDbEntity
  8
Layer_1
 62
1
100
AcDbLine
 10
521.696132
 20
648.056589
 30
0.0
 11
520.231737
 21
586.449792
 31
0.0
  0
LINE
  5
32f
100
AcDbEntity
  8
Layer_1
 62
1
100
AcDbLine
 10
520.231737
 20
586.449792
 30
0.0
 11
513.382627
 21
586.612550
 31
0.0
  0
LINE
  5
330
100
AcDbEntity
  8
Layer_1
 62
1
100
AcDbLine
 10
513.382627
 20
586.612550
 30
0.0
 11
514.791819
 21
645.901060
 31
0.0
  0
SPLINE
  5
331
100
AcDbEntity
  8
Layer_1
 62
1
100
AcDbSpline
 70
8
 71
3
 72
8
 73
4
 74
0
 40
0
 40
0
 40
0
 40
0
 40
1
 40
1
 40
1
 40
1
 10
514.791819
 20
645.901060
 30
0.0
 10
496.097362
 20
638.793181
 30
0.0
 10
479.722265
 20
619.786163
 30
0.0
 10
482.921479
 20
592.732256
 30
0.0
  0
SPLINE
  5
332
100
AcDbEntity
  8
Layer_1
 62
1
100
AcDbSpline
 70
8
 71
3
 72
8
 73
4
 74
0
 40
0
 40
0
 40
0
 40
0
 40
1
 40
1
 40
1
 40
1
 10
482.921479
 20
592.732256
 30
0.0
 10
483.891929
 20
590.845403
 30
0.0
 10
484.871070
 20
589.051034
 30
0.0
 10
485.844483
 20
587.195959
 30
0.0
  0
SPLINE
  5
333
100
AcDbEntity
  8
Layer_1
 62
1
100
AcDbSpline
 70
8
 71
3
 72
8
 73
4
 74
0
 40
0
 40
0
 40
0
 40
0
 40
1
 40
1
 40
1
 40
1
 10
485.844483
 20
587.195959
 30
0.0
 10
490.305852
 20
578.693685
 30
0.0
 10
494.648800
 20
568.917518
 30
0.0
 10
497.504551
 20
543.129491
 30
0.0
  0
SPLINE
  5
334
100
AcDbEntity
  8
Layer_1
 62
1
100
AcDbSpline
 70
8
 71
3
 72
8
 73
4
 74
0
 40
0
 40
0
 40
0
 40
0
 40
1
 40
1
 40
1
 40
1
 10
497.504551
 20
543.129491
 30
0.0
 10
501.704469
 20
523.934192
 30
0.0
 10
508.563936
 20
512.417470
 30
0.0
 10
517.748040
 20
507.610359
 30
0.0
  0
SPLINE
  5
335
100
AcDbEntity
  8
Layer_1
 62
1
100
AcDbSpline
 70
8
 71
3
 72
8
 73
4
 74
0
 40
0
 40
0
 40
0
 40
0
 40
1
 40
1
 40
1
 40
1
 10
517.748040
 20
507.610359
 30
0.0
 10
521.131772
 20
506.053534
 30
0.0
 10
525.225716
 20
505.044765
 30
0.0
 10
528.127637
 20
504.990000
 30
0.0
  0
SPLINE
  5
336
100
AcDbEntity
  8
Layer_1
 62
1
100
AcDbSpline
 70
8
 71
3
 72
8
 73
4
 74
0
 40
0
 40
0
 40
0
 40
0
 40
1
 40
1
 40
1
 40
1
 10
528.127637
 20
504.990000
 30
0.0
 10
528.201580
 20
504.988024
 30
0.0
 10
528.274393
 20
504.982097
 30
0.0
 10
528.348504
 20
504.980348
 30
0.0
  0
LINE
  5
337
100
AcDbEntity
  8
Layer_1
 62
1
100
AcDbLine
 10
528.348504
 20
504.980348
 30
0.0
 11
528.348956
 21
504.978993
 31
0.0
  0
SPLINE
  5
338
100
AcDbEntity
  8
Layer_1
 62
1
100
AcDbSpline
 70
8
 71
3
 72
8
 73
4
 74
0
 40
0
 40
0
 40
0
 40
0
 40
1
 40
1
 40
1
 40
1
 10
571.155830
 20
675.265690
 30
0.0
 10
571.246536
 20
675.554742
 30
0.0
 10
571.348193
 20
675.821498
 30
0.0
 10
571.457949
 20
676.072281
 30
0.0
  0
LINE
  5
339
100
AcDbEntity
  8
Layer_1
 62
1
100
AcDbLine
 10
571.457949
 20
676.072281
 30
0.0
 11
512.001855
 21
745.713126
 31
0.0
  0
LINE
  5
33a
100
AcDbEntity
  8
Layer_1
 62
1
100
AcDbLine
 10
512.001855
 20
745.713126
 30
0.0
 11
517.266372
 21
750.207741
 31
0.0
  0
LINE
  5
33b
100
AcDbEntity
  8
Layer_1
 62
1
100
AcDbLine
 10
517.266372
 20
750.207741
 30
0.0
 11
576.241813
 21
681.129872
 31
0.0
  0
SPLINE
  5
33c
100
AcDbEntity
  8
Layer_1
 62
1
100
AcDbSpline
 70
8
 71
3
 72
8
 73
4
 74
0
 40
0
 40
0
 40
0
 40
0
 40
1
 40
1
 40
1
 40
1
 10
576.241813
 20
681.129872
 30
0.0
 10
578.412610
 20
683.594604
 30
0.0
 10
579.532778
 20
688.170668
 30
0.0
 10
575.549974
 20
703.003026
 30
0.0
  0
LINE
  5
33d
100
AcDbEntity
  8
Layer_1
 62
1
100
AcDbLine
 10
575.549974
 20
703.003026
 30
0.0
 11
516.159044
 21
772.567586
 31
0.0
  0
LINE
  5
33e
100
AcDbEntity
  8
Layer_1
 62
1
100
AcDbLine
 10
516.159044
 20
772.567586
 30
0.0
 11
521.423561
 21
777.062201
 31
0.0
  0
LINE
  5
33f
100
AcDbEntity
  8
Layer_1
 62
1
100
AcDbLine
 10
521.423561
 20
777.062201
 30
0.0
 11
568.968862
 21
721.372391
 31
0.0
  0
SPLINE
  5
340
100
AcDbEntity
  8
Layer_1
 62
1
100
AcDbSpline
 70
8
 71
3
 72
8
 73
4
 74
0
 40
0
 40
0
 40
0
 40
0
 40
1
 40
1
 40
1
 40
1
 10
568.968862
 20
721.372391
 30
0.0
 10
565.138231
 20
732.332688
 30
0.0
 10
563.072619
 20
742.090437
 30
0.0
 10
562.315473
 20
750.957605
 30
0.0
  0
LINE
  5
341
100
AcDbEntity
  8
Layer_1
 62
1
100
AcDbLine
 10
562.315473
 20
750.957605
 30
0.0
 11
520.050324
 21
800.462713
 31
0.0
  0
LINE
  5
342
100
AcDbEntity
  8
Layer_1
 62
1
100
AcDbLine
 10
520.050324
 20
800.462713
 30
0.0
 11
525.323647
 21
804.964835
 31
0.0
  0
LINE
  5
343
100
AcDbEntity
  8
Layer_1
 62
1
100
AcDbLine
 10
525.323647
 20
804.964835
 30
0.0
 11
562.029102
 21
761.971779
 31
0.0
  0
SPLINE
  5
344
100
AcDbEntity
  8
Layer_1
 62
1
100
AcDbSpline
 70
8
 71
3
 72
8
 73
4
 74
0
 40
0
 40
0
 40
0
 40
0
 40
1
 40
1
 40
1
 40
1
 10
562.029102
 20
761.971779
 30
0.0
 10
562.244550
 20
768.207197
 30
0.0
 10
563.103127
 20
774.004747
 30
0.0
 10
564.398358
 20
779.504834
 30
0.0
  0
LINE
  5
345
100
AcDbEntity
  8
Layer_1
 62
1
100
AcDbLine
 10
564.398358
 20
779.504834
 30
0.0
 11
524.465663
 21
826.277918
 31
0.0
  0
LINE
  5
346
100
AcDbEntity
  8
Layer_1
 62
1
100
AcDbLine
 10
524.465663
 20
826.277918
 30
0.0
 11
529.738985
 21
830.780040
 31
0.0
  0
LINE
  5
347
100
AcDbEntity
  8
Layer_1
 62
1
100
AcDbLine
 10
529.738985
 20
830.780040
 30
0.0
 11
566.641996
 21
787.555590
 31
0.0
  0
SPLINE
  5
348
100
AcDbEntity
  8
Layer_1
 62
1
100
AcDbSpline
 70
8
 71
3
 72
8
 73
4
 74
0
 40
0
 40
0
 40
0
 40
0
 40
1
 40
1
 40
1
 40
1
 10
566.641996
 20
787.555590
 30
0.0
 10
569.769300
 20
797.310940
 30
0.0
 10
574.046632
 20
806.282784
 30
0.0
 10
578.132674
 20
815.385241
 30
0.0
  0
LINE
  5
349
100
AcDbEntity
  8
Layer_1
 62
1
100
AcDbLine
 10
578.132674
 20
815.385241
 30
0.0
 11
495.706852
 21
911.930528
 31
0.0
  0
SPLINE
  5
34a
100
AcDbEntity
  8
Layer_1
 62
1
100
AcDbSpline
 70
8
 71
3
 72
8
 73
4
 74
0
 40
0
 40
0
 40
0
 40
0
 40
1
 40
1
 40
1
 40
1
 10
495.706852
 20
911.930528
 30
0.0
 10
494.179493
 20
910.408871
 30
0.0
 10
492.764911
 20
908.876969
 30
0.0
 10
491.449812
 20
907.335725
 30
0.0
  0
LINE
  5
34b
100
AcDbEntity
  8
Layer_1
 62
1
100
AcDbLine
 10
491.449812
 20
907.335725
 30
0.0
 11
532.659138
 21
859.067286
 31
0.0
  0
LINE
  5
34c
100
AcDbEntity
  8
Layer_1
 62
1
100
AcDbLine
 10
532.659138
 20
859.067286
 30
0.0
 11
527.401762
 21
854.578796
 31
0.0
  0
LINE
  5
34d
100
AcDbEntity
  8
Layer_1
 62
1
100
AcDbLine
 10
527.401762
 20
854.578796
 30
0.0
 11
487.138387
 21
901.739258
 31
0.0
  0
SPLINE
  5
34e
100
AcDbEntity
  8
Layer_1
 62
1
100
AcDbSpline
 70
8
 71
3
 72
8
 73
4
 74
0
 40
0
 40
0
 40
0
 40
0
 40
1
 40
1
 40
1
 40
1
 10
487.138387
 20
901.739258
 30
0.0
 10
460.371331
 20
863.022292
 30
0.0
 10
490.502956
 20
818.886772
 30
0.0
 10
458.294147
 20
777.949875
 30
0.0
  0
SPLINE
  5
34f
100
AcDbEntity
  8
Layer_1
 62
1
100
AcDbSpline
 70
8
 71
3
 72
8
 73
4
 74
0
 40
0
 40
0
 40
0
 40
0
 40
1
 40
1
 40
1
 40
1
 10
458.294147
 20
777.949875
 30
0.0
 10
434.811593
 20
761.680695
 30
0.0
 10
394.042082
 20
750.310159
 30
0.0
 10
402.801864
 20
724.904684
 30
0.0
  0
SPLINE
  5
350
100
AcDbEntity
  8
Layer_1
 62
1
100
AcDbSpline
 70
8
 71
3
 72
8
 73
4
 74
0
 40
0
 40
0
 40
0
 40
0
 40
1
 40
1
 40
1
 40
1
 10
402.801864
 20
724.904684
 30
0.0
 10
393.723142
 20
714.634476
 30
0.0
 10
392.290385
 20
706.259362
 30
0.0
 10
402.599031
 20
700.795681
 30
0.0
  0
SPLINE
  5
351
100
AcDbEntity
  8
Layer_1
 62
1
100
AcDbSpline
 70
8
 71
3
 72
8
 73
4
 74
0
 40
0
 40
0
 40
0
 40
0
 40
1
 40
1
 40
1
 40
1
 10
402.599031
 20
700.795681
 30
0.0
 10
412.441503
 20
691.969802
 30
0.0
 10
422.430646
 20
685.004925
 30
0.0
 10
432.530363
 20
679.439785
 30
0.0
  0
LINE
  5
352
100
AcDbEntity
  8
Layer_1
 62
1
100
AcDbLine
 10
432.530363
 20
679.439785
 30
0.0
 11
415.579193
 21
699.294654
 31
0.0
  0
LINE
  5
353
100
AcDbEntity
  8
Layer_1
 62
1
100
AcDbLine
 10
415.579193
 20
699.294654
 30
0.0
 11
420.843710
 21
703.789241
 31
0.0
  0
LINE
  5
354
100
AcDbEntity
  8
Layer_1
 62
1
100
AcDbLine
 10
420.843710
 20
703.789241
 30
0.0
 11
447.996620
 21
671.985054
 31
0.0
  0
SPLINE
  5
355
100
AcDbEntity
  8
Layer_1
 62
1
100
AcDbSpline
 70
8
 71
3
 72
8
 73
4
 74
0
 40
0
 40
0
 40
0
 40
0
 40
1
 40
1
 40
1
 40
1
 10
447.996620
 20
671.985054
 30
0.0
 10
456.307585
 20
668.514454
 30
0.0
 10
464.680102
 20
665.820135
 30
0.0
 10
473.093740
 20
663.651681
 30
0.0
  0
LINE
  5
356
100
AcDbEntity
  8
Layer_1
 62
1
100
AcDbLine
 10
473.093740
 20
663.651681
 30
0.0
 11
439.020740
 21
703.561374
 31
0.0
  0
LINE
  5
357
100
AcDbEntity
  8
Layer_1
 62
1
100
AcDbLine
 10
439.020740
 20
703.561374
 30
0.0
 11
444.285257
 21
708.055989
 31
0.0
  0
LINE
  5
358
100
AcDbEntity
  8
Layer_1
 62
1
100
AcDbLine
 10
444.285257
 20
708.055989
 30
0.0
 11
484.434444
 21
661.029272
 31
0.0
  0
SPLINE
  5
359
100
AcDbEntity
  8
Layer_1
 62
1
100
AcDbSpline
 70
8
 71
3
 72
8
 73
4
 74
0
 40
0
 40
0
 40
0
 40
0
 40
1
 40
1
 40
1
 40
1
 10
484.434444
 20
661.029272
 30
0.0
 10
491.442502
 20
659.580992
 30
0.0
 10
498.472827
 20
658.418801
 30
0.0
 10
505.514864
 20
657.401503
 30
0.0
  0
LINE
  5
35a
100
AcDbEntity
  8
Layer_1
 62
1
100
AcDbLine
 10
505.514864
 20
657.401503
 30
0.0
 11
461.840636
 21
708.557075
 31
0.0
  0
LINE
  5
35b
100
AcDbEntity
  8
Layer_1
 62
1
100
AcDbLine
 10
461.840636
 20
708.557075
 30
0.0
 11
467.105153
 21
713.051661
 31
0.0
  0
LINE
  5
35c
100
AcDbEntity
  8
Layer_1
 62
1
100
AcDbLine
 10
467.105153
 20
713.051661
 30
0.0
 11
514.940748
 21
657.021886
 31
0.0
  0
SPLINE
  5
35d
100
AcDbEntity
  8
Layer_1
 62
1
100
AcDbSpline
 70
8
 71
3
 72
8
 73
4
 74
0
 40
0
 40
0
 40
0
 40
0
 40
1
 40
1
 40
1
 40
1
 10
514.940748
 20
657.021886
 30
0.0
 10
520.246779
 20
658.099918
 30
0.0
 10
525.544881
 20
659.071892
 30
0.0
 10
530.853594
 20
660.183734
 30
0.0
  0
LINE
  5
35e
100
AcDbEntity
  8
Layer_1
 62
1
100
AcDbLine
 10
530.853594
 20
660.183734
 30
0.0
 11
485.024402
 21
713.863417
 31
0.0
  0
LINE
  5
35f
100
AcDbEntity
  8
Layer_1
 62
1
100
AcDbLine
 10
485.024402
 20
713.863417
 30
0.0
 11
490.288919
 21
718.358003
 31
0.0
  0
LINE
  5
360
100
AcDbEntity
  8
Layer_1
 62
1
100
AcDbLine
 10
490.288919
 20
718.358003
 30
0.0
 11
538.483161
 21
661.908168
 31
0.0
  0
SPLINE
  5
361
100
AcDbEntity
  8
Layer_1
 62
1
100
AcDbSpline
 70
8
 71
3
 72
8
 73
4
 74
0
 40
0
 40
0
 40
0
 40
0
 40
1
 40
1
 40
1
 40
1
 10
538.483161
 20
661.908168
 30
0.0
 10
543.224635
 20
663.075411
 30
0.0
 10
547.982592
 20
664.456833
 30
0.0
 10
552.772213
 20
666.234240
 30
0.0
  0
LINE
  5
362
100
AcDbEntity
  8
Layer_1
 62
1
100
AcDbLine
 10
552.772213
 20
666.234240
 30
0.0
 11
508.155279
 21
718.494006
 31
0.0
  0
LINE
  5
363
100
AcDbEntity
  8
Layer_1
 62
1
100
AcDbLine
 10
508.155279
 20
718.494006
 30
0.0
 11
513.419796
 21
722.988621
 31
0.0
  0
LINE
  5
364
100
AcDbEntity
  8
Layer_1
 62
1
100
AcDbLine
 10
513.419796
 20
722.988621
 30
0.0
 11
559.508462
 21
669.005013
 31
0.0
  0
SPLINE
  5
365
100
AcDbEntity
  8
Layer_1
 62
1
100
AcDbSpline
 70
8
 71
3
 72
8
 73
4
 74
0
 40
0
 40
0
 40
0
 40
0
 40
1
 40
1
 40
1
 40
1
 10
559.508462
 20
669.005013
 30
0.0
 10
563.364295
 20
670.754255
 30
0.0
 10
567.244032
 20
672.807308
 30
0.0
 10
571.155830
 20
675.265690
 30
0.0
  0
LINE
  5
366
100
AcDbEntity
  8
Layer_1
 62
1
100
AcDbLine
 10
571.155830
 20
675.265690
 30
0.0
 11
571.155830
 21
675.265690
 31
0.0
  0
SPLINE
  5
367
100
AcDbEntity
  8
Layer_1
 62
1
100
AcDbSpline
 70
8
 71
3
 72
8
 73
4
 74
0
 40
0
 40
0
 40
0
 40
0
 40
1
 40
1
 40
1
 40
1
 10
289.971170
 20
893.686724
 30
0.0
 10
289.880463
 20
893.397672
 30
0.0
 10
289.778807
 20
893.130916
 30
0.0
 10
289.669051
 20
892.880133
 30
0.0
  0
LINE
  5
368
100
AcDbEntity
  8
Layer_1
 62
1
100
AcDbLine
 10
289.669051
 20
892.880133
 30
0.0
 11
349.125145
 21
823.239260
 31
0.0
  0
LINE
  5
369
100
AcDbEntity
  8
Layer_1
 62
1
100
AcDbLine
 10
349.125145
 20
823.239260
 30
0.0
 11
343.860628
 21
818.744674
 31
0.0
  0
LINE
  5
36a
100
AcDbEntity
  8
Layer_1
 62
1
100
AcDbLine
 10
343.860628
 20
818.744674
 30
0.0
 11
284.885186
 21
887.822542
 31
0.0
  0
SPLINE
  5
36b
100
AcDbEntity
  8
Layer_1
 62
1
100
AcDbSpline
 70
8
 71
3
 72
8
 73
4
 74
0
 40
0
 40
0
 40
0
 40
0
 40
1
 40
1
 40
1
 40
1
 10
284.885186
 20
887.822542
 30
0.0
 10
282.714390
 20
885.357810
 30
0.0
 10
281.594221
 20
880.781746
 30
0.0
 10
285.577026
 20
865.949388
 30
0.0
  0
LINE
  5
36c
100
AcDbEntity
  8
Layer_1
 62
1
100
AcDbLine
 10
285.577026
 20
865.949388
 30
0.0
 11
344.967955
 21
796.384828
 31
0.0
  0
LINE
  5
36d
100
AcDbEntity
  8
Layer_1
 62
1
100
AcDbLine
 10
344.967955
 20
796.384828
 30
0.0
 11
339.703438
 21
791.890213
 31
0.0
  0
LINE
  5
36e
100
AcDbEntity
  8
Layer_1
 62
1
100
AcDbLine
 10
339.703438
 20
791.890213
 30
0.0
 11
292.158138
 21
847.579995
 31
0.0
  0
SPLINE
  5
36f
100
AcDbEntity
  8
Layer_1
 62
1
100
AcDbSpline
 70
8
 71
3
 72
8
 73
4
 74
0
 40
0
 40
0
 40
0
 40
0
 40
1
 40
1
 40
1
 40
1
 10
292.158138
 20
847.579995
 30
0.0
 10
295.988768
 20
836.619726
 30
0.0
 10
298.054381
 20
826.861977
 30
0.0
 10
298.811527
 20
817.994809
 30
0.0
  0
LINE
  5
370
100
AcDbEntity
  8
Layer_1
 62
1
100
AcDbLine
 10
298.811527
 20
817.994809
 30
0.0
 11
341.076675
 21
768.489701
 31
0.0
  0
LINE
  5
371
100
AcDbEntity
  8
Layer_1
 62
1
100
AcDbLine
 10
341.076675
 20
768.489701
 30
0.0
 11
335.803353
 21
763.987579
 31
0.0
  0
LINE
  5
372
100
AcDbEntity
  8
Layer_1
 62
1
100
AcDbLine
 10
335.803353
 20
763.987579
 30
0.0
 11
299.097898
 21
806.980607
 31
0.0
  0
SPLINE
  5
373
100
AcDbEntity
  8
Layer_1
 62
1
100
AcDbSpline
 70
8
 71
3
 72
8
 73
4
 74
0
 40
0
 40
0
 40
0
 40
0
 40
1
 40
1
 40
1
 40
1
 10
299.097898
 20
806.980607
 30
0.0
 10
298.882449
 20
800.745218
 30
0.0
 10
298.023873
 20
794.947668
 30
0.0
 10
296.728642
 20
789.447580
 30
0.0
  0
LINE
  5
374
100
AcDbEntity
  8
Layer_1
 62
1
100
AcDbLine
 10
296.728642
 20
789.447580
 30
0.0
 11
336.661337
 21
742.674496
 31
0.0
  0
LINE
  5
375
100
AcDbEntity
  8
Layer_1
 62
1
100
AcDbLine
 10
336.661337
 20
742.674496
 30
0.0
 11
331.388014
 21
738.172374
 31
0.0
  0
LINE
  5
376
100
AcDbEntity
  8
Layer_1
 62
1
100
AcDbLine
 10
331.388014
 20
738.172374
 30
0.0
 11
294.485004
 21
781.396824
 31
0.0
  0
SPLINE
  5
377
100
AcDbEntity
  8
Layer_1
 62
1
100
AcDbSpline
 70
8
 71
3
 72
8
 73
4
 74
0
 40
0
 40
0
 40
0
 40
0
 40
1
 40
1
 40
1
 40
1
 10
294.485004
 20
781.396824
 30
0.0
 10
291.357699
 20
771.641474
 30
0.0
 10
287.080367
 20
762.669630
 30
0.0
 10
282.994326
 20
753.567145
 30
0.0
  0
LINE
  5
378
100
AcDbEntity
  8
Layer_1
 62
1
100
AcDbLine
 10
282.994326
 20
753.567145
 30
0.0
 11
365.420148
 21
657.021886
 31
0.0
  0
SPLINE
  5
379
100
AcDbEntity
  8
Layer_1
 62
1
100
AcDbSpline
 70
8
 71
3
 72
8
 73
4
 74
0
 40
0
 40
0
 40
0
 40
0
 40
1
 40
1
 40
1
 40
1
 10
365.420148
 20
657.021886
 30
0.0
 10
366.947506
 20
658.543543
 30
0.0
 10
368.362089
 20
660.075446
 30
0.0
 10
369.677188
 20
661.616689
 30
0.0
  0
LINE
  5
37a
100
AcDbEntity
  8
Layer_1
 62
1
100
AcDbLine
 10
369.677188
 20
661.616689
 30
0.0
 11
328.467861
 21
709.885128
 31
0.0
  0
LINE
  5
37b
100
AcDbEntity
  8
Layer_1
 62
1
100
AcDbLine
 10
328.467861
 20
709.885128
 30
0.0
 11
333.725238
 21
714.373618
 31
0.0
  0
LINE
  5
37c
100
AcDbEntity
  8
Layer_1
 62
1
100
AcDbLine
 10
333.725238
 20
714.373618
 30
0.0
 11
373.988612
 21
667.213156
 31
0.0
  0
SPLINE
  5
37d
100
AcDbEntity
  8
Layer_1
 62
1
100
AcDbSpline
 70
8
 71
3
 72
8
 73
4
 74
0
 40
0
 40
0
 40
0
 40
0
 40
1
 40
1
 40
1
 40
1
 10
373.988612
 20
667.213156
 30
0.0
 10
400.755668
 20
705.930122
 30
0.0
 10
370.624044
 20
750.065614
 30
0.0
 10
402.832852
 20
791.002540
 30
0.0
  0
SPLINE
  5
37e
100
AcDbEntity
  8
Layer_1
 62
1
100
AcDbSpline
 70
8
 71
3
 72
8
 73
4
 74
0
 40
0
 40
0
 40
0
 40
0
 40
1
 40
1
 40
1
 40
1
 10
402.832852
 20
791.002540
 30
0.0
 10
426.315406
 20
807.271719
 30
0.0
 10
467.084918
 20
818.642255
 30
0.0
 10
458.325135
 20
844.047730
 30
0.0
  0
SPLINE
  5
37f
100
AcDbEntity
  8
Layer_1
 62
1
100
AcDbSpline
 70
8
 71
3
 72
8
 73
4
 74
0
 40
0
 40
0
 40
0
 40
0
 40
1
 40
1
 40
1
 40
1
 10
458.325135
 20
844.047730
 30
0.0
 10
467.403857
 20
854.317938
 30
0.0
 10
468.836615
 20
862.693052
 30
0.0
 10
458.527968
 20
868.156733
 30
0.0
  0
SPLINE
  5
380
100
AcDbEntity
  8
Layer_1
 62
1
100
AcDbSpline
 70
8
 71
3
 72
8
 73
4
 74
0
 40
0
 40
0
 40
0
 40
0
 40
1
 40
1
 40
1
 40
1
 10
458.527968
 20
868.156733
 30
0.0
 10
448.685497
 20
876.982612
 30
0.0
 10
438.696354
 20
883.947490
 30
0.0
 10
428.596637
 20
889.512630
 30
0.0
  0
LINE
  5
381
100
AcDbEntity
  8
Layer_1
 62
1
100
AcDbLine
 10
428.596637
 20
889.512630
 30
0.0
 11
445.547806
 21
869.657760
 31
0.0
  0
LINE
  5
382
100
AcDbEntity
  8
Layer_1
 62
1
100
AcDbLine
 10
445.547806
 20
869.657760
 30
0.0
 11
440.283290
 21
865.163174
 31
0.0
  0
LINE
  5
383
100
AcDbEntity
  8
Layer_1
 62
1
100
AcDbLine
 10
440.283290
 20
865.163174
 30
0.0
 11
413.130379
 21
896.967360
 31
0.0
  0
SPLINE
  5
384
100
AcDbEntity
  8
Layer_1
 62
1
100
AcDbSpline
 70
8
 71
3
 72
8
 73
4
 74
0
 40
0
 40
0
 40
0
 40
0
 40
1
 40
1
 40
1
 40
1
 10
413.130379
 20
896.967360
 30
0.0
 10
404.819414
 20
900.437960
 30
0.0
 10
396.446897
 20
903.132279
 30
0.0
 10
388.033260
 20
905.300733
 30
0.0
  0
LINE
  5
385
100
AcDbEntity
  8
Layer_1
 62
1
100
AcDbLine
 10
388.033260
 20
905.300733
 30
0.0
 11
422.106259
 21
865.391040
 31
0.0
  0
LINE
  5
386
100
AcDbEntity
  8
Layer_1
 62
1
100
AcDbLine
 10
422.106259
 20
865.391040
 30
0.0
 11
416.841742
 21
860.896425
 31
0.0
  0
LINE
  5
387
100
AcDbEntity
  8
Layer_1
 62
1
100
AcDbLine
 10
416.841742
 20
860.896425
 30
0.0
 11
376.692555
 21
907.923142
 31
0.0
  0
SPLINE
  5
388
100
AcDbEntity
  8
Layer_1
 62
1
100
AcDbSpline
 70
8
 71
3
 72
8
 73
4
 74
0
 40
0
 40
0
 40
0
 40
0
 40
1
 40
1
 40
1
 40
1
 10
376.692555
 20
907.923142
 30
0.0
 10
369.684498
 20
909.371422
 30
0.0
 10
362.654173
 20
910.533613
 30
0.0
 10
355.612136
 20
911.550911
 30
0.0
  0
LINE
  5
389
100
AcDbEntity
  8
Layer_1
 62
1
100
AcDbLine
 10
355.612136
 20
911.550911
 30
0.0
 11
399.286363
 21
860.395340
 31
0.0
  0
LINE
  5
38a
100
AcDbEntity
  8
Layer_1
 62
1
100
AcDbLine
 10
399.286363
 20
860.395340
 30
0.0
 11
394.021846
 21
855.900725
 31
0.0
  0
LINE
  5
38b
100
AcDbEntity
  8
Layer_1
 62
1
100
AcDbLine
 10
394.021846
 20
855.900725
 30
0.0
 11
346.186252
 21
911.930528
 31
0.0
  0
SPLINE
  5
38c
100
AcDbEntity
  8
Layer_1
 62
1
100
AcDbSpline
 70
8
 71
3
 72
8
 73
4
 74
0
 40
0
 40
0
 40
0
 40
0
 40
1
 40
1
 40
1
 40
1
 10
346.186252
 20
911.930528
 30
0.0
 10
340.880220
 20
910.852468
 30
0.0
 10
335.582119
 20
909.880523
 30
0.0
 10
330.273406
 20
908.768680
 30
0.0
  0
LINE
  5
38d
100
AcDbEntity
  8
Layer_1
 62
1
100
AcDbLine
 10
330.273406
 20
908.768680
 30
0.0
 11
376.102598
 21
855.088997
 31
0.0
  0
LINE
  5
38e
100
AcDbEntity
  8
Layer_1
 62
1
100
AcDbLine
 10
376.102598
 20
855.088997
 30
0.0
 11
370.838081
 21
850.594383
 31
0.0
  0
LINE
  5
38f
100
AcDbEntity
  8
Layer_1
 62
1
100
AcDbLine
 10
370.838081
 20
850.594383
 30
0.0
 11
322.643839
 21
907.044246
 31
0.0
  0
SPLINE
  5
390
100
AcDbEntity
  8
Layer_1
 62
1
100
AcDbSpline
 70
8
 71
3
 72
8
 73
4
 74
0
 40
0
 40
0
 40
0
 40
0
 40
1
 40
1
 40
1
 40
1
 10
322.643839
 20
907.044246
 30
0.0
 10
317.902364
 20
905.877003
 30
0.0
 10
313.144408
 20
904.495553
 30
0.0
 10
308.354786
 20
902.718174
 30
0.0
  0
LINE
  5
391
100
AcDbEntity
  8
Layer_1
 62
1
100
AcDbLine
 10
308.354786
 20
902.718174
 30
0.0
 11
352.971721
 21
850.458380
 31
0.0
  0
LINE
  5
392
100
AcDbEntity
  8
Layer_1
 62
1
100
AcDbLine
 10
352.971721
 20
850.458380
 30
0.0
 11
347.707204
 21
845.963793
 31
0.0
  0
LINE
  5
393
100
AcDbEntity
  8
Layer_1
 62
1
100
AcDbLine
 10
347.707204
 20
845.963793
 30
0.0
 11
301.618537
 21
899.947401
 31
0.0
  0
SPLINE
  5
394
100
AcDbEntity
  8
Layer_1
 62
1
100
AcDbSpline
 70
8
 71
3
 72
8
 73
4
 74
0
 40
0
 40
0
 40
0
 40
0
 40
1
 40
1
 40
1
 40
1
 10
301.618537
 20
899.947401
 30
0.0
 10
297.762704
 20
898.198131
 30
0.0
 10
293.882967
 20
896.145106
 30
0.0
 10
289.971170
 20
893.686724
 30
0.0
  0
LINE
  5
395
100
AcDbEntity
  8
Layer_1
 62
1
100
AcDbLine
 10
289.971170
 20
893.686724
 30
0.0
 11
289.971170
 21
893.686724
 31
0.0
  0
ENDSEC
  0
SECTION
  2
OBJECTS
  0
DICTIONARY
  5
C
330
0
100
AcDbDictionary
  3
ACAD_GROUP
350
D
  3
ACAD_MLINESTYLE
350
17
  0
DICTIONARY
  5
D
330
C
100
AcDbDictionary
  0
DICTIONARY
  5
1A
330
C
100
AcDbDictionary
  0
DICTIONARY
  5
17
330
C
100
AcDbDictionary
  3
STANDARD
350
18
  0
DICTIONARY
  5
19
330
C
100
AcDbDictionary
  0
ENDSEC
  0
EOF
