  0
SECTION
  2
HEADER
  9
$ACADVER
  1
AC1021
  9
$ACADMAINTVER
 70
    25
  9
$DWGCODEPAGE
  3
ANSI_1251
  9
$INSBASE
 10
0.0
 20
0.0
 30
0.0
  9
$EXTMIN
 10
1.000000000000000E+20
 20
1.000000000000000E+20
 30
1.000000000000000E+20
  9
$EXTMAX
 10
-1.000000000000000E+20
 20
-1.000000000000000E+20
 30
-1.000000000000000E+20
  9
$LIMMIN
 10
0.0
 20
0.0
  9
$LIMMAX
 10
420.0
 20
297.0
  9
$ORTHOMODE
 70
     0
  9
$REGENMODE
 70
     1
  9
$FILLMODE
 70
     1
  9
$QTEXTMODE
 70
     0
  9
$MIRRTEXT
 70
     1
  9
$LTSCALE
 40
1.0
  9
$ATTMODE
 70
     1
  9
$TEXTSIZE
 40
2.5
  9
$TRACEWID
 40
1.0
  9
$TEXTSTYLE
  7
Standard
  9
$CLAYER
  8
0
  9
$CELTYPE
  6
ByLayer
  9
$CECOLOR
 62
   256
  9
$CELTSCALE
 40
1.0
  9
$DISPSILH
 70
     0
  9
$DIMSCALE
 40
1.0
  9
$DIMASZ
 40
2.5
  9
$DIMEXO
 40
0.625
  9
$DIMDLI
 40
3.75
  9
$DIMRND
 40
0.0
  9
$DIMDLE
 40
0.0
  9
$DIMEXE
 40
1.25
  9
$DIMTP
 40
0.0
  9
$DIMTM
 40
0.0
  9
$DIMTXT
 40
2.5
  9
$DIMCEN
 40
2.5
  9
$DIMTSZ
 40
0.0
  9
$DIMTOL
 70
     0
  9
$DIMLIM
 70
     0
  9
$DIMTIH
 70
     0
  9
$DIMTOH
 70
     0
  9
$DIMSE1
 70
     0
  9
$DIMSE2
 70
     0
  9
$DIMTAD
 70
     1
  9
$DIMZIN
 70
     8
  9
$DIMBLK
  1

  9
$DIMASO
 70
     1
  9
$DIMSHO
 70
     1
  9
$DIMPOST
  1

  9
$DIMAPOST
  1

  9
$DIMALT
 70
     0
  9
$DIMALTD
 70
     3
  9
$DIMALTF
 40
0.03937007874016
  9
$DIMLFAC
 40
1.0
  9
$DIMTOFL
 70
     1
  9
$DIMTVP
 40
0.0
  9
$DIMTIX
 70
     0
  9
$DIMSOXD
 70
     0
  9
$DIMSAH
 70
     0
  9
$DIMBLK1
  1

  9
$DIMBLK2
  1

  9
$DIMSTYLE
  2
ISO-25
  9
$DIMCLRD
 70
     0
  9
$DIMCLRE
 70
     0
  9
$DIMCLRT
 70
     0
  9
$DIMTFAC
 40
1.0
  9
$DIMGAP
 40
0.625
  9
$DIMJUST
 70
     0
  9
$DIMSD1
 70
     0
  9
$DIMSD2
 70
     0
  9
$DIMTOLJ
 70
     0
  9
$DIMTZIN
 70
     8
  9
$DIMALTZ
 70
     0
  9
$DIMALTTZ
 70
     0
  9
$DIMUPT
 70
     0
  9
$DIMDEC
 70
     2
  9
$DIMTDEC
 70
     2
  9
$DIMALTU
 70
     2
  9
$DIMALTTD
 70
     3
  9
$DIMTXSTY
  7
Standard
  9
$DIMAUNIT
 70
     0
  9
$DIMADEC
 70
     0
  9
$DIMALTRND
 40
0.0
  9
$DIMAZIN
 70
     0
  9
$DIMDSEP
 70
    44
  9
$DIMATFIT
 70
     3
  9
$DIMFRAC
 70
     0
  9
$DIMLDRBLK
  1

  9
$DIMLUNIT
 70
     2
  9
$DIMLWD
 70
    -2
  9
$DIMLWE
 70
    -2
  9
$DIMTMOVE
 70
     0
  9
$DIMFXL
 40
1.0
  9
$DIMFXLON
 70
     0
  9
$DIMJOGANG
 40
0.7853981633974483
  9
$DIMTFILL
 70
     0
  9
$DIMTFILLCLR
 70
     0
  9
$DIMARCSYM
 70
     0
  9
$DIMLTYPE
  6

  9
$DIMLTEX1
  6

  9
$DIMLTEX2
  6

  9
$LUNITS
 70
     2
  9
$LUPREC
 70
     4
  9
$SKETCHINC
 40
1.0
  9
$FILLETRAD
 40
10.0
  9
$AUNITS
 70
     0
  9
$AUPREC
 70
     0
  9
$MENU
  1
.
  9
$ELEVATION
 40
0.0
  9
$PELEVATION
 40
0.0
  9
$THICKNESS
 40
0.0
  9
$LIMCHECK
 70
     0
  9
$CHAMFERA
 40
10.0
  9
$CHAMFERB
 40
10.0
  9
$CHAMFERC
 40
20.0
  9
$CHAMFERD
 40
0.0
  9
$SKPOLY
 70
     0
  9
$TDCREATE
 40
2458192.807288287
  9
$TDUCREATE
 40
2458192.682288287
  9
$TDUPDATE
 40
2458192.807288298
  9
$TDUUPDATE
 40
2458192.682288298
  9
$TDINDWG
 40
0.0000000116
  9
$TDUSRTIMER
 40
0.0000000116
  9
$USRTIMER
 70
     1
  9
$ANGBASE
 50
0.0
  9
$ANGDIR
 70
     0
  9
$PDMODE
 70
     0
  9
$PDSIZE
 40
0.0
  9
$PLINEWID
 40
0.0
  9
$SPLFRAME
 70
     0
  9
$SPLINETYPE
 70
     6
  9
$SPLINESEGS
 70
     8
  9
$HANDSEED
  5
294
  9
$SURFTAB1
 70
     6
  9
$SURFTAB2
 70
     6
  9
$SURFTYPE
 70
     6
  9
$SURFU
 70
     6
  9
$SURFV
 70
     6
  9
$UCSBASE
  2

  9
$UCSNAME
  2

  9
$UCSORG
 10
0.0
 20
0.0
 30
0.0
  9
$UCSXDIR
 10
1.0
 20
0.0
 30
0.0
  9
$UCSYDIR
 10
0.0
 20
1.0
 30
0.0
  9
$UCSORTHOREF
  2

  9
$UCSORTHOVIEW
 70
     0
  9
$UCSORGTOP
 10
0.0
 20
0.0
 30
0.0
  9
$UCSORGBOTTOM
 10
0.0
 20
0.0
 30
0.0
  9
$UCSORGLEFT
 10
0.0
 20
0.0
 30
0.0
  9
$UCSORGRIGHT
 10
0.0
 20
0.0
 30
0.0
  9
$UCSORGFRONT
 10
0.0
 20
0.0
 30
0.0
  9
$UCSORGBACK
 10
0.0
 20
0.0
 30
0.0
  9
$PUCSBASE
  2

  9
$PUCSNAME
  2

  9
$PUCSORG
 10
0.0
 20
0.0
 30
0.0
  9
$PUCSXDIR
 10
1.0
 20
0.0
 30
0.0
  9
$PUCSYDIR
 10
0.0
 20
1.0
 30
0.0
  9
$PUCSORTHOREF
  2

  9
$PUCSORTHOVIEW
 70
     0
  9
$PUCSORGTOP
 10
0.0
 20
0.0
 30
0.0
  9
$PUCSORGBOTTOM
 10
0.0
 20
0.0
 30
0.0
  9
$PUCSORGLEFT
 10
0.0
 20
0.0
 30
0.0
  9
$PUCSORGRIGHT
 10
0.0
 20
0.0
 30
0.0
  9
$PUCSORGFRONT
 10
0.0
 20
0.0
 30
0.0
  9
$PUCSORGBACK
 10
0.0
 20
0.0
 30
0.0
  9
$USERI1
 70
     0
  9
$USERI2
 70
     0
  9
$USERI3
 70
     0
  9
$USERI4
 70
     0
  9
$USERI5
 70
     0
  9
$USERR1
 40
0.0
  9
$USERR2
 40
0.0
  9
$USERR3
 40
0.0
  9
$USERR4
 40
0.0
  9
$USERR5
 40
0.0
  9
$WORLDVIEW
 70
     1
  9
$SHADEDGE
 70
     3
  9
$SHADEDIF
 70
    70
  9
$TILEMODE
 70
     1
  9
$MAXACTVP
 70
    64
  9
$PINSBASE
 10
0.0
 20
0.0
 30
0.0
  9
$PLIMCHECK
 70
     0
  9
$PEXTMIN
 10
1.000000000000000E+20
 20
1.000000000000000E+20
 30
1.000000000000000E+20
  9
$PEXTMAX
 10
-1.000000000000000E+20
 20
-1.000000000000000E+20
 30
-1.000000000000000E+20
  9
$PLIMMIN
 10
0.0
 20
0.0
  9
$PLIMMAX
 10
420.0
 20
297.0
  9
$UNITMODE
 70
     0
  9
$VISRETAIN
 70
     1
  9
$PLINEGEN
 70
     0
  9
$PSLTSCALE
 70
     1
  9
$TREEDEPTH
 70
  3020
  9
$CMLSTYLE
  2
Standard
  9
$CMLJUST
 70
     0
  9
$CMLSCALE
 40
20.0
  9
$PROXYGRAPHICS
 70
     1
  9
$MEASUREMENT
 70
     1
  9
$CELWEIGHT
370
    -1
  9
$ENDCAPS
280
     0
  9
$JOINSTYLE
280
     0
  9
$LWDISPLAY
290
     0
  9
$INSUNITS
 70
     4
  9
$HYPERLINKBASE
  1

  9
$STYLESHEET
  1

  9
$XEDIT
290
     1
  9
$CEPSNTYPE
380
     0
  9
$PSTYLEMODE
290
     1
  9
$FINGERPRINTGUID
  2
{2E0B2FA5-95AA-4874-A483-7F35E65386DD}
  9
$VERSIONGUID
  2
{FAEB1C32-E019-11D5-929B-00C0DF256EC4}
  9
$EXTNAMES
290
     1
  9
$PSVPSCALE
 40
0.0
  9
$OLESTARTUP
290
     0
  9
$SORTENTS
280
   127
  9
$INDEXCTL
280
     0
  9
$HIDETEXT
280
     1
  9
$XCLIPFRAME
290
     0
  9
$HALOGAP
280
     0
  9
$OBSCOLOR
 70
   257
  9
$OBSLTYPE
280
     0
  9
$INTERSECTIONDISPLAY
280
     0
  9
$INTERSECTIONCOLOR
 70
   257
  9
$DIMASSOC
280
     2
  9
$PROJECTNAME
  1

  9
$CAMERADISPLAY
290
     0
  9
$LENSLENGTH
 40
50.0
  9
$CAMERAHEIGHT
 40
0.0
  9
$STEPSPERSEC
 40
2.0
  9
$STEPSIZE
 40
6.0
  9
$3DDWFPREC
 40
2.0
  9
$PSOLWIDTH
 40
5.0
  9
$PSOLHEIGHT
 40
80.0
  9
$LOFTANG1
 40
1.570796326794897
  9
$LOFTANG2
 40
1.570796326794897
  9
$LOFTMAG1
 40
0.0
  9
$LOFTMAG2
 40
0.0
  9
$LOFTPARAM
 70
     7
  9
$LOFTNORMALS
280
     1
  9
$LATITUDE
 40
37.795
  9
$LONGITUDE
 40
-122.394
  9
$NORTHDIRECTION
 40
0.0
  9
$TIMEZONE
 70
 -8000
  9
$LIGHTGLYPHDISPLAY
280
     1
  9
$TILEMODELIGHTSYNCH
280
     1
  9
$SOLIDHIST
280
     1
  9
$SHOWHIST
280
     1
  9
$DWFFRAME
280
     2
  9
$DGNFRAME
280
     2
  9
$REALWORLDSCALE
290
     1
  9
$INTERFERECOLOR
 62
   256
  9
$CSHADOW
280
     0
  9
$SHADOWPLANELOCATION
 40
0.0
  0
ENDSEC
  0
SECTION
  2
CLASSES
  0
CLASS
  1
ACDBDICTIONARYWDFLT
  2
AcDbDictionaryWithDefault
  3
ObjectDBX Classes
 90
        0
 91
        4
280
     0
281
     0
  0
CLASS
  1
VISUALSTYLE
  2
AcDbVisualStyle
  3
ObjectDBX Classes
 90
     4095
 91
        4
280
     0
281
     0
  0
ENDSEC
  0
SECTION
  2
TABLES
  0
TABLE
  2
VPORT
  5
8
330
0
100
AcDbSymbolTable
 70
     1
  0
VPORT
  5
29
330
8
100
AcDbSymbolTableRecord
100
AcDbViewportTableRecord
  2
*Active
 70
     0
 10
0.0
 20
0.0
 11
1.0
 21
1.0
 12
711.1239067992431
 22
994.363919327257
 13
0.0
 23
0.0
 14
10.0
 24
10.0
 15
10.0
 25
10.0
 16
0.0
 26
0.0
 36
1.0
 17
0.0
 27
0.0
 37
0.0
 40
2009.4
 41
0.4923857868020304
 42
50.0
 43
0.0
 44
0.0
 50
0.0
 51
0.0
 71
     0
 72
   100
 73
     1
 74
     3
 75
     0
 76
     0
 77
     0
 78
     0
281
     0
 65
     1
110
0.0
120
0.0
130
0.0
111
1.0
121
0.0
131
0.0
112
0.0
122
1.0
132
0.0
 79
     0
146
0.0
 60
     3
 61
     5
292
     1
282
     1
141
0.0
142
0.0
 63
   250
  0
ENDTAB
  0
TABLE
  2
LTYPE
  5
5
330
0
100
AcDbSymbolTable
 70
     3
  0
LTYPE
  5
14
330
5
100
AcDbSymbolTableRecord
100
AcDbLinetypeTableRecord
  2
ByBlock
 70
     0
  3

 72
    65
 73
     0
 40
0.0
  0
LTYPE
  5
15
330
5
100
AcDbSymbolTableRecord
100
AcDbLinetypeTableRecord
  2
ByLayer
 70
     0
  3

 72
    65
 73
     0
 40
0.0
  0
LTYPE
  5
16
330
5
100
AcDbSymbolTableRecord
100
AcDbLinetypeTableRecord
  2
Continuous
 70
     0
  3
Solid line
 72
    65
 73
     0
 40
0.0
  0
LTYPE
  5
3E
330
5
100
AcDbSymbolTableRecord
100
AcDbLinetypeTableRecord
  2
K5LT_THIN
 70
     0
  3

 72
    65
 73
     0
 40
0.0
  0
LTYPE
  5
AC
330
5
100
AcDbSymbolTableRecord
100
AcDbLinetypeTableRecord
  2
K5LT_BASIC
 70
     0
  3

 72
    65
 73
     0
 40
0.0
  0
ENDTAB
  0
TABLE
  2
LAYER
  5
2
330
0
100
AcDbSymbolTable
 70
     2
  0
LAYER
  5
10
330
2
100
AcDbSymbolTableRecord
100
AcDbLayerTableRecord
  2
0
 70
     0
 62
     7
  6
Continuous
370
    -3
390
F
347
0
  0
LAYER
  5
3C
330
2
100
AcDbSymbolTableRecord
100
AcDbLayerTableRecord
  2
Системный слой
 70
     0
 62
     7
  6
Continuous
370
    -3
390
F
347
0
  0
ENDTAB
  0
TABLE
  2
STYLE
  5
3
330
0
100
AcDbSymbolTable
 70
     1
  0
STYLE
  5
11
330
3
100
AcDbSymbolTableRecord
100
AcDbTextStyleTableRecord
  2
Standard
 70
     0
 40
0.0
 41
1.0
 50
0.0
 71
     0
 42
2.5
  3
txt
  4

  0
ENDTAB
  0
TABLE
  2
VIEW
  5
6
330
0
100
AcDbSymbolTable
 70
     0
  0
ENDTAB
  0
TABLE
  2
UCS
  5
7
330
0
100
AcDbSymbolTable
 70
     0
  0
ENDTAB
  0
TABLE
  2
APPID
  5
9
330
0
100
AcDbSymbolTable
 70
     2
  0
APPID
  5
12
330
9
100
AcDbSymbolTableRecord
100
AcDbRegAppTableRecord
  2
ACAD
 70
     0
  0
APPID
  5
3B
330
9
100
AcDbSymbolTableRecord
100
AcDbRegAppTableRecord
  2
KOMPAS
 70
     0
  0
ENDTAB
  0
TABLE
  2
DIMSTYLE
  5
A
330
0
100
AcDbSymbolTable
 70
     1
100
AcDbDimStyleTable
  0
DIMSTYLE
105
27
330
A
100
AcDbSymbolTableRecord
100
AcDbDimStyleTableRecord
  2
ISO-25
 70
     0
 41
2.5
 42
0.625
 43
3.75
 44
1.25
 73
     0
 74
     0
 77
     1
 78
     8
140
2.5
141
2.5
143
0.03937007874016
147
0.625
171
     3
172
     1
271
     2
272
     2
274
     3
278
    44
283
     0
284
     8
340
11
  0
ENDTAB
  0
TABLE
  2
BLOCK_RECORD
  5
1
330
0
100
AcDbSymbolTable
 70
    36
  0
BLOCK_RECORD
  5
1F
330
1
100
AcDbSymbolTableRecord
100
AcDbBlockTableRecord
  2
*Model_Space
340
22
 70
     0
280
     1
281
     0
  0
BLOCK_RECORD
  5
1B
330
1
100
AcDbSymbolTableRecord
100
AcDbBlockTableRecord
  2
*Paper_Space
340
1E
 70
     0
280
     1
281
     0
  0
BLOCK_RECORD
  5
23
330
1
100
AcDbSymbolTableRecord
100
AcDbBlockTableRecord
  2
*Paper_Space0
340
26
 70
     0
280
     1
281
     0
  0
BLOCK_RECORD
  5
3D
330
1
100
AcDbSymbolTableRecord
100
AcDbBlockTableRecord
  2
KDIMARROW_00
340
0
 70
     0
280
     1
281
     0
  0
BLOCK_RECORD
  5
42
330
1
100
AcDbSymbolTableRecord
100
AcDbBlockTableRecord
  2
KDIMARROW_01
340
0
 70
     0
280
     1
281
     0
  0
BLOCK_RECORD
  5
4B
330
1
100
AcDbSymbolTableRecord
100
AcDbBlockTableRecord
  2
KDIMARROW_02
340
0
 70
     0
280
     1
281
     0
  0
BLOCK_RECORD
  5
55
330
1
100
AcDbSymbolTableRecord
100
AcDbBlockTableRecord
  2
KDIMARROW_03
340
0
 70
     0
280
     1
281
     0
  0
BLOCK_RECORD
  5
5B
330
1
100
AcDbSymbolTableRecord
100
AcDbBlockTableRecord
  2
KDIMARROW_04
340
0
 70
     0
280
     1
281
     0
  0
BLOCK_RECORD
  5
61
330
1
100
AcDbSymbolTableRecord
100
AcDbBlockTableRecord
  2
KDIMARROW_05
340
0
 70
     0
280
     1
281
     0
  0
BLOCK_RECORD
  5
6A
330
1
100
AcDbSymbolTableRecord
100
AcDbBlockTableRecord
  2
KDIMARROW_06
340
0
 70
     0
280
     1
281
     0
  0
BLOCK_RECORD
  5
74
330
1
100
AcDbSymbolTableRecord
100
AcDbBlockTableRecord
  2
KDIMARROW_07
340
0
 70
     0
280
     1
281
     0
  0
BLOCK_RECORD
  5
7A
330
1
100
AcDbSymbolTableRecord
100
AcDbBlockTableRecord
  2
KDIMARROW_08
340
0
 70
     0
280
     1
281
     0
  0
BLOCK_RECORD
  5
81
330
1
100
AcDbSymbolTableRecord
100
AcDbBlockTableRecord
  2
KDIMARROW_09
340
0
 70
     0
280
     1
281
     0
  0
BLOCK_RECORD
  5
87
330
1
100
AcDbSymbolTableRecord
100
AcDbBlockTableRecord
  2
KDIMARROW_10
340
0
 70
     0
280
     1
281
     0
  0
BLOCK_RECORD
  5
8E
330
1
100
AcDbSymbolTableRecord
100
AcDbBlockTableRecord
  2
KDIMARROW_11
340
0
 70
     0
280
     1
281
     0
  0
BLOCK_RECORD
  5
94
330
1
100
AcDbSymbolTableRecord
100
AcDbBlockTableRecord
  2
KDIMARROW_12
340
0
 70
     0
280
     1
281
     0
  0
BLOCK_RECORD
  5
9A
330
1
100
AcDbSymbolTableRecord
100
AcDbBlockTableRecord
  2
KDIMARROW_13
340
0
 70
     0
280
     1
281
     0
  0
BLOCK_RECORD
  5
A2
330
1
100
AcDbSymbolTableRecord
100
AcDbBlockTableRecord
  2
U0
340
0
102
{BLKREFS
331
A3
102
}
 70
     0
280
     1
281
     0
  0
BLOCK_RECORD
  5
AA
330
1
100
AcDbSymbolTableRecord
100
AcDbBlockTableRecord
  2
U1
340
0
102
{BLKREFS
331
AB
102
}
 70
     0
280
     1
281
     0
  0
BLOCK_RECORD
  5
1A5
330
1
100
AcDbSymbolTableRecord
100
AcDbBlockTableRecord
  2
U2
340
0
102
{BLKREFS
331
1A6
102
}
 70
     0
280
     1
281
     0
  0
BLOCK_RECORD
  5
1AD
330
1
100
AcDbSymbolTableRecord
100
AcDbBlockTableRecord
  2
U3
340
0
102
{BLKREFS
331
1AE
102
}
 70
     0
280
     1
281
     0
  0
BLOCK_RECORD
  5
1BE
330
1
100
AcDbSymbolTableRecord
100
AcDbBlockTableRecord
  2
U4
340
0
102
{BLKREFS
331
1BF
102
}
 70
     0
280
     1
281
     0
  0
BLOCK_RECORD
  5
1CE
330
1
100
AcDbSymbolTableRecord
100
AcDbBlockTableRecord
  2
U5
340
0
102
{BLKREFS
331
1CF
102
}
 70
     0
280
     1
281
     0
  0
BLOCK_RECORD
  5
1D5
330
1
100
AcDbSymbolTableRecord
100
AcDbBlockTableRecord
  2
U6
340
0
102
{BLKREFS
331
1D6
102
}
 70
     0
280
     1
281
     0
  0
BLOCK_RECORD
  5
1DD
330
1
100
AcDbSymbolTableRecord
100
AcDbBlockTableRecord
  2
U7
340
0
102
{BLKREFS
331
1DE
102
}
 70
     0
280
     1
281
     0
  0
BLOCK_RECORD
  5
1EA
330
1
100
AcDbSymbolTableRecord
100
AcDbBlockTableRecord
  2
U8
340
0
102
{BLKREFS
331
1EB
102
}
 70
     0
280
     1
281
     0
  0
BLOCK_RECORD
  5
1F9
330
1
100
AcDbSymbolTableRecord
100
AcDbBlockTableRecord
  2
U9
340
0
102
{BLKREFS
331
1FA
102
}
 70
     0
280
     1
281
     0
  0
BLOCK_RECORD
  5
203
330
1
100
AcDbSymbolTableRecord
100
AcDbBlockTableRecord
  2
U10
340
0
102
{BLKREFS
331
204
102
}
 70
     0
280
     1
281
     0
  0
BLOCK_RECORD
  5
20C
330
1
100
AcDbSymbolTableRecord
100
AcDbBlockTableRecord
  2
U11
340
0
102
{BLKREFS
331
20D
102
}
 70
     0
280
     1
281
     0
  0
BLOCK_RECORD
  5
218
330
1
100
AcDbSymbolTableRecord
100
AcDbBlockTableRecord
  2
U12
340
0
102
{BLKREFS
331
219
102
}
 70
     0
280
     1
281
     0
  0
BLOCK_RECORD
  5
222
330
1
100
AcDbSymbolTableRecord
100
AcDbBlockTableRecord
  2
U13
340
0
102
{BLKREFS
331
223
102
}
 70
     0
280
     1
281
     0
  0
BLOCK_RECORD
  5
230
330
1
100
AcDbSymbolTableRecord
100
AcDbBlockTableRecord
  2
U14
340
0
102
{BLKREFS
331
231
102
}
 70
     0
280
     1
281
     0
  0
BLOCK_RECORD
  5
23D
330
1
100
AcDbSymbolTableRecord
100
AcDbBlockTableRecord
  2
U15
340
0
102
{BLKREFS
331
23E
102
}
 70
     0
280
     1
281
     0
  0
BLOCK_RECORD
  5
249
330
1
100
AcDbSymbolTableRecord
100
AcDbBlockTableRecord
  2
U16
340
0
102
{BLKREFS
331
24A
102
}
 70
     0
280
     1
281
     0
  0
BLOCK_RECORD
  5
258
330
1
100
AcDbSymbolTableRecord
100
AcDbBlockTableRecord
  2
U17
340
0
102
{BLKREFS
331
259
102
}
 70
     0
280
     1
281
     0
  0
BLOCK_RECORD
  5
265
330
1
100
AcDbSymbolTableRecord
100
AcDbBlockTableRecord
  2
U18
340
0
102
{BLKREFS
331
266
102
}
 70
     0
280
     1
281
     0
  0
BLOCK_RECORD
  5
26F
330
1
100
AcDbSymbolTableRecord
100
AcDbBlockTableRecord
  2
U19
340
0
102
{BLKREFS
331
270
102
}
 70
     0
280
     1
281
     0
  0
BLOCK_RECORD
  5
27E
330
1
100
AcDbSymbolTableRecord
100
AcDbBlockTableRecord
  2
U20
340
0
102
{BLKREFS
331
27F
102
}
 70
     0
280
     1
281
     0
  0
ENDTAB
  0
ENDSEC
  0
SECTION
  2
BLOCKS
  0
BLOCK
  5
20
330
1F
100
AcDbEntity
  8
0
100
AcDbBlockBegin
  2
*Model_Space
 70
     0
 10
0.0
 20
0.0
 30
0.0
  3
*Model_Space
  1

  0
ENDBLK
  5
21
330
1F
100
AcDbEntity
  8
0
100
AcDbBlockEnd
  0
BLOCK
  5
1C
330
1B
100
AcDbEntity
 67
     1
  8
0
100
AcDbBlockBegin
  2
*Paper_Space
 70
     0
 10
0.0
 20
0.0
 30
0.0
  3
*Paper_Space
  1

  0
ENDBLK
  5
1D
330
1B
100
AcDbEntity
 67
     1
  8
0
100
AcDbBlockEnd
  0
BLOCK
  5
24
330
23
100
AcDbEntity
  8
0
100
AcDbBlockBegin
  2
*Paper_Space0
 70
     0
 10
0.0
 20
0.0
 30
0.0
  3
*Paper_Space0
  1

  0
ENDBLK
  5
25
330
23
100
AcDbEntity
  8
0
100
AcDbBlockEnd
  0
BLOCK
  5
40
330
3D
100
AcDbEntity
  8
0
100
AcDbBlockBegin
  2
KDIMARROW_00
 70
     0
 10
0.0
 20
0.0
 30
0.0
  3
KDIMARROW_00
  1

  0
LINE
  5
3F
330
3D
100
AcDbEntity
  8
0
  6
K5LT_THIN
 62
     0
370
    18
100
AcDbLine
 10
0.0
 20
0.0
 30
0.0
 11
-1.0
 21
0.0
 31
0.0
  0
ENDBLK
  5
41
330
3D
100
AcDbEntity
  8
0
100
AcDbBlockEnd
  0
BLOCK
  5
49
330
42
100
AcDbEntity
  8
0
100
AcDbBlockBegin
  2
KDIMARROW_01
 70
     0
 10
0.0
 20
0.0
 30
0.0
  3
KDIMARROW_01
  1

  0
LINE
  5
43
330
42
100
AcDbEntity
  8
0
  6
K5LT_THIN
 62
     0
370
    18
100
AcDbLine
 10
0.0
 20
0.0
 30
0.0
 11
-5.000000000000002
 21
-0.6582624912261958
 31
0.0
  0
LINE
  5
44
330
42
100
AcDbEntity
  8
0
  6
K5LT_THIN
 62
     0
370
    18
100
AcDbLine
 10
-5.0
 20
-0.6582624912261956
 30
0.0
 11
-4.5
 21
0.0000000000000004
 31
0.0
  0
LINE
  5
45
330
42
100
AcDbEntity
  8
0
  6
K5LT_THIN
 62
     0
370
    18
100
AcDbLine
 10
-4.5
 20
0.0000000000000006
 30
0.0
 11
-5.0
 21
0.658262491226197
 31
0.0
  0
LINE
  5
46
330
42
100
AcDbEntity
  8
0
  6
K5LT_THIN
 62
     0
370
    18
100
AcDbLine
 10
-5.0
 20
0.658262491226197
 30
0.0
 11
0.0000000000000018
 21
0.0
 31
0.0
  0
HATCH
  5
47
330
42
100
AcDbEntity
  8
0
 62
     0
100
AcDbHatch
 10
0.0
 20
0.0
 30
0.0
210
0.0
220
0.0
230
1.0
  2
SOLID
 70
     1
 71
     0
 91
        1
 92
        1
 93
        4
 72
     1
 10
-5.000000000000002
 20
-0.6582624912261958
 11
0.0
 21
0.0
 72
     1
 10
0.0000000000000018
 20
0.0
 11
-5.0
 21
0.658262491226197
 72
     1
 10
-5.0
 20
0.658262491226197
 11
-4.5
 21
0.0000000000000006
 72
     1
 10
-4.5
 20
0.0000000000000004
 11
-5.0
 21
-0.6582624912261956
 97
        0
 75
     0
 76
     1
 98
        0
  0
LINE
  5
48
330
42
100
AcDbEntity
  8
0
  6
K5LT_THIN
 62
     0
370
    18
100
AcDbLine
 10
0.0
 20
0.0
 30
0.0
 11
-1.0
 21
0.0
 31
0.0
  0
ENDBLK
  5
4A
330
42
100
AcDbEntity
  8
0
100
AcDbBlockEnd
  0
BLOCK
  5
53
330
4B
100
AcDbEntity
  8
0
100
AcDbBlockBegin
  2
KDIMARROW_02
 70
     0
 10
0.0
 20
0.0
 30
0.0
  3
KDIMARROW_02
  1

  0
LINE
  5
4C
330
4B
100
AcDbEntity
  8
0
  6
K5LT_THIN
 62
     0
370
    18
100
AcDbLine
 10
0.0
 20
0.0
 30
0.0
 11
5.000000000000002
 21
-0.658262491226197
 31
0.0
  0
LINE
  5
4D
330
4B
100
AcDbEntity
  8
0
  6
K5LT_THIN
 62
     0
370
    18
100
AcDbLine
 10
5.0
 20
-0.658262491226197
 30
0.0
 11
4.5
 21
-0.0000000000000006
 31
0.0
  0
LINE
  5
4E
330
4B
100
AcDbEntity
  8
0
  6
K5LT_THIN
 62
     0
370
    18
100
AcDbLine
 10
4.5
 20
-0.0000000000000006
 30
0.0
 11
5.0
 21
0.6582624912261955
 31
0.0
  0
LINE
  5
4F
330
4B
100
AcDbEntity
  8
0
  6
K5LT_THIN
 62
     0
370
    18
100
AcDbLine
 10
5.0
 20
0.6582624912261956
 30
0.0
 11
-0.0000000000000018
 21
-0.0000000000000002
 31
0.0
  0
LINE
  5
50
330
4B
100
AcDbEntity
  8
0
  6
K5LT_THIN
 62
     0
370
    18
100
AcDbLine
 10
0.0
 20
0.0
 30
0.0
 11
7.0
 21
-0.0000000000000009
 31
0.0
  0
HATCH
  5
51
330
4B
100
AcDbEntity
  8
0
 62
     0
100
AcDbHatch
 10
0.0
 20
0.0
 30
0.0
210
0.0
220
0.0
230
1.0
  2
SOLID
 70
     1
 71
     0
 91
        1
 92
        1
 93
        4
 72
     1
 10
4.5
 20
-0.0000000000000006
 11
5.0
 21
0.6582624912261955
 72
     1
 10
5.0
 20
0.6582624912261956
 11
-0.0000000000000018
 21
-0.0000000000000002
 72
     1
 10
0.0
 20
0.0
 11
5.000000000000002
 21
-0.658262491226197
 72
     1
 10
5.0
 20
-0.658262491226197
 11
4.5
 21
-0.0000000000000006
 97
        0
 75
     0
 76
     1
 98
        0
  0
LINE
  5
52
330
4B
100
AcDbEntity
  8
0
  6
K5LT_THIN
 62
     0
370
    18
100
AcDbLine
 10
0.0
 20
0.0
 30
0.0
 11
-1.0
 21
0.0
 31
0.0
  0
ENDBLK
  5
54
330
4B
100
AcDbEntity
  8
0
100
AcDbBlockEnd
  0
BLOCK
  5
59
330
55
100
AcDbEntity
  8
0
100
AcDbBlockBegin
  2
KDIMARROW_03
 70
     0
 10
0.0
 20
0.0
 30
0.0
  3
KDIMARROW_03
  1

  0
LINE
  5
56
330
55
100
AcDbEntity
  8
0
  6
K5LT_THIN
 62
     0
370
    18
100
AcDbLine
 10
-1.060500025749207
 20
-1.060500025749206
 30
0.0
 11
1.060500025749206
 21
1.060500025749206
 31
0.0
  0
LINE
  5
57
330
55
100
AcDbEntity
  8
0
  6
K5LT_THIN
 62
     0
370
    18
100
AcDbLine
 10
0.0
 20
0.0
 30
0.0
 11
2.0
 21
-0.0000000000000002
 31
0.0
  0
LINE
  5
58
330
55
100
AcDbEntity
  8
0
  6
K5LT_THIN
 62
     0
370
    18
100
AcDbLine
 10
0.0
 20
0.0
 30
0.0
 11
-1.0
 21
0.0
 31
0.0
  0
ENDBLK
  5
5A
330
55
100
AcDbEntity
  8
0
100
AcDbBlockEnd
  0
BLOCK
  5
5F
330
5B
100
AcDbEntity
  8
0
100
AcDbBlockBegin
  2
KDIMARROW_04
 70
     0
 10
0.0
 20
0.0
 30
0.0
  3
KDIMARROW_04
  1

  0
LWPOLYLINE
  5
5C
330
5B
100
AcDbEntity
  8
0
  6
K5LT_THIN
 62
     7
100
AcDbPolyline
 90
       10
 70
     0
 43
0.18
 10
-0.3
 20
0.0
 10
0.0
 20
-0.3
 10
0.3
 20
0.0
 10
0.0
 20
0.3
 10
-0.3
 20
0.0
 10
-0.6
 20
0.0000000000000001
 10
-0.0000000000000001
 20
-0.6
 10
0.6
 20
-0.0000000000000001
 10
0.0000000000000001
 20
0.6
 10
-0.6
 20
0.0000000000000001
  0
LWPOLYLINE
  5
5D
330
5B
100
AcDbEntity
  8
0
  6
K5LT_THIN
 62
     7
100
AcDbPolyline
 90
       10
 70
     0
 43
0.18
 10
-0.3
 20
0.0
 10
0.0
 20
-0.3
 10
0.3
 20
0.0
 10
0.0
 20
0.3
 10
-0.3
 20
0.0
 10
-0.6
 20
0.0000000000000001
 10
-0.0000000000000001
 20
-0.6
 10
0.6
 20
-0.0000000000000001
 10
0.0000000000000001
 20
0.6
 10
-0.6
 20
0.0000000000000001
  0
LINE
  5
5E
330
5B
100
AcDbEntity
  8
0
  6
K5LT_THIN
 62
     0
370
    18
100
AcDbLine
 10
0.0
 20
0.0
 30
0.0
 11
-1.0
 21
0.0
 31
0.0
  0
ENDBLK
  5
60
330
5B
100
AcDbEntity
  8
0
100
AcDbBlockEnd
  0
BLOCK
  5
68
330
61
100
AcDbEntity
  8
0
100
AcDbBlockBegin
  2
KDIMARROW_05
 70
     0
 10
0.0
 20
0.0
 30
0.0
  3
KDIMARROW_05
  1

  0
LINE
  5
62
330
61
100
AcDbEntity
  8
0
  6
K5LT_THIN
 62
     0
370
    18
100
AcDbLine
 10
0.0
 20
0.0
 30
0.0
 11
-5.000000000000002
 21
-0.6582624912261958
 31
0.0
  0
LINE
  5
63
330
61
100
AcDbEntity
  8
0
  6
K5LT_THIN
 62
     0
370
    18
100
AcDbLine
 10
-5.0
 20
-0.6582624912261956
 30
0.0
 11
-5.0
 21
0.0000000000000003
 31
0.0
  0
LINE
  5
64
330
61
100
AcDbEntity
  8
0
  6
K5LT_THIN
 62
     0
370
    18
100
AcDbLine
 10
-5.0
 20
0.0000000000000006
 30
0.0
 11
-5.0
 21
0.6582624912261966
 31
0.0
  0
LINE
  5
65
330
61
100
AcDbEntity
  8
0
  6
K5LT_THIN
 62
     0
370
    18
100
AcDbLine
 10
-5.0
 20
0.658262491226197
 30
0.0
 11
0.0000000000000018
 21
0.0
 31
0.0
  0
HATCH
  5
66
330
61
100
AcDbEntity
  8
0
 62
     0
100
AcDbHatch
 10
0.0
 20
0.0
 30
0.0
210
0.0
220
0.0
230
1.0
  2
SOLID
 70
     1
 71
     0
 91
        1
 92
        1
 93
        4
 72
     1
 10
-5.000000000000002
 20
-0.6582624912261958
 11
0.0
 21
0.0
 72
     1
 10
0.0000000000000018
 20
0.0
 11
-5.0
 21
0.658262491226197
 72
     1
 10
-5.0
 20
0.6582624912261966
 11
-5.0
 21
0.0000000000000007
 72
     1
 10
-5.0
 20
0.0000000000000003
 11
-5.0
 21
-0.6582624912261956
 97
        0
 75
     0
 76
     1
 98
        0
  0
LINE
  5
67
330
61
100
AcDbEntity
  8
0
  6
K5LT_THIN
 62
     0
370
    18
100
AcDbLine
 10
0.0
 20
0.0
 30
0.0
 11
-1.0
 21
0.0
 31
0.0
  0
ENDBLK
  5
69
330
61
100
AcDbEntity
  8
0
100
AcDbBlockEnd
  0
BLOCK
  5
72
330
6A
100
AcDbEntity
  8
0
100
AcDbBlockBegin
  2
KDIMARROW_06
 70
     0
 10
0.0
 20
0.0
 30
0.0
  3
KDIMARROW_06
  1

  0
LINE
  5
6B
330
6A
100
AcDbEntity
  8
0
  6
K5LT_THIN
 62
     0
370
    18
100
AcDbLine
 10
0.0
 20
0.0
 30
0.0
 11
5.000000000000002
 21
-0.658262491226197
 31
0.0
  0
LINE
  5
6C
330
6A
100
AcDbEntity
  8
0
  6
K5LT_THIN
 62
     0
370
    18
100
AcDbLine
 10
5.0
 20
-0.658262491226197
 30
0.0
 11
5.0
 21
-0.000000000000001
 31
0.0
  0
LINE
  5
6D
330
6A
100
AcDbEntity
  8
0
  6
K5LT_THIN
 62
     0
370
    18
100
AcDbLine
 10
5.0
 20
-0.0000000000000006
 30
0.0
 11
5.0
 21
0.6582624912261953
 31
0.0
  0
LINE
  5
6E
330
6A
100
AcDbEntity
  8
0
  6
K5LT_THIN
 62
     0
370
    18
100
AcDbLine
 10
5.0
 20
0.6582624912261956
 30
0.0
 11
-0.0000000000000018
 21
-0.0000000000000002
 31
0.0
  0
LINE
  5
6F
330
6A
100
AcDbEntity
  8
0
  6
K5LT_THIN
 62
     0
370
    18
100
AcDbLine
 10
0.0
 20
0.0
 30
0.0
 11
7.0
 21
-0.0000000000000009
 31
0.0
  0
HATCH
  5
70
330
6A
100
AcDbEntity
  8
0
 62
     0
100
AcDbHatch
 10
0.0
 20
0.0
 30
0.0
210
0.0
220
0.0
230
1.0
  2
SOLID
 70
     1
 71
     0
 91
        1
 92
        1
 93
        4
 72
     1
 10
5.0
 20
-0.0000000000000006
 11
5.0
 21
0.6582624912261953
 72
     1
 10
5.0
 20
0.6582624912261956
 11
-0.0000000000000018
 21
-0.0000000000000002
 72
     1
 10
0.0
 20
0.0
 11
5.000000000000002
 21
-0.658262491226197
 72
     1
 10
5.0
 20
-0.658262491226197
 11
5.0
 21
-0.000000000000001
 97
        0
 75
     0
 76
     1
 98
        0
  0
LINE
  5
71
330
6A
100
AcDbEntity
  8
0
  6
K5LT_THIN
 62
     0
370
    18
100
AcDbLine
 10
0.0
 20
0.0
 30
0.0
 11
-1.0
 21
0.0
 31
0.0
  0
ENDBLK
  5
73
330
6A
100
AcDbEntity
  8
0
100
AcDbBlockEnd
  0
BLOCK
  5
78
330
74
100
AcDbEntity
  8
0
100
AcDbBlockBegin
  2
KDIMARROW_07
 70
     0
 10
0.0
 20
0.0
 30
0.0
  3
KDIMARROW_07
  1

  0
LINE
  5
75
330
74
100
AcDbEntity
  8
0
  6
K5LT_THIN
 62
     0
370
    18
100
AcDbLine
 10
0.0
 20
0.0
 30
0.0
 11
-5.000000000000002
 21
-0.6582624912261958
 31
0.0
  0
LINE
  5
76
330
74
100
AcDbEntity
  8
0
  6
K5LT_THIN
 62
     0
370
    18
100
AcDbLine
 10
0.0
 20
0.0
 30
0.0
 11
-5.000000000000002
 21
0.658262491226197
 31
0.0
  0
LINE
  5
77
330
74
100
AcDbEntity
  8
0
  6
K5LT_THIN
 62
     0
370
    18
100
AcDbLine
 10
0.0
 20
0.0
 30
0.0
 11
-1.0
 21
0.0
 31
0.0
  0
ENDBLK
  5
79
330
74
100
AcDbEntity
  8
0
100
AcDbBlockEnd
  0
BLOCK
  5
7F
330
7A
100
AcDbEntity
  8
0
100
AcDbBlockBegin
  2
KDIMARROW_08
 70
     0
 10
0.0
 20
0.0
 30
0.0
  3
KDIMARROW_08
  1

  0
LINE
  5
7B
330
7A
100
AcDbEntity
  8
0
  6
K5LT_THIN
 62
     0
370
    18
100
AcDbLine
 10
0.0
 20
0.0
 30
0.0
 11
5.000000000000002
 21
-0.658262491226197
 31
0.0
  0
LINE
  5
7C
330
7A
100
AcDbEntity
  8
0
  6
K5LT_THIN
 62
     0
370
    18
100
AcDbLine
 10
0.0
 20
0.0
 30
0.0
 11
5.000000000000002
 21
0.6582624912261958
 31
0.0
  0
LINE
  5
7D
330
7A
100
AcDbEntity
  8
0
  6
K5LT_THIN
 62
     0
370
    18
100
AcDbLine
 10
0.0
 20
0.0
 30
0.0
 11
7.0
 21
-0.0000000000000009
 31
0.0
  0
LINE
  5
7E
330
7A
100
AcDbEntity
  8
0
  6
K5LT_THIN
 62
     0
370
    18
100
AcDbLine
 10
0.0
 20
0.0
 30
0.0
 11
-1.0
 21
0.0
 31
0.0
  0
ENDBLK
  5
80
330
7A
100
AcDbEntity
  8
0
100
AcDbBlockEnd
  0
BLOCK
  5
85
330
81
100
AcDbEntity
  8
0
100
AcDbBlockBegin
  2
KDIMARROW_09
 70
     0
 10
0.0
 20
0.0
 30
0.0
  3
KDIMARROW_09
  1

  0
LINE
  5
82
330
81
100
AcDbEntity
  8
0
  6
K5LT_THIN
 62
     0
370
    18
100
AcDbLine
 10
0.0
 20
0.0
 30
0.0
 11
-2.0
 21
-2.0
 31
0.0
  0
LINE
  5
83
330
81
100
AcDbEntity
  8
0
  6
K5LT_THIN
 62
     0
370
    18
100
AcDbLine
 10
0.0
 20
0.0
 30
0.0
 11
-2.0
 21
2.0
 31
0.0
  0
LINE
  5
84
330
81
100
AcDbEntity
  8
0
  6
K5LT_THIN
 62
     0
370
    18
100
AcDbLine
 10
0.0
 20
0.0
 30
0.0
 11
-1.0
 21
0.0
 31
0.0
  0
ENDBLK
  5
86
330
81
100
AcDbEntity
  8
0
100
AcDbBlockEnd
  0
BLOCK
  5
8C
330
87
100
AcDbEntity
  8
0
100
AcDbBlockBegin
  2
KDIMARROW_10
 70
     0
 10
0.0
 20
0.0
 30
0.0
  3
KDIMARROW_10
  1

  0
LINE
  5
88
330
87
100
AcDbEntity
  8
0
  6
K5LT_THIN
 62
     0
370
    18
100
AcDbLine
 10
0.0
 20
0.0
 30
0.0
 11
2.0
 21
-2.0
 31
0.0
  0
LINE
  5
89
330
87
100
AcDbEntity
  8
0
  6
K5LT_THIN
 62
     0
370
    18
100
AcDbLine
 10
0.0
 20
0.0
 30
0.0
 11
2.0
 21
2.0
 31
0.0
  0
LINE
  5
8A
330
87
100
AcDbEntity
  8
0
  6
K5LT_THIN
 62
     0
370
    18
100
AcDbLine
 10
0.0
 20
0.0
 30
0.0
 11
4.0
 21
-0.0000000000000005
 31
0.0
  0
LINE
  5
8B
330
87
100
AcDbEntity
  8
0
  6
K5LT_THIN
 62
     0
370
    18
100
AcDbLine
 10
0.0
 20
0.0
 30
0.0
 11
-1.0
 21
0.0
 31
0.0
  0
ENDBLK
  5
8D
330
87
100
AcDbEntity
  8
0
100
AcDbBlockEnd
  0
BLOCK
  5
92
330
8E
100
AcDbEntity
  8
0
100
AcDbBlockBegin
  2
KDIMARROW_11
 70
     0
 10
0.0
 20
0.0
 30
0.0
  3
KDIMARROW_11
  1

  0
CIRCLE
  5
8F
330
8E
100
AcDbEntity
  8
0
  6
K5LT_THIN
 62
     0
370
    18
100
AcDbCircle
 10
0.0
 20
0.0
 30
0.0
 40
2.5
  0
CIRCLE
  5
90
330
8E
100
AcDbEntity
  8
0
  6
K5LT_THIN
 62
     0
370
    18
100
AcDbCircle
 10
0.0
 20
0.0
 30
0.0
 40
2.5
  0
LINE
  5
91
330
8E
100
AcDbEntity
  8
0
  6
K5LT_THIN
 62
     0
370
    18
100
AcDbLine
 10
0.0
 20
0.0
 30
0.0
 11
-1.0
 21
0.0
 31
0.0
  0
ENDBLK
  5
93
330
8E
100
AcDbEntity
  8
0
100
AcDbBlockEnd
  0
BLOCK
  5
98
330
94
100
AcDbEntity
  8
0
100
AcDbBlockBegin
  2
KDIMARROW_12
 70
     0
 10
0.0
 20
0.0
 30
0.0
  3
KDIMARROW_12
  1

  0
CIRCLE
  5
95
330
94
100
AcDbEntity
  8
0
  6
K5LT_THIN
 62
     0
370
    18
100
AcDbCircle
 10
0.0
 20
0.0
 30
0.0
 40
1.5
  0
CIRCLE
  5
96
330
94
100
AcDbEntity
  8
0
  6
K5LT_THIN
 62
     0
370
    18
100
AcDbCircle
 10
0.0
 20
0.0
 30
0.0
 40
1.5
  0
LINE
  5
97
330
94
100
AcDbEntity
  8
0
  6
K5LT_THIN
 62
     0
370
    18
100
AcDbLine
 10
0.0
 20
0.0
 30
0.0
 11
-1.0
 21
0.0
 31
0.0
  0
ENDBLK
  5
99
330
94
100
AcDbEntity
  8
0
100
AcDbBlockEnd
  0
BLOCK
  5
9E
330
9A
100
AcDbEntity
  8
0
100
AcDbBlockBegin
  2
KDIMARROW_13
 70
     0
 10
0.0
 20
0.0
 30
0.0
  3
KDIMARROW_13
  1

  0
LINE
  5
9B
330
9A
100
AcDbEntity
  8
0
  6
K5LT_THIN
 62
     0
370
    18
100
AcDbLine
 10
-1.060500025749206
 20
1.060500025749207
 30
0.0
 11
1.060500025749206
 21
-1.060500025749206
 31
0.0
  0
LINE
  5
9C
330
9A
100
AcDbEntity
  8
0
  6
K5LT_THIN
 62
     0
370
    18
100
AcDbLine
 10
0.0
 20
0.0
 30
0.0
 11
2.0
 21
-0.0000000000000002
 31
0.0
  0
LINE
  5
9D
330
9A
100
AcDbEntity
  8
0
  6
K5LT_THIN
 62
     0
370
    18
100
AcDbLine
 10
0.0
 20
0.0
 30
0.0
 11
-1.0
 21
0.0
 31
0.0
  0
ENDBLK
  5
9F
330
9A
100
AcDbEntity
  8
0
100
AcDbBlockEnd
  0
BLOCK
  5
A8
330
A2
100
AcDbEntity
  8
0
100
AcDbBlockBegin
  2
U0
 70
     0
 10
0.0
 20
0.0
 30
0.0
  3
U0
  1

  0
LINE
  5
A4
330
A2
100
AcDbEntity
  8
0
  6
K5LT_THIN
 62
     7
370
    18
100
AcDbLine
 10
226.1239067992431
 20
9.36391932725698
 30
0.0
 11
1196.123906799243
 21
9.36391932725698
 31
0.0
  0
LINE
  5
A5
330
A2
100
AcDbEntity
  8
0
  6
K5LT_THIN
 62
     7
370
    18
100
AcDbLine
 10
1196.123906799243
 20
9.36391932725698
 30
0.0
 11
1196.123906799243
 21
1979.363919327257
 31
0.0
  0
LINE
  5
A6
330
A2
100
AcDbEntity
  8
0
  6
K5LT_THIN
 62
     7
370
    18
100
AcDbLine
 10
1196.123906799243
 20
1979.363919327257
 30
0.0
 11
226.1239067992431
 21
1979.363919327257
 31
0.0
  0
LINE
  5
A7
330
A2
100
AcDbEntity
  8
0
  6
K5LT_THIN
 62
     7
370
    18
100
AcDbLine
 10
226.1239067992431
 20
1979.363919327257
 30
0.0
 11
226.1239067992431
 21
9.363919327257008
 31
0.0
  0
ENDBLK
  5
A9
330
A2
100
AcDbEntity
  8
0
100
AcDbBlockEnd
  0
BLOCK
  5
B1
330
AA
100
AcDbEntity
  8
0
100
AcDbBlockBegin
  2
U1
 70
     0
 10
0.0
 20
0.0
 30
0.0
  3
U1
  1

  0
LINE
  5
AD
330
AA
100
AcDbEntity
  8
0
  6
K5LT_BASIC
 62
     5
420
      255
370
    60
100
AcDbLine
 10
266.1239067992431
 20
49.36391932725698
 30
0.0
 11
1156.123906799243
 21
49.36391932725698
 31
0.0
  0
LINE
  5
AE
330
AA
100
AcDbEntity
  8
0
  6
K5LT_BASIC
 62
     5
420
      255
370
    60
100
AcDbLine
 10
1156.123906799243
 20
49.36391932725698
 30
0.0
 11
1156.123906799243
 21
1939.363919327257
 31
0.0
  0
LINE
  5
AF
330
AA
100
AcDbEntity
  8
0
  6
K5LT_BASIC
 62
     5
420
      255
370
    60
100
AcDbLine
 10
1156.123906799243
 20
1939.363919327257
 30
0.0
 11
266.1239067992431
 21
1939.363919327257
 31
0.0
  0
LINE
  5
B0
330
AA
100
AcDbEntity
  8
0
  6
K5LT_BASIC
 62
     5
420
      255
370
    60
100
AcDbLine
 10
266.1239067992431
 20
1939.363919327257
 30
0.0
 11
266.1239067992431
 21
49.36391932725678
 31
0.0
  0
ENDBLK
  5
B2
330
AA
100
AcDbEntity
  8
0
100
AcDbBlockEnd
  0
BLOCK
  5
1AB
330
1A5
100
AcDbEntity
  8
0
100
AcDbBlockBegin
  2
U2
 70
     0
 10
0.0
 20
0.0
 30
0.0
  3
U2
  1

  0
ARC
  5
1A7
330
1A5
100
AcDbEntity
  8
0
  6
K5LT_THIN
 62
     7
370
    18
100
AcDbCircle
 10
1110.536809934079
 20
1573.921614311288
 30
0.0
 40
168.0697361258656
100
AcDbArc
 50
123.7623926235262
 51
149.8692789417016
  0
ARC
  5
1A8
330
1A5
100
AcDbEntity
  8
0
  6
K5LT_THIN
 62
     7
370
    18
100
AcDbCircle
 10
1011.014406023797
 20
1667.327622665749
 30
0.0
 40
51.12746494689729
100
AcDbArc
 50
84.42006251106402
 51
189.2116090541637
  0
ARC
  5
1A9
330
1A5
100
AcDbEntity
  8
0
  6
K5LT_THIN
 62
     7
370
    18
100
AcDbCircle
 10
963.0140481449221
 20
1659.54328000489
 30
0.0
 40
2.5
100
AcDbArc
 50
189.2116090541625
 51
329.8692789417013
  0
ARC
  5
1AA
330
1A5
100
AcDbEntity
  8
0
  6
K5LT_THIN
 62
     7
370
    18
100
AcDbCircle
 10
1015.742668793774
 20
1715.724666773212
 30
0.0
 40
2.5
100
AcDbArc
 50
303.7623926235277
 51
84.42006251106403
  0
ENDBLK
  5
1AC
330
1A5
100
AcDbEntity
  8
0
100
AcDbBlockEnd
  0
BLOCK
  5
1BC
330
1AD
100
AcDbEntity
  8
0
100
AcDbBlockBegin
  2
U3
 70
     0
 10
0.0
 20
0.0
 30
0.0
  3
U3
  1

  0
ARC
  5
1AF
330
1AD
100
AcDbEntity
  8
0
  6
K5LT_THIN
 62
     7
370
    18
100
AcDbCircle
 10
1057.701941312265
 20
1636.118118501247
 30
0.0
 40
61.37659494708458
100
AcDbArc
 50
51.17698603545472
 51
139.5235880421005
  0
ARC
  5
1B0
330
1AD
100
AcDbEntity
  8
0
  6
K5LT_THIN
 62
     7
370
    18
100
AcDbCircle
 10
1147.810278056278
 20
1550.387133804445
 30
0.0
 40
185.6922395978467
100
AcDbArc
 50
137.4494167261786
 51
207.8807658008528
  0
ARC
  5
1B1
330
1AD
100
AcDbEntity
  8
0
  6
K5LT_THIN
 62
     7
370
    18
100
AcDbCircle
 10
1362.983771437761
 20
1684.205893638552
 30
0.0
 40
438.8226769292785
100
AcDbArc
 50
210.187618888314
 51
235.1448755148717
  0
LINE
  5
1B2
330
1AD
100
AcDbEntity
  8
0
  6
K5LT_THIN
 62
     7
370
    18
100
AcDbLine
 10
1116.123906799243
 20
1415.021418194007
 30
0.0
 11
1116.123906799243
 21
1326.159616866691
 31
0.0
  0
ARC
  5
1B3
330
1AD
100
AcDbEntity
  8
0
  6
K5LT_THIN
 62
     7
370
    18
100
AcDbCircle
 10
1113.623906799243
 20
1326.159616866691
 30
0.0
 40
2.5
100
AcDbArc
 50
235.1448755148711
 51
0.0
  0
ARC
  5
1B4
330
1AD
100
AcDbEntity
  8
0
  6
K5LT_THIN
 62
     7
370
    18
100
AcDbCircle
 10
1076.951946609794
 20
1495.023941115754
 30
0.0
 40
85.50702436726978
100
AcDbArc
 50
154.1348973835999
 51
294.626013313446
  0
ARC
  5
1B5
330
1AD
100
AcDbEntity
  8
0
  6
K5LT_THIN
 62
     7
370
    18
100
AcDbCircle
 10
1113.623906799243
 20
1415.021418194007
 30
0.0
 40
2.5
100
AcDbArc
 50
0.0
 51
114.6260133134467
  0
ARC
  5
1B6
330
1AD
100
AcDbEntity
  8
0
  6
K5LT_THIN
 62
     7
370
    18
100
AcDbCircle
 10
1157.381350931588
 20
1468.026789848057
 30
0.0
 40
169.9999999999974
100
AcDbArc
 50
104.6945740663016
 51
157.7756149550242
  0
ARC
  5
1B7
330
1AD
100
AcDbEntity
  8
0
  6
K5LT_THIN
 62
     7
370
    18
100
AcDbCircle
 10
1103.39637166218
 20
1658.173014647061
 30
0.0
 40
22.88326093680142
100
AcDbArc
 50
110.24548761308
 51
293.7611244888957
  0
LINE
  5
1B8
330
1AD
100
AcDbEntity
  8
0
  6
K5LT_THIN
 62
     7
370
    18
100
AcDbLine
 10
1116.123906799243
 20
1634.941409863795
 30
0.0
 11
1116.123906799243
 21
1634.884621797905
 31
0.0
  0
ARC
  5
1B9
330
1AD
100
AcDbEntity
  8
0
  6
K5LT_THIN
 62
     7
370
    18
100
AcDbCircle
 10
1094.612667638541
 20
1681.988061978756
 30
0.0
 40
2.5
100
AcDbArc
 50
290.2454876130787
 51
51.17698603545676
  0
ARC
  5
1BA
330
1AD
100
AcDbEntity
  8
0
  6
K5LT_THIN
 62
     7
370
    18
100
AcDbCircle
 10
1113.623906799243
 20
1634.941409863795
 30
0.0
 40
2.5
100
AcDbArc
 50
0.0
 51
113.7611244888981
  0
ARC
  5
1BB
330
1AD
100
AcDbEntity
  8
0
  6
K5LT_THIN
 62
     7
370
    18
100
AcDbCircle
 10
1113.623906799243
 20
1634.884621797905
 30
0.0
 40
2.5
100
AcDbArc
 50
284.6945740662994
 51
0.0
  0
ENDBLK
  5
1BD
330
1AD
100
AcDbEntity
  8
0
100
AcDbBlockEnd
  0
BLOCK
  5
1CC
330
1BE
100
AcDbEntity
  8
0
100
AcDbBlockBegin
  2
U4
 70
     0
 10
0.0
 20
0.0
 30
0.0
  3
U4
  1

  0
ARC
  5
1C0
330
1BE
100
AcDbEntity
  8
0
  6
K5LT_THIN
 62
     7
370
    18
100
AcDbCircle
 10
1151.737311451042
 20
1442.049289098606
 30
0.0
 40
150.0000000000017
100
AcDbArc
 50
104.9749055732874
 51
142.9395805083961
  0
ARC
  5
1C1
330
1BE
100
AcDbEntity
  8
0
  6
K5LT_THIN
 62
     7
370
    18
100
AcDbCircle
 10
1078.744231259865
 20
1494.785404300929
 30
0.0
 40
59.99999999999945
100
AcDbArc
 50
141.1188556965889
 51
237.0651702025277
  0
ARC
  5
1C2
330
1BE
100
AcDbEntity
  8
0
  6
K5LT_THIN
 62
     7
370
    18
100
AcDbCircle
 10
1071.789808461812
 20
1484.359134474777
 30
0.0
 40
47.46862531254379
100
AcDbArc
 50
237.2681561822456
 51
338.4808852494133
  0
ARC
  5
1C3
330
1BE
100
AcDbEntity
  8
0
  6
K5LT_THIN
 62
     7
370
    18
100
AcDbCircle
 10
1098.01087882903
 20
1488.653383428051
 30
0.0
 40
40.00000000000023
100
AcDbArc
 50
68.44677606258786
 51
152.7000807654229
  0
ARC
  5
1C4
330
1BE
100
AcDbEntity
  8
0
  6
K5LT_THIN
 62
     7
370
    18
100
AcDbCircle
 10
1074.250341228861
 20
1499.534273279275
 30
0.0
 40
13.94968445261241
100
AcDbArc
 50
147.6465543216075
 51
308.7385320934465
  0
ARC
  5
1C5
330
1BE
100
AcDbEntity
  8
0
  6
K5LT_THIN
 62
     7
370
    18
100
AcDbCircle
 10
1100.717383452107
 20
1475.177137288231
 30
0.0
 40
22.27640512510835
100
AcDbArc
 50
49.26039359093848
 51
142.7743203857385
  0
LINE
  5
1C6
330
1BE
100
AcDbEntity
  8
0
  6
K5LT_THIN
 62
     7
370
    18
100
AcDbLine
 10
1116.123906799243
 20
1584.540055065559
 30
0.0
 11
1116.123906799243
 21
1528.181643668053
 31
0.0
  0
LINE
  5
1C7
330
1BE
100
AcDbEntity
  8
0
  6
K5LT_THIN
 62
     7
370
    18
100
AcDbLine
 10
1116.123906799243
 20
1490.161390848627
 30
0.0
 11
1116.123906799243
 21
1467.864120719276
 31
0.0
  0
ARC
  5
1C8
330
1BE
100
AcDbEntity
  8
0
  6
K5LT_THIN
 62
     7
370
    18
100
AcDbCircle
 10
1113.623906799243
 20
1584.540055065559
 30
0.0
 40
2.5
100
AcDbArc
 50
0.0
 51
104.9749055732863
  0
ARC
  5
1C9
330
1BE
100
AcDbEntity
  8
0
  6
K5LT_THIN
 62
     7
370
    18
100
AcDbCircle
 10
1113.623906799243
 20
1528.181643668053
 30
0.0
 40
2.5
100
AcDbArc
 50
248.446776062586
 51
0.0
  0
ARC
  5
1CA
330
1BE
100
AcDbEntity
  8
0
  6
K5LT_THIN
 62
     7
370
    18
100
AcDbCircle
 10
1113.623906799243
 20
1490.161390848627
 30
0.0
 40
2.5
100
AcDbArc
 50
0.0
 51
49.26039359094082
  0
ARC
  5
1CB
330
1BE
100
AcDbEntity
  8
0
  6
K5LT_THIN
 62
     7
370
    18
100
AcDbCircle
 10
1113.623906799243
 20
1467.864120719276
 30
0.0
 40
2.5
100
AcDbArc
 50
338.4808852494152
 51
0.0
  0
ENDBLK
  5
1CD
330
1BE
100
AcDbEntity
  8
0
100
AcDbBlockEnd
  0
BLOCK
  5
1D3
330
1CE
100
AcDbEntity
  8
0
100
AcDbBlockBegin
  2
U5
 70
     0
 10
0.0
 20
0.0
 30
0.0
  3
U5
  1

  0
ARC
  5
1D0
330
1CE
100
AcDbEntity
  8
0
  6
K5LT_THIN
 62
     7
370
    18
100
AcDbCircle
 10
469.0217856699749
 20
1714.809312867148
 30
0.0
 40
29.99999999999974
100
AcDbArc
 50
127.7140240979263
 51
220.5779215441977
  0
ARC
  5
1D1
330
1CE
100
AcDbEntity
  8
0
  6
K5LT_THIN
 62
     7
370
    18
100
AcDbCircle
 10
524.2585289691826
 20
1790.356126967409
 30
0.0
 40
90.00000000000311
100
AcDbArc
 50
215.1499135493976
 51
237.053522297397
  0
ARC
  5
1D2
330
1CE
100
AcDbEntity
  8
0
  6
K5LT_THIN
 62
     7
370
    18
100
AcDbCircle
 10
490.9371169258027
 20
1660.168499153491
 30
0.0
 40
56.85103575140474
100
AcDbArc
 50
105.9531417122963
 51
141.8394782504231
  0
ENDBLK
  5
1D4
330
1CE
100
AcDbEntity
  8
0
100
AcDbBlockEnd
  0
BLOCK
  5
1DB
330
1D5
100
AcDbEntity
  8
0
100
AcDbBlockBegin
  2
U6
 70
     0
 10
0.0
 20
0.0
 30
0.0
  3
U6
  1

  0
ARC
  5
1D7
330
1D5
100
AcDbEntity
  8
0
  6
K5LT_THIN
 62
     7
370
    18
100
AcDbCircle
 10
671.1977460029259
 20
1423.79646860242
 30
0.0
 40
299.9999999999919
100
AcDbArc
 50
114.570812388177
 51
123.3336615346938
  0
ARC
  5
1D8
330
1D5
100
AcDbEntity
  8
0
  6
K5LT_THIN
 62
     7
370
    18
100
AcDbCircle
 10
492.4748549434346
 20
1746.855933889401
 30
0.0
 40
78.54603291949871
100
AcDbArc
 50
281.5625975081992
 51
316.3418764146717
  0
ARC
  5
1D9
330
1D5
100
AcDbEntity
  8
0
  6
K5LT_THIN
 62
     7
370
    18
100
AcDbCircle
 10
507.7174012431707
 20
1672.353156054652
 30
0.0
 40
2.5
100
AcDbArc
 50
123.3336615346923
 51
281.5625975081988
  0
ARC
  5
1DA
330
1D5
100
AcDbEntity
  8
0
  6
K5LT_THIN
 62
     7
370
    18
100
AcDbCircle
 10
547.4920233089716
 20
1694.357264307861
 30
0.0
 40
2.5
100
AcDbArc
 50
316.3418764146709
 51
114.5708123881753
  0
ENDBLK
  5
1DC
330
1D5
100
AcDbEntity
  8
0
100
AcDbBlockEnd
  0
BLOCK
  5
1E8
330
1DD
100
AcDbEntity
  8
0
100
AcDbBlockBegin
  2
U7
 70
     0
 10
0.0
 20
0.0
 30
0.0
  3
U7
  1

  0
ARC
  5
1DF
330
1DD
100
AcDbEntity
  8
0
  6
K5LT_THIN
 62
     7
370
    18
100
AcDbCircle
 10
533.7105416351717
 20
1739.524747344898
 30
0.0
 40
182.1375064735608
100
AcDbArc
 50
259.717937997309
 51
284.1425332901696
  0
ARC
  5
1E0
330
1DD
100
AcDbEntity
  8
0
  6
K5LT_THIN
 62
     7
370
    18
100
AcDbCircle
 10
509.9374800447052
 20
1609.526380329052
 30
0.0
 40
49.98378538347878
100
AcDbArc
 50
127.7959152863676
 51
259.9326817258926
  0
ARC
  5
1E1
330
1DD
100
AcDbEntity
  8
0
  6
K5LT_THIN
 62
     7
370
    18
100
AcDbCircle
 10
480.7820455246894
 20
1647.006578093948
 30
0.0
 40
2.5
100
AcDbArc
 50
88.05079952038147
 51
126.2184684164762
  0
ARC
  5
1E2
330
1DD
100
AcDbEntity
  8
0
  6
K5LT_THIN
 62
     7
370
    18
100
AcDbCircle
 10
577.5241106368303
 20
1565.310849819557
 30
0.0
 40
2.5
100
AcDbArc
 50
285.997416083943
 51
318.5976030787634
  0
ARC
  5
1E3
330
1DD
100
AcDbEntity
  8
0
  6
K5LT_THIN
 62
     7
370
    18
100
AcDbCircle
 10
729.4516460332763
 20
1431.357413719
 30
0.0
 40
200.0475229539583
100
AcDbArc
 50
70.92361454034851
 51
138.5976030787584
  0
ARC
  5
1E4
330
1DD
100
AcDbEntity
  8
0
  6
K5LT_THIN
 62
     7
370
    18
100
AcDbCircle
 10
485.6289556398135
 20
1789.424124282387
 30
0.0
 40
140.0000000000008
100
AcDbArc
 50
268.0507995203807
 51
320.4952138961746
  0
ARC
  5
1E5
330
1DD
100
AcDbEntity
  8
0
  6
K5LT_THIN
 62
     7
370
    18
100
AcDbCircle
 10
578.0087988727621
 20
1351.146650170869
 30
0.0
 40
350.5708310251492
100
AcDbArc
 50
51.29738434170938
 51
87.106731044929
  0
ARC
  5
1E6
330
1DD
100
AcDbEntity
  8
0
  6
K5LT_THIN
 62
     7
370
    18
100
AcDbCircle
 10
595.5778868375821
 20
1698.773793182779
 30
0.0
 40
2.5
100
AcDbArc
 50
87.10673104492851
 51
140.495213896178
  0
ARC
  5
1E7
330
1DD
100
AcDbEntity
  8
0
  6
K5LT_THIN
 62
     7
370
    18
100
AcDbCircle
 10
795.6499307284759
 20
1622.781775173329
 30
0.0
 40
2.5
100
AcDbArc
 50
250.9236145403505
 51
51.29738434171102
  0
ENDBLK
  5
1E9
330
1DD
100
AcDbEntity
  8
0
100
AcDbBlockEnd
  0
BLOCK
  5
1F7
330
1EA
100
AcDbEntity
  8
0
100
AcDbBlockBegin
  2
U8
 70
     0
 10
0.0
 20
0.0
 30
0.0
  3
U8
  1

  0
ARC
  5
1EC
330
1EA
100
AcDbEntity
  8
0
  6
K5LT_THIN
 62
     7
370
    18
100
AcDbCircle
 10
1063.310011295887
 20
1224.13212904032
 30
0.0
 40
40.00000000000077
100
AcDbArc
 50
314.4432924840858
 51
48.23826098707572
  0
ARC
  5
1ED
330
1EA
100
AcDbEntity
  8
0
  6
K5LT_THIN
 62
     7
370
    18
100
AcDbCircle
 10
1019.09098253739
 20
1183.408336819848
 30
0.0
 40
100.0000000000003
100
AcDbArc
 50
44.8785464933958
 51
155.7431378638461
  0
ARC
  5
1EE
330
1EA
100
AcDbEntity
  8
0
  6
K5LT_THIN
 62
     7
370
    18
100
AcDbCircle
 10
1059.433581361928
 20
1146.340856442659
 30
0.0
 40
152.9815957204723
100
AcDbArc
 50
149.2796937051887
 51
171.9112454120407
  0
ARC
  5
1EF
330
1EA
100
AcDbEntity
  8
0
  6
K5LT_THIN
 62
     7
370
    18
100
AcDbCircle
 10
879.8885913798697
 20
1028.330225078427
 30
0.0
 40
140.0000000000003
100
AcDbArc
 50
14.9222489084042
 51
77.6161754410834
  0
ARC
  5
1F0
330
1EA
100
AcDbEntity
  8
0
  6
K5LT_THIN
 62
     7
370
    18
100
AcDbCircle
 10
1065.678730010562
 20
1177.833638154437
 30
0.0
 40
59.999999999999
100
AcDbArc
 50
178.3658857501035
 51
256.0407359962488
  0
ARC
  5
1F1
330
1EA
100
AcDbEntity
  8
0
  6
K5LT_THIN
 62
     7
370
    18
100
AcDbCircle
 10
1047.613508709479
 20
1182.483561764199
 30
0.0
 40
42.0132950795907
100
AcDbArc
 50
19.52298418562538
 51
184.0112318174459
  0
ARC
  5
1F2
330
1EA
100
AcDbEntity
  8
0
  6
K5LT_THIN
 62
     7
370
    18
100
AcDbCircle
 10
910.4490829074659
 20
1167.514657963688
 30
0.0
 40
2.5
100
AcDbArc
 50
171.9112454120427
 51
257.6161754410836
  0
ARC
  5
1F3
330
1EA
100
AcDbEntity
  8
0
  6
K5LT_THIN
 62
     7
370
    18
100
AcDbCircle
 10
1089.567623560034
 20
1197.359236066535
 30
0.0
 40
2.5
100
AcDbArc
 50
199.5229841856236
 51
314.4432924840844
  0
ARC
  5
1F4
330
1EA
100
AcDbEntity
  8
0
  6
K5LT_THIN
 62
     7
370
    18
100
AcDbCircle
 10
1197.473891336622
 20
987.6657220632756
 30
0.0
 40
193.3193796036003
100
AcDbArc
 50
138.5937510778657
 51
156.7306043448147
  0
ARC
  5
1F5
330
1EA
100
AcDbEntity
  8
0
  6
K5LT_THIN
 62
     7
370
    18
100
AcDbCircle
 10
1017.582943824272
 20
1065.025119885699
 30
0.0
 40
2.5
100
AcDbArc
 50
194.9222489084025
 51
336.7306043448149
  0
ARC
  5
1F6
330
1EA
100
AcDbEntity
  8
0
  6
K5LT_THIN
 62
     7
370
    18
100
AcDbCircle
 10
1050.601731490694
 20
1117.179420530006
 30
0.0
 40
2.5
100
AcDbArc
 50
318.5937510778643
 51
76.04073599624866
  0
ENDBLK
  5
1F8
330
1EA
100
AcDbEntity
  8
0
100
AcDbBlockEnd
  0
BLOCK
  5
201
330
1F9
100
AcDbEntity
  8
0
100
AcDbBlockBegin
  2
U9
 70
     0
 10
0.0
 20
0.0
 30
0.0
  3
U9
  1

  0
ARC
  5
1FB
330
1F9
100
AcDbEntity
  8
0
  6
K5LT_THIN
 62
     7
370
    18
100
AcDbCircle
 10
406.683100762207
 20
1343.602409932512
 30
0.0
 40
160.0000000000001
100
AcDbArc
 50
232.8832454119611
 51
269.3749101984769
  0
ARC
  5
1FC
330
1F9
100
AcDbEntity
  8
0
  6
K5LT_THIN
 62
     7
370
    18
100
AcDbCircle
 10
705.9173036242485
 20
883.9804622805973
 30
0.0
 40
420.4567663150652
100
AcDbArc
 50
135.3712202710163
 51
159.9383215171589
  0
LINE
  5
1FD
330
1F9
100
AcDbEntity
  8
0
  6
K5LT_THIN
 62
     7
370
    18
100
AcDbLine
 10
306.1239067992431
 20
1214.023690694615
 30
0.0
 11
306.1239067992431
 21
1029.067963502948
 31
0.0
  0
ARC
  5
1FE
330
1F9
100
AcDbEntity
  8
0
  6
K5LT_THIN
 62
     7
370
    18
100
AcDbCircle
 10
404.9102812180665
 20
1181.112080648385
 30
0.0
 40
2.5
100
AcDbArc
 50
315.3712202710169
 51
89.37491019847901
  0
ARC
  5
1FF
330
1F9
100
AcDbEntity
  8
0
  6
K5LT_THIN
 62
     7
370
    18
100
AcDbCircle
 10
308.6239067992431
 20
1214.023690694615
 30
0.0
 40
2.5
100
AcDbArc
 50
52.88324541196312
 51
180.0
  0
ARC
  5
200
330
1F9
100
AcDbEntity
  8
0
  6
K5LT_THIN
 62
     7
370
    18
100
AcDbCircle
 10
308.6239067992431
 20
1029.067963502948
 30
0.0
 40
2.5
100
AcDbArc
 50
180.0
 51
339.9383215171592
  0
ENDBLK
  5
202
330
1F9
100
AcDbEntity
  8
0
100
AcDbBlockEnd
  0
BLOCK
  5
20A
330
203
100
AcDbEntity
  8
0
100
AcDbBlockBegin
  2
U10
 70
     0
 10
0.0
 20
0.0
 30
0.0
  3
U10
  1

  0
ARC
  5
205
330
203
100
AcDbEntity
  8
0
  6
K5LT_THIN
 62
     7
370
    18
100
AcDbCircle
 10
813.1867926148277
 20
1001.760778394785
 30
0.0
 40
129.530106514975
100
AcDbArc
 50
76.42396253132215
 51
153.8915157950796
  0
ARC
  5
206
330
203
100
AcDbEntity
  8
0
  6
K5LT_THIN
 62
     7
370
    18
100
AcDbCircle
 10
843.0052801353941
 20
1125.241569464456
 30
0.0
 40
2.5
100
AcDbArc
 50
338.6849081347675
 51
76.42396253132287
  0
ARC
  5
207
330
203
100
AcDbEntity
  8
0
  6
K5LT_THIN
 62
     7
370
    18
100
AcDbCircle
 10
-167.8073732747582
 20
1519.647709749298
 30
0.0
 40
1087.533835319646
100
AcDbArc
 50
323.7502302739329
 51
338.6849081347672
  0
ARC
  5
208
330
203
100
AcDbEntity
  8
0
  6
K5LT_THIN
 62
     7
370
    18
100
AcDbCircle
 10
855.4167133994667
 20
974.7237706024548
 30
0.0
 40
179.4395866539961
100
AcDbArc
 50
152.0730918289201
 51
213.1140962728612
  0
ARC
  5
209
330
203
100
AcDbEntity
  8
0
  6
K5LT_THIN
 62
     7
370
    18
100
AcDbCircle
 10
707.2148872380665
 20
878.0602508666564
 30
0.0
 40
2.5
100
AcDbArc
 50
213.1140962728608
 51
323.7502302739222
  0
ENDBLK
  5
20B
330
203
100
AcDbEntity
  8
0
100
AcDbBlockEnd
  0
BLOCK
  5
216
330
20C
100
AcDbEntity
  8
0
100
AcDbBlockBegin
  2
U11
 70
     0
 10
0.0
 20
0.0
 30
0.0
  3
U11
  1

  0
ARC
  5
20E
330
20C
100
AcDbEntity
  8
0
  6
K5LT_THIN
 62
     7
370
    18
100
AcDbCircle
 10
871.1335314719543
 20
1030.13902106869
 30
0.0
 40
40.00000000000021
100
AcDbArc
 50
330.4876910590019
 51
80.74421755771037
  0
ARC
  5
20F
330
20C
100
AcDbEntity
  8
0
  6
K5LT_THIN
 62
     7
370
    18
100
AcDbCircle
 10
892.9672081889782
 20
1021.011144698346
 30
0.0
 40
99.7589921375928
100
AcDbArc
 50
328.3107006257152
 51
86.82759464644865
  0
ARC
  5
210
330
20C
100
AcDbEntity
  8
0
  6
K5LT_THIN
 62
     7
370
    18
100
AcDbCircle
 10
495.135483699841
 20
1269.098345641444
 30
0.0
 40
428.0528316332606
100
AcDbArc
 50
332.7688952700282
 51
339.472368002976
  0
ARC
  5
211
330
20C
100
AcDbEntity
  8
0
  6
K5LT_THIN
 62
     7
370
    18
100
AcDbCircle
 10
898.349582287042
 20
1118.121090639475
 30
0.0
 40
2.5
100
AcDbArc
 50
86.82759464644852
 51
159.4723680029822
  0
ARC
  5
212
330
20C
100
AcDbEntity
  8
0
  6
K5LT_THIN
 62
     7
370
    18
100
AcDbCircle
 10
877.9693239128785
 20
1072.085676974789
 30
0.0
 40
2.5
100
AcDbArc
 50
152.7688952700312
 51
260.7442175577114
  0
ARC
  5
213
330
20C
100
AcDbEntity
  8
0
  6
K5LT_THIN
 62
     7
370
    18
100
AcDbCircle
 10
903.7679022622236
 20
1011.666126246188
 30
0.0
 40
2.5
100
AcDbArc
 50
264.8587622299954
 51
330.4876910590015
  0
ARC
  5
214
330
20C
100
AcDbEntity
  8
0
  6
K5LT_THIN
 62
     7
370
    18
100
AcDbCircle
 10
900.8555395862861
 20
979.2968793651776
 30
0.0
 40
30.00000000000015
100
AcDbArc
 50
84.85876222999637
 51
200.7038339572454
  0
ARC
  5
215
330
20C
100
AcDbEntity
  8
0
  6
K5LT_THIN
 62
     7
370
    18
100
AcDbCircle
 10
925.3462506714293
 20
997.6415473717007
 30
0.0
 40
60.00000000000007
100
AcDbArc
 50
208.8496711978751
 51
331.0584011561596
  0
ENDBLK
  5
217
330
20C
100
AcDbEntity
  8
0
100
AcDbBlockEnd
  0
BLOCK
  5
220
330
218
100
AcDbEntity
  8
0
100
AcDbBlockBegin
  2
U12
 70
     0
 10
0.0
 20
0.0
 30
0.0
  3
U12
  1

  0
ARC
  5
21A
330
218
100
AcDbEntity
  8
0
  6
K5LT_THIN
 62
     7
370
    18
100
AcDbCircle
 10
949.0708229259524
 20
966.1454726868592
 30
0.0
 40
60.00000000000469
100
AcDbArc
 50
311.616615052583
 51
329.4777698274236
  0
ARC
  5
21B
330
218
100
AcDbEntity
  8
0
  6
K5LT_THIN
 62
     7
370
    18
100
AcDbCircle
 10
199.4520234269869
 20
384.9574474068162
 30
0.0
 40
975.8633177124098
100
AcDbArc
 50
32.61664678036581
 51
34.36632204211959
  0
ARC
  5
21C
330
218
100
AcDbEntity
  8
0
  6
K5LT_THIN
 62
     7
370
    18
100
AcDbCircle
 10
979.2878300544546
 20
839.3287311830398
 30
0.0
 40
78.3834930550825
100
AcDbArc
 50
60.34107217708001
 51
81.97487225189779
  0
ARC
  5
21D
330
218
100
AcDbEntity
  8
0
  6
K5LT_THIN
 62
     7
370
    18
100
AcDbCircle
 10
1002.910333921817
 20
934.403433437202
 30
0.0
 40
2.5
100
AcDbArc
 50
34.36632204211801
 51
149.4777698274226
  0
ARC
  5
21E
330
218
100
AcDbEntity
  8
0
  6
K5LT_THIN
 62
     7
370
    18
100
AcDbCircle
 10
990.5797627220373
 20
919.4201271343052
 30
0.0
 40
2.5
100
AcDbArc
 50
131.6166150525835
 51
261.9748722518977
  0
ARC
  5
21F
330
218
100
AcDbEntity
  8
0
  6
K5LT_THIN
 62
     7
370
    18
100
AcDbCircle
 10
1019.311883488221
 20
909.6153913364614
 30
0.0
 40
2.5
100
AcDbArc
 50
240.3410721770815
 51
32.61664678036744
  0
ENDBLK
  5
221
330
218
100
AcDbEntity
  8
0
100
AcDbBlockEnd
  0
BLOCK
  5
22E
330
222
100
AcDbEntity
  8
0
100
AcDbBlockBegin
  2
U13
 70
     0
 10
0.0
 20
0.0
 30
0.0
  3
U13
  1

  0
ARC
  5
224
330
222
100
AcDbEntity
  8
0
  6
K5LT_THIN
 62
     7
370
    18
100
AcDbCircle
 10
618.0091749034202
 20
932.8360488531716
 30
0.0
 40
287.0406932831511
100
AcDbArc
 50
124.9625652202641
 51
193.4799725296616
  0
ARC
  5
225
330
222
100
AcDbEntity
  8
0
  6
K5LT_THIN
 62
     7
370
    18
100
AcDbCircle
 10
555.2501421098088
 20
1011.891893971688
 30
0.0
 40
186.3896616816627
100
AcDbArc
 50
76.81222343305676
 51
123.077738606464
  0
ARC
  5
226
330
222
100
AcDbEntity
  8
0
  6
K5LT_THIN
 62
     7
370
    18
100
AcDbCircle
 10
1311.843727782922
 20
722.2445005340111
 30
0.0
 40
852.1220476227383
100
AcDbArc
 50
146.7416654535054
 51
155.5676108147809
  0
ARC
  5
227
330
222
100
AcDbEntity
  8
0
  6
K5LT_THIN
 62
     7
370
    18
100
AcDbCircle
 10
597.2033110617356
 20
1190.931943369267
 30
0.0
 40
2.5
100
AcDbArc
 50
326.7416654535091
 51
76.8122234330571
  0
ARC
  5
228
330
222
100
AcDbEntity
  8
0
  6
K5LT_THIN
 62
     7
370
    18
100
AcDbCircle
 10
504.8840201220517
 20
954.417743475529
 30
0.0
 40
122.2024822070189
100
AcDbArc
 50
76.61438843974636
 51
150.9039119144781
  0
ARC
  5
229
330
222
100
AcDbEntity
  8
0
  6
K5LT_THIN
 62
     7
370
    18
100
AcDbCircle
 10
533.753094581848
 20
1075.732563709607
 30
0.0
 40
2.5
100
AcDbArc
 50
256.6143884397468
 51
335.567610814775
  0
ARC
  5
22A
330
222
100
AcDbEntity
  8
0
  6
K5LT_THIN
 62
     7
370
    18
100
AcDbCircle
 10
464.9160359106938
 20
969.8418975460229
 30
0.0
 40
80.00000000000017
100
AcDbArc
 50
146.6330331920455
 51
218.381965002297
  0
ARC
  5
22B
330
222
100
AcDbEntity
  8
0
  6
K5LT_THIN
 62
     7
370
    18
100
AcDbCircle
 10
421.6646508542824
 20
835.0058091290143
 30
0.0
 40
83.81174745605412
100
AcDbArc
 50
104.3688826009284
 51
158.5935138678075
  0
ARC
  5
22C
330
222
100
AcDbEntity
  8
0
  6
K5LT_THIN
 62
     7
370
    18
100
AcDbCircle
 10
400.2451985882806
 20
918.6175595803841
 30
0.0
 40
2.5
100
AcDbArc
 50
284.3688826009282
 51
38.38196500229837
  0
ARC
  5
22D
330
222
100
AcDbEntity
  8
0
  6
K5LT_THIN
 62
     7
370
    18
100
AcDbCircle
 10
341.3071620852727
 20
866.5080590114615
 30
0.0
 40
2.5
100
AcDbArc
 50
193.4799725296582
 51
338.5935138678066
  0
ENDBLK
  5
22F
330
222
100
AcDbEntity
  8
0
100
AcDbBlockEnd
  0
BLOCK
  5
23B
330
230
100
AcDbEntity
  8
0
100
AcDbBlockBegin
  2
U14
 70
     0
 10
0.0
 20
0.0
 30
0.0
  3
U14
  1

  0
ARC
  5
232
330
230
100
AcDbEntity
  8
0
  6
K5LT_THIN
 62
     7
370
    18
100
AcDbCircle
 10
801.0432325922441
 20
946.460373656264
 30
0.0
 40
260.6062711557741
100
AcDbArc
 50
157.5312808518366
 51
191.5980714366083
  0
ARC
  5
233
330
230
100
AcDbEntity
  8
0
  6
K5LT_THIN
 62
     7
370
    18
100
AcDbCircle
 10
538.3884684043535
 20
1326.569725735989
 30
0.0
 40
280.0000000000068
100
AcDbArc
 50
274.9023393891449
 51
289.573606620331
  0
ARC
  5
234
330
230
100
AcDbEntity
  8
0
  6
K5LT_THIN
 62
     7
370
    18
100
AcDbCircle
 10
633.0309330911062
 20
1060.394869902422
 30
0.0
 40
2.5
100
AcDbArc
 50
356.7710947744615
 51
109.5736066203341
  0
ARC
  5
235
330
230
100
AcDbEntity
  8
0
  6
K5LT_THIN
 62
     7
370
    18
100
AcDbCircle
 10
562.5302415025749
 20
1045.103165037071
 30
0.0
 40
2.5
100
AcDbArc
 50
94.90233938914544
 51
157.5312808518393
  0
ARC
  5
236
330
230
100
AcDbEntity
  8
0
  6
K5LT_THIN
 62
     7
370
    18
100
AcDbCircle
 10
955.8489674838022
 20
1042.183167189706
 30
0.0
 40
320.8313307504551
100
AcDbArc
 50
176.7710947744586
 51
214.7669103528285
  0
ARC
  5
237
330
230
100
AcDbEntity
  8
0
  6
K5LT_THIN
 62
     7
370
    18
100
AcDbCircle
 10
857.4119929061733
 20
969.0823726151532
 30
0.0
 40
320.5550463039529
100
AcDbArc
 50
193.5337300769939
 51
218.8234748618651
  0
ARC
  5
238
330
230
100
AcDbEntity
  8
0
  6
K5LT_THIN
 62
     7
370
    18
100
AcDbCircle
 10
609.6212948607294
 20
769.6863284177788
 30
0.0
 40
2.5
100
AcDbArc
 50
218.8234748618627
 51
318.7970586031484
  0
ARC
  5
239
330
230
100
AcDbEntity
  8
0
  6
K5LT_THIN
 62
     7
370
    18
100
AcDbCircle
 10
2667.328494755856
 20
-1031.886755334258
 30
0.0
 40
2732.426780848084
100
AcDbArc
 50
136.294757719038
 51
138.7970586031534
  0
ARC
  5
23A
330
230
100
AcDbEntity
  8
0
  6
K5LT_THIN
 62
     7
370
    18
100
AcDbCircle
 10
690.2391751040477
 20
857.8069549581837
 30
0.0
 40
2.5
100
AcDbArc
 50
316.2947577190309
 51
34.76691035283096
  0
ENDBLK
  5
23C
330
230
100
AcDbEntity
  8
0
100
AcDbBlockEnd
  0
BLOCK
  5
247
330
23D
100
AcDbEntity
  8
0
100
AcDbBlockBegin
  2
U15
 70
     0
 10
0.0
 20
0.0
 30
0.0
  3
U15
  1

  0
ARC
  5
23F
330
23D
100
AcDbEntity
  8
0
  6
K5LT_THIN
 62
     7
370
    18
100
AcDbCircle
 10
941.1270538465917
 20
744.8427247448691
 30
0.0
 40
169.9999999999993
100
AcDbArc
 50
359.0952939097238
 51
31.2744429775632
  0
ARC
  5
240
330
23D
100
AcDbEntity
  8
0
  6
K5LT_THIN
 62
     7
370
    18
100
AcDbCircle
 10
1124.521449577111
 20
892.2131318787121
 30
0.0
 40
65.58959087281815
100
AcDbArc
 50
238.1206753692297
 51
260.7903688779801
  0
LINE
  5
241
330
23D
100
AcDbEntity
  8
0
  6
K5LT_THIN
 62
     7
370
    18
100
AcDbLine
 10
1116.123906799243
 20
825.0012583247612
 30
0.0
 11
1116.123906799243
 21
742.1197198846475
 31
0.0
  0
LINE
  5
242
330
23D
100
AcDbEntity
  8
0
  6
K5LT_THIN
 62
     7
370
    18
100
AcDbLine
 10
1113.697307487123
 20
739.620730134295
 30
0.0
 11
1113.715664469082
 21
739.6214043461245
 31
0.0
  0
ARC
  5
243
330
23D
100
AcDbEntity
  8
0
  6
K5LT_THIN
 62
     7
370
    18
100
AcDbCircle
 10
1113.623906799243
 20
825.0012583247612
 30
0.0
 40
2.5
100
AcDbArc
 50
0.0
 51
80.79036887797895
  0
ARC
  5
244
330
23D
100
AcDbEntity
  8
0
  6
K5LT_THIN
 62
     7
370
    18
100
AcDbCircle
 10
1088.561161439174
 20
834.3940168537979
 30
0.0
 40
2.5
100
AcDbArc
 50
58.12067536923243
 51
211.2744429775628
  0
ARC
  5
245
330
23D
100
AcDbEntity
  8
0
  6
K5LT_THIN
 62
     7
370
    18
100
AcDbCircle
 10
1113.605549817284
 20
742.119045672818
 30
0.0
 40
2.5
100
AcDbArc
 50
179.0952939097272
 51
272.1034033227008
  0
ARC
  5
246
330
23D
100
AcDbEntity
  8
0
  6
K5LT_THIN
 62
     7
370
    18
100
AcDbCircle
 10
1113.623906799243
 20
742.1197198846475
 30
0.0
 40
2.5
100
AcDbArc
 50
272.1034033227008
 51
0.0
  0
ENDBLK
  5
248
330
23D
100
AcDbEntity
  8
0
100
AcDbBlockEnd
  0
BLOCK
  5
256
330
249
100
AcDbEntity
  8
0
100
AcDbBlockBegin
  2
U16
 70
     0
 10
0.0
 20
0.0
 30
0.0
  3
U16
  1

  0
ARC
  5
24B
330
249
100
AcDbEntity
  8
0
  6
K5LT_THIN
 62
     7
370
    18
100
AcDbCircle
 10
982.2330762220952
 20
679.381789048661
 30
0.0
 40
129.9999999999997
100
AcDbArc
 50
61.78790512898472
 51
131.8746242210253
  0
ARC
  5
24C
330
249
100
AcDbEntity
  8
0
  6
K5LT_THIN
 62
     7
370
    18
100
AcDbCircle
 10
984.5328680662699
 20
764.9581254611885
 30
0.0
 40
79.9999999999997
100
AcDbArc
 50
307.8685769457175
 51
0.5279376858983247
  0
ARC
  5
24D
330
249
100
AcDbEntity
  8
0
  6
K5LT_THIN
 62
     7
370
    18
100
AcDbCircle
 10
1028.305982773306
 20
760.7765067677963
 30
0.0
 40
36.55591958136699
100
AcDbArc
 50
7.732835617003125
 51
65.1146432519579
  0
ARC
  5
24E
330
249
100
AcDbEntity
  8
0
  6
K5LT_THIN
 62
     7
370
    18
100
AcDbCircle
 10
979.1675419862524
 20
644.6016480389915
 30
0.0
 40
70.00000000000047
100
AcDbArc
 50
55.6344997245595
 51
133.9639364800525
  0
ARC
  5
24F
330
249
100
AcDbEntity
  8
0
  6
K5LT_THIN
 62
     7
370
    18
100
AcDbCircle
 10
1026.417136980119
 20
708.7192954546135
 30
0.0
 40
9.999999999999979
100
AcDbArc
 50
219.3154857364253
 51
316.2523128016518
  0
ARC
  5
250
330
249
100
AcDbEntity
  8
0
  6
K5LT_THIN
 62
     7
370
    18
100
AcDbCircle
 10
982.0763503559322
 20
720.1342368126251
 30
0.0
 40
59.0950300404388
100
AcDbArc
 50
208.4341663118484
 51
251.3844816971366
  0
ARC
  5
251
330
249
100
AcDbEntity
  8
0
  6
K5LT_THIN
 62
     7
370
    18
100
AcDbCircle
 10
878.4983237841077
 20
981.5234985522955
 30
0.0
 40
333.0895704784123
100
AcDbArc
 50
267.9256593144145
 51
284.7046905550919
  0
ARC
  5
252
330
249
100
AcDbEntity
  8
0
  6
K5LT_THIN
 62
     7
370
    18
100
AcDbCircle
 10
962.4142314691971
 20
661.7617363816308
 30
0.0
 40
2.5
100
AcDbArc
 50
284.7046905550919
 51
71.38448169713573
  0
ARC
  5
253
330
249
100
AcDbEntity
  8
0
  6
K5LT_THIN
 62
     7
370
    18
100
AcDbCircle
 10
932.3086733772028
 20
693.186588428786
 30
0.0
 40
2.5
100
AcDbArc
 50
133.9639364800526
 51
208.4341663118465
  0
ARC
  5
254
330
249
100
AcDbEntity
  8
0
  6
K5LT_THIN
 62
     7
370
    18
100
AcDbCircle
 10
950.0058781183136
 20
695.7824577690672
 30
0.0
 40
97.15649961342352
100
AcDbArc
 50
124.1558881394973
 51
208.1326397412013
  0
ARC
  5
255
330
249
100
AcDbEntity
  8
0
  6
K5LT_THIN
 62
     7
370
    18
100
AcDbCircle
 10
866.5322487145706
 20
651.1505620751509
 30
0.0
 40
2.5
100
AcDbArc
 50
208.1326397412018
 51
267.925659314412
  0
ENDBLK
  5
257
330
249
100
AcDbEntity
  8
0
100
AcDbBlockEnd
  0
BLOCK
  5
263
330
258
100
AcDbEntity
  8
0
100
AcDbBlockBegin
  2
U17
 70
     0
 10
0.0
 20
0.0
 30
0.0
  3
U17
  1

  0
ARC
  5
25A
330
258
100
AcDbEntity
  8
0
  6
K5LT_THIN
 62
     7
370
    18
100
AcDbCircle
 10
-165.0900288652269
 20
1528.03494154755
 30
0.0
 40
1129.272430577899
100
AcDbArc
 50
322.2064392506404
 51
330.4920952831301
  0
ARC
  5
25B
330
258
100
AcDbEntity
  8
0
  6
K5LT_THIN
 62
     7
370
    18
100
AcDbCircle
 10
11.54038149093594
 20
374.431911237531
 30
0.0
 40
849.9999999999703
100
AcDbArc
 50
22.75633869208159
 51
32.6582679364483
  0
ARC
  5
25C
330
258
100
AcDbEntity
  8
0
  6
K5LT_THIN
 62
     7
370
    18
100
AcDbCircle
 10
729.2635834068283
 20
834.4641442729443
 30
0.0
 40
2.5
100
AcDbArc
 50
142.2064392506485
 51
212.6582679364493
  0
ARC
  5
25D
330
258
100
AcDbEntity
  8
0
  6
K5LT_THIN
 62
     7
370
    18
100
AcDbCircle
 10
797.6802331705334
 20
704.1899795256775
 30
0.0
 40
2.5
100
AcDbArc
 50
202.7563386920819
 51
346.8021777099252
  0
ARC
  5
25E
330
258
100
AcDbEntity
  8
0
  6
K5LT_THIN
 62
     7
370
    18
100
AcDbCircle
 10
935.6902856372265
 20
1008.968711716905
 30
0.0
 40
119.5068537448812
100
AcDbArc
 50
198.3355389827789
 51
265.030323244183
  0
ARC
  5
25F
330
258
100
AcDbEntity
  8
0
  6
K5LT_THIN
 62
     7
370
    18
100
AcDbCircle
 10
909.7689353799344
 20
729.4248948193923
 30
0.0
 40
161.2396103667887
100
AcDbArc
 50
49.89973011112197
 51
84.45911673834924
  0
ARC
  5
260
330
258
100
AcDbEntity
  8
0
  6
K5LT_THIN
 62
     7
370
    18
100
AcDbCircle
 10
819.8776546804829
 20
970.5876373233709
 30
0.0
 40
2.5
100
AcDbArc
 50
18.3355389827807
 51
150.492095283136
  0
ARC
  5
261
330
258
100
AcDbEntity
  8
0
  6
K5LT_THIN
 62
     7
370
    18
100
AcDbCircle
 10
1012.01744135361
 20
850.8477383273218
 30
0.0
 40
2.5
100
AcDbArc
 50
261.9606910981325
 51
49.8997301111238
  0
ARC
  5
262
330
258
100
AcDbEntity
  8
0
  6
K5LT_THIN
 62
     7
370
    18
100
AcDbCircle
 10
985.0958425856804
 20
660.2395603291599
 30
0.0
 40
190.000000000001
100
AcDbArc
 50
81.96069109813341
 51
166.8021777099256
  0
ENDBLK
  5
264
330
258
100
AcDbEntity
  8
0
100
AcDbBlockEnd
  0
BLOCK
  5
26D
330
265
100
AcDbEntity
  8
0
100
AcDbBlockBegin
  2
U18
 70
     0
 10
0.0
 20
0.0
 30
0.0
  3
U18
  1

  0
ARC
  5
267
330
265
100
AcDbEntity
  8
0
  6
K5LT_THIN
 62
     7
370
    18
100
AcDbCircle
 10
-1745.453386212376
 20
2890.035468955236
 30
0.0
 40
3209.999999999152
100
AcDbArc
 50
317.9301617155879
 51
319.8071443016491
  0
ARC
  5
268
330
265
100
AcDbEntity
  8
0
  6
K5LT_THIN
 62
     7
370
    18
100
AcDbCircle
 10
826.4908548530659
 20
943.9616922548596
 30
0.0
 40
281.1695127292953
100
AcDbArc
 50
227.79296236708
 51
261.2827253231291
  0
ARC
  5
269
330
265
100
AcDbEntity
  8
0
  6
K5LT_THIN
 62
     7
370
    18
100
AcDbCircle
 10
639.277449993058
 20
737.5450302202612
 30
0.0
 40
2.5
100
AcDbArc
 50
137.9301617155953
 51
227.7929623670778
  0
ARC
  5
26A
330
265
100
AcDbEntity
  8
0
  6
K5LT_THIN
 62
     7
370
    18
100
AcDbCircle
 10
784.2560255723831
 20
668.511303762822
 30
0.0
 40
2.5
100
AcDbArc
 50
261.2827253231287
 51
27.44626712384438
  0
ARC
  5
26B
330
265
100
AcDbEntity
  8
0
  6
K5LT_THIN
 62
     7
370
    18
100
AcDbCircle
 10
11737.52715417504
 20
6357.373917208433
 30
0.0
 40
12340.00000005428
100
AcDbArc
 50
206.6732195388714
 51
207.4462671237665
  0
ARC
  5
26C
330
265
100
AcDbEntity
  8
0
  6
K5LT_THIN
 62
     7
370
    18
100
AcDbCircle
 10
708.4998887973688
 20
816.8086183516771
 30
0.0
 40
2.5
100
AcDbArc
 50
26.67321953895497
 51
139.8071443016593
  0
ENDBLK
  5
26E
330
265
100
AcDbEntity
  8
0
100
AcDbBlockEnd
  0
BLOCK
  5
27C
330
26F
100
AcDbEntity
  8
0
100
AcDbBlockBegin
  2
U19
 70
     0
 10
0.0
 20
0.0
 30
0.0
  3
U19
  1

  0
ARC
  5
271
330
26F
100
AcDbEntity
  8
0
  6
K5LT_THIN
 62
     7
370
    18
100
AcDbCircle
 10
436.4650054272645
 20
808.6523347540094
 30
0.0
 40
81.31314666111179
100
AcDbArc
 50
82.47588920626119
 51
194.8573612408395
  0
ARC
  5
272
330
26F
100
AcDbEntity
  8
0
  6
K5LT_THIN
 62
     7
370
    18
100
AcDbCircle
 10
445.4351756575722
 20
839.2935023055517
 30
0.0
 40
49.99999999999999
100
AcDbArc
 50
358.0207804421254
 51
88.07765345433259
  0
ARC
  5
273
330
26F
100
AcDbEntity
  8
0
  6
K5LT_THIN
 62
     7
370
    18
100
AcDbCircle
 10
488.9782642938515
 20
837.4737212032273
 30
0.0
 40
6.427754111807252
100
AcDbArc
 50
196.8503443001676
 51
0.8283864814648753
  0
ARC
  5
274
330
26F
100
AcDbEntity
  8
0
  6
K5LT_THIN
 62
     7
370
    18
100
AcDbCircle
 10
457.8171966482948
 20
819.0413766716299
 30
0.0
 40
30.00000000000015
100
AcDbArc
 50
33.52520518358169
 51
200.5283276978872
  0
ARC
  5
275
330
26F
100
AcDbEntity
  8
0
  6
K5LT_THIN
 62
     7
370
    18
100
AcDbCircle
 10
485.5819256139559
 20
830.4231874082282
 30
0.0
 40
60.00000000000007
100
AcDbArc
 50
201.4095560900892
 51
315.3064741436694
  0
ARC
  5
276
330
26F
100
AcDbEntity
  8
0
  6
K5LT_THIN
 62
     7
370
    18
100
AcDbCircle
 10
752.6113557886708
 20
905.653766358842
 30
0.0
 40
250.0000000000099
100
AcDbArc
 50
208.1661884383118
 51
224.9516077707832
  0
ARC
  5
277
330
26F
100
AcDbEntity
  8
0
  6
K5LT_THIN
 62
     7
370
    18
100
AcDbCircle
 10
17469.76794229156
 20
-14286.17377466639
 30
0.0
 40
22599.99999984542
100
AcDbArc
 50
138.3761251344512
 51
138.8486283975414
  0
ARC
  5
278
330
26F
100
AcDbEntity
  8
0
  6
K5LT_THIN
 62
     7
370
    18
100
AcDbCircle
 10
1720.954432338292
 20
1279.371015039791
 30
0.0
 40
1449.012655919321
100
AcDbArc
 50
199.8308053653684
 51
208.578420170138
  0
ARC
  5
279
330
26F
100
AcDbEntity
  8
0
  6
K5LT_THIN
 62
     7
370
    18
100
AcDbCircle
 10
530.0118599580981
 20
786.4660385678492
 30
0.0
 40
2.5
100
AcDbArc
 50
28.16618843831506
 51
135.3064741436692
  0
ARC
  5
27A
330
26F
100
AcDbEntity
  8
0
  6
K5LT_THIN
 62
     7
370
    18
100
AcDbCircle
 10
573.9161579206993
 20
727.2601670933764
 30
0.0
 40
2.5
100
AcDbArc
 50
318.3761251345143
 51
44.95160777078495
  0
ARC
  5
27B
330
26F
100
AcDbEntity
  8
0
  6
K5LT_THIN
 62
     7
370
    18
100
AcDbCircle
 10
450.6802391431856
 20
587.4155700599213
 30
0.0
 40
2.5
100
AcDbArc
 50
208.5784201701264
 51
318.8486283974567
  0
ENDBLK
  5
27D
330
26F
100
AcDbEntity
  8
0
100
AcDbBlockEnd
  0
BLOCK
  5
290
330
27E
100
AcDbEntity
  8
0
100
AcDbBlockBegin
  2
U20
 70
     0
 10
0.0
 20
0.0
 30
0.0
  3
U20
  1

  0
ARC
  5
280
330
27E
100
AcDbEntity
  8
0
  6
K5LT_BASIC
 62
     5
420
      255
370
    60
100
AcDbCircle
 10
933.5992871542643
 20
1600.773520852598
 30
0.0
 40
2.5
100
AcDbArc
 50
347.9862574675909
 51
41.28646628952691
  0
ARC
  5
281
330
27E
100
AcDbEntity
  8
0
  6
K5LT_THIN
 62
     7
370
    18
100
AcDbCircle
 10
1113.623906799243
 20
1841.148882299208
 30
0.0
 40
2.5
100
AcDbArc
 50
0.0
 51
69.92701715894697
  0
ARC
  5
282
330
27E
100
AcDbEntity
  8
0
  6
K5LT_BASIC
 62
     5
420
      255
370
    60
100
AcDbCircle
 10
1113.623906799243
 20
1757.502443951483
 30
0.0
 40
2.5
100
AcDbArc
 50
308.9989741739947
 51
0.0
  0
ARC
  5
283
330
27E
100
AcDbEntity
  8
0
  6
K5LT_BASIC
 62
     5
420
      255
370
    60
100
AcDbCircle
 10
1043.169079698516
 20
1737.67923483546
 30
0.0
 40
2.5
100
AcDbArc
 50
248.5587465234347
 51
262.4300409517078
  0
ARC
  5
284
330
27E
100
AcDbEntity
  8
0
  6
K5LT_THIN
 62
     7
370
    18
100
AcDbCircle
 10
1062.999423280478
 20
1702.60859332716
 30
0.0
 40
150.0000000000011
100
AcDbArc
 50
69.92701715894698
 51
149.2894675914872
  0
LINE
  5
285
330
27E
100
AcDbEntity
  8
0
  6
K5LT_THIN
 62
     7
370
    18
100
AcDbLine
 10
1116.123906799243
 20
1841.148882299208
 30
0.0
 11
1116.123906799243
 21
1757.502443951483
 31
0.0
  0
ARC
  5
286
330
27E
100
AcDbEntity
  8
0
  6
K5LT_THIN
 62
     7
370
    18
100
AcDbCircle
 10
1055.364819216053
 20
1829.44905933786
 30
0.0
 40
95.07665338291795
100
AcDbArc
 50
262.4300409517098
 51
308.9989741739989
  0
ARC
  5
287
330
27E
100
AcDbEntity
  8
0
  6
K5LT_THIN
 62
     7
370
    18
100
AcDbCircle
 10
1005.700506226609
 20
1642.272966687186
 30
0.0
 40
99.99999999999957
100
AcDbArc
 50
68.55874652343883
 51
110.7289069977085
  0
ARC
  5
288
330
27E
100
AcDbEntity
  8
0
  6
K5LT_THIN
 62
     7
370
    18
100
AcDbCircle
 10
998.0073968100676
 20
1657.330477735032
 30
0.0
 40
83.21519095956918
100
AcDbArc
 50
109.4443252854262
 51
221.2864662895244
  0
ARC
  5
289
330
27E
100
AcDbEntity
  8
0
  6
K5LT_THIN
 62
     7
370
    18
100
AcDbCircle
 10
1066.183066969763
 20
1672.269531943241
 30
0.0
 40
170.0
100
AcDbArc
 50
141.0174575792796
 51
190.2507802235856
  0
ARC
  5
28A
330
27E
100
AcDbEntity
  8
0
  6
K5LT_THIN
 62
     7
370
    18
100
AcDbCircle
 10
1895.120802636885
 20
1728.834240110375
 30
0.0
 40
999.999999999958
100
AcDbArc
 50
184.9805399901069
 51
194.1642510910207
  0
ARC
  5
28B
330
27E
100
AcDbEntity
  8
0
  6
K5LT_THIN
 62
     7
370
    18
100
AcDbCircle
 10
1200.130911622971
 20
1544.053655213885
 30
0.0
 40
270.000000000002
100
AcDbArc
 50
167.9862574675905
 51
230.5769207549253
  0
ARC
  5
28C
330
27E
100
AcDbEntity
  8
0
  6
K5LT_THIN
 62
     7
370
    18
100
AcDbCircle
 10
463.13460272098
 20
1364.605069242141
 30
0.0
 40
477.5869340503601
100
AcDbArc
 50
353.3516123503035
 51
14.49361669364109
  0
ARC
  5
28D
330
27E
100
AcDbEntity
  8
0
  6
K5LT_THIN
 62
     7
370
    18
100
AcDbCircle
 10
1025.853868850395
 20
1171.058086288122
 30
0.0
 40
160.0000000000004
100
AcDbArc
 50
89.56695524014712
 51
121.8956484767978
  0
ARC
  5
28E
330
27E
100
AcDbEntity
  8
0
  6
K5LT_THIN
 62
     7
370
    18
100
AcDbCircle
 10
939.9931173883925
 20
1309.02250691308
 30
0.0
 40
2.5
100
AcDbArc
 50
173.351612350308
 51
301.8956484767969
  0
ARC
  5
28F
330
27E
100
AcDbEntity
  8
0
  6
K5LT_THIN
 62
     7
370
    18
100
AcDbCircle
 10
1027.08204139829
 20
1333.553444967048
 30
0.0
 40
2.5
100
AcDbArc
 50
269.5669552401491
 51
50.5769207549261
  0
ENDBLK
  5
291
330
27E
100
AcDbEntity
  8
0
100
AcDbBlockEnd
  0
ENDSEC
  0
SECTION
  2
ENTITIES
  0
XLINE
  5
A0
330
1F
100
AcDbEntity
  8
0
 62
     9
420
 14460353
100
AcDbXline
 10
234.1239067992431
 20
198.363919327257
 30
0.0
 11
1.0
 21
0.0
 31
0.0
  0
XLINE
  5
A1
330
1F
100
AcDbEntity
  8
0
 62
     9
420
 14460353
100
AcDbXline
 10
237.4907546874741
 20
17.36391932725698
 30
0.0
 11
1.0
 21
0.0
 31
0.0
  0
INSERT
  5
A3
330
1F
100
AcDbEntity
  8
0
100
AcDbBlockReference
  2
U0
 10
0.0
 20
0.0
 30
0.0
  0
INSERT
  5
AB
330
1F
100
AcDbEntity
  8
0
100
AcDbBlockReference
  2
U1
 10
0.0
 20
0.0
 30
0.0
  0
ARC
  5
B3
330
1F
100
AcDbEntity
  8
0
  6
K5LT_THIN
 62
     7
370
    18
100
AcDbCircle
 10
431.5060232422395
 20
1788.583468527485
 30
0.0
 40
127.7684107961211
100
AcDbArc
 50
123.776728729419
 51
160.6132454612841
  0
ARC
  5
B4
330
1F
100
AcDbEntity
  8
0
  6
K5LT_THIN
 62
     7
370
    18
100
AcDbCircle
 10
696.2188247618653
 20
1795.738152647177
 30
0.0
 40
391.4355141686746
100
AcDbArc
 50
190.2937674729491
 51
223.6468814947866
  0
ARC
  5
B5
330
1F
100
AcDbEntity
  8
0
  6
K5LT_THIN
 62
     7
370
    18
100
AcDbCircle
 10
-259.3244539484233
 20
973.3728598413572
 30
0.0
 40
869.9999999999422
100
AcDbArc
 50
28.4060260610876
 51
39.39798130275667
  0
ARC
  5
B6
330
1F
100
AcDbEntity
  8
0
  6
K5LT_THIN
 62
     7
370
    18
100
AcDbCircle
 10
418.3822193460189
 20
1329.104019552454
 30
0.0
 40
105.0928158739727
100
AcDbArc
 50
273.8333382715637
 51
33.59012545097539
  0
ARC
  5
B7
330
1F
100
AcDbEntity
  8
0
  6
K5LT_THIN
 62
     7
370
    18
100
AcDbCircle
 10
403.4124217220608
 20
1338.780187385863
 30
0.0
 40
116.6268308743108
100
AcDbArc
 50
213.8442935230595
 51
280.8710440879232
  0
ARC
  5
B8
330
1F
100
AcDbEntity
  8
0
  6
K5LT_THIN
 62
     7
370
    18
100
AcDbCircle
 10
361.3247496868532
 20
1297.251479149447
 30
0.0
 40
89.99999999999993
100
AcDbArc
 50
11.43378150571391
 51
124.7320164222944
  0
ARC
  5
B9
330
1F
100
AcDbEntity
  8
0
  6
K5LT_THIN
 62
     7
370
    18
100
AcDbCircle
 10
344.6683969033149
 20
1302.361266019316
 30
0.0
 40
39.99999999999989
100
AcDbArc
 50
18.35452445687831
 51
163.9843565192122
  0
LINE
  5
BA
330
1F
100
AcDbEntity
  8
0
  6
K5LT_THIN
 62
     7
370
    18
100
AcDbLine
 10
384.9600702143368
 20
1313.24476500373
 30
0.0
 11
447.0420734366077
 21
1312.097492261611
 31
0.0
  0
LINE
  5
BB
330
1F
100
AcDbEntity
  8
0
  6
K5LT_THIN
 62
     7
370
    18
100
AcDbLine
 10
359.0822507228161
 20
1899.363919327257
 30
0.0
 11
308.6239067992431
 21
1899.363919327257
 31
0.0
  0
LINE
  5
BC
330
1F
100
AcDbEntity
  8
0
  6
K5LT_THIN
 62
     7
370
    18
100
AcDbLine
 10
306.1239067992431
 20
1831.82516495393
 30
0.0
 11
306.1239067992431
 21
1896.863919327257
 31
0.0
  0
LINE
  5
BD
330
1F
100
AcDbEntity
  8
0
  6
K5LT_THIN
 62
     7
370
    18
100
AcDbLine
 10
306.1239067992431
 20
1725.343771529887
 30
0.0
 11
306.1239067992431
 21
1373.270366006171
 31
0.0
  0
LINE
  5
BE
330
1F
100
AcDbEntity
  8
0
  6
K5LT_THIN
 62
     7
370
    18
100
AcDbLine
 10
306.1239067992431
 20
1312.707508483972
 30
0.0
 11
306.1239067992435
 21
1275.218634823482
 31
0.0
  0
ARC
  5
BF
330
1F
100
AcDbEntity
  8
0
  6
K5LT_THIN
 62
     7
370
    18
100
AcDbCircle
 10
455.0932023899184
 20
1772.452613151846
 30
0.0
 40
159.9999999999967
100
AcDbArc
 50
8.467796607094254
 51
49.96111613625509
  0
ARC
  5
C0
330
1F
100
AcDbEntity
  8
0
  6
K5LT_THIN
 62
     7
370
    18
100
AcDbCircle
 10
697.9587877014671
 20
1930.767906320653
 30
0.0
 40
159.9999999999997
100
AcDbArc
 50
238.5667438019917
 51
312.5179062311772
  0
ARC
  5
C1
330
1F
100
AcDbEntity
  8
0
  6
K5LT_THIN
 62
     7
370
    18
100
AcDbCircle
 10
782.5353819495278
 20
1839.507328035092
 30
0.0
 40
35.58248478528989
100
AcDbArc
 50
311.4506395107343
 51
99.0051211465318
  0
ARC
  5
C2
330
1F
100
AcDbEntity
  8
0
  6
K5LT_THIN
 62
     7
370
    18
100
AcDbCircle
 10
782.318765879869
 20
1798.163428660292
 30
0.0
 40
76.6748828177698
100
AcDbArc
 50
94.00320807080618
 51
131.455759377859
  0
ARC
  5
C3
330
1F
100
AcDbEntity
  8
0
  6
K5LT_THIN
 62
     7
370
    18
100
AcDbCircle
 10
685.1619020585515
 20
1903.622536809621
 30
0.0
 40
66.75247132951517
100
AcDbArc
 50
185.6006322266375
 51
314.029530877172
  0
ARC
  5
C4
330
1F
100
AcDbEntity
  8
0
  6
K5LT_THIN
 62
     7
370
    18
100
AcDbCircle
 10
696.4317538668704
 20
1933.39624824719
 30
0.0
 40
46.64245936735434
100
AcDbArc
 50
235.8530518660278
 51
304.1469481339727
  0
LINE
  5
C5
330
1F
100
AcDbEntity
  8
0
  6
K5LT_THIN
 62
     7
370
    18
100
AcDbLine
 10
671.653826942199
 20
1899.363919327257
 30
0.0
 11
721.2096807915422
 21
1899.363919327257
 31
0.0
  0
LINE
  5
C6
330
1F
100
AcDbEntity
  8
0
  6
K5LT_THIN
 62
     7
370
    18
100
AcDbLine
 10
559.6306449439003
 20
1899.363919327257
 30
0.0
 11
616.240019648301
 21
1899.363919327257
 31
0.0
  0
ARC
  5
C7
330
1F
100
AcDbEntity
  8
0
  6
K5LT_THIN
 62
     7
370
    18
100
AcDbCircle
 10
477.1180853873336
 20
1775.35657376747
 30
0.0
 40
113.0845587817469
100
AcDbArc
 50
21.2881822873208
 51
99.31708673518503
  0
ARC
  5
C8
330
1F
100
AcDbEntity
  8
0
  6
K5LT_THIN
 62
     7
370
    18
100
AcDbCircle
 10
365.2723106061633
 20
1579.249104924406
 30
0.0
 40
316.862541187757
100
AcDbArc
 50
47.71219128575454
 51
72.89307773675135
  0
ARC
  5
C9
330
1F
100
AcDbEntity
  8
0
  6
K5LT_THIN
 62
     7
370
    18
100
AcDbCircle
 10
556.8620229564056
 20
1581.954379239722
 30
0.0
 40
160.0000000000002
100
AcDbArc
 50
84.10374607329858
 51
106.481736639143
  0
ARC
  5
CA
330
1F
100
AcDbEntity
  8
0
  6
K5LT_THIN
 62
     7
370
    18
100
AcDbCircle
 10
558.6142657755665
 20
1766.681844717594
 30
0.0
 40
30.00000000000028
100
AcDbArc
 50
302.9091293038077
 51
9.406689293000928
  0
ARC
  5
CB
330
1F
100
AcDbEntity
  8
0
  6
K5LT_THIN
 62
     7
370
    18
100
AcDbCircle
 10
398.8972081087802
 20
1614.251747898244
 30
0.0
 40
246.5026059941156
100
AcDbArc
 50
40.02540890373356
 51
78.29064046857688
  0
ARC
  5
CC
330
1F
100
AcDbEntity
  8
0
  6
K5LT_THIN
 62
     7
370
    18
100
AcDbCircle
 10
424.5241625866599
 20
1753.55399617399
 30
0.0
 40
104.9464731693203
100
AcDbArc
 50
76.55568826899702
 51
103.4443117310027
  0
ARC
  5
CD
330
1F
100
AcDbEntity
  8
0
  6
K5LT_THIN
 62
     7
370
    18
100
AcDbCircle
 10
418.091463771714
 20
1798.37795121447
 30
0.0
 40
59.99999999999967
100
AcDbArc
 50
107.4249456835021
 51
165.9718750836846
  0
ARC
  5
CE
330
1F
100
AcDbEntity
  8
0
  6
K5LT_THIN
 62
     7
370
    18
100
AcDbCircle
 10
631.1970462060078
 20
1738.62987701407
 30
0.0
 40
281.3037022516676
100
AcDbArc
 50
164.6865911474781
 51
216.5402275195699
  0
ARC
  5
CF
330
1F
100
AcDbEntity
  8
0
  6
K5LT_THIN
 62
     7
370
    18
100
AcDbCircle
 10
509.2004550310623
 20
1608.067589769664
 30
0.0
 40
103.0676376945175
100
AcDbArc
 50
145.2414089514873
 51
200.9917535535265
  0
ARC
  5
D0
330
1F
100
AcDbEntity
  8
0
  6
K5LT_THIN
 62
     7
370
    18
100
AcDbCircle
 10
483.2271149900805
 20
1724.064571583019
 30
0.0
 40
80.00000000000009
100
AcDbArc
 50
141.7901178080161
 51
222.57028494577
  0
ARC
  5
D1
330
1F
100
AcDbEntity
  8
0
  6
K5LT_THIN
 62
     7
370
    18
100
AcDbCircle
 10
458.3774764466322
 20
1741.08549934429
 30
0.0
 40
49.98608246807363
100
AcDbArc
 50
356.3862384731556
 51
139.5011715477947
  0
ARC
  5
D2
330
1F
100
AcDbEntity
  8
0
  6
K5LT_THIN
 62
     7
370
    18
100
AcDbCircle
 10
594.9676785310874
 20
1405.549739533124
 30
0.0
 40
336.9625434783171
100
AcDbArc
 50
34.19344203572814
 51
84.60154102602367
  0
ARC
  5
D3
330
1F
100
AcDbEntity
  8
0
  6
K5LT_THIN
 62
     7
370
    18
100
AcDbCircle
 10
626.80587830425
 20
1746.497802903246
 30
0.0
 40
5.481812211385027
100
AcDbArc
 50
69.2282712446812
 51
268.5758144152149
  0
ARC
  5
D4
330
1F
100
AcDbEntity
  8
0
  6
K5LT_THIN
 62
     7
370
    18
100
AcDbCircle
 10
723.7551972317153
 20
1982.867779465881
 30
0.0
 40
249.999999999999
100
AcDbArc
 50
247.6650244609802
 51
274.0304594531648
  0
ARC
  5
D5
330
1F
100
AcDbEntity
  8
0
  6
K5LT_THIN
 62
     7
370
    18
100
AcDbCircle
 10
722.6916284723318
 20
1902.461594636143
 30
0.0
 40
169.9999999999974
100
AcDbArc
 50
276.2933650699949
 51
313.4869965418942
  0
ARC
  5
D6
330
1F
100
AcDbEntity
  8
0
  6
K5LT_THIN
 62
     7
370
    18
100
AcDbCircle
 10
760.8405541211421
 20
1841.586820571402
 30
0.0
 40
100.589288917127
100
AcDbArc
 50
321.6111845311517
 51
32.42573868739411
  0
LINE
  5
D7
330
1F
100
AcDbEntity
  8
0
  6
K5LT_THIN
 62
     7
370
    18
100
AcDbLine
 10
847.8568965090768
 20
1899.363919327257
 30
0.0
 11
1113.623906799243
 21
1899.363919327257
 31
0.0
  0
LINE
  5
D8
330
1F
100
AcDbEntity
  8
0
  6
K5LT_THIN
 62
     7
370
    18
100
AcDbLine
 10
1116.123906799243
 20
1896.863919327257
 30
0.0
 11
1116.123906799243
 21
1887.171693934371
 31
0.0
  0
ARC
  5
D9
330
1F
100
AcDbEntity
  8
0
  6
K5LT_THIN
 62
     7
370
    18
100
AcDbCircle
 10
1064.083141363834
 20
1702.115691897772
 30
0.0
 40
189.072470176944
100
AcDbArc
 50
75.01295410148677
 51
133.3927803597456
  0
ARC
  5
DA
330
1F
100
AcDbEntity
  8
0
  6
K5LT_THIN
 62
     7
370
    18
100
AcDbCircle
 10
1125.412720295146
 20
1667.598327179466
 30
0.0
 40
257.1349939599359
100
AcDbArc
 50
138.0443288104894
 51
195.9332903661926
  0
ARC
  5
DB
330
1F
100
AcDbEntity
  8
0
  6
K5LT_THIN
 62
     7
370
    18
100
AcDbCircle
 10
506.8236326663607
 20
1605.672077788191
 30
0.0
 40
100.0000000000006
100
AcDbArc
 50
200.1981420668686
 51
263.3421661453418
  0
ARC
  5
DC
330
1F
100
AcDbEntity
  8
0
  6
K5LT_THIN
 62
     7
370
    18
100
AcDbCircle
 10
509.6376535536149
 20
1635.545561568855
 30
0.0
 40
129.9999999999989
100
AcDbArc
 50
263.6367919173916
 51
289.447662471245
  0
ARC
  5
DD
330
1F
100
AcDbEntity
  8
0
  6
K5LT_THIN
 62
     7
370
    18
100
AcDbCircle
 10
593.8682894616115
 20
1476.737681928608
 30
0.0
 40
50.00000000000071
100
AcDbArc
 50
139.8271374082537
 51
158.4819805143125
  0
ARC
  5
DE
330
1F
100
AcDbEntity
  8
0
  6
K5LT_THIN
 62
     7
370
    18
100
AcDbCircle
 10
451.3662961846474
 20
1317.126844885383
 30
0.0
 40
200.0000000000004
100
AcDbArc
 50
329.7684548240475
 51
60.95512428506726
  0
ARC
  5
DF
330
1F
100
AcDbEntity
  8
0
  6
K5LT_THIN
 62
     7
370
    18
100
AcDbCircle
 10
562.1141956524882
 20
1055.917346747885
 30
0.0
 40
169.999999999999
100
AcDbArc
 50
69.68397362456147
 51
96.35165963761966
  0
ARC
  5
E0
330
1F
100
AcDbEntity
  8
0
  6
K5LT_THIN
 62
     7
370
    18
100
AcDbCircle
 10
409.8679825444708
 20
1314.928627343206
 30
0.0
 40
156.8761977462802
100
AcDbArc
 50
326.6703235897618
 51
41.12527509147194
  0
ARC
  5
E1
330
1F
100
AcDbEntity
  8
0
  6
K5LT_THIN
 62
     7
370
    18
100
AcDbCircle
 10
772.0687572432951
 20
1775.589755012583
 30
0.0
 40
419.999999999983
100
AcDbArc
 50
209.1286677928647
 51
223.7771155367181
  0
ARC
  5
E2
330
1F
100
AcDbEntity
  8
0
  6
K5LT_THIN
 62
     7
370
    18
100
AcDbCircle
 10
-257.828668571168
 20
782.0958290054348
 30
0.0
 40
1010.988629687715
100
AcDbArc
 50
38.98364540079422
 51
44.04911733105227
  0
LINE
  5
E3
330
1F
100
AcDbEntity
  8
0
  6
K5LT_THIN
 62
     7
370
    18
100
AcDbLine
 10
306.1239067992431
 20
842.8720474273798
 30
0.0
 11
306.1239067992431
 21
542.9230285696074
 31
0.0
  0
ARC
  5
E4
330
1F
100
AcDbEntity
  8
0
  6
K5LT_THIN
 62
     7
370
    18
100
AcDbCircle
 10
392.0172035083044
 20
467.4127109699948
 30
0.0
 40
109.9999999999996
100
AcDbArc
 50
71.10638186971688
 51
137.8400327254079
  0
ARC
  5
E5
330
1F
100
AcDbEntity
  8
0
  6
K5LT_THIN
 62
     7
370
    18
100
AcDbCircle
 10
3678.21069076581
 20
2182.495478677942
 30
0.0
 40
3623.614453824876
100
AcDbArc
 50
201.6809437790297
 51
206.3355602963805
  0
ARC
  5
E6
330
1F
100
AcDbEntity
  8
0
  6
K5LT_THIN
 62
     7
370
    18
100
AcDbCircle
 10
-1378.345323415839
 20
2289.171187944064
 30
0.0
 40
2539.999999999317
100
AcDbArc
 50
318.8374399148842
 51
321.1924649748821
  0
ARC
  5
E7
330
1F
100
AcDbEntity
  8
0
  6
K5LT_THIN
 62
     7
370
    18
100
AcDbCircle
 10
1721.089817483732
 20
2332.836228387755
 30
0.0
 40
1979.999999999416
100
AcDbArc
 50
235.6654453369071
 51
237.7231766924072
  0
ARC
  5
E8
330
1F
100
AcDbEntity
  8
0
  6
K5LT_THIN
 62
     7
370
    18
100
AcDbCircle
 10
697.0768647964048
 20
563.2624489028951
 30
0.0
 40
97.1375403262027
100
AcDbArc
 50
110.3581527590952
 51
155.0174906758387
  0
ARC
  5
E9
330
1F
100
AcDbEntity
  8
0
  6
K5LT_THIN
 62
     7
370
    18
100
AcDbCircle
 10
573.2566912497134
 20
624.214724623903
 30
0.0
 40
40.94705958651947
100
AcDbArc
 50
192.7895839603884
 51
330.8790990628879
  0
ARC
  5
EA
330
1F
100
AcDbEntity
  8
0
  6
K5LT_THIN
 62
     7
370
    18
100
AcDbCircle
 10
403.4805542169254
 20
481.4534724373516
 30
0.0
 40
69.99999999999986
100
AcDbArc
 50
81.14527796770246
 51
136.598232428423
  0
ARC
  5
EB
330
1F
100
AcDbEntity
  8
0
  6
K5LT_THIN
 62
     7
370
    18
100
AcDbCircle
 10
443.3928605390104
 20
501.0206171834557
 30
0.0
 40
53.11147290932608
100
AcDbArc
 50
122.0637643004576
 51
160.6127270942089
  0
ARC
  5
EC
330
1F
100
AcDbEntity
  8
0
  6
K5LT_THIN
 62
     7
370
    18
100
AcDbCircle
 10
359.3835778619411
 20
465.5293541160171
 30
0.0
 40
60.00000000000031
100
AcDbArc
 50
59.68067056909646
 51
94.5383374539765
  0
ARC
  5
ED
330
1F
100
AcDbEntity
  8
0
  6
K5LT_THIN
 62
     7
370
    18
100
AcDbCircle
 10
378.6553975024638
 20
650.2311400210513
 30
0.0
 40
143.7366868367777
100
AcDbArc
 50
313.8850977870403
 51
327.9115766954084
  0
ARC
  5
EE
330
1F
100
AcDbEntity
  8
0
  6
K5LT_THIN
 62
     7
370
    18
100
AcDbCircle
 10
568.9765347900395
 20
601.5970458476943
 30
0.0
 40
69.99999999999999
100
AcDbArc
 50
203.6220252530755
 51
312.5222159037766
  0
ARC
  5
EF
330
1F
100
AcDbEntity
  8
0
  6
K5LT_THIN
 62
     7
370
    18
100
AcDbCircle
 10
496.3089573524528
 20
701.0444286919226
 30
0.0
 40
192.8925904344496
100
AcDbArc
 50
308.4622219359028
 51
323.7691341162346
  0
ARC
  5
F0
330
1F
100
AcDbEntity
  8
0
  6
K5LT_THIN
 62
     7
370
    18
100
AcDbCircle
 10
693.2074816124853
 20
558.858396820804
 30
0.0
 40
50.00000000000032
100
AcDbArc
 50
96.56468132550552
 51
145.6966225152903
  0
ARC
  5
F1
330
1F
100
AcDbEntity
  8
0
  6
K5LT_THIN
 62
     7
370
    18
100
AcDbCircle
 10
692.2515094855514
 20
578.9106448866087
 30
0.0
 40
30.0
100
AcDbArc
 50
358.6557659003243
 51
99.13003014507936
  0
ARC
  5
F2
330
1F
100
AcDbEntity
  8
0
  6
K5LT_THIN
 62
     7
370
    18
100
AcDbCircle
 10
622.2529170687733
 20
576.8166734307882
 30
0.0
 40
100.0000000000007
100
AcDbArc
 50
287.6054484245114
 51
0.7965496919134533
  0
ARC
  5
F3
330
1F
100
AcDbEntity
  8
0
  6
K5LT_THIN
 62
     7
370
    18
100
AcDbCircle
 10
556.5503521686817
 20
736.9081509495703
 30
0.0
 40
272.8355080416273
100
AcDbArc
 50
266.3448355548409
 51
290.5896183212549
  0
ARC
  5
F4
330
1F
100
AcDbEntity
  8
0
  6
K5LT_THIN
 62
     7
370
    18
100
AcDbCircle
 10
141.3989870638068
 20
225.0155529193362
 30
0.0
 40
463.2830179614268
100
AcDbArc
 50
31.31782758793394
 51
43.36352928419025
  0
ARC
  5
F5
330
1F
100
AcDbEntity
  8
0
  6
K5LT_THIN
 62
     7
370
    18
100
AcDbCircle
 10
305.0373573367344
 20
452.4336938372454
 30
0.0
 40
50.00000000000128
100
AcDbArc
 50
23.87555302751914
 51
44.5428239348169
  0
ARC
  5
F6
330
1F
100
AcDbEntity
  8
0
  6
K5LT_THIN
 62
     7
370
    18
100
AcDbCircle
 10
356.0940415269004
 20
465.3797096299322
 30
0.0
 40
30.00000000000021
100
AcDbArc
 50
64.88371979608058
 51
119.7322325030732
  0
ARC
  5
F7
330
1F
100
AcDbEntity
  8
0
  6
K5LT_THIN
 62
     7
370
    18
100
AcDbCircle
 10
398.2184259299295
 20
448.4395183980954
 30
0.0
 40
49.24843663416361
100
AcDbArc
 50
126.047718505915
 51
150.8029778428191
  0
ARC
  5
F8
330
1F
100
AcDbEntity
  8
0
  6
K5LT_THIN
 62
     7
370
    18
100
AcDbCircle
 10
289.5720888850185
 20
424.231739764522
 30
0.0
 40
32.16402869361416
100
AcDbArc
 50
309.7277879913951
 51
52.50407125034144
  0
LINE
  5
F9
330
1F
100
AcDbEntity
  8
0
  6
K5LT_THIN
 62
     7
370
    18
100
AcDbLine
 10
305.1292072438824
 20
447.718390583602
 30
0.0
 11
306.0320568920951
 21
401.3687532681103
 31
0.0
  0
ARC
  5
FA
330
1F
100
AcDbEntity
  8
0
  6
K5LT_THIN
 62
     7
370
    18
100
AcDbCircle
 10
418.0555693477033
 20
387.9921390672841
 30
0.0
 40
110.3036941997504
100
AcDbArc
 50
54.60521566709678
 51
72.56888403248044
  0
ARC
  5
FB
330
1F
100
AcDbEntity
  8
0
  6
K5LT_THIN
 62
     7
370
    18
100
AcDbCircle
 10
413.5137572378146
 20
531.4878835094097
 30
0.0
 40
50.00000000000054
100
AcDbArc
 50
316.899443204825
 51
343.3550411761984
  0
ARC
  5
FC
330
1F
100
AcDbEntity
  8
0
  6
K5LT_THIN
 62
     7
370
    18
100
AcDbCircle
 10
426.3326403116814
 20
472.8446719025367
 30
0.0
 40
59.99999999999994
100
AcDbArc
 50
7.095739289900084
 51
49.31891168972361
  0
ARC
  5
FD
330
1F
100
AcDbEntity
  8
0
  6
K5LT_THIN
 62
     7
370
    18
100
AcDbCircle
 10
889.73996245794
 20
917.41477930148
 30
0.0
 40
309.9999999999982
100
AcDbArc
 50
271.4031997427616
 51
295.9224130032532
  0
ARC
  5
FE
330
1F
100
AcDbEntity
  8
0
  6
K5LT_THIN
 62
     7
370
    18
100
AcDbCircle
 10
1543.750462437361
 20
673.8990303222917
 30
0.0
 40
516.2602483894342
100
AcDbArc
 50
184.1501191651254
 51
208.4442630463159
  0
ARC
  5
FF
330
1F
100
AcDbEntity
  8
0
  6
K5LT_THIN
 62
     7
370
    18
100
AcDbCircle
 10
1260.166659842199
 20
867.0221036448891
 30
0.0
 40
449.9999999999985
100
AcDbArc
 50
215.8386937863419
 51
234.9645611804944
  0
ARC
  5
100
330
1F
100
AcDbEntity
  8
0
  6
K5LT_THIN
 62
     7
370
    18
100
AcDbCircle
 10
516.7121403826902
 20
-140.5906973926975
 30
0.0
 40
802.4067754367647
100
AcDbArc
 50
44.82382957696154
 51
52.80154663520539
  0
ARC
  5
101
330
1F
100
AcDbEntity
  8
0
  6
K5LT_THIN
 62
     7
370
    18
100
AcDbCircle
 10
1223.837808033663
 20
558.4616037353662
 30
0.0
 40
149.9999999999995
100
AcDbArc
 50
138.3495231381154
 51
203.6679998237662
  0
ARC
  5
102
330
1F
100
AcDbEntity
  8
0
  6
K5LT_THIN
 62
     7
370
    18
100
AcDbCircle
 10
1639.831750457579
 20
702.3020236528018
 30
0.0
 40
589.8007143201643
100
AcDbArc
 50
200.2412796169654
 51
206.3658200189068
  0
LINE
  5
103
330
1F
100
AcDbEntity
  8
0
  6
K5LT_THIN
 62
     7
370
    18
100
AcDbLine
 10
1116.123906799243
 20
656.4878551922563
 30
0.0
 11
1116.123906799243
 21
441.4813298545157
 31
0.0
  0
ARC
  5
104
330
1F
100
AcDbEntity
  8
0
  6
K5LT_THIN
 62
     7
370
    18
100
AcDbCircle
 10
673.2635697205076
 20
567.910294206032
 30
0.0
 40
100.0000000000011
100
AcDbArc
 50
350.8271738385984
 51
31.93272341860575
  0
ARC
  5
105
330
1F
100
AcDbEntity
  8
0
  6
K5LT_THIN
 62
     7
370
    18
100
AcDbCircle
 10
793.1326894404849
 20
697.7894675118619
 30
0.0
 40
79.99999999999972
100
AcDbArc
 50
246.5123639149506
 51
278.3944456871803
  0
ARC
  5
106
330
1F
100
AcDbEntity
  8
0
  6
K5LT_THIN
 62
     7
370
    18
100
AcDbCircle
 10
492.6254171831658
 20
442.6279749462547
 30
0.0
 40
359.999999999998
100
AcDbArc
 50
350.9267604776992
 51
29.04140616857389
  0
ARC
  5
107
330
1F
100
AcDbEntity
  8
0
  6
K5LT_THIN
 62
     7
370
    18
100
AcDbCircle
 10
701.2246001254396
 20
416.2127409223824
 30
0.0
 40
149.9999999999994
100
AcDbArc
 50
263.9698061490587
 51
348.3243612004362
  0
ARC
  5
108
330
1F
100
AcDbEntity
  8
0
  6
K5LT_THIN
 62
     7
370
    18
100
AcDbCircle
 10
680.9740360931103
 20
325.3877020798474
 30
0.0
 40
58.51767931652456
100
AcDbArc
 50
144.3462573280242
 51
274.4032042675437
  0
ARC
  5
109
330
1F
100
AcDbEntity
  8
0
  6
K5LT_THIN
 62
     7
370
    18
100
AcDbCircle
 10
685.2828656915115
 20
312.477799939843
 30
0.0
 40
70.00000000000009
100
AcDbArc
 50
76.89519446636272
 51
137.8015895820776
  0
ARC
  5
10A
330
1F
100
AcDbEntity
  8
0
  6
K5LT_THIN
 62
     7
370
    18
100
AcDbCircle
 10
723.5190104224428
 20
520.3004874279245
 30
0.0
 40
141.4252720307483
100
AcDbArc
 50
260.9011130048616
 51
293.5575151856659
  0
ARC
  5
10B
330
1F
100
AcDbEntity
  8
0
  6
K5LT_THIN
 62
     7
370
    18
100
AcDbCircle
 10
741.7614335622868
 20
468.516036952027
 30
0.0
 40
86.75672415515585
100
AcDbArc
 50
296.1833185380704
 51
68.51471862657844
  0
ARC
  5
10C
330
1F
100
AcDbEntity
  8
0
  6
K5LT_THIN
 62
     7
370
    18
100
AcDbCircle
 10
740.1959845090926
 20
455.1460171306726
 30
0.0
 40
50.00000000000003
100
AcDbArc
 50
329.9230074738661
 51
69.39737723304799
  0
ARC
  5
10D
330
1F
100
AcDbEntity
  8
0
  6
K5LT_THIN
 62
     7
370
    18
100
AcDbCircle
 10
739.952587009351
 20
458.5643040984326
 30
0.0
 40
52.00113836829341
100
AcDbArc
 50
259.8898753365791
 51
326.796654694516
  0
ARC
  5
10E
330
1F
100
AcDbEntity
  8
0
  6
K5LT_THIN
 62
     7
370
    18
100
AcDbCircle
 10
686.0148096793334
 20
309.6282157157417
 30
0.0
 40
107.5242644051162
100
AcDbArc
 50
65.3711770840835
 51
134.8157075161065
  0
ARC
  5
10F
330
1F
100
AcDbEntity
  8
0
  6
K5LT_THIN
 62
     7
370
    18
100
AcDbCircle
 10
686.2325686430074
 20
320.9158227247481
 30
0.0
 40
100.0000000000002
100
AcDbArc
 50
139.4676781493686
 51
268.3620374754944
  0
ARC
  5
110
330
1F
100
AcDbEntity
  8
0
  6
K5LT_THIN
 62
     7
370
    18
100
AcDbCircle
 10
577.0296652003619
 20
662.2399832350568
 30
0.0
 40
240.0000000000011
100
AcDbArc
 50
265.5648100437028
 51
317.8829779453111
  0
ARC
  5
111
330
1F
100
AcDbEntity
  8
0
  6
K5LT_THIN
 62
     7
370
    18
100
AcDbCircle
 10
274.3114717142664
 20
307.6085079212597
 30
0.0
 40
303.0702219422348
100
AcDbArc
 50
327.4788916925978
 51
21.67458604846525
  0
ARC
  5
112
330
1F
100
AcDbEntity
  8
0
  6
K5LT_THIN
 62
     7
370
    18
100
AcDbCircle
 10
277.3269223010955
 20
846.269469062989
 30
0.0
 40
750.1389203010069
100
AcDbArc
 50
289.9129070087844
 51
302.8888134703767
  0
ARC
  5
113
330
1F
100
AcDbEntity
  8
0
  6
K5LT_THIN
 62
     7
370
    18
100
AcDbCircle
 10
450.1150781926137
 20
280.7811516041627
 30
0.0
 40
195.4116416139406
100
AcDbArc
 50
224.3632819800653
 51
252.6600864027442
  0
LINE
  5
114
330
1F
100
AcDbEntity
  8
0
  6
K5LT_THIN
 62
     7
370
    18
100
AcDbLine
 10
306.1239067992431
 20
142.4002775497736
 30
0.0
 11
306.1239067992431
 21
89.36391932725698
 31
0.0
  0
LINE
  5
115
330
1F
100
AcDbEntity
  8
0
  6
K5LT_THIN
 62
     7
370
    18
100
AcDbLine
 10
306.1239067992431
 20
89.36391932725698
 30
0.0
 11
391.1295101682358
 21
89.36391932725694
 31
0.0
  0
ARC
  5
116
330
1F
100
AcDbEntity
  8
0
  6
K5LT_THIN
 62
     7
370
    18
100
AcDbCircle
 10
283.7248812654382
 20
520.9966299188728
 30
0.0
 40
159.9999999999988
100
AcDbArc
 50
309.026549087302
 51
338.5248374192499
  0
ARC
  5
117
330
1F
100
AcDbEntity
  8
0
  6
K5LT_THIN
 62
     7
370
    18
100
AcDbCircle
 10
566.4480327732529
 20
263.7581554623317
 30
0.0
 40
225.3622849503453
100
AcDbArc
 50
143.8499053887962
 51
198.6722366321207
  0
ARC
  5
118
330
1F
100
AcDbEntity
  8
0
  6
K5LT_THIN
 62
     7
370
    18
100
AcDbCircle
 10
436.6476442275386
 20
224.6877034066939
 30
0.0
 40
89.99999999999987
100
AcDbArc
 50
201.5650628971884
 51
286.8243275962125
  0
ARC
  5
119
330
1F
100
AcDbEntity
  8
0
  6
K5LT_THIN
 62
     7
370
    18
100
AcDbCircle
 10
387.7951117097425
 20
271.0958598962967
 30
0.0
 40
152.2542657243612
100
AcDbArc
 50
299.4690413785206
 51
9.743844157765423
  0
ARC
  5
11A
330
1F
100
AcDbEntity
  8
0
  6
K5LT_THIN
 62
     7
370
    18
100
AcDbCircle
 10
135.3922294151205
 20
251.8872690793823
 30
0.0
 40
404.9661310745781
100
AcDbArc
 50
6.37658220296718
 51
27.96512432478483
  0
LINE
  5
11B
330
1F
100
AcDbEntity
  8
0
  6
K5LT_THIN
 62
     7
370
    18
100
AcDbLine
 10
435.8183489373703
 20
463.8476728304046
 30
0.0
 11
491.7384856891899
 21
442.9592791118679
 31
0.0
  0
ARC
  5
11C
330
1F
100
AcDbEntity
  8
0
  6
K5LT_THIN
 62
     7
370
    18
100
AcDbCircle
 10
366.8968406592755
 20
620.6834573440831
 30
0.0
 40
549.4721170007593
100
AcDbArc
 50
286.6536182605037
 51
306.2574032710891
  0
ARC
  5
11D
330
1F
100
AcDbEntity
  8
0
  6
K5LT_THIN
 62
     7
370
    18
100
AcDbCircle
 10
752.49627234477
 20
100.0665575931012
 30
0.0
 40
98.43243763415484
100
AcDbArc
 50
355.0949738900068
 51
128.0243464998328
  0
ARC
  5
11E
330
1F
100
AcDbEntity
  8
0
  6
K5LT_THIN
 62
     7
370
    18
100
AcDbCircle
 10
772.4964000649613
 20
104.8643636848566
 30
0.0
 40
34.35631068610541
100
AcDbArc
 50
339.3454188357658
 51
200.6545811642339
  0
LINE
  5
11F
330
1F
100
AcDbEntity
  8
0
  6
K5LT_THIN
 62
     7
370
    18
100
AcDbLine
 10
806.9837322884848
 20
89.36391932725682
 30
0.0
 11
848.0773861482338
 21
89.36391932725695
 31
0.0
  0
LINE
  5
120
330
1F
100
AcDbEntity
  8
0
  6
K5LT_THIN
 62
     7
370
    18
100
AcDbLine
 10
738.0090678414379
 20
89.36391932725698
 30
0.0
 11
525.0838001659637
 21
89.36391932725698
 31
0.0
  0
ARC
  5
121
330
1F
100
AcDbEntity
  8
0
  6
K5LT_THIN
 62
     7
370
    18
100
AcDbCircle
 10
774.6400023444232
 20
120.2625607400375
 30
0.0
 40
110.0000000000026
100
AcDbArc
 50
51.76347848799174
 51
76.64390431214242
  0
ARC
  5
122
330
1F
100
AcDbEntity
  8
0
  6
K5LT_THIN
 62
     7
370
    18
100
AcDbCircle
 10
986.7220995200894
 20
212.2154398816389
 30
0.0
 40
140.0000000000001
100
AcDbArc
 50
104.2539102970525
 51
181.4429376787421
  0
ARC
  5
123
330
1F
100
AcDbEntity
  8
0
  6
K5LT_THIN
 62
     7
370
    18
100
AcDbCircle
 10
973.709028772608
 20
259.0629250986185
 30
0.0
 40
91.39703931237327
100
AcDbArc
 50
21.71901272884035
 51
103.5783027478291
  0
ARC
  5
124
330
1F
100
AcDbEntity
  8
0
  6
K5LT_THIN
 62
     7
370
    18
100
AcDbCircle
 10
1004.959312590544
 20
266.0377151374156
 30
0.0
 40
59.99999999999999
100
AcDbArc
 50
239.8596970923921
 51
26.5803522535392
  0
ARC
  5
125
330
1F
100
AcDbEntity
  8
0
  6
K5LT_THIN
 62
     7
370
    18
100
AcDbCircle
 10
990.0132276673173
 20
240.0251881897275
 30
0.0
 40
30.00000000000028
100
AcDbArc
 50
122.0787694962584
 51
239.5998832117225
  0
ARC
  5
126
330
1F
100
AcDbEntity
  8
0
  6
K5LT_THIN
 62
     7
370
    18
100
AcDbCircle
 10
989.1133635211065
 20
243.3374413678177
 30
0.0
 40
26.73414441254819
100
AcDbArc
 50
28.80611248440424
 51
124.2151785940616
  0
ARC
  5
127
330
1F
100
AcDbEntity
  8
0
  6
K5LT_THIN
 62
     7
370
    18
100
AcDbCircle
 10
995.2813412549692
 20
276.8661075641846
 30
0.0
 40
29.99999999999997
100
AcDbArc
 50
315.0093092637238
 51
64.5599088570026
  0
ARC
  5
128
330
1F
100
AcDbEntity
  8
0
  6
K5LT_THIN
 62
     7
370
    18
100
AcDbCircle
 10
969.4738199182195
 20
233.5475447854122
 30
0.0
 40
80.34164747070793
100
AcDbArc
 50
61.20842195155637
 51
147.3722042240369
  0
ARC
  5
129
330
1F
100
AcDbEntity
  8
0
  6
K5LT_THIN
 62
     7
370
    18
100
AcDbCircle
 10
1005.739046461384
 20
208.366187120665
 30
0.0
 40
124.472152333497
100
AcDbArc
 50
146.6108073330231
 51
252.9511931504982
  0
ARC
  5
12A
330
1F
100
AcDbEntity
  8
0
  6
K5LT_THIN
 62
     7
370
    18
100
AcDbCircle
 10
1037.221302520744
 20
172.7054658981346
 30
0.0
 40
83.38497560706554
100
AcDbArc
 50
271.8492800049769
 51
340.8360996518689
  0
ARC
  5
12B
330
1F
100
AcDbEntity
  8
0
  6
K5LT_THIN
 62
     7
370
    18
100
AcDbCircle
 10
697.6803013608612
 20
392.3791539172717
 30
0.0
 40
189.9999999999992
100
AcDbArc
 50
302.3298112024569
 51
9.422411467944544
  0
ARC
  5
12C
330
1F
100
AcDbEntity
  8
0
  6
K5LT_THIN
 62
     7
370
    18
100
AcDbCircle
 10
433.9450728117715
 20
415.5537900412583
 30
0.0
 40
451.2414827294007
100
AcDbArc
 50
1.007031084359198
 51
22.11248234065325
  0
ARC
  5
12D
330
1F
100
AcDbEntity
  8
0
  6
K5LT_THIN
 62
     7
370
    18
100
AcDbCircle
 10
-1148.321686537949
 20
-1854.806281644194
 30
0.0
 40
3159.999999999686
100
AcDbArc
 50
48.23679180546363
 51
50.63586217290789
  0
ARC
  5
12E
330
1F
100
AcDbEntity
  8
0
  6
K5LT_THIN
 62
     7
370
    18
100
AcDbCircle
 10
651.6659332514171
 20
97.27241910497537
 30
0.0
 40
506.8277381834165
100
AcDbArc
 50
23.65362367520988
 51
53.03887170124277
  0
LINE
  5
12F
330
1F
100
AcDbEntity
  8
0
  6
K5LT_THIN
 62
     7
370
    18
100
AcDbLine
 10
1116.123906799243
 20
299.6119806760799
 30
0.0
 11
1116.123906799243
 21
146.1532279808026
 31
0.0
  0
LINE
  5
130
330
1F
100
AcDbEntity
  8
0
  6
K5LT_THIN
 62
     7
370
    18
100
AcDbLine
 10
969.2455269468276
 20
89.36391932725721
 30
0.0
 11
1039.912170812791
 21
89.36391932725698
 31
0.0
  0
ARC
  5
131
330
1F
100
AcDbEntity
  8
0
  6
K5LT_THIN
 62
     7
370
    18
100
AcDbCircle
 10
1113.623906799243
 20
1887.171693934371
 30
0.0
 40
2.5
100
AcDbArc
 50
255.0129541014865
 51
0.0
  0
ARC
  5
132
330
1F
100
AcDbEntity
  8
0
  6
K5LT_THIN
 62
     7
370
    18
100
AcDbCircle
 10
1113.623906799243
 20
1896.863919327257
 30
0.0
 40
2.5
100
AcDbArc
 50
0.0
 51
90.0
  0
ARC
  5
133
330
1F
100
AcDbEntity
  8
0
  6
K5LT_THIN
 62
     7
370
    18
100
AcDbCircle
 10
308.6239067992431
 20
1831.82516495393
 30
0.0
 40
2.5
100
AcDbArc
 50
180.0
 51
340.6132454612855
  0
ARC
  5
134
330
1F
100
AcDbEntity
  8
0
  6
K5LT_THIN
 62
     7
370
    18
100
AcDbCircle
 10
359.0822507228161
 20
1896.863919327257
 30
0.0
 40
2.5
100
AcDbArc
 50
303.7767287294179
 51
90.0
  0
ARC
  5
135
330
1F
100
AcDbEntity
  8
0
  6
K5LT_THIN
 62
     7
370
    18
100
AcDbCircle
 10
308.6239067992431
 20
1896.863919327257
 30
0.0
 40
2.5
100
AcDbArc
 50
90.0
 51
180.0
  0
ARC
  5
136
330
1F
100
AcDbEntity
  8
0
  6
K5LT_THIN
 62
     7
370
    18
100
AcDbCircle
 10
459.2146539035253
 20
1884.482243442658
 30
0.0
 40
2.5
100
AcDbArc
 50
99.3170867351859
 51
252.893077736752
  0
ARC
  5
137
330
1F
100
AcDbEntity
  8
0
  6
K5LT_THIN
 62
     7
370
    18
100
AcDbCircle
 10
580.1570318980409
 20
1815.505299063763
 30
0.0
 40
2.5
100
AcDbArc
 50
227.7121912857526
 51
21.28818228732009
  0
ARC
  5
138
330
1F
100
AcDbEntity
  8
0
  6
K5LT_THIN
 62
     7
370
    18
100
AcDbCircle
 10
559.6306449439003
 20
1896.863919327257
 30
0.0
 40
2.5
100
AcDbArc
 50
90.0
 51
229.9611161362566
  0
ARC
  5
139
330
1F
100
AcDbEntity
  8
0
  6
K5LT_THIN
 62
     7
370
    18
100
AcDbCircle
 10
616.240019648301
 20
1896.863919327257
 30
0.0
 40
2.5
100
AcDbArc
 50
5.600632226637551
 51
90.0
  0
ARC
  5
13A
330
1F
100
AcDbEntity
  8
0
  6
K5LT_THIN
 62
     7
370
    18
100
AcDbCircle
 10
615.8217548212797
 20
1796.381307920222
 30
0.0
 40
2.5
100
AcDbArc
 50
188.4677966070953
 51
238.5667438019881
  0
ARC
  5
13B
330
1F
100
AcDbEntity
  8
0
  6
K5LT_THIN
 62
     7
370
    18
100
AcDbCircle
 10
671.653826942199
 20
1896.863919327257
 30
0.0
 40
2.5
100
AcDbArc
 50
90.0
 51
235.8530518660271
  0
ARC
  5
13C
330
1F
100
AcDbEntity
  8
0
  6
K5LT_THIN
 62
     7
370
    18
100
AcDbCircle
 10
721.2096807915422
 20
1896.863919327257
 30
0.0
 40
2.5
100
AcDbArc
 50
304.1469481339728
 51
90.0
  0
ARC
  5
13D
330
1F
100
AcDbEntity
  8
0
  6
K5LT_THIN
 62
     7
370
    18
100
AcDbCircle
 10
847.8568965090768
 20
1896.863919327257
 30
0.0
 40
2.5
100
AcDbArc
 50
90.0
 51
212.4257386873954
  0
ARC
  5
13E
330
1F
100
AcDbEntity
  8
0
  6
K5LT_THIN
 62
     7
370
    18
100
AcDbCircle
 10
875.7523914119402
 20
1596.323855799418
 30
0.0
 40
2.5
100
AcDbArc
 50
214.1934420357269
 51
15.93329036619513
  0
ARC
  5
13F
330
1F
100
AcDbEntity
  8
0
  6
K5LT_BASIC
 62
     5
420
      255
370
    60
100
AcDbCircle
 10
585.7444756555954
 20
1771.176476166954
 30
0.0
 40
2.5
100
AcDbArc
 50
9.406689292999081
 51
40.02540890373398
  0
ARC
  5
140
330
1F
100
AcDbEntity
  8
0
  6
K5LT_BASIC
 62
     5
420
      255
370
    60
100
AcDbCircle
 10
573.5552419649886
 20
1743.594678791324
 30
0.0
 40
2.5
100
AcDbArc
 50
264.1037460732975
 51
302.9091293038074
  0
ARC
  5
141
330
1F
100
AcDbEntity
  8
0
  6
K5LT_BASIC
 62
     5
420
      255
370
    60
100
AcDbCircle
 10
510.7591965522827
 20
1737.777289614132
 30
0.0
 40
2.5
100
AcDbArc
 50
176.3862384731541
 51
286.4817366391434
  0
ARC
  5
142
330
1F
100
AcDbEntity
  8
0
  6
K5LT_BASIC
 62
     5
420
      255
370
    60
100
AcDbCircle
 10
422.4701522452953
 20
1668.253806689238
 30
0.0
 40
2.5
100
AcDbArc
 50
325.2414089514856
 51
42.57028494577078
  0
ARC
  5
143
330
1F
100
AcDbEntity
  8
0
  6
K5LT_THIN
 62
     7
370
    18
100
AcDbCircle
 10
543.0304426575599
 20
1227.35847475289
 30
0.0
 40
2.5
100
AcDbArc
 50
146.6703235897647
 51
276.3516596376194
  0
ARC
  5
144
330
1F
100
AcDbEntity
  8
0
  6
K5LT_THIN
 62
     7
370
    18
100
AcDbCircle
 10
549.6789322269944
 20
1494.16038858376
 30
0.0
 40
2.5
100
AcDbArc
 50
158.4819805143137
 51
240.9551242850675
  0
ARC
  5
145
330
1F
100
AcDbEntity
  8
0
  6
K5LT_THIN
 62
     7
370
    18
100
AcDbCircle
 10
553.7529525387043
 20
1510.605214220787
 30
0.0
 40
2.5
100
AcDbArc
 50
319.8271374082533
 51
109.447662471246
  0
ARC
  5
146
330
1F
100
AcDbEntity
  8
0
  6
K5LT_THIN
 62
     7
370
    18
100
AcDbCircle
 10
308.6239067992431
 20
1725.343771529887
 30
0.0
 40
2.5
100
AcDbArc
 50
10.29376747294978
 51
180.0
  0
ARC
  5
147
330
1F
100
AcDbEntity
  8
0
  6
K5LT_THIN
 62
     7
370
    18
100
AcDbCircle
 10
308.6239067992431
 20
1373.270366006171
 30
0.0
 40
2.5
100
AcDbArc
 50
179.9999999999948
 51
304.7320164222948
  0
ARC
  5
148
330
1F
100
AcDbEntity
  8
0
  6
K5LT_THIN
 62
     7
370
    18
100
AcDbCircle
 10
447.0882654419745
 20
1314.597065484911
 30
0.0
 40
2.5
100
AcDbArc
 50
268.9412969734385
 51
11.4337815057149
  0
ARC
  5
149
330
1F
100
AcDbEntity
  8
0
  6
K5LT_THIN
 62
     7
370
    18
100
AcDbCircle
 10
385.0062622197036
 20
1315.74433822703
 30
0.0
 40
2.5
100
AcDbArc
 50
198.3545244568784
 51
268.9412969734385
  0
ARC
  5
14A
330
1F
100
AcDbEntity
  8
0
  6
K5LT_THIN
 62
     7
370
    18
100
AcDbCircle
 10
308.6239067992435
 20
1275.218634823482
 30
0.0
 40
2.5
100
AcDbArc
 50
180.0
 51
213.8442935230583
  0
ARC
  5
14B
330
1F
100
AcDbEntity
  8
0
  6
K5LT_THIN
 62
     7
370
    18
100
AcDbCircle
 10
308.6239067992431
 20
1312.707508483972
 30
0.0
 40
2.5
100
AcDbArc
 50
163.9843565192116
 51
180.0
  0
ARC
  5
14C
330
1F
100
AcDbEntity
  8
0
  6
K5LT_BASIC
 62
     5
420
      255
370
    60
100
AcDbCircle
 10
617.0550774305361
 20
1542.767964363419
 30
0.0
 40
2.5
100
AcDbArc
 50
131.9672980847231
 51
221.4416671091506
  0
ARC
  5
14D
330
1F
100
AcDbEntity
  8
0
  6
K5LT_BASIC
 62
     5
420
      255
370
    60
100
AcDbCircle
 10
694.4544846814595
 20
1435.039254228097
 30
0.0
 40
2.5
100
AcDbArc
 50
209.9502485419409
 51
307.0113520687803
  0
ARC
  5
14E
330
1F
100
AcDbEntity
  8
0
  6
K5LT_THIN
 62
     7
370
    18
100
AcDbCircle
 10
712.9601248750744
 20
1436.132284863412
 30
0.0
 40
145.9187793413649
100
AcDbArc
 50
67.70780725197349
 51
131.9672980847238
  0
ARC
  5
14F
330
1F
100
AcDbEntity
  8
0
  6
K5LT_THIN
 62
     7
370
    18
100
AcDbCircle
 10
754.5247072447748
 20
1525.0832923952
 30
0.0
 40
48.08102039137534
100
AcDbArc
 50
301.6019582999779
 51
73.33705444961535
  0
ARC
  5
150
330
1F
100
AcDbEntity
  8
0
  6
K5LT_THIN
 62
     7
370
    18
100
AcDbCircle
 10
996.9460406821893
 20
1033.784835500702
 30
0.0
 40
500.0000000000019
100
AcDbArc
 50
115.7504488558698
 51
127.01135206878
  0
ARC
  5
151
330
1F
100
AcDbEntity
  8
0
  6
K5LT_THIN
 62
     7
370
    18
100
AcDbCircle
 10
120.425237772414
 20
1104.287574424368
 30
0.0
 40
659.9999999999654
100
AcDbArc
 50
29.95024854194059
 51
41.44166710914813
  0
ARC
  5
152
330
1F
100
AcDbEntity
  8
0
  6
K5LT_THIN
 62
     7
370
    18
100
AcDbCircle
 10
308.6239067992431
 20
542.9230285696074
 30
0.0
 40
2.5
100
AcDbArc
 50
180.0
 51
317.8400327254081
  0
ARC
  5
153
330
1F
100
AcDbEntity
  8
0
  6
K5LT_THIN
 62
     7
370
    18
100
AcDbCircle
 10
428.4460576497523
 20
573.85137211312
 30
0.0
 40
2.5
100
AcDbArc
 50
251.106381869717
 51
26.33556029639832
  0
ARC
  5
154
330
1F
100
AcDbEntity
  8
0
  6
K5LT_THIN
 62
     7
370
    18
100
AcDbCircle
 10
308.6239067992431
 20
842.8720474273798
 30
0.0
 40
2.5
100
AcDbArc
 50
21.68094377903622
 51
180.0
  0
ARC
  5
155
330
1F
100
AcDbEntity
  8
0
  6
K5LT_THIN
 62
     7
370
    18
100
AcDbCircle
 10
354.4381947209704
 20
527.8333923927536
 30
0.0
 40
2.5
100
AcDbArc
 50
136.598232428423
 51
274.5383374539765
  0
ARC
  5
156
330
1F
100
AcDbEntity
  8
0
  6
K5LT_THIN
 62
     7
370
    18
100
AcDbCircle
 10
390.9347573701376
 20
519.4809349236413
 30
0.0
 40
2.5
100
AcDbArc
 50
239.6806705690963
 51
340.6127270942084
  0
ARC
  5
157
330
1F
100
AcDbEntity
  8
0
  6
K5LT_THIN
 62
     7
370
    18
100
AcDbCircle
 10
413.8708024308506
 20
548.1489950910725
 30
0.0
 40
2.5
100
AcDbArc
 50
302.0637643004578
 51
81.14527796770271
  0
ARC
  5
158
330
1F
100
AcDbEntity
  8
0
  6
K5LT_THIN
 62
     7
370
    18
100
AcDbCircle
 10
342.4554921458149
 20
489.2594075086682
 30
0.0
 40
2.5
100
AcDbArc
 50
119.7322325030731
 51
224.5428239348174
  0
ARC
  5
159
330
1F
100
AcDbEntity
  8
0
  6
K5LT_THIN
 62
     7
370
    18
100
AcDbCircle
 10
367.7666012388696
 20
490.2795359299393
 30
0.0
 40
2.5
100
AcDbArc
 50
306.0477185059153
 51
64.88371979608037
  0
ARC
  5
15A
330
1F
100
AcDbEntity
  8
0
  6
K5LT_THIN
 62
     7
370
    18
100
AcDbCircle
 10
353.0447610756552
 20
473.6831452713034
 30
0.0
 40
2.5
100
AcDbArc
 50
203.8755530275187
 51
330.8029778428189
  0
ARC
  5
15B
330
1F
100
AcDbEntity
  8
0
  6
K5LT_THIN
 62
     7
370
    18
100
AcDbCircle
 10
307.6287330841923
 20
447.7670791204779
 30
0.0
 40
2.5
100
AcDbArc
 50
52.50407125034108
 51
181.1159296208679
  0
ARC
  5
15C
330
1F
100
AcDbEntity
  8
0
  6
K5LT_THIN
 62
     7
370
    18
100
AcDbCircle
 10
308.531582732405
 20
401.4174418049863
 30
0.0
 40
2.5
100
AcDbArc
 50
181.1159296208679
 51
309.7277879913951
  0
ARC
  5
15D
330
1F
100
AcDbEntity
  8
0
  6
K5LT_THIN
 62
     7
370
    18
100
AcDbCircle
 10
451.8469281589936
 20
495.6156378712045
 30
0.0
 40
2.5
100
AcDbArc
 50
136.8994432048257
 51
252.5688840324806
  0
ARC
  5
15E
330
1F
100
AcDbEntity
  8
0
  6
K5LT_THIN
 62
     7
370
    18
100
AcDbCircle
 10
483.3922550894687
 20
479.9475136866754
 30
0.0
 40
2.5
100
AcDbArc
 50
234.605215667097
 51
7.0957392898996
  0
ARC
  5
15F
330
1F
100
AcDbEntity
  8
0
  6
K5LT_THIN
 62
     7
370
    18
100
AcDbCircle
 10
463.8139077845372
 20
516.449770097911
 30
0.0
 40
2.5
100
AcDbArc
 50
49.31891168972421
 51
163.3550411761994
  0
ARC
  5
160
330
1F
100
AcDbEntity
  8
0
  6
K5LT_THIN
 62
     7
370
    18
100
AcDbCircle
 10
308.6239067992431
 20
142.4002775497736
 30
0.0
 40
2.5
100
AcDbArc
 50
44.36328198006657
 51
180.0
  0
ARC
  5
161
330
1F
100
AcDbEntity
  8
0
  6
K5LT_THIN
 62
     7
370
    18
100
AcDbCircle
 10
391.1295101682358
 20
91.86391932725694
 30
0.0
 40
2.5
100
AcDbArc
 50
270.0
 51
72.66008640274472
  0
ARC
  5
162
330
1F
100
AcDbEntity
  8
0
  6
K5LT_THIN
 62
     7
370
    18
100
AcDbCircle
 10
1026.350476389814
 20
636.3563912692634
 30
0.0
 40
2.5
100
AcDbArc
 50
4.150119165128995
 51
115.9224130032569
  0
ARC
  5
163
330
1F
100
AcDbEntity
  8
0
  6
K5LT_THIN
 62
     7
370
    18
100
AcDbCircle
 10
1087.61449802547
 20
426.8116423821103
 30
0.0
 40
2.5
100
AcDbArc
 50
224.8238295769621
 51
28.44426304632114
  0
ARC
  5
164
330
1F
100
AcDbEntity
  8
0
  6
K5LT_THIN
 62
     7
370
    18
100
AcDbCircle
 10
897.3924647986637
 20
605.0084906196994
 30
0.0
 40
2.5
100
AcDbArc
 50
91.40319974276584
 51
215.8386937863381
  0
ARC
  5
165
330
1F
100
AcDbEntity
  8
0
  6
K5LT_THIN
 62
     7
370
    18
100
AcDbCircle
 10
1113.623906799243
 20
656.4878551922563
 30
0.0
 40
2.5
100
AcDbArc
 50
0.0
 51
138.3495231381142
  0
ARC
  5
166
330
1F
100
AcDbEntity
  8
0
  6
K5LT_THIN
 62
     7
370
    18
100
AcDbCircle
 10
1113.623906799243
 20
441.4813298545157
 30
0.0
 40
2.5
100
AcDbArc
 50
206.3658200189016
 51
0.0
  0
ARC
  5
167
330
1F
100
AcDbEntity
  8
0
  6
K5LT_THIN
 62
     7
370
    18
100
AcDbCircle
 10
1113.623906799243
 20
299.6119806760799
 30
0.0
 40
2.5
100
AcDbArc
 50
0.0
 51
23.65362367521109
  0
ARC
  5
168
330
1F
100
AcDbEntity
  8
0
  6
K5LT_THIN
 62
     7
370
    18
100
AcDbCircle
 10
1113.623906799243
 20
146.1532279808026
 30
0.0
 40
2.5
100
AcDbArc
 50
340.8360996518689
 51
0.0
  0
ARC
  5
169
330
1F
100
AcDbEntity
  8
0
  6
K5LT_THIN
 62
     7
370
    18
100
AcDbCircle
 10
1014.72993692299
 20
257.4238307802833
 30
0.0
 40
2.5
100
AcDbArc
 50
208.8061124844044
 51
315.0093092637234
  0
ARC
  5
16A
330
1F
100
AcDbEntity
  8
0
  6
K5LT_THIN
 62
     7
370
    18
100
AcDbCircle
 10
844.2672863420714
 20
208.6270973093618
 30
0.0
 40
2.5
100
AcDbArc
 50
231.7634784879922
 51
1.442937678742223
  0
ARC
  5
16B
330
1F
100
AcDbEntity
  8
0
  6
K5LT_THIN
 62
     7
370
    18
100
AcDbCircle
 10
800.6277748064218
 20
229.7197929472516
 30
0.0
 40
2.5
100
AcDbArc
 50
122.3298112024575
 51
256.6439043121421
  0
ARC
  5
16C
330
1F
100
AcDbEntity
  8
0
  6
K5LT_THIN
 62
     7
370
    18
100
AcDbCircle
 10
854.3123473838567
 20
586.3539294390707
 30
0.0
 40
2.5
100
AcDbArc
 50
50.63586217290977
 51
202.1124823406523
  0
ARC
  5
16D
330
1F
100
AcDbEntity
  8
0
  6
K5LT_THIN
 62
     7
370
    18
100
AcDbCircle
 10
662.4142209700539
 20
656.6762624703928
 30
0.0
 40
2.5
100
AcDbArc
 50
290.3581527590957
 51
57.72317669240076
  0
ARC
  5
16E
330
1F
100
AcDbEntity
  8
0
  6
K5LT_THIN
 62
     7
370
    18
100
AcDbCircle
 10
602.9119198319913
 20
695.7704266556382
 30
0.0
 40
2.5
100
AcDbArc
 50
55.66544533693953
 51
141.1924649748936
  0
ARC
  5
16F
330
1F
100
AcDbEntity
  8
0
  6
K5LT_THIN
 62
     7
370
    18
100
AcDbCircle
 10
535.7635180359437
 20
615.7036522348583
 30
0.0
 40
2.5
100
AcDbArc
 50
138.8374399148874
 51
192.7895839603871
  0
ARC
  5
170
330
1F
100
AcDbEntity
  8
0
  6
K5LT_THIN
 62
     7
370
    18
100
AcDbCircle
 10
502.5513995151441
 20
572.5462041436774
 30
0.0
 40
2.5
100
AcDbArc
 50
23.62202525307528
 51
147.9115766954093
  0
ARC
  5
171
330
1F
100
AcDbEntity
  8
0
  6
K5LT_THIN
 62
     7
370
    18
100
AcDbCircle
 10
480.028773858718
 20
544.8337627143507
 30
0.0
 40
2.5
100
AcDbArc
 50
133.8850977870405
 51
223.3635292841887
  0
ARC
  5
172
330
1F
100
AcDbEntity
  8
0
  6
K5LT_THIN
 62
     7
370
    18
100
AcDbCircle
 10
539.3160873300487
 20
467.1225564053163
 30
0.0
 40
2.5
100
AcDbArc
 50
211.3178275879346
 51
266.3448355548401
  0
ARC
  5
173
330
1F
100
AcDbEntity
  8
0
  6
K5LT_THIN
 62
     7
370
    18
100
AcDbCircle
 10
760.2522182199153
 20
622.1249143028906
 30
0.0
 40
2.5
100
AcDbArc
 50
66.51236391495095
 51
211.9327234186065
  0
ARC
  5
174
330
1F
100
AcDbEntity
  8
0
  6
K5LT_THIN
 62
     7
370
    18
100
AcDbCircle
 10
805.1766273999197
 20
616.1733321069725
 30
0.0
 40
2.5
100
AcDbArc
 50
29.04140616857509
 51
98.39444568718025
  0
ARC
  5
175
330
1F
100
AcDbEntity
  8
0
  6
K5LT_THIN
 62
     7
370
    18
100
AcDbCircle
 10
774.4527978112051
 20
551.5704619422352
 30
0.0
 40
2.5
100
AcDbArc
 50
170.8271738385992
 51
248.514718626577
  0
ARC
  5
176
330
1F
100
AcDbEntity
  8
0
  6
K5LT_THIN
 62
     7
370
    18
100
AcDbCircle
 10
756.9104981176081
 20
499.6080800026396
 30
0.0
 40
2.5
100
AcDbArc
 50
69.39737723304694
 51
137.8829779453134
  0
ARC
  5
177
330
1F
100
AcDbEntity
  8
0
  6
K5LT_THIN
 62
     7
370
    18
100
AcDbCircle
 10
683.3027142533642
 20
218.4577046800781
 30
0.0
 40
2.5
100
AcDbArc
 50
302.8888134703712
 51
88.36203747549561
  0
ARC
  5
178
330
1F
100
AcDbEntity
  8
0
  6
K5LT_THIN
 62
     7
370
    18
100
AcDbCircle
 10
531.9662790248169
 20
143.3308137336746
 30
0.0
 40
2.5
100
AcDbArc
 50
147.4788916925979
 51
289.9129070087835
  0
ARC
  5
179
330
1F
100
AcDbEntity
  8
0
  6
K5LT_THIN
 62
     7
370
    18
100
AcDbCircle
 10
558.27680456168
 20
420.4661628618272
 30
0.0
 40
2.5
100
AcDbArc
 50
85.56481004370619
 51
201.6745860484646
  0
ARC
  5
17A
330
1F
100
AcDbEntity
  8
0
  6
K5LT_THIN
 62
     7
370
    18
100
AcDbCircle
 10
525.0838001659637
 20
91.86391932725698
 30
0.0
 40
2.5
100
AcDbArc
 50
106.6536182605031
 51
270.0
  0
ARC
  5
17B
330
1F
100
AcDbEntity
  8
0
  6
K5LT_THIN
 62
     7
370
    18
100
AcDbCircle
 10
738.0090678414379
 20
91.86391932725698
 30
0.0
 40
2.5
100
AcDbArc
 50
270.0
 51
20.65458116423373
  0
ARC
  5
17C
330
1F
100
AcDbEntity
  8
0
  6
K5LT_THIN
 62
     7
370
    18
100
AcDbCircle
 10
806.9837322884848
 20
91.86391932725682
 30
0.0
 40
2.5
100
AcDbArc
 50
159.3454188357653
 51
270.0
  0
ARC
  5
17D
330
1F
100
AcDbEntity
  8
0
  6
K5LT_THIN
 62
     7
370
    18
100
AcDbCircle
 10
848.0773861482338
 20
91.86391932725695
 30
0.0
 40
2.5
100
AcDbArc
 50
270.0
 51
355.0949738900059
  0
ARC
  5
17E
330
1F
100
AcDbEntity
  8
0
  6
K5LT_THIN
 62
     7
370
    18
100
AcDbCircle
 10
540.0452276516382
 20
1377.859991757357
 30
0.0
 40
364.9967644389496
100
AcDbArc
 50
346.0400558092808
 51
25.30554520239733
  0
ARC
  5
17F
330
1F
100
AcDbEntity
  8
0
  6
K5LT_THIN
 62
     7
370
    18
100
AcDbCircle
 10
735.2845805659279
 20
1530.115600898414
 30
0.0
 40
129.9999999999998
100
AcDbArc
 50
293.0745878135535
 51
1.164136158802599
  0
ARC
  5
180
330
1F
100
AcDbEntity
  8
0
  6
K5LT_THIN
 62
     7
370
    18
100
AcDbCircle
 10
867.7572320833249
 20
1532.807551854551
 30
0.0
 40
2.5
100
AcDbArc
 50
25.30554520239664
 51
181.1641361588033
  0
ARC
  5
181
330
1F
100
AcDbEntity
  8
0
  6
K5LT_THIN
 62
     7
370
    18
100
AcDbCircle
 10
784.0129697318719
 20
1232.267512049755
 30
0.0
 40
120.0000000000003
100
AcDbArc
 50
28.33543083169832
 51
81.01396688405052
  0
ARC
  5
182
330
1F
100
AcDbEntity
  8
0
  6
K5LT_THIN
 62
     7
370
    18
100
AcDbCircle
 10
780.0115038989154
 20
1376.089707064036
 30
0.0
 40
29.99999999999815
100
AcDbArc
 50
315.3858078504923
 51
354.8081357182487
  0
ARC
  5
183
330
1F
100
AcDbEntity
  8
0
  6
K5LT_THIN
 62
     7
370
    18
100
AcDbCircle
 10
802.1482868771711
 20
1395.480034171447
 30
0.0
 40
19.9999999999997
100
AcDbArc
 50
215.8112532156593
 51
283.4944243729289
  0
ARC
  5
184
330
1F
100
AcDbEntity
  8
0
  6
K5LT_THIN
 62
     7
370
    18
100
AcDbCircle
 10
800.7860461317807
 20
1397.167144137204
 30
0.0
 40
19.99999999999999
100
AcDbArc
 50
140.8483540189628
 51
222.0263620244728
  0
ARC
  5
185
330
1F
100
AcDbEntity
  8
0
  6
K5LT_THIN
 62
     7
370
    18
100
AcDbCircle
 10
807.3986784926961
 20
1373.601199927283
 30
0.0
 40
2.5
100
AcDbArc
 50
354.8081357182472
 51
103.4944243729287
  0
ARC
  5
186
330
1F
100
AcDbEntity
  8
0
  6
K5LT_THIN
 62
     7
370
    18
100
AcDbCircle
 10
803.1466971821644
 20
1353.264001560228
 30
0.0
 40
2.5
100
AcDbArc
 50
135.3858078504929
 51
261.0139668840508
  0
ARC
  5
187
330
1F
100
AcDbEntity
  8
0
  6
K5LT_THIN
 62
     7
370
    18
100
AcDbCircle
 10
891.8355117286374
 20
1290.410004577646
 30
0.0
 40
2.5
100
AcDbArc
 50
208.3354308316994
 51
346.040055809279
  0
ARC
  5
188
330
1F
100
AcDbEntity
  8
0
  6
K5LT_THIN
 62
     7
370
    18
100
AcDbCircle
 10
787.2151880358344
 20
1408.216207922869
 30
0.0
 40
2.5
100
AcDbArc
 50
113.0745878135555
 51
140.8483540189632
  0
ARC
  5
189
330
1F
100
AcDbEntity
  8
0
  6
K5LT_THIN
 62
     7
370
    18
100
AcDbCircle
 10
621.9845722147603
 20
1217.745773922184
 30
0.0
 40
2.548577292985065
100
AcDbArc
 50
250.5956613582709
 51
328.856767090335
  0
ARC
  5
18A
330
1F
100
AcDbEntity
  8
0
  6
K5LT_THIN
 62
     7
370
    18
100
AcDbCircle
 10
793.4662170254389
 20
1294.42809454117
 30
0.0
 40
60.61838441552122
100
AcDbArc
 50
142.6321374011493
 51
242.6029715757724
  0
ARC
  5
18B
330
1F
100
AcDbEntity
  8
0
  6
K5LT_THIN
 62
     7
370
    18
100
AcDbCircle
 10
785.4974187557139
 20
1266.893689688849
 30
0.0
 40
32.98340068011441
100
AcDbArc
 50
232.8365353952417
 51
93.22484790976276
  0
ARC
  5
18C
330
1F
100
AcDbEntity
  8
0
  6
K5LT_THIN
 62
     7
370
    18
100
AcDbCircle
 10
809.5061214693467
 20
1270.754748180953
 30
0.0
 40
43.39831076621892
100
AcDbArc
 50
56.39488141621231
 51
129.4823531585183
  0
ARC
  5
18D
330
1F
100
AcDbEntity
  8
0
  6
K5LT_THIN
 62
     7
370
    18
100
AcDbCircle
 10
790.6433606401828
 20
1239.611483531189
 30
0.0
 40
79.79115635715762
100
AcDbArc
 50
10.48445254992611
 51
57.49106710077955
  0
ARC
  5
18E
330
1F
100
AcDbEntity
  8
0
  6
K5LT_THIN
 62
     7
370
    18
100
AcDbCircle
 10
649.6614417152607
 20
1235.69746341361
 30
0.0
 40
220.213774432426
100
AcDbArc
 50
346.6503253403021
 51
4.801697158620202
  0
ARC
  5
18F
330
1F
100
AcDbEntity
  8
0
  6
K5LT_THIN
 62
     7
370
    18
100
AcDbCircle
 10
736.8446489437072
 20
1333.353123777203
 30
0.0
 40
8.710228516813615
100
AcDbArc
 50
345.8188593801648
 51
148.0285391849962
  0
ARC
  5
190
330
1F
100
AcDbEntity
  8
0
  6
K5LT_THIN
 62
     7
370
    18
100
AcDbCircle
 10
783.5013177438325
 20
1302.320901046446
 30
0.0
 40
2.5
100
AcDbArc
 50
129.48235315852
 51
273.2248479097624
  0
ARC
  5
191
330
1F
100
AcDbEntity
  8
0
  6
K5LT_THIN
 62
     7
370
    18
100
AcDbCircle
 10
820.5644269410266
 20
976.907446123311
 30
0.0
 40
210.0
100
AcDbArc
 50
78.89531796930457
 51
126.653801529972
  0
ARC
  5
192
330
1F
100
AcDbEntity
  8
0
  6
K5LT_THIN
 62
     7
370
    18
100
AcDbCircle
 10
-110.3800822652927
 20
1704.96134576668
 30
0.0
 40
916.5207415997605
100
AcDbArc
 50
326.7316121818165
 51
336.3953615052712
  0
ARC
  5
193
330
1F
100
AcDbEntity
  8
0
  6
K5LT_THIN
 62
     7
370
    18
100
AcDbCircle
 10
594.9194778607614
 20
1120.048975332326
 30
0.0
 40
99.9999999999961
100
AcDbArc
 50
15.46879666529782
 51
52.00162519339577
  0
ARC
  5
194
330
1F
100
AcDbEntity
  8
0
  6
K5LT_THIN
 62
     7
370
    18
100
AcDbCircle
 10
658.0224879858981
 20
1200.821867524857
 30
0.0
 40
2.5
100
AcDbArc
 50
146.7316121818293
 51
232.0016251933951
  0
ARC
  5
195
330
1F
100
AcDbEntity
  8
0
  6
K5LT_THIN
 62
     7
370
    18
100
AcDbCircle
 10
693.7065023389184
 20
1147.387113431896
 30
0.0
 40
2.5
100
AcDbArc
 50
195.4687966652959
 51
306.6538015299713
  0
ARC
  5
196
330
1F
100
AcDbEntity
  8
0
  6
K5LT_THIN
 62
     7
370
    18
100
AcDbCircle
 10
861.4923846723466
 20
1185.428793414046
 30
0.0
 40
2.5
100
AcDbArc
 50
258.8953179693038
 51
346.6503253402988
  0
ARC
  5
197
330
1F
100
AcDbEntity
  8
0
  6
K5LT_THIN
 62
     7
370
    18
100
AcDbCircle
 10
1175.122650469883
 20
1011.595073556891
 30
0.0
 40
131.1267047727684
100
AcDbArc
 50
118.5625580316374
 51
241.4374419683626
  0
LINE
  5
198
330
1F
100
AcDbEntity
  8
0
  6
K5LT_THIN
 62
     7
370
    18
100
AcDbLine
 10
1116.123906799243
 20
1124.567343196984
 30
0.0
 11
1116.123906799243
 21
898.6228039167984
 31
0.0
  0
ARC
  5
199
330
1F
100
AcDbEntity
  8
0
  6
K5LT_THIN
 62
     7
370
    18
100
AcDbCircle
 10
1113.623906799243
 20
898.6228039167984
 30
0.0
 40
2.5
100
AcDbArc
 50
241.4374419683623
 51
0.0
  0
ARC
  5
19A
330
1F
100
AcDbEntity
  8
0
  6
K5LT_THIN
 62
     7
370
    18
100
AcDbCircle
 10
1113.623906799243
 20
1124.567343196984
 30
0.0
 40
2.5
100
AcDbArc
 50
0.0
 51
118.5625580316365
  0
ARC
  5
19B
330
1F
100
AcDbEntity
  8
0
  6
K5LT_THIN
 62
     7
370
    18
100
AcDbCircle
 10
504.603541573669
 20
975.8448045352903
 30
0.0
 40
80.00000000000037
100
AcDbArc
 50
75.73423028206426
 51
223.4033037525872
  0
ARC
  5
19C
330
1F
100
AcDbEntity
  8
0
  6
K5LT_THIN
 62
     7
370
    18
100
AcDbCircle
 10
836.1923691809957
 20
920.2855500127324
 30
0.0
 40
336.2112153945847
100
AcDbArc
 50
157.3075741052724
 51
182.093590211788
  0
ARC
  5
19D
330
1F
100
AcDbEntity
  8
0
  6
K5LT_THIN
 62
     7
370
    18
100
AcDbCircle
 10
430.1934507686772
 20
771.1706497647727
 30
0.0
 40
150.0000000000026
100
AcDbArc
 50
63.72286314607796
 51
83.18220895257363
  0
ARC
  5
19E
330
1F
100
AcDbEntity
  8
0
  6
K5LT_THIN
 62
     7
370
    18
100
AcDbCircle
 10
497.7072479507191
 20
907.9117817992228
 30
0.0
 40
2.5
100
AcDbArc
 50
243.7228631460779
 51
2.093590211787711
  0
ARC
  5
19F
330
1F
100
AcDbEntity
  8
0
  6
K5LT_THIN
 62
     7
370
    18
100
AcDbCircle
 10
448.2970750930676
 20
922.5922756519693
 30
0.0
 40
2.5
100
AcDbArc
 50
223.4033037525861
 51
263.1822089525742
  0
ARC
  5
1A0
330
1F
100
AcDbEntity
  8
0
  6
K5LT_THIN
 62
     7
370
    18
100
AcDbCircle
 10
523.7010953337997
 20
1050.954946595993
 30
0.0
 40
2.5
100
AcDbArc
 50
337.3075741052726
 51
75.73423028206467
  0
ARC
  5
1A1
330
1F
100
AcDbEntity
  8
0
  6
K5LT_THIN
 62
     7
370
    18
100
AcDbCircle
 10
434.9435392635394
 20
461.5057274778031
 30
0.0
 40
2.5
100
AcDbArc
 50
69.51734129271475
 51
158.52483741925
  0
ARC
  5
1A2
330
1F
100
AcDbEntity
  8
0
  6
K5LT_THIN
 62
     7
370
    18
100
AcDbCircle
 10
490.863676015359
 20
440.6173337592664
 30
0.0
 40
2.5
100
AcDbArc
 50
27.9651243247858
 51
69.51734129271551
  0
ARC
  5
1A3
330
1F
100
AcDbEntity
  8
0
  6
K5LT_BASIC
 62
     5
420
      255
370
    60
100
AcDbCircle
 10
587.6585058334908
 20
1135.129945262287
 30
0.0
 40
65.17143473014158
100
AcDbArc
 50
255.3073348393803
 51
42.73496501886594
  0
ARC
  5
1A4
330
1F
100
AcDbEntity
  8
0
  6
K5LT_BASIC
 62
     5
420
      255
370
    60
100
AcDbCircle
 10
931.6305061105002
 20
928.6234916407766
 30
0.0
 40
388.0000000000013
100
AcDbArc
 50
139.7429940750277
 51
158.2993057832185
  0
INSERT
  5
1A6
330
1F
100
AcDbEntity
  8
0
100
AcDbBlockReference
  2
U2
 10
0.0
 20
0.0
 30
0.0
  0
INSERT
  5
1AE
330
1F
100
AcDbEntity
  8
0
100
AcDbBlockReference
  2
U3
 10
0.0
 20
0.0
 30
0.0
  0
INSERT
  5
1BF
330
1F
100
AcDbEntity
  8
0
100
AcDbBlockReference
  2
U4
 10
0.0
 20
0.0
 30
0.0
  0
INSERT
  5
1CF
330
1F
100
AcDbEntity
  8
0
100
AcDbBlockReference
  2
U5
 10
0.0
 20
0.0
 30
0.0
  0
INSERT
  5
1D6
330
1F
100
AcDbEntity
  8
0
100
AcDbBlockReference
  2
U6
 10
0.0
 20
0.0
 30
0.0
  0
INSERT
  5
1DE
330
1F
100
AcDbEntity
  8
0
100
AcDbBlockReference
  2
U7
 10
0.0
 20
0.0
 30
0.0
  0
INSERT
  5
1EB
330
1F
100
AcDbEntity
  8
0
100
AcDbBlockReference
  2
U8
 10
0.0
 20
0.0
 30
0.0
  0
INSERT
  5
1FA
330
1F
100
AcDbEntity
  8
0
100
AcDbBlockReference
  2
U9
 10
0.0
 20
0.0
 30
0.0
  0
INSERT
  5
204
330
1F
100
AcDbEntity
  8
0
100
AcDbBlockReference
  2
U10
 10
0.0
 20
0.0
 30
0.0
  0
INSERT
  5
20D
330
1F
100
AcDbEntity
  8
0
100
AcDbBlockReference
  2
U11
 10
0.0
 20
0.0
 30
0.0
  0
INSERT
  5
219
330
1F
100
AcDbEntity
  8
0
100
AcDbBlockReference
  2
U12
 10
0.0
 20
0.0
 30
0.0
  0
INSERT
  5
223
330
1F
100
AcDbEntity
  8
0
100
AcDbBlockReference
  2
U13
 10
0.0
 20
0.0
 30
0.0
  0
INSERT
  5
231
330
1F
100
AcDbEntity
  8
0
100
AcDbBlockReference
  2
U14
 10
0.0
 20
0.0
 30
0.0
  0
INSERT
  5
23E
330
1F
100
AcDbEntity
  8
0
100
AcDbBlockReference
  2
U15
 10
0.0
 20
0.0
 30
0.0
  0
INSERT
  5
24A
330
1F
100
AcDbEntity
  8
0
100
AcDbBlockReference
  2
U16
 10
0.0
 20
0.0
 30
0.0
  0
INSERT
  5
259
330
1F
100
AcDbEntity
  8
0
100
AcDbBlockReference
  2
U17
 10
0.0
 20
0.0
 30
0.0
  0
INSERT
  5
266
330
1F
100
AcDbEntity
  8
0
100
AcDbBlockReference
  2
U18
 10
0.0
 20
0.0
 30
0.0
  0
INSERT
  5
270
330
1F
100
AcDbEntity
  8
0
100
AcDbBlockReference
  2
U19
 10
0.0
 20
0.0
 30
0.0
  0
INSERT
  5
27F
330
1F
100
AcDbEntity
  8
0
100
AcDbBlockReference
  2
U20
 10
0.0
 20
0.0
 30
0.0
  0
ENDSEC
  0
SECTION
  2
OBJECTS
  0
DICTIONARY
  5
C
330
0
100
AcDbDictionary
281
     1
  3
ACAD_GROUP
350
D
  3
ACAD_LAYOUT
350
1A
  3
ACAD_MLEADERSTYLE
350
293
  3
ACAD_MLINESTYLE
350
17
  3
ACAD_PLOTSETTINGS
350
19
  3
ACAD_PLOTSTYLENAME
350
E
  3
ACAD_TABLESTYLE
350
292
  3
ACAD_VISUALSTYLE
350
2A
  0
DICTIONARY
  5
D
102
{ACAD_REACTORS
330
C
102
}
330
C
100
AcDbDictionary
281
     1
  0
DICTIONARY
  5
1A
102
{ACAD_REACTORS
330
C
102
}
330
C
100
AcDbDictionary
281
     1
  3
Layout1
350
1E
  3
Layout2
350
26
  3
Model
350
22
  0
DICTIONARY
  5
293
102
{ACAD_REACTORS
330
C
102
}
330
C
100
AcDbDictionary
281
     1
  0
DICTIONARY
  5
17
102
{ACAD_REACTORS
330
C
102
}
330
C
100
AcDbDictionary
281
     1
  3
Standard
350
18
  0
DICTIONARY
  5
19
102
{ACAD_REACTORS
330
C
102
}
330
C
100
AcDbDictionary
281
     1
  0
ACDBDICTIONARYWDFLT
  5
E
102
{ACAD_REACTORS
330
C
102
}
330
C
100
AcDbDictionary
281
     1
  3
Normal
350
F
100
AcDbDictionaryWithDefault
340
F
  0
DICTIONARY
  5
292
102
{ACAD_REACTORS
330
C
102
}
330
C
100
AcDbDictionary
281
     1
  0
DICTIONARY
  5
2A
102
{ACAD_REACTORS
330
C
102
}
330
C
100
AcDbDictionary
281
     1
  3
2dWireframe
350
2F
  3
3D Hidden
350
31
  3
3dWireframe
350
30
  3
Basic
350
32
  3
Brighten
350
36
  3
ColorChange
350
3A
  3
Conceptual
350
34
  3
Dim
350
35
  3
Facepattern
350
39
  3
Flat
350
2B
  3
FlatWithEdges
350
2C
  3
Gouraud
350
2D
  3
GouraudWithEdges
350
2E
  3
Linepattern
350
38
  3
Realistic
350
33
  3
Thicken
350
37
  0
LAYOUT
  5
1E
102
{ACAD_REACTORS
330
1A
102
}
330
1A
100
AcDbPlotSettings
  1

  2
none_device
  4

  6

 40
0.0
 41
0.0
 42
0.0
 43
0.0
 44
0.0
 45
0.0
 46
0.0
 47
0.0
 48
0.0
 49
0.0
140
0.0
141
0.0
142
1.0
143
1.0
 70
   688
 72
     0
 73
     0
 74
     5
  7

 75
    16
 76
     0
 77
     2
 78
   300
147
1.0
148
0.0
149
0.0
100
AcDbLayout
  1
Layout1
 70
     1
 71
     1
 10
0.0
 20
0.0
 11
420.0
 21
297.0
 12
0.0
 22
0.0
 32
0.0
 14
1.000000000000000E+20
 24
1.000000000000000E+20
 34
1.000000000000000E+20
 15
-1.000000000000000E+20
 25
-1.000000000000000E+20
 35
-1.000000000000000E+20
146
0.0
 13
0.0
 23
0.0
 33
0.0
 16
1.0
 26
0.0
 36
0.0
 17
0.0
 27
1.0
 37
0.0
 76
     0
330
1B
  0
LAYOUT
  5
26
102
{ACAD_REACTORS
330
1A
102
}
330
1A
100
AcDbPlotSettings
  1

  2
none_device
  4

  6

 40
0.0
 41
0.0
 42
0.0
 43
0.0
 44
0.0
 45
0.0
 46
0.0
 47
0.0
 48
0.0
 49
0.0
140
0.0
141
0.0
142
1.0
143
1.0
 70
   688
 72
     0
 73
     0
 74
     5
  7

 75
    16
 76
     0
 77
     2
 78
   300
147
1.0
148
0.0
149
0.0
100
AcDbLayout
  1
Layout2
 70
     1
 71
     2
 10
0.0
 20
0.0
 11
0.0
 21
0.0
 12
0.0
 22
0.0
 32
0.0
 14
0.0
 24
0.0
 34
0.0
 15
0.0
 25
0.0
 35
0.0
146
0.0
 13
0.0
 23
0.0
 33
0.0
 16
1.0
 26
0.0
 36
0.0
 17
0.0
 27
1.0
 37
0.0
 76
     0
330
23
  0
LAYOUT
  5
22
102
{ACAD_REACTORS
330
1A
102
}
330
1A
100
AcDbPlotSettings
  1

  2
none_device
  4

  6

 40
0.0
 41
0.0
 42
0.0
 43
0.0
 44
0.0
 45
0.0
 46
0.0
 47
0.0
 48
0.0
 49
0.0
140
0.0
141
0.0
142
1.0
143
1.0
 70
  1712
 72
     0
 73
     0
 74
     0
  7

 75
     0
 76
     0
 77
     2
 78
   300
147
1.0
148
0.0
149
0.0
100
AcDbLayout
  1
Model
 70
     1
 71
     0
 10
0.0
 20
0.0
 11
420.0
 21
297.0
 12
0.0
 22
0.0
 32
0.0
 14
1.000000000000000E+20
 24
1.000000000000000E+20
 34
1.000000000000000E+20
 15
-1.000000000000000E+20
 25
-1.000000000000000E+20
 35
-1.000000000000000E+20
146
0.0
 13
0.0
 23
0.0
 33
0.0
 16
1.0
 26
0.0
 36
0.0
 17
0.0
 27
1.0
 37
0.0
 76
     0
330
1F
331
29
  0
MLINESTYLE
  5
18
102
{ACAD_REACTORS
330
17
102
}
330
17
100
AcDbMlineStyle
  2
Standard
 70
     0
  3

 62
   256
 51
90.0
 52
90.0
 71
     2
 49
0.5
 62
   256
  6
BYLAYER
 49
-0.5
 62
   256
  6
BYLAYER
  0
ACDBPLACEHOLDER
  5
F
102
{ACAD_REACTORS
330
E
102
}
330
E
  0
VISUALSTYLE
  5
2F
102
{ACAD_REACTORS
330
2A
102
}
330
2A
100
AcDbVisualStyle
  2
2dWireframe
 70
     4
 71
     0
 72
     2
 73
     0
 90
        0
 40
-0.6
 41
-30.0
 62
     5
 63
     7
421
 16777215
 74
     1
 91
        4
 64
     7
 65
   257
 75
     1
175
     1
 42
1.0
 92
        0
 66
   257
 43
1.0
 76
     1
 77
     6
 78
     2
 67
     7
 79
     5
170
     0
171
     0
290
     0
174
     0
 93
        1
 44
0.0
173
     0
291
     0
 45
0.0
  0
VISUALSTYLE
  5
31
102
{ACAD_REACTORS
330
2A
102
}
330
2A
100
AcDbVisualStyle
  2
3D Hidden
 70
     6
 71
     1
 72
     2
 73
     2
 90
        0
 40
-0.6
 41
-30.0
 62
     5
 63
     7
421
 16777215
 74
     2
 91
        2
 64
     7
 65
   257
 75
     2
175
     1
 42
40.0
 92
        0
 66
   257
 43
1.0
 76
     1
 77
     6
 78
     2
 67
     7
 79
     3
170
     0
171
     0
290
     0
174
     0
 93
        1
 44
0.0
173
     0
291
     0
 45
0.0
  0
VISUALSTYLE
  5
30
102
{ACAD_REACTORS
330
2A
102
}
330
2A
100
AcDbVisualStyle
  2
3dWireframe
 70
     5
 71
     0
 72
     2
 73
     0
 90
        0
 40
-0.6
 41
-30.0
 62
     5
 63
     7
421
 16777215
 74
     1
 91
        4
 64
     7
 65
   257
 75
     1
175
     1
 42
1.0
 92
        0
 66
   257
 43
1.0
 76
     1
 77
     6
 78
     2
 67
     7
 79
     5
170
     0
171
     0
290
     0
174
     0
 93
        1
 44
0.0
173
     0
291
     0
 45
0.0
  0
VISUALSTYLE
  5
32
102
{ACAD_REACTORS
330
2A
102
}
330
2A
100
AcDbVisualStyle
  2
Basic
 70
     7
 71
     1
 72
     0
 73
     1
 90
        0
 40
-0.6
 41
-30.0
 62
     5
 63
     7
421
 16777215
 74
     0
 91
        4
 64
     7
 65
   257
 75
     1
175
     1
 42
1.0
 92
        8
 66
     7
 43
1.0
 76
     1
 77
     6
 78
     2
 67
     7
 79
     5
170
     0
171
     0
290
     0
174
     0
 93
        1
 44
0.0
173
     0
291
     1
 45
0.0
  0
VISUALSTYLE
  5
36
102
{ACAD_REACTORS
330
2A
102
}
330
2A
100
AcDbVisualStyle
  2
Brighten
 70
    12
 71
     2
 72
     2
 73
     0
 90
        0
 40
-0.6
 41
-30.0
 62
     5
 63
     7
421
 16777215
 74
     1
 91
        4
 64
     7
 65
   257
 75
     1
175
     1
 42
1.0
 92
        8
 66
     7
 43
1.0
 76
     1
 77
     6
 78
     2
 67
     7
 79
     5
170
     0
171
     0
290
     0
174
     0
 93
        1
 44
50.0
173
     0
291
     1
 45
0.0
  0
VISUALSTYLE
  5
3A
102
{ACAD_REACTORS
330
2A
102
}
330
2A
100
AcDbVisualStyle
  2
ColorChange
 70
    16
 71
     2
 72
     2
 73
     3
 90
        0
 40
-0.6
 41
-30.0
 62
     5
 63
     8
421
  8421504
 74
     1
 91
        4
 64
     7
 65
   257
 75
     1
175
     1
 42
1.0
 92
        8
 66
     8
424
  8421504
 43
1.0
 76
     1
 77
     6
 78
     2
 67
     7
 79
     5
170
     0
171
     0
290
     0
174
     0
 93
        1
 44
0.0
173
     0
291
     1
 45
0.0
  0
VISUALSTYLE
  5
34
102
{ACAD_REACTORS
330
2A
102
}
330
2A
100
AcDbVisualStyle
  2
Conceptual
 70
     9
 71
     3
 72
     2
 73
     0
 90
        0
 40
-0.6
 41
-30.0
 62
     5
 63
     7
421
 16777215
 74
     2
 91
        2
 64
     7
 65
   257
 75
     1
175
     1
 42
40.0
 92
        8
 66
     7
 43
1.0
 76
     1
 77
     6
 78
     2
 67
     7
 79
     3
170
     0
171
     0
290
     0
174
     0
 93
        1
 44
0.0
173
     0
291
     0
 45
0.0
  0
VISUALSTYLE
  5
35
102
{ACAD_REACTORS
330
2A
102
}
330
2A
100
AcDbVisualStyle
  2
Dim
 70
    11
 71
     2
 72
     2
 73
     0
 90
        0
 40
-0.6
 41
-30.0
 62
     5
 63
     7
421
 16777215
 74
     1
 91
        4
 64
     7
 65
   257
 75
     1
175
     1
 42
1.0
 92
        8
 66
     7
 43
1.0
 76
     1
 77
     6
 78
     2
 67
     7
 79
     5
170
     0
171
     0
290
     0
174
     0
 93
        1
 44
-50.0
173
     0
291
     1
 45
0.0
  0
VISUALSTYLE
  5
39
102
{ACAD_REACTORS
330
2A
102
}
330
2A
100
AcDbVisualStyle
  2
Facepattern
 70
    15
 71
     2
 72
     2
 73
     0
 90
        0
 40
-0.6
 41
-30.0
 62
     5
 63
     7
421
 16777215
 74
     1
 91
        4
 64
     7
 65
   257
 75
     1
175
     1
 42
1.0
 92
        8
 66
     7
 43
1.0
 76
     1
 77
     6
 78
     2
 67
     7
 79
     5
170
     0
171
     0
290
     0
174
     0
 93
        1
 44
0.0
173
     0
291
     1
 45
0.0
  0
VISUALSTYLE
  5
2B
102
{ACAD_REACTORS
330
2A
102
}
330
2A
100
AcDbVisualStyle
  2
Flat
 70
     0
 71
     2
 72
     1
 73
     1
 90
        2
 40
-0.6
 41
30.0
 62
     5
 63
     7
421
 16777215
 74
     0
 91
        4
 64
     7
 65
   257
 75
     1
175
     1
 42
1.0
 92
        8
 66
     7
 43
1.0
 76
     1
 77
     6
 78
     2
 67
     7
 79
     5
170
     0
171
     0
290
     0
174
     0
 93
       13
 44
0.0
173
     0
291
     1
 45
0.0
  0
VISUALSTYLE
  5
2C
102
{ACAD_REACTORS
330
2A
102
}
330
2A
100
AcDbVisualStyle
  2
FlatWithEdges
 70
     1
 71
     2
 72
     1
 73
     1
 90
        2
 40
-0.6
 41
30.0
 62
     5
 63
     7
421
 16777215
 74
     1
 91
        4
 64
     7
 65
   257
 75
     1
175
     1
 42
1.0
 92
        0
 66
   257
 43
1.0
 76
     1
 77
     6
 78
     2
 67
     7
 79
     5
170
     0
171
     0
290
     0
174
     0
 93
       13
 44
0.0
173
     0
291
     1
 45
0.0
  0
VISUALSTYLE
  5
2D
102
{ACAD_REACTORS
330
2A
102
}
330
2A
100
AcDbVisualStyle
  2
Gouraud
 70
     2
 71
     2
 72
     2
 73
     1
 90
        2
 40
-0.6
 41
30.0
 62
     5
 63
     7
421
 16777215
 74
     0
 91
        4
 64
     7
 65
   257
 75
     1
175
     1
 42
1.0
 92
        0
 66
     7
 43
1.0
 76
     1
 77
     6
 78
     2
 67
     7
 79
     5
170
     0
171
     0
290
     0
174
     0
 93
       13
 44
0.0
173
     0
291
     1
 45
0.0
  0
VISUALSTYLE
  5
2E
102
{ACAD_REACTORS
330
2A
102
}
330
2A
100
AcDbVisualStyle
  2
GouraudWithEdges
 70
     3
 71
     2
 72
     2
 73
     1
 90
        2
 40
-0.6
 41
30.0
 62
     5
 63
     7
421
 16777215
 74
     1
 91
        4
 64
     7
 65
   257
 75
     1
175
     1
 42
1.0
 92
        0
 66
   257
 43
1.0
 76
     1
 77
     6
 78
     2
 67
     7
 79
     5
170
     0
171
     0
290
     0
174
     0
 93
       13
 44
0.0
173
     0
291
     1
 45
0.0
  0
VISUALSTYLE
  5
38
102
{ACAD_REACTORS
330
2A
102
}
330
2A
100
AcDbVisualStyle
  2
Linepattern
 70
    14
 71
     2
 72
     2
 73
     0
 90
        0
 40
-0.6
 41
-30.0
 62
     5
 63
     7
421
 16777215
 74
     1
 91
        4
 64
     7
 65
   257
 75
     7
175
     7
 42
1.0
 92
        8
 66
     7
 43
1.0
 76
     1
 77
     6
 78
     2
 67
     7
 79
     5
170
     0
171
     0
290
     0
174
     0
 93
        1
 44
0.0
173
     0
291
     1
 45
0.0
  0
VISUALSTYLE
  5
33
102
{ACAD_REACTORS
330
2A
102
}
330
2A
100
AcDbVisualStyle
  2
Realistic
 70
     8
 71
     2
 72
     2
 73
     0
 90
        0
 40
-0.6
 41
-30.0
 62
     5
 63
     7
421
 16777215
 74
     1
 91
        0
 64
     7
 65
   257
 75
     1
175
     1
 42
1.0
 92
        8
 66
     8
424
  7895160
 43
1.0
 76
     1
 77
     6
 78
     2
 67
     7
 79
     5
170
     0
171
     0
290
     0
174
     0
 93
       13
 44
0.0
173
     0
291
     0
 45
0.0
  0
VISUALSTYLE
  5
37
102
{ACAD_REACTORS
330
2A
102
}
330
2A
100
AcDbVisualStyle
  2
Thicken
 70
    13
 71
     2
 72
     2
 73
     0
 90
        0
 40
-0.6
 41
-30.0
 62
     5
 63
     7
421
 16777215
 74
     1
 91
        4
 64
     7
 65
   257
 75
     1
175
     1
 42
1.0
 92
       12
 66
     7
 43
1.0
 76
     1
 77
     6
 78
     2
 67
     7
 79
     5
170
     0
171
     0
290
     0
174
     0
 93
        1
 44
0.0
173
     0
291
     1
 45
0.0
  0
ENDSEC
  0
SECTION
  2
THUMBNAILIMAGE
 90
    16364
310
28000000B40000005500000001000800000000000000000000000000000000000000000000000000FFFFFF00FF000000FFFF000000FF000000FFFF000000FF00FF00FF000000000080808000C0C0C000FF000000FF7F7F00A5000000A55252007F0000007F3F3F004C0000004C2626002600000026131300FF3F0000FF9F7F
310
00A5290000A56752007F1F00007F4F3F004C1300004C2F26002609000026171300FF7F0000FFBF7F00A5520000A57C52007F3F00007F5F3F004C2600004C39260026130000261C1300FFBF0000FFDF7F00A57C0000A59152007F5F00007F6F3F004C3900004C422600261C000026211300FFFF0000FFFF7F00A5A50000A5A5
310
52007F7F00007F7F3F004C4C00004C4C26002626000026261300BFFF0000DFFF7F007CA5000091A552005F7F00006F7F3F00394C0000424C26001C260000212613007FFF0000BFFF7F0052A500007CA552003F7F00005F7F3F00264C0000394C2600132600001C2613003FFF00009FFF7F0029A5000067A552001F7F00004F
310
7F3F00134C00002F4C2600092600001726130000FF00007FFF7F0000A5000052A55200007F00003F7F3F00004C0000264C2600002600001326130000FF3F007FFF9F0000A5290052A56700007F1F003F7F4F00004C1300264C2F00002609001326170000FF7F007FFFBF0000A5520052A57C00007F3F003F7F5F00004C2600
310
264C39000026130013261C0000FFBF007FFFDF0000A57C0052A59100007F5F003F7F6F00004C3900264C420000261C001326210000FFFF007FFFFF0000A5A50052A5A500007F7F003F7F7F00004C4C00264C4C00002626001326260000BFFF007FDFFF00007CA5005291A500005F7F003F6F7F0000394C0026424C00001C26
310
0013212600007FFF007FBFFF000052A500527CA500003F7F003F5F7F0000264C0026394C0000132600131C2600003FFF007F9FFF000029A5005267A500001F7F003F4F7F0000134C00262F4C0000092600131726000000FF007F7FFF000000A5005252A50000007F003F3F7F0000004C0026264C0000002600131326003F00
310
FF009F7FFF002900A5006752A5001F007F004F3F7F0013004C002F264C0009002600171326007F00FF00BF7FFF005200A5007C52A5003F007F005F3F7F0026004C0039264C00130026001C132600BF00FF00DF7FFF007C00A5009152A5005F007F006F3F7F0039004C0042264C001C00260021132600FF00FF00FF7FFF00A5
310
00A500A552A5007F007F007F3F7F004C004C004C264C002600260026132600FF00BF00FF7FDF00A5007C00A55291007F005F007F3F6F004C0039004C26420026001C0026132100FF007F00FF7FBF00A5005200A5527C007F003F007F3F5F004C0026004C2639002600130026131C00FF003F00FF7F9F00A5002900A5526700
310
7F001F007F3F4F004C0013004C262F002600090026131700000000002D2D2D005B5B5B0089898900B7B7B700B3B3B30000000000000000000000000000000000000000000000000000000000000000000000000000000000000000000000000000000000000000000000000000000000000000000000000000000000000000
310
0000000000000000000000000000000000000000000000000000000000000000000000000000000000000000000000000000000000000000000000000000000000000000000000000000000000000000000000000000000000000000000000000000000000FEFEFEFEFEFEFEFEFEFEFEFEFEFEFEFEFEFEFEFEFEFEFEFEFEFE
310
FEFEFEFEFEFEFEFEFEFEFEFEFEFEFEFEFEFEFEFEFEFEFEFEFEFEFEFEFEFEFEFEFEFEFEFEFEFEFEFEFEFEFE07070707070707070707070707070707070707070707070707070707070707070707070707070707070707FEFEFEFEFEFEFEFEFEFEFEFEFEFEFEFEFEFEFEFEFEFEFEFEFEFEFEFEFEFEFEFEFEFEFEFEFEFEFEFEFE
310
FEFEFEFEFEFEFEFEFEFEFEFEFEFEFEFEFEFEFEFEFEFEFEFEFEFEFE00000000000000000000000000000000000000000000000000000000000000000000000000000000000000000000000000000000000000000000000000000000000000000007000000000000000000000000000000000000000000000000000000000000
310
00000000000000000000000700000000000000000000000000000000000000000000000000000000000000000000000000000000000000000000000000000000000000000000000000000000000000000000000000000000000000000000000000000000000000000000000000000000000000000000000000000000000000
310
00000000000000000000000000000000000000000000070001010101010101010101010101010101010101010101010101010101010101010101010101010100070000000000000000000000000000000000000000000000000000000000000000000000000000000000000000000000000000000000000000000000000000
310
00000000000000000000000000000000000000000000000000000000000000000000000000000000000000000000000000000000000000000000000000000000000000000000000000000007000100070707070000000000070707070707070707070000070707000000000707070707000000010007000000000000000000
310
00000000000000000000000000000000000000000000000000000000000000000000000000000000000000000000000000000000000000000000000000000000000000000000000000000000000000000000000000000000000000000000000000000000000000000000000000000000000000000000000000000000000000
310
00070001000700070000000000000007070000000000000700000700070000070700000000000700000100070000000000000000000000000000000000000000000000000000000000000000000000000000000000000000000000000000000000000000000000000000000000000000000000000000000000000000000000
310
00000000000000000000000000000000000000000000000000000000000000000000000000000000000000000000000000000000000007000100070700000000070000070000070700000000000707000700000700000000000000070000010007000000000000000000000000000000000000000000000000000000000000
310
00000000000000000000000000000000000000000000000000000000000000000000000000000000000000000000000000000000000000000000000000000000000000000000000000000000000000000000000000000000000000000000000000000000000000000000000700010007000000070700070007070700000707
310
00000000000007000007000000000000000007000100070000000000000000000000000000000000000000000000000000000000000000000000000000000000000000000000000000000000000000000000000000000000000000000000000000000000000000000000000000000000000000000000000000000000000000
310
00000000000000000000000000000000000000000000000000000000000000000007000100000000070000000007070000070700000707000007070000070000000000000000000700010007000000000000000000000000000000000000000000000000000000000000000000000000000000000000000000000000000000
310
0000000000000000000000000000000000FEFEFEFEFEFEFEFEFEFEFEFEFEFEFEFEFEFEFEFEFEFEFEFEFEFEFEFEFEFEFEFEFEFEFEFEFEFEFEFEFEFEFEFEFEFEFEFEFEFEFEFEFEFEFEFEFEFEFEFEFEFEFEFEFEFEFEFEFE07FE01FEFEFE07FEFEFEFEFEFE0707FEFEFE0707FEFE0707FEFE070707FEFEFE070707FEFEFE07FE01
310
FE07FEFEFEFEFEFEFEFEFEFEFEFEFEFEFEFEFEFEFEFEFEFEFEFEFEFEFEFEFEFEFEFEFEFEFEFEFEFEFEFEFEFEFEFEFEFEFEFEFEFEFEFEFEFEFEFEFEFEFEFEFEFEFEFEFEFEFEFE000000000000000000000000000000000000000000000000000000000000000000000000000000000000000000000000000000000000000000
310
00000000000000000000000007000100000007000000000000070700000000070700000000070007070000000700000700000700010007000000000000000000000000000000000000000000000000000000000000000000000000000000000000000000000000000000000000000000000000000000000000000000000000
310
00000000000000000000000000000000000000000000000000000000000000000000000000000000000000000000000000000000000000000000000000000000000700010000070000000000000007000700070700000000000000070007070000070007000700070001000700000000000000000000000000000000000000
310
00000000000000000000000000000000000000000000000000000000000000000000000000000000000000000000000000000000000000000000000000000000000000000000000000000000000000000000000000000000000000000000000000000000000000000000000000000000000000000000070001000007000000
310
00000000000707000707070707070000000700070700000707070007000700010007000000000000000000000000000000000000000000000000000000000000000000000000000000000000000000000000000000000000000000000000000000000000000000000000000000000000000000000000000000000000000000
310
00000000000000000000000000000000000000000000000000000000000000000000000000000000000000000700010000070000000000000000070707070000000000070700000707000700000707000700070001000700000000000000000000000000000000000000000000000000000000000000000000000000000000
310
00000000000000000000000000000000000000000000000000000000000000000000000000000000000000000000000000000000000000000000000000000000000000000000000000000000000000000000000000000000000000000000000000070001000000070000000000000007070707000000000000000700000707
310
07070700000700070000010007000000000000000000000000000000000000000000000000000000000000000000000000000000000000000000000000000000000000000000000000000000000000000000000000000000000000000000000000000000000000000000000000000000000000000000000000000000000000
310
00000000000000000000000000000000000000000000000700010000000700000000000007000707000700000000000007000007000007070707000007000001000700000000000000000000000000000000000000000000000000000000000000000000000000000000000000000000000000000000000000000000000000
310
00000000000000000000000000000000000000000000000000000000000000000000000000000000000000000000000000000000000000000000000000000000000000000000000000000000070001000000000700000000000707000007070700000000000007000700000000000000070000000100070000000000000000
310
00000000000000000000000000000000000000000000000000000000000000000000000000000000000000000000000000000000000000000000000000000000000000000000000000000000000000000000000000000000000000000000000000000000000000000000000000000000000000000000000000000000000000
310
00000700010007000007000000000007070000070000070707070700000707000000000000000700000001000700000000000000000000000000000000000000000000000000000000000000000000000000000000000000000000000000000000000000000000000000000000000000000000000000000000000000000000
310
00000000000000000000000000000000000000000000000000000000000000000000000000000000000000000000000000000000000000070001000700000007000000070007070707070707070707000700070700000000000007000700000100070000000000000000000000000000000000000000000000000000000000
310
00000000000000000000000000000000000000000000000000000000000000000000000000000000000000000000000000000000000000000000000000000000000000000000000000000000000000000000000000000000000000000000000000000000000000000000000007000100070000000700000707000000000007
310
07000000000700070707000000000007000707070001000700000000000000000000000000000000000000000000000000000000000000000000000000000000000000000000000000000000000000000000000000000000000000000000000000000000000000000000000000000000000000000000000000000000000000
310
00000000000000000000000000000000000000000000000000000000000000000000070001000000070000070700000007070700000007070000070007070700000000070007000707000100070000000000000000000000000000000000000000000000000000000000000000000000000000000000000000000000000000
310
00000000000000000000000000000000000000000000000000000000000000000000000000000000000000000000000000000000000000000000000000000000000000000000000000000000000000000000000000000007000100000707070000070700070000000707070700070007000707070000000700070007070700
310
01000700000000000000000000000000000000000000000000000000000000000000000000000000000000000000000000000000000000000000000000000000000000000000000000000000000000000000000000000000000000000000000000000000000000000000000000000000000000000000000000000000000000
310
00000000000000000000000000070001000000000707000707070000000000000000070007000007070000000700070000070707000100070000000000000000000000000000000000000000000000000000000000000000000000000000000000000000000000000000000000000000000000000000000000000000000000
310
00000000000000000000000000000000000000000000000000000000000000000000000000000000000000000000000000000000000000000000000000000000000007000100070007000700000700000707070000000007000000070007000707000700000700070700010007000000000000000000000000000000000000
310
00000000000000000000000000000000000000000000000000000000000000000000000000000000000000000000000000000000000000000000000000000000000000000000000000000000000000000000000000000000000000000000000000000000000000000000000000000000000000000000000700010007070007
310
07000007000700000007000000070000070007070700000700000007070007000100070000000000000000000000000000000000000000000000000000000000000000000000000000000000000000000000000000000000000000000000000000000000000000000000000000000000000000000000000000000000000000
310
00000000000000000000000000000000000000000000000000000000000000000000000000000000000000000007000100070007070707070007000007070007000007000007000707000007000000000707000700010007000000000000000000000000000000000000000000000000000000000000000000000000000000
310
00000000000000000000000000000000000000000000000000000000000000000000000000000000000000000000000000000000000000000000000000000000000000000000000000000000000000000000000000000000000000000000000000000700010007000000000707070007070000070007070700070007000000
310
07070700000700000707000100070000000000000000000000000000000000000000000000000000000000000000000000000000000000000000000000000000000000000000000000000000000000000000000000000000000000000000000000000000000000000000000000000000000000000000000000000000000000
310
00000000000000000000000000000000000000000000000007000100070000000707000007000700000007000000000707070000000000000707070000070700010007000000000000000000000000000000000000000000000000000000000000000000000000000000000000000000000000000000000000000000000000
310
00000000000000000000000000000000000000000000000000000000000000000000000000000000000000000000000000000000000000000000000000000000000000000000000000000000000700010007000000070700000007000700000007000000000000000707070707070000000000070001000700000000000000
310
00000000000000000000000000000000000000000000000000000000000000000000000000000000000000000000000000000000000000000000000000000000000000000000000000000000000000000000000000000000000000000000000000000000000000000000000000000000000000000000000000000000000000
310
00000007000100070000070700000000070007000707000000000707000007000000000700000000000000010007000000000000000000000000000000000000000000000000000000000000000000000000000000000000000000000000000000000000000000000000000000000000000000000000000000000000000000
310
00000000000000000000000000000000000000000000000000000000000000000000000000000000000000000000000000000000000000000700010007000007070000000000070007000000000707070007000700000707000707070000000001000700000000000000000000000000000000000000000000000000000000
310
00000000000000000000000000000000000000000000000000000000000000000000000000000000000000000000000000000000000000000000000000000000000000000000000000000000000000000000000000000000000000000000000000000000000000000000000000070001000700070700000000000000070000
310
00070700000700070707000000070700000007000000010007000000000000000000000000000000000000000000000000000000000000000000000000000000000000000000000000000000000000000000000000000000000000000000000000000000000000000000000000000000000000000000000000000000000000
310
00000000000000000000000000000000000000000000000000000000000000000000000700010007000707000000000000070000000700000007000700070007000000000000000700070001000700000000000000000000000000000000000000000000000000000000000000000000000000000000000000000000000000
310
00000000000000000000000000000000000000000000000000000000000000000000000000000000000000000000000000000000000000000000000000000000000000000000000000000000000000000000000000000000070001000707070000000707070007000007000700000700070000070007000000000000070007
310
00010007000000000000000000000000000000000000000000000000000000000000000000000000000000000000000000000000000000000000000000000000000000000000000000000000000000000000000000000000000000000000000000000000000000000000000000000000000000000000000000000000000000
310
00000000000000000000000000000700010007070700000700000007000007000700070700070000000700000707000007070700070001000700000000000000000000000000000000000000000000000000000000000000000000000000000000000000000000000000000000000000000000000000000000000000000000
310
00000000000000000000000000000000000000000000000000000000000000000000000000000000000000000000000000000000000000000000000000000000000000070001000700070000070000000000000700000700070007000000000707000007070000000707000100070000000000000000000000000000000000
310
00000000000000000000000000000000000000000000000000000000000000000000000000000000000000000000000000000000000000000000000000000000000000000000000000000000000000000000000000000000000000000000000000000000000000000000000000000000000000000000000007000100070007
310
00000707070700000700000007000007000000000000000707070707000007000001000700000000000000000000000000000000000000000000000000000000000000000000000000000000000000000000000000000000000000000000000000000000000000000000000000000000000000000000000000000000000000
310
00000000000000000000000000000000000000000000000000000000000000000000000000000000000000000000070001000007000700000000070000070000000007000007000000000000000007070700000000000100070000000000000000000000000000000000000000000000000000000000000000000000000000
310
00000000000000000000000000000000000000000000000000000000000000000000000000000000000000000000000000000000000000000000000000000000000000000000000000000000000000000000000000000000000000000000000000000007000100000707000707070700000700000000070007000700000000
310
00070707000000000000070001000700000000000000000000000000000000000000000000000000000000000000000000000000000000000000000000000000000000000000000000000000000000000000000000000000000000000000000000000000000000000000000000000000000000000000000000000000000000
310
00000000000000000000000000000000000000000000000000070001000007000707000707070007000000000700070700070000070700000000070700000707000100070000000000000000000000000000000000000000000000000000000000000000000000000000000000000000000000000000000000000000000000
310
00000000000000000000000000000000000000000000000000000000000000000000000000000000000000000000000000000000000000000000000000000000000000000000000000000000000007000100000700070007000007000700000007000700070000070007000707070007000007000700010007000000000000
310
00000000000000000000000000000000000000000000000000000000000000000000000000000000000000000000000000000000000000000000000000000000000000000000000000000000000000000000000000000000000000000000000000000000000000000000000000000000000000000000000000000000000000
310
00000000070001000007000700070000070007000000070007000007000707000700000007000007000007000100070000000000000000000000000000000000000000000000000000000000000000000000000000000000000000000000000000000000000000000000000000000000000000000000000000000000000000
310
00000000000000000000000000000000000000000000000000000000000000000000000000000000000000000000000000000000000000000007000100000700000707000000070007000007000700000700000700070000000700000700000700010007000000000000000000000000000000000000000000000000000000
310
00000000000000000000000000000000000000000000000000000000000000000000000000000000000000000000000000000000000000000000000000000000000000000000000000000000000000000000000000000000000000000000000000000000000000000000000000000700010000000700070700000007000700
310
00070007000000070000000707000000070007000007000100070000000000000000000000000000000000000000000000000000000000000000000000000000000000000000000000000000000000000000000000000000000000000000000000000000000000000000000000000000000000000000000000000000000000
310
00000000000000000000000000000000000000000000000000000000000000000000000007000100070007000007070000070007000007000700000000070000000700000007000700000700010007000000000000000000000000000000000000000000000000000000000000000000000000000000000000000000000000
310
00000000000000000000000000000000000000000000000000000000000000000000000000000000000000000000000000000000000000000000000000000000000000000000000000000000000000000000000000000000000700010007070007000700070707000707070700070000000007000000070000000707070000
310
07000100070000000000000000000000000000000000000000000000000000000000000000000000000000000000000000000000000000000000000000000000000000000000000000000000000000000000000000000000000000000000000000000000000000000000000000000000000000000000000000000000000000
310
00000000000000000000000000000007000100070700070000070707070701010100000007000000000700070000000707070007000700010007000000000000000000000000000000000000000000000000000000000000000000000000000000000000000000000000000000000000000000000000000000000000000000
310
00000000000000000000000000000000000000000000000000000000000000000000000000000000000000000000000000000000000000000000000000000000000000000700010007000700070000000000070001000100000007000000070007000007070700070007070001000700000000000000000000000000000000
310
00000000000000000000000000000000000000000000000000000000000000000000000000000000000000000000000000000000000000000000000000000000000000000000000000000000000000000000000000000000000000000000000000000000000000000000000000000000000000000000000000070001000700
310
00070007000000000007000101000000000707070707000707000700000700000700010007000000000000000000000000000000000000000000000000000000000000000000000000000000000000000000000000000000000000000000000000000000000000000000000000000000000000000000000000000000000000
310
00000000000000000000000000000000000000000000000000000000000000000000000000000000000000000000000700010007000007000700000000000700010001070700000000000000000707000007000000000001000700000000000000000000000000000000000000000000000000000000000000000000000000
310
00000000000000000000000000000000000000000000000000000000000000000000000000000000000000000000000000000000000000000000000000000000000000000000000000000000000000000000000000000000000000000000000000000000070001000700000007000707000000000700010007000707070707
310
07000700000007000000000000010007000000000000000000000000000000000000000000000000000000000000000000000000000000000000000000000000000000000000000000000000000000000000000000000000000000000000000000000000000000000000000000000000000000000000000000000000000000
310
00000000000000000000000000000000000000000000000000000700010007000007070000000707070707000007000000000000000700000700000007000007000001000700000000000000000000000000000000000000000000000000000000000000000000000000000000000000000000000000000000000000000000
310
00000000000000000000000000000000000000000000000000000000000000000000000000000000000000000000000000000000000000000000000000000000000000000000000000000000000000070001000707070007070700000007070707000700000000000000070000070000000707070007000100070000000000
310
00000000000000000000000000000000000000000000000000000000000000000000000000000000000000000000000000000000000000000000000000000000000000000000000000000000000000000000000000000000000000000000000000000000000000000000000000000000000000000000000000000000000000
310
00000000000700010000000707000000070700070000070000070000070707000007000007000000000007070001000700000000000000000000000000000000000000000000000000000000000000000000000000000000000000000000000000000000000000000000000000000000000000000000000000000000000000
310
00000000000000000000000000000000000000000000000000000000000000000000000000000000000000000000000000000000000000000000070001000707000000000000070007000007000007000700000007000700000007070000070000000100070000000000000000000000000000000000000000000000000000
310
00000000000000000000000000000000000000000000000000000000000000000000000000000000000000000000000000000000000000000000000000000000000000000000000000000000000000000000000000000000000000000000000000000000000000000000000000000007000100070000000000000000070007
310
00000700000707000707000700070000000007070000000001000700000000000000000000000000000000000000000000000000000000000000000000000000000000000000000000000000000000000000000000000000000000000000000000000000000000000000000000000000000000000000000000000000000000
310
00000000000000000000000000000000000000000000000000000000000000000000000000070001000700000707070700000700070000070000070700070707000707000707000000000007000100070000000000000000000000000000000000000000000000000000000000000000000000000000000000000000000000
310
00000000000000000000000000000000000000000000000000000000000000000000000000000000000000000000000000000000000000000000000000000000000000000000000000000000000000000000000000000000000007000100070707000000070000070007000007000000070000000707000700070007070000
310
07070001000700000000000000000000000000000000000000000000000000000000000000000000000000000000000000000000000000000000000000000000000000000000000000000000000000000000000000000000000000000000000000000000000000000000000000000000000000000000000000000000000000
310
00000000000000000000000000000000070001000700000007070000070007000000070000000000000700000007000700070000070007000100070000000000000000000000000000000000000000000000000000000000000000000000000000000000000000000000000000000000000000000000000000000000000000
310
00000000000000000000000000000000000000000000000000000000000000000000000000000000000000000000000000000000000000000000000000000000000000000007000100070707070000000007000700000700000000000007070000000700070007000700000700010007000000000000000000000000000000
310
00000000000000000000000000000000000000000000000000000000000000000000000000000000000000000000000000000000000000000000000000000000000000000000000000000000000000000000000000000000000000000000000000000000000000000000000000000000000000000000000000000700010007
310
00000000000007000700000007000000000000070000000007070007000007070707000100070000000000000000000000000000000000000000000000000000000000000000000000000000000000000000000000000000000000000000000000000000000000000000000000000000000000000000000000000000000000
310
00000000000000000000000000000000000000000000000000000000000000000000000000000000000000000000000007000100070000000000000707000000070000000700000000070700000707000700070707000000010007000000000000000000000000000000000000000000000000000000000000000000000000
310
00000000000000000000000000000000000000000000000000000000000000000000000000000000000000000000000000000000000000000000000000000000000000000000000000000000000000000000000000000000000000000000000000000000000700010007000000000007000700000007000007000707000000
310
00070007070700070007000707000100070000000000000000000000000000000000000000000000000000000000000000000000000000000000000000000000000000000000000000000000000000000000000000000000000000000000000000000000000000000000000000000000000000000000000000000000000000
310
00000000000000000000000000000000000000000000000000000007000100070000000007000700000007000000070000000707000007070007070007070007070700010007000000000000000000000000000000000000000000000000000000000000000000000000000000000000000000000000000000000000000000
310
00000000000000000000000000000000000000000000000000000000000000000000000000000000000000000000000000000000000000000000000000000000000000000000000000000000000000000700010007000000000707000707070000000700000000000007000007000707000707000707070001000700000000
310
00000000000000000000000000000000000000000000000000000000000000000000000000000000000000000000000000000000000000000000000000000000000000000000000000000000000000000000000000000000000000000000000000000000000000000000000000000000000000000000000000000000000000
310
00000000000007000100070000000707070700000000000007000000000000070000070007070707000700070700010007000000000000000000000000000000000000000000000000000000000000000000000000000000000000000000000000000000000000000000000000000000000000000000000000000000000000
310
00000000000000000000000000000000000000000000000000000000000000000000000000000000000000000000000000000000000000000000000700010007000007000700000707000000070700000000000707000000000707070007000700070001000700000000000000000000000000000000000000000000000000
310
00000000000000000000000000000000000000000000000000000000000000000000000000000000000000000000000000000000000000000000000000000000000000000000000000000000000000000000000000000000000000000000000000000000000000000000000000000000070001000700000707000007000007
310
07070000070707070700000000000700070700070000070700010007000000000000000000000000000000000000000000000000000000000000000000000000000000000000000000000000000000000000000000000000000000000000000000000000000000000000000000000000000000000000000000000000000000
310
00000000000000000000000000000000000000000000000000000000000000000000000000000700010007000700070007000000000000070700000000000000000007070707000700070700070001000700000000000000000000000000000000000000000000000000000000000000000000000000000000000000000000
310
00000000000000000000000000000000000000000000000000000000000000000000000000000000000000000000000000000000000000000000000000000000000000000000000000000000000000000000000000000000000000070001000700070707000700000000000000000707070707070700070707070000070000
310
00070700010007000000000000000000000000000000000000000000000000000000000000000000000000000000000000000000000000000000000000000000000000000000000000000000000000000000000000000000000000000000000000000000000000000000000000000000000000000000000000000000000000
310
00000000000000000000000000000000000700010007070007000700070700000000000000000007070007070007070700000007000007070001000700000000000000000000000000000000000000000000000000000000000000000000000000000000000000000000000000000000000000000000000000000000000000
310
00000000000000000000000000000000000000000000000000000000000000000000000000000000000000000000000000000000000000000000000000000000000000000000070001000707070000010000070707070000000707070000070000000707070007000700000700000100070000000000000000000000000000
310
00000000000000000000000000000000000000000000000000000000000000000000000000000000000000000000000000000000000000000000000000000000000000000000000000000000000000000000000000000000000000000000000000000000000000000000000000000000000000000000000000000007000100
310
07000700070007000007070007070700000007070000000007070700070700070707000001000700000000000000000000000000000000000000000000000000000000000000000000000000000000000000000000000000000000000000000000000000000000000000000000000000000000000000000000000000000000
310
00000000000000000000000000000000000000000000000000000000000000000000000000000000000000000000000000070001000700070007000707000000000000000707070000000000000707000700070700000000000100070000000000000000000000000000000000000000000000000000000000000000000000
310
00000000000000000000000000000000000000000000000000000000000000000000000000000000000000000000000000000000000000000000000000000000000000000000000000000000000000000000000000000000000000000000000000000000000007000100000007000007070007010701000707000007070700
310
00000007070000070707070707000001000700000000000000000000000000000000000000000000000000000000000000000000000000000000000000000000000000000000000000000000000000000000000000000000000000000000000000000000000000000000000000000000000000000000000000000000000000
310
00000000000000000000000000000000000000000000000000000000070001000000070000070000070000000100070707070700070700000007070000000000000007000100070000000000000000000000000000000000000000000000000000000000000000000000000000000000000000000000000000000000000000
310
00000000000000000000000000000000000000000000000000000000000000000000000000000000000000000000000000000000000000000000000000000000000000000000000000000000000000000007000100000007000000070700000007000707070000000707000700000707000000000000000700010007000000
310
00000000000000000000000000000000000000000000000000000000000000000000000000000000000000000000000000000000000000000000000000000000000000000000000000000000000000000000000000000000000000000000000000000000000000000000000000000000000000000000000000000000000000
310
00000000000000070001000000070000000000000007070707000000000000000707000000070707000000000007000100070000000000000000000000000000000000000000000000000000000000000000000000000000000000000000000000000000000000000000000000000000000000000000000000000000000000
310
00000000000000000000000000000000000000000000000000000000000000000000000000000000000000000000000000000000000000000000000007000100070000070000000007070707070000000707000000070007000007000007070707070700010007000000000000000000000000000000000000000000000000
310
00000000000000000000000000000000000000000000000000000000000000000000000000000000000000000000000000000000000000000000000000000000000000000000000000000000000000000000000000000000000000000000000000000000000000000000000000000000000700010007070000070707070700
310
07000700070700000700000700070000000707000000000000000100070000000000000000000000000000000000000000000000000000000000000000000000000000000000000000000000000000000000000000000000000000000000000000000000000000000000000000000000000000000000000000000000000000
310
00000000000000000000000000000000000000000000000000000000000000000000000000000007000100070700000000070707070007000700000700000707070007000000000007070707070700010007000000000000000000000000000000000000000000000000000000000000000000000000000000000000000000
310
00000000000000000000000000000000000000000000000000000000000000000000000000000000000000000000000000000000000000000000000000000000000000000000000000000000000000000000000000000000000000000700010007070700000000000000000707070007070700000000000707070707070707
310
07070707000100070000000000000000000000000000000000000000000000000000000000000000000000000000000000000000000000000000000000000000000000000000000000000000000000000000000000000000000000000000000000000000000000000000000000000000000000000000000000000000000000
310
00000000000000000000000000000000000007000101010101010101010101010101010101010101010101010101010101010101010101010101010007000000000000000000000000000000000000000000000000000000000000000000000000000000000000000000000000000000000000000000000000000000000000
310
00000000000000000000000000000000000000000000000000000000000000000000000000000000000000000000000000000000000000000000000000000000000000000000000700000000000000000000000000000000000000000000000000000000000000000000000000000000000700000000000000000000000000
310
00000000000000000000000000000000000000000000000000000000000000000000000000000000000000000000000000000000000000000000000000000000000000000000000000000000000000000000000000000000000000000000000000000000000000000000000000000000000000000000000000000000070707
310
070707070707070707070707070707070707070707070707070707070707070707070707070707070000000000000000000000000000000000000000000000000000000000000000000000000000000000000000000000000000000000000000000000000000000000000000
  0
ENDSEC
  0
EOF
