  0
SECTION
  2
HEADER
  9
$ACADVER
  1
AC1015
  9
$ACADMAINTVER
 70
     6
  9
$DWGCODEPAGE
  3
DOS850
  9
$INSBASE
 10
0.0
 20
0.0
 30
0.0
  9
$EXTMIN
 10
-5.67675
 20
-6.4293
 30
1.000000E 20
  9
$EXTMAX
 10
5.68244
 20
6.42309
 30
-1.000000E 20
  9
$LIMMIN
 10
0.0
 20
0.0
  9
$LIMMAX
 10
0.0
 20
0.0
  9
$ORTHOMODE
 70
     0
  9
$REGENMODE
 70
     1
  9
$FILLMODE
 70
     1
  9
$QTEXTMODE
 70
     0
  9
$MIRRTEXT
 70
     1
  9
$LTSCALE
 40
1.0
  9
$ATTMODE
 70
     1
  9
$TEXTSIZE
 40
0.2
  9
$TRACEWID
 40
0.05
  9
$TEXTSTYLE
  7
Standard
  9
$CLAYER
  8
0
  9
$CELTYPE
  6
Continuous
  9
$CECOLOR
 62
   256
  9
$CELTSCALE
 40
1.0
  9
$DISPSILH
 70
     0
  9
$DIMSCALE
 40
1.0
  9
$DIMASZ
 40
0.18
  9
$DIMEXO
 40
0.0625
  9
$DIMDLI
 40
0.38
  9
$DIMRND
 40
0.0
  9
$DIMDLE
 40
0.0
  9
$DIMEXE
 40
0.18
  9
$DIMTP
 40
0.0
  9
$DIMTM
 40
0.0
  9
$DIMTXT
 40
0.18
  9
$DIMCEN
 40
0.09
  9
$DIMTSZ
 40
0.0
  9
$DIMTOL
 70
     0
  9
$DIMLIM
 70
     0
  9
$DIMTIH
 70
     1
  9
$DIMTOH
 70
     1
  9
$DIMSE1
 70
     0
  9
$DIMSE2
 70
     0
  9
$DIMTAD
 70
     0
  9
$DIMZIN
 70
     0
  9
$DIMBLK
  1

  9
$DIMASO
 70
     1
  9
$DIMSHO
 70
     1
  9
$DIMPOST
  1

  9
$DIMAPOST
  1

  9
$DIMALT
 70
     0
  9
$DIMALTD
 70
     2
  9
$DIMALTF
 40
25.4
  9
$DIMLFAC
 40
1.0
  9
$DIMTOFL
 70
     0
  9
$DIMTVP
 40
0.0
  9
$DIMTIX
 70
     0
  9
$DIMSOXD
 70
     0
  9
$DIMSAH
 70
     0
  9
$DIMBLK1
  1

  9
$DIMBLK2
  1

  9
$DIMSTYLE
  2
Standard
  9
$DIMCLRD
 70
     0
  9
$DIMCLRE
 70
     0
  9
$DIMCLRT
 70
     0
  9
$DIMTFAC
 40
1.0
  9
$DIMGAP
 40
0.09
  9
$DIMJUST
 70
     0
  9
$DIMSD1
 70
     0
  9
$DIMSD2
 70
     0
  9
$DIMTOLJ
 70
     1
  9
$DIMTZIN
 70
     0
  9
$DIMALTZ
 70
     0
  9
$DIMALTTZ
 70
     0
  9
$DIMUPT
 70
     0
  9
$DIMDEC
 70
     4
  9
$DIMTDEC
 70
     4
  9
$DIMALTU
 70
     2
  9
$DIMALTTD
 70
     2
  9
$DIMTXSTY
  7
Standard
  9
$DIMAUNIT
 70
     0
  9
$DIMADEC
 70
     0
  9
$DIMALTRND
 40
0.0
  9
$DIMAZIN
 70
     0
  9
$DIMDSEP
 70
     0
  9
$DIMATFIT
 70
     3
  9
$DIMFRAC
 70
     0
  9
$DIMLDRBLK
  1

  9
$DIMLUNIT
 70
     2
  9
$DIMLWD
 70
     0
  9
$DIMLWE
 70
     0
  9
$DIMTMOVE
 70
     0
  9
$LUNITS
 70
     2
  9
$LUPREC
 70
     4
  9
$SKETCHINC
 40
0.1
  9
$FILLETRAD
 40
0.0
  9
$AUNITS
 70
     0
  9
$AUPREC
 70
     0
  9
$MENU
  1
acad
  9
$ELEVATION
 40
0.0
  9
$PELEVATION
 40
0.0
  9
$THICKNESS
 40
0.0
  9
$LIMCHECK
 70
     0
  9
$CHAMFERA
 40
0.0
  9
$CHAMFERB
 40
0.0
  9
$CHAMFERC
 40
0.0
  9
$CHAMFERD
 40
0.0
  9
$SKPOLY
 70
     0
  9
$TDCREATE
 40
0.000000000
  9
$TDUCREATE
 40
0.000000000
  9
$TDUPDATE
 40
0.000000000
  9
$TDUUPDATE
 40
0.000000000
  9
$TDINDWG
 40
0.0000000000
  9
$TDUSRTIMER
 40
0.0000000000
  9
$USRTIMER
 70
     1
  9
$ANGBASE
 50
0.0
  9
$ANGDIR
 70
     0
  9
$PDMODE
 70
     0
  9
$PDSIZE
 40
0.0
  9
$PLINEWID
 40
0.0
  9
$SPLFRAME
 70
     0
  9
$SPLINETYPE
 70
     6
  9
$SPLINESEGS
 70
     8
  9
$HANDSEED
  5
5E
  9
$SURFTAB1
 70
     6
  9
$SURFTAB2
 70
     6
  9
$SURFTYPE
 70
     6
  9
$SURFU
 70
     6
  9
$SURFV
 70
     6
  9
$UCSBASE
  2

  9
$UCSNAME
  2

  9
$UCSORG
 10
0.0
 20
0.0
 30
0.0
  9
$UCSXDIR
 10
1.0
 20
0.0
 30
0.0
  9
$UCSYDIR
 10
0.0
 20
1.0
 30
0.0
  9
$UCSORTHOREF
  2

  9
$UCSORTHOVIEW
 70
     0
  9
$UCSORGTOP
 10
0.0
 20
0.0
 30
0.0
  9
$UCSORGBOTTOM
 10
0.0
 20
0.0
 30
0.0
  9
$UCSORGLEFT
 10
0.0
 20
0.0
 30
0.0
  9
$UCSORGRIGHT
 10
0.0
 20
0.0
 30
0.0
  9
$UCSORGFRONT
 10
0.0
 20
0.0
 30
0.0
  9
$UCSORGBACK
 10
0.0
 20
0.0
 30
0.0
  9
$PUCSBASE
  2

  9
$PUCSNAME
  2

  9
$PUCSORG
 10
0.0
 20
0.0
 30
0.0
  9
$PUCSXDIR
 10
1.0
 20
0.0
 30
0.0
  9
$PUCSYDIR
 10
0.0
 20
1.0
 30
0.0
  9
$PUCSORTHOREF
  2

  9
$PUCSORTHOVIEW
 70
     0
  9
$PUCSORGTOP
 10
0.0
 20
0.0
 30
0.0
  9
$PUCSORGBOTTOM
 10
0.0
 20
0.0
 30
0.0
  9
$PUCSORGLEFT
 10
0.0
 20
0.0
 30
0.0
  9
$PUCSORGRIGHT
 10
0.0
 20
0.0
 30
0.0
  9
$PUCSORGFRONT
 10
0.0
 20
0.0
 30
0.0
  9
$PUCSORGBACK
 10
0.0
 20
0.0
 30
0.0
  9
$USERI1
 70
     0
  9
$USERI2
 70
     0
  9
$USERI3
 70
     0
  9
$USERI4
 70
     0
  9
$USERI5
 70
     0
  9
$USERR1
 40
0.0
  9
$USERR2
 40
0.0
  9
$USERR3
 40
0.0
  9
$USERR4
 40
0.0
  9
$USERR5
 40
0.0
  9
$WORLDVIEW
 70
     1
  9
$SHADEDGE
 70
     3
  9
$SHADEDIF
 70
    70
  9
$TILEMODE
 70
     1
  9
$MAXACTVP
 70
    16
  9
$PINSBASE
 10
0.0
 20
0.0
 30
0.0
  9
$PLIMCHECK
 70
     0
  9
$PEXTMIN
 10
1.000000E 20
 20
1.000000E 20
 30
1.000000E 20
  9
$PEXTMAX
 10
-1.000000E 20
 20
-1.000000E 20
 30
-1.000000E 20
  9
$PLIMMIN
 10
0.0
 20
0.0
  9
$PLIMMAX
 10
12.0
 20
9.0
  9
$UNITMODE
 70
     0
  9
$VISRETAIN
 70
     0
  9
$PLINEGEN
 70
     1
  9
$PSLTSCALE
 70
     0
  9
$TREEDEPTH
 70
  3020
  9
$CMLSTYLE
  2
Standard
  9
$CMLJUST
 70
     0
  9
$CMLSCALE
 40
1.0
  9
$PROXYGRAPHICS
 70
     0
  9
$MEASUREMENT
 70
     0
  9
$CELWEIGHT
370
     0
  9
$ENDCAPS
280
     0
  9
$JOINSTYLE
280
     0
  9
$LWDISPLAY
290
     0
  9
$INSUNITS
 70
     5
  9
$HYPERLINKBASE
  1

  9
$XEDIT
290
     1
  9
$CEPSNTYPE
380
     0
  9
$PSTYLEMODE
290
     1
  9
$FINGERPRINTGUID
  2

  9
$VERSIONGUID
  2

  9
$EXTNAMES
290
     1
  9
$PSVPSCALE
 40
0.0
  0
ENDSEC
  0
SECTION
  2
CLASSES
  0
CLASS
  1
LWPOLYLINE
  2
AcDbPolyline
  3
AutoCAD 2000
 90
    32768
280
     0
281
     1
  0
CLASS
  1
IMAGE
  2
AcDbRasterImage
  3
ISM
 90
    32895
280
     0
281
     1
  0
CLASS
  1
OLE2FRAME
  2
AcDbOle2Frame
  3
AutoCAD 2000
 90
    32768
280
     0
281
     1
  0
CLASS
  1
HATCH
  2
AcDbHatch
  3
AutoCAD 2000
 90
    32768
280
     0
281
     1
  0
CLASS
  1
DICTIONARYVAR
  2
AcDbDictionaryVar
  3
AutoCAD 2000
 90
    32768
280
     0
281
     0
  0
CLASS
  1
RASTERVARIABLES
  2
AcDbRasterVariables
  3
ISM
 90
    32768
280
     0
281
     0
  0
CLASS
  1
IMAGEDEF
  2
AcDbRasterImageDef
  3
ISM
 90
    32768
280
     0
281
     0
  0
CLASS
  1
IMAGEDEF_REACTOR
  2
AcDbRasterImageDefReactor
  3
ISM
 90
    32769
280
     0
281
     0
  0
CLASS
  1
IDBUFFER
  2
AcDbIdBuffer
  3
AutoCAD 2000
 90
    32768
280
     0
281
     0
  0
CLASS
  1
SPATIAL_FILTER
  2
AcDbSpatialFilter
  3
AutoCAD 2000
 90
    32768
280
     0
281
     0
  0
CLASS
  1
XRECORD
  2
AcDbXrecord
  3
AutoCAD 2000
 90
    32768
280
     0
281
     0
  0
CLASS
  1
SORTENTSTABLE
  2
AcDbSortentsTable
  3
AutoCAD 2000
 90
    32768
280
     0
281
     0
  0
CLASS
  1
LAYER_INDEX
  2
AcDbLayerIndex
  3
AutoCAD 2000
 90
    32768
280
     0
281
     0
  0
CLASS
  1
SPATIAL_INDEX
  2
AcDbSpatialIndex
  3
AutoCAD 2000
 90
    32768
280
     0
281
     0
  0
CLASS
  1
OBJECT_PTR
  2
CAseDLPNTableRecord
  3
\"ASE-LPNTableRecord\"
 90
    32769
280
     0
281
     0
  0
CLASS
  1
LAYOUT
  2
AcDbLayout
  3
AutoCAD 2000
 90
        0
280
     0
281
     0
  0
CLASS
  1
PLOTSETTINGS
  2
AcDbPlotSettings
  3
AutoCAD 2000
 90
    32768
280
     0
281
     0
  0
CLASS
  1
ACDBDICTIONARYWDFLT
  2
AcDbDictionaryWithDefault
  3
AutoCAD 2000
 90
        0
280
     0
281
     0
  0
CLASS
  1
ACDBPLACEHOLDER
  2
AcDbPlaceHolder
  3
AutoCAD 2000
 90
        0
280
     0
281
     0
  0
CLASS
  1
VBA_PROJECT
  2
AcDbVbaProject
  3
acadvba
 90
    32768
280
     0
281
     0
  0
CLASS
  1
WIPEOUT
  2
AcDbWipeout
  3
WipeOut|AutoCAD Express Tool|expresstools@autodesk.com
 90
    32895
280
     0
281
     1
  0
CLASS
  1
WIPEOUTVARIABLES
  2
AcDbWipeoutVariables
  3
WipeOut|AutoCAD Express Tool|expresstools@autodesk.com
 90
        0
280
     0
281
     0
  0
CLASS
  1
RTEXT
  2
RText
  3
RText|AutoCAD Express Tool|expresstools@autodesk.com
 90
    32768
280
     0
281
     1
  0
CLASS
  1
ARCALIGNEDTEXT
  2
AcDbArcAlignedText
  3
ATEXT|AutoCAD Express Tool|expresstools@autodesk.com
 90
    32768
280
     0
281
     1
  0
ENDSEC
  0
SECTION
  2
TABLES
  0
TABLE
  2
VPORT
  5
7
100
AcDbSymbolTable
 70
     1
  0
VPORT
  5
15
100
AcDbSymbolTableRecord
100
AcDbViewportTableRecord
  2
*ACTIVE
 70
     0
 10
0.0
 20
0.0
 11
1.0
 21
1.0
 12
6.591288
 22
4.579184
 13
0.0
 23
0.0
 14
1.0
 24
1.0
 15
0.0
 25
0.0
 16
0.0
 26
0.0
 36
1.0
 17
0.0
 27
0.0
 37
0.0
 40
9.158369
 41
0.688564
 42
50.0
 43
0.0
 44
0.0
 50
0.0
 51
0.0
 71
     0
 72
   100
 73
     1
 74
     1
 75
     0
 76
     0
 77
     0
 78
     0
281
     0
 65
     0
110
0.0
120
0.0
130
0.0
111
1.0
121
0.0
131
0.0
112
0.0
122
1.0
132
0.0
345
0
346
0
 79
     0
146
0.0
  0
ENDTAB
  0
TABLE
  2
LTYPE
  5
4
100
AcDbSymbolTable
 70
     3
  0
LTYPE
  5
11
100
AcDbSymbolTableRecord
100
AcDbLinetypeTableRecord
  2
ByBlock
 70
    64
  3

 72
    65
 73
     0
 40
0.0
  0
LTYPE
  5
12
100
AcDbSymbolTableRecord
100
AcDbLinetypeTableRecord
  2
ByLayer
 70
    64
  3

 72
    65
 73
     0
 40
0.0
  0
LTYPE
  5
13
100
AcDbSymbolTableRecord
100
AcDbLinetypeTableRecord
  2
Continuous
 70
    64
  3
Solid line
 72
    65
 73
     0
 40
0.0
  0
ENDTAB
  0
TABLE
  2
LAYER
  5
2
100
AcDbSymbolTable
 70
     2
  0
LAYER
  5
14
100
AcDbSymbolTableRecord
100
AcDbLayerTableRecord
  2
0
 70
     0
 62
     7
  6
Continuous
290
     1
370
    -3
390
1D
  0
LAYER
  5
24
100
AcDbSymbolTableRecord
100
AcDbLayerTableRecord
  2
���� 1
 70
     0
 62
     7
  6
Continuous
290
     1
370
    -3
390
1F
  0
ENDTAB
  0
TABLE
  2
STYLE
  5
3
100
AcDbSymbolTable
 70
     1
  0
STYLE
  5
17
100
AcDbSymbolTableRecord
100
AcDbTextStyleTableRecord
  2
Standard
 70
     0
 40
0.0
 41
1.0
 50
0.0
 71
     0
 42
0.0
  3
txt
  4

  0
ENDTAB
  0
TABLE
  2
VIEW
  5
5
100
AcDbSymbolTable
 70
     0
  0
ENDTAB
  0
TABLE
  2
UCS
  5
6
100
AcDbSymbolTable
 70
     0
  0
ENDTAB
  0
TABLE
  2
APPID
  5
8
100
AcDbSymbolTable
 70
     1
  0
APPID
  5
16
100
AcDbSymbolTableRecord
100
AcDbRegAppTableRecord
  2
ACAD
 70
     0
  0
ENDTAB
  0
TABLE
  2
DIMSTYLE
  5
9
100
AcDbSymbolTable
 70
     1
100
AcDbDimStyleTable
 71
     0
  0
DIMSTYLE
105
18
100
AcDbSymbolTableRecord
100
AcDbDimStyleTableRecord
  2
Standard
 70
     0
  3

  4

 40
1.0
 41
0.18
 42
0.0625
 43
0.38
 44
0.18
 45
0.0
 46
0.0
 47
0.0
 48
0.0
 71
     0
 72
     0
 73
     1
 74
     1
 75
     0
 76
     0
 77
     0
 78
     0
 79
     0
140
0.18
141
0.09
142
0.0
143
25.4
144
1.0
145
0.0
146
1.0
147
0.09
148
0.0
170
     0
171
     2
172
     0
173
     0
174
     0
175
     0
176
     0
177
     0
178
     0
179
     0
271
     4
272
     4
273
     2
274
     2
275
     0
276
     0
277
     2
278
    46
279
     0
280
     0
281
     0
282
     0
283
     1
284
     0
285
     0
286
     0
288
     0
340
17
341
0
342
0
343
0
344
0
371
    -2
372
    -2
  0
ENDTAB
  0
TABLE
  2
BLOCK_RECORD
  5
1
100
AcDbSymbolTable
 70
     0
  0
BLOCK_RECORD
  5
A
100
AcDbSymbolTableRecord
100
AcDbBlockTableRecord
  2
*MODEL_SPACE
340
20
  0
BLOCK_RECORD
  5
B
100
AcDbSymbolTableRecord
100
AcDbBlockTableRecord
  2
*PAPER_SPACE
340
21
  0
ENDTAB
  0
ENDSEC
  0
SECTION
  2
BLOCKS
  0
BLOCK
  5
D
100
AcDbEntity
  8
0
100
AcDbBlockBegin
  2
*MODEL_SPACE
 70
     0
 10
0.0
 20
0.0
 30
0.0
  3
*MODEL_SPACE
  1

  0
ENDBLK
  5
E
100
AcDbEntity
  8
0
100
AcDbBlockEnd
  0
BLOCK
  5
F
100
AcDbEntity
 67
     1
  8
0
100
AcDbBlockBegin
  2
*PAPER_SPACE
 70
     0
 10
0.0
 20
0.0
 30
0.0
  3
*PAPER_SPACE
  1

  0
ENDBLK
  5
10
100
AcDbEntity
 67
     1
  8
0
100
AcDbBlockEnd
  0
ENDSEC
  0
SECTION
  2
ENTITIES
  0
SPLINE
  5
25
100
AcDbEntity
  8
���� 1
100
AcDbSpline
210
0.0
220
0.0
230
1.0
 70
     1
 71
     3
 72
   104
 73
   100
 74
     0
 42
0.0000000001
 43
0.0000000001
 40
0.0
 40
0.0
 40
0.0
 40
0.0
 40
0.04
 40
0.04
 40
0.04
 40
0.04
 40
0.08
 40
0.08
 40
0.08
 40
0.08
 40
0.12
 40
0.12
 40
0.12
 40
0.12
 40
0.16
 40
0.16
 40
0.16
 40
0.16
 40
0.2
 40
0.2
 40
0.2
 40
0.2
 40
0.24
 40
0.24
 40
0.24
 40
0.24
 40
0.28
 40
0.28
 40
0.28
 40
0.28
 40
0.32
 40
0.32
 40
0.32
 40
0.32
 40
0.36
 40
0.36
 40
0.36
 40
0.36
 40
0.4
 40
0.4
 40
0.4
 40
0.4
 40
0.44
 40
0.44
 40
0.44
 40
0.44
 40
0.4799999999999999
 40
0.4799999999999999
 40
0.4799999999999999
 40
0.4799999999999999
 40
0.5199999999999999
 40
0.5199999999999999
 40
0.5199999999999999
 40
0.5199999999999999
 40
0.5599999999999999
 40
0.5599999999999999
 40
0.5599999999999999
 40
0.5599999999999999
 40
0.6
 40
0.6
 40
0.6
 40
0.6
 40
0.64
 40
0.64
 40
0.64
 40
0.64
 40
0.6800000000000001
 40
0.6800000000000001
 40
0.6800000000000001
 40
0.6800000000000001
 40
0.7200000000000001
 40
0.7200000000000001
 40
0.7200000000000001
 40
0.7200000000000001
 40
0.7600000000000001
 40
0.7600000000000001
 40
0.7600000000000001
 40
0.7600000000000001
 40
0.8000000000000002
 40
0.8000000000000002
 40
0.8000000000000002
 40
0.8000000000000002
 40
0.8400000000000002
 40
0.8400000000000002
 40
0.8400000000000002
 40
0.8400000000000002
 40
0.8800000000000002
 40
0.8800000000000002
 40
0.8800000000000002
 40
0.8800000000000002
 40
0.9200000000000003
 40
0.9200000000000003
 40
0.9200000000000003
 40
0.9200000000000003
 40
0.9600000000000003
 40
0.9600000000000003
 40
0.9600000000000003
 40
0.9600000000000003
 40
1.0
 40
1.0
 40
1.0
 40
1.0
 10
4.5315000000000003
 20
6.4230900000000002
 30
0.0
 10
5.9208800000000004
 20
5.3994700000000009
 30
0.0
 10
6.3501400000000006
 20
2.2016100000000001
 30
0.0
 10
4.1149400000000007
 20
1.8333100000000002
 30
0.0
 10
4.1149400000000007
 20
1.8333100000000002
 30
0.0
 10
4.5823
 20
0.78683
 30
0.0
 10
4.2038400000000005
 20
-0.52634
 30
0.0
 10
4.9988600000000005
 20
-1.4356600000000002
 30
0.0
 10
4.9988600000000005
 20
-1.4356600000000002
 30
0.0
 10
4.6585000000000001
 20
-2.22052
 30
0.0
 10
4.5188000000000006
 20
-3.0155400000000001
 30
0.0
 10
4.4934000000000003
 20
-3.8512000000000004
 30
0.0
 10
4.4934000000000003
 20
-3.8512000000000004
 30
0.0
 10
4.0768400000000007
 20
-4.7097200000000008
 30
0.0
 10
2.9643200000000003
 20
-4.1280600000000005
 30
0.0
 10
2.5223600000000004
 20
-4.26776
 30
0.0
 10
2.5223600000000004
 20
-4.26776
 30
0.0
 10
2.4080600000000003
 20
-4.1661600000000005
 30
0.0
 10
2.4715600000000002
 20
-4.0010600000000007
 30
0.0
 10
2.4080600000000003
 20
-3.8867600000000002
 30
0.0
 10
2.4080600000000003
 20
-3.8867600000000002
 30
0.0
 10
2.6595200000000001
 20
-3.3203400000000003
 30
0.0
 10
3.4697800000000001
 20
-3.0282400000000003
 30
0.0
 10
3.3046800000000003
 20
-2.2078200000000003
 30
0.0
 10
3.3046800000000003
 20
-2.2078200000000003
 30
0.0
 10
2.7103200000000003
 20
-2.0935200000000003
 30
0.0
 10
2.2429600000000001
 20
-1.6007600000000002
 30
0.0
 10
1.7375
 20
-1.3493000000000002
 30
0.0
 10
1.7375
 20
-1.3493000000000002
 30
0.0
 10
1.7375
 20
-1.3493000000000002
 30
0.0
 10
1.2066400000000002
 20
-1.6642600000000001
 30
0.0
 10
1.2066400000000002
 20
-1.6642600000000001
 30
0.0
 10
1.2066400000000002
 20
-1.6642600000000001
 30
0.0
 10
1.23204
 20
-1.8522200000000002
 30
0.0
 10
1.35904
 20
-2.0300200000000004
 30
0.0
 10
1.2955400000000001
 20
-2.22052
 30
0.0
 10
1.2955400000000001
 20
-2.22052
 30
0.0
 10
0.4497200000000001
 20
-2.9139400000000002
 30
0.0
 10
-0.3960900000000001
 20
-4.5446200000000001
 30
0.0
 10
-1.5949700000000002
 20
-3.7242000000000002
 30
0.0
 10
-1.5949700000000002
 20
-3.7242000000000002
 30
0.0
 10
-2.0623300000000002
 20
-4.0010600000000007
 30
0.0
 10
-1.79817
 20
-4.82402
 30
0.0
 10
-2.5068300000000003
 20
-4.6843200000000005
 30
0.0
 10
-2.5068300000000003
 20
-4.6843200000000005
 30
0.0
 10
-2.5703300000000002
 20
-4.7097200000000008
 30
0.0
 10
-2.60589
 20
-4.7605200000000005
 30
0.0
 10
-2.6566900000000002
 20
-4.8113200000000003
 30
0.0
 10
-2.6566900000000002
 20
-4.8113200000000003
 30
0.0
 10
-2.8344900000000002
 20
-5.6571400000000001
 30
0.0
 10
-3.3907500000000002
 20
-6.0483000000000002
 30
0.0
 10
-4.09687
 20
-6.4166000000000007
 30
0.0
 10
-4.09687
 20
-6.4166000000000007
 30
0.0
 10
-4.3127700000000004
 20
-6.1245000000000003
 30
0.0
 10
-4.6175700000000006
 20
-6.4775600000000004
 30
0.0
 10
-4.8563300000000007
 20
-6.3023000000000007
 30
0.0
 10
-4.8563300000000007
 20
-6.3023000000000007
 30
0.0
 10
-4.8563300000000007
 20
-6.3023000000000007
 30
0.0
 10
-5.0087300000000008
 20
-6.4293000000000005
 30
0.0
 10
-5.0087300000000008
 20
-6.4293000000000005
 30
0.0
 10
-5.0087300000000008
 20
-6.4293000000000005
 30
0.0
 10
-5.0595300000000005
 20
-6.3404000000000007
 30
0.0
 10
-4.9833300000000005
 20
-6.2007000000000003
 30
0.0
 10
-5.0468300000000008
 20
-6.1372000000000009
 30
0.0
 10
-5.0468300000000008
 20
-6.1372000000000009
 30
0.0
 10
-5.3109900000000003
 20
-6.3277000000000001
 30
0.0
 10
-5.5649900000000008
 20
-5.8730400000000005
 30
0.0
 10
-5.6767500000000002
 20
-6.1880000000000006
 30
0.0
 10
-5.6767500000000002
 20
-6.1880000000000006
 30
0.0
 10
-5.6640500000000005
 20
-5.6952400000000001
 30
0.0
 10
-5.7021500000000005
 20
-4.9891200000000007
 30
0.0
 10
-5.0341300000000002
 20
-4.9891200000000007
 30
0.0
 10
-5.0341300000000002
 20
-4.9891200000000007
 30
0.0
 10
-4.8436300000000001
 20
-4.4074600000000004
 30
0.0
 10
-4.3762700000000008
 20
-3.9883600000000001
 30
0.0
 10
-4.0841700000000003
 20
-3.4702000000000002
 30
0.0
 10
-4.0841700000000003
 20
-3.4702000000000002
 30
0.0
 10
-4.7166300000000003
 20
-2.5735800000000002
 30
0.0
 10
-5.3617900000000001
 20
-1.5753600000000001
 30
0.0
 10
-4.7420300000000006
 20
-0.4374400000000001
 30
0.0
 10
-4.7420300000000006
 20
-0.4374400000000001
 30
0.0
 10
-5.8672500000000003
 20
3.0855300000000003
 30
0.0
 10
-1.0133100000000002
 20
5.2724700000000002
 30
0.0
 10
1.5495400000000001
 20
3.2506300000000001
 30
0.0
 10
1.5495400000000001
 20
3.2506300000000001
 30
0.0
 10
1.5495400000000001
 20
3.2506300000000001
 30
0.0
 10
2.1921600000000003
 20
2.9610700000000003
 30
0.0
 10
2.1921600000000003
 20
2.9610700000000003
 30
0.0
 10
2.1921600000000003
 20
2.9610700000000003
 30
0.0
 10
3.1014800000000005
 20
3.1617300000000004
 30
0.0
 10
3.7720400000000005
 20
2.0365100000000003
 30
0.0
 10
4.5696000000000003
 20
2.6181700000000001
 30
0.0
 10
4.5696000000000003
 20
2.6181700000000001
 30
0.0
 10
5.7430800000000009
 20
3.5147900000000001
 30
0.0
 10
4.6077000000000004
 20
4.9829100000000004
 30
0.0
 10
4.2902000000000005
 20
6.0420900000000008
 30
0.0
 10
4.2902000000000005
 20
6.0420900000000008
 30
0.0
 10
4.3156000000000008
 20
6.1944900000000009
 30
0.0
 10
4.3917999999999999
 20
6.3468900000000001
 30
0.0
 10
4.5315000000000003
 20
6.4230900000000002
 30
0.0
  0
SPLINE
  5
26
100
AcDbEntity
  8
���� 1
 62
     7
100
AcDbSpline
210
0.0
220
0.0
230
1.0
 70
     1
 71
     3
 72
    20
 73
    16
 74
     0
 42
0.0000000001
 43
0.0000000001
 40
0.0
 40
0.0
 40
0.0
 40
0.0
 40
0.25
 40
0.25
 40
0.25
 40
0.25
 40
0.5
 40
0.5
 40
0.5
 40
0.5
 40
0.75
 40
0.75
 40
0.75
 40
0.75
 40
1.0
 40
1.0
 40
1.0
 40
1.0
 10
-2.2020300000000002
 20
3.6290900000000001
 30
0.0
 10
-2.2020300000000002
 20
3.6290900000000001
 30
0.0
 10
-2.0877300000000001
 20
3.6163900000000004
 30
0.0
 10
-2.0877300000000001
 20
3.6163900000000004
 30
0.0
 10
-2.0877300000000001
 20
3.6163900000000004
 30
0.0
 10
-2.26553
 20
3.5020900000000004
 30
0.0
 10
-2.40523
 20
3.2760300000000004
 30
0.0
 10
-2.4687300000000003
 20
3.0601300000000005
 30
0.0
 10
-2.4687300000000003
 20
3.0601300000000005
 30
0.0
 10
-2.4915900000000004
 20
3.0474300000000003
 30
0.0
 10
-2.5068300000000003
 20
3.0347300000000001
 30
0.0
 10
-2.5322300000000002
 20
3.0347300000000001
 30
0.0
 10
-2.5322300000000002
 20
3.0347300000000001
 30
0.0
 10
-2.5068300000000003
 20
3.2379300000000004
 30
0.0
 10
-2.40523
 20
3.5020900000000004
 30
0.0
 10
-2.2020300000000002
 20
3.6290900000000001
 30
0.0
  0
SPLINE
  5
27
100
AcDbEntity
  8
���� 1
 62
     7
100
AcDbSpline
210
0.0
220
0.0
230
1.0
 70
     1
 71
     3
 72
    20
 73
    16
 74
     0
 42
0.0000000001
 43
0.0000000001
 40
0.0
 40
0.0
 40
0.0
 40
0.0
 40
0.25
 40
0.25
 40
0.25
 40
0.25
 40
0.5
 40
0.5
 40
0.5
 40
0.5
 40
0.75
 40
0.75
 40
0.75
 40
0.75
 40
1.0
 40
1.0
 40
1.0
 40
1.0
 10
4.9861600000000008
 20
2.34131
 30
0.0
 10
4.9988600000000005
 20
2.34131
 30
0.0
 10
4.9988600000000005
 20
2.3159100000000001
 30
0.0
 10
4.9988600000000005
 20
2.3006700000000002
 30
0.0
 10
4.9988600000000005
 20
2.3006700000000002
 30
0.0
 10
4.7194600000000007
 20
2.1381100000000002
 30
0.0
 10
4.4172000000000002
 20
1.9349100000000001
 30
0.0
 10
4.1022400000000001
 20
1.9476100000000001
 30
0.0
 10
4.1022400000000001
 20
1.9476100000000001
 30
0.0
 10
4.1022400000000001
 20
1.9476100000000001
 30
0.0
 10
4.1403400000000001
 20
1.9984100000000002
 30
0.0
 10
4.1403400000000001
 20
1.9984100000000002
 30
0.0
 10
4.1403400000000001
 20
1.9984100000000002
 30
0.0
 10
4.4426000000000005
 20
2.04921
 30
0.0
 10
4.7321600000000004
 20
2.1762100000000002
 30
0.0
 10
4.9861600000000008
 20
2.34131
 30
0.0
  0
SPLINE
  5
28
100
AcDbEntity
  8
���� 1
 62
     7
100
AcDbSpline
210
0.0
220
0.0
230
1.0
 70
     1
 71
     3
 72
    16
 73
    12
 74
     0
 42
0.0000000001
 43
0.0000000001
 40
0.0
 40
0.0
 40
0.0
 40
0.0
 40
0.3333333333333333
 40
0.3333333333333333
 40
0.3333333333333333
 40
0.3333333333333333
 40
0.6666666666666666
 40
0.6666666666666666
 40
0.6666666666666666
 40
0.6666666666666666
 40
1.0
 40
1.0
 40
1.0
 40
1.0
 10
3.7212400000000003
 20
2.2270100000000004
 30
0.0
 10
4.0895400000000004
 20
1.8968100000000001
 30
0.0
 10
4.2775000000000007
 20
1.3684900000000002
 30
0.0
 10
4.2292400000000008
 20
0.84779
 30
0.0
 10
4.2292400000000008
 20
0.84779
 30
0.0
 10
4.1530400000000007
 20
1.3024500000000001
 30
0.0
 10
4.0260400000000001
 20
1.7850500000000002
 30
0.0
 10
3.7212400000000003
 20
2.16351
 30
0.0
 10
3.7212400000000003
 20
2.16351
 30
0.0
 10
3.7212400000000003
 20
2.1889100000000004
 30
0.0
 10
3.6958400000000005
 20
2.2016100000000001
 30
0.0
 10
3.7212400000000003
 20
2.2270100000000004
 30
0.0
  0
SPLINE
  5
29
100
AcDbEntity
  8
���� 1
 62
     7
100
AcDbSpline
210
0.0
220
0.0
230
1.0
 70
     1
 71
     3
 72
    28
 73
    24
 74
     0
 42
0.0000000001
 43
0.0000000001
 40
0.0
 40
0.0
 40
0.0
 40
0.0
 40
0.1666666666666667
 40
0.1666666666666667
 40
0.1666666666666667
 40
0.1666666666666667
 40
0.3333333333333333
 40
0.3333333333333333
 40
0.3333333333333333
 40
0.3333333333333333
 40
0.5
 40
0.5
 40
0.5
 40
0.5
 40
0.6666666666666666
 40
0.6666666666666666
 40
0.6666666666666666
 40
0.6666666666666666
 40
0.8333333333333333
 40
0.8333333333333333
 40
0.8333333333333333
 40
0.8333333333333333
 40
1.0
 40
1.0
 40
1.0
 40
1.0
 10
-0.44435
 20
2.16351
 30
0.0
 10
-0.43165
 20
2.1508100000000003
 30
0.0
 10
-0.4824500000000001
 20
1.9730100000000002
 30
0.0
 10
-0.35799
 20
2.0619100000000001
 30
0.0
 10
-0.35799
 20
2.0619100000000001
 30
0.0
 10
-0.25639
 20
2.1000100000000002
 30
0.0
 10
-0.14209
 20
2.1000100000000002
 30
0.0
 10
-0.04049
 20
2.08731
 30
0.0
 10
-0.04049
 20
2.08731
 30
0.0
 10
0.02046
 20
2.04921
 30
0.0
 10
0.11952
 20
2.1127100000000003
 30
0.0
 10
0.15762
 20
2.04921
 30
0.0
 10
0.15762
 20
2.04921
 30
0.0
 10
-0.20559
 20
2.08731
 30
0.0
 10
-0.53579
 20
1.9095100000000003
 30
0.0
 10
-0.8380500000000001
 20
1.7215500000000001
 30
0.0
 10
-0.8380500000000001
 20
1.7215500000000001
 30
0.0
 10
-0.8380500000000001
 20
1.7215500000000001
 30
0.0
 10
-0.7110500000000001
 20
1.9349100000000001
 30
0.0
 10
-0.7110500000000001
 20
1.9349100000000001
 30
0.0
 10
-0.7110500000000001
 20
1.9349100000000001
 30
0.0
 10
-0.63485
 20
2.0238100000000001
 30
0.0
 10
-0.53579
 20
2.08731
 30
0.0
 10
-0.44435
 20
2.16351
 30
0.0
  0
SPLINE
  5
2A
100
AcDbEntity
  8
���� 1
 62
     7
100
AcDbSpline
210
0.0
220
0.0
230
1.0
 70
     1
 71
     3
 72
    16
 73
    12
 74
     0
 42
0.0000000001
 43
0.0000000001
 40
0.0
 40
0.0
 40
0.0
 40
0.0
 40
0.3333333333333333
 40
0.3333333333333333
 40
0.3333333333333333
 40
0.3333333333333333
 40
0.6666666666666666
 40
0.6666666666666666
 40
0.6666666666666666
 40
0.6666666666666666
 40
1.0
 40
1.0
 40
1.0
 40
1.0
 10
-2.4179300000000001
 20
1.9857100000000001
 30
0.0
 10
-2.2782300000000002
 20
1.8968100000000001
 30
0.0
 10
-2.2401300000000002
 20
1.7215500000000001
 30
0.0
 10
-2.1766300000000003
 20
1.5818500000000002
 30
0.0
 10
-2.1766300000000003
 20
1.5818500000000002
 30
0.0
 10
-2.1766300000000003
 20
1.56915
 30
0.0
 10
-2.2020300000000002
 20
1.5437500000000002
 30
0.0
 10
-2.2147300000000003
 20
1.5437500000000002
 30
0.0
 10
-2.2147300000000003
 20
1.5437500000000002
 30
0.0
 10
-2.2147300000000003
 20
1.5437500000000002
 30
0.0
 10
-2.4179300000000001
 20
1.9857100000000001
 30
0.0
 10
-2.4179300000000001
 20
1.9857100000000001
 30
0.0
  0
SPLINE
  5
2B
100
AcDbEntity
  8
���� 1
 62
     7
100
AcDbSpline
210
0.0
220
0.0
230
1.0
 70
     1
 71
     3
 72
    20
 73
    16
 74
     0
 42
0.0000000001
 43
0.0000000001
 40
0.0
 40
0.0
 40
0.0
 40
0.0
 40
0.25
 40
0.25
 40
0.25
 40
0.25
 40
0.5
 40
0.5
 40
0.5
 40
0.5
 40
0.75
 40
0.75
 40
0.75
 40
0.75
 40
1.0
 40
1.0
 40
1.0
 40
1.0
 10
-3.4034500000000003
 20
1.3557900000000001
 30
0.0
 10
-3.3272500000000003
 20
1.27705
 30
0.0
 10
-3.2510500000000002
 20
1.19069
 30
0.0
 10
-3.2002500000000005
 20
1.0890900000000001
 30
0.0
 10
-3.2002500000000005
 20
1.0890900000000001
 30
0.0
 10
-3.2510500000000002
 20
1.06369
 30
0.0
 10
-3.3018500000000004
 20
1.0128900000000001
 30
0.0
 10
-3.3526500000000001
 20
1.0001900000000001
 30
0.0
 10
-3.3526500000000001
 20
1.0001900000000001
 30
0.0
 10
-3.3526500000000001
 20
1.0001900000000001
 30
0.0
 10
-3.3907500000000002
 20
1.02559
 30
0.0
 10
-3.3907500000000002
 20
1.02559
 30
0.0
 10
-3.3907500000000002
 20
1.02559
 30
0.0
 10
-3.3780500000000004
 20
1.15259
 30
0.0
 10
-3.5050500000000002
 20
1.2541900000000001
 30
0.0
 10
-3.4034500000000003
 20
1.3557900000000001
 30
0.0
  0
SPLINE
  5
2C
100
AcDbEntity
  8
���� 1
 62
     7
100
AcDbSpline
210
0.0
220
0.0
230
1.0
 70
     1
 71
     3
 72
    36
 73
    32
 74
     0
 42
0.0000000001
 43
0.0000000001
 40
0.0
 40
0.0
 40
0.0
 40
0.0
 40
0.125
 40
0.125
 40
0.125
 40
0.125
 40
0.25
 40
0.25
 40
0.25
 40
0.25
 40
0.375
 40
0.375
 40
0.375
 40
0.375
 40
0.5
 40
0.5
 40
0.5
 40
0.5
 40
0.625
 40
0.625
 40
0.625
 40
0.625
 40
0.75
 40
0.75
 40
0.75
 40
0.75
 40
0.875
 40
0.875
 40
0.875
 40
0.875
 40
1.0
 40
1.0
 40
1.0
 40
1.0
 10
-3.7819100000000003
 20
1.3024500000000001
 30
0.0
 10
-3.7565100000000005
 20
1.1398900000000001
 30
0.0
 10
-3.7946100000000005
 20
0.9493900000000001
 30
0.0
 10
-3.6422100000000004
 20
0.8350900000000001
 30
0.0
 10
-3.6422100000000004
 20
0.8350900000000001
 30
0.0
 10
-3.6422100000000004
 20
0.8350900000000001
 30
0.0
 10
-3.6422100000000004
 20
0.6979300000000001
 30
0.0
 10
-3.6422100000000004
 20
0.6979300000000001
 30
0.0
 10
-3.6422100000000004
 20
0.6979300000000001
 30
0.0
 10
-3.6422100000000004
 20
0.6979300000000001
 30
0.0
 10
-3.5685500000000001
 20
0.65983
 30
0.0
 10
-3.5685500000000001
 20
0.65983
 30
0.0
 10
-3.5685500000000001
 20
0.65983
 30
0.0
 10
-3.6549100000000001
 20
0.5709300000000001
 30
0.0
 10
-3.7057100000000003
 20
0.4312300000000001
 30
0.0
 10
-3.7565100000000005
 20
0.30423
 30
0.0
 10
-3.7565100000000005
 20
0.30423
 30
0.0
 10
-3.7819100000000003
 20
0.35503
 30
0.0
 10
-3.7565100000000005
 20
0.39313
 30
0.0
 10
-3.7565100000000005
 20
0.4439300000000001
 30
0.0
 10
-3.7565100000000005
 20
0.4439300000000001
 30
0.0
 10
-3.7438100000000003
 20
0.4947300000000001
 30
0.0
 10
-3.7057100000000003
 20
0.5201300000000001
 30
0.0
 10
-3.6676100000000003
 20
0.55823
 30
0.0
 10
-3.6676100000000003
 20
0.55823
 30
0.0
 10
-3.7311100000000001
 20
0.78683
 30
0.0
 10
-3.7946100000000005
 20
1.0128900000000001
 30
0.0
 10
-3.8327100000000005
 20
1.2541900000000001
 30
0.0
 10
-3.8327100000000005
 20
1.2541900000000001
 30
0.0
 10
-3.8327100000000005
 20
1.2541900000000001
 30
0.0
 10
-3.7819100000000003
 20
1.3024500000000001
 30
0.0
 10
-3.7819100000000003
 20
1.3024500000000001
 30
0.0
  0
SPLINE
  5
2D
100
AcDbEntity
  8
���� 1
 62
     7
100
AcDbSpline
210
0.0
220
0.0
230
1.0
 70
     1
 71
     3
 72
    24
 73
    20
 74
     0
 42
0.0000000001
 43
0.0000000001
 40
0.0
 40
0.0
 40
0.0
 40
0.0
 40
0.2
 40
0.2
 40
0.2
 40
0.2
 40
0.4
 40
0.4
 40
0.4
 40
0.4
 40
0.6000000000000001
 40
0.6000000000000001
 40
0.6000000000000001
 40
0.6000000000000001
 40
0.8
 40
0.8
 40
0.8
 40
0.8
 40
1.0
 40
1.0
 40
1.0
 40
1.0
 10
-2.4687300000000003
 20
1.27705
 30
0.0
 10
-2.22743
 20
1.2643500000000001
 30
0.0
 10
-1.92517
 20
1.31769
 30
0.0
 10
-1.7727700000000002
 20
1.0763900000000002
 30
0.0
 10
-1.7727700000000002
 20
1.0763900000000002
 30
0.0
 10
-1.7727700000000002
 20
1.0763900000000002
 30
0.0
 10
-1.8743700000000001
 20
0.8858900000000001
 30
0.0
 10
-1.8743700000000001
 20
0.8858900000000001
 30
0.0
 10
-1.8743700000000001
 20
0.8858900000000001
 30
0.0
 10
-1.92517
 20
0.9620900000000001
 30
0.0
 10
-2.0140700000000002
 20
1.06369
 30
0.0
 10
-2.1004300000000002
 20
1.15259
 30
0.0
 10
-2.1004300000000002
 20
1.15259
 30
0.0
 10
-2.1004300000000002
 20
1.15259
 30
0.0
 10
-2.5322300000000002
 20
1.2541900000000001
 30
0.0
 10
-2.5322300000000002
 20
1.2541900000000001
 30
0.0
 10
-2.5322300000000002
 20
1.2541900000000001
 30
0.0
 10
-2.5322300000000002
 20
1.2541900000000001
 30
0.0
 10
-2.4687300000000003
 20
1.27705
 30
0.0
 10
-2.4687300000000003
 20
1.27705
 30
0.0
  0
SPLINE
  5
2E
100
AcDbEntity
  8
���� 1
 62
     7
100
AcDbSpline
210
0.0
220
0.0
230
1.0
 70
     1
 71
     3
 72
    20
 73
    16
 74
     0
 42
0.0000000001
 43
0.0000000001
 40
0.0
 40
0.0
 40
0.0
 40
0.0
 40
0.25
 40
0.25
 40
0.25
 40
0.25
 40
0.5
 40
0.5
 40
0.5
 40
0.5
 40
0.75
 40
0.75
 40
0.75
 40
0.75
 40
1.0
 40
1.0
 40
1.0
 40
1.0
 10
-1.5949700000000002
 20
1.11449
 30
0.0
 10
-1.29271
 20
1.0763900000000002
 30
0.0
 10
-1.0514100000000002
 20
0.84779
 30
0.0
 10
-0.7872500000000001
 20
0.6979300000000001
 30
0.0
 10
-0.7872500000000001
 20
0.6979300000000001
 30
0.0
 10
-0.7872500000000001
 20
0.6979300000000001
 30
0.0
 10
-0.7872500000000001
 20
0.6471300000000001
 30
0.0
 10
-0.7872500000000001
 20
0.6471300000000001
 30
0.0
 10
-0.7872500000000001
 20
0.6471300000000001
 30
0.0
 10
-1.07681
 20
0.7614300000000001
 30
0.0
 10
-1.3562100000000001
 20
1.0001900000000001
 30
0.0
 10
-1.6838700000000002
 20
0.9747900000000001
 30
0.0
 10
-1.6838700000000002
 20
0.9747900000000001
 30
0.0
 10
-1.6838700000000002
 20
1.0509900000000001
 30
0.0
 10
-1.67117
 20
1.11449
 30
0.0
 10
-1.5949700000000002
 20
1.11449
 30
0.0
  0
SPLINE
  5
2F
100
AcDbEntity
  8
���� 1
 62
     7
100
AcDbSpline
210
0.0
220
0.0
230
1.0
 70
     1
 71
     3
 72
    16
 73
    12
 74
     0
 42
0.0000000001
 43
0.0000000001
 40
0.0
 40
0.0
 40
0.0
 40
0.0
 40
0.3333333333333333
 40
0.3333333333333333
 40
0.3333333333333333
 40
0.3333333333333333
 40
0.6666666666666666
 40
0.6666666666666666
 40
0.6666666666666666
 40
0.6666666666666666
 40
1.0
 40
1.0
 40
1.0
 40
1.0
 10
-3.3526500000000001
 20
0.8223900000000001
 30
0.0
 10
-3.3526500000000001
 20
0.8223900000000001
 30
0.0
 10
-3.3272500000000003
 20
0.8223900000000001
 30
0.0
 10
-3.3272500000000003
 20
0.8223900000000001
 30
0.0
 10
-3.3272500000000003
 20
0.8223900000000001
 30
0.0
 10
-3.3780500000000004
 20
0.7614300000000001
 30
0.0
 10
-3.4669500000000002
 20
0.6471300000000001
 30
0.0
 10
-3.5558500000000004
 20
0.6725300000000001
 30
0.0
 10
-3.5558500000000004
 20
0.6725300000000001
 30
0.0
 10
-3.5558500000000004
 20
0.6725300000000001
 30
0.0
 10
-3.3526500000000001
 20
0.8223900000000001
 30
0.0
 10
-3.3526500000000001
 20
0.8223900000000001
 30
0.0
  0
SPLINE
  5
30
100
AcDbEntity
  8
���� 1
 62
     7
100
AcDbSpline
210
0.0
220
0.0
230
1.0
 70
     1
 71
     3
 72
    16
 73
    12
 74
     0
 42
0.0000000001
 43
0.0000000001
 40
0.0
 40
0.0
 40
0.0
 40
0.0
 40
0.3333333333333333
 40
0.3333333333333333
 40
0.3333333333333333
 40
0.3333333333333333
 40
0.6666666666666666
 40
0.6666666666666666
 40
0.6666666666666666
 40
0.6666666666666666
 40
1.0
 40
1.0
 40
1.0
 40
1.0
 10
-1.79817
 20
0.7995300000000001
 30
0.0
 10
-1.7854700000000001
 20
0.7995300000000001
 30
0.0
 10
-1.7727700000000002
 20
0.7995300000000001
 30
0.0
 10
-1.7727700000000002
 20
0.78683
 30
0.0
 10
-1.7727700000000002
 20
0.78683
 30
0.0
 10
-1.8489700000000002
 20
0.62173
 30
0.0
 10
-1.7346700000000002
 20
0.41853
 30
0.0
 10
-1.8870700000000002
 20
0.29153
 30
0.0
 10
-1.8870700000000002
 20
0.29153
 30
0.0
 10
-1.8997700000000002
 20
0.45663
 30
0.0
 10
-1.8362700000000001
 20
0.6344300000000001
 30
0.0
 10
-1.79817
 20
0.7995300000000001
 30
0.0
  0
SPLINE
  5
31
100
AcDbEntity
  8
���� 1
 62
     7
100
AcDbSpline
210
0.0
220
0.0
230
1.0
 70
     1
 71
     3
 72
    24
 73
    20
 74
     0
 42
0.0000000001
 43
0.0000000001
 40
0.0
 40
0.0
 40
0.0
 40
0.0
 40
0.2
 40
0.2
 40
0.2
 40
0.2
 40
0.4
 40
0.4
 40
0.4
 40
0.4
 40
0.6000000000000001
 40
0.6000000000000001
 40
0.6000000000000001
 40
0.6000000000000001
 40
0.8
 40
0.8
 40
0.8
 40
0.8
 40
1.0
 40
1.0
 40
1.0
 40
1.0
 10
-2.9741900000000001
 20
0.39313
 30
0.0
 10
-2.9233900000000004
 20
0.40583
 30
0.0
 10
-2.8852900000000004
 20
0.3804300000000001
 30
0.0
 10
-2.8344900000000002
 20
0.3804300000000001
 30
0.0
 10
-2.8344900000000002
 20
0.3804300000000001
 30
0.0
 10
-2.8344900000000002
 20
0.3804300000000001
 30
0.0
 10
-2.7963900000000002
 20
0.3677300000000001
 30
0.0
 10
-2.7963900000000002
 20
0.3677300000000001
 30
0.0
 10
-2.7963900000000002
 20
0.3677300000000001
 30
0.0
 10
-2.8725900000000002
 20
0.29153
 30
0.0
 10
-2.9995900000000004
 20
0.3677300000000001
 30
0.0
 10
-3.0859500000000004
 20
0.33217
 30
0.0
 10
-3.0859500000000004
 20
0.33217
 30
0.0
 10
-3.0986500000000001
 20
0.3677300000000001
 30
0.0
 10
-3.0605500000000001
 20
0.3677300000000001
 30
0.0
 10
-3.0478500000000004
 20
0.3804300000000001
 30
0.0
 10
-3.0478500000000004
 20
0.3804300000000001
 30
0.0
 10
-3.0478500000000004
 20
0.3804300000000001
 30
0.0
 10
-2.9741900000000001
 20
0.39313
 30
0.0
 10
-2.9741900000000001
 20
0.39313
 30
0.0
  0
SPLINE
  5
32
100
AcDbEntity
  8
���� 1
 62
     7
100
AcDbSpline
210
0.0
220
0.0
230
1.0
 70
     1
 71
     3
 72
    20
 73
    16
 74
     0
 42
0.0000000001
 43
0.0000000001
 40
0.0
 40
0.0
 40
0.0
 40
0.0
 40
0.25
 40
0.25
 40
0.25
 40
0.25
 40
0.5
 40
0.5
 40
0.5
 40
0.5
 40
0.75
 40
0.75
 40
0.75
 40
0.75
 40
1.0
 40
1.0
 40
1.0
 40
1.0
 10
-2.7201900000000001
 20
0.3677300000000001
 30
0.0
 10
-2.60589
 20
0.3677300000000001
 30
0.0
 10
-2.4788900000000003
 20
0.35503
 30
0.0
 10
-2.3798300000000001
 20
0.30423
 30
0.0
 10
-2.3798300000000001
 20
0.30423
 30
0.0
 10
-2.3163300000000002
 20
0.20517
 30
0.0
 10
-2.3925300000000003
 20
0.06547
 30
0.0
 10
-2.4306300000000003
 20
-0.02088
 30
0.0
 10
-2.4306300000000003
 20
-0.02088
 30
0.0
 10
-2.3798300000000001
 20
0.16707
 30
0.0
 10
-2.4788900000000003
 20
0.3677300000000001
 30
0.0
 10
-2.6947900000000002
 20
0.34487
 30
0.0
 10
-2.6947900000000002
 20
0.34487
 30
0.0
 10
-2.7074900000000004
 20
0.34487
 30
0.0
 10
-2.7201900000000001
 20
0.35503
 30
0.0
 10
-2.7201900000000001
 20
0.3677300000000001
 30
0.0
  0
SPLINE
  5
33
100
AcDbEntity
  8
���� 1
 62
     7
100
AcDbSpline
210
0.0
220
0.0
230
1.0
 70
     1
 71
     3
 72
    24
 73
    20
 74
     0
 42
0.0000000001
 43
0.0000000001
 40
0.0
 40
0.0
 40
0.0
 40
0.0
 40
0.2
 40
0.2
 40
0.2
 40
0.2
 40
0.4
 40
0.4
 40
0.4
 40
0.4
 40
0.6000000000000001
 40
0.6000000000000001
 40
0.6000000000000001
 40
0.6000000000000001
 40
0.8
 40
0.8
 40
0.8
 40
0.8
 40
1.0
 40
1.0
 40
1.0
 40
1.0
 10
-0.26909
 20
0.3677300000000001
 30
0.0
 10
-0.26909
 20
0.3677300000000001
 30
0.0
 10
-0.21829
 20
0.30423
 30
0.0
 10
-0.21829
 20
0.30423
 30
0.0
 10
-0.21829
 20
0.30423
 30
0.0
 10
-0.30719
 20
0.14167
 30
0.0
 10
-0.37069
 20
-0.05898
 30
0.0
 10
-0.5230900000000001
 20
-0.16058
 30
0.0
 10
-0.5230900000000001
 20
-0.16058
 30
0.0
 10
-0.5230900000000001
 20
-0.16058
 30
0.0
 10
-0.53579
 20
-0.02088
 30
0.0
 10
-0.53579
 20
-0.02088
 30
0.0
 10
-0.53579
 20
-0.02088
 30
0.0
 10
-0.43165
 20
-0.00818
 30
0.0
 10
-0.3960900000000001
 20
0.10357
 30
0.0
 10
-0.3325900000000001
 20
0.17977
 30
0.0
 10
-0.3325900000000001
 20
0.17977
 30
0.0
 10
-0.43165
 20
0.24073
 30
0.0
 10
-0.31989
 20
0.30423
 30
0.0
 10
-0.26909
 20
0.3677300000000001
 30
0.0
  0
SPLINE
  5
34
100
AcDbEntity
  8
���� 1
 62
     7
100
AcDbSpline
210
0.0
220
0.0
230
1.0
 70
     1
 71
     3
 72
    12
 73
     8
 74
     0
 42
0.0000000001
 43
0.0000000001
 40
0.0
 40
0.0
 40
0.0
 40
0.0
 40
0.5
 40
0.5
 40
0.5
 40
0.5
 40
1.0
 40
1.0
 40
1.0
 40
1.0
 10
-2.9741900000000001
 20
0.23057
 30
0.0
 10
-2.9487900000000002
 20
0.23057
 30
0.0
 10
-2.8979900000000001
 20
0.21787
 30
0.0
 10
-2.8979900000000001
 20
0.17977
 30
0.0
 10
-2.8979900000000001
 20
0.17977
 30
0.0
 10
-2.9360900000000001
 20
0.16707
 30
0.0
 10
-2.9614900000000004
 20
0.20517
 30
0.0
 10
-2.9741900000000001
 20
0.23057
 30
0.0
  0
SPLINE
  5
35
100
AcDbEntity
  8
���� 1
 62
     7
100
AcDbSpline
210
0.0
220
0.0
230
1.0
 70
     1
 71
     3
 72
    12
 73
     8
 74
     0
 42
0.0000000001
 43
0.0000000001
 40
0.0
 40
0.0
 40
0.0
 40
0.0
 40
0.5
 40
0.5
 40
0.5
 40
0.5
 40
1.0
 40
1.0
 40
1.0
 40
1.0
 10
-2.7709900000000003
 20
0.20517
 30
0.0
 10
-2.7328900000000003
 20
0.20517
 30
0.0
 10
-2.6947900000000002
 20
0.16707
 30
0.0
 10
-2.7328900000000003
 20
0.14167
 30
0.0
 10
-2.7328900000000003
 20
0.14167
 30
0.0
 10
-2.7709900000000003
 20
0.12897
 30
0.0
 10
-2.7709900000000003
 20
0.17977
 30
0.0
 10
-2.7709900000000003
 20
0.20517
 30
0.0
  0
SPLINE
  5
36
100
AcDbEntity
  8
���� 1
 62
     7
100
AcDbSpline
210
0.0
220
0.0
230
1.0
 70
     1
 71
     3
 72
    32
 73
    28
 74
     0
 42
0.0000000001
 43
0.0000000001
 40
0.0
 40
0.0
 40
0.0
 40
0.0
 40
0.1428571428571429
 40
0.1428571428571429
 40
0.1428571428571429
 40
0.1428571428571429
 40
0.2857142857142857
 40
0.2857142857142857
 40
0.2857142857142857
 40
0.2857142857142857
 40
0.4285714285714286
 40
0.4285714285714286
 40
0.4285714285714286
 40
0.4285714285714286
 40
0.5714285714285714
 40
0.5714285714285714
 40
0.5714285714285714
 40
0.5714285714285714
 40
0.7142857142857142
 40
0.7142857142857142
 40
0.7142857142857142
 40
0.7142857142857142
 40
0.857142857142857
 40
0.857142857142857
 40
0.857142857142857
 40
0.857142857142857
 40
1.0
 40
1.0
 40
1.0
 40
1.0
 10
-1.4451100000000001
 20
0.14167
 30
0.0
 10
-1.3562100000000001
 20
0.07817
 30
0.0
 10
-1.2165100000000002
 20
0.02737
 30
0.0
 10
-1.1530100000000001
 20
-0.07168
 30
0.0
 10
-1.1530100000000001
 20
-0.07168
 30
0.0
 10
-1.1530100000000001
 20
-0.07168
 30
0.0
 10
-1.03871
 20
-0.19868
 30
0.0
 10
-1.03871
 20
-0.19868
 30
0.0
 10
-1.03871
 20
-0.19868
 30
0.0
 10
-1.1530100000000001
 20
-0.14788
 30
0.0
 10
-1.2419100000000001
 20
-0.04628
 30
0.0
 10
-1.3435100000000002
 20
0.02737
 30
0.0
 10
-1.3435100000000002
 20
0.02737
 30
0.0
 10
-1.5340100000000001
 20
0.00197
 30
0.0
 10
-1.54671
 20
-0.18598
 30
0.0
 10
-1.6203700000000001
 20
-0.32314
 30
0.0
 10
-1.6203700000000001
 20
-0.32314
 30
0.0
 10
-1.6203700000000001
 20
-0.32314
 30
0.0
 10
-1.6330700000000002
 20
-0.18598
 30
0.0
 10
-1.6330700000000002
 20
-0.18598
 30
0.0
 10
-1.6330700000000002
 20
-0.18598
 30
0.0
 10
-1.6330700000000002
 20
-0.18598
 30
0.0
 10
-1.5695700000000001
 20
-0.10978
 30
0.0
 10
-1.5695700000000001
 20
-0.10978
 30
0.0
 10
-1.5695700000000001
 20
-0.10978
 30
0.0
 10
-1.5695700000000001
 20
-0.02088
 30
0.0
 10
-1.4933700000000001
 20
0.06547
 30
0.0
 10
-1.4451100000000001
 20
0.14167
 30
0.0
  0
SPLINE
  5
37
100
AcDbEntity
  8
���� 1
 62
     7
100
AcDbSpline
210
0.0
220
0.0
230
1.0
 70
     1
 71
     3
 72
    44
 73
    40
 74
     0
 42
0.0000000001
 43
0.0000000001
 40
0.0
 40
0.0
 40
0.0
 40
0.0
 40
0.1
 40
0.1
 40
0.1
 40
0.1
 40
0.2
 40
0.2
 40
0.2
 40
0.2
 40
0.3
 40
0.3
 40
0.3
 40
0.3
 40
0.4
 40
0.4
 40
0.4
 40
0.4
 40
0.5
 40
0.5
 40
0.5
 40
0.5
 40
0.6
 40
0.6
 40
0.6
 40
0.6
 40
0.7
 40
0.7
 40
0.7
 40
0.7
 40
0.7999999999999999
 40
0.7999999999999999
 40
0.7999999999999999
 40
0.7999999999999999
 40
0.8999999999999999
 40
0.8999999999999999
 40
0.8999999999999999
 40
0.8999999999999999
 40
1.0
 40
1.0
 40
1.0
 40
1.0
 10
0.7773800000000001
 20
0.06547
 30
0.0
 10
0.6884800000000001
 20
-0.38664
 30
0.0
 10
0.38622
 20
-0.7549400000000001
 30
0.0
 10
0.13222
 20
-1.1334000000000002
 30
0.0
 10
0.13222
 20
-1.1334000000000002
 30
0.0
 10
0.10682
 20
-1.2832600000000001
 30
0.0
 10
0.29732
 20
-1.2223000000000002
 30
0.0
 10
0.3354200000000001
 20
-1.1461000000000001
 30
0.0
 10
0.3354200000000001
 20
-1.1461000000000001
 30
0.0
 10
0.3354200000000001
 20
-1.1461000000000001
 30
0.0
 10
-0.01509
 20
-1.83952
 30
0.0
 10
-0.01509
 20
-1.83952
 30
0.0
 10
-0.01509
 20
-1.83952
 30
0.0
 10
0.20842
 20
-2.0173200000000002
 30
0.0
 10
0.00776
 20
-2.3348200000000001
 30
0.0
 10
0.00776
 20
-2.56088
 30
0.0
 10
0.00776
 20
-2.56088
 30
0.0
 10
-0.43165
 20
-2.8885400000000003
 30
0.0
 10
-0.95235
 20
-3.0917400000000002
 30
0.0
 10
-1.38161
 20
-3.4321000000000002
 30
0.0
 10
-1.38161
 20
-3.4321000000000002
 30
0.0
 10
-1.0133100000000002
 20
-3.0536400000000001
 30
0.0
 10
-0.53579
 20
-2.8377400000000002
 30
0.0
 10
-0.16749
 20
-2.4719800000000003
 30
0.0
 10
-0.16749
 20
-2.4719800000000003
 30
0.0
 10
-0.06589
 20
-2.2586200000000001
 30
0.0
 10
-0.09129
 20
-2.0173200000000002
 30
0.0
 10
-0.07859
 20
-1.7912600000000001
 30
0.0
 10
-0.07859
 20
-1.7912600000000001
 30
0.0
 10
-0.07859
 20
-1.7912600000000001
 30
0.0
 10
0.10682
 20
-1.37216
 30
0.0
 10
0.10682
 20
-1.37216
 30
0.0
 10
0.10682
 20
-1.37216
 30
0.0
 10
0.03062
 20
-1.2832600000000001
 30
0.0
 10
-0.02779
 20
-1.5245600000000001
 30
0.0
 10
-0.07859
 20
-1.3848600000000002
 30
0.0
 10
-0.07859
 20
-1.3848600000000002
 30
0.0
 10
-0.07859
 20
-1.3848600000000002
 30
0.0
 10
0.7773800000000001
 20
0.06547
 30
0.0
 10
0.7773800000000001
 20
0.06547
 30
0.0
  0
SPLINE
  5
38
100
AcDbEntity
  8
���� 1
 62
     7
100
AcDbSpline
210
0.0
220
0.0
230
1.0
 70
     1
 71
     3
 72
    36
 73
    32
 74
     0
 42
0.0000000001
 43
0.0000000001
 40
0.0
 40
0.0
 40
0.0
 40
0.0
 40
0.125
 40
0.125
 40
0.125
 40
0.125
 40
0.25
 40
0.25
 40
0.25
 40
0.25
 40
0.375
 40
0.375
 40
0.375
 40
0.375
 40
0.5
 40
0.5
 40
0.5
 40
0.5
 40
0.625
 40
0.625
 40
0.625
 40
0.625
 40
0.75
 40
0.75
 40
0.75
 40
0.75
 40
0.875
 40
0.875
 40
0.875
 40
0.875
 40
1.0
 40
1.0
 40
1.0
 40
1.0
 10
-2.9360900000000001
 20
-0.00818
 30
0.0
 10
-2.9360900000000001
 20
-0.00818
 30
0.0
 10
-2.8852900000000004
 20
-0.00818
 30
0.0
 10
-2.8852900000000004
 20
-0.00818
 30
0.0
 10
-2.8852900000000004
 20
-0.00818
 30
0.0
 10
-2.8471900000000003
 20
-0.14788
 30
0.0
 10
-2.5703300000000002
 20
-0.07168
 30
0.0
 10
-2.60589
 20
-0.24694
 30
0.0
 10
-2.60589
 20
-0.24694
 30
0.0
 10
-2.60589
 20
-0.24694
 30
0.0
 10
-2.5576300000000001
 20
-0.28504
 30
0.0
 10
-2.5576300000000001
 20
-0.28504
 30
0.0
 10
-2.5576300000000001
 20
-0.28504
 30
0.0
 10
-2.4560300000000002
 20
-0.21138
 30
0.0
 10
-2.2401300000000002
 20
-0.24694
 30
0.0
 10
-2.1639300000000001
 20
-0.08438
 30
0.0
 10
-2.1639300000000001
 20
-0.08438
 30
0.0
 10
-2.1639300000000001
 20
-0.08438
 30
0.0
 10
-2.11313
 20
-0.08438
 30
0.0
 10
-2.11313
 20
-0.08438
 30
0.0
 10
-2.11313
 20
-0.08438
 30
0.0
 10
-2.11313
 20
-0.32314
 30
0.0
 10
-2.4687300000000003
 20
-0.21138
 30
0.0
 10
-2.5322300000000002
 20
-0.41204
 30
0.0
 10
-2.5322300000000002
 20
-0.41204
 30
0.0
 10
-2.5322300000000002
 20
-0.41204
 30
0.0
 10
-2.60589
 20
-0.3739400000000001
 30
0.0
 10
-2.60589
 20
-0.3739400000000001
 30
0.0
 10
-2.60589
 20
-0.3739400000000001
 30
0.0
 10
-2.60589
 20
-0.16058
 30
0.0
 10
-2.8979900000000001
 20
-0.21138
 30
0.0
 10
-2.9360900000000001
 20
-0.00818
 30
0.0
  0
SPLINE
  5
39
100
AcDbEntity
  8
���� 1
 62
     7
100
AcDbSpline
210
0.0
220
0.0
230
1.0
 70
     1
 71
     3
 72
    12
 73
     8
 74
     0
 42
0.0000000001
 43
0.0000000001
 40
0.0
 40
0.0
 40
0.0
 40
0.0
 40
0.5
 40
0.5
 40
0.5
 40
0.5
 40
1.0
 40
1.0
 40
1.0
 40
1.0
 10
-2.44333
 20
-0.05898
 30
0.0
 10
-2.44333
 20
-0.08438
 30
0.0
 10
-2.4560300000000002
 20
-0.12248
 30
0.0
 10
-2.4788900000000003
 20
-0.12248
 30
0.0
 10
-2.4788900000000003
 20
-0.12248
 30
0.0
 10
-2.4915900000000004
 20
-0.09708
 30
0.0
 10
-2.4687300000000003
 20
-0.07168
 30
0.0
 10
-2.44333
 20
-0.05898
 30
0.0
  0
SPLINE
  5
3A
100
AcDbEntity
  8
���� 1
 62
     7
100
AcDbSpline
210
0.0
220
0.0
230
1.0
 70
     1
 71
     3
 72
    16
 73
    12
 74
     0
 42
0.0000000001
 43
0.0000000001
 40
0.0
 40
0.0
 40
0.0
 40
0.0
 40
0.3333333333333333
 40
0.3333333333333333
 40
0.3333333333333333
 40
0.3333333333333333
 40
0.6666666666666666
 40
0.6666666666666666
 40
0.6666666666666666
 40
0.6666666666666666
 40
1.0
 40
1.0
 40
1.0
 40
1.0
 10
-1.8489700000000002
 20
-0.13518
 30
0.0
 10
-1.8489700000000002
 20
-0.13518
 30
0.0
 10
-1.8235700000000001
 20
-0.13518
 30
0.0
 10
-1.8235700000000001
 20
-0.13518
 30
0.0
 10
-1.8235700000000001
 20
-0.13518
 30
0.0
 10
-1.8235700000000001
 20
-0.13518
 30
0.0
 10
-1.7473700000000001
 20
-0.4247400000000001
 30
0.0
 10
-1.7473700000000001
 20
-0.4247400000000001
 30
0.0
 10
-1.7473700000000001
 20
-0.4247400000000001
 30
0.0
 10
-1.8235700000000001
 20
-0.3739400000000001
 30
0.0
 10
-1.8743700000000001
 20
-0.22154
 30
0.0
 10
-1.8489700000000002
 20
-0.13518
 30
0.0
  0
SPLINE
  5
3B
100
AcDbEntity
  8
���� 1
 62
     7
100
AcDbSpline
210
0.0
220
0.0
230
1.0
 70
     1
 71
     3
 72
    16
 73
    12
 74
     0
 42
0.0000000001
 43
0.0000000001
 40
0.0
 40
0.0
 40
0.0
 40
0.0
 40
0.3333333333333333
 40
0.3333333333333333
 40
0.3333333333333333
 40
0.3333333333333333
 40
0.6666666666666666
 40
0.6666666666666666
 40
0.6666666666666666
 40
0.6666666666666666
 40
1.0
 40
1.0
 40
1.0
 40
1.0
 10
1.06694
 20
-1.5626600000000002
 30
0.0
 10
1.06694
 20
-1.5626600000000002
 30
0.0
 10
1.0796400000000002
 20
-1.49916
 30
0.0
 10
1.0796400000000002
 20
-1.49916
 30
0.0
 10
1.0796400000000002
 20
-1.49916
 30
0.0
 10
1.4733400000000001
 20
-1.1715
 30
0.0
 10
1.5495400000000001
 20
-0.61524
 30
0.0
 10
1.8010000000000002
 20
-0.21138
 30
0.0
 10
1.8010000000000002
 20
-0.21138
 30
0.0
 10
1.6994000000000002
 20
-0.6762
 30
0.0
 10
1.5876400000000002
 20
-1.3594600000000001
 30
0.0
 10
1.06694
 20
-1.5626600000000002
 30
0.0
  0
SPLINE
  5
3C
100
AcDbEntity
  8
���� 1
 62
     7
100
AcDbSpline
210
0.0
220
0.0
230
1.0
 70
     1
 71
     3
 72
    16
 73
    12
 74
     0
 42
0.0000000001
 43
0.0000000001
 40
0.0
 40
0.0
 40
0.0
 40
0.0
 40
0.3333333333333333
 40
0.3333333333333333
 40
0.3333333333333333
 40
0.3333333333333333
 40
0.6666666666666666
 40
0.6666666666666666
 40
0.6666666666666666
 40
0.6666666666666666
 40
1.0
 40
1.0
 40
1.0
 40
1.0
 10
-1.33081
 20
-0.27234
 30
0.0
 10
-1.25461
 20
-0.28504
 30
0.0
 10
-1.29271
 20
-0.36124
 30
0.0
 10
-1.3562100000000001
 20
-0.34854
 30
0.0
 10
-1.3562100000000001
 20
-0.34854
 30
0.0
 10
-1.3562100000000001
 20
-0.34854
 30
0.0
 10
-1.33081
 20
-0.32314
 30
0.0
 10
-1.33081
 20
-0.32314
 30
0.0
 10
-1.33081
 20
-0.32314
 30
0.0
 10
-1.33081
 20
-0.32314
 30
0.0
 10
-1.33081
 20
-0.27234
 30
0.0
 10
-1.33081
 20
-0.27234
 30
0.0
  0
SPLINE
  5
3D
100
AcDbEntity
  8
���� 1
 62
     7
100
AcDbSpline
210
0.0
220
0.0
230
1.0
 70
     1
 71
     3
 72
    20
 73
    16
 74
     0
 42
0.0000000001
 43
0.0000000001
 40
0.0
 40
0.0
 40
0.0
 40
0.0
 40
0.25
 40
0.25
 40
0.25
 40
0.25
 40
0.5
 40
0.5
 40
0.5
 40
0.5
 40
0.75
 40
0.75
 40
0.75
 40
0.75
 40
1.0
 40
1.0
 40
1.0
 40
1.0
 10
-1.29271
 20
-0.4247400000000001
 30
0.0
 10
-1.2800100000000001
 20
-0.4247400000000001
 30
0.0
 10
-1.25461
 20
-0.41204
 30
0.0
 10
-1.25461
 20
-0.4374400000000001
 30
0.0
 10
-1.25461
 20
-0.4374400000000001
 30
0.0
 10
-1.29271
 20
-0.5136400000000001
 30
0.0
 10
-1.3943100000000002
 20
-0.52634
 30
0.0
 10
-1.4552700000000001
 20
-0.5136400000000001
 30
0.0
 10
-1.4552700000000001
 20
-0.5136400000000001
 30
0.0
 10
-1.5086100000000002
 20
-0.5644400000000001
 30
0.0
 10
-1.5695700000000001
 20
-0.5136400000000001
 30
0.0
 10
-1.6076700000000002
 20
-0.46284
 30
0.0
 10
-1.6076700000000002
 20
-0.46284
 30
0.0
 10
-1.5086100000000002
 20
-0.4374400000000001
 30
0.0
 10
-1.38161
 20
-0.5136400000000001
 30
0.0
 10
-1.29271
 20
-0.4247400000000001
 30
0.0
  0
SPLINE
  5
3E
100
AcDbEntity
  8
���� 1
 62
     7
100
AcDbSpline
210
0.0
220
0.0
230
1.0
 70
     1
 71
     3
 72
    20
 73
    16
 74
     0
 42
0.0000000001
 43
0.0000000001
 40
0.0
 40
0.0
 40
0.0
 40
0.0
 40
0.25
 40
0.25
 40
0.25
 40
0.25
 40
0.5
 40
0.5
 40
0.5
 40
0.5
 40
0.75
 40
0.75
 40
0.75
 40
0.75
 40
1.0
 40
1.0
 40
1.0
 40
1.0
 10
2.0677000000000003
 20
-0.45014
 30
0.0
 10
2.0677000000000003
 20
-0.45014
 30
0.0
 10
2.1159600000000003
 20
-0.58984
 30
0.0
 10
2.1159600000000003
 20
-0.58984
 30
0.0
 10
2.1159600000000003
 20
-0.58984
 30
0.0
 10
2.1439000000000004
 20
-1.1334000000000002
 30
0.0
 10
2.5604600000000004
 20
-1.5499600000000002
 30
0.0
 10
2.9262200000000003
 20
-1.9030200000000002
 30
0.0
 10
2.9262200000000003
 20
-1.9030200000000002
 30
0.0
 10
2.6239600000000003
 20
-1.7531600000000001
 30
0.0
 10
2.3572600000000001
 20
-1.5245600000000001
 30
0.0
 10
2.1566000000000001
 20
-1.24516
 30
0.0
 10
2.1566000000000001
 20
-1.24516
 30
0.0
 10
2.09056
 20
-0.9937
 30
0.0
 10
2.09056
 20
-0.71684
 30
0.0
 10
2.0677000000000003
 20
-0.45014
 30
0.0
  0
SPLINE
  5
3F
100
AcDbEntity
  8
���� 1
 62
     7
100
AcDbSpline
210
0.0
220
0.0
230
1.0
 70
     1
 71
     3
 72
    16
 73
    12
 74
     0
 42
0.0000000001
 43
0.0000000001
 40
0.0
 40
0.0
 40
0.0
 40
0.0
 40
0.3333333333333333
 40
0.3333333333333333
 40
0.3333333333333333
 40
0.3333333333333333
 40
0.6666666666666666
 40
0.6666666666666666
 40
0.6666666666666666
 40
0.6666666666666666
 40
1.0
 40
1.0
 40
1.0
 40
1.0
 10
-1.7600700000000002
 20
-0.5009400000000001
 30
0.0
 10
-1.7219700000000002
 20
-0.5009400000000001
 30
0.0
 10
-1.6838700000000002
 20
-0.5390400000000001
 30
0.0
 10
-1.6965700000000001
 20
-0.5771400000000001
 30
0.0
 10
-1.6965700000000001
 20
-0.5771400000000001
 30
0.0
 10
-1.6965700000000001
 20
-0.5771400000000001
 30
0.0
 10
-1.79817
 20
-0.58984
 30
0.0
 10
-1.79817
 20
-0.58984
 30
0.0
 10
-1.79817
 20
-0.58984
 30
0.0
 10
-1.79817
 20
-0.55174
 30
0.0
 10
-1.7727700000000002
 20
-0.52634
 30
0.0
 10
-1.7600700000000002
 20
-0.5009400000000001
 30
0.0
  0
SPLINE
  5
40
100
AcDbEntity
  8
���� 1
 62
     7
100
AcDbSpline
210
0.0
220
0.0
230
1.0
 70
     1
 71
     3
 72
    20
 73
    16
 74
     0
 42
0.0000000001
 43
0.0000000001
 40
0.0
 40
0.0
 40
0.0
 40
0.0
 40
0.25
 40
0.25
 40
0.25
 40
0.25
 40
0.5
 40
0.5
 40
0.5
 40
0.5
 40
0.75
 40
0.75
 40
0.75
 40
0.75
 40
1.0
 40
1.0
 40
1.0
 40
1.0
 10
-2.5119100000000003
 20
-0.80574
 30
0.0
 10
-2.5500100000000003
 20
-0.80574
 30
0.0
 10
-2.5881100000000004
 20
-0.7549400000000001
 30
0.0
 10
-2.5881100000000004
 20
-0.71684
 30
0.0
 10
-2.5881100000000004
 20
-0.71684
 30
0.0
 10
-2.5881100000000004
 20
-0.71684
 30
0.0
 10
-2.64907
 20
-0.74224
 30
0.0
 10
-2.64907
 20
-0.74224
 30
0.0
 10
-2.64907
 20
-0.74224
 30
0.0
 10
-2.6236700000000002
 20
-0.63048
 30
0.0
 10
-2.5373100000000002
 20
-0.50348
 30
0.0
 10
-2.4738100000000003
 20
-0.4272800000000001
 30
0.0
 10
-2.4738100000000003
 20
-0.4272800000000001
 30
0.0
 10
-2.4738100000000003
 20
-0.55428
 30
0.0
 10
-2.61097
 20
-0.6914400000000001
 30
0.0
 10
-2.5119100000000003
 20
-0.80574
 30
0.0
  0
SPLINE
  5
41
100
AcDbEntity
  8
���� 1
 62
     7
100
AcDbSpline
210
0.0
220
0.0
230
1.0
 70
     1
 71
     3
 72
    12
 73
     8
 74
     0
 42
0.0000000001
 43
0.0000000001
 40
0.0
 40
0.0
 40
0.0
 40
0.0
 40
0.5
 40
0.5
 40
0.5
 40
0.5
 40
1.0
 40
1.0
 40
1.0
 40
1.0
 10
-1.8007100000000003
 20
-0.6711200000000001
 30
0.0
 10
-1.7499100000000001
 20
-0.6838200000000001
 30
0.0
 10
-1.8616700000000002
 20
-0.9683000000000001
 30
0.0
 10
-1.8870700000000002
 20
-1.0064000000000002
 30
0.0
 10
-1.8870700000000002
 20
-1.0064000000000002
 30
0.0
 10
-2.0013700000000001
 20
-0.9810000000000001
 30
0.0
 10
-1.8286500000000001
 20
-0.7346200000000001
 30
0.0
 10
-1.8007100000000003
 20
-0.6711200000000001
 30
0.0
  0
SPLINE
  5
42
100
AcDbEntity
  8
���� 1
 62
     7
100
AcDbSpline
210
0.0
220
0.0
230
1.0
 70
     1
 71
     3
 72
    20
 73
    16
 74
     0
 42
0.0000000001
 43
0.0000000001
 40
0.0
 40
0.0
 40
0.0
 40
0.0
 40
0.25
 40
0.25
 40
0.25
 40
0.25
 40
0.5
 40
0.5
 40
0.5
 40
0.5
 40
0.75
 40
0.75
 40
0.75
 40
0.75
 40
1.0
 40
1.0
 40
1.0
 40
1.0
 10
4.4426000000000005
 20
-1.2223000000000002
 30
0.0
 10
4.5061
 20
-1.5118600000000002
 30
0.0
 10
4.3917999999999999
 20
-1.8649200000000001
 30
0.0
 10
4.3537000000000008
 20
-2.1570200000000002
 30
0.0
 10
4.3537000000000008
 20
-2.1570200000000002
 30
0.0
 10
4.2902000000000005
 20
-1.9030200000000002
 30
0.0
 10
4.3410000000000002
 20
-1.62616
 30
0.0
 10
4.3537000000000008
 20
-1.3493000000000002
 30
0.0
 10
4.3537000000000008
 20
-1.3493000000000002
 30
0.0
 10
4.3537000000000008
 20
-1.3493000000000002
 30
0.0
 10
4.4426000000000005
 20
-1.3086600000000002
 30
0.0
 10
4.4426000000000005
 20
-1.3086600000000002
 30
0.0
 10
4.4426000000000005
 20
-1.3086600000000002
 30
0.0
 10
4.4426000000000005
 20
-1.3086600000000002
 30
0.0
 10
4.4426000000000005
 20
-1.2223000000000002
 30
0.0
 10
4.4426000000000005
 20
-1.2223000000000002
 30
0.0
  0
SPLINE
  5
43
100
AcDbEntity
  8
���� 1
 62
     7
100
AcDbSpline
210
0.0
220
0.0
230
1.0
 70
     1
 71
     3
 72
    16
 73
    12
 74
     0
 42
0.0000000001
 43
0.0000000001
 40
0.0
 40
0.0
 40
0.0
 40
0.0
 40
0.3333333333333333
 40
0.3333333333333333
 40
0.3333333333333333
 40
0.3333333333333333
 40
0.6666666666666666
 40
0.6666666666666666
 40
0.6666666666666666
 40
0.6666666666666666
 40
1.0
 40
1.0
 40
1.0
 40
1.0
 10
0.82818
 20
-1.8649200000000001
 30
0.0
 10
0.82818
 20
-1.8649200000000001
 30
0.0
 10
0.8662800000000001
 20
-1.8649200000000001
 30
0.0
 10
0.8662800000000001
 20
-1.8649200000000001
 30
0.0
 10
0.8662800000000001
 20
-1.8649200000000001
 30
0.0
 10
0.76468
 20
-1.9792200000000002
 30
0.0
 10
0.5894200000000001
 20
-1.9919200000000001
 30
0.0
 10
0.4624200000000001
 20
-2.0554200000000002
 30
0.0
 10
0.4624200000000001
 20
-2.0554200000000002
 30
0.0
 10
0.5386200000000001
 20
-1.9538200000000001
 30
0.0
 10
0.7265800000000001
 20
-1.9538200000000001
 30
0.0
 10
0.82818
 20
-1.8649200000000001
 30
0.0
  0
SPLINE
  5
44
100
AcDbEntity
  8
���� 1
 62
     7
100
AcDbSpline
210
0.0
220
0.0
230
1.0
 70
     1
 71
     3
 72
    12
 73
     8
 74
     0
 42
0.0000000001
 43
0.0000000001
 40
0.0
 40
0.0
 40
0.0
 40
0.0
 40
0.5
 40
0.5
 40
0.5
 40
0.5
 40
1.0
 40
1.0
 40
1.0
 40
1.0
 10
4.6204000000000001
 20
-1.9030200000000002
 30
0.0
 10
4.7194600000000007
 20
-1.9030200000000002
 30
0.0
 10
4.6585000000000001
 20
-2.0300200000000004
 30
0.0
 10
4.6204000000000001
 20
-2.06812
 30
0.0
 10
4.6204000000000001
 20
-2.06812
 30
0.0
 10
4.6204000000000001
 20
-2.06812
 30
0.0
 10
4.6204000000000001
 20
-1.9030200000000002
 30
0.0
 10
4.6204000000000001
 20
-1.9030200000000002
 30
0.0
  0
SPLINE
  5
45
100
AcDbEntity
  8
���� 1
 62
     7
100
AcDbSpline
210
0.0
220
0.0
230
1.0
 70
     1
 71
     3
 72
    20
 73
    16
 74
     0
 42
0.0000000001
 43
0.0000000001
 40
0.0
 40
0.0
 40
0.0
 40
0.0
 40
0.25
 40
0.25
 40
0.25
 40
0.25
 40
0.5
 40
0.5
 40
0.5
 40
0.5
 40
0.75
 40
0.75
 40
0.75
 40
0.75
 40
1.0
 40
1.0
 40
1.0
 40
1.0
 10
-0.82535
 20
-2.0935200000000003
 30
0.0
 10
-0.82535
 20
-2.0935200000000003
 30
0.0
 10
-0.9777500000000001
 20
-2.3830800000000001
 30
0.0
 10
-0.9777500000000001
 20
-2.3830800000000001
 30
0.0
 10
-0.9777500000000001
 20
-2.3830800000000001
 30
0.0
 10
-0.9777500000000001
 20
-2.3830800000000001
 30
0.0
 10
-1.3562100000000001
 20
-2.5862800000000004
 30
0.0
 10
-1.3562100000000001
 20
-2.5862800000000004
 30
0.0
 10
-1.3562100000000001
 20
-2.5862800000000004
 30
0.0
 10
-1.3562100000000001
 20
-2.5862800000000004
 30
0.0
 10
-1.3562100000000001
 20
-2.5481800000000003
 30
0.0
 10
-1.3562100000000001
 20
-2.5481800000000003
 30
0.0
 10
-1.3562100000000001
 20
-2.5481800000000003
 30
0.0
 10
-1.3562100000000001
 20
-2.5481800000000003
 30
0.0
 10
-0.82535
 20
-2.0935200000000003
 30
0.0
 10
-0.82535
 20
-2.0935200000000003
 30
0.0
  0
SPLINE
  5
46
100
AcDbEntity
  8
���� 1
 62
     7
100
AcDbSpline
210
0.0
220
0.0
230
1.0
 70
     1
 71
     3
 72
    24
 73
    20
 74
     0
 42
0.0000000001
 43
0.0000000001
 40
0.0
 40
0.0
 40
0.0
 40
0.0
 40
0.2
 40
0.2
 40
0.2
 40
0.2
 40
0.4
 40
0.4
 40
0.4
 40
0.4
 40
0.6000000000000001
 40
0.6000000000000001
 40
0.6000000000000001
 40
0.6000000000000001
 40
0.8
 40
0.8
 40
0.8
 40
0.8
 40
1.0
 40
1.0
 40
1.0
 40
1.0
 10
-3.1240500000000004
 20
-2.1570200000000002
 30
0.0
 10
-3.0732500000000003
 20
-2.1570200000000002
 30
0.0
 10
-3.0122900000000001
 20
-2.18242
 30
0.0
 10
-2.9868900000000003
 20
-2.22052
 30
0.0
 10
-2.9868900000000003
 20
-2.22052
 30
0.0
 10
-3.2383500000000001
 20
-2.56088
 30
0.0
 10
-3.6422100000000004
 20
-2.77678
 30
0.0
 10
-3.7946100000000005
 20
-3.1806400000000004
 30
0.0
 10
-3.7946100000000005
 20
-3.1806400000000004
 30
0.0
 10
-3.7946100000000005
 20
-3.1806400000000004
 30
0.0
 10
-3.8835100000000002
 20
-3.2568400000000004
 30
0.0
 10
-3.8835100000000002
 20
-3.2568400000000004
 30
0.0
 10
-3.8835100000000002
 20
-3.2568400000000004
 30
0.0
 10
-3.7184100000000004
 20
-2.8758400000000002
 30
0.0
 10
-3.4288500000000002
 20
-2.52278
 30
0.0
 10
-3.1240500000000004
 20
-2.2459200000000004
 30
0.0
 10
-3.1240500000000004
 20
-2.2459200000000004
 30
0.0
 10
-3.1240500000000004
 20
-2.2459200000000004
 30
0.0
 10
-3.1240500000000004
 20
-2.1570200000000002
 30
0.0
 10
-3.1240500000000004
 20
-2.1570200000000002
 30
0.0
  0
SPLINE
  5
47
100
AcDbEntity
  8
���� 1
 62
     7
100
AcDbSpline
210
0.0
220
0.0
230
1.0
 70
     1
 71
     3
 72
    16
 73
    12
 74
     0
 42
0.0000000001
 43
0.0000000001
 40
0.0
 40
0.0
 40
0.0
 40
0.0
 40
0.3333333333333333
 40
0.3333333333333333
 40
0.3333333333333333
 40
0.3333333333333333
 40
0.6666666666666666
 40
0.6666666666666666
 40
0.6666666666666666
 40
0.6666666666666666
 40
1.0
 40
1.0
 40
1.0
 40
1.0
 10
-3.9089100000000001
 20
-3.3051000000000004
 30
0.0
 10
-3.9089100000000001
 20
-3.3051000000000004
 30
0.0
 10
-3.8835100000000002
 20
-3.3051000000000004
 30
0.0
 10
-3.8835100000000002
 20
-3.3051000000000004
 30
0.0
 10
-3.8835100000000002
 20
-3.3051000000000004
 30
0.0
 10
-3.8962100000000004
 20
-3.3838400000000002
 30
0.0
 10
-3.9470100000000001
 20
-3.4575000000000005
 30
0.0
 10
-4.01051
 20
-3.5083000000000002
 30
0.0
 10
-4.01051
 20
-3.5083000000000002
 30
0.0
 10
-4.01051
 20
-3.5083000000000002
 30
0.0
 10
-3.9089100000000001
 20
-3.3051000000000004
 30
0.0
 10
-3.9089100000000001
 20
-3.3051000000000004
 30
0.0
  0
SPLINE
  5
48
100
AcDbEntity
  8
���� 1
 62
     7
100
AcDbSpline
210
0.0
220
0.0
230
1.0
 70
     1
 71
     3
 72
    32
 73
    28
 74
     0
 42
0.0000000001
 43
0.0000000001
 40
0.0
 40
0.0
 40
0.0
 40
0.0
 40
0.1428571428571429
 40
0.1428571428571429
 40
0.1428571428571429
 40
0.1428571428571429
 40
0.2857142857142857
 40
0.2857142857142857
 40
0.2857142857142857
 40
0.2857142857142857
 40
0.4285714285714286
 40
0.4285714285714286
 40
0.4285714285714286
 40
0.4285714285714286
 40
0.5714285714285714
 40
0.5714285714285714
 40
0.5714285714285714
 40
0.5714285714285714
 40
0.7142857142857142
 40
0.7142857142857142
 40
0.7142857142857142
 40
0.7142857142857142
 40
0.857142857142857
 40
0.857142857142857
 40
0.857142857142857
 40
0.857142857142857
 40
1.0
 40
1.0
 40
1.0
 40
1.0
 10
3.1929200000000004
 20
-3.4575000000000005
 30
0.0
 10
3.2792800000000004
 20
-3.4702000000000002
 30
0.0
 10
3.4062800000000002
 20
-3.4448000000000003
 30
0.0
 10
3.4443800000000002
 20
-3.5464000000000002
 30
0.0
 10
3.4443800000000002
 20
-3.5464000000000002
 30
0.0
 10
3.4443800000000002
 20
-3.5591000000000004
 30
0.0
 10
3.4189800000000004
 20
-3.5845000000000002
 30
0.0
 10
3.4062800000000002
 20
-3.5718000000000001
 30
0.0
 10
3.4062800000000002
 20
-3.5718000000000001
 30
0.0
 10
3.2284800000000002
 20
-3.3711400000000005
 30
0.0
 10
2.9135200000000001
 20
-3.8740600000000005
 30
0.0
 10
3.1421200000000002
 20
-3.9655000000000005
 30
0.0
 10
3.1421200000000002
 20
-3.9655000000000005
 30
0.0
 10
3.1421200000000002
 20
-3.9655000000000005
 30
0.0
 10
3.1141800000000002
 20
-4.0772600000000008
 30
0.0
 10
3.1141800000000002
 20
-4.0772600000000008
 30
0.0
 10
3.1141800000000002
 20
-4.0772600000000008
 30
0.0
 10
3.1014800000000005
 20
-4.0391600000000007
 30
0.0
 10
3.1268800000000003
 20
-3.9375600000000004
 30
0.0
 10
3.0405200000000003
 20
-3.9655000000000005
 30
0.0
 10
3.0405200000000003
 20
-3.9655000000000005
 30
0.0
 10
2.9389200000000004
 20
-3.9756600000000004
 30
0.0
 10
2.9897200000000002
 20
-4.1026600000000002
 30
0.0
 10
2.9389200000000004
 20
-4.1661600000000005
 30
0.0
 10
2.9389200000000004
 20
-4.1661600000000005
 30
0.0
 10
2.8627200000000004
 20
-3.9248600000000002
 30
0.0
 10
3.0024200000000003
 20
-3.6353000000000004
 30
0.0
 10
3.1929200000000004
 20
-3.4575000000000005
 30
0.0
  0
SPLINE
  5
49
100
AcDbEntity
  8
���� 1
 62
     7
100
AcDbSpline
210
0.0
220
0.0
230
1.0
 70
     1
 71
     3
 72
    20
 73
    16
 74
     0
 42
0.0000000001
 43
0.0000000001
 40
0.0
 40
0.0
 40
0.0
 40
0.0
 40
0.25
 40
0.25
 40
0.25
 40
0.25
 40
0.5
 40
0.5
 40
0.5
 40
0.5
 40
0.75
 40
0.75
 40
0.75
 40
0.75
 40
1.0
 40
1.0
 40
1.0
 40
1.0
 10
3.7212400000000003
 20
-3.4702000000000002
 30
0.0
 10
3.7720400000000005
 20
-3.4575000000000005
 30
0.0
 10
3.8228400000000002
 20
-3.4829000000000003
 30
0.0
 10
3.8482400000000001
 20
-3.5337000000000005
 30
0.0
 10
3.8482400000000001
 20
-3.5337000000000005
 30
0.0
 10
3.6475800000000005
 20
-3.4829000000000003
 30
0.0
 10
3.5967800000000003
 20
-3.7750000000000004
 30
0.0
 10
3.6094800000000005
 20
-3.9248600000000002
 30
0.0
 10
3.6094800000000005
 20
-3.9248600000000002
 30
0.0
 10
3.5459800000000001
 20
-3.9121600000000005
 30
0.0
 10
3.5332800000000004
 20
-3.9655000000000005
 30
0.0
 10
3.4951800000000004
 20
-3.9883600000000001
 30
0.0
 10
3.4951800000000004
 20
-3.9883600000000001
 30
0.0
 10
3.4697800000000001
 20
-3.7877000000000005
 30
0.0
 10
3.5586800000000003
 20
-3.5845000000000002
 30
0.0
 10
3.7212400000000003
 20
-3.4702000000000002
 30
0.0
  0
SPLINE
  5
4A
100
AcDbEntity
  8
���� 1
 62
     7
100
AcDbSpline
210
0.0
220
0.0
230
1.0
 70
     1
 71
     3
 72
    16
 73
    12
 74
     0
 42
0.0000000001
 43
0.0000000001
 40
0.0
 40
0.0
 40
0.0
 40
0.0
 40
0.3333333333333333
 40
0.3333333333333333
 40
0.3333333333333333
 40
0.3333333333333333
 40
0.6666666666666666
 40
0.6666666666666666
 40
0.6666666666666666
 40
0.6666666666666666
 40
1.0
 40
1.0
 40
1.0
 40
1.0
 10
4.0895400000000004
 20
-3.4956000000000005
 30
0.0
 10
4.0895400000000004
 20
-3.4956000000000005
 30
0.0
 10
4.1149400000000007
 20
-3.4956000000000005
 30
0.0
 10
4.1149400000000007
 20
-3.4956000000000005
 30
0.0
 10
4.1149400000000007
 20
-3.4956000000000005
 30
0.0
 10
4.1149400000000007
 20
-3.5845000000000002
 30
0.0
 10
4.0641400000000001
 20
-3.6734000000000004
 30
0.0
 10
4.0133400000000004
 20
-3.7369000000000003
 30
0.0
 10
4.0133400000000004
 20
-3.7369000000000003
 30
0.0
 10
4.0260400000000001
 20
-3.6480000000000001
 30
0.0
 10
4.0514400000000004
 20
-3.5718000000000001
 30
0.0
 10
4.0895400000000004
 20
-3.4956000000000005
 30
0.0
  0
SPLINE
  5
4B
100
AcDbEntity
  8
���� 1
 62
     7
100
AcDbSpline
210
0.0
220
0.0
230
1.0
 70
     1
 71
     3
 72
    20
 73
    16
 74
     0
 42
0.0000000001
 43
0.0000000001
 40
0.0
 40
0.0
 40
0.0
 40
0.0
 40
0.25
 40
0.25
 40
0.25
 40
0.25
 40
0.5
 40
0.5
 40
0.5
 40
0.5
 40
0.75
 40
0.75
 40
0.75
 40
0.75
 40
1.0
 40
1.0
 40
1.0
 40
1.0
 10
2.7484200000000003
 20
-3.5083000000000002
 30
0.0
 10
2.7484200000000003
 20
-3.5083000000000002
 30
0.0
 10
2.79922
 20
-3.5210000000000004
 30
0.0
 10
2.79922
 20
-3.5210000000000004
 30
0.0
 10
2.79922
 20
-3.5210000000000004
 30
0.0
 10
2.6849200000000004
 20
-3.5845000000000002
 30
0.0
 10
2.6239600000000003
 20
-3.7115000000000005
 30
0.0
 10
2.5731600000000001
 20
-3.8385000000000002
 30
0.0
 10
2.5731600000000001
 20
-3.8385000000000002
 30
0.0
 10
2.5350600000000001
 20
-3.8258000000000005
 30
0.0
 10
2.5223600000000004
 20
-3.8385000000000002
 30
0.0
 10
2.4842600000000004
 20
-3.8512000000000004
 30
0.0
 10
2.4842600000000004
 20
-3.8512000000000004
 30
0.0
 10
2.4969600000000001
 20
-3.7242000000000002
 30
0.0
 10
2.6112600000000001
 20
-3.5464000000000002
 30
0.0
 10
2.7484200000000003
 20
-3.5083000000000002
 30
0.0
  0
SPLINE
  5
4C
100
AcDbEntity
  8
���� 1
 62
     7
100
AcDbSpline
210
0.0
220
0.0
230
1.0
 70
     1
 71
     3
 72
    16
 73
    12
 74
     0
 42
0.0000000001
 43
0.0000000001
 40
0.0
 40
0.0
 40
0.0
 40
0.0
 40
0.3333333333333333
 40
0.3333333333333333
 40
0.3333333333333333
 40
0.3333333333333333
 40
0.6666666666666666
 40
0.6666666666666666
 40
0.6666666666666666
 40
0.6666666666666666
 40
1.0
 40
1.0
 40
1.0
 40
1.0
 10
-1.5695700000000001
 20
-3.5591000000000004
 30
0.0
 10
-1.5695700000000001
 20
-3.5591000000000004
 30
0.0
 10
-1.5340100000000001
 20
-3.5591000000000004
 30
0.0
 10
-1.5340100000000001
 20
-3.5591000000000004
 30
0.0
 10
-1.5340100000000001
 20
-3.5591000000000004
 30
0.0
 10
-1.5340100000000001
 20
-3.5591000000000004
 30
0.0
 10
-1.79817
 20
-3.8004000000000002
 30
0.0
 10
-1.79817
 20
-3.8004000000000002
 30
0.0
 10
-1.79817
 20
-3.8004000000000002
 30
0.0
 10
-1.7600700000000002
 20
-3.7115000000000005
 30
0.0
 10
-1.6584700000000001
 20
-3.5972000000000004
 30
0.0
 10
-1.5695700000000001
 20
-3.5591000000000004
 30
0.0
  0
SPLINE
  5
4D
100
AcDbEntity
  8
���� 1
 62
     7
100
AcDbSpline
210
0.0
220
0.0
230
1.0
 70
     1
 71
     3
 72
    16
 73
    12
 74
     0
 42
0.0000000001
 43
0.0000000001
 40
0.0
 40
0.0
 40
0.0
 40
0.0
 40
0.3333333333333333
 40
0.3333333333333333
 40
0.3333333333333333
 40
0.3333333333333333
 40
0.6666666666666666
 40
0.6666666666666666
 40
0.6666666666666666
 40
0.6666666666666666
 40
1.0
 40
1.0
 40
1.0
 40
1.0
 10
-3.9343100000000004
 20
-3.6734000000000004
 30
0.0
 10
-3.9343100000000004
 20
-3.6734000000000004
 30
0.0
 10
-4.65313
 20
-4.3820600000000001
 30
0.0
 10
-4.65313
 20
-4.3820600000000001
 30
0.0
 10
-4.65313
 20
-4.3820600000000001
 30
0.0
 10
-4.49057
 20
-4.0899600000000005
 30
0.0
 10
-4.2111700000000001
 20
-3.8867600000000002
 30
0.0
 10
-3.9978100000000003
 20
-3.6607000000000003
 30
0.0
 10
-3.9978100000000003
 20
-3.6607000000000003
 30
0.0
 10
-3.9724100000000004
 20
-3.6607000000000003
 30
0.0
 10
-3.9470100000000001
 20
-3.6607000000000003
 30
0.0
 10
-3.9343100000000004
 20
-3.6734000000000004
 30
0.0
  0
SPLINE
  5
4E
100
AcDbEntity
  8
���� 1
 62
     7
100
AcDbSpline
210
0.0
220
0.0
230
1.0
 70
     1
 71
     3
 72
    24
 73
    20
 74
     0
 42
0.0000000001
 43
0.0000000001
 40
0.0
 40
0.0
 40
0.0
 40
0.0
 40
0.2
 40
0.2
 40
0.2
 40
0.2
 40
0.4
 40
0.4
 40
0.4
 40
0.4
 40
0.6000000000000001
 40
0.6000000000000001
 40
0.6000000000000001
 40
0.6000000000000001
 40
0.8
 40
0.8
 40
0.8
 40
0.8
 40
1.0
 40
1.0
 40
1.0
 40
1.0
 10
4.0006400000000006
 20
-3.7496000000000005
 30
0.0
 10
4.0260400000000001
 20
-3.8131000000000004
 30
0.0
 10
3.9879400000000005
 20
-3.9655000000000005
 30
0.0
 10
4.1149400000000007
 20
-3.9502600000000001
 30
0.0
 10
4.1149400000000007
 20
-3.9502600000000001
 30
0.0
 10
4.1149400000000007
 20
-3.9502600000000001
 30
0.0
 10
4.1149400000000007
 20
-3.9756600000000004
 30
0.0
 10
4.1149400000000007
 20
-3.9756600000000004
 30
0.0
 10
4.1149400000000007
 20
-3.9756600000000004
 30
0.0
 10
4.0260400000000001
 20
-3.9502600000000001
 30
0.0
 10
3.9879400000000005
 20
-4.0645600000000002
 30
0.0
 10
3.9879400000000005
 20
-4.1534599999999999
 30
0.0
 10
3.9879400000000005
 20
-4.1534599999999999
 30
0.0
 10
3.9879400000000005
 20
-4.1534599999999999
 30
0.0
 10
3.9244400000000002
 20
-4.1407600000000002
 30
0.0
 10
3.9244400000000002
 20
-4.1407600000000002
 30
0.0
 10
3.9244400000000002
 20
-4.1407600000000002
 30
0.0
 10
3.9244400000000002
 20
-4.1407600000000002
 30
0.0
 10
4.0006400000000006
 20
-3.7496000000000005
 30
0.0
 10
4.0006400000000006
 20
-3.7496000000000005
 30
0.0
  0
SPLINE
  5
4F
100
AcDbEntity
  8
���� 1
 62
     7
100
AcDbSpline
210
0.0
220
0.0
230
1.0
 70
     1
 71
     3
 72
    20
 73
    16
 74
     0
 42
0.0000000001
 43
0.0000000001
 40
0.0
 40
0.0
 40
0.0
 40
0.0
 40
0.25
 40
0.25
 40
0.25
 40
0.25
 40
0.5
 40
0.5
 40
0.5
 40
0.5
 40
0.75
 40
0.75
 40
0.75
 40
0.75
 40
1.0
 40
1.0
 40
1.0
 40
1.0
 10
3.6221800000000002
 20
-4.0391600000000007
 30
0.0
 10
3.7593400000000003
 20
-4.0137600000000004
 30
0.0
 10
3.6704400000000001
 20
-4.1788600000000002
 30
0.0
 10
3.7720400000000005
 20
-4.2042600000000006
 30
0.0
 10
3.7720400000000005
 20
-4.2042600000000006
 30
0.0
 10
3.7720400000000005
 20
-4.2042600000000006
 30
0.0
 10
3.7720400000000005
 20
-4.22966
 30
0.0
 10
3.7720400000000005
 20
-4.22966
 30
0.0
 10
3.7720400000000005
 20
-4.22966
 30
0.0
 10
3.7212400000000003
 20
-4.2423600000000006
 30
0.0
 10
3.6704400000000001
 20
-4.26776
 30
0.0
 10
3.6221800000000002
 20
-4.26776
 30
0.0
 10
3.6221800000000002
 20
-4.26776
 30
0.0
 10
3.6221800000000002
 20
-4.26776
 30
0.0
 10
3.6221800000000002
 20
-4.0391600000000007
 30
0.0
 10
3.6221800000000002
 20
-4.0391600000000007
 30
0.0
  0
SPLINE
  5
50
100
AcDbEntity
  8
���� 1
 62
     7
100
AcDbSpline
210
0.0
220
0.0
230
1.0
 70
     1
 71
     3
 72
    12
 73
     8
 74
     0
 42
0.0000000001
 43
0.0000000001
 40
0.0
 40
0.0
 40
0.0
 40
0.0
 40
0.5
 40
0.5
 40
0.5
 40
0.5
 40
1.0
 40
1.0
 40
1.0
 40
1.0
 10
2.8119200000000002
 20
-4.0645600000000002
 30
0.0
 10
2.8627200000000004
 20
-4.0772600000000008
 30
0.0
 10
2.8119200000000002
 20
-4.1534599999999999
 30
0.0
 10
2.7738200000000002
 20
-4.1280600000000005
 30
0.0
 10
2.7738200000000002
 20
-4.1280600000000005
 30
0.0
 10
2.7738200000000002
 20
-4.1280600000000005
 30
0.0
 10
2.8119200000000002
 20
-4.0645600000000002
 30
0.0
 10
2.8119200000000002
 20
-4.0645600000000002
 30
0.0
  0
SPLINE
  5
51
100
AcDbEntity
  8
���� 1
 62
     7
100
AcDbSpline
210
0.0
220
0.0
230
1.0
 70
     1
 71
     3
 72
    12
 73
     8
 74
     0
 42
0.0000000001
 43
0.0000000001
 40
0.0
 40
0.0
 40
0.0
 40
0.0
 40
0.5
 40
0.5
 40
0.5
 40
0.5
 40
1.0
 40
1.0
 40
1.0
 40
1.0
 10
3.1014800000000005
 20
-4.1026600000000002
 30
0.0
 10
3.1014800000000005
 20
-4.1026600000000002
 30
0.0
 10
3.1802200000000003
 20
-4.22966
 30
0.0
 10
3.1802200000000003
 20
-4.22966
 30
0.0
 10
3.1802200000000003
 20
-4.22966
 30
0.0
 10
3.0786200000000004
 20
-4.26776
 30
0.0
 10
3.0913200000000001
 20
-4.1661600000000005
 30
0.0
 10
3.1014800000000005
 20
-4.1026600000000002
 30
0.0
  0
SPLINE
  5
52
100
AcDbEntity
  8
���� 1
 62
     7
100
AcDbSpline
210
0.0
220
0.0
230
1.0
 70
     1
 71
     3
 72
    12
 73
     8
 74
     0
 42
0.0000000001
 43
0.0000000001
 40
0.0
 40
0.0
 40
0.0
 40
0.0
 40
0.5
 40
0.5
 40
0.5
 40
0.5
 40
1.0
 40
1.0
 40
1.0
 40
1.0
 10
4.1403400000000001
 20
-4.1026600000000002
 30
0.0
 10
4.1784400000000002
 20
-4.1026600000000002
 30
0.0
 10
4.1784400000000002
 20
-4.1661600000000005
 30
0.0
 10
4.1403400000000001
 20
-4.1661600000000005
 30
0.0
 10
4.1403400000000001
 20
-4.1661600000000005
 30
0.0
 10
4.1149400000000007
 20
-4.1534599999999999
 30
0.0
 10
4.1276400000000004
 20
-4.1153599999999999
 30
0.0
 10
4.1403400000000001
 20
-4.1026600000000002
 30
0.0
  0
SPLINE
  5
53
100
AcDbEntity
  8
���� 1
 62
     7
100
AcDbSpline
210
0.0
220
0.0
230
1.0
 70
     1
 71
     3
 72
    20
 73
    16
 74
     0
 42
0.0000000001
 43
0.0000000001
 40
0.0
 40
0.0
 40
0.0
 40
0.0
 40
0.25
 40
0.25
 40
0.25
 40
0.25
 40
0.5
 40
0.5
 40
0.5
 40
0.5
 40
0.75
 40
0.75
 40
0.75
 40
0.75
 40
1.0
 40
1.0
 40
1.0
 40
1.0
 10
-2.5449300000000004
 20
-4.1153599999999999
 30
0.0
 10
-2.51953
 20
-4.1026600000000002
 30
0.0
 10
-2.5068300000000003
 20
-4.1280600000000005
 30
0.0
 10
-2.51953
 20
-4.1534599999999999
 30
0.0
 10
-2.51953
 20
-4.1534599999999999
 30
0.0
 10
-2.6820900000000001
 20
-4.34396
 30
0.0
 10
-2.7582900000000001
 20
-4.6081200000000004
 30
0.0
 10
-2.9614900000000004
 20
-4.7605200000000005
 30
0.0
 10
-2.9614900000000004
 20
-4.7605200000000005
 30
0.0
 10
-2.9614900000000004
 20
-4.7605200000000005
 30
0.0
 10
-2.9741900000000001
 20
-4.6716200000000008
 30
0.0
 10
-2.9741900000000001
 20
-4.6716200000000008
 30
0.0
 10
-2.9741900000000001
 20
-4.6716200000000008
 30
0.0
 10
-2.7963900000000002
 20
-4.5065200000000001
 30
0.0
 10
-2.6693900000000004
 20
-4.3185600000000006
 30
0.0
 10
-2.5449300000000004
 20
-4.1153599999999999
 30
0.0
  0
SPLINE
  5
54
100
AcDbEntity
  8
���� 1
 62
     7
100
AcDbSpline
210
0.0
220
0.0
230
1.0
 70
     1
 71
     3
 72
    44
 73
    40
 74
     0
 42
0.0000000001
 43
0.0000000001
 40
0.0
 40
0.0
 40
0.0
 40
0.0
 40
0.1
 40
0.1
 40
0.1
 40
0.1
 40
0.2
 40
0.2
 40
0.2
 40
0.2
 40
0.3
 40
0.3
 40
0.3
 40
0.3
 40
0.4
 40
0.4
 40
0.4
 40
0.4
 40
0.5
 40
0.5
 40
0.5
 40
0.5
 40
0.6
 40
0.6
 40
0.6
 40
0.6
 40
0.7
 40
0.7
 40
0.7
 40
0.7
 40
0.7999999999999999
 40
0.7999999999999999
 40
0.7999999999999999
 40
0.7999999999999999
 40
0.8999999999999999
 40
0.8999999999999999
 40
0.8999999999999999
 40
0.8999999999999999
 40
1.0
 40
1.0
 40
1.0
 40
1.0
 10
-5.0849300000000008
 20
-5.1389800000000001
 30
0.0
 10
-5.0849300000000008
 20
-5.1389800000000001
 30
0.0
 10
-4.9960300000000002
 20
-5.1389800000000001
 30
0.0
 10
-4.9960300000000002
 20
-5.1389800000000001
 30
0.0
 10
-4.9960300000000002
 20
-5.1389800000000001
 30
0.0
 10
-4.8944300000000007
 20
-5.3421800000000008
 30
0.0
 10
-4.6175700000000006
 20
-5.3802800000000008
 30
0.0
 10
-4.4524699999999999
 20
-5.4793400000000005
 30
0.0
 10
-4.4524699999999999
 20
-5.4793400000000005
 30
0.0
 10
-4.5032700000000006
 20
-5.5174400000000006
 30
0.0
 10
-4.5540700000000003
 20
-5.4183800000000009
 30
0.0
 10
-4.60487
 20
-5.4666400000000008
 30
0.0
 10
-4.60487
 20
-5.4666400000000008
 30
0.0
 10
-4.8182300000000007
 20
-5.2913800000000002
 30
0.0
 10
-5.0950900000000008
 20
-5.5936400000000006
 30
0.0
 10
-4.9325300000000007
 20
-5.8222400000000007
 30
0.0
 10
-4.9325300000000007
 20
-5.8222400000000007
 30
0.0
 10
-4.9325300000000007
 20
-5.8222400000000007
 30
0.0
 10
-4.9960300000000002
 20
-5.9619400000000002
 30
0.0
 10
-4.9960300000000002
 20
-5.9619400000000002
 30
0.0
 10
-4.9960300000000002
 20
-5.9619400000000002
 30
0.0
 10
-5.1865300000000003
 20
-5.7714400000000001
 30
0.0
 10
-5.0341300000000002
 20
-5.4920400000000003
 30
0.0
 10
-4.8182300000000007
 20
-5.3802800000000008
 30
0.0
 10
-4.8182300000000007
 20
-5.3802800000000008
 30
0.0
 10
-4.8182300000000007
 20
-5.3548800000000005
 30
0.0
 10
-4.8182300000000007
 20
-5.3421800000000008
 30
0.0
 10
-4.8309300000000004
 20
-5.3294800000000002
 30
0.0
 10
-4.8309300000000004
 20
-5.3294800000000002
 30
0.0
 10
-4.8944300000000007
 20
-5.2913800000000002
 30
0.0
 10
-4.9579300000000002
 20
-5.3167800000000005
 30
0.0
 10
-5.0214300000000005
 20
-5.3294800000000002
 30
0.0
 10
-5.0214300000000005
 20
-5.3294800000000002
 30
0.0
 10
-5.0087300000000008
 20
-5.2532800000000002
 30
0.0
 10
-5.0950900000000008
 20
-5.2024800000000004
 30
0.0
 10
-5.1484300000000003
 20
-5.1643800000000004
 30
0.0
 10
-5.1484300000000003
 20
-5.1643800000000004
 30
0.0
 10
-5.1484300000000003
 20
-5.1643800000000004
 30
0.0
 10
-5.0849300000000008
 20
-5.1389800000000001
 30
0.0
 10
-5.0849300000000008
 20
-5.1389800000000001
 30
0.0
  0
SPLINE
  5
55
100
AcDbEntity
  8
���� 1
 62
     7
100
AcDbSpline
210
0.0
220
0.0
230
1.0
 70
     1
 71
     3
 72
    24
 73
    20
 74
     0
 42
0.0000000001
 43
0.0000000001
 40
0.0
 40
0.0
 40
0.0
 40
0.0
 40
0.2
 40
0.2
 40
0.2
 40
0.2
 40
0.4
 40
0.4
 40
0.4
 40
0.4
 40
0.6000000000000001
 40
0.6000000000000001
 40
0.6000000000000001
 40
0.6000000000000001
 40
0.8
 40
0.8
 40
0.8
 40
0.8
 40
1.0
 40
1.0
 40
1.0
 40
1.0
 10
-4.2619700000000007
 20
-5.5809400000000009
 30
0.0
 10
-4.2492700000000001
 20
-5.5809400000000009
 30
0.0
 10
-4.2365700000000004
 20
-5.5809400000000009
 30
0.0
 10
-4.2365700000000004
 20
-5.5936400000000006
 30
0.0
 10
-4.2365700000000004
 20
-5.5936400000000006
 30
0.0
 10
-4.3381700000000007
 20
-5.7079400000000007
 30
0.0
 10
-4.2746700000000004
 20
-5.8476400000000002
 30
0.0
 10
-4.2238700000000007
 20
-5.9619400000000002
 30
0.0
 10
-4.2238700000000007
 20
-5.9619400000000002
 30
0.0
 10
-4.3127700000000004
 20
-6.0000400000000003
 30
0.0
 10
-4.2492700000000001
 20
-6.1245000000000003
 30
0.0
 10
-4.2873700000000001
 20
-6.1880000000000006
 30
0.0
 10
-4.2873700000000001
 20
-6.1880000000000006
 30
0.0
 10
-4.4270700000000005
 20
-6.0610000000000008
 30
0.0
 10
-4.3889700000000005
 20
-5.8476400000000002
 30
0.0
 10
-4.4016700000000002
 20
-5.6698400000000007
 30
0.0
 10
-4.4016700000000002
 20
-5.6698400000000007
 30
0.0
 10
-4.4016700000000002
 20
-5.6698400000000007
 30
0.0
 10
-4.2619700000000007
 20
-5.5809400000000009
 30
0.0
 10
-4.2619700000000007
 20
-5.5809400000000009
 30
0.0
  0
SPLINE
  5
56
100
AcDbEntity
  8
���� 1
 62
     7
100
AcDbSpline
210
0.0
220
0.0
230
1.0
 70
     1
 71
     3
 72
    20
 73
    16
 74
     0
 42
0.0000000001
 43
0.0000000001
 40
0.0
 40
0.0
 40
0.0
 40
0.0
 40
0.25
 40
0.25
 40
0.25
 40
0.25
 40
0.5
 40
0.5
 40
0.5
 40
0.5
 40
0.75
 40
0.75
 40
0.75
 40
0.75
 40
1.0
 40
1.0
 40
1.0
 40
1.0
 10
-3.7819100000000003
 20
-5.6063400000000003
 30
0.0
 10
-3.7819100000000003
 20
-5.6063400000000003
 30
0.0
 10
-3.7311100000000001
 20
-5.61904
 30
0.0
 10
-3.7311100000000001
 20
-5.61904
 30
0.0
 10
-3.7311100000000001
 20
-5.61904
 30
0.0
 10
-3.7311100000000001
 20
-5.61904
 30
0.0
 10
-3.7311100000000001
 20
-5.6825400000000004
 30
0.0
 10
-3.7311100000000001
 20
-5.6825400000000004
 30
0.0
 10
-3.7311100000000001
 20
-5.6825400000000004
 30
0.0
 10
-3.8200100000000003
 20
-5.7968400000000004
 30
0.0
 10
-3.5939500000000004
 20
-5.8984400000000008
 30
0.0
 10
-3.7311100000000001
 20
-5.9746400000000008
 30
0.0
 10
-3.7311100000000001
 20
-5.9746400000000008
 30
0.0
 10
-3.7946100000000005
 20
-5.8730400000000005
 30
0.0
 10
-3.8327100000000005
 20
-5.7206400000000004
 30
0.0
 10
-3.7819100000000003
 20
-5.6063400000000003
 30
0.0
  0
SPLINE
  5
57
100
AcDbEntity
  8
���� 1
 62
     7
100
AcDbSpline
210
0.0
220
0.0
230
1.0
 70
     1
 71
     3
 72
    12
 73
     8
 74
     0
 42
0.0000000001
 43
0.0000000001
 40
0.0
 40
0.0
 40
0.0
 40
0.0
 40
0.5
 40
0.5
 40
0.5
 40
0.5
 40
1.0
 40
1.0
 40
1.0
 40
1.0
 10
-5.4633900000000004
 20
-5.6698400000000007
 30
0.0
 10
-5.4125900000000007
 20
-5.7587400000000004
 30
0.0
 10
-5.4760900000000001
 20
-5.8984400000000008
 30
0.0
 10
-5.4379900000000001
 20
-6.0127400000000009
 30
0.0
 10
-5.4379900000000001
 20
-6.0127400000000009
 30
0.0
 10
-5.5903900000000002
 20
-5.9746400000000008
 30
0.0
 10
-5.5395900000000005
 20
-5.7460400000000007
 30
0.0
 10
-5.4633900000000004
 20
-5.6698400000000007
 30
0.0
  0
SPLINE
  5
58
100
AcDbEntity
  8
���� 1
 62
     7
100
AcDbSpline
210
0.0
220
0.0
230
1.0
 70
     1
 71
     3
 72
    16
 73
    12
 74
     0
 42
0.0000000001
 43
0.0000000001
 40
0.0
 40
0.0
 40
0.0
 40
0.0
 40
0.3333333333333333
 40
0.3333333333333333
 40
0.3333333333333333
 40
0.3333333333333333
 40
0.6666666666666666
 40
0.6666666666666666
 40
0.6666666666666666
 40
0.6666666666666666
 40
1.0
 40
1.0
 40
1.0
 40
1.0
 10
-3.6295100000000002
 20
-5.8476400000000002
 30
0.0
 10
-3.5558500000000004
 20
-5.8476400000000002
 30
0.0
 10
-3.5685500000000001
 20
-5.9746400000000008
 30
0.0
 10
-3.4796500000000004
 20
-5.9619400000000002
 30
0.0
 10
-3.4796500000000004
 20
-5.9619400000000002
 30
0.0
 10
-3.4796500000000004
 20
-5.9619400000000002
 30
0.0
 10
-3.4669500000000002
 20
-5.9873400000000006
 30
0.0
 10
-3.4669500000000002
 20
-5.9873400000000006
 30
0.0
 10
-3.4669500000000002
 20
-5.9873400000000006
 30
0.0
 10
-3.5431500000000002
 20
-6.0610000000000008
 30
0.0
 10
-3.6066500000000001
 20
-5.9086000000000007
 30
0.0
 10
-3.6295100000000002
 20
-5.8476400000000002
 30
0.0
  0
SPLINE
  5
59
100
AcDbEntity
  8
���� 1
 62
     7
100
AcDbSpline
210
0.0
220
0.0
230
1.0
 70
     1
 71
     3
 72
    16
 73
    12
 74
     0
 42
0.0000000001
 43
0.0000000001
 40
0.0
 40
0.0
 40
0.0
 40
0.0
 40
0.3333333333333333
 40
0.3333333333333333
 40
0.3333333333333333
 40
0.3333333333333333
 40
0.6666666666666666
 40
0.6666666666666666
 40
0.6666666666666666
 40
0.6666666666666666
 40
1.0
 40
1.0
 40
1.0
 40
1.0
 10
-4.1857700000000007
 20
-5.9746400000000008
 30
0.0
 10
-4.1857700000000007
 20
-5.9746400000000008
 30
0.0
 10
-4.13497
 20
-5.9746400000000008
 30
0.0
 10
-4.13497
 20
-5.9746400000000008
 30
0.0
 10
-4.13497
 20
-5.9746400000000008
 30
0.0
 10
-4.1095700000000006
 20
-6.0737000000000005
 30
0.0
 10
-4.1095700000000006
 20
-6.1880000000000006
 30
0.0
 10
-4.0359100000000003
 20
-6.2515000000000009
 30
0.0
 10
-4.0359100000000003
 20
-6.2515000000000009
 30
0.0
 10
-4.2238700000000007
 20
-6.3277000000000001
 30
0.0
 10
-4.0841700000000003
 20
-6.0356000000000005
 30
0.0
 10
-4.1857700000000007
 20
-5.9746400000000008
 30
0.0
  0
SPLINE
  5
5A
100
AcDbEntity
  8
���� 1
 62
     7
100
AcDbSpline
210
0.0
220
0.0
230
1.0
 70
     1
 71
     3
 72
    12
 73
     8
 74
     0
 42
0.0000000001
 43
0.0000000001
 40
0.0
 40
0.0
 40
0.0
 40
0.0
 40
0.5
 40
0.5
 40
0.5
 40
0.5
 40
1.0
 40
1.0
 40
1.0
 40
1.0
 10
-4.8817300000000001
 20
-6.1245000000000003
 30
0.0
 10
-4.8817300000000001
 20
-6.1245000000000003
 30
0.0
 10
-4.8436300000000001
 20
-6.1753000000000009
 30
0.0
 10
-4.8436300000000001
 20
-6.1753000000000009
 30
0.0
 10
-4.8436300000000001
 20
-6.1753000000000009
 30
0.0
 10
-4.8690300000000004
 20
-6.1880000000000006
 30
0.0
 10
-4.8817300000000001
 20
-6.1499000000000006
 30
0.0
 10
-4.8817300000000001
 20
-6.1245000000000003
 30
0.0
  0
SPLINE
  5
5B
100
AcDbEntity
  8
���� 1
 62
     7
100
AcDbSpline
210
0.0
220
0.0
230
1.0
 70
     1
 71
     3
 72
   176
 73
   172
 74
     0
 42
0.0000000001
 43
0.0000000001
 40
0.0
 40
0.0
 40
0.0
 40
0.0
 40
0.0232558139534884
 40
0.0232558139534884
 40
0.0232558139534884
 40
0.0232558139534884
 40
0.0465116279069767
 40
0.0465116279069767
 40
0.0465116279069767
 40
0.0465116279069767
 40
0.0697674418604651
 40
0.0697674418604651
 40
0.0697674418604651
 40
0.0697674418604651
 40
0.0930232558139535
 40
0.0930232558139535
 40
0.0930232558139535
 40
0.0930232558139535
 40
0.1162790697674419
 40
0.1162790697674419
 40
0.1162790697674419
 40
0.1162790697674419
 40
0.1395348837209302
 40
0.1395348837209302
 40
0.1395348837209302
 40
0.1395348837209302
 40
0.1627906976744186
 40
0.1627906976744186
 40
0.1627906976744186
 40
0.1627906976744186
 40
0.186046511627907
 40
0.186046511627907
 40
0.186046511627907
 40
0.186046511627907
 40
0.2093023255813953
 40
0.2093023255813953
 40
0.2093023255813953
 40
0.2093023255813953
 40
0.2325581395348837
 40
0.2325581395348837
 40
0.2325581395348837
 40
0.2325581395348837
 40
0.2558139534883721
 40
0.2558139534883721
 40
0.2558139534883721
 40
0.2558139534883721
 40
0.2790697674418604
 40
0.2790697674418604
 40
0.2790697674418604
 40
0.2790697674418604
 40
0.3023255813953488
 40
0.3023255813953488
 40
0.3023255813953488
 40
0.3023255813953488
 40
0.3255813953488371
 40
0.3255813953488371
 40
0.3255813953488371
 40
0.3255813953488371
 40
0.3488372093023255
 40
0.3488372093023255
 40
0.3488372093023255
 40
0.3488372093023255
 40
0.3720930232558138
 40
0.3720930232558138
 40
0.3720930232558138
 40
0.3720930232558138
 40
0.3953488372093022
 40
0.3953488372093022
 40
0.3953488372093022
 40
0.3953488372093022
 40
0.4186046511627906
 40
0.4186046511627906
 40
0.4186046511627906
 40
0.4186046511627906
 40
0.4418604651162789
 40
0.4418604651162789
 40
0.4418604651162789
 40
0.4418604651162789
 40
0.4651162790697673
 40
0.4651162790697673
 40
0.4651162790697673
 40
0.4651162790697673
 40
0.4883720930232556
 40
0.4883720930232556
 40
0.4883720930232556
 40
0.4883720930232556
 40
0.511627906976744
 40
0.511627906976744
 40
0.511627906976744
 40
0.511627906976744
 40
0.5348837209302324
 40
0.5348837209302324
 40
0.5348837209302324
 40
0.5348837209302324
 40
0.5581395348837208
 40
0.5581395348837208
 40
0.5581395348837208
 40
0.5581395348837208
 40
0.5813953488372092
 40
0.5813953488372092
 40
0.5813953488372092
 40
0.5813953488372092
 40
0.6046511627906976
 40
0.6046511627906976
 40
0.6046511627906976
 40
0.6046511627906976
 40
0.6279069767441861
 40
0.6279069767441861
 40
0.6279069767441861
 40
0.6279069767441861
 40
0.6511627906976745
 40
0.6511627906976745
 40
0.6511627906976745
 40
0.6511627906976745
 40
0.6744186046511629
 40
0.6744186046511629
 40
0.6744186046511629
 40
0.6744186046511629
 40
0.6976744186046513
 40
0.6976744186046513
 40
0.6976744186046513
 40
0.6976744186046513
 40
0.7209302325581397
 40
0.7209302325581397
 40
0.7209302325581397
 40
0.7209302325581397
 40
0.7441860465116281
 40
0.7441860465116281
 40
0.7441860465116281
 40
0.7441860465116281
 40
0.7674418604651165
 40
0.7674418604651165
 40
0.7674418604651165
 40
0.7674418604651165
 40
0.790697674418605
 40
0.790697674418605
 40
0.790697674418605
 40
0.790697674418605
 40
0.8139534883720934
 40
0.8139534883720934
 40
0.8139534883720934
 40
0.8139534883720934
 40
0.8372093023255818
 40
0.8372093023255818
 40
0.8372093023255818
 40
0.8372093023255818
 40
0.8604651162790702
 40
0.8604651162790702
 40
0.8604651162790702
 40
0.8604651162790702
 40
0.8837209302325586
 40
0.8837209302325586
 40
0.8837209302325586
 40
0.8837209302325586
 40
0.906976744186047
 40
0.906976744186047
 40
0.906976744186047
 40
0.906976744186047
 40
0.9302325581395354
 40
0.9302325581395354
 40
0.9302325581395354
 40
0.9302325581395354
 40
0.9534883720930238
 40
0.9534883720930238
 40
0.9534883720930238
 40
0.9534883720930238
 40
0.9767441860465123
 40
0.9767441860465123
 40
0.9767441860465123
 40
0.9767441860465123
 40
1.0
 40
1.0
 40
1.0
 40
1.0
 10
-3.7742900000000001
 20
0.15437
 30
0.0
 10
-3.7742900000000001
 20
0.15437
 30
0.0
 10
-3.9647900000000003
 20
-0.00564
 30
0.0
 10
-3.9368500000000002
 20
-0.52888
 30
0.0
 10
-3.9368500000000002
 20
-0.52888
 30
0.0
 10
-3.9089100000000001
 20
-1.0495800000000002
 30
0.0
 10
-3.8098500000000004
 20
-1.12324
 30
0.0
 10
-3.8098500000000004
 20
-1.12324
 30
0.0
 10
-3.8098500000000004
 20
-1.12324
 30
0.0
 10
-3.8098500000000004
 20
-1.12324
 30
0.0
 10
-3.9368500000000002
 20
-1.1410200000000001
 30
0.0
 10
-4.0714700000000006
 20
-1.1943600000000001
 30
0.0
 10
-4.0714700000000006
 20
-1.1943600000000001
 30
0.0
 10
-4.2060900000000006
 20
-1.25024
 30
0.0
 10
-4.2441900000000006
 20
-1.2756400000000001
 30
0.0
 10
-4.2441900000000006
 20
-1.2756400000000001
 30
0.0
 10
-4.2441900000000006
 20
-1.2756400000000001
 30
0.0
 10
-4.2441900000000006
 20
-1.2756400000000001
 30
0.0
 10
-3.9901900000000001
 20
-1.2858000000000001
 30
0.0
 10
-3.7844500000000001
 20
-1.2858000000000001
 30
0.0
 10
-3.7844500000000001
 20
-1.2858000000000001
 30
0.0
 10
-3.5761700000000003
 20
-1.2858000000000001
 30
0.0
 10
-3.5482300000000002
 20
-1.3569200000000001
 30
0.0
 10
-3.4415500000000003
 20
-1.4026400000000001
 30
0.0
 10
-3.4415500000000003
 20
-1.4026400000000001
 30
0.0
 10
-3.3323300000000002
 20
-1.4483600000000001
 30
0.0
 10
-3.1977100000000003
 20
-1.5296400000000001
 30
0.0
 10
-3.1977100000000003
 20
-1.5296400000000001
 30
0.0
 10
-3.1977100000000003
 20
-1.5296400000000001
 30
0.0
 10
-3.1977100000000003
 20
-1.5296400000000001
 30
0.0
 10
-3.1875500000000003
 20
-1.7531600000000001
 30
0.0
 10
-3.1621500000000005
 20
-1.8877800000000002
 30
0.0
 10
-3.1621500000000005
 20
-1.8877800000000002
 30
0.0
 10
-3.1342100000000004
 20
-2.02494
 30
0.0
 10
-3.0453100000000002
 20
-2.1595600000000004
 30
0.0
 10
-2.8294100000000002
 20
-2.2408400000000004
 30
0.0
 10
-2.8294100000000002
 20
-2.2408400000000004
 30
0.0
 10
-2.61097
 20
-2.3221200000000004
 30
0.0
 10
-2.52969
 20
-2.3754600000000003
 30
0.0
 10
-2.3772900000000003
 20
-2.3754600000000003
 30
0.0
 10
-2.3772900000000003
 20
-2.3754600000000003
 30
0.0
 10
-2.2248900000000003
 20
-2.3754600000000003
 30
0.0
 10
-2.1436100000000002
 20
-2.26878
 30
0.0
 10
-1.9988300000000001
 20
-2.2230600000000003
 30
0.0
 10
-1.9988300000000001
 20
-2.2230600000000003
 30
0.0
 10
-1.8540500000000002
 20
-2.1773400000000001
 30
0.0
 10
-1.7473700000000001
 20
-1.7988800000000003
 30
0.0
 10
-1.7473700000000001
 20
-1.7988800000000003
 30
0.0
 10
-1.7473700000000001
 20
-1.7988800000000003
 30
0.0
 10
-1.7473700000000001
 20
-1.7988800000000003
 30
0.0
 10
-1.4679700000000002
 20
-1.7176000000000002
 30
0.0
 10
-1.33081
 20
-1.6363200000000002
 30
0.0
 10
-1.33081
 20
-1.6363200000000002
 30
0.0
 10
-1.1961900000000001
 20
-1.5550400000000002
 30
0.0
 10
-1.1428500000000001
 20
-1.5296400000000001
 30
0.0
 10
-1.1428500000000001
 20
-1.5296400000000001
 30
0.0
 10
-1.1428500000000001
 20
-1.5296400000000001
 30
0.0
 10
-1.1428500000000001
 20
-1.5296400000000001
 30
0.0
 10
-0.9802900000000001
 20
-1.20452
 30
0.0
 10
-0.8634500000000001
 20
-1.0953000000000002
 30
0.0
 10
-0.8634500000000001
 20
-1.0953000000000002
 30
0.0
 10
-0.7466100000000001
 20
-0.9886200000000001
 30
0.0
 10
-0.6297700000000001
 20
-0.8336800000000001
 30
0.0
 10
-0.6297700000000001
 20
-0.8336800000000001
 30
0.0
 10
-0.6297700000000001
 20
-0.8336800000000001
 30
0.0
 10
-0.6297700000000001
 20
-0.8336800000000001
 30
0.0
 10
-0.65517
 20
-0.6711200000000001
 30
0.0
 10
-0.65517
 20
-0.5009400000000001
 30
0.0
 10
-0.65517
 20
-0.5009400000000001
 30
0.0
 10
-0.65517
 20
-0.3307600000000001
 30
0.0
 10
-0.6653300000000001
 20
-0.3104400000000001
 30
0.0
 10
-0.6653300000000001
 20
-0.3104400000000001
 30
0.0
 10
-0.6653300000000001
 20
-0.3104400000000001
 30
0.0
 10
-0.6653300000000001
 20
-0.3104400000000001
 30
0.0
 10
-0.7288300000000001
 20
-0.69906
 30
0.0
 10
-0.7466100000000001
 20
-0.7701800000000001
 30
0.0
 10
-0.7466100000000001
 20
-0.7701800000000001
 30
0.0
 10
-0.76439
 20
-0.84384
 30
0.0
 10
-0.8532900000000001
 20
-0.9149600000000001
 30
0.0
 10
-1.0082300000000002
 20
-1.1130800000000001
 30
0.0
 10
-1.0082300000000002
 20
-1.1130800000000001
 30
0.0
 10
-1.1606300000000001
 20
-1.3112000000000001
 30
0.0
 10
-1.2419100000000001
 20
-1.4839200000000001
 30
0.0
 10
-1.2419100000000001
 20
-1.4839200000000001
 30
0.0
 10
-1.2419100000000001
 20
-1.4839200000000001
 30
0.0
 10
-1.2419100000000001
 20
-1.4839200000000001
 30
0.0
 10
-1.6102100000000001
 20
-1.6363200000000002
 30
0.0
 10
-1.7372100000000001
 20
-1.67188
 30
0.0
 10
-1.7372100000000001
 20
-1.67188
 30
0.0
 10
-1.8642100000000001
 20
-1.7099800000000001
 30
0.0
 10
-1.8819900000000001
 20
-1.7633200000000002
 30
0.0
 10
-1.8819900000000001
 20
-1.7633200000000002
 30
0.0
 10
-1.8819900000000001
 20
-1.7633200000000002
 30
0.0
 10
-1.8819900000000001
 20
-1.7633200000000002
 30
0.0
 10
-1.8642100000000001
 20
-1.8801600000000001
 30
0.0
 10
-1.8642100000000001
 20
-1.8801600000000001
 30
0.0
 10
-1.8642100000000001
 20
-1.8801600000000001
 30
0.0
 10
-1.8642100000000001
 20
-1.8801600000000001
 30
0.0
 10
-2.0445500000000001
 20
-1.7988800000000003
 30
0.0
 10
-2.2248900000000003
 20
-1.7353800000000001
 30
0.0
 10
-2.2248900000000003
 20
-1.7353800000000001
 30
0.0
 10
-2.40523
 20
-1.67188
 30
0.0
 10
-2.5119100000000003
 20
-1.6998200000000001
 30
0.0
 10
-2.5119100000000003
 20
-1.6998200000000001
 30
0.0
 10
-2.5119100000000003
 20
-1.6998200000000001
 30
0.0
 10
-2.5119100000000003
 20
-1.6998200000000001
 30
0.0
 10
-2.9081500000000005
 20
-1.9970000000000001
 30
0.0
 10
-2.9081500000000005
 20
-1.9970000000000001
 30
0.0
 10
-2.9081500000000005
 20
-1.9970000000000001
 30
0.0
 10
-2.9081500000000005
 20
-1.9970000000000001
 30
0.0
 10
-2.6566900000000002
 20
-1.9081000000000001
 30
0.0
 10
-2.5576300000000001
 20
-1.8268200000000001
 30
0.0
 10
-2.5576300000000001
 20
-1.8268200000000001
 30
0.0
 10
-2.4585700000000004
 20
-1.7455400000000001
 30
0.0
 10
-2.3315700000000001
 20
-1.7988800000000003
 30
0.0
 10
-2.1613900000000004
 20
-1.8446000000000002
 30
0.0
 10
-2.1613900000000004
 20
-1.8446000000000002
 30
0.0
 10
-1.9912100000000001
 20
-1.8877800000000002
 30
0.0
 10
-1.9277100000000003
 20
-1.9614400000000001
 30
0.0
 10
-1.9277100000000003
 20
-1.9614400000000001
 30
0.0
 10
-1.9277100000000003
 20
-1.9614400000000001
 30
0.0
 10
-1.9277100000000003
 20
-1.9614400000000001
 30
0.0
 10
-2.02677
 20
-2.1671800000000001
 30
0.0
 10
-2.23251
 20
-2.23068
 30
0.0
 10
-2.23251
 20
-2.23068
 30
0.0
 10
-2.4407900000000002
 20
-2.2941800000000003
 30
0.0
 10
-2.7379700000000002
 20
-2.2230600000000003
 30
0.0
 10
-2.9284700000000004
 20
-2.10622
 30
0.0
 10
-2.9284700000000004
 20
-2.10622
 30
0.0
 10
-3.1164300000000003
 20
-1.9893800000000001
 30
0.0
 10
-3.1265900000000002
 20
-1.7531600000000001
 30
0.0
 10
-3.1265900000000002
 20
-1.6464800000000002
 30
0.0
 10
-3.1265900000000002
 20
-1.6464800000000002
 30
0.0
 10
-3.1265900000000002
 20
-1.5372600000000001
 30
0.0
 10
-3.1164300000000003
 20
-1.5093200000000002
 30
0.0
 10
-3.1164300000000003
 20
-1.5093200000000002
 30
0.0
 10
-3.1164300000000003
 20
-1.5093200000000002
 30
0.0
 10
-3.1164300000000003
 20
-1.5093200000000002
 30
0.0
 10
-2.8192500000000003
 20
-1.7176000000000002
 30
0.0
 10
-2.8192500000000003
 20
-1.7176000000000002
 30
0.0
 10
-2.8192500000000003
 20
-1.7176000000000002
 30
0.0
 10
-2.8192500000000003
 20
-1.7176000000000002
 30
0.0
 10
-2.9284700000000004
 20
-1.5652000000000001
 30
0.0
 10
-3.0173700000000001
 20
-1.4839200000000001
 30
0.0
 10
-3.0173700000000001
 20
-1.4839200000000001
 30
0.0
 10
-3.1088100000000001
 20
-1.4026400000000001
 30
0.0
 10
-3.0986500000000001
 20
-1.3493000000000002
 30
0.0
 10
-3.0630900000000003
 20
-1.2400800000000001
 30
0.0
 10
-3.0630900000000003
 20
-1.2400800000000001
 30
0.0
 10
-3.0275300000000001
 20
-1.1308600000000002
 30
0.0
 10
-2.9360900000000001
 20
-1.04196
 30
0.0
 10
-2.9360900000000001
 20
-1.04196
 30
0.0
 10
-2.9360900000000001
 20
-1.04196
 30
0.0
 10
-2.9360900000000001
 20
-1.04196
 30
0.0
 10
-2.9995900000000004
 20
-0.9962400000000001
 30
0.0
 10
-3.0884900000000002
 20
-1.1130800000000001
 30
0.0
 10
-3.0884900000000002
 20
-1.1130800000000001
 30
0.0
 10
-3.1799300000000001
 20
-1.2299200000000001
 30
0.0
 10
-3.1875500000000003
 20
-1.3848600000000002
 30
0.0
 10
-3.1875500000000003
 20
-1.3848600000000002
 30
0.0
 10
-3.1875500000000003
 20
-1.3848600000000002
 30
0.0
 10
-3.1875500000000003
 20
-1.3848600000000002
 30
0.0
 10
-3.5304500000000001
 20
-1.2223000000000002
 30
0.0
 10
-3.6041100000000004
 20
-1.1765800000000002
 30
0.0
 10
-3.6041100000000004
 20
-1.1765800000000002
 30
0.0
 10
-3.6752300000000004
 20
-1.1308600000000002
 30
0.0
 10
-3.8733500000000003
 20
-0.7346200000000001
 30
0.0
 10
-3.8657300000000001
 20
-0.3739400000000001
 30
0.0
 10
-3.8657300000000001
 20
-0.3739400000000001
 30
0.0
 10
-3.8555700000000002
 20
-0.01326
 30
0.0
 10
-3.7742900000000001
 20
0.15437
 30
0.0
 10
-3.7742900000000001
 20
0.15437
 30
0.0
  0
SPLINE
  5
5C
100
AcDbEntity
  8
���� 1
 62
     7
100
AcDbSpline
210
0.0
220
0.0
230
1.0
 70
     1
 71
     3
 72
    52
 73
    48
 74
     0
 42
0.0000000001
 43
0.0000000001
 40
0.0
 40
0.0
 40
0.0
 40
0.0
 40
0.0833333333333333
 40
0.0833333333333333
 40
0.0833333333333333
 40
0.0833333333333333
 40
0.1666666666666667
 40
0.1666666666666667
 40
0.1666666666666667
 40
0.1666666666666667
 40
0.25
 40
0.25
 40
0.25
 40
0.25
 40
0.3333333333333333
 40
0.3333333333333333
 40
0.3333333333333333
 40
0.3333333333333333
 40
0.4166666666666666
 40
0.4166666666666666
 40
0.4166666666666666
 40
0.4166666666666666
 40
0.4999999999999999
 40
0.4999999999999999
 40
0.4999999999999999
 40
0.4999999999999999
 40
0.5833333333333333
 40
0.5833333333333333
 40
0.5833333333333333
 40
0.5833333333333333
 40
0.6666666666666666
 40
0.6666666666666666
 40
0.6666666666666666
 40
0.6666666666666666
 40
0.75
 40
0.75
 40
0.75
 40
0.75
 40
0.8333333333333334
 40
0.8333333333333334
 40
0.8333333333333334
 40
0.8333333333333334
 40
0.9166666666666667
 40
0.9166666666666667
 40
0.9166666666666667
 40
0.9166666666666667
 40
1.0
 40
1.0
 40
1.0
 40
1.0
 10
-3.2154900000000004
 20
0.9214500000000001
 30
0.0
 10
-3.2154900000000004
 20
0.9214500000000001
 30
0.0
 10
-3.1164300000000003
 20
1.0027300000000001
 30
0.0
 10
-2.9716500000000003
 20
1.0560700000000001
 30
0.0
 10
-2.9716500000000003
 20
1.0560700000000001
 30
0.0
 10
-2.8294100000000002
 20
1.10941
 30
0.0
 10
-2.8725900000000002
 20
1.1729100000000001
 30
0.0
 10
-3.0808700000000004
 20
1.3253100000000002
 30
0.0
 10
-3.0808700000000004
 20
1.3253100000000002
 30
0.0
 10
-3.2891500000000002
 20
1.4802500000000001
 30
0.0
 10
-3.1977100000000003
 20
1.5234300000000001
 30
0.0
 10
-3.4415500000000003
 20
1.56915
 30
0.0
 10
-3.4415500000000003
 20
1.56915
 30
0.0
 10
-3.6853900000000004
 20
1.61487
 30
0.0
 10
-3.7031700000000005
 20
1.5513700000000001
 30
0.0
 10
-3.7565100000000005
 20
1.4700900000000001
 30
0.0
 10
-3.7565100000000005
 20
1.4700900000000001
 30
0.0
 10
-3.8098500000000004
 20
1.3888100000000001
 30
0.0
 10
-3.8098500000000004
 20
1.36341
 30
0.0
 10
-3.8098500000000004
 20
1.36341
 30
0.0
 10
-3.8098500000000004
 20
1.36341
 30
0.0
 10
-3.8098500000000004
 20
1.36341
 30
0.0
 10
-3.8479500000000004
 20
1.48787
 30
0.0
 10
-3.7209500000000002
 20
1.61487
 30
0.0
 10
-3.7209500000000002
 20
1.61487
 30
0.0
 10
-3.5939500000000004
 20
1.7418700000000003
 30
0.0
 10
-3.5482300000000002
 20
1.7494900000000002
 30
0.0
 10
-3.3247100000000001
 20
1.6326500000000002
 30
0.0
 10
-3.3247100000000001
 20
1.6326500000000002
 30
0.0
 10
-3.0986500000000001
 20
1.5158100000000001
 30
0.0
 10
-2.9818100000000003
 20
1.31769
 30
0.0
 10
-2.8548100000000001
 20
1.2541900000000001
 30
0.0
 10
-2.8548100000000001
 20
1.2541900000000001
 30
0.0
 10
-2.7278100000000003
 20
1.19069
 30
0.0
 10
-2.56779
 20
1.1271900000000001
 30
0.0
 10
-2.56779
 20
1.1271900000000001
 30
0.0
 10
-2.56779
 20
1.1271900000000001
 30
0.0
 10
-2.56779
 20
1.1271900000000001
 30
0.0
 10
-2.7659100000000003
 20
1.0560700000000001
 30
0.0
 10
-2.9005300000000003
 20
0.9646300000000001
 30
0.0
 10
-2.9005300000000003
 20
0.9646300000000001
 30
0.0
 10
-3.0351500000000002
 20
0.8757300000000001
 30
0.0
 10
-3.3069300000000004
 20
0.7766700000000001
 30
0.0
 10
-3.3069300000000004
 20
0.7766700000000001
 30
0.0
 10
-3.3069300000000004
 20
0.7766700000000001
 30
0.0
 10
-3.3069300000000004
 20
0.7766700000000001
 30
0.0
 10
-3.2154900000000004
 20
0.9214500000000001
 30
0.0
 10
-3.2154900000000004
 20
0.9214500000000001
 30
0.0
  0
SPLINE
  5
5D
100
AcDbEntity
  8
���� 1
 62
     7
100
AcDbSpline
210
0.0
220
0.0
230
1.0
 70
     1
 71
     3
 72
    52
 73
    48
 74
     0
 42
0.0000000001
 43
0.0000000001
 40
0.0
 40
0.0
 40
0.0
 40
0.0
 40
0.0833333333333333
 40
0.0833333333333333
 40
0.0833333333333333
 40
0.0833333333333333
 40
0.1666666666666667
 40
0.1666666666666667
 40
0.1666666666666667
 40
0.1666666666666667
 40
0.25
 40
0.25
 40
0.25
 40
0.25
 40
0.3333333333333333
 40
0.3333333333333333
 40
0.3333333333333333
 40
0.3333333333333333
 40
0.4166666666666666
 40
0.4166666666666666
 40
0.4166666666666666
 40
0.4166666666666666
 40
0.4999999999999999
 40
0.4999999999999999
 40
0.4999999999999999
 40
0.4999999999999999
 40
0.5833333333333333
 40
0.5833333333333333
 40
0.5833333333333333
 40
0.5833333333333333
 40
0.6666666666666666
 40
0.6666666666666666
 40
0.6666666666666666
 40
0.6666666666666666
 40
0.75
 40
0.75
 40
0.75
 40
0.75
 40
0.8333333333333334
 40
0.8333333333333334
 40
0.8333333333333334
 40
0.8333333333333334
 40
0.9166666666666667
 40
0.9166666666666667
 40
0.9166666666666667
 40
0.9166666666666667
 40
1.0
 40
1.0
 40
1.0
 40
1.0
 10
-2.7379700000000002
 20
-0.95052
 30
0.0
 10
-2.7379700000000002
 20
-0.95052
 30
0.0
 10
-2.5576300000000001
 20
-1.1943600000000001
 30
0.0
 10
-2.5042900000000001
 20
-1.2858000000000001
 30
0.0
 10
-2.5042900000000001
 20
-1.2858000000000001
 30
0.0
 10
-2.4484100000000004
 20
-1.3747
 30
0.0
 10
-2.39507
 20
-1.3924800000000002
 30
0.0
 10
-2.39507
 20
-1.3924800000000002
 30
0.0
 10
-2.39507
 20
-1.3924800000000002
 30
0.0
 10
-2.39507
 20
-1.3924800000000002
 30
0.0
 10
-2.4763500000000001
 20
-1.1588000000000001
 30
0.0
 10
-2.56779
 20
-1.0495800000000002
 30
0.0
 10
-2.56779
 20
-1.0495800000000002
 30
0.0
 10
-2.6566900000000002
 20
-0.9429000000000001
 30
0.0
 10
-2.56779
 20
-0.9251200000000001
 30
0.0
 10
-2.3493500000000003
 20
-0.9962400000000001
 30
0.0
 10
-2.3493500000000003
 20
-0.9962400000000001
 30
0.0
 10
-2.1334500000000003
 20
-1.0699000000000001
 30
0.0
 10
-2.01661
 20
-1.0953000000000002
 30
0.0
 10
-2.01661
 20
-1.0953000000000002
 30
0.0
 10
-2.01661
 20
-1.0953000000000002
 30
0.0
 10
-2.01661
 20
-1.0953000000000002
 30
0.0
 10
-2.1334500000000003
 20
-1.1588000000000001
 30
0.0
 10
-2.18933
 20
-1.20452
 30
0.0
 10
-2.18933
 20
-1.20452
 30
0.0
 10
-2.2426700000000004
 20
-1.25024
 30
0.0
 10
-2.2502900000000001
 20
-1.2578600000000002
 30
0.0
 10
-2.2502900000000001
 20
-1.2578600000000002
 30
0.0
 10
-2.2502900000000001
 20
-1.2578600000000002
 30
0.0
 10
-2.2502900000000001
 20
-1.2578600000000002
 30
0.0
 10
-2.1690100000000001
 20
-1.2299200000000001
 30
0.0
 10
-2.0445500000000001
 20
-1.1765800000000002
 30
0.0
 10
-2.0445500000000001
 20
-1.1765800000000002
 30
0.0
 10
-1.9175500000000001
 20
-1.12324
 30
0.0
 10
-1.8997700000000002
 20
-1.08768
 30
0.0
 10
-1.8997700000000002
 20
-1.08768
 30
0.0
 10
-1.8997700000000002
 20
-1.08768
 30
0.0
 10
-1.8997700000000002
 20
-1.08768
 30
0.0
 10
-2.1334500000000003
 20
-0.95052
 30
0.0
 10
-2.3874500000000003
 20
-0.8971800000000001
 30
0.0
 10
-2.3874500000000003
 20
-0.8971800000000001
 30
0.0
 10
-2.6389100000000001
 20
-0.84384
 30
0.0
 10
-2.6389100000000001
 20
-0.84384
 30
0.0
 10
-2.6846300000000003
 20
-0.84384
 30
0.0
 10
-2.6846300000000003
 20
-0.84384
 30
0.0
 10
-2.7278100000000003
 20
-0.84384
 30
0.0
 10
-2.7379700000000002
 20
-0.95052
 30
0.0
 10
-2.7379700000000002
 20
-0.95052
 30
0.0
  0
ENDSEC
  0
SECTION
  2
OBJECTS
  0
DICTIONARY
  5
19
100
AcDbDictionary
280
     0
281
     1
  3
ACAD_GROUP
350
1A
  3
ACAD_MLINESTYLE
350
1B
  3
ACAD_LAYOUT
350
1E
  3
ACAD_PLOTSETTINGS
350
22
  3
ACAD_PLOTSTYLENAME
350
1F
  3
ACAD_WIPEOUT_VARS
350
23
  0
DICTIONARY
  5
1A
102
{ACAD_REACTORS
330
19
102
}
100
AcDbDictionary
280
     0
281
     1
  0
DICTIONARY
  5
1B
102
{ACAD_REACTORS
330
19
102
}
100
AcDbDictionary
280
     0
281
     1
  3
Standard
350
1C
  0
MLINESTYLE
  5
1C
102
{ACAD_REACTORS
330
1B
102
}
100
AcDbMlineStyle
  2
Standard
 70
     0
  3

 62
     0
 51
90.0
 52
90.0
 71
     2
 49
0.5
 62
   256
  6
BYLAYER
 49
-0.5
 62
   256
  6
BYLAYER
  0
ACDBDICTIONARYWDFLT
  5
1F
102
{ACAD_REACTORS
330
19
102
}
100
AcDbDictionary
281
     1
  3
Normal
350
1D
100
AcDbDictionaryWithDefault
340
1D
  0
ACDBPLACEHOLDER
  5
1D
102
{ACAD_REACTORS
330
1F
102
}
  0
LAYOUT
  5
20
102
{ACAD_REACTORS
330
1E
102
}
100
AcDbPlotSettings
  1

  2

  4

  6

 40
0.0
 41
0.0
 42
0.0
 43
0.0
 44
0.0
 45
0.0
 46
0.0
 47
0.0
 48
0.0
 49
0.0
140
0.0
141
0.0
142
1.0
143
1.0
 70
  1024
 72
     0
 73
     0
 74
     0
  7

 75
     0
147
1.0
148
0.0
149
0.0
100
AcDbLayout
  1
Model
 70
     0
 71
     0
 10
0.0
 20
0.0
 11
0.0
 21
0.0
 12
0.0
 22
0.0
 32
0.0
 14
0.0
 24
0.0
 34
0.0
 15
0.0
 25
0.0
 35
0.0
146
0.0
 13
0.0
 23
0.0
 33
0.0
 16
0.0
 26
0.0
 36
0.0
 17
0.0
 27
0.0
 37
0.0
 76
     0
330
A
331
0
345
0
346
0
  0
LAYOUT
  5
21
102
{ACAD_REACTORS
330
1E
102
}
100
AcDbPlotSettings
  1

  2

  4

  6

 40
0.0
 41
0.0
 42
0.0
 43
0.0
 44
0.0
 45
0.0
 46
0.0
 47
0.0
 48
0.0
 49
0.0
140
0.0
141
0.0
142
1.0
143
1.0
 70
     0
 72
     0
 73
     0
 74
     0
  7

 75
     0
147
1.0
148
0.0
149
0.0
100
AcDbLayout
  1
Layout1
 70
     0
 71
     0
 10
0.0
 20
0.0
 11
0.0
 21
0.0
 12
0.0
 22
0.0
 32
0.0
 14
0.0
 24
0.0
 34
0.0
 15
0.0
 25
0.0
 35
0.0
146
0.0
 13
0.0
 23
0.0
 33
0.0
 16
0.0
 26
0.0
 36
0.0
 17
0.0
 27
0.0
 37
0.0
 76
     0
330
B
331
0
345
0
346
0
  0
DICTIONARY
  5
1E
102
{ACAD_REACTORS
330
19
102
}
100
AcDbDictionary
280
     0
281
     1
  3
Layout1
350
21
  3
Model
350
20
  0
DICTIONARY
  5
22
102
{ACAD_REACTORS
330
19
102
}
100
AcDbDictionary
280
     0
281
     1
  0
WIPEOUTVARIABLES
  5
23
100
AcDbWipeoutVariables
 70
     1
  0
ENDSEC
  0
EOF
