 0 
SECTION
 2 
ENTITIES
 0 
LINE
 10 
 268.8 
 20 
 500.4 
 30 
 0 
 11 
 268.524780273438 
 21 
 500.048779296875 
 31 
 0 
 0 
LINE
 10 
 268.524780273438 
 20 
 500.048779296875 
 30 
 0 
 11 
 268.302392578125 
 21 
 499.510400390625 
 31 
 0 
 0 
LINE
 10 
 268.302392578125 
 20 
 499.510400390625 
 30 
 0 
 11 
 268.137622070313 
 21 
 498.83759765625 
 31 
 0 
 0 
LINE
 10 
 268.137622070313 
 20 
 498.83759765625 
 30 
 0 
 11 
 268.035205078125 
 21 
 498.083203125 
 31 
 0 
 0 
LINE
 10 
 268.035205078125 
 20 
 498.083203125 
 30 
 0 
 11 
 268 
 21 
 497.3 
 31 
 0 
 0 
LINE
 10 
 268 
 20 
 497.3 
 30 
 0 
 11 
 267.955200195313 
 21 
 496.6 
 31 
 0 
 0 
LINE
 10 
 267.955200195313 
 20 
 496.6 
 30 
 0 
 11 
 267.833618164063 
 21 
 495.97197265625 
 31 
 0 
 0 
LINE
 10 
 267.833618164063 
 20 
 495.97197265625 
 30 
 0 
 11 
 267.65439453125 
 21 
 495.464013671875 
 31 
 0 
 0 
LINE
 10 
 267.65439453125 
 20 
 495.464013671875 
 30 
 0 
 11 
 267.436791992188 
 21 
 495.1240234375 
 31 
 0 
 0 
LINE
 10 
 267.436791992188 
 20 
 495.1240234375 
 30 
 0 
 11 
 267.2 
 21 
 495 
 31 
 0 
 0 
LINE
 10 
 267.2 
 20 
 495 
 30 
 0 
 11 
 266.985595703125 
 21 
 494.64638671875 
 31 
 0 
 0 
LINE
 10 
 266.985595703125 
 20 
 494.64638671875 
 30 
 0 
 11 
 266.82880859375 
 21 
 493.6591796875 
 31 
 0 
 0 
LINE
 10 
 266.82880859375 
 20 
 493.6591796875 
 30 
 0 
 11 
 266.739208984375 
 21 
 492.148828125 
 31 
 0 
 0 
LINE
 10 
 266.739208984375 
 20 
 492.148828125 
 30 
 0 
 11 
 266.726391601563 
 21 
 490.225634765625 
 31 
 0 
 0 
LINE
 10 
 266.726391601563 
 20 
 490.225634765625 
 30 
 0 
 11 
 266.8 
 21 
 488 
 31 
 0 
 0 
LINE
 10 
 266.8 
 20 
 488 
 30 
 0 
 11 
 267.2 
 21 
 481 
 31 
 0 
 0 
LINE
 10 
 267.2 
 20 
 481 
 30 
 0 
 11 
 264.6 
 21 
 481 
 31 
 0 
 0 
LINE
 10 
 264.6 
 20 
 481 
 30 
 0 
 11 
 263.42958984375 
 21 
 480.885595703125 
 31 
 0 
 0 
LINE
 10 
 263.42958984375 
 20 
 480.885595703125 
 30 
 0 
 11 
 262.484790039063 
 21 
 480.46884765625 
 31 
 0 
 0 
LINE
 10 
 262.484790039063 
 20 
 480.46884765625 
 30 
 0 
 11 
 261.655200195313 
 21 
 479.639208984375 
 31 
 0 
 0 
LINE
 10 
 261.655200195313 
 20 
 479.639208984375 
 30 
 0 
 11 
 260.830395507813 
 21 
 478.28642578125 
 31 
 0 
 0 
LINE
 10 
 260.830395507813 
 20 
 478.28642578125 
 30 
 0 
 11 
 259.9 
 21 
 476.3 
 31 
 0 
 0 
LINE
 10 
 259.9 
 20 
 476.3 
 30 
 0 
 11 
 259.197583007813 
 21 
 474.60556640625 
 31 
 0 
 0 
LINE
 10 
 259.197583007813 
 20 
 474.60556640625 
 30 
 0 
 11 
 258.552807617188 
 21 
 472.848779296875 
 31 
 0 
 0 
LINE
 10 
 258.552807617188 
 20 
 472.848779296875 
 30 
 0 
 11 
 257.999194335938 
 21 
 471.159228515625 
 31 
 0 
 0 
LINE
 10 
 257.999194335938 
 20 
 471.159228515625 
 30 
 0 
 11 
 257.57041015625 
 21 
 469.66640625 
 31 
 0 
 0 
LINE
 10 
 257.57041015625 
 20 
 469.66640625 
 30 
 0 
 11 
 257.3 
 21 
 468.5 
 31 
 0 
 0 
LINE
 10 
 257.3 
 20 
 468.5 
 30 
 0 
 11 
 256.8 
 21 
 465.5 
 31 
 0 
 0 
LINE
 10 
 256.8 
 20 
 465.5 
 30 
 0 
 11 
 244.2 
 21 
 471.7 
 31 
 0 
 0 
LINE
 10 
 244.2 
 20 
 471.7 
 30 
 0 
 11 
 237.02080078125 
 21 
 475.113623046875 
 31 
 0 
 0 
LINE
 10 
 237.02080078125 
 20 
 475.113623046875 
 30 
 0 
 11 
 230.542407226563 
 21 
 477.960791015625 
 31 
 0 
 0 
LINE
 10 
 230.542407226563 
 20 
 477.960791015625 
 30 
 0 
 11 
 225.03359375 
 21 
 480.131201171875 
 31 
 0 
 0 
LINE
 10 
 225.03359375 
 20 
 480.131201171875 
 30 
 0 
 11 
 220.763208007813 
 21 
 481.514404296875 
 31 
 0 
 0 
LINE
 10 
 220.763208007813 
 20 
 481.514404296875 
 30 
 0 
 11 
 218 
 21 
 482 
 31 
 0 
 0 
LINE
 10 
 218 
 20 
 482 
 30 
 0 
 11 
 217.42080078125 
 21 
 481.874365234375 
 31 
 0 
 0 
LINE
 10 
 217.42080078125 
 20 
 481.874365234375 
 30 
 0 
 11 
 216.798388671875 
 21 
 481.523193359375 
 31 
 0 
 0 
LINE
 10 
 216.798388671875 
 20 
 481.523193359375 
 30 
 0 
 11 
 216.185595703125 
 21 
 480.984814453125 
 31 
 0 
 0 
LINE
 10 
 216.185595703125 
 20 
 480.984814453125 
 30 
 0 
 11 
 215.635205078125 
 21 
 480.297607421875 
 31 
 0 
 0 
LINE
 10 
 215.635205078125 
 20 
 480.297607421875 
 30 
 0 
 11 
 215.2 
 21 
 479.5 
 31 
 0 
 0 
LINE
 10 
 215.2 
 20 
 479.5 
 30 
 0 
 11 
 214.69521484375 
 21 
 478.356787109375 
 31 
 0 
 0 
LINE
 10 
 214.69521484375 
 20 
 478.356787109375 
 30 
 0 
 11 
 214.54560546875 
 21 
 477.626416015625 
 31 
 0 
 0 
LINE
 10 
 214.54560546875 
 20 
 477.626416015625 
 30 
 0 
 11 
 214.818408203125 
 21 
 477.217626953125 
 31 
 0 
 0 
LINE
 10 
 214.818408203125 
 20 
 477.217626953125 
 30 
 0 
 11 
 215.580810546875 
 21 
 477.039208984375 
 31 
 0 
 0 
LINE
 10 
 215.580810546875 
 20 
 477.039208984375 
 30 
 0 
 11 
 216.9 
 21 
 477 
 31 
 0 
 0 
LINE
 10 
 216.9 
 20 
 477 
 30 
 0 
 11 
 223.216015625 
 21 
 475.56318359375 
 31 
 0 
 0 
LINE
 10 
 223.216015625 
 20 
 475.56318359375 
 30 
 0 
 11 
 232.7240234375 
 21 
 472.033642578125 
 31 
 0 
 0 
LINE
 10 
 232.7240234375 
 20 
 472.033642578125 
 30 
 0 
 11 
 242.784008789063 
 21 
 467.582421875 
 31 
 0 
 0 
LINE
 10 
 242.784008789063 
 20 
 467.582421875 
 30 
 0 
 11 
 250.756005859375 
 21 
 463.380810546875 
 31 
 0 
 0 
LINE
 10 
 250.756005859375 
 20 
 463.380810546875 
 30 
 0 
 11 
 254 
 21 
 460.6 
 31 
 0 
 0 
LINE
 10 
 254 
 20 
 460.6 
 30 
 0 
 11 
 253.79599609375 
 21 
 459.985546875 
 31 
 0 
 0 
LINE
 10 
 253.79599609375 
 20 
 459.985546875 
 30 
 0 
 11 
 253.231982421875 
 21 
 459.260791015625 
 31 
 0 
 0 
LINE
 10 
 253.231982421875 
 20 
 459.260791015625 
 30 
 0 
 11 
 252.380004882813 
 21 
 458.483203125 
 31 
 0 
 0 
LINE
 10 
 252.380004882813 
 20 
 458.483203125 
 30 
 0 
 11 
 251.31201171875 
 21 
 457.710400390625 
 31 
 0 
 0 
LINE
 10 
 251.31201171875 
 20 
 457.710400390625 
 30 
 0 
 11 
 250.1 
 21 
 457 
 31 
 0 
 0 
LINE
 10 
 250.1 
 20 
 457 
 30 
 0 
 11 
 247.54638671875 
 21 
 455.6263671875 
 31 
 0 
 0 
LINE
 10 
 247.54638671875 
 20 
 455.6263671875 
 30 
 0 
 11 
 246.087231445313 
 21 
 454.555224609375 
 31 
 0 
 0 
LINE
 10 
 246.087231445313 
 20 
 454.555224609375 
 30 
 0 
 11 
 245.664794921875 
 21 
 453.680810546875 
 31 
 0 
 0 
LINE
 10 
 245.664794921875 
 20 
 453.680810546875 
 30 
 0 
 11 
 246.221606445313 
 21 
 452.897607421875 
 31 
 0 
 0 
LINE
 10 
 246.221606445313 
 20 
 452.897607421875 
 30 
 0 
 11 
 247.7 
 21 
 452.1 
 31 
 0 
 0 
LINE
 10 
 247.7 
 20 
 452.1 
 30 
 0 
 11 
 248.915185546875 
 21 
 451.48642578125 
 31 
 0 
 0 
LINE
 10 
 248.915185546875 
 20 
 451.48642578125 
 30 
 0 
 11 
 249.62158203125 
 21 
 450.7671875 
 31 
 0 
 0 
LINE
 10 
 249.62158203125 
 20 
 450.7671875 
 30 
 0 
 11 
 249.910400390625 
 21 
 449.64482421875 
 31 
 0 
 0 
LINE
 10 
 249.910400390625 
 20 
 449.64482421875 
 30 
 0 
 11 
 249.872802734375 
 21 
 447.82158203125 
 31 
 0 
 0 
LINE
 10 
 249.872802734375 
 20 
 447.82158203125 
 30 
 0 
 11 
 249.6 
 21 
 445 
 31 
 0 
 0 
LINE
 10 
 249.6 
 20 
 445 
 30 
 0 
 11 
 248.9 
 21 
 439 
 31 
 0 
 0 
LINE
 10 
 248.9 
 20 
 439 
 30 
 0 
 11 
 251.9 
 21 
 439 
 31 
 0 
 0 
LINE
 10 
 251.9 
 20 
 439 
 30 
 0 
 11 
 252.838403320313 
 21 
 439.04560546875 
 31 
 0 
 0 
LINE
 10 
 252.838403320313 
 20 
 439.04560546875 
 30 
 0 
 11 
 253.69521484375 
 21 
 439.172802734375 
 31 
 0 
 0 
LINE
 10 
 253.69521484375 
 20 
 439.172802734375 
 30 
 0 
 11 
 254.41279296875 
 21 
 439.367236328125 
 31 
 0 
 0 
LINE
 10 
 254.41279296875 
 20 
 439.367236328125 
 30 
 0 
 11 
 254.933618164063 
 21 
 439.614404296875 
 31 
 0 
 0 
LINE
 10 
 254.933618164063 
 20 
 439.614404296875 
 30 
 0 
 11 
 255.2 
 21 
 439.9 
 31 
 0 
 0 
LINE
 10 
 255.2 
 20 
 439.9 
 30 
 0 
 11 
 255.422387695313 
 21 
 440.18076171875 
 31 
 0 
 0 
LINE
 10 
 255.422387695313 
 20 
 440.18076171875 
 30 
 0 
 11 
 255.827197265625 
 21 
 440.514404296875 
 31 
 0 
 0 
LINE
 10 
 255.827197265625 
 20 
 440.514404296875 
 30 
 0 
 11 
 256.380810546875 
 21 
 440.8576171875 
 31 
 0 
 0 
LINE
 10 
 256.380810546875 
 20 
 440.8576171875 
 30 
 0 
 11 
 257.049609375 
 21 
 441.167236328125 
 31 
 0 
 0 
LINE
 10 
 257.049609375 
 20 
 441.167236328125 
 30 
 0 
 11 
 257.8 
 21 
 441.4 
 31 
 0 
 0 
LINE
 10 
 257.8 
 20 
 441.4 
 30 
 0 
 11 
 258.796801757813 
 21 
 441.68076171875 
 31 
 0 
 0 
LINE
 10 
 258.796801757813 
 20 
 441.68076171875 
 30 
 0 
 11 
 259.43837890625 
 21 
 441.606396484375 
 31 
 0 
 0 
LINE
 10 
 259.43837890625 
 20 
 441.606396484375 
 30 
 0 
 11 
 259.801611328125 
 21 
 441.061572265625 
 31 
 0 
 0 
LINE
 10 
 259.801611328125 
 20 
 441.061572265625 
 30 
 0 
 11 
 259.963208007813 
 21 
 439.931201171875 
 31 
 0 
 0 
LINE
 10 
 259.963208007813 
 20 
 439.931201171875 
 30 
 0 
 11 
 260 
 21 
 438.1 
 31 
 0 
 0 
LINE
 10 
 260 
 20 
 438.1 
 30 
 0 
 11 
 259.934399414063 
 21 
 436.45517578125 
 31 
 0 
 0 
LINE
 10 
 259.934399414063 
 20 
 436.45517578125 
 30 
 0 
 11 
 259.715209960938 
 21 
 435.189599609375 
 31 
 0 
 0 
LINE
 10 
 259.715209960938 
 20 
 435.189599609375 
 30 
 0 
 11 
 259.308813476563 
 21 
 434.226416015625 
 31 
 0 
 0 
LINE
 10 
 259.308813476563 
 20 
 434.226416015625 
 30 
 0 
 11 
 258.681616210938 
 21 
 433.488818359375 
 31 
 0 
 0 
LINE
 10 
 258.681616210938 
 20 
 433.488818359375 
 30 
 0 
 11 
 257.8 
 21 
 432.9 
 31 
 0 
 0 
LINE
 10 
 257.8 
 20 
 432.9 
 30 
 0 
 11 
 256.943994140625 
 21 
 432.46796875 
 31 
 0 
 0 
LINE
 10 
 256.943994140625 
 20 
 432.46796875 
 30 
 0 
 11 
 256.280004882813 
 21 
 432.252001953125 
 31 
 0 
 0 
LINE
 10 
 256.280004882813 
 20 
 432.252001953125 
 30 
 0 
 11 
 255.784008789063 
 21 
 432.252001953125 
 31 
 0 
 0 
LINE
 10 
 255.784008789063 
 20 
 432.252001953125 
 30 
 0 
 11 
 255.432006835938 
 21 
 432.468017578125 
 31 
 0 
 0 
LINE
 10 
 255.432006835938 
 20 
 432.468017578125 
 30 
 0 
 11 
 255.2 
 21 
 432.9 
 31 
 0 
 0 
LINE
 10 
 255.2 
 20 
 432.9 
 30 
 0 
 11 
 254.943994140625 
 21 
 433.244775390625 
 31 
 0 
 0 
LINE
 10 
 254.943994140625 
 20 
 433.244775390625 
 30 
 0 
 11 
 254.448022460938 
 21 
 433.546435546875 
 31 
 0 
 0 
LINE
 10 
 254.448022460938 
 20 
 433.546435546875 
 30 
 0 
 11 
 253.760009765625 
 21 
 433.785595703125 
 31 
 0 
 0 
LINE
 10 
 253.760009765625 
 20 
 433.785595703125 
 30 
 0 
 11 
 252.928002929688 
 21 
 433.943212890625 
 31 
 0 
 0 
LINE
 10 
 252.928002929688 
 20 
 433.943212890625 
 30 
 0 
 11 
 252 
 21 
 434 
 31 
 0 
 0 
LINE
 10 
 252 
 20 
 434 
 30 
 0 
 11 
 250.47041015625 
 21 
 433.769580078125 
 31 
 0 
 0 
LINE
 10 
 250.47041015625 
 20 
 433.769580078125 
 30 
 0 
 11 
 249.339208984375 
 21 
 433.02080078125 
 31 
 0 
 0 
LINE
 10 
 249.339208984375 
 20 
 433.02080078125 
 30 
 0 
 11 
 248.572802734375 
 21 
 431.6671875 
 31 
 0 
 0 
LINE
 10 
 248.572802734375 
 20 
 431.6671875 
 30 
 0 
 11 
 248.13759765625 
 21 
 429.622412109375 
 31 
 0 
 0 
LINE
 10 
 248.13759765625 
 20 
 429.622412109375 
 30 
 0 
 11 
 248 
 21 
 426.8 
 31 
 0 
 0 
LINE
 10 
 248 
 20 
 426.8 
 30 
 0 
 11 
 247.835986328125 
 21 
 425.61279296875 
 31 
 0 
 0 
LINE
 10 
 247.835986328125 
 20 
 425.61279296875 
 30 
 0 
 11 
 247.31201171875 
 21 
 424.406396484375 
 31 
 0 
 0 
LINE
 10 
 247.31201171875 
 20 
 424.406396484375 
 30 
 0 
 11 
 246.380004882813 
 21 
 423.113623046875 
 31 
 0 
 0 
LINE
 10 
 246.380004882813 
 20 
 423.113623046875 
 30 
 0 
 11 
 244.992016601563 
 21 
 421.6671875 
 31 
 0 
 0 
LINE
 10 
 244.992016601563 
 20 
 421.6671875 
 30 
 0 
 11 
 243.1 
 21 
 420 
 31 
 0 
 0 
LINE
 10 
 243.1 
 20 
 420 
 30 
 0 
 11 
 238.1 
 21 
 415.8 
 31 
 0 
 0 
LINE
 10 
 238.1 
 20 
 415.8 
 30 
 0 
 11 
 242.8 
 21 
 409.5 
 31 
 0 
 0 
LINE
 10 
 242.8 
 20 
 409.5 
 30 
 0 
 11 
 245.791967773438 
 21 
 405.8255859375 
 31 
 0 
 0 
LINE
 10 
 245.791967773438 
 20 
 405.8255859375 
 30 
 0 
 11 
 248.328002929688 
 21 
 403.480810546875 
 31 
 0 
 0 
LINE
 10 
 248.328002929688 
 20 
 403.480810546875 
 30 
 0 
 11 
 250.28798828125 
 21 
 402.523193359375 
 31 
 0 
 0 
LINE
 10 
 250.28798828125 
 20 
 402.523193359375 
 30 
 0 
 11 
 251.552001953125 
 21 
 403.010424804688 
 31 
 0 
 0 
LINE
 10 
 251.552001953125 
 20 
 403.010424804688 
 30 
 0 
 11 
 252 
 21 
 405 
 31 
 0 
 0 
LINE
 10 
 252 
 20 
 405 
 30 
 0 
 11 
 252.08720703125 
 21 
 406.047998046875 
 31 
 0 
 0 
LINE
 10 
 252.08720703125 
 20 
 406.047998046875 
 30 
 0 
 11 
 252.36162109375 
 21 
 406.92802734375 
 31 
 0 
 0 
LINE
 10 
 252.36162109375 
 20 
 406.92802734375 
 30 
 0 
 11 
 252.842407226563 
 21 
 407.663989257813 
 31 
 0 
 0 
LINE
 10 
 252.842407226563 
 20 
 407.663989257813 
 30 
 0 
 11 
 253.548803710938 
 21 
 408.280004882813 
 31 
 0 
 0 
LINE
 10 
 253.548803710938 
 20 
 408.280004882813 
 30 
 0 
 11 
 254.5 
 21 
 408.8 
 31 
 0 
 0 
LINE
 10 
 254.5 
 20 
 408.8 
 30 
 0 
 11 
 255.3416015625 
 21 
 409.193603515625 
 31 
 0 
 0 
LINE
 10 
 255.3416015625 
 20 
 409.193603515625 
 30 
 0 
 11 
 256.144799804688 
 21 
 409.5248046875 
 31 
 0 
 0 
LINE
 10 
 256.144799804688 
 20 
 409.5248046875 
 30 
 0 
 11 
 256.847192382813 
 21 
 409.77919921875 
 31 
 0 
 0 
LINE
 10 
 256.847192382813 
 20 
 409.77919921875 
 30 
 0 
 11 
 257.386401367188 
 21 
 409.942431640625 
 31 
 0 
 0 
LINE
 10 
 257.386401367188 
 20 
 409.942431640625 
 30 
 0 
 11 
 257.7 
 21 
 410 
 31 
 0 
 0 
LINE
 10 
 257.7 
 20 
 410 
 30 
 0 
 11 
 257.83359375 
 21 
 409.555981445313 
 31 
 0 
 0 
LINE
 10 
 257.83359375 
 20 
 409.555981445313 
 30 
 0 
 11 
 257.880810546875 
 21 
 408.32001953125 
 31 
 0 
 0 
LINE
 10 
 257.880810546875 
 20 
 408.32001953125 
 30 
 0 
 11 
 257.851196289063 
 21 
 406.436010742188 
 31 
 0 
 0 
LINE
 10 
 257.851196289063 
 20 
 406.436010742188 
 30 
 0 
 11 
 257.75439453125 
 21 
 404.047998046875 
 31 
 0 
 0 
LINE
 10 
 257.75439453125 
 20 
 404.047998046875 
 30 
 0 
 11 
 257.6 
 21 
 401.3 
 31 
 0 
 0 
LINE
 10 
 257.6 
 20 
 401.3 
 30 
 0 
 11 
 257.240795898438 
 21 
 397.537573242188 
 31 
 0 
 0 
LINE
 10 
 257.240795898438 
 20 
 397.537573242188 
 30 
 0 
 11 
 256.838403320313 
 21 
 394.8408203125 
 31 
 0 
 0 
LINE
 10 
 256.838403320313 
 20 
 394.8408203125 
 30 
 0 
 11 
 256.325610351563 
 21 
 392.955200195313 
 31 
 0 
 0 
LINE
 10 
 256.325610351563 
 20 
 392.955200195313 
 30 
 0 
 11 
 255.635205078125 
 21 
 391.626416015625 
 31 
 0 
 0 
LINE
 10 
 255.635205078125 
 20 
 391.626416015625 
 30 
 0 
 11 
 254.7 
 21 
 390.6 
 31 
 0 
 0 
LINE
 10 
 254.7 
 20 
 390.6 
 30 
 0 
 11 
 252.5 
 21 
 388.8 
 31 
 0 
 0 
LINE
 10 
 252.5 
 20 
 388.8 
 30 
 0 
 11 
 252.2 
 21 
 392.6 
 31 
 0 
 0 
LINE
 10 
 252.2 
 20 
 392.6 
 30 
 0 
 11 
 252.024780273438 
 21 
 393.84638671875 
 31 
 0 
 0 
LINE
 10 
 252.024780273438 
 20 
 393.84638671875 
 30 
 0 
 11 
 251.7583984375 
 21 
 395.01123046875 
 31 
 0 
 0 
LINE
 10 
 251.7583984375 
 20 
 395.01123046875 
 30 
 0 
 11 
 251.429614257813 
 21 
 396.012817382813 
 31 
 0 
 0 
LINE
 10 
 251.429614257813 
 20 
 396.012817382813 
 30 
 0 
 11 
 251.067211914063 
 21 
 396.769604492188 
 31 
 0 
 0 
LINE
 10 
 251.067211914063 
 20 
 396.769604492188 
 30 
 0 
 11 
 250.7 
 21 
 397.2 
 31 
 0 
 0 
LINE
 10 
 250.7 
 20 
 397.2 
 30 
 0 
 11 
 249.286376953125 
 21 
 397.887182617188 
 31 
 0 
 0 
LINE
 10 
 249.286376953125 
 20 
 397.887182617188 
 30 
 0 
 11 
 248.247192382813 
 21 
 397.873608398438 
 31 
 0 
 0 
LINE
 10 
 248.247192382813 
 20 
 397.873608398438 
 30 
 0 
 11 
 247.5248046875 
 21 
 397.106420898438 
 31 
 0 
 0 
LINE
 10 
 247.5248046875 
 20 
 397.106420898438 
 30 
 0 
 11 
 247.061596679688 
 21 
 395.5328125 
 31 
 0 
 0 
LINE
 10 
 247.061596679688 
 20 
 395.5328125 
 30 
 0 
 11 
 246.8 
 21 
 393.1 
 31 
 0 
 0 
LINE
 10 
 246.8 
 20 
 393.1 
 30 
 0 
 11 
 246.5 
 21 
 388.2 
 31 
 0 
 0 
LINE
 10 
 246.5 
 20 
 388.2 
 30 
 0 
 11 
 226.3 
 21 
 405.6 
 31 
 0 
 0 
LINE
 10 
 226.3 
 20 
 405.6 
 30 
 0 
 11 
 219.88798828125 
 21 
 411.07275390625 
 31 
 0 
 0 
LINE
 10 
 219.88798828125 
 20 
 411.07275390625 
 30 
 0 
 11 
 214.316015625 
 21 
 415.782421875 
 31 
 0 
 0 
LINE
 10 
 214.316015625 
 20 
 415.782421875 
 30 
 0 
 11 
 209.919995117188 
 21 
 419.44560546875 
 31 
 0 
 0 
LINE
 10 
 209.919995117188 
 20 
 419.44560546875 
 30 
 0 
 11 
 207.036010742188 
 21 
 421.77919921875 
 31 
 0 
 0 
LINE
 10 
 207.036010742188 
 20 
 421.77919921875 
 30 
 0 
 11 
 206 
 21 
 422.5 
 31 
 0 
 0 
LINE
 10 
 206 
 20 
 422.5 
 30 
 0 
 11 
 207.093579101563 
 21 
 419.6919921875 
 31 
 0 
 0 
LINE
 10 
 207.093579101563 
 20 
 419.6919921875 
 30 
 0 
 11 
 210.42880859375 
 21 
 413.452001953125 
 31 
 0 
 0 
LINE
 10 
 210.42880859375 
 20 
 413.452001953125 
 30 
 0 
 11 
 216.08720703125 
 21 
 403.635986328125 
 31 
 0 
 0 
LINE
 10 
 216.08720703125 
 20 
 403.635986328125 
 30 
 0 
 11 
 224.150390625 
 21 
 390.1 
 31 
 0 
 0 
LINE
 10 
 224.150390625 
 20 
 390.1 
 30 
 0 
 11 
 234.7 
 21 
 372.7 
 31 
 0 
 0 
LINE
 10 
 234.7 
 20 
 372.7 
 30 
 0 
 11 
 245.399194335938 
 21 
 355.094409179688 
 31 
 0 
 0 
LINE
 10 
 245.399194335938 
 20 
 355.094409179688 
 30 
 0 
 11 
 252.181616210938 
 21 
 343.431225585938 
 31 
 0 
 0 
LINE
 10 
 252.181616210938 
 20 
 343.431225585938 
 30 
 0 
 11 
 255.594409179688 
 21 
 336.620825195313 
 31 
 0 
 0 
LINE
 10 
 255.594409179688 
 20 
 336.620825195313 
 30 
 0 
 11 
 256.184814453125 
 21 
 333.573608398438 
 31 
 0 
 0 
LINE
 10 
 256.184814453125 
 20 
 333.573608398438 
 30 
 0 
 11 
 254.5 
 21 
 333.2 
 31 
 0 
 0 
LINE
 10 
 254.5 
 20 
 333.2 
 30 
 0 
 11 
 253.182397460938 
 21 
 334.718383789063 
 31 
 0 
 0 
LINE
 10 
 253.182397460938 
 20 
 334.718383789063 
 30 
 0 
 11 
 250.3912109375 
 21 
 338.723217773438 
 31 
 0 
 0 
LINE
 10 
 250.3912109375 
 20 
 338.723217773438 
 30 
 0 
 11 
 246.42880859375 
 21 
 344.748803710938 
 31 
 0 
 0 
LINE
 10 
 246.42880859375 
 20 
 344.748803710938 
 30 
 0 
 11 
 241.597607421875 
 21 
 352.329614257813 
 31 
 0 
 0 
LINE
 10 
 241.597607421875 
 20 
 352.329614257813 
 30 
 0 
 11 
 236.2 
 21 
 361 
 31 
 0 
 0 
LINE
 10 
 236.2 
 20 
 361 
 30 
 0 
 11 
 230.77119140625 
 21 
 369.885571289063 
 31 
 0 
 0 
LINE
 10 
 230.77119140625 
 20 
 369.885571289063 
 30 
 0 
 11 
 225.74560546875 
 21 
 378.060815429688 
 31 
 0 
 0 
LINE
 10 
 225.74560546875 
 20 
 378.060815429688 
 30 
 0 
 11 
 221.45439453125 
 21 
 384.983203125 
 31 
 0 
 0 
LINE
 10 
 221.45439453125 
 20 
 384.983203125 
 30 
 0 
 11 
 218.22880859375 
 21 
 390.110400390625 
 31 
 0 
 0 
LINE
 10 
 218.22880859375 
 20 
 390.110400390625 
 30 
 0 
 11 
 216.4 
 21 
 392.9 
 31 
 0 
 0 
LINE
 10 
 216.4 
 20 
 392.9 
 30 
 0 
 11 
 215.382397460938 
 21 
 394.43837890625 
 31 
 0 
 0 
LINE
 10 
 215.382397460938 
 20 
 394.43837890625 
 30 
 0 
 11 
 214.307202148438 
 21 
 396.08720703125 
 31 
 0 
 0 
LINE
 10 
 214.307202148438 
 20 
 396.08720703125 
 30 
 0 
 11 
 213.260815429688 
 21 
 397.716796875 
 31 
 0 
 0 
LINE
 10 
 213.260815429688 
 20 
 397.716796875 
 30 
 0 
 11 
 212.329614257813 
 21 
 399.197607421875 
 31 
 0 
 0 
LINE
 10 
 212.329614257813 
 20 
 399.197607421875 
 30 
 0 
 11 
 211.6 
 21 
 400.4 
 31 
 0 
 0 
LINE
 10 
 211.6 
 20 
 400.4 
 30 
 0 
 11 
 210.65439453125 
 21 
 401.966381835938 
 31 
 0 
 0 
LINE
 10 
 210.65439453125 
 20 
 401.966381835938 
 30 
 0 
 11 
 209.123217773438 
 21 
 404.459228515625 
 31 
 0 
 0 
LINE
 10 
 209.123217773438 
 20 
 404.459228515625 
 30 
 0 
 11 
 207.164794921875 
 21 
 407.62880859375 
 31 
 0 
 0 
LINE
 10 
 207.164794921875 
 20 
 407.62880859375 
 30 
 0 
 11 
 204.93759765625 
 21 
 411.2255859375 
 31 
 0 
 0 
LINE
 10 
 204.93759765625 
 20 
 411.2255859375 
 30 
 0 
 11 
 202.6 
 21 
 415 
 31 
 0 
 0 
LINE
 10 
 202.6 
 20 
 415 
 30 
 0 
 11 
 200.364001464844 
 21 
 418.649560546875 
 31 
 0 
 0 
LINE
 10 
 200.364001464844 
 20 
 418.649560546875 
 30 
 0 
 11 
 198.416003417969 
 21 
 421.900830078125 
 31 
 0 
 0 
LINE
 10 
 198.416003417969 
 20 
 421.900830078125 
 30 
 0 
 11 
 196.876000976563 
 21 
 424.547216796875 
 31 
 0 
 0 
LINE
 10 
 196.876000976563 
 20 
 424.547216796875 
 30 
 0 
 11 
 195.864001464844 
 21 
 426.382421875 
 31 
 0 
 0 
LINE
 10 
 195.864001464844 
 20 
 426.382421875 
 30 
 0 
 11 
 195.5 
 21 
 427.2 
 31 
 0 
 0 
LINE
 10 
 195.5 
 20 
 427.2 
 30 
 0 
 11 
 195.432788085938 
 21 
 427.494384765625 
 31 
 0 
 0 
LINE
 10 
 195.432788085938 
 20 
 427.494384765625 
 30 
 0 
 11 
 195.250402832031 
 21 
 427.8751953125 
 31 
 0 
 0 
LINE
 10 
 195.250402832031 
 20 
 427.8751953125 
 30 
 0 
 11 
 194.981604003906 
 21 
 428.3087890625 
 31 
 0 
 0 
LINE
 10 
 194.981604003906 
 20 
 428.3087890625 
 30 
 0 
 11 
 194.655212402344 
 21 
 428.76162109375 
 31 
 0 
 0 
LINE
 10 
 194.655212402344 
 20 
 428.76162109375 
 30 
 0 
 11 
 194.3 
 21 
 429.2 
 31 
 0 
 0 
LINE
 10 
 194.3 
 20 
 429.2 
 30 
 0 
 11 
 193.895983886719 
 21 
 429.61201171875 
 31 
 0 
 0 
LINE
 10 
 193.895983886719 
 20 
 429.61201171875 
 30 
 0 
 11 
 193.540014648438 
 21 
 430.096044921875 
 31 
 0 
 0 
LINE
 10 
 193.540014648438 
 20 
 430.096044921875 
 30 
 0 
 11 
 193.255993652344 
 21 
 430.60400390625 
 31 
 0 
 0 
LINE
 10 
 193.255993652344 
 20 
 430.60400390625 
 30 
 0 
 11 
 193.068005371094 
 21 
 431.088037109375 
 31 
 0 
 0 
LINE
 10 
 193.068005371094 
 20 
 431.088037109375 
 30 
 0 
 11 
 193 
 21 
 431.5 
 31 
 0 
 0 
LINE
 10 
 193 
 20 
 431.5 
 30 
 0 
 11 
 192.942395019531 
 21 
 431.902392578125 
 31 
 0 
 0 
LINE
 10 
 192.942395019531 
 20 
 431.902392578125 
 30 
 0 
 11 
 192.77919921875 
 21 
 432.3671875 
 31 
 0 
 0 
LINE
 10 
 192.77919921875 
 20 
 432.3671875 
 30 
 0 
 11 
 192.5248046875 
 21 
 432.860791015625 
 31 
 0 
 0 
LINE
 10 
 192.5248046875 
 20 
 432.860791015625 
 30 
 0 
 11 
 192.193603515625 
 21 
 433.349609375 
 31 
 0 
 0 
LINE
 10 
 192.193603515625 
 20 
 433.349609375 
 30 
 0 
 11 
 191.8 
 21 
 433.8 
 31 
 0 
 0 
LINE
 10 
 191.8 
 20 
 433.8 
 30 
 0 
 11 
 191.119189453125 
 21 
 433.77041015625 
 31 
 0 
 0 
LINE
 10 
 191.119189453125 
 20 
 433.77041015625 
 30 
 0 
 11 
 189.953601074219 
 21 
 432.60322265625 
 31 
 0 
 0 
LINE
 10 
 189.953601074219 
 20 
 432.60322265625 
 30 
 0 
 11 
 188.178405761719 
 21 
 430.12080078125 
 31 
 0 
 0 
LINE
 10 
 188.178405761719 
 20 
 430.12080078125 
 30 
 0 
 11 
 185.668811035156 
 21 
 426.14560546875 
 31 
 0 
 0 
LINE
 10 
 185.668811035156 
 20 
 426.14560546875 
 30 
 0 
 11 
 182.3 
 21 
 420.5 
 31 
 0 
 0 
LINE
 10 
 182.3 
 20 
 420.5 
 30 
 0 
 11 
 173.9 
 21 
 406.1 
 31 
 0 
 0 
LINE
 10 
 173.9 
 20 
 406.1 
 30 
 0 
 11 
 181.9 
 21 
 389.5 
 31 
 0 
 0 
LINE
 10 
 181.9 
 20 
 389.5 
 30 
 0 
 11 
 185.272802734375 
 21 
 382.638403320313 
 31 
 0 
 0 
LINE
 10 
 185.272802734375 
 20 
 382.638403320313 
 30 
 0 
 11 
 187.738403320313 
 21 
 377.903198242188 
 31 
 0 
 0 
LINE
 10 
 187.738403320313 
 20 
 377.903198242188 
 30 
 0 
 11 
 189.517602539063 
 21 
 374.948803710938 
 31 
 0 
 0 
LINE
 10 
 189.517602539063 
 20 
 374.948803710938 
 30 
 0 
 11 
 190.831201171875 
 21 
 373.429614257813 
 31 
 0 
 0 
LINE
 10 
 190.831201171875 
 20 
 373.429614257813 
 30 
 0 
 11 
 191.9 
 21 
 373 
 31 
 0 
 0 
LINE
 10 
 191.9 
 20 
 373 
 30 
 0 
 11 
 192.886401367188 
 21 
 372.867993164063 
 31 
 0 
 0 
LINE
 10 
 192.886401367188 
 20 
 372.867993164063 
 30 
 0 
 11 
 193.503210449219 
 21 
 372.184008789063 
 31 
 0 
 0 
LINE
 10 
 193.503210449219 
 20 
 372.184008789063 
 30 
 0 
 11 
 193.836804199219 
 21 
 370.515991210938 
 31 
 0 
 0 
LINE
 10 
 193.836804199219 
 20 
 370.515991210938 
 30 
 0 
 11 
 193.973608398438 
 21 
 367.432006835938 
 31 
 0 
 0 
LINE
 10 
 193.973608398438 
 20 
 367.432006835938 
 30 
 0 
 11 
 194 
 21 
 362.5 
 31 
 0 
 0 
LINE
 10 
 194 
 20 
 362.5 
 30 
 0 
 11 
 194 
 21 
 352 
 31 
 0 
 0 
LINE
 10 
 194 
 20 
 352 
 30 
 0 
 11 
 189 
 21 
 352 
 31 
 0 
 0 
LINE
 10 
 189 
 20 
 352 
 30 
 0 
 11 
 184 
 21 
 352 
 31 
 0 
 0 
LINE
 10 
 184 
 20 
 352 
 30 
 0 
 11 
 184 
 21 
 362.8 
 31 
 0 
 0 
LINE
 10 
 184 
 20 
 362.8 
 30 
 0 
 11 
 184 
 21 
 373.5 
 31 
 0 
 0 
LINE
 10 
 184 
 20 
 373.5 
 30 
 0 
 11 
 177.8 
 21 
 386.7 
 31 
 0 
 0 
LINE
 10 
 177.8 
 20 
 386.7 
 30 
 0 
 11 
 175.766394042969 
 21 
 390.864794921875 
 31 
 0 
 0 
LINE
 10 
 175.766394042969 
 20 
 390.864794921875 
 30 
 0 
 11 
 173.939208984375 
 21 
 394.458422851563 
 31 
 0 
 0 
LINE
 10 
 173.939208984375 
 20 
 394.458422851563 
 30 
 0 
 11 
 172.428796386719 
 21 
 397.269604492188 
 31 
 0 
 0 
LINE
 10 
 172.428796386719 
 20 
 397.269604492188 
 30 
 0 
 11 
 171.34560546875 
 21 
 399.08720703125 
 31 
 0 
 0 
LINE
 10 
 171.34560546875 
 20 
 399.08720703125 
 30 
 0 
 11 
 170.8 
 21 
 399.7 
 31 
 0 
 0 
LINE
 10 
 170.8 
 20 
 399.7 
 30 
 0 
 11 
 169.651989746094 
 21 
 398.059204101563 
 31 
 0 
 0 
LINE
 10 
 169.651989746094 
 20 
 398.059204101563 
 30 
 0 
 11 
 166.896008300781 
 21 
 393.605615234375 
 31 
 0 
 0 
LINE
 10 
 166.896008300781 
 20 
 393.605615234375 
 30 
 0 
 11 
 162.843994140625 
 21 
 386.86240234375 
 31 
 0 
 0 
LINE
 10 
 162.843994140625 
 20 
 386.86240234375 
 30 
 0 
 11 
 157.8080078125 
 21 
 378.352807617188 
 31 
 0 
 0 
LINE
 10 
 157.8080078125 
 20 
 378.352807617188 
 30 
 0 
 11 
 152.1 
 21 
 368.6 
 31 
 0 
 0 
LINE
 10 
 152.1 
 20 
 368.6 
 30 
 0 
 11 
 134.1 
 21 
 337.7 
 31 
 0 
 0 
LINE
 10 
 134.1 
 20 
 337.7 
 30 
 0 
 11 
 149.3 
 21 
 330.8 
 31 
 0 
 0 
LINE
 10 
 149.3 
 20 
 330.8 
 30 
 0 
 11 
 164.5 
 21 
 323.9 
 31 
 0 
 0 
LINE
 10 
 164.5 
 20 
 323.9 
 30 
 0 
 11 
 163.8 
 21 
 306.2 
 31 
 0 
 0 
LINE
 10 
 163.8 
 20 
 306.2 
 30 
 0 
 11 
 163.505590820313 
 21 
 300.190405273438 
 31 
 0 
 0 
LINE
 10 
 163.505590820313 
 20 
 300.190405273438 
 30 
 0 
 11 
 163.1248046875 
 21 
 294.099194335938 
 31 
 0 
 0 
LINE
 10 
 163.1248046875 
 20 
 294.099194335938 
 30 
 0 
 11 
 162.691198730469 
 21 
 288.372802734375 
 31 
 0 
 0 
LINE
 10 
 162.691198730469 
 20 
 288.372802734375 
 30 
 0 
 11 
 162.238403320313 
 21 
 283.4576171875 
 31 
 0 
 0 
LINE
 10 
 162.238403320313 
 20 
 283.4576171875 
 30 
 0 
 11 
 161.8 
 21 
 279.8 
 31 
 0 
 0 
LINE
 10 
 161.8 
 20 
 279.8 
 30 
 0 
 11 
 160.5 
 21 
 271.1 
 31 
 0 
 0 
LINE
 10 
 160.5 
 20 
 271.1 
 30 
 0 
 11 
 147.5 
 21 
 262.3 
 31 
 0 
 0 
LINE
 10 
 147.5 
 20 
 262.3 
 30 
 0 
 11 
 143.080798339844 
 21 
 259.310375976563 
 31 
 0 
 0 
LINE
 10 
 143.080798339844 
 20 
 259.310375976563 
 30 
 0 
 11 
 138.570397949219 
 21 
 256.359204101563 
 31 
 0 
 0 
LINE
 10 
 138.570397949219 
 20 
 256.359204101563 
 30 
 0 
 11 
 134.309606933594 
 21 
 253.652807617188 
 31 
 0 
 0 
LINE
 10 
 134.309606933594 
 20 
 253.652807617188 
 30 
 0 
 11 
 130.639208984375 
 21 
 251.397607421875 
 31 
 0 
 0 
LINE
 10 
 130.639208984375 
 20 
 251.397607421875 
 30 
 0 
 11 
 127.9 
 21 
 249.8 
 31 
 0 
 0 
LINE
 10 
 127.9 
 20 
 249.8 
 30 
 0 
 11 
 121.4 
 21 
 246.2 
 31 
 0 
 0 
LINE
 10 
 121.4 
 20 
 246.2 
 30 
 0 
 11 
 116.9 
 21 
 249.3 
 31 
 0 
 0 
LINE
 10 
 116.9 
 20 
 249.3 
 30 
 0 
 11 
 111.455993652344 
 21 
 253.224780273438 
 31 
 0 
 0 
LINE
 10 
 111.455993652344 
 20 
 253.224780273438 
 30 
 0 
 11 
 106.084008789063 
 21 
 257.538403320313 
 31 
 0 
 0 
LINE
 10 
 106.084008789063 
 20 
 257.538403320313 
 30 
 0 
 11 
 101.023999023438 
 21 
 262.029614257813 
 31 
 0 
 0 
LINE
 10 
 101.023999023438 
 20 
 262.029614257813 
 30 
 0 
 11 
 96.5160034179688 
 21 
 266.48720703125 
 31 
 0 
 0 
LINE
 10 
 96.5160034179688 
 20 
 266.48720703125 
 30 
 0 
 11 
 92.8 
 21 
 270.7 
 31 
 0 
 0 
LINE
 10 
 92.8 
 20 
 270.7 
 30 
 0 
 11 
 88.9343933105469 
 21 
 275.715991210938 
 31 
 0 
 0 
LINE
 10 
 88.9343933105469 
 20 
 275.715991210938 
 30 
 0 
 11 
 84.6992004394531 
 21 
 281.6919921875 
 31 
 0 
 0 
LINE
 10 
 84.6992004394531 
 20 
 281.6919921875 
 30 
 0 
 11 
 80.5168029785156 
 21 
 287.980004882813 
 31 
 0 
 0 
LINE
 10 
 80.5168029785156 
 20 
 287.980004882813 
 30 
 0 
 11 
 76.8096008300781 
 21 
 293.932006835938 
 31 
 0 
 0 
LINE
 10 
 76.8096008300781 
 20 
 293.932006835938 
 30 
 0 
 11 
 74 
 21 
 298.9 
 31 
 0 
 0 
LINE
 10 
 74 
 20 
 298.9 
 30 
 0 
 11 
 71.8 
 21 
 303.3 
 31 
 0 
 0 
LINE
 10 
 71.8 
 20 
 303.3 
 30 
 0 
 11 
 69.8 
 21 
 301.3 
 31 
 0 
 0 
LINE
 10 
 69.8 
 20 
 301.3 
 30 
 0 
 11 
 68.6999938964844 
 21 
 299.976782226563 
 31 
 0 
 0 
LINE
 10 
 68.6999938964844 
 20 
 299.976782226563 
 30 
 0 
 11 
 68.5359985351563 
 21 
 298.418408203125 
 31 
 0 
 0 
LINE
 10 
 68.5359985351563 
 20 
 298.418408203125 
 30 
 0 
 11 
 69.6919982910156 
 21 
 295.7416015625 
 31 
 0 
 0 
LINE
 10 
 69.6919982910156 
 20 
 295.7416015625 
 30 
 0 
 11 
 72.552001953125 
 21 
 291.063208007813 
 31 
 0 
 0 
LINE
 10 
 72.552001953125 
 20 
 291.063208007813 
 30 
 0 
 11 
 77.5 
 21 
 283.5 
 31 
 0 
 0 
LINE
 10 
 77.5 
 20 
 283.5 
 30 
 0 
 11 
 82.7720031738281 
 21 
 275.993579101563 
 31 
 0 
 0 
LINE
 10 
 82.7720031738281 
 20 
 275.993579101563 
 30 
 0 
 11 
 88.1160034179688 
 21 
 269.33681640625 
 31 
 0 
 0 
LINE
 10 
 88.1160034179688 
 20 
 269.33681640625 
 30 
 0 
 11 
 93.8440002441406 
 21 
 263.203198242188 
 31 
 0 
 0 
LINE
 10 
 93.8440002441406 
 20 
 263.203198242188 
 30 
 0 
 11 
 100.267999267578 
 21 
 257.26640625 
 31 
 0 
 0 
LINE
 10 
 100.267999267578 
 20 
 257.26640625 
 30 
 0 
 11 
 107.7 
 21 
 251.2 
 31 
 0 
 0 
LINE
 10 
 107.7 
 20 
 251.2 
 30 
 0 
 11 
 117.9 
 21 
 243.2 
 31 
 0 
 0 
LINE
 10 
 117.9 
 20 
 243.2 
 30 
 0 
 11 
 112.3 
 21 
 238.9 
 31 
 0 
 0 
LINE
 10 
 112.3 
 20 
 238.9 
 30 
 0 
 11 
 110.3751953125 
 21 
 237.46318359375 
 31 
 0 
 0 
LINE
 10 
 110.3751953125 
 20 
 237.46318359375 
 30 
 0 
 11 
 108.517602539063 
 21 
 236.093603515625 
 31 
 0 
 0 
LINE
 10 
 108.517602539063 
 20 
 236.093603515625 
 30 
 0 
 11 
 106.842395019531 
 21 
 234.882397460938 
 31 
 0 
 0 
LINE
 10 
 106.842395019531 
 20 
 234.882397460938 
 30 
 0 
 11 
 105.464794921875 
 21 
 233.92080078125 
 31 
 0 
 0 
LINE
 10 
 105.464794921875 
 20 
 233.92080078125 
 30 
 0 
 11 
 104.5 
 21 
 233.3 
 31 
 0 
 0 
LINE
 10 
 104.5 
 20 
 233.3 
 30 
 0 
 11 
 103.592004394531 
 21 
 232.748803710938 
 31 
 0 
 0 
LINE
 10 
 103.592004394531 
 20 
 232.748803710938 
 30 
 0 
 11 
 103.164001464844 
 21 
 232.37041015625 
 31 
 0 
 0 
LINE
 10 
 103.164001464844 
 20 
 232.37041015625 
 30 
 0 
 11 
 103.240002441406 
 21 
 232.097607421875 
 31 
 0 
 0 
LINE
 10 
 103.240002441406 
 20 
 232.097607421875 
 30 
 0 
 11 
 103.844006347656 
 21 
 231.863208007813 
 31 
 0 
 0 
LINE
 10 
 103.844006347656 
 20 
 231.863208007813 
 30 
 0 
 11 
 105 
 21 
 231.6 
 31 
 0 
 0 
LINE
 10 
 105 
 20 
 231.6 
 30 
 0 
 11 
 106.104797363281 
 21 
 231.399194335938 
 31 
 0 
 0 
LINE
 10 
 106.104797363281 
 20 
 231.399194335938 
 30 
 0 
 11 
 107.646398925781 
 21 
 231.169604492188 
 31 
 0 
 0 
LINE
 10 
 107.646398925781 
 20 
 231.169604492188 
 30 
 0 
 11 
 109.485595703125 
 21 
 230.930395507813 
 31 
 0 
 0 
LINE
 10 
 109.485595703125 
 20 
 230.930395507813 
 30 
 0 
 11 
 111.483203125 
 21 
 230.700805664063 
 31 
 0 
 0 
LINE
 10 
 111.483203125 
 20 
 230.700805664063 
 30 
 0 
 11 
 113.5 
 21 
 230.5 
 31 
 0 
 0 
LINE
 10 
 113.5 
 20 
 230.5 
 30 
 0 
 11 
 115.789587402344 
 21 
 230.219213867188 
 31 
 0 
 0 
LINE
 10 
 115.789587402344 
 20 
 230.219213867188 
 30 
 0 
 11 
 118.544812011719 
 21 
 229.765600585938 
 31 
 0 
 0 
LINE
 10 
 118.544812011719 
 20 
 229.765600585938 
 30 
 0 
 11 
 121.535205078125 
 21 
 229.182397460938 
 31 
 0 
 0 
LINE
 10 
 121.535205078125 
 20 
 229.182397460938 
 30 
 0 
 11 
 124.530407714844 
 21 
 228.51279296875 
 31 
 0 
 0 
LINE
 10 
 124.530407714844 
 20 
 228.51279296875 
 30 
 0 
 11 
 127.3 
 21 
 227.8 
 31 
 0 
 0 
LINE
 10 
 127.3 
 20 
 227.8 
 30 
 0 
 11 
 135 
 21 
 225.6 
 31 
 0 
 0 
LINE
 10 
 135 
 20 
 225.6 
 30 
 0 
 11 
 135 
 21 
 216.8 
 31 
 0 
 0 
LINE
 10 
 135 
 20 
 216.8 
 30 
 0 
 11 
 135.035192871094 
 21 
 212.774365234375 
 31 
 0 
 0 
LINE
 10 
 135.035192871094 
 20 
 212.774365234375 
 30 
 0 
 11 
 135.185607910156 
 21 
 210.20322265625 
 31 
 0 
 0 
LINE
 10 
 135.185607910156 
 20 
 210.20322265625 
 30 
 0 
 11 
 135.518408203125 
 21 
 208.764794921875 
 31 
 0 
 0 
LINE
 10 
 135.518408203125 
 20 
 208.764794921875 
 30 
 0 
 11 
 136.100805664063 
 21 
 208.13759765625 
 31 
 0 
 0 
LINE
 10 
 136.100805664063 
 20 
 208.13759765625 
 30 
 0 
 11 
 137 
 21 
 208 
 31 
 0 
 0 
LINE
 10 
 137 
 20 
 208 
 30 
 0 
 11 
 137.899194335938 
 21 
 208.123193359375 
 31 
 0 
 0 
LINE
 10 
 137.899194335938 
 20 
 208.123193359375 
 30 
 0 
 11 
 138.481604003906 
 21 
 208.649609375 
 31 
 0 
 0 
LINE
 10 
 138.481604003906 
 20 
 208.649609375 
 30 
 0 
 11 
 138.814404296875 
 21 
 209.814404296875 
 31 
 0 
 0 
LINE
 10 
 138.814404296875 
 20 
 209.814404296875 
 30 
 0 
 11 
 138.964807128906 
 21 
 211.852807617188 
 31 
 0 
 0 
LINE
 10 
 138.964807128906 
 20 
 211.852807617188 
 30 
 0 
 11 
 139 
 21 
 215 
 31 
 0 
 0 
LINE
 10 
 139 
 20 
 215 
 30 
 0 
 11 
 139.048791503906 
 21 
 217.647192382813 
 31 
 0 
 0 
LINE
 10 
 139.048791503906 
 20 
 217.647192382813 
 30 
 0 
 11 
 139.198400878906 
 21 
 219.617626953125 
 31 
 0 
 0 
LINE
 10 
 139.198400878906 
 20 
 219.617626953125 
 30 
 0 
 11 
 139.453601074219 
 21 
 220.95439453125 
 31 
 0 
 0 
LINE
 10 
 139.453601074219 
 20 
 220.95439453125 
 30 
 0 
 11 
 139.819201660156 
 21 
 221.700805664063 
 31 
 0 
 0 
LINE
 10 
 139.819201660156 
 20 
 221.700805664063 
 30 
 0 
 11 
 140.3 
 21 
 221.9 
 31 
 0 
 0 
LINE
 10 
 140.3 
 20 
 221.9 
 30 
 0 
 11 
 141.018395996094 
 21 
 221.752807617188 
 31 
 0 
 0 
LINE
 10 
 141.018395996094 
 20 
 221.752807617188 
 30 
 0 
 11 
 142.351208496094 
 21 
 221.346411132813 
 31 
 0 
 0 
LINE
 10 
 142.351208496094 
 20 
 221.346411132813 
 30 
 0 
 11 
 144.144799804688 
 21 
 220.73359375 
 31 
 0 
 0 
LINE
 10 
 144.144799804688 
 20 
 220.73359375 
 30 
 0 
 11 
 146.24560546875 
 21 
 219.967211914063 
 31 
 0 
 0 
LINE
 10 
 146.24560546875 
 20 
 219.967211914063 
 30 
 0 
 11 
 148.5 
 21 
 219.1 
 31 
 0 
 0 
LINE
 10 
 148.5 
 20 
 219.1 
 30 
 0 
 11 
 155.5 
 21 
 216.4 
 31 
 0 
 0 
LINE
 10 
 155.5 
 20 
 216.4 
 30 
 0 
 11 
 155.8 
 21 
 212.2 
 31 
 0 
 0 
LINE
 10 
 155.8 
 20 
 212.2 
 30 
 0 
 11 
 156.1 
 21 
 208 
 31 
 0 
 0 
LINE
 10 
 156.1 
 20 
 208 
 30 
 0 
 11 
 160.6 
 21 
 208 
 31 
 0 
 0 
LINE
 10 
 160.6 
 20 
 208 
 30 
 0 
 11 
 162.747192382813 
 21 
 208.027978515625 
 31 
 0 
 0 
LINE
 10 
 162.747192382813 
 20 
 208.027978515625 
 30 
 0 
 11 
 164.049609375 
 21 
 208.223999023438 
 31 
 0 
 0 
LINE
 10 
 164.049609375 
 20 
 208.223999023438 
 30 
 0 
 11 
 164.718395996094 
 21 
 208.756005859375 
 31 
 0 
 0 
LINE
 10 
 164.718395996094 
 20 
 208.756005859375 
 30 
 0 
 11 
 164.964794921875 
 21 
 209.7919921875 
 31 
 0 
 0 
LINE
 10 
 164.964794921875 
 20 
 209.7919921875 
 30 
 0 
 11 
 165 
 21 
 211.5 
 31 
 0 
 0 
LINE
 10 
 165 
 20 
 211.5 
 30 
 0 
 11 
 165.053601074219 
 21 
 212.90078125 
 31 
 0 
 0 
LINE
 10 
 165.053601074219 
 20 
 212.90078125 
 30 
 0 
 11 
 165.23681640625 
 21 
 213.898413085938 
 31 
 0 
 0 
LINE
 10 
 165.23681640625 
 20 
 213.898413085938 
 30 
 0 
 11 
 165.583203125 
 21 
 214.54560546875 
 31 
 0 
 0 
LINE
 10 
 165.583203125 
 20 
 214.54560546875 
 30 
 0 
 11 
 166.126403808594 
 21 
 214.89521484375 
 31 
 0 
 0 
LINE
 10 
 166.126403808594 
 20 
 214.89521484375 
 30 
 0 
 11 
 166.9 
 21 
 215 
 31 
 0 
 0 
LINE
 10 
 166.9 
 20 
 215 
 30 
 0 
 11 
 167.710388183594 
 21 
 215.03359375 
 31 
 0 
 0 
LINE
 10 
 167.710388183594 
 20 
 215.03359375 
 30 
 0 
 11 
 168.871203613281 
 21 
 215.1248046875 
 31 
 0 
 0 
LINE
 10 
 168.871203613281 
 20 
 215.1248046875 
 30 
 0 
 11 
 170.276806640625 
 21 
 215.259204101563 
 31 
 0 
 0 
LINE
 10 
 170.276806640625 
 20 
 215.259204101563 
 30 
 0 
 11 
 171.821594238281 
 21 
 215.422387695313 
 31 
 0 
 0 
LINE
 10 
 171.821594238281 
 20 
 215.422387695313 
 30 
 0 
 11 
 173.4 
 21 
 215.6 
 31 
 0 
 0 
LINE
 10 
 173.4 
 20 
 215.6 
 30 
 0 
 11 
 178 
 21 
 216.3 
 31 
 0 
 0 
LINE
 10 
 178 
 20 
 216.3 
 30 
 0 
 11 
 178 
 21 
 212.1 
 31 
 0 
 0 
LINE
 10 
 178 
 20 
 212.1 
 30 
 0 
 11 
 178.039184570313 
 21 
 210.252783203125 
 31 
 0 
 0 
LINE
 10 
 178.039184570313 
 20 
 210.252783203125 
 30 
 0 
 11 
 178.217602539063 
 21 
 209.0583984375 
 31 
 0 
 0 
LINE
 10 
 178.217602539063 
 20 
 209.0583984375 
 30 
 0 
 11 
 178.626391601563 
 21 
 208.377612304688 
 31 
 0 
 0 
LINE
 10 
 178.626391601563 
 20 
 208.377612304688 
 30 
 0 
 11 
 179.356799316406 
 21 
 208.071215820313 
 31 
 0 
 0 
LINE
 10 
 179.356799316406 
 20 
 208.071215820313 
 30 
 0 
 11 
 180.5 
 21 
 208 
 31 
 0 
 0 
LINE
 10 
 180.5 
 20 
 208 
 30 
 0 
 11 
 181.681604003906 
 21 
 208.07119140625 
 31 
 0 
 0 
LINE
 10 
 181.681604003906 
 20 
 208.07119140625 
 30 
 0 
 11 
 182.416796875 
 21 
 208.425610351563 
 31 
 0 
 0 
LINE
 10 
 182.416796875 
 20 
 208.425610351563 
 30 
 0 
 11 
 182.811206054688 
 21 
 209.2744140625 
 31 
 0 
 0 
LINE
 10 
 182.811206054688 
 20 
 209.2744140625 
 30 
 0 
 11 
 182.97041015625 
 21 
 210.82880859375 
 31 
 0 
 0 
LINE
 10 
 182.97041015625 
 20 
 210.82880859375 
 30 
 0 
 11 
 183 
 21 
 213.3 
 31 
 0 
 0 
LINE
 10 
 183 
 20 
 213.3 
 30 
 0 
 11 
 183 
 21 
 218.7 
 31 
 0 
 0 
LINE
 10 
 183 
 20 
 218.7 
 30 
 0 
 11 
 189 
 21 
 220.5 
 31 
 0 
 0 
LINE
 10 
 189 
 20 
 220.5 
 30 
 0 
 11 
 190.913586425781 
 21 
 221.048803710938 
 31 
 0 
 0 
LINE
 10 
 190.913586425781 
 20 
 221.048803710938 
 30 
 0 
 11 
 192.62080078125 
 21 
 221.482421875 
 31 
 0 
 0 
LINE
 10 
 192.62080078125 
 20 
 221.482421875 
 30 
 0 
 11 
 194.011206054688 
 21 
 221.781591796875 
 31 
 0 
 0 
LINE
 10 
 194.011206054688 
 20 
 221.781591796875 
 30 
 0 
 11 
 194.974401855469 
 21 
 221.927221679688 
 31 
 0 
 0 
LINE
 10 
 194.974401855469 
 20 
 221.927221679688 
 30 
 0 
 11 
 195.4 
 21 
 221.9 
 31 
 0 
 0 
LINE
 10 
 195.4 
 20 
 221.9 
 30 
 0 
 11 
 195.552795410156 
 21 
 221.064794921875 
 31 
 0 
 0 
LINE
 10 
 195.552795410156 
 20 
 221.064794921875 
 30 
 0 
 11 
 195.758410644531 
 21 
 218.96240234375 
 31 
 0 
 0 
LINE
 10 
 195.758410644531 
 20 
 218.96240234375 
 30 
 0 
 11 
 195.997607421875 
 21 
 215.83759765625 
 31 
 0 
 0 
LINE
 10 
 195.997607421875 
 20 
 215.83759765625 
 30 
 0 
 11 
 196.251208496094 
 21 
 211.935205078125 
 31 
 0 
 0 
LINE
 10 
 196.251208496094 
 20 
 211.935205078125 
 30 
 0 
 11 
 196.5 
 21 
 207.5 
 31 
 0 
 0 
LINE
 10 
 196.5 
 20 
 207.5 
 30 
 0 
 11 
 197.2 
 21 
 193.5 
 31 
 0 
 0 
LINE
 10 
 197.2 
 20 
 193.5 
 30 
 0 
 11 
 190.9 
 21 
 191.2 
 31 
 0 
 0 
LINE
 10 
 190.9 
 20 
 191.2 
 30 
 0 
 11 
 188.855993652344 
 21 
 190.510388183594 
 31 
 0 
 0 
LINE
 10 
 188.855993652344 
 20 
 190.510388183594 
 30 
 0 
 11 
 187.003991699219 
 21 
 189.907202148438 
 31 
 0 
 0 
LINE
 10 
 187.003991699219 
 20 
 189.907202148438 
 30 
 0 
 11 
 185.464001464844 
 21 
 189.428796386719 
 31 
 0 
 0 
LINE
 10 
 185.464001464844 
 20 
 189.428796386719 
 30 
 0 
 11 
 184.356005859375 
 21 
 189.113598632813 
 31 
 0 
 0 
LINE
 10 
 184.356005859375 
 20 
 189.113598632813 
 30 
 0 
 11 
 183.8 
 21 
 189 
 31 
 0 
 0 
LINE
 10 
 183.8 
 20 
 189 
 30 
 0 
 11 
 183.524792480469 
 21 
 189.363195800781 
 31 
 0 
 0 
LINE
 10 
 183.524792480469 
 20 
 189.363195800781 
 30 
 0 
 11 
 183.302404785156 
 21 
 190.369604492188 
 31 
 0 
 0 
LINE
 10 
 183.302404785156 
 20 
 190.369604492188 
 30 
 0 
 11 
 183.13759765625 
 21 
 191.894396972656 
 31 
 0 
 0 
LINE
 10 
 183.13759765625 
 20 
 191.894396972656 
 30 
 0 
 11 
 183.035205078125 
 21 
 193.812805175781 
 31 
 0 
 0 
LINE
 10 
 183.035205078125 
 20 
 193.812805175781 
 30 
 0 
 11 
 183 
 21 
 196 
 31 
 0 
 0 
LINE
 10 
 183 
 20 
 196 
 30 
 0 
 11 
 182.970385742188 
 21 
 199.339196777344 
 31 
 0 
 0 
LINE
 10 
 182.970385742188 
 20 
 199.339196777344 
 30 
 0 
 11 
 182.811206054688 
 21 
 201.401611328125 
 31 
 0 
 0 
LINE
 10 
 182.811206054688 
 20 
 201.401611328125 
 30 
 0 
 11 
 182.416796875 
 21 
 202.494409179688 
 31 
 0 
 0 
LINE
 10 
 182.416796875 
 20 
 202.494409179688 
 30 
 0 
 11 
 181.681604003906 
 21 
 202.9248046875 
 31 
 0 
 0 
LINE
 10 
 181.681604003906 
 20 
 202.9248046875 
 30 
 0 
 11 
 180.5 
 21 
 203 
 31 
 0 
 0 
LINE
 10 
 180.5 
 20 
 203 
 30 
 0 
 11 
 179.318395996094 
 21 
 202.925598144531 
 31 
 0 
 0 
LINE
 10 
 179.318395996094 
 20 
 202.925598144531 
 30 
 0 
 11 
 178.583203125 
 21 
 202.500817871094 
 31 
 0 
 0 
LINE
 10 
 178.583203125 
 20 
 202.500817871094 
 30 
 0 
 11 
 178.188793945313 
 21 
 201.423205566406 
 31 
 0 
 0 
LINE
 10 
 178.188793945313 
 20 
 201.423205566406 
 30 
 0 
 11 
 178.029602050781 
 21 
 199.390405273438 
 31 
 0 
 0 
LINE
 10 
 178.029602050781 
 20 
 199.390405273438 
 30 
 0 
 11 
 178 
 21 
 196.1 
 31 
 0 
 0 
LINE
 10 
 178 
 20 
 196.1 
 30 
 0 
 11 
 178 
 21 
 189.3 
 31 
 0 
 0 
LINE
 10 
 178 
 20 
 189.3 
 30 
 0 
 11 
 172.1 
 21 
 187.1 
 31 
 0 
 0 
LINE
 10 
 172.1 
 20 
 187.1 
 30 
 0 
 11 
 170.23359375 
 21 
 186.459191894531 
 31 
 0 
 0 
LINE
 10 
 170.23359375 
 20 
 186.459191894531 
 30 
 0 
 11 
 168.544812011719 
 21 
 185.885607910156 
 31 
 0 
 0 
LINE
 10 
 168.544812011719 
 20 
 185.885607910156 
 30 
 0 
 11 
 167.139208984375 
 21 
 185.422412109375 
 31 
 0 
 0 
LINE
 10 
 167.139208984375 
 20 
 185.422412109375 
 30 
 0 
 11 
 166.122399902344 
 21 
 185.112805175781 
 31 
 0 
 0 
LINE
 10 
 166.122399902344 
 20 
 185.112805175781 
 30 
 0 
 11 
 165.6 
 21 
 185 
 31 
 0 
 0 
LINE
 10 
 165.6 
 20 
 185 
 30 
 0 
 11 
 165.422387695313 
 21 
 185.465600585938 
 31 
 0 
 0 
LINE
 10 
 165.422387695313 
 20 
 185.465600585938 
 30 
 0 
 11 
 165.259204101563 
 21 
 186.756811523438 
 31 
 0 
 0 
LINE
 10 
 165.259204101563 
 20 
 186.756811523438 
 30 
 0 
 11 
 165.1248046875 
 21 
 188.715197753906 
 31 
 0 
 0 
LINE
 10 
 165.1248046875 
 20 
 188.715197753906 
 30 
 0 
 11 
 165.033605957031 
 21 
 191.182409667969 
 31 
 0 
 0 
LINE
 10 
 165.033605957031 
 20 
 191.182409667969 
 30 
 0 
 11 
 165 
 21 
 194 
 31 
 0 
 0 
LINE
 10 
 165 
 20 
 194 
 30 
 0 
 11 
 165 
 21 
 203 
 31 
 0 
 0 
LINE
 10 
 165 
 20 
 203 
 30 
 0 
 11 
 160.5 
 21 
 203 
 31 
 0 
 0 
LINE
 10 
 160.5 
 20 
 203 
 30 
 0 
 11 
 156 
 21 
 203 
 31 
 0 
 0 
LINE
 10 
 156 
 20 
 203 
 30 
 0 
 11 
 156 
 21 
 196.1 
 31 
 0 
 0 
LINE
 10 
 156 
 20 
 196.1 
 30 
 0 
 11 
 156 
 21 
 189.3 
 31 
 0 
 0 
LINE
 10 
 156 
 20 
 189.3 
 30 
 0 
 11 
 149.1 
 21 
 188.1 
 31 
 0 
 0 
LINE
 10 
 149.1 
 20 
 188.1 
 30 
 0 
 11 
 143.902392578125 
 21 
 187.291198730469 
 31 
 0 
 0 
LINE
 10 
 143.902392578125 
 20 
 187.291198730469 
 30 
 0 
 11 
 140.87919921875 
 21 
 187.173620605469 
 31 
 0 
 0 
LINE
 10 
 140.87919921875 
 20 
 187.173620605469 
 30 
 0 
 11 
 139.444799804688 
 21 
 188.150402832031 
 31 
 0 
 0 
LINE
 10 
 139.444799804688 
 20 
 188.150402832031 
 30 
 0 
 11 
 139.013598632813 
 21 
 190.6248046875 
 31 
 0 
 0 
LINE
 10 
 139.013598632813 
 20 
 190.6248046875 
 30 
 0 
 11 
 139 
 21 
 195 
 31 
 0 
 0 
LINE
 10 
 139 
 20 
 195 
 30 
 0 
 11 
 138.964794921875 
 21 
 198.635192871094 
 31 
 0 
 0 
LINE
 10 
 138.964794921875 
 20 
 198.635192871094 
 30 
 0 
 11 
 138.814416503906 
 21 
 200.969604492188 
 31 
 0 
 0 
LINE
 10 
 138.814416503906 
 20 
 200.969604492188 
 30 
 0 
 11 
 138.481604003906 
 21 
 202.286413574219 
 31 
 0 
 0 
LINE
 10 
 138.481604003906 
 20 
 202.286413574219 
 30 
 0 
 11 
 137.899206542969 
 21 
 202.868811035156 
 31 
 0 
 0 
LINE
 10 
 137.899206542969 
 20 
 202.868811035156 
 30 
 0 
 11 
 137 
 21 
 203 
 31 
 0 
 0 
LINE
 10 
 137 
 20 
 203 
 30 
 0 
 11 
 136.06240234375 
 21 
 202.760803222656 
 31 
 0 
 0 
LINE
 10 
 136.06240234375 
 20 
 202.760803222656 
 30 
 0 
 11 
 135.475207519531 
 21 
 201.422412109375 
 31 
 0 
 0 
LINE
 10 
 135.475207519531 
 20 
 201.422412109375 
 30 
 0 
 11 
 135.156799316406 
 21 
 198.053601074219 
 31 
 0 
 0 
LINE
 10 
 135.156799316406 
 20 
 198.053601074219 
 30 
 0 
 11 
 135.025598144531 
 21 
 191.723205566406 
 31 
 0 
 0 
LINE
 10 
 135.025598144531 
 20 
 191.723205566406 
 30 
 0 
 11 
 135 
 21 
 181.5 
 31 
 0 
 0 
LINE
 10 
 135 
 20 
 181.5 
 30 
 0 
 11 
 135 
 21 
 160 
 31 
 0 
 0 
LINE
 10 
 135 
 20 
 160 
 30 
 0 
 11 
 132.1 
 21 
 160 
 31 
 0 
 0 
LINE
 10 
 132.1 
 20 
 160 
 30 
 0 
 11 
 130.848791503906 
 21 
 159.917602539063 
 31 
 0 
 0 
LINE
 10 
 130.848791503906 
 20 
 159.917602539063 
 30 
 0 
 11 
 129.914404296875 
 21 
 159.62880859375 
 31 
 0 
 0 
LINE
 10 
 129.914404296875 
 20 
 159.62880859375 
 30 
 0 
 11 
 129.205603027344 
 21 
 159.071203613281 
 31 
 0 
 0 
LINE
 10 
 129.205603027344 
 20 
 159.071203613281 
 30 
 0 
 11 
 128.631201171875 
 21 
 158.182397460938 
 31 
 0 
 0 
LINE
 10 
 128.631201171875 
 20 
 158.182397460938 
 30 
 0 
 11 
 128.1 
 21 
 156.9 
 31 
 0 
 0 
LINE
 10 
 128.1 
 20 
 156.9 
 30 
 0 
 11 
 127.755200195313 
 21 
 155.785607910156 
 31 
 0 
 0 
LINE
 10 
 127.755200195313 
 20 
 155.785607910156 
 30 
 0 
 11 
 127.453601074219 
 21 
 154.656811523438 
 31 
 0 
 0 
LINE
 10 
 127.453601074219 
 20 
 154.656811523438 
 30 
 0 
 11 
 127.214404296875 
 21 
 153.595202636719 
 31 
 0 
 0 
LINE
 10 
 127.214404296875 
 20 
 153.595202636719 
 30 
 0 
 11 
 127.056799316406 
 21 
 152.682397460938 
 31 
 0 
 0 
LINE
 10 
 127.056799316406 
 20 
 152.682397460938 
 30 
 0 
 11 
 127 
 21 
 152 
 31 
 0 
 0 
LINE
 10 
 127 
 20 
 152 
 30 
 0 
 11 
 126.886389160156 
 21 
 151.3751953125 
 31 
 0 
 0 
LINE
 10 
 126.886389160156 
 20 
 151.3751953125 
 30 
 0 
 11 
 126.57119140625 
 21 
 150.625598144531 
 31 
 0 
 0 
LINE
 10 
 126.57119140625 
 20 
 150.625598144531 
 30 
 0 
 11 
 126.092797851563 
 21 
 149.818395996094 
 31 
 0 
 0 
LINE
 10 
 126.092797851563 
 20 
 149.818395996094 
 30 
 0 
 11 
 125.489599609375 
 21 
 149.02080078125 
 31 
 0 
 0 
LINE
 10 
 125.489599609375 
 20 
 149.02080078125 
 30 
 0 
 11 
 124.8 
 21 
 148.3 
 31 
 0 
 0 
LINE
 10 
 124.8 
 20 
 148.3 
 30 
 0 
 11 
 123.914404296875 
 21 
 147.415197753906 
 31 
 0 
 0 
LINE
 10 
 123.914404296875 
 20 
 147.415197753906 
 30 
 0 
 11 
 122.875207519531 
 21 
 146.261596679688 
 31 
 0 
 0 
LINE
 10 
 122.875207519531 
 20 
 146.261596679688 
 30 
 0 
 11 
 121.768798828125 
 21 
 144.930395507813 
 31 
 0 
 0 
LINE
 10 
 121.768798828125 
 20 
 144.930395507813 
 30 
 0 
 11 
 120.681604003906 
 21 
 143.512805175781 
 31 
 0 
 0 
LINE
 10 
 120.681604003906 
 20 
 143.512805175781 
 30 
 0 
 11 
 119.7 
 21 
 142.1 
 31 
 0 
 0 
LINE
 10 
 119.7 
 20 
 142.1 
 30 
 0 
 11 
 118.473596191406 
 21 
 140.444799804688 
 31 
 0 
 0 
LINE
 10 
 118.473596191406 
 20 
 140.444799804688 
 30 
 0 
 11 
 117.376806640625 
 21 
 139.274401855469 
 31 
 0 
 0 
LINE
 10 
 117.376806640625 
 20 
 139.274401855469 
 30 
 0 
 11 
 116.323205566406 
 21 
 138.521606445313 
 31 
 0 
 0 
LINE
 10 
 116.323205566406 
 20 
 138.521606445313 
 30 
 0 
 11 
 115.226403808594 
 21 
 138.119201660156 
 31 
 0 
 0 
LINE
 10 
 115.226403808594 
 20 
 138.119201660156 
 30 
 0 
 11 
 114 
 21 
 138 
 31 
 0 
 0 
LINE
 10 
 114 
 20 
 138 
 30 
 0 
 11 
 112.307202148438 
 21 
 137.686401367188 
 31 
 0 
 0 
LINE
 10 
 112.307202148438 
 20 
 137.686401367188 
 30 
 0 
 11 
 110.009606933594 
 21 
 136.211193847656 
 31 
 0 
 0 
LINE
 10 
 110.009606933594 
 20 
 136.211193847656 
 30 
 0 
 11 
 106.238403320313 
 21 
 132.772790527344 
 31 
 0 
 0 
LINE
 10 
 106.238403320313 
 20 
 132.772790527344 
 30 
 0 
 11 
 100.124798583984 
 21 
 126.569604492188 
 31 
 0 
 0 
LINE
 10 
 100.124798583984 
 20 
 126.569604492188 
 30 
 0 
 11 
 90.8 
 21 
 116.8 
 31 
 0 
 0 
LINE
 10 
 90.8 
 20 
 116.8 
 30 
 0 
 11 
 89.63359375 
 21 
 115.702392578125 
 31 
 0 
 0 
LINE
 10 
 89.63359375 
 20 
 115.702392578125 
 30 
 0 
 11 
 88.4768005371094 
 21 
 114.907202148438 
 31 
 0 
 0 
LINE
 10 
 88.4768005371094 
 20 
 114.907202148438 
 30 
 0 
 11 
 87.2432006835938 
 21 
 114.380798339844 
 31 
 0 
 0 
LINE
 10 
 87.2432006835938 
 20 
 114.380798339844 
 30 
 0 
 11 
 85.8463989257813 
 21 
 114.089599609375 
 31 
 0 
 0 
LINE
 10 
 85.8463989257813 
 20 
 114.089599609375 
 30 
 0 
 11 
 84.2 
 21 
 114 
 31 
 0 
 0 
LINE
 10 
 84.2 
 20 
 114 
 30 
 0 
 11 
 82.7240051269531 
 21 
 113.926391601563 
 31 
 0 
 0 
LINE
 10 
 82.7240051269531 
 20 
 113.926391601563 
 30 
 0 
 11 
 81.4160034179688 
 21 
 113.699206542969 
 31 
 0 
 0 
LINE
 10 
 81.4160034179688 
 20 
 113.699206542969 
 30 
 0 
 11 
 80.2759948730469 
 21 
 113.308801269531 
 31 
 0 
 0 
LINE
 10 
 80.2759948730469 
 20 
 113.308801269531 
 30 
 0 
 11 
 79.30400390625 
 21 
 112.74560546875 
 31 
 0 
 0 
LINE
 10 
 79.30400390625 
 20 
 112.74560546875 
 30 
 0 
 11 
 78.5 
 21 
 112 
 31 
 0 
 0 
LINE
 10 
 78.5 
 20 
 112 
 30 
 0 
 11 
 77.689599609375 
 21 
 111.300793457031 
 31 
 0 
 0 
LINE
 10 
 77.689599609375 
 20 
 111.300793457031 
 30 
 0 
 11 
 76.5288024902344 
 21 
 110.5583984375 
 31 
 0 
 0 
LINE
 10 
 76.5288024902344 
 20 
 110.5583984375 
 30 
 0 
 11 
 75.1231994628906 
 21 
 109.825598144531 
 31 
 0 
 0 
LINE
 10 
 75.1231994628906 
 20 
 109.825598144531 
 30 
 0 
 11 
 73.5783996582031 
 21 
 109.155200195313 
 31 
 0 
 0 
LINE
 10 
 73.5783996582031 
 20 
 109.155200195313 
 30 
 0 
 11 
 72 
 21 
 108.6 
 31 
 0 
 0 
LINE
 10 
 72 
 20 
 108.6 
 30 
 0 
 11 
 67.27919921875 
 21 
 106.931201171875 
 31 
 0 
 0 
LINE
 10 
 67.27919921875 
 20 
 106.931201171875 
 30 
 0 
 11 
 63.489599609375 
 21 
 104.993603515625 
 31 
 0 
 0 
LINE
 10 
 63.489599609375 
 20 
 104.993603515625 
 30 
 0 
 11 
 60.5304016113281 
 21 
 102.710400390625 
 31 
 0 
 0 
LINE
 10 
 60.5304016113281 
 20 
 102.710400390625 
 30 
 0 
 11 
 58.3007995605469 
 21 
 100.004803466797 
 31 
 0 
 0 
LINE
 10 
 58.3007995605469 
 20 
 100.004803466797 
 30 
 0 
 11 
 56.7 
 21 
 96.8 
 31 
 0 
 0 
LINE
 10 
 56.7 
 20 
 96.8 
 30 
 0 
 11 
 56.6184020996094 
 21 
 95.6480041503906 
 31 
 0 
 0 
LINE
 10 
 56.6184020996094 
 20 
 95.6480041503906 
 30 
 0 
 11 
 57.3192016601563 
 21 
 95.0720031738281 
 31 
 0 
 0 
LINE
 10 
 57.3192016601563 
 20 
 95.0720031738281 
 30 
 0 
 11 
 58.6007995605469 
 21 
 95.0719970703125 
 31 
 0 
 0 
LINE
 10 
 58.6007995605469 
 20 
 95.0719970703125 
 30 
 0 
 11 
 60.2616027832031 
 21 
 95.647998046875 
 31 
 0 
 0 
LINE
 10 
 60.2616027832031 
 20 
 95.647998046875 
 30 
 0 
 11 
 62.1 
 21 
 96.8 
 31 
 0 
 0 
LINE
 10 
 62.1 
 20 
 96.8 
 30 
 0 
 11 
 65.4863952636719 
 21 
 98.5847961425781 
 31 
 0 
 0 
LINE
 10 
 65.4863952636719 
 20 
 98.5847961425781 
 30 
 0 
 11 
 70.3512023925781 
 21 
 100.254400634766 
 31 
 0 
 0 
LINE
 10 
 70.3512023925781 
 20 
 100.254400634766 
 30 
 0 
 11 
 75.4127990722656 
 21 
 101.501605224609 
 31 
 0 
 0 
LINE
 10 
 75.4127990722656 
 20 
 101.501605224609 
 30 
 0 
 11 
 79.389599609375 
 21 
 102.019201660156 
 31 
 0 
 0 
LINE
 10 
 79.389599609375 
 20 
 102.019201660156 
 30 
 0 
 11 
 81 
 21 
 101.5 
 31 
 0 
 0 
LINE
 10 
 81 
 20 
 101.5 
 30 
 0 
 11 
 80.9199951171875 
 21 
 101.197601318359 
 31 
 0 
 0 
LINE
 10 
 80.9199951171875 
 20 
 101.197601318359 
 30 
 0 
 11 
 80.6960021972656 
 21 
 100.688800048828 
 31 
 0 
 0 
LINE
 10 
 80.6960021972656 
 20 
 100.688800048828 
 30 
 0 
 11 
 80.352001953125 
 21 
 100.031201171875 
 31 
 0 
 0 
LINE
 10 
 80.352001953125 
 20 
 100.031201171875 
 30 
 0 
 11 
 79.9119995117188 
 21 
 99.2824035644531 
 31 
 0 
 0 
LINE
 10 
 79.9119995117188 
 20 
 99.2824035644531 
 30 
 0 
 11 
 79.4 
 21 
 98.5 
 31 
 0 
 0 
LINE
 10 
 79.4 
 20 
 98.5 
 30 
 0 
 11 
 78.6423950195313 
 21 
 97.2799926757813 
 31 
 0 
 0 
LINE
 10 
 78.6423950195313 
 20 
 97.2799926757813 
 30 
 0 
 11 
 78.331201171875 
 21 
 96.5400024414063 
 31 
 0 
 0 
LINE
 10 
 78.331201171875 
 20 
 96.5400024414063 
 30 
 0 
 11 
 78.5288024902344 
 21 
 96.1600036621094 
 31 
 0 
 0 
LINE
 10 
 78.5288024902344 
 20 
 96.1600036621094 
 30 
 0 
 11 
 79.2976013183594 
 21 
 96.0200012207031 
 31 
 0 
 0 
LINE
 10 
 79.2976013183594 
 20 
 96.0200012207031 
 30 
 0 
 11 
 80.7 
 21 
 96 
 31 
 0 
 0 
LINE
 10 
 80.7 
 20 
 96 
 30 
 0 
 11 
 81.6735961914063 
 21 
 96.0575988769531 
 31 
 0 
 0 
LINE
 10 
 81.6735961914063 
 20 
 96.0575988769531 
 30 
 0 
 11 
 82.6328002929688 
 21 
 96.2208068847656 
 31 
 0 
 0 
LINE
 10 
 82.6328002929688 
 20 
 96.2208068847656 
 30 
 0 
 11 
 83.5151977539063 
 21 
 96.4752014160156 
 31 
 0 
 0 
LINE
 10 
 83.5151977539063 
 20 
 96.4752014160156 
 30 
 0 
 11 
 84.2583984375 
 21 
 96.8064025878906 
 31 
 0 
 0 
LINE
 10 
 84.2583984375 
 20 
 96.8064025878906 
 30 
 0 
 11 
 84.8 
 21 
 97.2 
 31 
 0 
 0 
LINE
 10 
 84.8 
 20 
 97.2 
 30 
 0 
 11 
 86.6143981933594 
 21 
 98.1 
 31 
 0 
 0 
LINE
 10 
 86.6143981933594 
 20 
 98.1 
 30 
 0 
 11 
 90.4111999511719 
 21 
 99.3840087890625 
 31 
 0 
 0 
LINE
 10 
 90.4111999511719 
 20 
 99.3840087890625 
 30 
 0 
 11 
 95.7007995605469 
 21 
 100.908001708984 
 31 
 0 
 0 
LINE
 10 
 95.7007995605469 
 20 
 100.908001708984 
 30 
 0 
 11 
 101.993603515625 
 21 
 102.528002929688 
 31 
 0 
 0 
LINE
 10 
 101.993603515625 
 20 
 102.528002929688 
 30 
 0 
 11 
 108.8 
 21 
 104.1 
 31 
 0 
 0 
LINE
 10 
 108.8 
 20 
 104.1 
 30 
 0 
 11 
 110.687194824219 
 21 
 104.569592285156 
 31 
 0 
 0 
LINE
 10 
 110.687194824219 
 20 
 104.569592285156 
 30 
 0 
 11 
 112.0416015625 
 21 
 105.024792480469 
 31 
 0 
 0 
LINE
 10 
 112.0416015625 
 20 
 105.024792480469 
 30 
 0 
 11 
 112.882397460938 
 21 
 105.4751953125 
 31 
 0 
 0 
LINE
 10 
 112.882397460938 
 20 
 105.4751953125 
 30 
 0 
 11 
 113.22880859375 
 21 
 105.930407714844 
 31 
 0 
 0 
LINE
 10 
 113.22880859375 
 20 
 105.930407714844 
 30 
 0 
 11 
 113.1 
 21 
 106.4 
 31 
 0 
 0 
LINE
 10 
 113.1 
 20 
 106.4 
 30 
 0 
 11 
 112.834387207031 
 21 
 106.865588378906 
 31 
 0 
 0 
LINE
 10 
 112.834387207031 
 20 
 106.865588378906 
 30 
 0 
 11 
 112.751208496094 
 21 
 107.412805175781 
 31 
 0 
 0 
LINE
 10 
 112.751208496094 
 20 
 107.412805175781 
 30 
 0 
 11 
 112.840795898438 
 21 
 108.027209472656 
 31 
 0 
 0 
LINE
 10 
 112.840795898438 
 20 
 108.027209472656 
 30 
 0 
 11 
 113.093603515625 
 21 
 108.694396972656 
 31 
 0 
 0 
LINE
 10 
 113.093603515625 
 20 
 108.694396972656 
 30 
 0 
 11 
 113.5 
 21 
 109.4 
 31 
 0 
 0 
LINE
 10 
 113.5 
 20 
 109.4 
 30 
 0 
 11 
 115.430395507813 
 21 
 110.599194335938 
 31 
 0 
 0 
LINE
 10 
 115.430395507813 
 20 
 110.599194335938 
 30 
 0 
 11 
 119.247204589844 
 21 
 111.553601074219 
 31 
 0 
 0 
LINE
 10 
 119.247204589844 
 20 
 111.553601074219 
 30 
 0 
 11 
 124.868798828125 
 21 
 112.2583984375 
 31 
 0 
 0 
LINE
 10 
 124.868798828125 
 20 
 112.2583984375 
 30 
 0 
 11 
 132.213610839844 
 21 
 112.708801269531 
 31 
 0 
 0 
LINE
 10 
 132.213610839844 
 20 
 112.708801269531 
 30 
 0 
 11 
 141.2 
 21 
 112.9 
 31 
 0 
 0 
LINE
 10 
 141.2 
 20 
 112.9 
 30 
 0 
 11 
 150.9 
 21 
 113 
 31 
 0 
 0 
LINE
 10 
 150.9 
 20 
 113 
 30 
 0 
 11 
 153.7 
 21 
 109.1 
 31 
 0 
 0 
LINE
 10 
 153.7 
 20 
 109.1 
 30 
 0 
 11 
 154.748803710938 
 21 
 107.748803710938 
 31 
 0 
 0 
LINE
 10 
 154.748803710938 
 20 
 107.748803710938 
 30 
 0 
 11 
 156.018408203125 
 21 
 106.402404785156 
 31 
 0 
 0 
LINE
 10 
 156.018408203125 
 20 
 106.402404785156 
 30 
 0 
 11 
 157.393591308594 
 21 
 105.161596679688 
 31 
 0 
 0 
LINE
 10 
 157.393591308594 
 20 
 105.161596679688 
 30 
 0 
 11 
 158.759204101563 
 21 
 104.127197265625 
 31 
 0 
 0 
LINE
 10 
 158.759204101563 
 20 
 104.127197265625 
 30 
 0 
 11 
 160 
 21 
 103.4 
 31 
 0 
 0 
LINE
 10 
 160 
 20 
 103.4 
 30 
 0 
 11 
 161.555993652344 
 21 
 102.595190429688 
 31 
 0 
 0 
LINE
 10 
 161.555993652344 
 20 
 102.595190429688 
 30 
 0 
 11 
 162.416015625 
 21 
 102.049603271484 
 31 
 0 
 0 
LINE
 10 
 162.416015625 
 20 
 102.049603271484 
 30 
 0 
 11 
 162.628002929688 
 21 
 101.686401367188 
 31 
 0 
 0 
LINE
 10 
 162.628002929688 
 20 
 101.686401367188 
 30 
 0 
 11 
 162.240002441406 
 21 
 101.428802490234 
 31 
 0 
 0 
LINE
 10 
 162.240002441406 
 20 
 101.428802490234 
 30 
 0 
 11 
 161.3 
 21 
 101.2 
 31 
 0 
 0 
LINE
 10 
 161.3 
 20 
 101.2 
 30 
 0 
 11 
 159.87119140625 
 21 
 100.734399414063 
 31 
 0 
 0 
LINE
 10 
 159.87119140625 
 20 
 100.734399414063 
 30 
 0 
 11 
 159.181604003906 
 21 
 99.9952087402344 
 31 
 0 
 0 
LINE
 10 
 159.181604003906 
 20 
 99.9952087402344 
 30 
 0 
 11 
 159.226403808594 
 21 
 99.068798828125 
 31 
 0 
 0 
LINE
 10 
 159.226403808594 
 20 
 99.068798828125 
 30 
 0 
 11 
 160.000805664063 
 21 
 98.0416015625 
 31 
 0 
 0 
LINE
 10 
 160.000805664063 
 20 
 98.0416015625 
 30 
 0 
 11 
 161.5 
 21 
 97 
 31 
 0 
 0 
LINE
 10 
 161.5 
 20 
 97 
 30 
 0 
 11 
 162.706396484375 
 21 
 96.4703979492188 
 31 
 0 
 0 
LINE
 10 
 162.706396484375 
 20 
 96.4703979492188 
 30 
 0 
 11 
 164.047216796875 
 21 
 96.1952026367188 
 31 
 0 
 0 
LINE
 10 
 164.047216796875 
 20 
 96.1952026367188 
 30 
 0 
 11 
 165.704797363281 
 21 
 96.1648010253906 
 31 
 0 
 0 
LINE
 10 
 165.704797363281 
 20 
 96.1648010253906 
 30 
 0 
 11 
 167.861608886719 
 21 
 96.3695983886719 
 31 
 0 
 0 
LINE
 10 
 167.861608886719 
 20 
 96.3695983886719 
 30 
 0 
 11 
 170.7 
 21 
 96.8 
 31 
 0 
 0 
LINE
 10 
 170.7 
 20 
 96.8 
 30 
 0 
 11 
 173.071203613281 
 21 
 97.1791931152344 
 31 
 0 
 0 
LINE
 10 
 173.071203613281 
 20 
 97.1791931152344 
 30 
 0 
 11 
 175.509606933594 
 21 
 97.5776062011719 
 31 
 0 
 0 
LINE
 10 
 175.509606933594 
 20 
 97.5776062011719 
 30 
 0 
 11 
 177.842407226563 
 21 
 97.9664001464844 
 31 
 0 
 0 
LINE
 10 
 177.842407226563 
 20 
 97.9664001464844 
 30 
 0 
 11 
 179.896801757813 
 21 
 98.3168029785156 
 31 
 0 
 0 
LINE
 10 
 179.896801757813 
 20 
 98.3168029785156 
 30 
 0 
 11 
 181.5 
 21 
 98.6 
 31 
 0 
 0 
LINE
 10 
 181.5 
 20 
 98.6 
 30 
 0 
 11 
 183.044787597656 
 21 
 98.8231994628906 
 31 
 0 
 0 
LINE
 10 
 183.044787597656 
 20 
 98.8231994628906 
 30 
 0 
 11 
 184.930407714844 
 21 
 99.1136047363281 
 31 
 0 
 0 
LINE
 10 
 184.930407714844 
 20 
 99.1136047363281 
 30 
 0 
 11 
 186.993603515625 
 21 
 99.4424011230469 
 31 
 0 
 0 
LINE
 10 
 186.993603515625 
 20 
 99.4424011230469 
 30 
 0 
 11 
 189.071203613281 
 21 
 99.7808044433594 
 31 
 0 
 0 
LINE
 10 
 189.071203613281 
 20 
 99.7808044433594 
 30 
 0 
 11 
 191 
 21 
 100.1 
 31 
 0 
 0 
LINE
 10 
 191 
 20 
 100.1 
 30 
 0 
 11 
 193.110388183594 
 21 
 100.431195068359 
 31 
 0 
 0 
LINE
 10 
 193.110388183594 
 20 
 100.431195068359 
 30 
 0 
 11 
 195.6912109375 
 21 
 100.805603027344 
 31 
 0 
 0 
LINE
 10 
 195.6912109375 
 20 
 100.805603027344 
 30 
 0 
 11 
 198.516796875 
 21 
 101.194396972656 
 31 
 0 
 0 
LINE
 10 
 198.516796875 
 20 
 101.194396972656 
 30 
 0 
 11 
 201.361608886719 
 21 
 101.568798828125 
 31 
 0 
 0 
LINE
 10 
 201.361608886719 
 20 
 101.568798828125 
 30 
 0 
 11 
 204 
 21 
 101.9 
 31 
 0 
 0 
LINE
 10 
 204 
 20 
 101.9 
 30 
 0 
 11 
 206.717602539063 
 21 
 102.253594970703 
 31 
 0 
 0 
LINE
 10 
 206.717602539063 
 20 
 102.253594970703 
 30 
 0 
 11 
 209.780810546875 
 21 
 102.688793945313 
 31 
 0 
 0 
LINE
 10 
 209.780810546875 
 20 
 102.688793945313 
 30 
 0 
 11 
 212.935205078125 
 21 
 103.167199707031 
 31 
 0 
 0 
LINE
 10 
 212.935205078125 
 20 
 103.167199707031 
 30 
 0 
 11 
 215.926391601563 
 21 
 103.650402832031 
 31 
 0 
 0 
LINE
 10 
 215.926391601563 
 20 
 103.650402832031 
 30 
 0 
 11 
 218.5 
 21 
 104.1 
 31 
 0 
 0 
LINE
 10 
 218.5 
 20 
 104.1 
 30 
 0 
 11 
 221.6591796875 
 21 
 104.493591308594 
 31 
 0 
 0 
LINE
 10 
 221.6591796875 
 20 
 104.493591308594 
 30 
 0 
 11 
 226.181616210938 
 21 
 104.8248046875 
 31 
 0 
 0 
LINE
 10 
 226.181616210938 
 20 
 104.8248046875 
 30 
 0 
 11 
 231.65439453125 
 21 
 105.07919921875 
 31 
 0 
 0 
LINE
 10 
 231.65439453125 
 20 
 105.07919921875 
 30 
 0 
 11 
 237.664794921875 
 21 
 105.242395019531 
 31 
 0 
 0 
LINE
 10 
 237.664794921875 
 20 
 105.242395019531 
 30 
 0 
 11 
 243.8 
 21 
 105.3 
 31 
 0 
 0 
LINE
 10 
 243.8 
 20 
 105.3 
 30 
 0 
 11 
 249.532788085938 
 21 
 105.334399414063 
 31 
 0 
 0 
LINE
 10 
 249.532788085938 
 20 
 105.334399414063 
 30 
 0 
 11 
 254.526391601563 
 21 
 105.431201171875 
 31 
 0 
 0 
LINE
 10 
 254.526391601563 
 20 
 105.431201171875 
 30 
 0 
 11 
 258.473608398438 
 21 
 105.580798339844 
 31 
 0 
 0 
LINE
 10 
 258.473608398438 
 20 
 105.580798339844 
 30 
 0 
 11 
 261.067211914063 
 21 
 105.773596191406 
 31 
 0 
 0 
LINE
 10 
 261.067211914063 
 20 
 105.773596191406 
 30 
 0 
 11 
 262 
 21 
 106 
 31 
 0 
 0 
LINE
 10 
 262 
 20 
 106 
 30 
 0 
 11 
 261.614404296875 
 21 
 106.899987792969 
 31 
 0 
 0 
LINE
 10 
 261.614404296875 
 20 
 106.899987792969 
 30 
 0 
 11 
 260.595190429688 
 21 
 107.944006347656 
 31 
 0 
 0 
LINE
 10 
 260.595190429688 
 20 
 107.944006347656 
 30 
 0 
 11 
 259.148803710938 
 21 
 108.988000488281 
 31 
 0 
 0 
LINE
 10 
 259.148803710938 
 20 
 108.988000488281 
 30 
 0 
 11 
 257.481616210938 
 21 
 109.888000488281 
 31 
 0 
 0 
LINE
 10 
 257.481616210938 
 20 
 109.888000488281 
 30 
 0 
 11 
 255.8 
 21 
 110.5 
 31 
 0 
 0 
LINE
 10 
 255.8 
 20 
 110.5 
 30 
 0 
 11 
 254.890380859375 
 21 
 110.823999023438 
 31 
 0 
 0 
LINE
 10 
 254.890380859375 
 20 
 110.823999023438 
 30 
 0 
 11 
 254.211206054688 
 21 
 111.19599609375 
 31 
 0 
 0 
LINE
 10 
 254.211206054688 
 20 
 111.19599609375 
 30 
 0 
 11 
 253.776806640625 
 21 
 111.616003417969 
 31 
 0 
 0 
LINE
 10 
 253.776806640625 
 20 
 111.616003417969 
 30 
 0 
 11 
 253.601611328125 
 21 
 112.084008789063 
 31 
 0 
 0 
LINE
 10 
 253.601611328125 
 20 
 112.084008789063 
 30 
 0 
 11 
 253.7 
 21 
 112.6 
 31 
 0 
 0 
LINE
 10 
 253.7 
 20 
 112.6 
 30 
 0 
 11 
 255.889624023438 
 21 
 113.511193847656 
 31 
 0 
 0 
LINE
 10 
 255.889624023438 
 20 
 113.511193847656 
 30 
 0 
 11 
 260.776806640625 
 21 
 113.961608886719 
 31 
 0 
 0 
LINE
 10 
 260.776806640625 
 20 
 113.961608886719 
 30 
 0 
 11 
 267.09921875 
 21 
 113.946398925781 
 31 
 0 
 0 
LINE
 10 
 267.09921875 
 20 
 113.946398925781 
 30 
 0 
 11 
 273.594409179688 
 21 
 113.460803222656 
 31 
 0 
 0 
LINE
 10 
 273.594409179688 
 20 
 113.460803222656 
 30 
 0 
 11 
 279 
 21 
 112.5 
 31 
 0 
 0 
LINE
 10 
 279 
 20 
 112.5 
 30 
 0 
 11 
 280.986376953125 
 21 
 112.036791992188 
 31 
 0 
 0 
LINE
 10 
 280.986376953125 
 20 
 112.036791992188 
 30 
 0 
 11 
 283.227197265625 
 21 
 111.626403808594 
 31 
 0 
 0 
LINE
 10 
 283.227197265625 
 20 
 111.626403808594 
 30 
 0 
 11 
 285.544799804688 
 21 
 111.297607421875 
 31 
 0 
 0 
LINE
 10 
 285.544799804688 
 20 
 111.297607421875 
 30 
 0 
 11 
 287.761596679688 
 21 
 111.07919921875 
 31 
 0 
 0 
LINE
 10 
 287.761596679688 
 20 
 111.07919921875 
 30 
 0 
 11 
 289.7 
 21 
 111 
 31 
 0 
 0 
LINE
 10 
 289.7 
 20 
 111 
 30 
 0 
 11 
 294.234399414063 
 21 
 110.786389160156 
 31 
 0 
 0 
LINE
 10 
 294.234399414063 
 20 
 110.786389160156 
 30 
 0 
 11 
 298.47119140625 
 21 
 110.203198242188 
 31 
 0 
 0 
LINE
 10 
 298.47119140625 
 20 
 110.203198242188 
 30 
 0 
 11 
 302.040795898438 
 21 
 109.336804199219 
 31 
 0 
 0 
LINE
 10 
 302.040795898438 
 20 
 109.336804199219 
 30 
 0 
 11 
 304.573608398438 
 21 
 108.273596191406 
 31 
 0 
 0 
LINE
 10 
 304.573608398438 
 20 
 108.273596191406 
 30 
 0 
 11 
 305.7 
 21 
 107.1 
 31 
 0 
 0 
LINE
 10 
 305.7 
 20 
 107.1 
 30 
 0 
 11 
 306.66318359375 
 21 
 105.582397460938 
 31 
 0 
 0 
LINE
 10 
 306.66318359375 
 20 
 105.582397460938 
 30 
 0 
 11 
 308.5576171875 
 21 
 103.959204101563 
 31 
 0 
 0 
LINE
 10 
 308.5576171875 
 20 
 103.959204101563 
 30 
 0 
 11 
 310.97041015625 
 21 
 102.484802246094 
 31 
 0 
 0 
LINE
 10 
 310.97041015625 
 20 
 102.484802246094 
 30 
 0 
 11 
 313.488818359375 
 21 
 101.413598632813 
 31 
 0 
 0 
LINE
 10 
 313.488818359375 
 20 
 101.413598632813 
 30 
 0 
 11 
 315.7 
 21 
 101 
 31 
 0 
 0 
LINE
 10 
 315.7 
 20 
 101 
 30 
 0 
 11 
 321.176806640625 
 21 
 100.128796386719 
 31 
 0 
 0 
LINE
 10 
 321.176806640625 
 20 
 100.128796386719 
 30 
 0 
 11 
 331.722412109375 
 21 
 97.9664001464844 
 31 
 0 
 0 
LINE
 10 
 331.722412109375 
 20 
 97.9664001464844 
 30 
 0 
 11 
 344.269604492188 
 21 
 95.1896057128906 
 31 
 0 
 0 
LINE
 10 
 344.269604492188 
 20 
 95.1896057128906 
 30 
 0 
 11 
 355.751196289063 
 21 
 92.4752014160156 
 31 
 0 
 0 
LINE
 10 
 355.751196289063 
 20 
 92.4752014160156 
 30 
 0 
 11 
 363.1 
 21 
 90.5 
 31 
 0 
 0 
LINE
 10 
 363.1 
 20 
 90.5 
 30 
 0 
 11 
 364.6671875 
 21 
 90.0367980957031 
 31 
 0 
 0 
LINE
 10 
 364.6671875 
 20 
 90.0367980957031 
 30 
 0 
 11 
 366.181616210938 
 21 
 89.6264038085938 
 31 
 0 
 0 
LINE
 10 
 366.181616210938 
 20 
 89.6264038085938 
 30 
 0 
 11 
 367.5423828125 
 21 
 89.2975952148438 
 31 
 0 
 0 
LINE
 10 
 367.5423828125 
 20 
 89.2975952148438 
 30 
 0 
 11 
 368.648803710938 
 21 
 89.07919921875 
 31 
 0 
 0 
LINE
 10 
 368.648803710938 
 20 
 89.07919921875 
 30 
 0 
 11 
 369.4 
 21 
 89 
 31 
 0 
 0 
LINE
 10 
 369.4 
 20 
 89 
 30 
 0 
 11 
 370.334375 
 21 
 89.3359985351563 
 31 
 0 
 0 
LINE
 10 
 370.334375 
 20 
 89.3359985351563 
 30 
 0 
 11 
 370.851220703125 
 21 
 90.1999938964844 
 31 
 0 
 0 
LINE
 10 
 370.851220703125 
 20 
 90.1999938964844 
 30 
 0 
 11 
 370.940795898438 
 21 
 91.3760009765625 
 31 
 0 
 0 
LINE
 10 
 370.940795898438 
 20 
 91.3760009765625 
 30 
 0 
 11 
 370.593603515625 
 21 
 92.6480041503906 
 31 
 0 
 0 
LINE
 10 
 370.593603515625 
 20 
 92.6480041503906 
 30 
 0 
 11 
 369.8 
 21 
 93.8 
 31 
 0 
 0 
LINE
 10 
 369.8 
 20 
 93.8 
 30 
 0 
 11 
 369.170385742188 
 21 
 94.6903991699219 
 31 
 0 
 0 
LINE
 10 
 369.170385742188 
 20 
 94.6903991699219 
 30 
 0 
 11 
 369.851220703125 
 21 
 94.9231994628906 
 31 
 0 
 0 
LINE
 10 
 369.851220703125 
 20 
 94.9231994628906 
 30 
 0 
 11 
 372.096801757813 
 21 
 94.4407958984375 
 31 
 0 
 0 
LINE
 10 
 372.096801757813 
 20 
 94.4407958984375 
 30 
 0 
 11 
 376.161596679688 
 21 
 93.1856018066406 
 31 
 0 
 0 
LINE
 10 
 376.161596679688 
 20 
 93.1856018066406 
 30 
 0 
 11 
 382.3 
 21 
 91.1 
 31 
 0 
 0 
LINE
 10 
 382.3 
 20 
 91.1 
 30 
 0 
 11 
 390.761596679688 
 21 
 88.0616027832031 
 31 
 0 
 0 
LINE
 10 
 390.761596679688 
 20 
 88.0616027832031 
 30 
 0 
 11 
 398.152807617188 
 21 
 85.2968017578125 
 31 
 0 
 0 
LINE
 10 
 398.152807617188 
 20 
 85.2968017578125 
 30 
 0 
 11 
 404.483203125 
 21 
 82.7911987304688 
 31 
 0 
 0 
LINE
 10 
 404.483203125 
 20 
 82.7911987304688 
 30 
 0 
 11 
 409.76240234375 
 21 
 80.5304016113281 
 31 
 0 
 0 
LINE
 10 
 409.76240234375 
 20 
 80.5304016113281 
 30 
 0 
 11 
 414 
 21 
 78.5 
 31 
 0 
 0 
LINE
 10 
 414 
 20 
 78.5 
 30 
 0 
 11 
 415.68798828125 
 21 
 77.6776000976563 
 31 
 0 
 0 
LINE
 10 
 415.68798828125 
 20 
 77.6776000976563 
 30 
 0 
 11 
 417.2080078125 
 21 
 77.0328063964844 
 31 
 0 
 0 
LINE
 10 
 417.2080078125 
 20 
 77.0328063964844 
 30 
 0 
 11 
 418.464013671875 
 21 
 76.5991943359375 
 31 
 0 
 0 
LINE
 10 
 418.464013671875 
 20 
 76.5991943359375 
 30 
 0 
 11 
 419.360009765625 
 21 
 76.410400390625 
 31 
 0 
 0 
LINE
 10 
 419.360009765625 
 20 
 76.410400390625 
 30 
 0 
 11 
 419.8 
 21 
 76.5 
 31 
 0 
 0 
LINE
 10 
 419.8 
 20 
 76.5 
 30 
 0 
 11 
 419.79521484375 
 21 
 76.8607971191406 
 31 
 0 
 0 
LINE
 10 
 419.79521484375 
 20 
 76.8607971191406 
 30 
 0 
 11 
 419.449609375 
 21 
 77.5383972167969 
 31 
 0 
 0 
LINE
 10 
 419.449609375 
 20 
 77.5383972167969 
 30 
 0 
 11 
 418.806396484375 
 21 
 78.4656005859375 
 31 
 0 
 0 
LINE
 10 
 418.806396484375 
 20 
 78.4656005859375 
 30 
 0 
 11 
 417.9087890625 
 21 
 79.5752014160156 
 31 
 0 
 0 
LINE
 10 
 417.9087890625 
 20 
 79.5752014160156 
 30 
 0 
 11 
 416.8 
 21 
 80.8 
 31 
 0 
 0 
LINE
 10 
 416.8 
 20 
 80.8 
 30 
 0 
 11 
 415.623974609375 
 21 
 82.0552001953125 
 31 
 0 
 0 
LINE
 10 
 415.623974609375 
 20 
 82.0552001953125 
 30 
 0 
 11 
 414.54404296875 
 21 
 83.3536010742188 
 31 
 0 
 0 
LINE
 10 
 414.54404296875 
 20 
 83.3536010742188 
 30 
 0 
 11 
 413.63203125 
 21 
 84.5944030761719 
 31 
 0 
 0 
LINE
 10 
 413.63203125 
 20 
 84.5944030761719 
 30 
 0 
 11 
 412.960009765625 
 21 
 85.6768005371094 
 31 
 0 
 0 
LINE
 10 
 412.960009765625 
 20 
 85.6768005371094 
 30 
 0 
 11 
 412.6 
 21 
 86.5 
 31 
 0 
 0 
LINE
 10 
 412.6 
 20 
 86.5 
 30 
 0 
 11 
 412.183203125 
 21 
 87.3919982910156 
 31 
 0 
 0 
LINE
 10 
 412.183203125 
 20 
 87.3919982910156 
 30 
 0 
 11 
 411.35361328125 
 21 
 88.6680053710938 
 31 
 0 
 0 
LINE
 10 
 411.35361328125 
 20 
 88.6680053710938 
 30 
 0 
 11 
 410.202392578125 
 21 
 90.2080017089844 
 31 
 0 
 0 
LINE
 10 
 410.202392578125 
 20 
 90.2080017089844 
 30 
 0 
 11 
 408.820825195313 
 21 
 91.8919982910156 
 31 
 0 
 0 
LINE
 10 
 408.820825195313 
 20 
 91.8919982910156 
 30 
 0 
 11 
 407.3 
 21 
 93.6 
 31 
 0 
 0 
LINE
 10 
 407.3 
 20 
 93.6 
 30 
 0 
 11 
 405.167211914063 
 21 
 95.9479919433594 
 31 
 0 
 0 
LINE
 10 
 405.167211914063 
 20 
 95.9479919433594 
 30 
 0 
 11 
 403.84560546875 
 21 
 97.6480041503906 
 31 
 0 
 0 
LINE
 10 
 403.84560546875 
 20 
 97.6480041503906 
 30 
 0 
 11 
 403.210400390625 
 21 
 98.9640014648438 
 31 
 0 
 0 
LINE
 10 
 403.210400390625 
 20 
 98.9640014648438 
 30 
 0 
 11 
 403.13681640625 
 21 
 100.160003662109 
 31 
 0 
 0 
LINE
 10 
 403.13681640625 
 20 
 100.160003662109 
 30 
 0 
 11 
 403.5 
 21 
 101.5 
 31 
 0 
 0 
LINE
 10 
 403.5 
 20 
 101.5 
 30 
 0 
 11 
 403.864794921875 
 21 
 102.764001464844 
 31 
 0 
 0 
LINE
 10 
 403.864794921875 
 20 
 102.764001464844 
 30 
 0 
 11 
 403.802392578125 
 21 
 103.835998535156 
 31 
 0 
 0 
LINE
 10 
 403.802392578125 
 20 
 103.835998535156 
 30 
 0 
 11 
 403.197607421875 
 21 
 104.956005859375 
 31 
 0 
 0 
LINE
 10 
 403.197607421875 
 20 
 104.956005859375 
 30 
 0 
 11 
 401.935205078125 
 21 
 106.364001464844 
 31 
 0 
 0 
LINE
 10 
 401.935205078125 
 20 
 106.364001464844 
 30 
 0 
 11 
 399.9 
 21 
 108.3 
 31 
 0 
 0 
LINE
 10 
 399.9 
 20 
 108.3 
 30 
 0 
 11 
 396.759985351563 
 21 
 111.335205078125 
 31 
 0 
 0 
LINE
 10 
 396.759985351563 
 20 
 111.335205078125 
 30 
 0 
 11 
 394.507983398438 
 21 
 114.005603027344 
 31 
 0 
 0 
LINE
 10 
 394.507983398438 
 20 
 114.005603027344 
 30 
 0 
 11 
 393.09599609375 
 21 
 116.378393554688 
 31 
 0 
 0 
LINE
 10 
 393.09599609375 
 20 
 116.378393554688 
 30 
 0 
 11 
 392.476000976563 
 21 
 118.52080078125 
 31 
 0 
 0 
LINE
 10 
 392.476000976563 
 20 
 118.52080078125 
 30 
 0 
 11 
 392.6 
 21 
 120.5 
 31 
 0 
 0 
LINE
 10 
 392.6 
 20 
 120.5 
 30 
 0 
 11 
 392.823193359375 
 21 
 121.297583007813 
 31 
 0 
 0 
LINE
 10 
 392.823193359375 
 20 
 121.297583007813 
 30 
 0 
 11 
 393.113623046875 
 21 
 121.984802246094 
 31 
 0 
 0 
LINE
 10 
 393.113623046875 
 20 
 121.984802246094 
 30 
 0 
 11 
 393.442407226563 
 21 
 122.523205566406 
 31 
 0 
 0 
LINE
 10 
 393.442407226563 
 20 
 122.523205566406 
 30 
 0 
 11 
 393.780810546875 
 21 
 122.874401855469 
 31 
 0 
 0 
LINE
 10 
 393.780810546875 
 20 
 122.874401855469 
 30 
 0 
 11 
 394.1 
 21 
 123 
 31 
 0 
 0 
LINE
 10 
 394.1 
 20 
 123 
 30 
 0 
 11 
 394.223193359375 
 21 
 123.193603515625 
 31 
 0 
 0 
LINE
 10 
 394.223193359375 
 20 
 123.193603515625 
 30 
 0 
 11 
 394.125634765625 
 21 
 123.732800292969 
 31 
 0 
 0 
LINE
 10 
 394.125634765625 
 20 
 123.732800292969 
 30 
 0 
 11 
 393.826416015625 
 21 
 124.555200195313 
 31 
 0 
 0 
LINE
 10 
 393.826416015625 
 20 
 124.555200195313 
 30 
 0 
 11 
 393.344799804688 
 21 
 125.598400878906 
 31 
 0 
 0 
LINE
 10 
 393.344799804688 
 20 
 125.598400878906 
 30 
 0 
 11 
 392.7 
 21 
 126.8 
 31 
 0 
 0 
LINE
 10 
 392.7 
 20 
 126.8 
 30 
 0 
 11 
 391.80478515625 
 21 
 128.57919921875 
 31 
 0 
 0 
LINE
 10 
 391.80478515625 
 20 
 128.57919921875 
 30 
 0 
 11 
 391.130419921875 
 21 
 130.593603515625 
 31 
 0 
 0 
LINE
 10 
 391.130419921875 
 20 
 130.593603515625 
 30 
 0 
 11 
 390.633618164063 
 21 
 133.078405761719 
 31 
 0 
 0 
LINE
 10 
 390.633618164063 
 20 
 133.078405761719 
 30 
 0 
 11 
 390.271215820313 
 21 
 136.268798828125 
 31 
 0 
 0 
LINE
 10 
 390.271215820313 
 20 
 136.268798828125 
 30 
 0 
 11 
 390 
 21 
 140.4 
 31 
 0 
 0 
LINE
 10 
 390 
 20 
 140.4 
 30 
 0 
 11 
 389.784765625 
 21 
 144.0255859375 
 31 
 0 
 0 
LINE
 10 
 389.784765625 
 20 
 144.0255859375 
 30 
 0 
 11 
 389.502416992188 
 21 
 146.868798828125 
 31 
 0 
 0 
LINE
 10 
 389.502416992188 
 20 
 146.868798828125 
 30 
 0 
 11 
 389.157592773438 
 21 
 148.939196777344 
 31 
 0 
 0 
LINE
 10 
 389.157592773438 
 20 
 148.939196777344 
 30 
 0 
 11 
 388.755224609375 
 21 
 150.246398925781 
 31 
 0 
 0 
LINE
 10 
 388.755224609375 
 20 
 150.246398925781 
 30 
 0 
 11 
 388.3 
 21 
 150.8 
 31 
 0 
 0 
LINE
 10 
 388.3 
 20 
 150.8 
 30 
 0 
 11 
 387.819189453125 
 21 
 150.78798828125 
 31 
 0 
 0 
LINE
 10 
 387.819189453125 
 20 
 150.78798828125 
 30 
 0 
 11 
 387.453588867188 
 21 
 150.51201171875 
 31 
 0 
 0 
LINE
 10 
 387.453588867188 
 20 
 150.51201171875 
 30 
 0 
 11 
 387.198413085938 
 21 
 149.971997070313 
 31 
 0 
 0 
LINE
 10 
 387.198413085938 
 20 
 149.971997070313 
 30 
 0 
 11 
 387.048803710938 
 21 
 149.168005371094 
 31 
 0 
 0 
LINE
 10 
 387.048803710938 
 20 
 149.168005371094 
 30 
 0 
 11 
 387 
 21 
 148.1 
 31 
 0 
 0 
LINE
 10 
 387 
 20 
 148.1 
 30 
 0 
 11 
 386.939990234375 
 21 
 146.97119140625 
 31 
 0 
 0 
LINE
 10 
 386.939990234375 
 20 
 146.97119140625 
 30 
 0 
 11 
 386.760009765625 
 21 
 146.101611328125 
 31 
 0 
 0 
LINE
 10 
 386.760009765625 
 20 
 146.101611328125 
 30 
 0 
 11 
 386.460009765625 
 21 
 145.486401367188 
 31 
 0 
 0 
LINE
 10 
 386.460009765625 
 20 
 145.486401367188 
 30 
 0 
 11 
 386.040014648438 
 21 
 145.12080078125 
 31 
 0 
 0 
LINE
 10 
 386.040014648438 
 20 
 145.12080078125 
 30 
 0 
 11 
 385.5 
 21 
 145 
 31 
 0 
 0 
LINE
 10 
 385.5 
 20 
 145 
 30 
 0 
 11 
 384.959985351563 
 21 
 145.122399902344 
 31 
 0 
 0 
LINE
 10 
 384.959985351563 
 20 
 145.122399902344 
 30 
 0 
 11 
 384.540014648438 
 21 
 145.499194335938 
 31 
 0 
 0 
LINE
 10 
 384.540014648438 
 20 
 145.499194335938 
 30 
 0 
 11 
 384.240014648438 
 21 
 146.144799804688 
 31 
 0 
 0 
LINE
 10 
 384.240014648438 
 20 
 146.144799804688 
 30 
 0 
 11 
 384.060009765625 
 21 
 147.073608398438 
 31 
 0 
 0 
LINE
 10 
 384.060009765625 
 20 
 147.073608398438 
 30 
 0 
 11 
 384 
 21 
 148.3 
 31 
 0 
 0 
LINE
 10 
 384 
 20 
 148.3 
 30 
 0 
 11 
 383.93359375 
 21 
 149.823193359375 
 31 
 0 
 0 
LINE
 10 
 383.93359375 
 20 
 149.823193359375 
 30 
 0 
 11 
 383.660815429688 
 21 
 150.885607910156 
 31 
 0 
 0 
LINE
 10 
 383.660815429688 
 20 
 150.885607910156 
 30 
 0 
 11 
 383.071215820313 
 21 
 151.626403808594 
 31 
 0 
 0 
LINE
 10 
 383.071215820313 
 20 
 151.626403808594 
 30 
 0 
 11 
 382.05439453125 
 21 
 152.184802246094 
 31 
 0 
 0 
LINE
 10 
 382.05439453125 
 20 
 152.184802246094 
 30 
 0 
 11 
 380.5 
 21 
 152.7 
 31 
 0 
 0 
LINE
 10 
 380.5 
 20 
 152.7 
 30 
 0 
 11 
 378.83037109375 
 21 
 153.213598632813 
 31 
 0 
 0 
LINE
 10 
 378.83037109375 
 20 
 153.213598632813 
 30 
 0 
 11 
 377.799194335938 
 21 
 153.376806640625 
 31 
 0 
 0 
LINE
 10 
 377.799194335938 
 20 
 153.376806640625 
 30 
 0 
 11 
 377.252807617188 
 21 
 153.103210449219 
 31 
 0 
 0 
LINE
 10 
 377.252807617188 
 20 
 153.103210449219 
 30 
 0 
 11 
 377.03759765625 
 21 
 152.306408691406 
 31 
 0 
 0 
LINE
 10 
 377.03759765625 
 20 
 152.306408691406 
 30 
 0 
 11 
 377 
 21 
 150.9 
 31 
 0 
 0 
LINE
 10 
 377 
 20 
 150.9 
 30 
 0 
 11 
 376.935986328125 
 21 
 149.753588867188 
 31 
 0 
 0 
LINE
 10 
 376.935986328125 
 20 
 149.753588867188 
 30 
 0 
 11 
 376.728002929688 
 21 
 148.928796386719 
 31 
 0 
 0 
LINE
 10 
 376.728002929688 
 20 
 148.928796386719 
 30 
 0 
 11 
 376.352001953125 
 21 
 148.38720703125 
 31 
 0 
 0 
LINE
 10 
 376.352001953125 
 20 
 148.38720703125 
 30 
 0 
 11 
 375.784008789063 
 21 
 148.090405273438 
 31 
 0 
 0 
LINE
 10 
 375.784008789063 
 20 
 148.090405273438 
 30 
 0 
 11 
 375 
 21 
 148 
 31 
 0 
 0 
LINE
 10 
 375 
 20 
 148 
 30 
 0 
 11 
 374.177612304688 
 21 
 148.095190429688 
 31 
 0 
 0 
LINE
 10 
 374.177612304688 
 20 
 148.095190429688 
 30 
 0 
 11 
 373.60478515625 
 21 
 148.425598144531 
 31 
 0 
 0 
LINE
 10 
 373.60478515625 
 20 
 148.425598144531 
 30 
 0 
 11 
 373.243212890625 
 21 
 149.0583984375 
 31 
 0 
 0 
LINE
 10 
 373.243212890625 
 20 
 149.0583984375 
 30 
 0 
 11 
 373.05439453125 
 21 
 150.060803222656 
 31 
 0 
 0 
LINE
 10 
 373.05439453125 
 20 
 150.060803222656 
 30 
 0 
 11 
 373 
 21 
 151.5 
 31 
 0 
 0 
LINE
 10 
 373 
 20 
 151.5 
 30 
 0 
 11 
 372.95439453125 
 21 
 152.593603515625 
 31 
 0 
 0 
LINE
 10 
 372.95439453125 
 20 
 152.593603515625 
 30 
 0 
 11 
 372.827221679688 
 21 
 153.552795410156 
 31 
 0 
 0 
LINE
 10 
 372.827221679688 
 20 
 153.552795410156 
 30 
 0 
 11 
 372.6328125 
 21 
 154.315197753906 
 31 
 0 
 0 
LINE
 10 
 372.6328125 
 20 
 154.315197753906 
 30 
 0 
 11 
 372.385595703125 
 21 
 154.818408203125 
 31 
 0 
 0 
LINE
 10 
 372.385595703125 
 20 
 154.818408203125 
 30 
 0 
 11 
 372.1 
 21 
 155 
 31 
 0 
 0 
LINE
 10 
 372.1 
 20 
 155 
 30 
 0 
 11 
 371.734399414063 
 21 
 155.03359375 
 31 
 0 
 0 
LINE
 10 
 371.734399414063 
 20 
 155.03359375 
 30 
 0 
 11 
 371.263208007813 
 21 
 155.1248046875 
 31 
 0 
 0 
LINE
 10 
 371.263208007813 
 20 
 155.1248046875 
 30 
 0 
 11 
 370.7248046875 
 21 
 155.259204101563 
 31 
 0 
 0 
LINE
 10 
 370.7248046875 
 20 
 155.259204101563 
 30 
 0 
 11 
 370.1576171875 
 21 
 155.422399902344 
 31 
 0 
 0 
LINE
 10 
 370.1576171875 
 20 
 155.422399902344 
 30 
 0 
 11 
 369.6 
 21 
 155.6 
 31 
 0 
 0 
LINE
 10 
 369.6 
 20 
 155.6 
 30 
 0 
 11 
 368.934399414063 
 21 
 155.76240234375 
 31 
 0 
 0 
LINE
 10 
 368.934399414063 
 20 
 155.76240234375 
 30 
 0 
 11 
 368.475219726563 
 21 
 155.627209472656 
 31 
 0 
 0 
LINE
 10 
 368.475219726563 
 20 
 155.627209472656 
 30 
 0 
 11 
 368.188818359375 
 21 
 155.160803222656 
 31 
 0 
 0 
LINE
 10 
 368.188818359375 
 20 
 155.160803222656 
 30 
 0 
 11 
 368.0416015625 
 21 
 154.329602050781 
 31 
 0 
 0 
LINE
 10 
 368.0416015625 
 20 
 154.329602050781 
 30 
 0 
 11 
 368 
 21 
 153.1 
 31 
 0 
 0 
LINE
 10 
 368 
 20 
 153.1 
 30 
 0 
 11 
 367.965600585938 
 21 
 152.124792480469 
 31 
 0 
 0 
LINE
 10 
 367.965600585938 
 20 
 152.124792480469 
 30 
 0 
 11 
 367.868798828125 
 21 
 151.274401855469 
 31 
 0 
 0 
LINE
 10 
 367.868798828125 
 20 
 151.274401855469 
 30 
 0 
 11 
 367.719213867188 
 21 
 150.601599121094 
 31 
 0 
 0 
LINE
 10 
 367.719213867188 
 20 
 150.601599121094 
 30 
 0 
 11 
 367.526416015625 
 21 
 150.159204101563 
 31 
 0 
 0 
LINE
 10 
 367.526416015625 
 20 
 150.159204101563 
 30 
 0 
 11 
 367.3 
 21 
 150 
 31 
 0 
 0 
LINE
 10 
 367.3 
 20 
 150 
 30 
 0 
 11 
 366.244799804688 
 21 
 150.237585449219 
 31 
 0 
 0 
LINE
 10 
 366.244799804688 
 20 
 150.237585449219 
 30 
 0 
 11 
 365.36240234375 
 21 
 150.82080078125 
 31 
 0 
 0 
LINE
 10 
 365.36240234375 
 20 
 150.82080078125 
 30 
 0 
 11 
 364.6576171875 
 21 
 151.735192871094 
 31 
 0 
 0 
LINE
 10 
 364.6576171875 
 20 
 151.735192871094 
 30 
 0 
 11 
 364.135205078125 
 21 
 152.96640625 
 31 
 0 
 0 
LINE
 10 
 364.135205078125 
 20 
 152.96640625 
 30 
 0 
 11 
 363.8 
 21 
 154.5 
 31 
 0 
 0 
LINE
 10 
 363.8 
 20 
 154.5 
 30 
 0 
 11 
 363.616796875 
 21 
 155.668798828125 
 31 
 0 
 0 
LINE
 10 
 363.616796875 
 20 
 155.668798828125 
 30 
 0 
 11 
 363.294409179688 
 21 
 156.554406738281 
 31 
 0 
 0 
LINE
 10 
 363.294409179688 
 20 
 156.554406738281 
 30 
 0 
 11 
 362.813598632813 
 21 
 157.185595703125 
 31 
 0 
 0 
LINE
 10 
 362.813598632813 
 20 
 157.185595703125 
 30 
 0 
 11 
 362.155224609375 
 21 
 157.5912109375 
 31 
 0 
 0 
LINE
 10 
 362.155224609375 
 20 
 157.5912109375 
 30 
 0 
 11 
 361.3 
 21 
 157.8 
 31 
 0 
 0 
LINE
 10 
 361.3 
 20 
 157.8 
 30 
 0 
 11 
 360.369580078125 
 21 
 157.882409667969 
 31 
 0 
 0 
LINE
 10 
 360.369580078125 
 20 
 157.882409667969 
 30 
 0 
 11 
 359.712817382813 
 21 
 157.763208007813 
 31 
 0 
 0 
LINE
 10 
 359.712817382813 
 20 
 157.763208007813 
 30 
 0 
 11 
 359.2912109375 
 21 
 157.432800292969 
 31 
 0 
 0 
LINE
 10 
 359.2912109375 
 20 
 157.432800292969 
 30 
 0 
 11 
 359.06640625 
 21 
 156.881604003906 
 31 
 0 
 0 
LINE
 10 
 359.06640625 
 20 
 156.881604003906 
 30 
 0 
 11 
 359 
 21 
 156.1 
 31 
 0 
 0 
LINE
 10 
 359 
 20 
 156.1 
 30 
 0 
 11 
 358.926391601563 
 21 
 155.343981933594 
 31 
 0 
 0 
LINE
 10 
 358.926391601563 
 20 
 155.343981933594 
 30 
 0 
 11 
 358.69921875 
 21 
 154.756018066406 
 31 
 0 
 0 
LINE
 10 
 358.69921875 
 20 
 154.756018066406 
 30 
 0 
 11 
 358.308813476563 
 21 
 154.335998535156 
 31 
 0 
 0 
LINE
 10 
 358.308813476563 
 20 
 154.335998535156 
 30 
 0 
 11 
 357.74560546875 
 21 
 154.083996582031 
 31 
 0 
 0 
LINE
 10 
 357.74560546875 
 20 
 154.083996582031 
 30 
 0 
 11 
 357 
 21 
 154 
 31 
 0 
 0 
LINE
 10 
 357 
 20 
 154 
 30 
 0 
 11 
 356.177587890625 
 21 
 154.091198730469 
 31 
 0 
 0 
LINE
 10 
 356.177587890625 
 20 
 154.091198730469 
 30 
 0 
 11 
 355.604809570313 
 21 
 154.393603515625 
 31 
 0 
 0 
LINE
 10 
 355.604809570313 
 20 
 154.393603515625 
 30 
 0 
 11 
 355.243188476563 
 21 
 154.950402832031 
 31 
 0 
 0 
LINE
 10 
 355.243188476563 
 20 
 154.950402832031 
 30 
 0 
 11 
 355.05439453125 
 21 
 155.804809570313 
 31 
 0 
 0 
LINE
 10 
 355.05439453125 
 20 
 155.804809570313 
 30 
 0 
 11 
 355 
 21 
 157 
 31 
 0 
 0 
LINE
 10 
 355 
 20 
 157 
 30 
 0 
 11 
 354.945581054688 
 21 
 158.195202636719 
 31 
 0 
 0 
LINE
 10 
 354.945581054688 
 20 
 158.195202636719 
 30 
 0 
 11 
 354.756811523438 
 21 
 159.049609375 
 31 
 0 
 0 
LINE
 10 
 354.756811523438 
 20 
 159.049609375 
 30 
 0 
 11 
 354.395190429688 
 21 
 159.606396484375 
 31 
 0 
 0 
LINE
 10 
 354.395190429688 
 20 
 159.606396484375 
 30 
 0 
 11 
 353.822412109375 
 21 
 159.908801269531 
 31 
 0 
 0 
LINE
 10 
 353.822412109375 
 20 
 159.908801269531 
 30 
 0 
 11 
 353 
 21 
 160 
 31 
 0 
 0 
LINE
 10 
 353 
 20 
 160 
 30 
 0 
 11 
 352.215991210938 
 21 
 159.91279296875 
 31 
 0 
 0 
LINE
 10 
 352.215991210938 
 20 
 159.91279296875 
 30 
 0 
 11 
 351.647998046875 
 21 
 159.638415527344 
 31 
 0 
 0 
LINE
 10 
 351.647998046875 
 20 
 159.638415527344 
 30 
 0 
 11 
 351.271997070313 
 21 
 159.157604980469 
 31 
 0 
 0 
LINE
 10 
 351.271997070313 
 20 
 159.157604980469 
 30 
 0 
 11 
 351.064013671875 
 21 
 158.451208496094 
 31 
 0 
 0 
LINE
 10 
 351.064013671875 
 20 
 158.451208496094 
 30 
 0 
 11 
 351 
 21 
 157.5 
 31 
 0 
 0 
LINE
 10 
 351 
 20 
 157.5 
 30 
 0 
 11 
 350.949584960938 
 21 
 156.572790527344 
 31 
 0 
 0 
LINE
 10 
 350.949584960938 
 20 
 156.572790527344 
 30 
 0 
 11 
 350.788793945313 
 21 
 155.938403320313 
 31 
 0 
 0 
LINE
 10 
 350.788793945313 
 20 
 155.938403320313 
 30 
 0 
 11 
 350.503198242188 
 21 
 155.577600097656 
 31 
 0 
 0 
LINE
 10 
 350.503198242188 
 20 
 155.577600097656 
 30 
 0 
 11 
 350.07841796875 
 21 
 155.471203613281 
 31 
 0 
 0 
LINE
 10 
 350.07841796875 
 20 
 155.471203613281 
 30 
 0 
 11 
 349.5 
 21 
 155.6 
 31 
 0 
 0 
LINE
 10 
 349.5 
 20 
 155.6 
 30 
 0 
 11 
 349.036791992188 
 21 
 155.930395507813 
 31 
 0 
 0 
LINE
 10 
 349.036791992188 
 20 
 155.930395507813 
 30 
 0 
 11 
 348.626391601563 
 21 
 156.419213867188 
 31 
 0 
 0 
LINE
 10 
 348.626391601563 
 20 
 156.419213867188 
 30 
 0 
 11 
 348.297607421875 
 21 
 157.032800292969 
 31 
 0 
 0 
LINE
 10 
 348.297607421875 
 20 
 157.032800292969 
 30 
 0 
 11 
 348.07919921875 
 21 
 157.737609863281 
 31 
 0 
 0 
LINE
 10 
 348.07919921875 
 20 
 157.737609863281 
 30 
 0 
 11 
 348 
 21 
 158.5 
 31 
 0 
 0 
LINE
 10 
 348 
 20 
 158.5 
 30 
 0 
 11 
 347.920776367188 
 21 
 159.257592773438 
 31 
 0 
 0 
LINE
 10 
 347.920776367188 
 20 
 159.257592773438 
 30 
 0 
 11 
 347.702416992188 
 21 
 160.048815917969 
 31 
 0 
 0 
LINE
 10 
 347.702416992188 
 20 
 160.048815917969 
 30 
 0 
 11 
 347.373608398438 
 21 
 160.811206054688 
 31 
 0 
 0 
LINE
 10 
 347.373608398438 
 20 
 160.811206054688 
 30 
 0 
 11 
 346.963208007813 
 21 
 161.482397460938 
 31 
 0 
 0 
LINE
 10 
 346.963208007813 
 20 
 161.482397460938 
 30 
 0 
 11 
 346.5 
 21 
 162 
 31 
 0 
 0 
LINE
 10 
 346.5 
 20 
 162 
 30 
 0 
 11 
 346.036791992188 
 21 
 162.472802734375 
 31 
 0 
 0 
LINE
 10 
 346.036791992188 
 20 
 162.472802734375 
 30 
 0 
 11 
 345.626416015625 
 21 
 163.022399902344 
 31 
 0 
 0 
LINE
 10 
 345.626416015625 
 20 
 163.022399902344 
 30 
 0 
 11 
 345.297607421875 
 21 
 163.605603027344 
 31 
 0 
 0 
LINE
 10 
 345.297607421875 
 20 
 163.605603027344 
 30 
 0 
 11 
 345.07919921875 
 21 
 164.179211425781 
 31 
 0 
 0 
LINE
 10 
 345.07919921875 
 20 
 164.179211425781 
 30 
 0 
 11 
 345 
 21 
 164.7 
 31 
 0 
 0 
LINE
 10 
 345 
 20 
 164.7 
 30 
 0 
 11 
 345.07919921875 
 21 
 165.137585449219 
 31 
 0 
 0 
LINE
 10 
 345.07919921875 
 20 
 165.137585449219 
 30 
 0 
 11 
 345.297607421875 
 21 
 165.584802246094 
 31 
 0 
 0 
LINE
 10 
 345.297607421875 
 20 
 165.584802246094 
 30 
 0 
 11 
 345.626416015625 
 21 
 166.003210449219 
 31 
 0 
 0 
LINE
 10 
 345.626416015625 
 20 
 166.003210449219 
 30 
 0 
 11 
 346.03681640625 
 21 
 166.354406738281 
 31 
 0 
 0 
LINE
 10 
 346.03681640625 
 20 
 166.354406738281 
 30 
 0 
 11 
 346.5 
 21 
 166.6 
 31 
 0 
 0 
LINE
 10 
 346.5 
 20 
 166.6 
 30 
 0 
 11 
 346.963208007813 
 21 
 166.940795898438 
 31 
 0 
 0 
LINE
 10 
 346.963208007813 
 20 
 166.940795898438 
 30 
 0 
 11 
 347.373583984375 
 21 
 167.45439453125 
 31 
 0 
 0 
LINE
 10 
 347.373583984375 
 20 
 167.45439453125 
 30 
 0 
 11 
 347.702416992188 
 21 
 168.097607421875 
 31 
 0 
 0 
LINE
 10 
 347.702416992188 
 20 
 168.097607421875 
 30 
 0 
 11 
 347.92080078125 
 21 
 168.827197265625 
 31 
 0 
 0 
LINE
 10 
 347.92080078125 
 20 
 168.827197265625 
 30 
 0 
 11 
 348 
 21 
 169.6 
 31 
 0 
 0 
LINE
 10 
 348 
 20 
 169.6 
 30 
 0 
 11 
 348.294384765625 
 21 
 171.302404785156 
 31 
 0 
 0 
LINE
 10 
 348.294384765625 
 20 
 171.302404785156 
 30 
 0 
 11 
 349.011206054688 
 21 
 172.011206054688 
 31 
 0 
 0 
LINE
 10 
 349.011206054688 
 20 
 172.011206054688 
 30 
 0 
 11 
 349.900805664063 
 21 
 171.788806152344 
 31 
 0 
 0 
LINE
 10 
 349.900805664063 
 20 
 171.788806152344 
 30 
 0 
 11 
 350.713598632813 
 21 
 170.697595214844 
 31 
 0 
 0 
LINE
 10 
 350.713598632813 
 20 
 170.697595214844 
 30 
 0 
 11 
 351.2 
 21 
 168.8 
 31 
 0 
 0 
LINE
 10 
 351.2 
 20 
 168.8 
 30 
 0 
 11 
 351.374389648438 
 21 
 167.484790039063 
 31 
 0 
 0 
LINE
 10 
 351.374389648438 
 20 
 167.484790039063 
 30 
 0 
 11 
 351.683227539063 
 21 
 166.510412597656 
 31 
 0 
 0 
LINE
 10 
 351.683227539063 
 20 
 166.510412597656 
 30 
 0 
 11 
 352.164794921875 
 21 
 165.833605957031 
 31 
 0 
 0 
LINE
 10 
 352.164794921875 
 20 
 165.833605957031 
 30 
 0 
 11 
 352.8576171875 
 21 
 165.411206054688 
 31 
 0 
 0 
LINE
 10 
 352.8576171875 
 20 
 165.411206054688 
 30 
 0 
 11 
 353.8 
 21 
 165.2 
 31 
 0 
 0 
LINE
 10 
 353.8 
 20 
 165.2 
 30 
 0 
 11 
 354.719995117188 
 21 
 165.111987304688 
 31 
 0 
 0 
LINE
 10 
 354.719995117188 
 20 
 165.111987304688 
 30 
 0 
 11 
 355.352001953125 
 21 
 165.240002441406 
 31 
 0 
 0 
LINE
 10 
 355.352001953125 
 20 
 165.240002441406 
 30 
 0 
 11 
 355.743994140625 
 21 
 165.631994628906 
 31 
 0 
 0 
LINE
 10 
 355.743994140625 
 20 
 165.631994628906 
 30 
 0 
 11 
 355.943994140625 
 21 
 166.335998535156 
 31 
 0 
 0 
LINE
 10 
 355.943994140625 
 20 
 166.335998535156 
 30 
 0 
 11 
 356 
 21 
 167.4 
 31 
 0 
 0 
LINE
 10 
 356 
 20 
 167.4 
 30 
 0 
 11 
 356.294384765625 
 21 
 169.209594726563 
 31 
 0 
 0 
LINE
 10 
 356.294384765625 
 20 
 169.209594726563 
 30 
 0 
 11 
 357.011181640625 
 21 
 169.996801757813 
 31 
 0 
 0 
LINE
 10 
 357.011181640625 
 20 
 169.996801757813 
 30 
 0 
 11 
 357.900805664063 
 21 
 169.819213867188 
 31 
 0 
 0 
LINE
 10 
 357.900805664063 
 20 
 169.819213867188 
 30 
 0 
 11 
 358.713598632813 
 21 
 168.734399414063 
 31 
 0 
 0 
LINE
 10 
 358.713598632813 
 20 
 168.734399414063 
 30 
 0 
 11 
 359.2 
 21 
 166.8 
 31 
 0 
 0 
LINE
 10 
 359.2 
 20 
 166.8 
 30 
 0 
 11 
 359.38798828125 
 21 
 165.4919921875 
 31 
 0 
 0 
LINE
 10 
 359.38798828125 
 20 
 165.4919921875 
 30 
 0 
 11 
 359.744018554688 
 21 
 164.519995117188 
 31 
 0 
 0 
LINE
 10 
 359.744018554688 
 20 
 164.519995117188 
 30 
 0 
 11 
 360.316015625 
 21 
 163.811999511719 
 31 
 0 
 0 
LINE
 10 
 360.316015625 
 20 
 163.811999511719 
 30 
 0 
 11 
 361.152001953125 
 21 
 163.296008300781 
 31 
 0 
 0 
LINE
 10 
 361.152001953125 
 20 
 163.296008300781 
 30 
 0 
 11 
 362.3 
 21 
 162.9 
 31 
 0 
 0 
LINE
 10 
 362.3 
 20 
 162.9 
 30 
 0 
 11 
 363.540771484375 
 21 
 162.601586914063 
 31 
 0 
 0 
LINE
 10 
 363.540771484375 
 20 
 162.601586914063 
 30 
 0 
 11 
 364.330419921875 
 21 
 162.600805664063 
 31 
 0 
 0 
LINE
 10 
 364.330419921875 
 20 
 162.600805664063 
 30 
 0 
 11 
 364.769604492188 
 21 
 162.97919921875 
 31 
 0 
 0 
LINE
 10 
 364.769604492188 
 20 
 162.97919921875 
 30 
 0 
 11 
 364.959204101563 
 21 
 163.818408203125 
 31 
 0 
 0 
LINE
 10 
 364.959204101563 
 20 
 163.818408203125 
 30 
 0 
 11 
 365 
 21 
 165.2 
 31 
 0 
 0 
LINE
 10 
 365 
 20 
 165.2 
 30 
 0 
 11 
 365.051171875 
 21 
 166.380786132813 
 31 
 0 
 0 
LINE
 10 
 365.051171875 
 20 
 166.380786132813 
 30 
 0 
 11 
 365.217602539063 
 21 
 167.182409667969 
 31 
 0 
 0 
LINE
 10 
 365.217602539063 
 20 
 167.182409667969 
 30 
 0 
 11 
 365.518383789063 
 21 
 167.633605957031 
 31 
 0 
 0 
LINE
 10 
 365.518383789063 
 20 
 167.633605957031 
 30 
 0 
 11 
 365.972802734375 
 21 
 167.763208007813 
 31 
 0 
 0 
LINE
 10 
 365.972802734375 
 20 
 167.763208007813 
 30 
 0 
 11 
 366.6 
 21 
 167.6 
 31 
 0 
 0 
LINE
 10 
 366.6 
 20 
 167.6 
 30 
 0 
 11 
 367.134399414063 
 21 
 167.422387695313 
 31 
 0 
 0 
LINE
 10 
 367.134399414063 
 20 
 167.422387695313 
 30 
 0 
 11 
 367.635205078125 
 21 
 167.259204101563 
 31 
 0 
 0 
LINE
 10 
 367.635205078125 
 20 
 167.259204101563 
 30 
 0 
 11 
 368.068798828125 
 21 
 167.1248046875 
 31 
 0 
 0 
LINE
 10 
 368.068798828125 
 20 
 167.1248046875 
 30 
 0 
 11 
 368.401611328125 
 21 
 167.033605957031 
 31 
 0 
 0 
LINE
 10 
 368.401611328125 
 20 
 167.033605957031 
 30 
 0 
 11 
 368.6 
 21 
 167 
 31 
 0 
 0 
LINE
 10 
 368.6 
 20 
 167 
 30 
 0 
 11 
 368.718383789063 
 21 
 166.852001953125 
 31 
 0 
 0 
LINE
 10 
 368.718383789063 
 20 
 166.852001953125 
 30 
 0 
 11 
 368.827197265625 
 21 
 166.440014648438 
 31 
 0 
 0 
LINE
 10 
 368.827197265625 
 20 
 166.440014648438 
 30 
 0 
 11 
 368.916796875 
 21 
 165.811999511719 
 31 
 0 
 0 
LINE
 10 
 368.916796875 
 20 
 165.811999511719 
 30 
 0 
 11 
 368.977612304688 
 21 
 165.016003417969 
 31 
 0 
 0 
LINE
 10 
 368.977612304688 
 20 
 165.016003417969 
 30 
 0 
 11 
 369 
 21 
 164.1 
 31 
 0 
 0 
LINE
 10 
 369 
 20 
 164.1 
 30 
 0 
 11 
 369.1671875 
 21 
 162.6751953125 
 31 
 0 
 0 
LINE
 10 
 369.1671875 
 20 
 162.6751953125 
 30 
 0 
 11 
 369.665600585938 
 21 
 161.533605957031 
 31 
 0 
 0 
LINE
 10 
 369.665600585938 
 20 
 161.533605957031 
 30 
 0 
 11 
 370.490380859375 
 21 
 160.694396972656 
 31 
 0 
 0 
LINE
 10 
 370.490380859375 
 20 
 160.694396972656 
 30 
 0 
 11 
 371.636791992188 
 21 
 160.176806640625 
 31 
 0 
 0 
LINE
 10 
 371.636791992188 
 20 
 160.176806640625 
 30 
 0 
 11 
 373.1 
 21 
 160 
 31 
 0 
 0 
LINE
 10 
 373.1 
 20 
 160 
 30 
 0 
 11 
 373.385571289063 
 21 
 160.125598144531 
 31 
 0 
 0 
LINE
 10 
 373.385571289063 
 20 
 160.125598144531 
 30 
 0 
 11 
 373.6328125 
 21 
 160.476806640625 
 31 
 0 
 0 
LINE
 10 
 373.6328125 
 20 
 160.476806640625 
 30 
 0 
 11 
 373.827197265625 
 21 
 161.015197753906 
 31 
 0 
 0 
LINE
 10 
 373.827197265625 
 20 
 161.015197753906 
 30 
 0 
 11 
 373.95439453125 
 21 
 161.702404785156 
 31 
 0 
 0 
LINE
 10 
 373.95439453125 
 20 
 161.702404785156 
 30 
 0 
 11 
 374 
 21 
 162.5 
 31 
 0 
 0 
LINE
 10 
 374 
 20 
 162.5 
 30 
 0 
 11 
 374.069580078125 
 21 
 163.374389648438 
 31 
 0 
 0 
LINE
 10 
 374.069580078125 
 20 
 163.374389648438 
 30 
 0 
 11 
 374.268823242188 
 21 
 164.071203613281 
 31 
 0 
 0 
LINE
 10 
 374.268823242188 
 20 
 164.071203613281 
 30 
 0 
 11 
 374.583203125 
 21 
 164.580798339844 
 31 
 0 
 0 
LINE
 10 
 374.583203125 
 20 
 164.580798339844 
 30 
 0 
 11 
 374.998413085938 
 21 
 164.893603515625 
 31 
 0 
 0 
LINE
 10 
 374.998413085938 
 20 
 164.893603515625 
 30 
 0 
 11 
 375.5 
 21 
 165 
 31 
 0 
 0 
LINE
 10 
 375.5 
 20 
 165 
 30 
 0 
 11 
 376.039965820313 
 21 
 164.880786132813 
 31 
 0 
 0 
LINE
 10 
 376.039965820313 
 20 
 164.880786132813 
 30 
 0 
 11 
 376.460009765625 
 21 
 164.526416015625 
 31 
 0 
 0 
LINE
 10 
 376.460009765625 
 20 
 164.526416015625 
 30 
 0 
 11 
 376.760009765625 
 21 
 163.9416015625 
 31 
 0 
 0 
LINE
 10 
 376.760009765625 
 20 
 163.9416015625 
 30 
 0 
 11 
 376.940014648438 
 21 
 163.131201171875 
 31 
 0 
 0 
LINE
 10 
 376.940014648438 
 20 
 163.131201171875 
 30 
 0 
 11 
 377 
 21 
 162.1 
 31 
 0 
 0 
LINE
 10 
 377 
 20 
 162.1 
 30 
 0 
 11 
 377.082397460938 
 21 
 160.848791503906 
 31 
 0 
 0 
LINE
 10 
 377.082397460938 
 20 
 160.848791503906 
 30 
 0 
 11 
 377.37119140625 
 21 
 159.914404296875 
 31 
 0 
 0 
LINE
 10 
 377.37119140625 
 20 
 159.914404296875 
 30 
 0 
 11 
 377.92880859375 
 21 
 159.205590820313 
 31 
 0 
 0 
LINE
 10 
 377.92880859375 
 20 
 159.205590820313 
 30 
 0 
 11 
 378.817602539063 
 21 
 158.631201171875 
 31 
 0 
 0 
LINE
 10 
 378.817602539063 
 20 
 158.631201171875 
 30 
 0 
 11 
 380.1 
 21 
 158.1 
 31 
 0 
 0 
LINE
 10 
 380.1 
 20 
 158.1 
 30 
 0 
 11 
 382.07998046875 
 21 
 157.429602050781 
 31 
 0 
 0 
LINE
 10 
 382.07998046875 
 20 
 157.429602050781 
 30 
 0 
 11 
 383.244018554688 
 21 
 157.152795410156 
 31 
 0 
 0 
LINE
 10 
 383.244018554688 
 20 
 157.152795410156 
 30 
 0 
 11 
 383.8080078125 
 21 
 157.351196289063 
 31 
 0 
 0 
LINE
 10 
 383.8080078125 
 20 
 157.351196289063 
 30 
 0 
 11 
 383.988012695313 
 21 
 158.106408691406 
 31 
 0 
 0 
LINE
 10 
 383.988012695313 
 20 
 158.106408691406 
 30 
 0 
 11 
 384 
 21 
 159.5 
 31 
 0 
 0 
LINE
 10 
 384 
 20 
 159.5 
 30 
 0 
 11 
 384.063989257813 
 21 
 160.451196289063 
 31 
 0 
 0 
LINE
 10 
 384.063989257813 
 20 
 160.451196289063 
 30 
 0 
 11 
 384.272021484375 
 21 
 161.1576171875 
 31 
 0 
 0 
LINE
 10 
 384.272021484375 
 20 
 161.1576171875 
 30 
 0 
 11 
 384.647998046875 
 21 
 161.638403320313 
 31 
 0 
 0 
LINE
 10 
 384.647998046875 
 20 
 161.638403320313 
 30 
 0 
 11 
 385.216015625 
 21 
 161.912805175781 
 31 
 0 
 0 
LINE
 10 
 385.216015625 
 20 
 161.912805175781 
 30 
 0 
 11 
 386 
 21 
 162 
 31 
 0 
 0 
LINE
 10 
 386 
 20 
 162 
 30 
 0 
 11 
 386.822387695313 
 21 
 161.9087890625 
 31 
 0 
 0 
LINE
 10 
 386.822387695313 
 20 
 161.9087890625 
 30 
 0 
 11 
 387.39521484375 
 21 
 161.606408691406 
 31 
 0 
 0 
LINE
 10 
 387.39521484375 
 20 
 161.606408691406 
 30 
 0 
 11 
 387.756811523438 
 21 
 161.049597167969 
 31 
 0 
 0 
LINE
 10 
 387.756811523438 
 20 
 161.049597167969 
 30 
 0 
 11 
 387.94560546875 
 21 
 160.195202636719 
 31 
 0 
 0 
LINE
 10 
 387.94560546875 
 20 
 160.195202636719 
 30 
 0 
 11 
 388 
 21 
 159 
 31 
 0 
 0 
LINE
 10 
 388 
 20 
 159 
 30 
 0 
 11 
 388.181591796875 
 21 
 156.834399414063 
 31 
 0 
 0 
LINE
 10 
 388.181591796875 
 20 
 156.834399414063 
 30 
 0 
 11 
 388.63681640625 
 21 
 156.027209472656 
 31 
 0 
 0 
LINE
 10 
 388.63681640625 
 20 
 156.027209472656 
 30 
 0 
 11 
 389.231201171875 
 21 
 156.472802734375 
 31 
 0 
 0 
LINE
 10 
 389.231201171875 
 20 
 156.472802734375 
 30 
 0 
 11 
 389.830419921875 
 21 
 158.065600585938 
 31 
 0 
 0 
LINE
 10 
 389.830419921875 
 20 
 158.065600585938 
 30 
 0 
 11 
 390.3 
 21 
 160.7 
 31 
 0 
 0 
LINE
 10 
 390.3 
 20 
 160.7 
 30 
 0 
 11 
 390.45517578125 
 21 
 163.713598632813 
 31 
 0 
 0 
LINE
 10 
 390.45517578125 
 20 
 163.713598632813 
 30 
 0 
 11 
 390.197607421875 
 21 
 166.040808105469 
 31 
 0 
 0 
LINE
 10 
 390.197607421875 
 20 
 166.040808105469 
 30 
 0 
 11 
 389.522412109375 
 21 
 167.6912109375 
 31 
 0 
 0 
LINE
 10 
 389.522412109375 
 20 
 167.6912109375 
 30 
 0 
 11 
 388.4248046875 
 21 
 168.674401855469 
 31 
 0 
 0 
LINE
 10 
 388.4248046875 
 20 
 168.674401855469 
 30 
 0 
 11 
 386.9 
 21 
 169 
 31 
 0 
 0 
LINE
 10 
 386.9 
 20 
 169 
 30 
 0 
 11 
 385.95439453125 
 21 
 169.094396972656 
 31 
 0 
 0 
LINE
 10 
 385.95439453125 
 20 
 169.094396972656 
 30 
 0 
 11 
 385.359228515625 
 21 
 169.515197753906 
 31 
 0 
 0 
LINE
 10 
 385.359228515625 
 20 
 169.515197753906 
 30 
 0 
 11 
 385.056811523438 
 21 
 170.468798828125 
 31 
 0 
 0 
LINE
 10 
 385.056811523438 
 20 
 170.468798828125 
 30 
 0 
 11 
 384.989599609375 
 21 
 172.161608886719 
 31 
 0 
 0 
LINE
 10 
 384.989599609375 
 20 
 172.161608886719 
 30 
 0 
 11 
 385.1 
 21 
 174.8 
 31 
 0 
 0 
LINE
 10 
 385.1 
 20 
 174.8 
 30 
 0 
 11 
 385.158374023438 
 21 
 176.823193359375 
 31 
 0 
 0 
LINE
 10 
 385.158374023438 
 20 
 176.823193359375 
 30 
 0 
 11 
 385.2072265625 
 21 
 179.0576171875 
 31 
 0 
 0 
LINE
 10 
 385.2072265625 
 20 
 179.0576171875 
 30 
 0 
 11 
 385.236791992188 
 21 
 181.330395507813 
 31 
 0 
 0 
LINE
 10 
 385.236791992188 
 20 
 181.330395507813 
 30 
 0 
 11 
 385.23759765625 
 21 
 183.468811035156 
 31 
 0 
 0 
LINE
 10 
 385.23759765625 
 20 
 183.468811035156 
 30 
 0 
 11 
 385.2 
 21 
 185.3 
 31 
 0 
 0 
LINE
 10 
 385.2 
 20 
 185.3 
 30 
 0 
 11 
 385.06318359375 
 21 
 187.439990234375 
 31 
 0 
 0 
LINE
 10 
 385.06318359375 
 20 
 187.439990234375 
 30 
 0 
 11 
 384.825610351563 
 21 
 188.811999511719 
 31 
 0 
 0 
LINE
 10 
 384.825610351563 
 20 
 188.811999511719 
 30 
 0 
 11 
 384.386401367188 
 21 
 189.583996582031 
 31 
 0 
 0 
LINE
 10 
 384.386401367188 
 20 
 189.583996582031 
 30 
 0 
 11 
 383.644799804688 
 21 
 189.923999023438 
 31 
 0 
 0 
LINE
 10 
 383.644799804688 
 20 
 189.923999023438 
 30 
 0 
 11 
 382.5 
 21 
 190 
 31 
 0 
 0 
LINE
 10 
 382.5 
 20 
 190 
 30 
 0 
 11 
 381.356005859375 
 21 
 189.929602050781 
 31 
 0 
 0 
LINE
 10 
 381.356005859375 
 20 
 189.929602050781 
 30 
 0 
 11 
 380.62001953125 
 21 
 189.580810546875 
 31 
 0 
 0 
LINE
 10 
 380.62001953125 
 20 
 189.580810546875 
 30 
 0 
 11 
 380.19599609375 
 21 
 188.747204589844 
 31 
 0 
 0 
LINE
 10 
 380.19599609375 
 20 
 188.747204589844 
 30 
 0 
 11 
 379.988012695313 
 21 
 187.222399902344 
 31 
 0 
 0 
LINE
 10 
 379.988012695313 
 20 
 187.222399902344 
 30 
 0 
 11 
 379.9 
 21 
 184.8 
 31 
 0 
 0 
LINE
 10 
 379.9 
 20 
 184.8 
 30 
 0 
 11 
 379.90078125 
 21 
 182.884802246094 
 31 
 0 
 0 
LINE
 10 
 379.90078125 
 20 
 182.884802246094 
 30 
 0 
 11 
 379.906396484375 
 21 
 180.734399414063 
 31 
 0 
 0 
LINE
 10 
 379.906396484375 
 20 
 180.734399414063 
 30 
 0 
 11 
 379.921606445313 
 21 
 178.521594238281 
 31 
 0 
 0 
LINE
 10 
 379.921606445313 
 20 
 178.521594238281 
 30 
 0 
 11 
 379.951196289063 
 21 
 176.419201660156 
 31 
 0 
 0 
LINE
 10 
 379.951196289063 
 20 
 176.419201660156 
 30 
 0 
 11 
 380 
 21 
 174.6 
 31 
 0 
 0 
LINE
 10 
 380 
 20 
 174.6 
 30 
 0 
 11 
 380.015185546875 
 21 
 172.452795410156 
 31 
 0 
 0 
LINE
 10 
 380.015185546875 
 20 
 172.452795410156 
 30 
 0 
 11 
 379.905615234375 
 21 
 171.078405761719 
 31 
 0 
 0 
LINE
 10 
 379.905615234375 
 20 
 171.078405761719 
 30 
 0 
 11 
 379.618408203125 
 21 
 170.337609863281 
 31 
 0 
 0 
LINE
 10 
 379.618408203125 
 20 
 170.337609863281 
 30 
 0 
 11 
 379.100805664063 
 21 
 170.091198730469 
 31 
 0 
 0 
LINE
 10 
 379.100805664063 
 20 
 170.091198730469 
 30 
 0 
 11 
 378.3 
 21 
 170.2 
 31 
 0 
 0 
LINE
 10 
 378.3 
 20 
 170.2 
 30 
 0 
 11 
 377.000756835938 
 21 
 170.594396972656 
 31 
 0 
 0 
LINE
 10 
 377.000756835938 
 20 
 170.594396972656 
 30 
 0 
 11 
 374.482421875 
 21 
 171.363195800781 
 31 
 0 
 0 
LINE
 10 
 374.482421875 
 20 
 171.363195800781 
 30 
 0 
 11 
 371.013623046875 
 21 
 172.4248046875 
 31 
 0 
 0 
LINE
 10 
 371.013623046875 
 20 
 172.4248046875 
 30 
 0 
 11 
 366.863208007813 
 21 
 173.697607421875 
 31 
 0 
 0 
LINE
 10 
 366.863208007813 
 20 
 173.697607421875 
 30 
 0 
 11 
 362.3 
 21 
 175.1 
 31 
 0 
 0 
LINE
 10 
 362.3 
 20 
 175.1 
 30 
 0 
 11 
 348 
 21 
 179.5 
 31 
 0 
 0 
LINE
 10 
 348 
 20 
 179.5 
 30 
 0 
 11 
 348 
 21 
 186.6 
 31 
 0 
 0 
LINE
 10 
 348 
 20 
 186.6 
 30 
 0 
 11 
 348 
 21 
 193.8 
 31 
 0 
 0 
LINE
 10 
 348 
 20 
 193.8 
 30 
 0 
 11 
 344.9 
 21 
 194.4 
 31 
 0 
 0 
LINE
 10 
 344.9 
 20 
 194.4 
 30 
 0 
 11 
 341.198388671875 
 21 
 195.047204589844 
 31 
 0 
 0 
LINE
 10 
 341.198388671875 
 20 
 195.047204589844 
 30 
 0 
 11 
 338.87919921875 
 21 
 195.0416015625 
 31 
 0 
 0 
LINE
 10 
 338.87919921875 
 20 
 195.0416015625 
 30 
 0 
 11 
 337.62080078125 
 21 
 194.16240234375 
 31 
 0 
 0 
LINE
 10 
 337.62080078125 
 20 
 194.16240234375 
 30 
 0 
 11 
 337.101611328125 
 21 
 192.188806152344 
 31 
 0 
 0 
LINE
 10 
 337.101611328125 
 20 
 192.188806152344 
 30 
 0 
 11 
 337 
 21 
 188.9 
 31 
 0 
 0 
LINE
 10 
 337 
 20 
 188.9 
 30 
 0 
 11 
 337 
 21 
 182.7 
 31 
 0 
 0 
LINE
 10 
 337 
 20 
 182.7 
 30 
 0 
 11 
 333.3 
 21 
 183.4 
 31 
 0 
 0 
LINE
 10 
 333.3 
 20 
 183.4 
 30 
 0 
 11 
 332.031176757813 
 21 
 183.577587890625 
 31 
 0 
 0 
LINE
 10 
 332.031176757813 
 20 
 183.577587890625 
 30 
 0 
 11 
 330.805615234375 
 21 
 183.740808105469 
 31 
 0 
 0 
LINE
 10 
 330.805615234375 
 20 
 183.740808105469 
 30 
 0 
 11 
 329.714428710938 
 21 
 183.875207519531 
 31 
 0 
 0 
LINE
 10 
 329.714428710938 
 20 
 183.875207519531 
 30 
 0 
 11 
 328.848803710938 
 21 
 183.96640625 
 31 
 0 
 0 
LINE
 10 
 328.848803710938 
 20 
 183.96640625 
 30 
 0 
 11 
 328.3 
 21 
 184 
 31 
 0 
 0 
LINE
 10 
 328.3 
 20 
 184 
 30 
 0 
 11 
 327.78076171875 
 21 
 184.434411621094 
 31 
 0 
 0 
LINE
 10 
 327.78076171875 
 20 
 184.434411621094 
 30 
 0 
 11 
 327.410400390625 
 21 
 185.843200683594 
 31 
 0 
 0 
LINE
 10 
 327.410400390625 
 20 
 185.843200683594 
 30 
 0 
 11 
 327.169604492188 
 21 
 188.384802246094 
 31 
 0 
 0 
LINE
 10 
 327.169604492188 
 20 
 188.384802246094 
 30 
 0 
 11 
 327.039208984375 
 21 
 192.217602539063 
 31 
 0 
 0 
LINE
 10 
 327.039208984375 
 20 
 192.217602539063 
 30 
 0 
 11 
 327 
 21 
 197.5 
 31 
 0 
 0 
LINE
 10 
 327 
 20 
 197.5 
 30 
 0 
 11 
 327 
 21 
 211 
 31 
 0 
 0 
LINE
 10 
 327 
 20 
 211 
 30 
 0 
 11 
 332.5 
 21 
 211 
 31 
 0 
 0 
LINE
 10 
 332.5 
 20 
 211 
 30 
 0 
 11 
 338 
 21 
 211 
 31 
 0 
 0 
LINE
 10 
 338 
 20 
 211 
 30 
 0 
 11 
 338 
 21 
 205.5 
 31 
 0 
 0 
LINE
 10 
 338 
 20 
 205.5 
 30 
 0 
 11 
 338.038403320313 
 21 
 202.969592285156 
 31 
 0 
 0 
LINE
 10 
 338.038403320313 
 20 
 202.969592285156 
 30 
 0 
 11 
 338.211206054688 
 21 
 201.360803222656 
 31 
 0 
 0 
LINE
 10 
 338.211206054688 
 20 
 201.360803222656 
 30 
 0 
 11 
 338.604809570313 
 21 
 200.467199707031 
 31 
 0 
 0 
LINE
 10 
 338.604809570313 
 20 
 200.467199707031 
 30 
 0 
 11 
 339.305615234375 
 21 
 200.082397460938 
 31 
 0 
 0 
LINE
 10 
 339.305615234375 
 20 
 200.082397460938 
 30 
 0 
 11 
 340.4 
 21 
 200 
 31 
 0 
 0 
LINE
 10 
 340.4 
 20 
 200 
 30 
 0 
 11 
 341.307983398438 
 21 
 199.96640625 
 31 
 0 
 0 
LINE
 10 
 341.307983398438 
 20 
 199.96640625 
 30 
 0 
 11 
 342.4080078125 
 21 
 199.8751953125 
 31 
 0 
 0 
LINE
 10 
 342.4080078125 
 20 
 199.8751953125 
 30 
 0 
 11 
 343.60400390625 
 21 
 199.740808105469 
 31 
 0 
 0 
LINE
 10 
 343.60400390625 
 20 
 199.740808105469 
 30 
 0 
 11 
 344.8 
 21 
 199.577600097656 
 31 
 0 
 0 
LINE
 10 
 344.8 
 20 
 199.577600097656 
 30 
 0 
 11 
 345.9 
 21 
 199.4 
 31 
 0 
 0 
LINE
 10 
 345.9 
 20 
 199.4 
 30 
 0 
 11 
 349 
 21 
 198.7 
 31 
 0 
 0 
LINE
 10 
 349 
 20 
 198.7 
 30 
 0 
 11 
 349 
 21 
 205.7 
 31 
 0 
 0 
LINE
 10 
 349 
 20 
 205.7 
 30 
 0 
 11 
 349 
 21 
 212.7 
 31 
 0 
 0 
LINE
 10 
 349 
 20 
 212.7 
 30 
 0 
 11 
 361.2 
 21 
 213.3 
 31 
 0 
 0 
LINE
 10 
 361.2 
 20 
 213.3 
 30 
 0 
 11 
 365.187182617188 
 21 
 213.526416015625 
 31 
 0 
 0 
LINE
 10 
 365.187182617188 
 20 
 213.526416015625 
 30 
 0 
 11 
 369.049584960938 
 21 
 213.719213867188 
 31 
 0 
 0 
LINE
 10 
 369.049584960938 
 20 
 213.719213867188 
 30 
 0 
 11 
 372.518408203125 
 21 
 213.868798828125 
 31 
 0 
 0 
LINE
 10 
 372.518408203125 
 20 
 213.868798828125 
 30 
 0 
 11 
 375.3248046875 
 21 
 213.965600585938 
 31 
 0 
 0 
LINE
 10 
 375.3248046875 
 20 
 213.965600585938 
 30 
 0 
 11 
 377.2 
 21 
 214 
 31 
 0 
 0 
LINE
 10 
 377.2 
 20 
 214 
 30 
 0 
 11 
 379.05439453125 
 21 
 213.967993164063 
 31 
 0 
 0 
LINE
 10 
 379.05439453125 
 20 
 213.967993164063 
 30 
 0 
 11 
 380.17919921875 
 21 
 213.743994140625 
 31 
 0 
 0 
LINE
 10 
 380.17919921875 
 20 
 213.743994140625 
 30 
 0 
 11 
 380.756787109375 
 21 
 213.136010742188 
 31 
 0 
 0 
LINE
 10 
 380.756787109375 
 20 
 213.136010742188 
 30 
 0 
 11 
 380.969604492188 
 21 
 211.952001953125 
 31 
 0 
 0 
LINE
 10 
 380.969604492188 
 20 
 211.952001953125 
 30 
 0 
 11 
 381 
 21 
 210 
 31 
 0 
 0 
LINE
 10 
 381 
 20 
 210 
 30 
 0 
 11 
 380.92958984375 
 21 
 208.598413085938 
 31 
 0 
 0 
LINE
 10 
 380.92958984375 
 20 
 208.598413085938 
 30 
 0 
 11 
 380.724780273438 
 21 
 207.403198242188 
 31 
 0 
 0 
LINE
 10 
 380.724780273438 
 20 
 207.403198242188 
 30 
 0 
 11 
 380.39521484375 
 21 
 206.428784179688 
 31 
 0 
 0 
LINE
 10 
 380.39521484375 
 20 
 206.428784179688 
 30 
 0 
 11 
 379.950415039063 
 21 
 205.689599609375 
 31 
 0 
 0 
LINE
 10 
 379.950415039063 
 20 
 205.689599609375 
 30 
 0 
 11 
 379.4 
 21 
 205.2 
 31 
 0 
 0 
LINE
 10 
 379.4 
 20 
 205.2 
 30 
 0 
 11 
 378.727978515625 
 21 
 204.779992675781 
 31 
 0 
 0 
LINE
 10 
 378.727978515625 
 20 
 204.779992675781 
 30 
 0 
 11 
 378.392016601563 
 21 
 204.432006835938 
 31 
 0 
 0 
LINE
 10 
 378.392016601563 
 20 
 204.432006835938 
 30 
 0 
 11 
 378.392016601563 
 21 
 204.083996582031 
 31 
 0 
 0 
LINE
 10 
 378.392016601563 
 20 
 204.083996582031 
 30 
 0 
 11 
 378.728002929688 
 21 
 203.664001464844 
 31 
 0 
 0 
LINE
 10 
 378.728002929688 
 20 
 203.664001464844 
 30 
 0 
 11 
 379.4 
 21 
 203.1 
 31 
 0 
 0 
LINE
 10 
 379.4 
 20 
 203.1 
 30 
 0 
 11 
 379.911987304688 
 21 
 202.476794433594 
 31 
 0 
 0 
LINE
 10 
 379.911987304688 
 20 
 202.476794433594 
 30 
 0 
 11 
 380.352001953125 
 21 
 201.618395996094 
 31 
 0 
 0 
LINE
 10 
 380.352001953125 
 20 
 201.618395996094 
 30 
 0 
 11 
 380.69599609375 
 21 
 200.601611328125 
 31 
 0 
 0 
LINE
 10 
 380.69599609375 
 20 
 200.601611328125 
 30 
 0 
 11 
 380.919995117188 
 21 
 199.503210449219 
 31 
 0 
 0 
LINE
 10 
 380.919995117188 
 20 
 199.503210449219 
 30 
 0 
 11 
 381 
 21 
 198.4 
 31 
 0 
 0 
LINE
 10 
 381 
 20 
 198.4 
 30 
 0 
 11 
 381.048779296875 
 21 
 196.894384765625 
 31 
 0 
 0 
LINE
 10 
 381.048779296875 
 20 
 196.894384765625 
 30 
 0 
 11 
 381.24638671875 
 21 
 195.907202148438 
 31 
 0 
 0 
LINE
 10 
 381.24638671875 
 20 
 195.907202148438 
 30 
 0 
 11 
 381.669604492188 
 21 
 195.332800292969 
 31 
 0 
 0 
LINE
 10 
 381.669604492188 
 20 
 195.332800292969 
 30 
 0 
 11 
 382.39521484375 
 21 
 195.065600585938 
 31 
 0 
 0 
LINE
 10 
 382.39521484375 
 20 
 195.065600585938 
 30 
 0 
 11 
 383.5 
 21 
 195 
 31 
 0 
 0 
LINE
 10 
 383.5 
 20 
 195 
 30 
 0 
 11 
 384.893579101563 
 21 
 195.271203613281 
 31 
 0 
 0 
LINE
 10 
 384.893579101563 
 20 
 195.271203613281 
 30 
 0 
 11 
 385.768798828125 
 21 
 196.35361328125 
 31 
 0 
 0 
LINE
 10 
 385.768798828125 
 20 
 196.35361328125 
 30 
 0 
 11 
 386.207202148438 
 21 
 198.650402832031 
 31 
 0 
 0 
LINE
 10 
 386.207202148438 
 20 
 198.650402832031 
 30 
 0 
 11 
 386.290405273438 
 21 
 202.564807128906 
 31 
 0 
 0 
LINE
 10 
 386.290405273438 
 20 
 202.564807128906 
 30 
 0 
 11 
 386.1 
 21 
 208.5 
 31 
 0 
 0 
LINE
 10 
 386.1 
 20 
 208.5 
 30 
 0 
 11 
 385.8 
 21 
 214.6 
 31 
 0 
 0 
LINE
 10 
 385.8 
 20 
 214.6 
 30 
 0 
 11 
 396.2 
 21 
 216.6 
 31 
 0 
 0 
LINE
 10 
 396.2 
 20 
 216.6 
 30 
 0 
 11 
 406.5 
 21 
 218.7 
 31 
 0 
 0 
LINE
 10 
 406.5 
 20 
 218.7 
 30 
 0 
 11 
 402.5 
 21 
 220.6 
 31 
 0 
 0 
LINE
 10 
 402.5 
 20 
 220.6 
 30 
 0 
 11 
 400.783984375 
 21 
 221.492797851563 
 31 
 0 
 0 
LINE
 10 
 400.783984375 
 20 
 221.492797851563 
 30 
 0 
 11 
 398.42001953125 
 21 
 222.7744140625 
 31 
 0 
 0 
LINE
 10 
 398.42001953125 
 20 
 222.7744140625 
 30 
 0 
 11 
 395.623999023438 
 21 
 224.32958984375 
 31 
 0 
 0 
LINE
 10 
 395.623999023438 
 20 
 224.32958984375 
 30 
 0 
 11 
 392.61201171875 
 21 
 226.043188476563 
 31 
 0 
 0 
LINE
 10 
 392.61201171875 
 20 
 226.043188476563 
 30 
 0 
 11 
 389.6 
 21 
 227.8 
 31 
 0 
 0 
LINE
 10 
 389.6 
 20 
 227.8 
 30 
 0 
 11 
 386.318383789063 
 21 
 229.7255859375 
 31 
 0 
 0 
LINE
 10 
 386.318383789063 
 20 
 229.7255859375 
 30 
 0 
 11 
 382.451220703125 
 21 
 231.900805664063 
 31 
 0 
 0 
LINE
 10 
 382.451220703125 
 20 
 231.900805664063 
 30 
 0 
 11 
 378.3248046875 
 21 
 234.143212890625 
 31 
 0 
 0 
LINE
 10 
 378.3248046875 
 20 
 234.143212890625 
 30 
 0 
 11 
 374.265600585938 
 21 
 236.27041015625 
 31 
 0 
 0 
LINE
 10 
 374.265600585938 
 20 
 236.27041015625 
 30 
 0 
 11 
 370.6 
 21 
 238.1 
 31 
 0 
 0 
LINE
 10 
 370.6 
 20 
 238.1 
 30 
 0 
 11 
 367.142407226563 
 21 
 239.88798828125 
 31 
 0 
 0 
LINE
 10 
 367.142407226563 
 20 
 239.88798828125 
 30 
 0 
 11 
 363.555200195313 
 21 
 241.79599609375 
 31 
 0 
 0 
LINE
 10 
 363.555200195313 
 20 
 241.79599609375 
 30 
 0 
 11 
 360.116796875 
 21 
 243.680004882813 
 31 
 0 
 0 
LINE
 10 
 360.116796875 
 20 
 243.680004882813 
 30 
 0 
 11 
 357.105615234375 
 21 
 245.39599609375 
 31 
 0 
 0 
LINE
 10 
 357.105615234375 
 20 
 245.39599609375 
 30 
 0 
 11 
 354.8 
 21 
 246.8 
 31 
 0 
 0 
LINE
 10 
 354.8 
 20 
 246.8 
 30 
 0 
 11 
 349 
 21 
 250.5 
 31 
 0 
 0 
LINE
 10 
 349 
 20 
 250.5 
 30 
 0 
 11 
 349 
 21 
 257.1 
 31 
 0 
 0 
LINE
 10 
 349 
 20 
 257.1 
 30 
 0 
 11 
 349 
 21 
 263.7 
 31 
 0 
 0 
LINE
 10 
 349 
 20 
 263.7 
 30 
 0 
 11 
 343.3 
 21 
 266.2 
 31 
 0 
 0 
LINE
 10 
 343.3 
 20 
 266.2 
 30 
 0 
 11 
 337.5 
 21 
 268.7 
 31 
 0 
 0 
LINE
 10 
 337.5 
 20 
 268.7 
 30 
 0 
 11 
 337.2 
 21 
 265.3 
 31 
 0 
 0 
LINE
 10 
 337.2 
 20 
 265.3 
 30 
 0 
 11 
 337.007202148438 
 21 
 263.759985351563 
 31 
 0 
 0 
LINE
 10 
 337.007202148438 
 20 
 263.759985351563 
 30 
 0 
 11 
 336.73759765625 
 21 
 262.79599609375 
 31 
 0 
 0 
LINE
 10 
 336.73759765625 
 20 
 262.79599609375 
 30 
 0 
 11 
 336.314404296875 
 21 
 262.311987304688 
 31 
 0 
 0 
LINE
 10 
 336.314404296875 
 20 
 262.311987304688 
 30 
 0 
 11 
 335.660815429688 
 21 
 262.21201171875 
 31 
 0 
 0 
LINE
 10 
 335.660815429688 
 20 
 262.21201171875 
 30 
 0 
 11 
 334.7 
 21 
 262.4 
 31 
 0 
 0 
LINE
 10 
 334.7 
 20 
 262.4 
 30 
 0 
 11 
 333.976000976563 
 21 
 262.577587890625 
 31 
 0 
 0 
LINE
 10 
 333.976000976563 
 20 
 262.577587890625 
 30 
 0 
 11 
 333.276025390625 
 21 
 262.7408203125 
 31 
 0 
 0 
LINE
 10 
 333.276025390625 
 20 
 262.7408203125 
 30 
 0 
 11 
 332.647998046875 
 21 
 262.8751953125 
 31 
 0 
 0 
LINE
 10 
 332.647998046875 
 20 
 262.8751953125 
 30 
 0 
 11 
 332.140014648438 
 21 
 262.96640625 
 31 
 0 
 0 
LINE
 10 
 332.140014648438 
 20 
 262.96640625 
 30 
 0 
 11 
 331.8 
 21 
 263 
 31 
 0 
 0 
LINE
 10 
 331.8 
 20 
 263 
 30 
 0 
 11 
 331.524780273438 
 21 
 263.51201171875 
 31 
 0 
 0 
LINE
 10 
 331.524780273438 
 20 
 263.51201171875 
 30 
 0 
 11 
 331.302416992188 
 21 
 264.936010742188 
 31 
 0 
 0 
LINE
 10 
 331.302416992188 
 20 
 264.936010742188 
 30 
 0 
 11 
 331.13759765625 
 21 
 267.10400390625 
 31 
 0 
 0 
LINE
 10 
 331.13759765625 
 20 
 267.10400390625 
 30 
 0 
 11 
 331.035205078125 
 21 
 269.847998046875 
 31 
 0 
 0 
LINE
 10 
 331.035205078125 
 20 
 269.847998046875 
 30 
 0 
 11 
 331 
 21 
 273 
 31 
 0 
 0 
LINE
 10 
 331 
 20 
 273 
 30 
 0 
 11 
 331.047973632813 
 21 
 278.1248046875 
 31 
 0 
 0 
LINE
 10 
 331.047973632813 
 20 
 278.1248046875 
 30 
 0 
 11 
 331.336010742188 
 21 
 281.190405273438 
 31 
 0 
 0 
LINE
 10 
 331.336010742188 
 20 
 281.190405273438 
 30 
 0 
 11 
 332.080004882813 
 21 
 282.633618164063 
 31 
 0 
 0 
LINE
 10 
 332.080004882813 
 20 
 282.633618164063 
 30 
 0 
 11 
 333.49599609375 
 21 
 282.8912109375 
 31 
 0 
 0 
LINE
 10 
 333.49599609375 
 20 
 282.8912109375 
 30 
 0 
 11 
 335.8 
 21 
 282.4 
 31 
 0 
 0 
LINE
 10 
 335.8 
 20 
 282.4 
 30 
 0 
 11 
 336.719995117188 
 21 
 282.047192382813 
 31 
 0 
 0 
LINE
 10 
 336.719995117188 
 20 
 282.047192382813 
 30 
 0 
 11 
 337.352001953125 
 21 
 281.521606445313 
 31 
 0 
 0 
LINE
 10 
 337.352001953125 
 20 
 281.521606445313 
 30 
 0 
 11 
 337.744018554688 
 21 
 280.722412109375 
 31 
 0 
 0 
LINE
 10 
 337.744018554688 
 20 
 280.722412109375 
 30 
 0 
 11 
 337.944018554688 
 21 
 279.548803710938 
 31 
 0 
 0 
LINE
 10 
 337.944018554688 
 20 
 279.548803710938 
 30 
 0 
 11 
 338 
 21 
 277.9 
 31 
 0 
 0 
LINE
 10 
 338 
 20 
 277.9 
 30 
 0 
 11 
 338.06162109375 
 21 
 276.006396484375 
 31 
 0 
 0 
LINE
 10 
 338.06162109375 
 20 
 276.006396484375 
 30 
 0 
 11 
 338.396801757813 
 21 
 274.703198242188 
 31 
 0 
 0 
LINE
 10 
 338.396801757813 
 20 
 274.703198242188 
 30 
 0 
 11 
 339.231201171875 
 21 
 273.716796875 
 31 
 0 
 0 
LINE
 10 
 339.231201171875 
 20 
 273.716796875 
 30 
 0 
 11 
 340.790405273438 
 21 
 272.773608398438 
 31 
 0 
 0 
LINE
 10 
 340.790405273438 
 20 
 272.773608398438 
 30 
 0 
 11 
 343.3 
 21 
 271.6 
 31 
 0 
 0 
LINE
 10 
 343.3 
 20 
 271.6 
 30 
 0 
 11 
 344.928002929688 
 21 
 270.872802734375 
 31 
 0 
 0 
LINE
 10 
 344.928002929688 
 20 
 270.872802734375 
 30 
 0 
 11 
 346.38798828125 
 21 
 270.270385742188 
 31 
 0 
 0 
LINE
 10 
 346.38798828125 
 20 
 270.270385742188 
 30 
 0 
 11 
 347.583984375 
 21 
 269.821606445313 
 31 
 0 
 0 
LINE
 10 
 347.583984375 
 20 
 269.821606445313 
 30 
 0 
 11 
 348.42001953125 
 21 
 269.555200195313 
 31 
 0 
 0 
LINE
 10 
 348.42001953125 
 20 
 269.555200195313 
 30 
 0 
 11 
 348.8 
 21 
 269.5 
 31 
 0 
 0 
LINE
 10 
 348.8 
 20 
 269.5 
 30 
 0 
 11 
 348.9423828125 
 21 
 270.848803710938 
 31 
 0 
 0 
LINE
 10 
 348.9423828125 
 20 
 270.848803710938 
 30 
 0 
 11 
 349.123193359375 
 21 
 274.38642578125 
 31 
 0 
 0 
LINE
 10 
 349.123193359375 
 20 
 274.38642578125 
 30 
 0 
 11 
 349.3328125 
 21 
 279.709619140625 
 31 
 0 
 0 
LINE
 10 
 349.3328125 
 20 
 279.709619140625 
 30 
 0 
 11 
 349.56162109375 
 21 
 286.415209960938 
 31 
 0 
 0 
LINE
 10 
 349.56162109375 
 20 
 286.415209960938 
 30 
 0 
 11 
 349.8 
 21 
 294.1 
 31 
 0 
 0 
LINE
 10 
 349.8 
 20 
 294.1 
 30 
 0 
 11 
 350.230395507813 
 21 
 307.549609375 
 31 
 0 
 0 
LINE
 10 
 350.230395507813 
 20 
 307.549609375 
 30 
 0 
 11 
 350.891186523438 
 21 
 315.344799804688 
 31 
 0 
 0 
LINE
 10 
 350.891186523438 
 20 
 315.344799804688 
 30 
 0 
 11 
 352.276806640625 
 21 
 318.69521484375 
 31 
 0 
 0 
LINE
 10 
 352.276806640625 
 20 
 318.69521484375 
 30 
 0 
 11 
 354.881616210938 
 21 
 318.810400390625 
 31 
 0 
 0 
LINE
 10 
 354.881616210938 
 20 
 318.810400390625 
 30 
 0 
 11 
 359.2 
 21 
 316.9 
 31 
 0 
 0 
LINE
 10 
 359.2 
 20 
 316.9 
 30 
 0 
 11 
 364.1 
 21 
 314.6 
 31 
 0 
 0 
LINE
 10 
 364.1 
 20 
 314.6 
 30 
 0 
 11 
 365.6 
 21 
 316.8 
 31 
 0 
 0 
LINE
 10 
 365.6 
 20 
 316.8 
 30 
 0 
 11 
 366.306372070313 
 21 
 317.643188476563 
 31 
 0 
 0 
LINE
 10 
 366.306372070313 
 20 
 317.643188476563 
 30 
 0 
 11 
 367.147216796875 
 21 
 318.265576171875 
 31 
 0 
 0 
LINE
 10 
 367.147216796875 
 20 
 318.265576171875 
 30 
 0 
 11 
 368.184814453125 
 21 
 318.686401367188 
 31 
 0 
 0 
LINE
 10 
 368.184814453125 
 20 
 318.686401367188 
 30 
 0 
 11 
 369.481591796875 
 21 
 318.9248046875 
 31 
 0 
 0 
LINE
 10 
 369.481591796875 
 20 
 318.9248046875 
 30 
 0 
 11 
 371.1 
 21 
 319 
 31 
 0 
 0 
LINE
 10 
 371.1 
 20 
 319 
 30 
 0 
 11 
 373.276782226563 
 21 
 319.215991210938 
 31 
 0 
 0 
LINE
 10 
 373.276782226563 
 20 
 319.215991210938 
 30 
 0 
 11 
 374.618383789063 
 21 
 319.816015625 
 31 
 0 
 0 
LINE
 10 
 374.618383789063 
 20 
 319.816015625 
 30 
 0 
 11 
 375.081591796875 
 21 
 320.728002929688 
 31 
 0 
 0 
LINE
 10 
 375.081591796875 
 20 
 320.728002929688 
 30 
 0 
 11 
 374.623217773438 
 21 
 321.880004882813 
 31 
 0 
 0 
LINE
 10 
 374.623217773438 
 20 
 321.880004882813 
 30 
 0 
 11 
 373.2 
 21 
 323.2 
 31 
 0 
 0 
LINE
 10 
 373.2 
 20 
 323.2 
 30 
 0 
 11 
 371.284790039063 
 21 
 324.998413085938 
 31 
 0 
 0 
LINE
 10 
 371.284790039063 
 20 
 324.998413085938 
 30 
 0 
 11 
 369.230419921875 
 21 
 327.915185546875 
 31 
 0 
 0 
LINE
 10 
 369.230419921875 
 20 
 327.915185546875 
 30 
 0 
 11 
 366.993603515625 
 21 
 332.01279296875 
 31 
 0 
 0 
LINE
 10 
 366.993603515625 
 20 
 332.01279296875 
 30 
 0 
 11 
 364.531201171875 
 21 
 337.35361328125 
 31 
 0 
 0 
LINE
 10 
 364.531201171875 
 20 
 337.35361328125 
 30 
 0 
 11 
 361.8 
 21 
 344 
 31 
 0 
 0 
LINE
 10 
 361.8 
 20 
 344 
 30 
 0 
 11 
 360.327197265625 
 21 
 347.739184570313 
 31 
 0 
 0 
LINE
 10 
 360.327197265625 
 20 
 347.739184570313 
 30 
 0 
 11 
 358.969604492188 
 21 
 351.23359375 
 31 
 0 
 0 
LINE
 10 
 358.969604492188 
 20 
 351.23359375 
 30 
 0 
 11 
 357.818408203125 
 21 
 354.238403320313 
 31 
 0 
 0 
LINE
 10 
 357.818408203125 
 20 
 354.238403320313 
 30 
 0 
 11 
 356.964819335938 
 21 
 356.508813476563 
 31 
 0 
 0 
LINE
 10 
 356.964819335938 
 20 
 356.508813476563 
 30 
 0 
 11 
 356.5 
 21 
 357.8 
 31 
 0 
 0 
LINE
 10 
 356.5 
 20 
 357.8 
 30 
 0 
 11 
 355.930395507813 
 21 
 359.045581054688 
 31 
 0 
 0 
LINE
 10 
 355.930395507813 
 20 
 359.045581054688 
 30 
 0 
 11 
 355.015209960938 
 21 
 359.65283203125 
 31 
 0 
 0 
LINE
 10 
 355.015209960938 
 20 
 359.65283203125 
 30 
 0 
 11 
 353.50478515625 
 21 
 359.6072265625 
 31 
 0 
 0 
LINE
 10 
 353.50478515625 
 20 
 359.6072265625 
 30 
 0 
 11 
 351.149609375 
 21 
 358.894409179688 
 31 
 0 
 0 
LINE
 10 
 351.149609375 
 20 
 358.894409179688 
 30 
 0 
 11 
 347.7 
 21 
 357.5 
 31 
 0 
 0 
LINE
 10 
 347.7 
 20 
 357.5 
 30 
 0 
 11 
 345.932788085938 
 21 
 356.713598632813 
 31 
 0 
 0 
LINE
 10 
 345.932788085938 
 20 
 356.713598632813 
 30 
 0 
 11 
 344.8423828125 
 21 
 355.936791992188 
 31 
 0 
 0 
LINE
 10 
 344.8423828125 
 20 
 355.936791992188 
 30 
 0 
 11 
 344.265600585938 
 21 
 354.843212890625 
 31 
 0 
 0 
LINE
 10 
 344.265600585938 
 20 
 354.843212890625 
 30 
 0 
 11 
 344.039208984375 
 21 
 353.106396484375 
 31 
 0 
 0 
LINE
 10 
 344.039208984375 
 20 
 353.106396484375 
 30 
 0 
 11 
 344 
 21 
 350.4 
 31 
 0 
 0 
LINE
 10 
 344 
 20 
 350.4 
 30 
 0 
 11 
 343.965600585938 
 21 
 348.649584960938 
 31 
 0 
 0 
LINE
 10 
 343.965600585938 
 20 
 348.649584960938 
 30 
 0 
 11 
 343.868798828125 
 21 
 347.172802734375 
 31 
 0 
 0 
LINE
 10 
 343.868798828125 
 20 
 347.172802734375 
 30 
 0 
 11 
 343.719189453125 
 21 
 346.051196289063 
 31 
 0 
 0 
LINE
 10 
 343.719189453125 
 20 
 346.051196289063 
 30 
 0 
 11 
 343.526416015625 
 21 
 345.36640625 
 31 
 0 
 0 
LINE
 10 
 343.526416015625 
 20 
 345.36640625 
 30 
 0 
 11 
 343.3 
 21 
 345.2 
 31 
 0 
 0 
LINE
 10 
 343.3 
 20 
 345.2 
 30 
 0 
 11 
 342.831982421875 
 21 
 345.387182617188 
 31 
 0 
 0 
LINE
 10 
 342.831982421875 
 20 
 345.387182617188 
 30 
 0 
 11 
 342.076025390625 
 21 
 345.689624023438 
 31 
 0 
 0 
LINE
 10 
 342.076025390625 
 20 
 345.689624023438 
 30 
 0 
 11 
 341.10400390625 
 21 
 346.078393554688 
 31 
 0 
 0 
LINE
 10 
 341.10400390625 
 20 
 346.078393554688 
 30 
 0 
 11 
 339.988012695313 
 21 
 346.5248046875 
 31 
 0 
 0 
LINE
 10 
 339.988012695313 
 20 
 346.5248046875 
 30 
 0 
 11 
 338.8 
 21 
 347 
 31 
 0 
 0 
LINE
 10 
 338.8 
 20 
 347 
 30 
 0 
 11 
 335 
 21 
 348.4 
 31 
 0 
 0 
LINE
 10 
 335 
 20 
 348.4 
 30 
 0 
 11 
 335 
 21 
 356.7 
 31 
 0 
 0 
LINE
 10 
 335 
 20 
 356.7 
 30 
 0 
 11 
 335.033569335938 
 21 
 359.329565429688 
 31 
 0 
 0 
LINE
 10 
 335.033569335938 
 20 
 359.329565429688 
 30 
 0 
 11 
 335.1248046875 
 21 
 361.608813476563 
 31 
 0 
 0 
LINE
 10 
 335.1248046875 
 20 
 361.608813476563 
 30 
 0 
 11 
 335.259204101563 
 21 
 363.403198242188 
 31 
 0 
 0 
LINE
 10 
 335.259204101563 
 20 
 363.403198242188 
 30 
 0 
 11 
 335.422412109375 
 21 
 364.57841796875 
 31 
 0 
 0 
LINE
 10 
 335.422412109375 
 20 
 364.57841796875 
 30 
 0 
 11 
 335.6 
 21 
 365 
 31 
 0 
 0 
LINE
 10 
 335.6 
 20 
 365 
 30 
 0 
 11 
 335.9255859375 
 21 
 364.89677734375 
 31 
 0 
 0 
LINE
 10 
 335.9255859375 
 20 
 364.89677734375 
 30 
 0 
 11 
 336.500805664063 
 21 
 364.606420898438 
 31 
 0 
 0 
LINE
 10 
 336.500805664063 
 20 
 364.606420898438 
 30 
 0 
 11 
 337.263208007813 
 21 
 364.157592773438 
 31 
 0 
 0 
LINE
 10 
 337.263208007813 
 20 
 364.157592773438 
 30 
 0 
 11 
 338.150415039063 
 21 
 363.57919921875 
 31 
 0 
 0 
LINE
 10 
 338.150415039063 
 20 
 363.57919921875 
 30 
 0 
 11 
 339.1 
 21 
 362.9 
 31 
 0 
 0 
LINE
 10 
 339.1 
 20 
 362.9 
 30 
 0 
 11 
 342.1 
 21 
 360.8 
 31 
 0 
 0 
LINE
 10 
 342.1 
 20 
 360.8 
 30 
 0 
 11 
 347.9 
 21 
 363 
 31 
 0 
 0 
LINE
 10 
 347.9 
 20 
 363 
 30 
 0 
 11 
 353.7 
 21 
 365.1 
 31 
 0 
 0 
LINE
 10 
 353.7 
 20 
 365.1 
 30 
 0 
 11 
 347.5 
 21 
 382.8 
 31 
 0 
 0 
LINE
 10 
 347.5 
 20 
 382.8 
 30 
 0 
 11 
 345.480004882813 
 21 
 388.523999023438 
 31 
 0 
 0 
LINE
 10 
 345.480004882813 
 20 
 388.523999023438 
 30 
 0 
 11 
 343.580004882813 
 21 
 393.816015625 
 31 
 0 
 0 
LINE
 10 
 343.580004882813 
 20 
 393.816015625 
 30 
 0 
 11 
 341.919995117188 
 21 
 398.316015625 
 31 
 0 
 0 
LINE
 10 
 341.919995117188 
 20 
 398.316015625 
 30 
 0 
 11 
 340.619995117188 
 21 
 401.664013671875 
 31 
 0 
 0 
LINE
 10 
 340.619995117188 
 20 
 401.664013671875 
 30 
 0 
 11 
 339.8 
 21 
 403.5 
 31 
 0 
 0 
LINE
 10 
 339.8 
 20 
 403.5 
 30 
 0 
 11 
 339.302392578125 
 21 
 404.602392578125 
 31 
 0 
 0 
LINE
 10 
 339.302392578125 
 20 
 404.602392578125 
 30 
 0 
 11 
 338.795190429688 
 21 
 405.815185546875 
 31 
 0 
 0 
LINE
 10 
 338.795190429688 
 20 
 405.815185546875 
 30 
 0 
 11 
 338.316796875 
 21 
 407.056811523438 
 31 
 0 
 0 
LINE
 10 
 338.316796875 
 20 
 407.056811523438 
 30 
 0 
 11 
 337.905590820313 
 21 
 408.24560546875 
 31 
 0 
 0 
LINE
 10 
 337.905590820313 
 20 
 408.24560546875 
 30 
 0 
 11 
 337.6 
 21 
 409.3 
 31 
 0 
 0 
LINE
 10 
 337.6 
 20 
 409.3 
 30 
 0 
 11 
 337.377587890625 
 21 
 410.156787109375 
 31 
 0 
 0 
LINE
 10 
 337.377587890625 
 20 
 410.156787109375 
 30 
 0 
 11 
 337.092797851563 
 21 
 410.898388671875 
 31 
 0 
 0 
LINE
 10 
 337.092797851563 
 20 
 410.898388671875 
 30 
 0 
 11 
 336.77919921875 
 21 
 411.481591796875 
 31 
 0 
 0 
LINE
 10 
 336.77919921875 
 20 
 411.481591796875 
 30 
 0 
 11 
 336.47041015625 
 21 
 411.863232421875 
 31 
 0 
 0 
LINE
 10 
 336.47041015625 
 20 
 411.863232421875 
 30 
 0 
 11 
 336.2 
 21 
 412 
 31 
 0 
 0 
LINE
 10 
 336.2 
 20 
 412 
 30 
 0 
 11 
 334.87041015625 
 21 
 410.18720703125 
 31 
 0 
 0 
LINE
 10 
 334.87041015625 
 20 
 410.18720703125 
 30 
 0 
 11 
 331.611181640625 
 21 
 405.249633789063 
 31 
 0 
 0 
LINE
 10 
 331.611181640625 
 20 
 405.249633789063 
 30 
 0 
 11 
 326.796801757813 
 21 
 397.7583984375 
 31 
 0 
 0 
LINE
 10 
 326.796801757813 
 20 
 397.7583984375 
 30 
 0 
 11 
 320.801611328125 
 21 
 388.284814453125 
 31 
 0 
 0 
LINE
 10 
 320.801611328125 
 20 
 388.284814453125 
 30 
 0 
 11 
 314 
 21 
 377.4 
 31 
 0 
 0 
LINE
 10 
 314 
 20 
 377.4 
 30 
 0 
 11 
 307.198388671875 
 21 
 366.4095703125 
 31 
 0 
 0 
LINE
 10 
 307.198388671875 
 20 
 366.4095703125 
 30 
 0 
 11 
 301.203198242188 
 21 
 356.748803710938 
 31 
 0 
 0 
LINE
 10 
 301.203198242188 
 20 
 356.748803710938 
 30 
 0 
 11 
 296.388793945313 
 21 
 349.003198242188 
 31 
 0 
 0 
LINE
 10 
 296.388793945313 
 20 
 349.003198242188 
 30 
 0 
 11 
 293.129614257813 
 21 
 343.758422851563 
 31 
 0 
 0 
LINE
 10 
 293.129614257813 
 20 
 343.758422851563 
 30 
 0 
 11 
 291.8 
 21 
 341.6 
 31 
 0 
 0 
LINE
 10 
 291.8 
 20 
 341.6 
 30 
 0 
 11 
 291.498388671875 
 21 
 341.253588867188 
 31 
 0 
 0 
LINE
 10 
 291.498388671875 
 20 
 341.253588867188 
 30 
 0 
 11 
 291.18720703125 
 21 
 341.060815429688 
 31 
 0 
 0 
LINE
 10 
 291.18720703125 
 20 
 341.060815429688 
 30 
 0 
 11 
 290.856787109375 
 21 
 341.031201171875 
 31 
 0 
 0 
LINE
 10 
 290.856787109375 
 20 
 341.031201171875 
 30 
 0 
 11 
 290.497607421875 
 21 
 341.1744140625 
 31 
 0 
 0 
LINE
 10 
 290.497607421875 
 20 
 341.1744140625 
 30 
 0 
 11 
 290.1 
 21 
 341.5 
 31 
 0 
 0 
LINE
 10 
 290.1 
 20 
 341.5 
 30 
 0 
 11 
 290.592797851563 
 21 
 343.265576171875 
 31 
 0 
 0 
LINE
 10 
 290.592797851563 
 20 
 343.265576171875 
 30 
 0 
 11 
 292.914404296875 
 21 
 347.728833007813 
 31 
 0 
 0 
LINE
 10 
 292.914404296875 
 20 
 347.728833007813 
 30 
 0 
 11 
 297.069580078125 
 21 
 354.89921875 
 31 
 0 
 0 
LINE
 10 
 297.069580078125 
 20 
 354.89921875 
 30 
 0 
 11 
 303.063208007813 
 21 
 364.786401367188 
 31 
 0 
 0 
LINE
 10 
 303.063208007813 
 20 
 364.786401367188 
 30 
 0 
 11 
 310.9 
 21 
 377.4 
 31 
 0 
 0 
LINE
 10 
 310.9 
 20 
 377.4 
 30 
 0 
 11 
 321.3751953125 
 21 
 394.235180664063 
 31 
 0 
 0 
LINE
 10 
 321.3751953125 
 20 
 394.235180664063 
 30 
 0 
 11 
 327.7416015625 
 21 
 404.729614257813 
 31 
 0 
 0 
LINE
 10 
 327.7416015625 
 20 
 404.729614257813 
 30 
 0 
 11 
 330.930395507813 
 21 
 410.606396484375 
 31 
 0 
 0 
LINE
 10 
 330.930395507813 
 20 
 410.606396484375 
 30 
 0 
 11 
 331.872802734375 
 21 
 413.588818359375 
 31 
 0 
 0 
LINE
 10 
 331.872802734375 
 20 
 413.588818359375 
 30 
 0 
 11 
 331.5 
 21 
 415.4 
 31 
 0 
 0 
LINE
 10 
 331.5 
 20 
 415.4 
 30 
 0 
 11 
 331.039990234375 
 21 
 416.38720703125 
 31 
 0 
 0 
LINE
 10 
 331.039990234375 
 20 
 416.38720703125 
 30 
 0 
 11 
 330.532006835938 
 21 
 417.2736328125 
 31 
 0 
 0 
LINE
 10 
 330.532006835938 
 20 
 417.2736328125 
 30 
 0 
 11 
 330.023999023438 
 21 
 418.006396484375 
 31 
 0 
 0 
LINE
 10 
 330.023999023438 
 20 
 418.006396484375 
 30 
 0 
 11 
 329.564013671875 
 21 
 418.5328125 
 31 
 0 
 0 
LINE
 10 
 329.564013671875 
 20 
 418.5328125 
 30 
 0 
 11 
 329.2 
 21 
 418.8 
 31 
 0 
 0 
LINE
 10 
 329.2 
 20 
 418.8 
 30 
 0 
 11 
 328.399194335938 
 21 
 418.60078125 
 31 
 0 
 0 
LINE
 10 
 328.399194335938 
 20 
 418.60078125 
 30 
 0 
 11 
 326.825610351563 
 21 
 417.830419921875 
 31 
 0 
 0 
LINE
 10 
 326.825610351563 
 20 
 417.830419921875 
 30 
 0 
 11 
 324.642407226563 
 21 
 416.589599609375 
 31 
 0 
 0 
LINE
 10 
 324.642407226563 
 20 
 416.589599609375 
 30 
 0 
 11 
 322.01279296875 
 21 
 414.97919921875 
 31 
 0 
 0 
LINE
 10 
 322.01279296875 
 20 
 414.97919921875 
 30 
 0 
 11 
 319.1 
 21 
 413.1 
 31 
 0 
 0 
LINE
 10 
 319.1 
 20 
 413.1 
 30 
 0 
 11 
 316.198388671875 
 21 
 411.1599609375 
 31 
 0 
 0 
LINE
 10 
 316.198388671875 
 20 
 411.1599609375 
 30 
 0 
 11 
 313.599194335938 
 21 
 409.484008789063 
 31 
 0 
 0 
LINE
 10 
 313.599194335938 
 20 
 409.484008789063 
 30 
 0 
 11 
 311.460791015625 
 21 
 408.168017578125 
 31 
 0 
 0 
LINE
 10 
 311.460791015625 
 20 
 408.168017578125 
 30 
 0 
 11 
 309.9416015625 
 21 
 407.3080078125 
 31 
 0 
 0 
LINE
 10 
 309.9416015625 
 20 
 407.3080078125 
 30 
 0 
 11 
 309.2 
 21 
 407 
 31 
 0 
 0 
LINE
 10 
 309.2 
 20 
 407 
 30 
 0 
 11 
 308.872778320313 
 21 
 407.17119140625 
 31 
 0 
 0 
LINE
 10 
 308.872778320313 
 20 
 407.17119140625 
 30 
 0 
 11 
 308.406396484375 
 21 
 407.649584960938 
 31 
 0 
 0 
LINE
 10 
 308.406396484375 
 20 
 407.649584960938 
 30 
 0 
 11 
 307.85361328125 
 21 
 408.382397460938 
 31 
 0 
 0 
LINE
 10 
 307.85361328125 
 20 
 408.382397460938 
 30 
 0 
 11 
 307.267211914063 
 21 
 409.316796875 
 31 
 0 
 0 
LINE
 10 
 307.267211914063 
 20 
 409.316796875 
 30 
 0 
 11 
 306.7 
 21 
 410.4 
 31 
 0 
 0 
LINE
 10 
 306.7 
 20 
 410.4 
 30 
 0 
 11 
 305.918383789063 
 21 
 411.973583984375 
 31 
 0 
 0 
LINE
 10 
 305.918383789063 
 20 
 411.973583984375 
 30 
 0 
 11 
 305.271215820313 
 21 
 412.908837890625 
 31 
 0 
 0 
LINE
 10 
 305.271215820313 
 20 
 412.908837890625 
 30 
 0 
 11 
 304.60478515625 
 21 
 413.28720703125 
 31 
 0 
 0 
LINE
 10 
 304.60478515625 
 20 
 413.28720703125 
 30 
 0 
 11 
 303.765600585938 
 21 
 413.1904296875 
 31 
 0 
 0 
LINE
 10 
 303.765600585938 
 20 
 413.1904296875 
 30 
 0 
 11 
 302.6 
 21 
 412.7 
 31 
 0 
 0 
LINE
 10 
 302.6 
 20 
 412.7 
 30 
 0 
 11 
 300.2 
 21 
 411.5 
 31 
 0 
 0 
LINE
 10 
 300.2 
 20 
 411.5 
 30 
 0 
 11 
 302.1 
 21 
 407.8 
 31 
 0 
 0 
LINE
 10 
 302.1 
 20 
 407.8 
 30 
 0 
 11 
 302.681616210938 
 21 
 406.623974609375 
 31 
 0 
 0 
LINE
 10 
 302.681616210938 
 20 
 406.623974609375 
 30 
 0 
 11 
 303.200805664063 
 21 
 405.544018554688 
 31 
 0 
 0 
LINE
 10 
 303.200805664063 
 20 
 405.544018554688 
 30 
 0 
 11 
 303.619213867188 
 21 
 404.632006835938 
 31 
 0 
 0 
LINE
 10 
 303.619213867188 
 20 
 404.632006835938 
 30 
 0 
 11 
 303.898413085938 
 21 
 403.960009765625 
 31 
 0 
 0 
LINE
 10 
 303.898413085938 
 20 
 403.960009765625 
 30 
 0 
 11 
 304 
 21 
 403.6 
 31 
 0 
 0 
LINE
 10 
 304 
 20 
 403.6 
 30 
 0 
 11 
 303.658374023438 
 21 
 403.227197265625 
 31 
 0 
 0 
LINE
 10 
 303.658374023438 
 20 
 403.227197265625 
 30 
 0 
 11 
 302.707202148438 
 21 
 402.513623046875 
 31 
 0 
 0 
LINE
 10 
 302.707202148438 
 20 
 402.513623046875 
 30 
 0 
 11 
 301.256787109375 
 21 
 401.526391601563 
 31 
 0 
 0 
LINE
 10 
 301.256787109375 
 20 
 401.526391601563 
 30 
 0 
 11 
 299.417602539063 
 21 
 400.3328125 
 31 
 0 
 0 
LINE
 10 
 299.417602539063 
 20 
 400.3328125 
 30 
 0 
 11 
 297.3 
 21 
 399 
 31 
 0 
 0 
LINE
 10 
 297.3 
 20 
 399 
 30 
 0 
 11 
 294.849584960938 
 21 
 397.534375 
 31 
 0 
 0 
LINE
 10 
 294.849584960938 
 20 
 397.534375 
 30 
 0 
 11 
 292.192797851563 
 21 
 395.867211914063 
 31 
 0 
 0 
LINE
 10 
 292.192797851563 
 20 
 395.867211914063 
 30 
 0 
 11 
 289.531201171875 
 21 
 394.1328125 
 31 
 0 
 0 
LINE
 10 
 289.531201171875 
 20 
 394.1328125 
 30 
 0 
 11 
 287.06640625 
 21 
 392.465600585938 
 31 
 0 
 0 
LINE
 10 
 287.06640625 
 20 
 392.465600585938 
 30 
 0 
 11 
 285 
 21 
 391 
 31 
 0 
 0 
LINE
 10 
 285 
 20 
 391 
 30 
 0 
 11 
 279.5 
 21 
 387.1 
 31 
 0 
 0 
LINE
 10 
 279.5 
 20 
 387.1 
 30 
 0 
 11 
 279.2 
 21 
 391.1 
 31 
 0 
 0 
LINE
 10 
 279.2 
 20 
 391.1 
 30 
 0 
 11 
 278.99921875 
 21 
 392.69599609375 
 31 
 0 
 0 
LINE
 10 
 278.99921875 
 20 
 392.69599609375 
 30 
 0 
 11 
 278.721606445313 
 21 
 393.81201171875 
 31 
 0 
 0 
LINE
 10 
 278.721606445313 
 20 
 393.81201171875 
 30 
 0 
 11 
 278.314404296875 
 21 
 394.52001953125 
 31 
 0 
 0 
LINE
 10 
 278.314404296875 
 20 
 394.52001953125 
 30 
 0 
 11 
 277.7248046875 
 21 
 394.892016601563 
 31 
 0 
 0 
LINE
 10 
 277.7248046875 
 20 
 394.892016601563 
 30 
 0 
 11 
 276.9 
 21 
 395 
 31 
 0 
 0 
LINE
 10 
 276.9 
 20 
 395 
 30 
 0 
 11 
 276.126391601563 
 21 
 394.9080078125 
 31 
 0 
 0 
LINE
 10 
 276.126391601563 
 20 
 394.9080078125 
 30 
 0 
 11 
 275.583203125 
 21 
 394.6 
 31 
 0 
 0 
LINE
 10 
 275.583203125 
 20 
 394.6 
 30 
 0 
 11 
 275.236791992188 
 21 
 394.028002929688 
 31 
 0 
 0 
LINE
 10 
 275.236791992188 
 20 
 394.028002929688 
 30 
 0 
 11 
 275.05361328125 
 21 
 393.144018554688 
 31 
 0 
 0 
LINE
 10 
 275.05361328125 
 20 
 393.144018554688 
 30 
 0 
 11 
 275 
 21 
 391.9 
 31 
 0 
 0 
LINE
 10 
 275 
 20 
 391.9 
 30 
 0 
 11 
 274.953588867188 
 21 
 390.556787109375 
 31 
 0 
 0 
LINE
 10 
 274.953588867188 
 20 
 390.556787109375 
 30 
 0 
 11 
 274.772802734375 
 21 
 389.722387695313 
 31 
 0 
 0 
LINE
 10 
 274.772802734375 
 20 
 389.722387695313 
 30 
 0 
 11 
 274.395190429688 
 21 
 389.329614257813 
 31 
 0 
 0 
LINE
 10 
 274.395190429688 
 20 
 389.329614257813 
 30 
 0 
 11 
 273.7583984375 
 21 
 389.311206054688 
 31 
 0 
 0 
LINE
 10 
 273.7583984375 
 20 
 389.311206054688 
 30 
 0 
 11 
 272.8 
 21 
 389.6 
 31 
 0 
 0 
LINE
 10 
 272.8 
 20 
 389.6 
 30 
 0 
 11 
 272.039990234375 
 21 
 389.799975585938 
 31 
 0 
 0 
LINE
 10 
 272.039990234375 
 20 
 389.799975585938 
 30 
 0 
 11 
 271.352001953125 
 21 
 390.0240234375 
 31 
 0 
 0 
LINE
 10 
 271.352001953125 
 20 
 390.0240234375 
 30 
 0 
 11 
 270.784008789063 
 21 
 390.247998046875 
 31 
 0 
 0 
LINE
 10 
 270.784008789063 
 20 
 390.247998046875 
 30 
 0 
 11 
 270.384008789063 
 21 
 390.447998046875 
 31 
 0 
 0 
LINE
 10 
 270.384008789063 
 20 
 390.447998046875 
 30 
 0 
 11 
 270.2 
 21 
 390.6 
 31 
 0 
 0 
LINE
 10 
 270.2 
 20 
 390.6 
 30 
 0 
 11 
 270.115966796875 
 21 
 391.102392578125 
 31 
 0 
 0 
LINE
 10 
 270.115966796875 
 20 
 391.102392578125 
 30 
 0 
 11 
 270.10400390625 
 21 
 392.38720703125 
 31 
 0 
 0 
LINE
 10 
 270.10400390625 
 20 
 392.38720703125 
 30 
 0 
 11 
 270.163989257813 
 21 
 394.300805664063 
 31 
 0 
 0 
LINE
 10 
 270.163989257813 
 20 
 394.300805664063 
 30 
 0 
 11 
 270.29599609375 
 21 
 396.689599609375 
 31 
 0 
 0 
LINE
 10 
 270.29599609375 
 20 
 396.689599609375 
 30 
 0 
 11 
 270.5 
 21 
 399.4 
 31 
 0 
 0 
LINE
 10 
 270.5 
 20 
 399.4 
 30 
 0 
 11 
 270.84716796875 
 21 
 403.174365234375 
 31 
 0 
 0 
LINE
 10 
 270.84716796875 
 20 
 403.174365234375 
 30 
 0 
 11 
 271.213598632813 
 21 
 405.667211914063 
 31 
 0 
 0 
LINE
 10 
 271.213598632813 
 20 
 405.667211914063 
 30 
 0 
 11 
 271.66640625 
 21 
 407.132788085938 
 31 
 0 
 0 
LINE
 10 
 271.66640625 
 20 
 407.132788085938 
 30 
 0 
 11 
 272.272802734375 
 21 
 407.825610351563 
 31 
 0 
 0 
LINE
 10 
 272.272802734375 
 20 
 407.825610351563 
 30 
 0 
 11 
 273.1 
 21 
 408 
 31 
 0 
 0 
LINE
 10 
 273.1 
 20 
 408 
 30 
 0 
 11 
 273.873583984375 
 21 
 407.8912109375 
 31 
 0 
 0 
LINE
 10 
 273.873583984375 
 20 
 407.8912109375 
 30 
 0 
 11 
 274.416796875 
 21 
 407.513623046875 
 31 
 0 
 0 
LINE
 10 
 274.416796875 
 20 
 407.513623046875 
 30 
 0 
 11 
 274.763208007813 
 21 
 406.790405273438 
 31 
 0 
 0 
LINE
 10 
 274.763208007813 
 20 
 406.790405273438 
 30 
 0 
 11 
 274.946411132813 
 21 
 405.644799804688 
 31 
 0 
 0 
LINE
 10 
 274.946411132813 
 20 
 405.644799804688 
 30 
 0 
 11 
 275 
 21 
 404 
 31 
 0 
 0 
LINE
 10 
 275 
 20 
 404 
 30 
 0 
 11 
 275.048803710938 
 21 
 402.201586914063 
 31 
 0 
 0 
LINE
 10 
 275.048803710938 
 20 
 402.201586914063 
 30 
 0 
 11 
 275.246411132813 
 21 
 401.036791992188 
 31 
 0 
 0 
LINE
 10 
 275.246411132813 
 20 
 401.036791992188 
 30 
 0 
 11 
 275.669604492188 
 21 
 400.37119140625 
 31 
 0 
 0 
LINE
 10 
 275.669604492188 
 20 
 400.37119140625 
 30 
 0 
 11 
 276.39521484375 
 21 
 400.07041015625 
 31 
 0 
 0 
LINE
 10 
 276.39521484375 
 20 
 400.07041015625 
 30 
 0 
 11 
 277.5 
 21 
 400 
 31 
 0 
 0 
LINE
 10 
 277.5 
 20 
 400 
 30 
 0 
 11 
 278.60478515625 
 21 
 400.06640625 
 31 
 0 
 0 
LINE
 10 
 278.60478515625 
 20 
 400.06640625 
 30 
 0 
 11 
 279.330395507813 
 21 
 400.339208984375 
 31 
 0 
 0 
LINE
 10 
 279.330395507813 
 20 
 400.339208984375 
 30 
 0 
 11 
 279.753588867188 
 21 
 400.92880859375 
 31 
 0 
 0 
LINE
 10 
 279.753588867188 
 20 
 400.92880859375 
 30 
 0 
 11 
 279.951196289063 
 21 
 401.94560546875 
 31 
 0 
 0 
LINE
 10 
 279.951196289063 
 20 
 401.94560546875 
 30 
 0 
 11 
 280 
 21 
 403.5 
 31 
 0 
 0 
LINE
 10 
 280 
 20 
 403.5 
 30 
 0 
 11 
 280.119995117188 
 21 
 405.07197265625 
 31 
 0 
 0 
LINE
 10 
 280.119995117188 
 20 
 405.07197265625 
 30 
 0 
 11 
 280.528002929688 
 21 
 406.523999023438 
 31 
 0 
 0 
LINE
 10 
 280.528002929688 
 20 
 406.523999023438 
 30 
 0 
 11 
 281.29599609375 
 21 
 408 
 31 
 0 
 0 
LINE
 10 
 281.29599609375 
 20 
 408 
 30 
 0 
 11 
 282.49599609375 
 21 
 409.643994140625 
 31 
 0 
 0 
LINE
 10 
 282.49599609375 
 20 
 409.643994140625 
 30 
 0 
 11 
 284.2 
 21 
 411.6 
 31 
 0 
 0 
LINE
 10 
 284.2 
 20 
 411.6 
 30 
 0 
 11 
 285.67119140625 
 21 
 413.12158203125 
 31 
 0 
 0 
LINE
 10 
 285.67119140625 
 20 
 413.12158203125 
 30 
 0 
 11 
 287.13759765625 
 21 
 414.5087890625 
 31 
 0 
 0 
LINE
 10 
 287.13759765625 
 20 
 414.5087890625 
 30 
 0 
 11 
 288.498388671875 
 21 
 415.6751953125 
 31 
 0 
 0 
LINE
 10 
 288.498388671875 
 20 
 415.6751953125 
 30 
 0 
 11 
 289.652807617188 
 21 
 416.534423828125 
 31 
 0 
 0 
LINE
 10 
 289.652807617188 
 20 
 416.534423828125 
 30 
 0 
 11 
 290.5 
 21 
 417 
 31 
 0 
 0 
LINE
 10 
 290.5 
 20 
 417 
 30 
 0 
 11 
 291.342407226563 
 21 
 417.3759765625 
 31 
 0 
 0 
LINE
 10 
 291.342407226563 
 20 
 417.3759765625 
 30 
 0 
 11 
 291.671215820313 
 21 
 417.72802734375 
 31 
 0 
 0 
LINE
 10 
 291.671215820313 
 20 
 417.72802734375 
 30 
 0 
 11 
 291.428784179688 
 21 
 418.152001953125 
 31 
 0 
 0 
LINE
 10 
 291.428784179688 
 20 
 418.152001953125 
 30 
 0 
 11 
 290.5576171875 
 21 
 418.743994140625 
 31 
 0 
 0 
LINE
 10 
 290.5576171875 
 20 
 418.743994140625 
 30 
 0 
 11 
 289 
 21 
 419.6 
 31 
 0 
 0 
LINE
 10 
 289 
 20 
 419.6 
 30 
 0 
 11 
 287.723193359375 
 21 
 420.41279296875 
 31 
 0 
 0 
LINE
 10 
 287.723193359375 
 20 
 420.41279296875 
 30 
 0 
 11 
 286.249609375 
 21 
 421.47041015625 
 31 
 0 
 0 
LINE
 10 
 286.249609375 
 20 
 421.47041015625 
 30 
 0 
 11 
 284.694384765625 
 21 
 422.681591796875 
 31 
 0 
 0 
LINE
 10 
 284.694384765625 
 20 
 422.681591796875 
 30 
 0 
 11 
 283.172802734375 
 21 
 423.955224609375 
 31 
 0 
 0 
LINE
 10 
 283.172802734375 
 20 
 423.955224609375 
 30 
 0 
 11 
 281.8 
 21 
 425.2 
 31 
 0 
 0 
LINE
 10 
 281.8 
 20 
 425.2 
 30 
 0 
 11 
 280.181591796875 
 21 
 426.9423828125 
 31 
 0 
 0 
LINE
 10 
 280.181591796875 
 20 
 426.9423828125 
 30 
 0 
 11 
 279.076806640625 
 21 
 428.531201171875 
 31 
 0 
 0 
LINE
 10 
 279.076806640625 
 20 
 428.531201171875 
 30 
 0 
 11 
 278.351220703125 
 21 
 430.268798828125 
 31 
 0 
 0 
LINE
 10 
 278.351220703125 
 20 
 430.268798828125 
 30 
 0 
 11 
 277.87041015625 
 21 
 432.4576171875 
 31 
 0 
 0 
LINE
 10 
 277.87041015625 
 20 
 432.4576171875 
 30 
 0 
 11 
 277.5 
 21 
 435.4 
 31 
 0 
 0 
LINE
 10 
 277.5 
 20 
 435.4 
 30 
 0 
 11 
 277.29599609375 
 21 
 437.477587890625 
 31 
 0 
 0 
LINE
 10 
 277.29599609375 
 20 
 437.477587890625 
 30 
 0 
 11 
 277.164013671875 
 21 
 439.42080078125 
 31 
 0 
 0 
LINE
 10 
 277.164013671875 
 20 
 439.42080078125 
 30 
 0 
 11 
 277.10400390625 
 21 
 441.09521484375 
 31 
 0 
 0 
LINE
 10 
 277.10400390625 
 20 
 441.09521484375 
 30 
 0 
 11 
 277.116015625 
 21 
 442.36640625 
 31 
 0 
 0 
LINE
 10 
 277.116015625 
 20 
 442.36640625 
 30 
 0 
 11 
 277.2 
 21 
 443.1 
 31 
 0 
 0 
LINE
 10 
 277.2 
 20 
 443.1 
 30 
 0 
 11 
 278.910400390625 
 21 
 441.97197265625 
 31 
 0 
 0 
LINE
 10 
 278.910400390625 
 20 
 441.97197265625 
 30 
 0 
 11 
 282.699194335938 
 21 
 437.82001953125 
 31 
 0 
 0 
LINE
 10 
 282.699194335938 
 20 
 437.82001953125 
 30 
 0 
 11 
 287.452807617188 
 21 
 432.01201171875 
 31 
 0 
 0 
LINE
 10 
 287.452807617188 
 20 
 432.01201171875 
 30 
 0 
 11 
 292.057592773438 
 21 
 425.916015625 
 31 
 0 
 0 
LINE
 10 
 292.057592773438 
 20 
 425.916015625 
 30 
 0 
 11 
 295.4 
 21 
 420.9 
 31 
 0 
 0 
LINE
 10 
 295.4 
 20 
 420.9 
 30 
 0 
 11 
 296.5416015625 
 21 
 419.00400390625 
 31 
 0 
 0 
LINE
 10 
 296.5416015625 
 20 
 419.00400390625 
 30 
 0 
 11 
 297.500805664063 
 21 
 417.7080078125 
 31 
 0 
 0 
LINE
 10 
 297.500805664063 
 20 
 417.7080078125 
 30 
 0 
 11 
 298.359204101563 
 21 
 416.939990234375 
 31 
 0 
 0 
LINE
 10 
 298.359204101563 
 20 
 416.939990234375 
 30 
 0 
 11 
 299.198388671875 
 21 
 416.62802734375 
 31 
 0 
 0 
LINE
 10 
 299.198388671875 
 20 
 416.62802734375 
 30 
 0 
 11 
 300.1 
 21 
 416.7 
 31 
 0 
 0 
LINE
 10 
 300.1 
 20 
 416.7 
 30 
 0 
 11 
 300.70478515625 
 21 
 416.91201171875 
 31 
 0 
 0 
LINE
 10 
 300.70478515625 
 20 
 416.91201171875 
 30 
 0 
 11 
 301.290405273438 
 21 
 417.17197265625 
 31 
 0 
 0 
LINE
 10 
 301.290405273438 
 20 
 417.17197265625 
 30 
 0 
 11 
 301.813623046875 
 21 
 417.456005859375 
 31 
 0 
 0 
LINE
 10 
 301.813623046875 
 20 
 417.456005859375 
 30 
 0 
 11 
 302.231201171875 
 21 
 417.739990234375 
 31 
 0 
 0 
LINE
 10 
 302.231201171875 
 20 
 417.739990234375 
 30 
 0 
 11 
 302.5 
 21 
 418 
 31 
 0 
 0 
LINE
 10 
 302.5 
 20 
 418 
 30 
 0 
 11 
 300.977587890625 
 21 
 421.49921875 
 31 
 0 
 0 
LINE
 10 
 300.977587890625 
 20 
 421.49921875 
 30 
 0 
 11 
 296.296801757813 
 21 
 428.281591796875 
 31 
 0 
 0 
LINE
 10 
 296.296801757813 
 20 
 428.281591796875 
 30 
 0 
 11 
 290.2671875 
 21 
 436.014404296875 
 31 
 0 
 0 
LINE
 10 
 290.2671875 
 20 
 436.014404296875 
 30 
 0 
 11 
 284.698413085938 
 21 
 442.364794921875 
 31 
 0 
 0 
LINE
 10 
 284.698413085938 
 20 
 442.364794921875 
 30 
 0 
 11 
 281.4 
 21 
 445 
 31 
 0 
 0 
LINE
 10 
 281.4 
 20 
 445 
 30 
 0 
 11 
 280.68720703125 
 21 
 445.123193359375 
 31 
 0 
 0 
LINE
 10 
 280.68720703125 
 20 
 445.123193359375 
 30 
 0 
 11 
 280.209594726563 
 21 
 445.55361328125 
 31 
 0 
 0 
LINE
 10 
 280.209594726563 
 20 
 445.55361328125 
 30 
 0 
 11 
 279.938403320313 
 21 
 446.382421875 
 31 
 0 
 0 
LINE
 10 
 279.938403320313 
 20 
 446.382421875 
 30 
 0 
 11 
 279.844799804688 
 21 
 447.70078125 
 31 
 0 
 0 
LINE
 10 
 279.844799804688 
 20 
 447.70078125 
 30 
 0 
 11 
 279.9 
 21 
 449.6 
 31 
 0 
 0 
LINE
 10 
 279.9 
 20 
 449.6 
 30 
 0 
 11 
 279.87919921875 
 21 
 450.3087890625 
 31 
 0 
 0 
LINE
 10 
 279.87919921875 
 20 
 450.3087890625 
 30 
 0 
 11 
 279.709594726563 
 21 
 451.07041015625 
 31 
 0 
 0 
LINE
 10 
 279.709594726563 
 20 
 451.07041015625 
 30 
 0 
 11 
 279.410400390625 
 21 
 451.817626953125 
 31 
 0 
 0 
LINE
 10 
 279.410400390625 
 20 
 451.817626953125 
 30 
 0 
 11 
 279.000805664063 
 21 
 452.483203125 
 31 
 0 
 0 
LINE
 10 
 279.000805664063 
 20 
 452.483203125 
 30 
 0 
 11 
 278.5 
 21 
 453 
 31 
 0 
 0 
LINE
 10 
 278.5 
 20 
 453 
 30 
 0 
 11 
 276.857568359375 
 21 
 454.902392578125 
 31 
 0 
 0 
LINE
 10 
 276.857568359375 
 20 
 454.902392578125 
 30 
 0 
 11 
 275.536791992188 
 21 
 457.58720703125 
 31 
 0 
 0 
LINE
 10 
 275.536791992188 
 20 
 457.58720703125 
 30 
 0 
 11 
 274.547192382813 
 21 
 461.02080078125 
 31 
 0 
 0 
LINE
 10 
 274.547192382813 
 20 
 461.02080078125 
 30 
 0 
 11 
 273.898413085938 
 21 
 465.169580078125 
 31 
 0 
 0 
LINE
 10 
 273.898413085938 
 20 
 465.169580078125 
 30 
 0 
 11 
 273.6 
 21 
 470 
 31 
 0 
 0 
LINE
 10 
 273.6 
 20 
 470 
 30 
 0 
 11 
 273.411206054688 
 21 
 473.584033203125 
 31 
 0 
 0 
LINE
 10 
 273.411206054688 
 20 
 473.584033203125 
 30 
 0 
 11 
 273.169604492188 
 21 
 476.064013671875 
 31 
 0 
 0 
LINE
 10 
 273.169604492188 
 20 
 476.064013671875 
 30 
 0 
 11 
 272.822387695313 
 21 
 477.63203125 
 31 
 0 
 0 
LINE
 10 
 272.822387695313 
 20 
 477.63203125 
 30 
 0 
 11 
 272.316821289063 
 21 
 478.480029296875 
 31 
 0 
 0 
LINE
 10 
 272.316821289063 
 20 
 478.480029296875 
 30 
 0 
 11 
 271.6 
 21 
 478.8 
 31 
 0 
 0 
LINE
 10 
 271.6 
 20 
 478.8 
 30 
 0 
 11 
 270.934399414063 
 21 
 479.1263671875 
 31 
 0 
 0 
LINE
 10 
 270.934399414063 
 20 
 479.1263671875 
 30 
 0 
 11 
 270.4751953125 
 21 
 479.851220703125 
 31 
 0 
 0 
LINE
 10 
 270.4751953125 
 20 
 479.851220703125 
 30 
 0 
 11 
 270.188793945313 
 21 
 481.1328125 
 31 
 0 
 0 
LINE
 10 
 270.188793945313 
 20 
 481.1328125 
 30 
 0 
 11 
 270.0416015625 
 21 
 483.129638671875 
 31 
 0 
 0 
LINE
 10 
 270.0416015625 
 20 
 483.129638671875 
 30 
 0 
 11 
 270 
 21 
 486 
 31 
 0 
 0 
LINE
 10 
 270 
 20 
 486 
 30 
 0 
 11 
 270.048803710938 
 21 
 488.458349609375 
 31 
 0 
 0 
LINE
 10 
 270.048803710938 
 20 
 488.458349609375 
 30 
 0 
 11 
 270.198413085938 
 21 
 490.427197265625 
 31 
 0 
 0 
LINE
 10 
 270.198413085938 
 20 
 490.427197265625 
 30 
 0 
 11 
 270.45361328125 
 21 
 491.896826171875 
 31 
 0 
 0 
LINE
 10 
 270.45361328125 
 20 
 491.896826171875 
 30 
 0 
 11 
 270.819213867188 
 21 
 492.8576171875 
 31 
 0 
 0 
LINE
 10 
 270.819213867188 
 20 
 492.8576171875 
 30 
 0 
 11 
 271.3 
 21 
 493.3 
 31 
 0 
 0 
LINE
 10 
 271.3 
 20 
 493.3 
 30 
 0 
 11 
 271.732006835938 
 21 
 493.5416015625 
 31 
 0 
 0 
LINE
 10 
 271.732006835938 
 20 
 493.5416015625 
 30 
 0 
 11 
 271.948022460938 
 21 
 493.792822265625 
 31 
 0 
 0 
LINE
 10 
 271.948022460938 
 20 
 493.792822265625 
 30 
 0 
 11 
 271.947998046875 
 21 
 494.06318359375 
 31 
 0 
 0 
LINE
 10 
 271.947998046875 
 20 
 494.06318359375 
 30 
 0 
 11 
 271.732006835938 
 21 
 494.36240234375 
 31 
 0 
 0 
LINE
 10 
 271.732006835938 
 20 
 494.36240234375 
 30 
 0 
 11 
 271.3 
 21 
 494.7 
 31 
 0 
 0 
LINE
 10 
 271.3 
 20 
 494.7 
 30 
 0 
 11 
 270.932788085938 
 21 
 495.083984375 
 31 
 0 
 0 
LINE
 10 
 270.932788085938 
 20 
 495.083984375 
 30 
 0 
 11 
 270.57041015625 
 21 
 495.7080078125 
 31 
 0 
 0 
LINE
 10 
 270.57041015625 
 20 
 495.7080078125 
 30 
 0 
 11 
 270.2416015625 
 21 
 496.5 
 31 
 0 
 0 
LINE
 10 
 270.2416015625 
 20 
 496.5 
 30 
 0 
 11 
 269.9751953125 
 21 
 497.38798828125 
 31 
 0 
 0 
LINE
 10 
 269.9751953125 
 20 
 497.38798828125 
 30 
 0 
 11 
 269.8 
 21 
 498.3 
 31 
 0 
 0 
LINE
 10 
 269.8 
 20 
 498.3 
 30 
 0 
 11 
 269.695971679688 
 21 
 499.171240234375 
 31 
 0 
 0 
LINE
 10 
 269.695971679688 
 20 
 499.171240234375 
 30 
 0 
 11 
 269.52001953125 
 21 
 499.84560546875 
 31 
 0 
 0 
LINE
 10 
 269.52001953125 
 20 
 499.84560546875 
 30 
 0 
 11 
 269.296020507813 
 21 
 500.29443359375 
 31 
 0 
 0 
LINE
 10 
 269.296020507813 
 20 
 500.29443359375 
 30 
 0 
 11 
 269.047998046875 
 21 
 500.488818359375 
 31 
 0 
 0 
LINE
 10 
 269.047998046875 
 20 
 500.488818359375 
 30 
 0 
 11 
 268.8 
 21 
 500.4 
 31 
 0 
 0 
LINE
 10 
 164.5 
 20 
 483 
 30 
 0 
 11 
 163.676794433594 
 21 
 482.71435546875 
 31 
 0 
 0 
LINE
 10 
 163.676794433594 
 20 
 482.71435546875 
 30 
 0 
 11 
 162.594396972656 
 21 
 482.4671875 
 31 
 0 
 0 
LINE
 10 
 162.594396972656 
 20 
 482.4671875 
 30 
 0 
 11 
 161.353601074219 
 21 
 482.272802734375 
 31 
 0 
 0 
LINE
 10 
 161.353601074219 
 20 
 482.272802734375 
 30 
 0 
 11 
 160.055200195313 
 21 
 482.14560546875 
 31 
 0 
 0 
LINE
 10 
 160.055200195313 
 20 
 482.14560546875 
 30 
 0 
 11 
 158.8 
 21 
 482.1 
 31 
 0 
 0 
LINE
 10 
 158.8 
 20 
 482.1 
 30 
 0 
 11 
 153.822399902344 
 21 
 481.068017578125 
 31 
 0 
 0 
LINE
 10 
 153.822399902344 
 20 
 481.068017578125 
 30 
 0 
 11 
 145.955212402344 
 21 
 478.572021484375 
 31 
 0 
 0 
LINE
 10 
 145.955212402344 
 20 
 478.572021484375 
 30 
 0 
 11 
 137.156799316406 
 21 
 475.331982421875 
 31 
 0 
 0 
LINE
 10 
 137.156799316406 
 20 
 475.331982421875 
 30 
 0 
 11 
 129.385607910156 
 21 
 472.068017578125 
 31 
 0 
 0 
LINE
 10 
 129.385607910156 
 20 
 472.068017578125 
 30 
 0 
 11 
 124.6 
 21 
 469.5 
 31 
 0 
 0 
LINE
 10 
 124.6 
 20 
 469.5 
 30 
 0 
 11 
 123.743200683594 
 21 
 468.59833984375 
 31 
 0 
 0 
LINE
 10 
 123.743200683594 
 20 
 468.59833984375 
 30 
 0 
 11 
 123.43359375 
 21 
 467.663232421875 
 31 
 0 
 0 
LINE
 10 
 123.43359375 
 20 
 467.663232421875 
 30 
 0 
 11 
 123.642407226563 
 21 
 466.82880859375 
 31 
 0 
 0 
LINE
 10 
 123.642407226563 
 20 
 466.82880859375 
 30 
 0 
 11 
 124.340795898438 
 21 
 466.22958984375 
 31 
 0 
 0 
LINE
 10 
 124.340795898438 
 20 
 466.22958984375 
 30 
 0 
 11 
 125.5 
 21 
 466 
 31 
 0 
 0 
LINE
 10 
 125.5 
 20 
 466 
 30 
 0 
 11 
 126.27919921875 
 21 
 466.1591796875 
 31 
 0 
 0 
LINE
 10 
 126.27919921875 
 20 
 466.1591796875 
 30 
 0 
 11 
 127.677600097656 
 21 
 466.601611328125 
 31 
 0 
 0 
LINE
 10 
 127.677600097656 
 20 
 466.601611328125 
 30 
 0 
 11 
 129.546398925781 
 21 
 467.2744140625 
 31 
 0 
 0 
LINE
 10 
 129.546398925781 
 20 
 467.2744140625 
 30 
 0 
 11 
 131.736804199219 
 21 
 468.1248046875 
 31 
 0 
 0 
LINE
 10 
 131.736804199219 
 20 
 468.1248046875 
 30 
 0 
 11 
 134.1 
 21 
 469.1 
 31 
 0 
 0 
LINE
 10 
 134.1 
 20 
 469.1 
 30 
 0 
 11 
 144.669604492188 
 21 
 473.31357421875 
 31 
 0 
 0 
LINE
 10 
 144.669604492188 
 20 
 473.31357421875 
 30 
 0 
 11 
 153.160803222656 
 21 
 476.000830078125 
 31 
 0 
 0 
LINE
 10 
 153.160803222656 
 20 
 476.000830078125 
 30 
 0 
 11 
 161.647192382813 
 21 
 477.531201171875 
 31 
 0 
 0 
LINE
 10 
 161.647192382813 
 20 
 477.531201171875 
 30 
 0 
 11 
 172.202404785156 
 21 
 478.2744140625 
 31 
 0 
 0 
LINE
 10 
 172.202404785156 
 20 
 478.2744140625 
 30 
 0 
 11 
 186.9 
 21 
 478.6 
 31 
 0 
 0 
LINE
 10 
 186.9 
 20 
 478.6 
 30 
 0 
 11 
 196.667993164063 
 21 
 478.788818359375 
 31 
 0 
 0 
LINE
 10 
 196.667993164063 
 20 
 478.788818359375 
 30 
 0 
 11 
 203.244006347656 
 21 
 479.030419921875 
 31 
 0 
 0 
LINE
 10 
 203.244006347656 
 20 
 479.030419921875 
 30 
 0 
 11 
 207.276000976563 
 21 
 479.377587890625 
 31 
 0 
 0 
LINE
 10 
 207.276000976563 
 20 
 479.377587890625 
 30 
 0 
 11 
 209.41201171875 
 21 
 479.883203125 
 31 
 0 
 0 
LINE
 10 
 209.41201171875 
 20 
 479.883203125 
 30 
 0 
 11 
 210.3 
 21 
 480.6 
 31 
 0 
 0 
LINE
 10 
 210.3 
 20 
 480.6 
 30 
 0 
 11 
 210.551220703125 
 21 
 481.1072265625 
 31 
 0 
 0 
LINE
 10 
 210.551220703125 
 20 
 481.1072265625 
 30 
 0 
 11 
 210.701611328125 
 21 
 481.63359375 
 31 
 0 
 0 
LINE
 10 
 210.701611328125 
 20 
 481.63359375 
 30 
 0 
 11 
 210.746411132813 
 21 
 482.126416015625 
 31 
 0 
 0 
LINE
 10 
 210.746411132813 
 20 
 482.126416015625 
 30 
 0 
 11 
 210.680810546875 
 21 
 482.5328125 
 31 
 0 
 0 
LINE
 10 
 210.680810546875 
 20 
 482.5328125 
 30 
 0 
 11 
 210.5 
 21 
 482.8 
 31 
 0 
 0 
LINE
 10 
 210.5 
 20 
 482.8 
 30 
 0 
 11 
 205.552783203125 
 21 
 483.339208984375 
 31 
 0 
 0 
LINE
 10 
 205.552783203125 
 20 
 483.339208984375 
 30 
 0 
 11 
 194.538403320313 
 21 
 483.63359375 
 31 
 0 
 0 
LINE
 10 
 194.538403320313 
 20 
 483.63359375 
 30 
 0 
 11 
 181.397607421875 
 21 
 483.67841796875 
 31 
 0 
 0 
LINE
 10 
 181.397607421875 
 20 
 483.67841796875 
 30 
 0 
 11 
 170.071203613281 
 21 
 483.468798828125 
 31 
 0 
 0 
LINE
 10 
 170.071203613281 
 20 
 483.468798828125 
 30 
 0 
 11 
 164.5 
 21 
 483 
 31 
 0 
 0 
LINE
 10 
 111.9 
 20 
 460.7 
 30 
 0 
 11 
 108.631188964844 
 21 
 458.13037109375 
 31 
 0 
 0 
LINE
 10 
 108.631188964844 
 20 
 458.13037109375 
 30 
 0 
 11 
 104.829602050781 
 21 
 454.87919921875 
 31 
 0 
 0 
LINE
 10 
 104.829602050781 
 20 
 454.87919921875 
 30 
 0 
 11 
 100.322399902344 
 21 
 450.792822265625 
 31 
 0 
 0 
LINE
 10 
 100.322399902344 
 20 
 450.792822265625 
 30 
 0 
 11 
 94.9367980957031 
 21 
 445.717626953125 
 31 
 0 
 0 
LINE
 10 
 94.9367980957031 
 20 
 445.717626953125 
 30 
 0 
 11 
 88.5 
 21 
 439.5 
 31 
 0 
 0 
LINE
 10 
 88.5 
 20 
 439.5 
 30 
 0 
 11 
 84.63759765625 
 21 
 435.352734375 
 31 
 0 
 0 
LINE
 10 
 84.63759765625 
 20 
 435.352734375 
 30 
 0 
 11 
 80.6408020019531 
 21 
 430.322412109375 
 31 
 0 
 0 
LINE
 10 
 80.6408020019531 
 20 
 430.322412109375 
 30 
 0 
 11 
 76.7351989746094 
 21 
 424.7255859375 
 31 
 0 
 0 
LINE
 10 
 76.7351989746094 
 20 
 424.7255859375 
 30 
 0 
 11 
 73.1463989257813 
 21 
 418.87919921875 
 31 
 0 
 0 
LINE
 10 
 73.1463989257813 
 20 
 418.87919921875 
 30 
 0 
 11 
 70.1 
 21 
 413.1 
 31 
 0 
 0 
LINE
 10 
 70.1 
 20 
 413.1 
 30 
 0 
 11 
 68.1992004394531 
 21 
 409.091967773438 
 31 
 0 
 0 
LINE
 10 
 68.1992004394531 
 20 
 409.091967773438 
 30 
 0 
 11 
 67.1096008300781 
 21 
 406.452001953125 
 31 
 0 
 0 
LINE
 10 
 67.1096008300781 
 20 
 406.452001953125 
 30 
 0 
 11 
 66.7304016113281 
 21 
 404.676000976563 
 31 
 0 
 0 
LINE
 10 
 66.7304016113281 
 20 
 404.676000976563 
 30 
 0 
 11 
 66.9608032226563 
 21 
 403.260009765625 
 31 
 0 
 0 
LINE
 10 
 66.9608032226563 
 20 
 403.260009765625 
 30 
 0 
 11 
 67.7 
 21 
 401.7 
 31 
 0 
 0 
LINE
 10 
 67.7 
 20 
 401.7 
 30 
 0 
 11 
 69.3 
 21 
 398.6 
 31 
 0 
 0 
LINE
 10 
 69.3 
 20 
 398.6 
 30 
 0 
 11 
 74.6 
 21 
 409.8 
 31 
 0 
 0 
LINE
 10 
 74.6 
 20 
 409.8 
 30 
 0 
 11 
 78.0239990234375 
 21 
 416.53359375 
 31 
 0 
 0 
LINE
 10 
 78.0239990234375 
 20 
 416.53359375 
 30 
 0 
 11 
 81.9280029296875 
 21 
 423.22880859375 
 31 
 0 
 0 
LINE
 10 
 81.9280029296875 
 20 
 423.22880859375 
 30 
 0 
 11 
 86.1200012207031 
 21 
 429.607177734375 
 31 
 0 
 0 
LINE
 10 
 86.1200012207031 
 20 
 429.607177734375 
 30 
 0 
 11 
 90.4080017089844 
 21 
 435.390380859375 
 31 
 0 
 0 
LINE
 10 
 90.4080017089844 
 20 
 435.390380859375 
 30 
 0 
 11 
 94.6 
 21 
 440.3 
 31 
 0 
 0 
LINE
 10 
 94.6 
 20 
 440.3 
 30 
 0 
 11 
 95.7279968261719 
 21 
 441.45283203125 
 31 
 0 
 0 
LINE
 10 
 95.7279968261719 
 20 
 441.45283203125 
 30 
 0 
 11 
 96.7840026855469 
 21 
 442.46640625 
 31 
 0 
 0 
LINE
 10 
 96.7840026855469 
 20 
 442.46640625 
 30 
 0 
 11 
 97.6960021972656 
 21 
 443.2736328125 
 31 
 0 
 0 
LINE
 10 
 97.6960021972656 
 20 
 443.2736328125 
 30 
 0 
 11 
 98.3920043945313 
 21 
 443.8072265625 
 31 
 0 
 0 
LINE
 10 
 98.3920043945313 
 20 
 443.8072265625 
 30 
 0 
 11 
 98.8 
 21 
 444 
 31 
 0 
 0 
LINE
 10 
 98.8 
 20 
 444 
 30 
 0 
 11 
 99.3023986816406 
 21 
 444.23837890625 
 31 
 0 
 0 
LINE
 10 
 99.3023986816406 
 20 
 444.23837890625 
 30 
 0 
 11 
 100.155200195313 
 21 
 444.89921875 
 31 
 0 
 0 
LINE
 10 
 100.155200195313 
 20 
 444.89921875 
 30 
 0 
 11 
 101.276800537109 
 21 
 445.900830078125 
 31 
 0 
 0 
LINE
 10 
 101.276800537109 
 20 
 445.900830078125 
 30 
 0 
 11 
 102.585607910156 
 21 
 447.16162109375 
 31 
 0 
 0 
LINE
 10 
 102.585607910156 
 20 
 447.16162109375 
 30 
 0 
 11 
 104 
 21 
 448.6 
 31 
 0 
 0 
LINE
 10 
 104 
 20 
 448.6 
 30 
 0 
 11 
 105.747192382813 
 21 
 450.26640625 
 31 
 0 
 0 
LINE
 10 
 105.747192382813 
 20 
 450.26640625 
 30 
 0 
 11 
 107.873596191406 
 21 
 452.163232421875 
 31 
 0 
 0 
LINE
 10 
 107.873596191406 
 20 
 452.163232421875 
 30 
 0 
 11 
 110.206408691406 
 21 
 454.13681640625 
 31 
 0 
 0 
LINE
 10 
 110.206408691406 
 20 
 454.13681640625 
 30 
 0 
 11 
 112.572802734375 
 21 
 456.03359375 
 31 
 0 
 0 
LINE
 10 
 112.572802734375 
 20 
 456.03359375 
 30 
 0 
 11 
 114.8 
 21 
 457.7 
 31 
 0 
 0 
LINE
 10 
 114.8 
 20 
 457.7 
 30 
 0 
 11 
 117.384790039063 
 21 
 459.58076171875 
 31 
 0 
 0 
LINE
 10 
 117.384790039063 
 20 
 459.58076171875 
 30 
 0 
 11 
 119.086401367188 
 21 
 460.98642578125 
 31 
 0 
 0 
LINE
 10 
 119.086401367188 
 20 
 460.98642578125 
 30 
 0 
 11 
 120.005603027344 
 21 
 462.0416015625 
 31 
 0 
 0 
LINE
 10 
 120.005603027344 
 20 
 462.0416015625 
 30 
 0 
 11 
 120.243200683594 
 21 
 462.871240234375 
 31 
 0 
 0 
LINE
 10 
 120.243200683594 
 20 
 462.871240234375 
 30 
 0 
 11 
 119.9 
 21 
 463.6 
 31 
 0 
 0 
LINE
 10 
 119.9 
 20 
 463.6 
 30 
 0 
 11 
 119.106396484375 
 21 
 464.48876953125 
 31 
 0 
 0 
LINE
 10 
 119.106396484375 
 20 
 464.48876953125 
 30 
 0 
 11 
 118.27919921875 
 21 
 464.782421875 
 31 
 0 
 0 
LINE
 10 
 118.27919921875 
 20 
 464.782421875 
 30 
 0 
 11 
 117.048803710938 
 21 
 464.3416015625 
 31 
 0 
 0 
LINE
 10 
 117.048803710938 
 20 
 464.3416015625 
 30 
 0 
 11 
 115.04560546875 
 21 
 463.027197265625 
 31 
 0 
 0 
LINE
 10 
 115.04560546875 
 20 
 463.027197265625 
 30 
 0 
 11 
 111.9 
 21 
 460.7 
 31 
 0 
 0 
LINE
 10 
 405.6 
 20 
 411 
 30 
 0 
 11 
 406.31279296875 
 21 
 410.683203125 
 31 
 0 
 0 
LINE
 10 
 406.31279296875 
 20 
 410.683203125 
 30 
 0 
 11 
 406.982397460938 
 21 
 410.2416015625 
 31 
 0 
 0 
LINE
 10 
 406.982397460938 
 20 
 410.2416015625 
 30 
 0 
 11 
 407.565576171875 
 21 
 409.718408203125 
 31 
 0 
 0 
LINE
 10 
 407.565576171875 
 20 
 409.718408203125 
 30 
 0 
 11 
 408.019213867188 
 21 
 409.156811523438 
 31 
 0 
 0 
LINE
 10 
 408.019213867188 
 20 
 409.156811523438 
 30 
 0 
 11 
 408.3 
 21 
 408.6 
 31 
 0 
 0 
LINE
 10 
 408.3 
 20 
 408.6 
 30 
 0 
 11 
 408.618383789063 
 21 
 408.08798828125 
 31 
 0 
 0 
LINE
 10 
 408.618383789063 
 20 
 408.08798828125 
 30 
 0 
 11 
 409.071215820313 
 21 
 407.648022460938 
 31 
 0 
 0 
LINE
 10 
 409.071215820313 
 20 
 407.648022460938 
 30 
 0 
 11 
 409.6248046875 
 21 
 407.30400390625 
 31 
 0 
 0 
LINE
 10 
 409.6248046875 
 20 
 407.30400390625 
 30 
 0 
 11 
 410.24560546875 
 21 
 407.080004882813 
 31 
 0 
 0 
LINE
 10 
 410.24560546875 
 20 
 407.080004882813 
 30 
 0 
 11 
 410.9 
 21 
 407 
 31 
 0 
 0 
LINE
 10 
 410.9 
 20 
 407 
 30 
 0 
 11 
 411.586376953125 
 21 
 406.909594726563 
 31 
 0 
 0 
LINE
 10 
 411.586376953125 
 20 
 406.909594726563 
 30 
 0 
 11 
 412.28720703125 
 21 
 406.660791015625 
 31 
 0 
 0 
LINE
 10 
 412.28720703125 
 20 
 406.660791015625 
 30 
 0 
 11 
 412.944775390625 
 21 
 406.287182617188 
 31 
 0 
 0 
LINE
 10 
 412.944775390625 
 20 
 406.287182617188 
 30 
 0 
 11 
 413.501611328125 
 21 
 405.822412109375 
 31 
 0 
 0 
LINE
 10 
 413.501611328125 
 20 
 405.822412109375 
 30 
 0 
 11 
 413.9 
 21 
 405.3 
 31 
 0 
 0 
LINE
 10 
 413.9 
 20 
 405.3 
 30 
 0 
 11 
 414.350439453125 
 21 
 404.598364257813 
 31 
 0 
 0 
LINE
 10 
 414.350439453125 
 20 
 404.598364257813 
 30 
 0 
 11 
 414.647216796875 
 21 
 404.319213867188 
 31 
 0 
 0 
LINE
 10 
 414.647216796875 
 20 
 404.319213867188 
 30 
 0 
 11 
 414.82880859375 
 21 
 404.500805664063 
 31 
 0 
 0 
LINE
 10 
 414.82880859375 
 20 
 404.500805664063 
 30 
 0 
 11 
 414.93359375 
 21 
 405.181616210938 
 31 
 0 
 0 
LINE
 10 
 414.93359375 
 20 
 405.181616210938 
 30 
 0 
 11 
 415 
 21 
 406.4 
 31 
 0 
 0 
LINE
 10 
 415 
 20 
 406.4 
 30 
 0 
 11 
 414.9583984375 
 21 
 407.685595703125 
 31 
 0 
 0 
LINE
 10 
 414.9583984375 
 20 
 407.685595703125 
 30 
 0 
 11 
 414.76318359375 
 21 
 408.476831054688 
 31 
 0 
 0 
LINE
 10 
 414.76318359375 
 20 
 408.476831054688 
 30 
 0 
 11 
 414.308837890625 
 21 
 408.855200195313 
 31 
 0 
 0 
LINE
 10 
 414.308837890625 
 20 
 408.855200195313 
 30 
 0 
 11 
 413.489599609375 
 21 
 408.902416992188 
 31 
 0 
 0 
LINE
 10 
 413.489599609375 
 20 
 408.902416992188 
 30 
 0 
 11 
 412.2 
 21 
 408.7 
 31 
 0 
 0 
LINE
 10 
 412.2 
 20 
 408.7 
 30 
 0 
 11 
 411.06396484375 
 21 
 408.548022460938 
 31 
 0 
 0 
LINE
 10 
 411.06396484375 
 20 
 408.548022460938 
 30 
 0 
 11 
 410.143994140625 
 21 
 408.588012695313 
 31 
 0 
 0 
LINE
 10 
 410.143994140625 
 20 
 408.588012695313 
 30 
 0 
 11 
 409.392016601563 
 21 
 408.844018554688 
 31 
 0 
 0 
LINE
 10 
 409.392016601563 
 20 
 408.844018554688 
 30 
 0 
 11 
 408.760009765625 
 21 
 409.340014648438 
 31 
 0 
 0 
LINE
 10 
 408.760009765625 
 20 
 409.340014648438 
 30 
 0 
 11 
 408.2 
 21 
 410.1 
 31 
 0 
 0 
LINE
 10 
 408.2 
 20 
 410.1 
 30 
 0 
 11 
 407.715185546875 
 21 
 410.680810546875 
 31 
 0 
 0 
LINE
 10 
 407.715185546875 
 20 
 410.680810546875 
 30 
 0 
 11 
 407.129614257813 
 21 
 411.19443359375 
 31 
 0 
 0 
LINE
 10 
 407.129614257813 
 20 
 411.19443359375 
 30 
 0 
 11 
 406.486401367188 
 21 
 411.597607421875 
 31 
 0 
 0 
LINE
 10 
 406.486401367188 
 20 
 411.597607421875 
 30 
 0 
 11 
 405.82880859375 
 21 
 411.847216796875 
 31 
 0 
 0 
LINE
 10 
 405.82880859375 
 20 
 411.847216796875 
 30 
 0 
 11 
 405.2 
 21 
 411.9 
 31 
 0 
 0 
LINE
 10 
 405.2 
 20 
 411.9 
 30 
 0 
 11 
 404.540771484375 
 21 
 411.873583984375 
 31 
 0 
 0 
LINE
 10 
 404.540771484375 
 20 
 411.873583984375 
 30 
 0 
 11 
 404.246411132813 
 21 
 411.784814453125 
 31 
 0 
 0 
LINE
 10 
 404.246411132813 
 20 
 411.784814453125 
 30 
 0 
 11 
 404.321606445313 
 21 
 411.619189453125 
 31 
 0 
 0 
LINE
 10 
 404.321606445313 
 20 
 411.619189453125 
 30 
 0 
 11 
 404.771215820313 
 21 
 411.36240234375 
 31 
 0 
 0 
LINE
 10 
 404.771215820313 
 20 
 411.36240234375 
 30 
 0 
 11 
 405.6 
 21 
 411 
 31 
 0 
 0 
LINE
 10 
 61.6 
 20 
 394.4 
 30 
 0 
 11 
 60.0319946289063 
 21 
 389.10400390625 
 31 
 0 
 0 
LINE
 10 
 60.0319946289063 
 20 
 389.10400390625 
 30 
 0 
 11 
 58.8960021972656 
 21 
 382.944018554688 
 31 
 0 
 0 
LINE
 10 
 58.8960021972656 
 20 
 382.944018554688 
 30 
 0 
 11 
 58.1440002441406 
 21 
 375.392016601563 
 31 
 0 
 0 
LINE
 10 
 58.1440002441406 
 20 
 375.392016601563 
 30 
 0 
 11 
 57.7279968261719 
 21 
 365.919995117188 
 31 
 0 
 0 
LINE
 10 
 57.7279968261719 
 20 
 365.919995117188 
 30 
 0 
 11 
 57.6 
 21 
 354 
 31 
 0 
 0 
LINE
 10 
 57.6 
 20 
 354 
 30 
 0 
 11 
 57.6799987792969 
 21 
 341.708813476563 
 31 
 0 
 0 
LINE
 10 
 57.6799987792969 
 20 
 341.708813476563 
 30 
 0 
 11 
 58 
 21 
 332.734399414063 
 31 
 0 
 0 
LINE
 10 
 58 
 20 
 332.734399414063 
 30 
 0 
 11 
 58.6799987792969 
 21 
 325.905590820313 
 31 
 0 
 0 
LINE
 10 
 58.6799987792969 
 20 
 325.905590820313 
 30 
 0 
 11 
 59.8400024414063 
 21 
 320.051220703125 
 31 
 0 
 0 
LINE
 10 
 59.8400024414063 
 20 
 320.051220703125 
 30 
 0 
 11 
 61.6 
 21 
 314 
 31 
 0 
 0 
LINE
 10 
 61.6 
 20 
 314 
 30 
 0 
 11 
 63.2823974609375 
 21 
 308.92958984375 
 31 
 0 
 0 
LINE
 10 
 63.2823974609375 
 20 
 308.92958984375 
 30 
 0 
 11 
 64.5231994628906 
 21 
 305.860815429688 
 31 
 0 
 0 
LINE
 10 
 64.5231994628906 
 20 
 305.860815429688 
 30 
 0 
 11 
 65.5528015136719 
 21 
 304.467211914063 
 31 
 0 
 0 
LINE
 10 
 65.5528015136719 
 20 
 304.467211914063 
 30 
 0 
 11 
 66.6016052246094 
 21 
 304.422412109375 
 31 
 0 
 0 
LINE
 10 
 66.6016052246094 
 20 
 304.422412109375 
 30 
 0 
 11 
 67.9 
 21 
 305.4 
 31 
 0 
 0 
LINE
 10 
 67.9 
 20 
 305.4 
 30 
 0 
 11 
 68.8111999511719 
 21 
 306.323193359375 
 31 
 0 
 0 
LINE
 10 
 68.8111999511719 
 20 
 306.323193359375 
 30 
 0 
 11 
 69.2616027832031 
 21 
 307.169604492188 
 31 
 0 
 0 
LINE
 10 
 69.2616027832031 
 20 
 307.169604492188 
 30 
 0 
 11 
 69.2463989257813 
 21 
 308.294384765625 
 31 
 0 
 0 
LINE
 10 
 69.2463989257813 
 20 
 308.294384765625 
 30 
 0 
 11 
 68.7607971191406 
 21 
 310.052807617188 
 31 
 0 
 0 
LINE
 10 
 68.7607971191406 
 20 
 310.052807617188 
 30 
 0 
 11 
 67.8 
 21 
 312.8 
 31 
 0 
 0 
LINE
 10 
 67.8 
 20 
 312.8 
 30 
 0 
 11 
 66.0864013671875 
 21 
 318.582397460938 
 31 
 0 
 0 
LINE
 10 
 66.0864013671875 
 20 
 318.582397460938 
 30 
 0 
 11 
 64.8671997070313 
 21 
 324.955200195313 
 31 
 0 
 0 
LINE
 10 
 64.8671997070313 
 20 
 324.955200195313 
 30 
 0 
 11 
 64.0848022460938 
 21 
 332.556811523438 
 31 
 0 
 0 
LINE
 10 
 64.0848022460938 
 20 
 332.556811523438 
 30 
 0 
 11 
 63.6815979003906 
 21 
 342.025610351563 
 31 
 0 
 0 
LINE
 10 
 63.6815979003906 
 20 
 342.025610351563 
 30 
 0 
 11 
 63.6 
 21 
 354 
 31 
 0 
 0 
LINE
 10 
 63.6 
 20 
 354 
 30 
 0 
 11 
 63.7280029296875 
 21 
 365.133569335938 
 31 
 0 
 0 
LINE
 10 
 63.7280029296875 
 20 
 365.133569335938 
 30 
 0 
 11 
 64.09599609375 
 21 
 374.692797851563 
 31 
 0 
 0 
LINE
 10 
 64.09599609375 
 20 
 374.692797851563 
 30 
 0 
 11 
 64.6799987792969 
 21 
 382.3751953125 
 31 
 0 
 0 
LINE
 10 
 64.6799987792969 
 20 
 382.3751953125 
 30 
 0 
 11 
 65.4559997558594 
 21 
 387.87841796875 
 31 
 0 
 0 
LINE
 10 
 65.4559997558594 
 20 
 387.87841796875 
 30 
 0 
 11 
 66.4 
 21 
 390.9 
 31 
 0 
 0 
LINE
 10 
 66.4 
 20 
 390.9 
 30 
 0 
 11 
 66.5247985839844 
 21 
 391.427172851563 
 31 
 0 
 0 
LINE
 10 
 66.5247985839844 
 20 
 391.427172851563 
 30 
 0 
 11 
 66.4384033203125 
 21 
 392.237622070313 
 31 
 0 
 0 
LINE
 10 
 66.4384033203125 
 20 
 392.237622070313 
 30 
 0 
 11 
 66.1696044921875 
 21 
 393.25439453125 
 31 
 0 
 0 
LINE
 10 
 66.1696044921875 
 20 
 393.25439453125 
 30 
 0 
 11 
 65.7472045898438 
 21 
 394.400805664063 
 31 
 0 
 0 
LINE
 10 
 65.7472045898438 
 20 
 394.400805664063 
 30 
 0 
 11 
 65.2 
 21 
 395.6 
 31 
 0 
 0 
LINE
 10 
 65.2 
 20 
 395.6 
 30 
 0 
 11 
 63.3 
 21 
 399.3 
 31 
 0 
 0 
LINE
 10 
 63.3 
 20 
 399.3 
 30 
 0 
 11 
 61.6 
 21 
 394.4 
 31 
 0 
 0 
LINE
 10 
 420.7 
 20 
 390.1 
 30 
 0 
 11 
 420.53837890625 
 21 
 389.267993164063 
 31 
 0 
 0 
LINE
 10 
 420.53837890625 
 20 
 389.267993164063 
 30 
 0 
 11 
 420.5591796875 
 21 
 388.79599609375 
 31 
 0 
 0 
LINE
 10 
 420.5591796875 
 20 
 388.79599609375 
 30 
 0 
 11 
 420.800830078125 
 21 
 388.660009765625 
 31 
 0 
 0 
LINE
 10 
 420.800830078125 
 20 
 388.660009765625 
 30 
 0 
 11 
 421.301611328125 
 21 
 388.836010742188 
 31 
 0 
 0 
LINE
 10 
 421.301611328125 
 20 
 388.836010742188 
 30 
 0 
 11 
 422.1 
 21 
 389.3 
 31 
 0 
 0 
LINE
 10 
 422.1 
 20 
 389.3 
 30 
 0 
 11 
 422.932763671875 
 21 
 389.702368164063 
 31 
 0 
 0 
LINE
 10 
 422.932763671875 
 20 
 389.702368164063 
 30 
 0 
 11 
 423.698388671875 
 21 
 389.807202148438 
 31 
 0 
 0 
LINE
 10 
 423.698388671875 
 20 
 389.807202148438 
 30 
 0 
 11 
 424.497607421875 
 21 
 389.580786132813 
 31 
 0 
 0 
LINE
 10 
 424.497607421875 
 20 
 389.580786132813 
 30 
 0 
 11 
 425.431201171875 
 21 
 388.989599609375 
 31 
 0 
 0 
LINE
 10 
 425.431201171875 
 20 
 388.989599609375 
 30 
 0 
 11 
 426.6 
 21 
 388 
 31 
 0 
 0 
LINE
 10 
 426.6 
 20 
 388 
 30 
 0 
 11 
 429.4 
 21 
 385.5 
 31 
 0 
 0 
LINE
 10 
 429.4 
 20 
 385.5 
 30 
 0 
 11 
 427.1 
 21 
 388.8 
 31 
 0 
 0 
LINE
 10 
 427.1 
 20 
 388.8 
 30 
 0 
 11 
 425.551171875 
 21 
 390.59599609375 
 31 
 0 
 0 
LINE
 10 
 425.551171875 
 20 
 390.59599609375 
 30 
 0 
 11 
 423.997607421875 
 21 
 391.648022460938 
 31 
 0 
 0 
LINE
 10 
 423.997607421875 
 20 
 391.648022460938 
 30 
 0 
 11 
 422.57841796875 
 21 
 391.931982421875 
 31 
 0 
 0 
LINE
 10 
 422.57841796875 
 20 
 391.931982421875 
 30 
 0 
 11 
 421.4328125 
 21 
 391.423999023438 
 31 
 0 
 0 
LINE
 10 
 421.4328125 
 20 
 391.423999023438 
 30 
 0 
 11 
 420.7 
 21 
 390.1 
 31 
 0 
 0 
LINE
 10 
 432.4 
 20 
 389.5 
 30 
 0 
 11 
 431.48798828125 
 21 
 388.815991210938 
 31 
 0 
 0 
LINE
 10 
 431.48798828125 
 20 
 388.815991210938 
 30 
 0 
 11 
 431.031982421875 
 21 
 388.396020507813 
 31 
 0 
 0 
LINE
 10 
 431.031982421875 
 20 
 388.396020507813 
 30 
 0 
 11 
 431.031982421875 
 21 
 388.168017578125 
 31 
 0 
 0 
LINE
 10 
 431.031982421875 
 20 
 388.168017578125 
 30 
 0 
 11 
 431.48798828125 
 21 
 388.060009765625 
 31 
 0 
 0 
LINE
 10 
 431.48798828125 
 20 
 388.060009765625 
 30 
 0 
 11 
 432.4 
 21 
 388 
 31 
 0 
 0 
LINE
 10 
 432.4 
 20 
 388 
 30 
 0 
 11 
 433.12236328125 
 21 
 387.9095703125 
 31 
 0 
 0 
LINE
 10 
 433.12236328125 
 20 
 387.9095703125 
 30 
 0 
 11 
 433.931201171875 
 21 
 387.660791015625 
 31 
 0 
 0 
LINE
 10 
 433.931201171875 
 20 
 387.660791015625 
 30 
 0 
 11 
 434.768798828125 
 21 
 387.287182617188 
 31 
 0 
 0 
LINE
 10 
 434.768798828125 
 20 
 387.287182617188 
 30 
 0 
 11 
 435.577587890625 
 21 
 386.822412109375 
 31 
 0 
 0 
LINE
 10 
 435.577587890625 
 20 
 386.822412109375 
 30 
 0 
 11 
 436.3 
 21 
 386.3 
 31 
 0 
 0 
LINE
 10 
 436.3 
 20 
 386.3 
 30 
 0 
 11 
 437.27119140625 
 21 
 385.489575195313 
 31 
 0 
 0 
LINE
 10 
 437.27119140625 
 20 
 385.489575195313 
 30 
 0 
 11 
 437.82958984375 
 21 
 385.120776367188 
 31 
 0 
 0 
LINE
 10 
 437.82958984375 
 20 
 385.120776367188 
 30 
 0 
 11 
 438.0423828125 
 21 
 385.227197265625 
 31 
 0 
 0 
LINE
 10 
 438.0423828125 
 20 
 385.227197265625 
 30 
 0 
 11 
 437.976806640625 
 21 
 385.842407226563 
 31 
 0 
 0 
LINE
 10 
 437.976806640625 
 20 
 385.842407226563 
 30 
 0 
 11 
 437.7 
 21 
 387 
 31 
 0 
 0 
LINE
 10 
 437.7 
 20 
 387 
 30 
 0 
 11 
 437.473583984375 
 21 
 387.832788085938 
 31 
 0 
 0 
LINE
 10 
 437.473583984375 
 20 
 387.832788085938 
 30 
 0 
 11 
 437.280810546875 
 21 
 388.622412109375 
 31 
 0 
 0 
LINE
 10 
 437.280810546875 
 20 
 388.622412109375 
 30 
 0 
 11 
 437.131201171875 
 21 
 389.325610351563 
 31 
 0 
 0 
LINE
 10 
 437.131201171875 
 20 
 389.325610351563 
 30 
 0 
 11 
 437.034423828125 
 21 
 389.89921875 
 31 
 0 
 0 
LINE
 10 
 437.034423828125 
 20 
 389.89921875 
 30 
 0 
 11 
 437 
 21 
 390.3 
 31 
 0 
 0 
LINE
 10 
 437 
 20 
 390.3 
 30 
 0 
 11 
 436.723193359375 
 21 
 390.831176757813 
 31 
 0 
 0 
LINE
 10 
 436.723193359375 
 20 
 390.831176757813 
 30 
 0 
 11 
 435.985595703125 
 21 
 390.997631835938 
 31 
 0 
 0 
LINE
 10 
 435.985595703125 
 20 
 390.997631835938 
 30 
 0 
 11 
 434.926416015625 
 21 
 390.818408203125 
 31 
 0 
 0 
LINE
 10 
 434.926416015625 
 20 
 390.818408203125 
 30 
 0 
 11 
 433.684814453125 
 21 
 390.31279296875 
 31 
 0 
 0 
LINE
 10 
 433.684814453125 
 20 
 390.31279296875 
 30 
 0 
 11 
 432.4 
 21 
 389.5 
 31 
 0 
 0 
LINE
 10 
 103.7 
 20 
 386.1 
 30 
 0 
 11 
 103.59599609375 
 21 
 385.38798828125 
 31 
 0 
 0 
LINE
 10 
 103.59599609375 
 20 
 385.38798828125 
 30 
 0 
 11 
 103.659997558594 
 21 
 384.915991210938 
 31 
 0 
 0 
LINE
 10 
 103.659997558594 
 20 
 384.915991210938 
 30 
 0 
 11 
 103.916003417969 
 21 
 384.660009765625 
 31 
 0 
 0 
LINE
 10 
 103.916003417969 
 20 
 384.660009765625 
 30 
 0 
 11 
 104.388000488281 
 21 
 384.596020507813 
 31 
 0 
 0 
LINE
 10 
 104.388000488281 
 20 
 384.596020507813 
 30 
 0 
 11 
 105.1 
 21 
 384.7 
 31 
 0 
 0 
LINE
 10 
 105.1 
 20 
 384.7 
 30 
 0 
 11 
 105.799194335938 
 21 
 384.8095703125 
 31 
 0 
 0 
LINE
 10 
 105.799194335938 
 20 
 384.8095703125 
 30 
 0 
 11 
 106.5416015625 
 21 
 384.784814453125 
 31 
 0 
 0 
LINE
 10 
 106.5416015625 
 20 
 384.784814453125 
 30 
 0 
 11 
 107.274401855469 
 21 
 384.635205078125 
 31 
 0 
 0 
LINE
 10 
 107.274401855469 
 20 
 384.635205078125 
 30 
 0 
 11 
 107.944799804688 
 21 
 384.37041015625 
 31 
 0 
 0 
LINE
 10 
 107.944799804688 
 20 
 384.37041015625 
 30 
 0 
 11 
 108.5 
 21 
 384 
 31 
 0 
 0 
LINE
 10 
 108.5 
 20 
 384 
 30 
 0 
 11 
 109.009594726563 
 21 
 383.67919921875 
 31 
 0 
 0 
LINE
 10 
 109.009594726563 
 20 
 383.67919921875 
 30 
 0 
 11 
 109.552807617188 
 21 
 383.449609375 
 31 
 0 
 0 
LINE
 10 
 109.552807617188 
 20 
 383.449609375 
 30 
 0 
 11 
 110.091198730469 
 21 
 383.330395507813 
 31 
 0 
 0 
LINE
 10 
 110.091198730469 
 20 
 383.330395507813 
 30 
 0 
 11 
 110.586401367188 
 21 
 383.340795898438 
 31 
 0 
 0 
LINE
 10 
 110.586401367188 
 20 
 383.340795898438 
 30 
 0 
 11 
 111 
 21 
 383.5 
 31 
 0 
 0 
LINE
 10 
 111 
 20 
 383.5 
 30 
 0 
 11 
 111.457592773438 
 21 
 383.634375 
 31 
 0 
 0 
LINE
 10 
 111.457592773438 
 20 
 383.634375 
 30 
 0 
 11 
 112.068798828125 
 21 
 383.567236328125 
 31 
 0 
 0 
LINE
 10 
 112.068798828125 
 20 
 383.567236328125 
 30 
 0 
 11 
 112.771203613281 
 21 
 383.31279296875 
 31 
 0 
 0 
LINE
 10 
 112.771203613281 
 20 
 383.31279296875 
 30 
 0 
 11 
 113.502404785156 
 21 
 382.885595703125 
 31 
 0 
 0 
LINE
 10 
 113.502404785156 
 20 
 382.885595703125 
 30 
 0 
 11 
 114.2 
 21 
 382.3 
 31 
 0 
 0 
LINE
 10 
 114.2 
 20 
 382.3 
 30 
 0 
 11 
 115.179992675781 
 21 
 381.441577148438 
 31 
 0 
 0 
LINE
 10 
 115.179992675781 
 20 
 381.441577148438 
 30 
 0 
 11 
 115.752001953125 
 21 
 381.048828125 
 31 
 0 
 0 
LINE
 10 
 115.752001953125 
 20 
 381.048828125 
 30 
 0 
 11 
 115.964001464844 
 21 
 381.155200195313 
 31 
 0 
 0 
LINE
 10 
 115.964001464844 
 20 
 381.155200195313 
 30 
 0 
 11 
 115.864001464844 
 21 
 381.794409179688 
 31 
 0 
 0 
LINE
 10 
 115.864001464844 
 20 
 381.794409179688 
 30 
 0 
 11 
 115.5 
 21 
 383 
 31 
 0 
 0 
LINE
 10 
 115.5 
 20 
 383 
 30 
 0 
 11 
 114.964001464844 
 21 
 384.669580078125 
 31 
 0 
 0 
LINE
 10 
 114.964001464844 
 20 
 384.669580078125 
 30 
 0 
 11 
 114.476000976563 
 21 
 385.652807617188 
 31 
 0 
 0 
LINE
 10 
 114.476000976563 
 20 
 385.652807617188 
 30 
 0 
 11 
 113.916003417969 
 21 
 386.031201171875 
 31 
 0 
 0 
LINE
 10 
 113.916003417969 
 20 
 386.031201171875 
 30 
 0 
 11 
 113.164001464844 
 21 
 385.886401367188 
 31 
 0 
 0 
LINE
 10 
 113.164001464844 
 20 
 385.886401367188 
 30 
 0 
 11 
 112.1 
 21 
 385.3 
 31 
 0 
 0 
LINE
 10 
 112.1 
 20 
 385.3 
 30 
 0 
 11 
 111.283190917969 
 21 
 384.845581054688 
 31 
 0 
 0 
LINE
 10 
 111.283190917969 
 20 
 384.845581054688 
 30 
 0 
 11 
 110.581591796875 
 21 
 384.688818359375 
 31 
 0 
 0 
LINE
 10 
 110.581591796875 
 20 
 384.688818359375 
 30 
 0 
 11 
 109.918395996094 
 21 
 384.839208984375 
 31 
 0 
 0 
LINE
 10 
 109.918395996094 
 20 
 384.839208984375 
 30 
 0 
 11 
 109.216796875 
 21 
 385.306396484375 
 31 
 0 
 0 
LINE
 10 
 109.216796875 
 20 
 385.306396484375 
 30 
 0 
 11 
 108.4 
 21 
 386.1 
 31 
 0 
 0 
LINE
 10 
 108.4 
 20 
 386.1 
 30 
 0 
 11 
 107.13359375 
 21 
 387.251977539063 
 31 
 0 
 0 
LINE
 10 
 107.13359375 
 20 
 387.251977539063 
 30 
 0 
 11 
 105.996801757813 
 21 
 387.828002929688 
 31 
 0 
 0 
LINE
 10 
 105.996801757813 
 20 
 387.828002929688 
 30 
 0 
 11 
 105.023205566406 
 21 
 387.828002929688 
 31 
 0 
 0 
LINE
 10 
 105.023205566406 
 20 
 387.828002929688 
 30 
 0 
 11 
 104.246398925781 
 21 
 387.252001953125 
 31 
 0 
 0 
LINE
 10 
 104.246398925781 
 20 
 387.252001953125 
 30 
 0 
 11 
 103.7 
 21 
 386.1 
 31 
 0 
 0 
LINE
 10 
 396.5 
 20 
 372 
 30 
 0 
 11 
 396.423974609375 
 21 
 371.703979492188 
 31 
 0 
 0 
LINE
 10 
 396.423974609375 
 20 
 371.703979492188 
 30 
 0 
 11 
 396.540014648438 
 21 
 371.431982421875 
 31 
 0 
 0 
LINE
 10 
 396.540014648438 
 20 
 371.431982421875 
 30 
 0 
 11 
 396.823999023438 
 21 
 371.2080078125 
 31 
 0 
 0 
LINE
 10 
 396.823999023438 
 20 
 371.2080078125 
 30 
 0 
 11 
 397.252001953125 
 21 
 371.056005859375 
 31 
 0 
 0 
LINE
 10 
 397.252001953125 
 20 
 371.056005859375 
 30 
 0 
 11 
 397.8 
 21 
 371 
 31 
 0 
 0 
LINE
 10 
 397.8 
 20 
 371 
 30 
 0 
 11 
 398.488012695313 
 21 
 370.92080078125 
 31 
 0 
 0 
LINE
 10 
 398.488012695313 
 20 
 370.92080078125 
 30 
 0 
 11 
 399.2 
 21 
 370.702416992188 
 31 
 0 
 0 
LINE
 10 
 399.2 
 20 
 370.702416992188 
 30 
 0 
 11 
 399.888012695313 
 21 
 370.373608398438 
 31 
 0 
 0 
LINE
 10 
 399.888012695313 
 20 
 370.373608398438 
 30 
 0 
 11 
 400.50400390625 
 21 
 369.963208007813 
 31 
 0 
 0 
LINE
 10 
 400.50400390625 
 20 
 369.963208007813 
 30 
 0 
 11 
 401 
 21 
 369.5 
 31 
 0 
 0 
LINE
 10 
 401 
 20 
 369.5 
 30 
 0 
 11 
 401.495190429688 
 21 
 369.036791992188 
 31 
 0 
 0 
LINE
 10 
 401.495190429688 
 20 
 369.036791992188 
 30 
 0 
 11 
 402.105590820313 
 21 
 368.626416015625 
 31 
 0 
 0 
LINE
 10 
 402.105590820313 
 20 
 368.626416015625 
 30 
 0 
 11 
 402.77841796875 
 21 
 368.297607421875 
 31 
 0 
 0 
LINE
 10 
 402.77841796875 
 20 
 368.297607421875 
 30 
 0 
 11 
 403.460815429688 
 21 
 368.07919921875 
 31 
 0 
 0 
LINE
 10 
 403.460815429688 
 20 
 368.07919921875 
 30 
 0 
 11 
 404.1 
 21 
 368 
 31 
 0 
 0 
LINE
 10 
 404.1 
 20 
 368 
 30 
 0 
 11 
 404.727197265625 
 21 
 367.909594726563 
 31 
 0 
 0 
LINE
 10 
 404.727197265625 
 20 
 367.909594726563 
 30 
 0 
 11 
 405.373608398438 
 21 
 367.660815429688 
 31 
 0 
 0 
LINE
 10 
 405.373608398438 
 20 
 367.660815429688 
 30 
 0 
 11 
 405.986401367188 
 21 
 367.287182617188 
 31 
 0 
 0 
LINE
 10 
 405.986401367188 
 20 
 367.287182617188 
 30 
 0 
 11 
 406.51279296875 
 21 
 366.822412109375 
 31 
 0 
 0 
LINE
 10 
 406.51279296875 
 20 
 366.822412109375 
 30 
 0 
 11 
 406.9 
 21 
 366.3 
 31 
 0 
 0 
LINE
 10 
 406.9 
 20 
 366.3 
 30 
 0 
 11 
 407.350366210938 
 21 
 365.535986328125 
 31 
 0 
 0 
LINE
 10 
 407.350366210938 
 20 
 365.535986328125 
 30 
 0 
 11 
 407.647216796875 
 21 
 365.180004882813 
 31 
 0 
 0 
LINE
 10 
 407.647216796875 
 20 
 365.180004882813 
 30 
 0 
 11 
 407.828784179688 
 21 
 365.256005859375 
 31 
 0 
 0 
LINE
 10 
 407.828784179688 
 20 
 365.256005859375 
 30 
 0 
 11 
 407.933618164063 
 21 
 365.788012695313 
 31 
 0 
 0 
LINE
 10 
 407.933618164063 
 20 
 365.788012695313 
 30 
 0 
 11 
 408 
 21 
 366.8 
 31 
 0 
 0 
LINE
 10 
 408 
 20 
 366.8 
 30 
 0 
 11 
 407.919995117188 
 21 
 367.681591796875 
 31 
 0 
 0 
LINE
 10 
 407.919995117188 
 20 
 367.681591796875 
 30 
 0 
 11 
 407.648022460938 
 21 
 368.3087890625 
 31 
 0 
 0 
LINE
 10 
 407.648022460938 
 20 
 368.3087890625 
 30 
 0 
 11 
 407.136010742188 
 21 
 368.715185546875 
 31 
 0 
 0 
LINE
 10 
 407.136010742188 
 20 
 368.715185546875 
 30 
 0 
 11 
 406.336010742188 
 21 
 368.934399414063 
 31 
 0 
 0 
LINE
 10 
 406.336010742188 
 20 
 368.934399414063 
 30 
 0 
 11 
 405.2 
 21 
 369 
 31 
 0 
 0 
LINE
 10 
 405.2 
 20 
 369 
 30 
 0 
 11 
 404.246362304688 
 21 
 369.092797851563 
 31 
 0 
 0 
LINE
 10 
 404.246362304688 
 20 
 369.092797851563 
 30 
 0 
 11 
 403.331201171875 
 21 
 369.358422851563 
 31 
 0 
 0 
LINE
 10 
 403.331201171875 
 20 
 369.358422851563 
 30 
 0 
 11 
 402.492797851563 
 21 
 369.777612304688 
 31 
 0 
 0 
LINE
 10 
 402.492797851563 
 20 
 369.777612304688 
 30 
 0 
 11 
 401.769604492188 
 21 
 370.331201171875 
 31 
 0 
 0 
LINE
 10 
 401.769604492188 
 20 
 370.331201171875 
 30 
 0 
 11 
 401.2 
 21 
 371 
 31 
 0 
 0 
LINE
 10 
 401.2 
 20 
 371 
 30 
 0 
 11 
 400.307983398438 
 21 
 372.063989257813 
 31 
 0 
 0 
LINE
 10 
 400.307983398438 
 20 
 372.063989257813 
 30 
 0 
 11 
 399.271997070313 
 21 
 372.72001953125 
 31 
 0 
 0 
LINE
 10 
 399.271997070313 
 20 
 372.72001953125 
 30 
 0 
 11 
 398.21201171875 
 21 
 372.943994140625 
 31 
 0 
 0 
LINE
 10 
 398.21201171875 
 20 
 372.943994140625 
 30 
 0 
 11 
 397.248022460938 
 21 
 372.71201171875 
 31 
 0 
 0 
LINE
 10 
 397.248022460938 
 20 
 372.71201171875 
 30 
 0 
 11 
 396.5 
 21 
 372 
 31 
 0 
 0 
LINE
 10 
 431.6 
 20 
 364.4 
 30 
 0 
 11 
 431.42236328125 
 21 
 363.876782226563 
 31 
 0 
 0 
LINE
 10 
 431.42236328125 
 20 
 363.876782226563 
 30 
 0 
 11 
 431.2591796875 
 21 
 363.406420898438 
 31 
 0 
 0 
LINE
 10 
 431.2591796875 
 20 
 363.406420898438 
 30 
 0 
 11 
 431.1248046875 
 21 
 363.017602539063 
 31 
 0 
 0 
LINE
 10 
 431.1248046875 
 20 
 363.017602539063 
 30 
 0 
 11 
 431.03359375 
 21 
 362.739208984375 
 31 
 0 
 0 
LINE
 10 
 431.03359375 
 20 
 362.739208984375 
 30 
 0 
 11 
 431 
 21 
 362.6 
 31 
 0 
 0 
LINE
 10 
 431 
 20 
 362.6 
 30 
 0 
 11 
 431.14794921875 
 21 
 362.553588867188 
 31 
 0 
 0 
LINE
 10 
 431.14794921875 
 20 
 362.553588867188 
 30 
 0 
 11 
 431.560009765625 
 21 
 362.540795898438 
 31 
 0 
 0 
LINE
 10 
 431.560009765625 
 20 
 362.540795898438 
 30 
 0 
 11 
 432.18798828125 
 21 
 362.571215820313 
 31 
 0 
 0 
LINE
 10 
 432.18798828125 
 20 
 362.571215820313 
 30 
 0 
 11 
 432.983984375 
 21 
 362.65439453125 
 31 
 0 
 0 
LINE
 10 
 432.983984375 
 20 
 362.65439453125 
 30 
 0 
 11 
 433.9 
 21 
 362.8 
 31 
 0 
 0 
LINE
 10 
 433.9 
 20 
 362.8 
 30 
 0 
 11 
 434.849609375 
 21 
 362.861572265625 
 31 
 0 
 0 
LINE
 10 
 434.849609375 
 20 
 362.861572265625 
 30 
 0 
 11 
 435.73681640625 
 21 
 362.812817382813 
 31 
 0 
 0 
LINE
 10 
 435.73681640625 
 20 
 362.812817382813 
 30 
 0 
 11 
 436.49921875 
 21 
 362.663208007813 
 31 
 0 
 0 
LINE
 10 
 436.49921875 
 20 
 362.663208007813 
 30 
 0 
 11 
 437.0744140625 
 21 
 362.422412109375 
 31 
 0 
 0 
LINE
 10 
 437.0744140625 
 20 
 362.422412109375 
 30 
 0 
 11 
 437.4 
 21 
 362.1 
 31 
 0 
 0 
LINE
 10 
 437.4 
 20 
 362.1 
 30 
 0 
 11 
 437.762353515625 
 21 
 361.75517578125 
 31 
 0 
 0 
LINE
 10 
 437.762353515625 
 20 
 361.75517578125 
 30 
 0 
 11 
 438.331201171875 
 21 
 361.45361328125 
 31 
 0 
 0 
LINE
 10 
 438.331201171875 
 20 
 361.45361328125 
 30 
 0 
 11 
 439.048779296875 
 21 
 361.214404296875 
 31 
 0 
 0 
LINE
 10 
 439.048779296875 
 20 
 361.214404296875 
 30 
 0 
 11 
 439.8576171875 
 21 
 361.056811523438 
 31 
 0 
 0 
LINE
 10 
 439.8576171875 
 20 
 361.056811523438 
 30 
 0 
 11 
 440.7 
 21 
 361 
 31 
 0 
 0 
LINE
 10 
 440.7 
 20 
 361 
 30 
 0 
 11 
 441.648779296875 
 21 
 360.9095703125 
 31 
 0 
 0 
LINE
 10 
 441.648779296875 
 20 
 360.9095703125 
 30 
 0 
 11 
 442.650439453125 
 21 
 360.660791015625 
 31 
 0 
 0 
LINE
 10 
 442.650439453125 
 20 
 360.660791015625 
 30 
 0 
 11 
 443.63759765625 
 21 
 360.28720703125 
 31 
 0 
 0 
LINE
 10 
 443.63759765625 
 20 
 360.28720703125 
 30 
 0 
 11 
 444.543212890625 
 21 
 359.822412109375 
 31 
 0 
 0 
LINE
 10 
 444.543212890625 
 20 
 359.822412109375 
 30 
 0 
 11 
 445.3 
 21 
 359.3 
 31 
 0 
 0 
LINE
 10 
 445.3 
 20 
 359.3 
 30 
 0 
 11 
 446.27119140625 
 21 
 358.489575195313 
 31 
 0 
 0 
LINE
 10 
 446.27119140625 
 20 
 358.489575195313 
 30 
 0 
 11 
 446.829638671875 
 21 
 358.12080078125 
 31 
 0 
 0 
LINE
 10 
 446.829638671875 
 20 
 358.12080078125 
 30 
 0 
 11 
 447.042431640625 
 21 
 358.227221679688 
 31 
 0 
 0 
LINE
 10 
 447.042431640625 
 20 
 358.227221679688 
 30 
 0 
 11 
 446.976806640625 
 21 
 358.842407226563 
 31 
 0 
 0 
LINE
 10 
 446.976806640625 
 20 
 358.842407226563 
 30 
 0 
 11 
 446.7 
 21 
 360 
 31 
 0 
 0 
LINE
 10 
 446.7 
 20 
 360 
 30 
 0 
 11 
 446.473583984375 
 21 
 360.832788085938 
 31 
 0 
 0 
LINE
 10 
 446.473583984375 
 20 
 360.832788085938 
 30 
 0 
 11 
 446.280810546875 
 21 
 361.622387695313 
 31 
 0 
 0 
LINE
 10 
 446.280810546875 
 20 
 361.622387695313 
 30 
 0 
 11 
 446.131201171875 
 21 
 362.325610351563 
 31 
 0 
 0 
LINE
 10 
 446.131201171875 
 20 
 362.325610351563 
 30 
 0 
 11 
 446.034423828125 
 21 
 362.89921875 
 31 
 0 
 0 
LINE
 10 
 446.034423828125 
 20 
 362.89921875 
 30 
 0 
 11 
 446 
 21 
 363.3 
 31 
 0 
 0 
LINE
 10 
 446 
 20 
 363.3 
 30 
 0 
 11 
 445.532763671875 
 21 
 363.806396484375 
 31 
 0 
 0 
LINE
 10 
 445.532763671875 
 20 
 363.806396484375 
 30 
 0 
 11 
 444.3744140625 
 21 
 364.015209960938 
 31 
 0 
 0 
LINE
 10 
 444.3744140625 
 20 
 364.015209960938 
 30 
 0 
 11 
 442.889599609375 
 21 
 363.940795898438 
 31 
 0 
 0 
LINE
 10 
 442.889599609375 
 20 
 363.940795898438 
 30 
 0 
 11 
 441.443212890625 
 21 
 363.597607421875 
 31 
 0 
 0 
LINE
 10 
 441.443212890625 
 20 
 363.597607421875 
 30 
 0 
 11 
 440.4 
 21 
 363 
 31 
 0 
 0 
LINE
 10 
 440.4 
 20 
 363 
 30 
 0 
 11 
 439.95439453125 
 21 
 362.70078125 
 31 
 0 
 0 
LINE
 10 
 439.95439453125 
 20 
 362.70078125 
 30 
 0 
 11 
 439.451220703125 
 21 
 362.646411132813 
 31 
 0 
 0 
LINE
 10 
 439.451220703125 
 20 
 362.646411132813 
 30 
 0 
 11 
 438.880810546875 
 21 
 362.8416015625 
 31 
 0 
 0 
LINE
 10 
 438.880810546875 
 20 
 362.8416015625 
 30 
 0 
 11 
 438.23359375 
 21 
 363.2912109375 
 31 
 0 
 0 
LINE
 10 
 438.23359375 
 20 
 363.2912109375 
 30 
 0 
 11 
 437.5 
 21 
 364 
 31 
 0 
 0 
LINE
 10 
 437.5 
 20 
 364 
 30 
 0 
 11 
 436.118359375 
 21 
 365.1744140625 
 31 
 0 
 0 
LINE
 10 
 436.118359375 
 20 
 365.1744140625 
 30 
 0 
 11 
 434.70322265625 
 21 
 365.81123046875 
 31 
 0 
 0 
LINE
 10 
 434.70322265625 
 20 
 365.81123046875 
 30 
 0 
 11 
 433.388818359375 
 21 
 365.900805664063 
 31 
 0 
 0 
LINE
 10 
 433.388818359375 
 20 
 365.900805664063 
 30 
 0 
 11 
 432.309619140625 
 21 
 365.433618164063 
 31 
 0 
 0 
LINE
 10 
 432.309619140625 
 20 
 365.433618164063 
 30 
 0 
 11 
 431.6 
 21 
 364.4 
 31 
 0 
 0 
LINE
 10 
 91.6 
 20 
 357.4 
 30 
 0 
 11 
 90.606396484375 
 21 
 356.379174804688 
 31 
 0 
 0 
LINE
 10 
 90.606396484375 
 20 
 356.379174804688 
 30 
 0 
 11 
 90.2031982421875 
 21 
 355.785595703125 
 31 
 0 
 0 
LINE
 10 
 90.2031982421875 
 20 
 355.785595703125 
 30 
 0 
 11 
 90.4768005371094 
 21 
 355.542407226563 
 31 
 0 
 0 
LINE
 10 
 90.4768005371094 
 20 
 355.542407226563 
 30 
 0 
 11 
 91.5136047363281 
 21 
 355.572802734375 
 31 
 0 
 0 
LINE
 10 
 91.5136047363281 
 20 
 355.572802734375 
 30 
 0 
 11 
 93.4 
 21 
 355.8 
 31 
 0 
 0 
LINE
 10 
 93.4 
 20 
 355.8 
 30 
 0 
 11 
 94.4783996582031 
 21 
 355.861572265625 
 31 
 0 
 0 
LINE
 10 
 94.4783996582031 
 20 
 355.861572265625 
 30 
 0 
 11 
 95.4992004394531 
 21 
 355.81279296875 
 31 
 0 
 0 
LINE
 10 
 95.4992004394531 
 20 
 355.81279296875 
 30 
 0 
 11 
 96.3807983398438 
 21 
 355.663208007813 
 31 
 0 
 0 
LINE
 10 
 96.3807983398438 
 20 
 355.663208007813 
 30 
 0 
 11 
 97.0416015625 
 21 
 355.422412109375 
 31 
 0 
 0 
LINE
 10 
 97.0416015625 
 20 
 355.422412109375 
 30 
 0 
 11 
 97.4 
 21 
 355.1 
 31 
 0 
 0 
LINE
 10 
 97.4 
 20 
 355.1 
 30 
 0 
 11 
 97.6823974609375 
 21 
 354.755200195313 
 31 
 0 
 0 
LINE
 10 
 97.6823974609375 
 20 
 354.755200195313 
 30 
 0 
 11 
 98.0272033691406 
 21 
 354.45361328125 
 31 
 0 
 0 
LINE
 10 
 98.0272033691406 
 20 
 354.45361328125 
 30 
 0 
 11 
 98.4007995605469 
 21 
 354.214404296875 
 31 
 0 
 0 
LINE
 10 
 98.4007995605469 
 20 
 354.214404296875 
 30 
 0 
 11 
 98.7695983886719 
 21 
 354.056811523438 
 31 
 0 
 0 
LINE
 10 
 98.7695983886719 
 20 
 354.056811523438 
 30 
 0 
 11 
 99.1 
 21 
 354 
 31 
 0 
 0 
LINE
 10 
 99.1 
 20 
 354 
 30 
 0 
 11 
 99.2864013671875 
 21 
 354.1255859375 
 31 
 0 
 0 
LINE
 10 
 99.2864013671875 
 20 
 354.1255859375 
 30 
 0 
 11 
 99.1512023925781 
 21 
 354.476782226563 
 31 
 0 
 0 
LINE
 10 
 99.1512023925781 
 20 
 354.476782226563 
 30 
 0 
 11 
 98.7328002929688 
 21 
 355.015209960938 
 31 
 0 
 0 
LINE
 10 
 98.7328002929688 
 20 
 355.015209960938 
 30 
 0 
 11 
 98.0695983886719 
 21 
 355.702416992188 
 31 
 0 
 0 
LINE
 10 
 98.0695983886719 
 20 
 355.702416992188 
 30 
 0 
 11 
 97.2 
 21 
 356.5 
 31 
 0 
 0 
LINE
 10 
 97.2 
 20 
 356.5 
 30 
 0 
 11 
 95.4656005859375 
 21 
 357.908813476563 
 31 
 0 
 0 
LINE
 10 
 95.4656005859375 
 20 
 357.908813476563 
 30 
 0 
 11 
 94.2928039550781 
 21 
 358.6744140625 
 31 
 0 
 0 
LINE
 10 
 94.2928039550781 
 20 
 358.6744140625 
 30 
 0 
 11 
 93.427197265625 
 21 
 358.825610351563 
 31 
 0 
 0 
LINE
 10 
 93.427197265625 
 20 
 358.825610351563 
 30 
 0 
 11 
 92.6143981933594 
 21 
 358.3912109375 
 31 
 0 
 0 
LINE
 10 
 92.6143981933594 
 20 
 358.3912109375 
 30 
 0 
 11 
 91.6 
 21 
 357.4 
 31 
 0 
 0 
LINE
 10 
 100.6 
 20 
 357.5 
 30 
 0 
 11 
 100.469598388672 
 21 
 356.92158203125 
 31 
 0 
 0 
LINE
 10 
 100.469598388672 
 20 
 356.92158203125 
 30 
 0 
 11 
 100.564794921875 
 21 
 356.496801757813 
 31 
 0 
 0 
LINE
 10 
 100.564794921875 
 20 
 356.496801757813 
 30 
 0 
 11 
 100.895196533203 
 21 
 356.211181640625 
 31 
 0 
 0 
LINE
 10 
 100.895196533203 
 20 
 356.211181640625 
 30 
 0 
 11 
 101.470397949219 
 21 
 356.050390625 
 31 
 0 
 0 
LINE
 10 
 101.470397949219 
 20 
 356.050390625 
 30 
 0 
 11 
 102.3 
 21 
 356 
 31 
 0 
 0 
LINE
 10 
 102.3 
 20 
 356 
 30 
 0 
 11 
 103.09599609375 
 21 
 355.9423828125 
 31 
 0 
 0 
LINE
 10 
 103.09599609375 
 20 
 355.9423828125 
 30 
 0 
 11 
 103.892004394531 
 21 
 355.77919921875 
 31 
 0 
 0 
LINE
 10 
 103.892004394531 
 20 
 355.77919921875 
 30 
 0 
 11 
 104.640002441406 
 21 
 355.5248046875 
 31 
 0 
 0 
LINE
 10 
 104.640002441406 
 20 
 355.5248046875 
 30 
 0 
 11 
 105.292004394531 
 21 
 355.193603515625 
 31 
 0 
 0 
LINE
 10 
 105.292004394531 
 20 
 355.193603515625 
 30 
 0 
 11 
 105.8 
 21 
 354.8 
 31 
 0 
 0 
LINE
 10 
 105.8 
 20 
 354.8 
 30 
 0 
 11 
 106.457592773438 
 21 
 354.311987304688 
 31 
 0 
 0 
LINE
 10 
 106.457592773438 
 20 
 354.311987304688 
 30 
 0 
 11 
 106.860803222656 
 21 
 354.376025390625 
 31 
 0 
 0 
LINE
 10 
 106.860803222656 
 20 
 354.376025390625 
 30 
 0 
 11 
 106.995202636719 
 21 
 354.944018554688 
 31 
 0 
 0 
LINE
 10 
 106.995202636719 
 20 
 354.944018554688 
 30 
 0 
 11 
 106.846398925781 
 21 
 355.968017578125 
 31 
 0 
 0 
LINE
 10 
 106.846398925781 
 20 
 355.968017578125 
 30 
 0 
 11 
 106.4 
 21 
 357.4 
 31 
 0 
 0 
LINE
 10 
 106.4 
 20 
 357.4 
 30 
 0 
 11 
 105.566394042969 
 21 
 358.37041015625 
 31 
 0 
 0 
LINE
 10 
 105.566394042969 
 20 
 358.37041015625 
 30 
 0 
 11 
 104.243200683594 
 21 
 358.875219726563 
 31 
 0 
 0 
LINE
 10 
 104.243200683594 
 20 
 358.875219726563 
 30 
 0 
 11 
 102.756799316406 
 21 
 358.904809570313 
 31 
 0 
 0 
LINE
 10 
 102.756799316406 
 20 
 358.904809570313 
 30 
 0 
 11 
 101.433605957031 
 21 
 358.449609375 
 31 
 0 
 0 
LINE
 10 
 101.433605957031 
 20 
 358.449609375 
 30 
 0 
 11 
 100.6 
 21 
 357.5 
 31 
 0 
 0 
LINE
 10 
 436.6 
 20 
 343 
 30 
 0 
 11 
 437.31279296875 
 21 
 342.683203125 
 31 
 0 
 0 
LINE
 10 
 437.31279296875 
 20 
 342.683203125 
 30 
 0 
 11 
 437.982421875 
 21 
 342.2416015625 
 31 
 0 
 0 
LINE
 10 
 437.982421875 
 20 
 342.2416015625 
 30 
 0 
 11 
 438.565576171875 
 21 
 341.718408203125 
 31 
 0 
 0 
LINE
 10 
 438.565576171875 
 20 
 341.718408203125 
 30 
 0 
 11 
 439.01923828125 
 21 
 341.156811523438 
 31 
 0 
 0 
LINE
 10 
 439.01923828125 
 20 
 341.156811523438 
 30 
 0 
 11 
 439.3 
 21 
 340.6 
 31 
 0 
 0 
LINE
 10 
 439.3 
 20 
 340.6 
 30 
 0 
 11 
 439.617626953125 
 21 
 340.08798828125 
 31 
 0 
 0 
LINE
 10 
 439.617626953125 
 20 
 340.08798828125 
 30 
 0 
 11 
 440.064794921875 
 21 
 339.647998046875 
 31 
 0 
 0 
LINE
 10 
 440.064794921875 
 20 
 339.647998046875 
 30 
 0 
 11 
 440.60322265625 
 21 
 339.30400390625 
 31 
 0 
 0 
LINE
 10 
 440.60322265625 
 20 
 339.30400390625 
 30 
 0 
 11 
 441.194384765625 
 21 
 339.080004882813 
 31 
 0 
 0 
LINE
 10 
 441.194384765625 
 20 
 339.080004882813 
 30 
 0 
 11 
 441.8 
 21 
 339 
 31 
 0 
 0 
LINE
 10 
 441.8 
 20 
 339 
 30 
 0 
 11 
 442.509619140625 
 21 
 338.886401367188 
 31 
 0 
 0 
LINE
 10 
 442.509619140625 
 20 
 338.886401367188 
 30 
 0 
 11 
 443.276806640625 
 21 
 338.57119140625 
 31 
 0 
 0 
LINE
 10 
 443.276806640625 
 20 
 338.57119140625 
 30 
 0 
 11 
 444.039208984375 
 21 
 338.092797851563 
 31 
 0 
 0 
LINE
 10 
 444.039208984375 
 20 
 338.092797851563 
 30 
 0 
 11 
 444.734423828125 
 21 
 337.489599609375 
 31 
 0 
 0 
LINE
 10 
 444.734423828125 
 20 
 337.489599609375 
 30 
 0 
 11 
 445.3 
 21 
 336.8 
 31 
 0 
 0 
LINE
 10 
 445.3 
 20 
 336.8 
 30 
 0 
 11 
 446.08076171875 
 21 
 335.704809570313 
 31 
 0 
 0 
LINE
 10 
 446.08076171875 
 20 
 335.704809570313 
 30 
 0 
 11 
 446.554443359375 
 21 
 335.214428710938 
 31 
 0 
 0 
LINE
 10 
 446.554443359375 
 20 
 335.214428710938 
 30 
 0 
 11 
 446.797607421875 
 21 
 335.381591796875 
 31 
 0 
 0 
LINE
 10 
 446.797607421875 
 20 
 335.381591796875 
 30 
 0 
 11 
 446.88720703125 
 21 
 336.259204101563 
 31 
 0 
 0 
LINE
 10 
 446.88720703125 
 20 
 336.259204101563 
 30 
 0 
 11 
 446.9 
 21 
 337.9 
 31 
 0 
 0 
LINE
 10 
 446.9 
 20 
 337.9 
 30 
 0 
 11 
 446.904833984375 
 21 
 339.468774414063 
 31 
 0 
 0 
LINE
 10 
 446.904833984375 
 20 
 339.468774414063 
 30 
 0 
 11 
 446.722412109375 
 21 
 340.418408203125 
 31 
 0 
 0 
LINE
 10 
 446.722412109375 
 20 
 340.418408203125 
 30 
 0 
 11 
 446.23759765625 
 21 
 340.873608398438 
 31 
 0 
 0 
LINE
 10 
 446.23759765625 
 20 
 340.873608398438 
 30 
 0 
 11 
 445.335205078125 
 21 
 340.959204101563 
 31 
 0 
 0 
LINE
 10 
 445.335205078125 
 20 
 340.959204101563 
 30 
 0 
 11 
 443.9 
 21 
 340.8 
 31 
 0 
 0 
LINE
 10 
 443.9 
 20 
 340.8 
 30 
 0 
 11 
 442.695166015625 
 21 
 340.657592773438 
 31 
 0 
 0 
LINE
 10 
 442.695166015625 
 20 
 340.657592773438 
 30 
 0 
 11 
 441.701611328125 
 21 
 340.716821289063 
 31 
 0 
 0 
LINE
 10 
 441.701611328125 
 20 
 340.716821289063 
 30 
 0 
 11 
 440.890380859375 
 21 
 340.98720703125 
 31 
 0 
 0 
LINE
 10 
 440.890380859375 
 20 
 340.98720703125 
 30 
 0 
 11 
 440.2328125 
 21 
 341.478393554688 
 31 
 0 
 0 
LINE
 10 
 440.2328125 
 20 
 341.478393554688 
 30 
 0 
 11 
 439.7 
 21 
 342.2 
 31 
 0 
 0 
LINE
 10 
 439.7 
 20 
 342.2 
 30 
 0 
 11 
 439.20400390625 
 21 
 342.770385742188 
 31 
 0 
 0 
LINE
 10 
 439.20400390625 
 20 
 342.770385742188 
 30 
 0 
 11 
 438.58798828125 
 21 
 343.259204101563 
 31 
 0 
 0 
LINE
 10 
 438.58798828125 
 20 
 343.259204101563 
 30 
 0 
 11 
 437.9 
 21 
 343.632788085938 
 31 
 0 
 0 
LINE
 10 
 437.9 
 20 
 343.632788085938 
 30 
 0 
 11 
 437.18798828125 
 21 
 343.8576171875 
 31 
 0 
 0 
LINE
 10 
 437.18798828125 
 20 
 343.8576171875 
 30 
 0 
 11 
 436.5 
 21 
 343.9 
 31 
 0 
 0 
LINE
 10 
 436.5 
 20 
 343.9 
 30 
 0 
 11 
 435.588818359375 
 21 
 343.883178710938 
 31 
 0 
 0 
LINE
 10 
 435.588818359375 
 20 
 343.883178710938 
 30 
 0 
 11 
 435.138427734375 
 21 
 343.813598632813 
 31 
 0 
 0 
LINE
 10 
 435.138427734375 
 20 
 343.813598632813 
 30 
 0 
 11 
 435.15361328125 
 21 
 343.66240234375 
 31 
 0 
 0 
LINE
 10 
 435.15361328125 
 20 
 343.66240234375 
 30 
 0 
 11 
 435.639208984375 
 21 
 343.400805664063 
 31 
 0 
 0 
LINE
 10 
 435.639208984375 
 20 
 343.400805664063 
 30 
 0 
 11 
 436.6 
 21 
 343 
 31 
 0 
 0 
LINE
 10 
 418.4 
 20 
 342.2 
 30 
 0 
 11 
 418.02158203125 
 21 
 341.881591796875 
 31 
 0 
 0 
LINE
 10 
 418.02158203125 
 20 
 341.881591796875 
 30 
 0 
 11 
 417.62880859375 
 21 
 341.42880859375 
 31 
 0 
 0 
LINE
 10 
 417.62880859375 
 20 
 341.42880859375 
 30 
 0 
 11 
 417.255224609375 
 21 
 340.875219726563 
 31 
 0 
 0 
LINE
 10 
 417.255224609375 
 20 
 340.875219726563 
 30 
 0 
 11 
 416.934423828125 
 21 
 340.254418945313 
 31 
 0 
 0 
LINE
 10 
 416.934423828125 
 20 
 340.254418945313 
 30 
 0 
 11 
 416.7 
 21 
 339.6 
 31 
 0 
 0 
LINE
 10 
 416.7 
 20 
 339.6 
 30 
 0 
 11 
 416.356005859375 
 21 
 338.865600585938 
 31 
 0 
 0 
LINE
 10 
 416.356005859375 
 20 
 338.865600585938 
 30 
 0 
 11 
 416.01201171875 
 21 
 338.452783203125 
 31 
 0 
 0 
LINE
 10 
 416.01201171875 
 20 
 338.452783203125 
 30 
 0 
 11 
 415.62001953125 
 21 
 338.347192382813 
 31 
 0 
 0 
LINE
 10 
 415.62001953125 
 20 
 338.347192382813 
 30 
 0 
 11 
 415.131982421875 
 21 
 338.534399414063 
 31 
 0 
 0 
LINE
 10 
 415.131982421875 
 20 
 338.534399414063 
 30 
 0 
 11 
 414.5 
 21 
 339 
 31 
 0 
 0 
LINE
 10 
 414.5 
 20 
 339 
 30 
 0 
 11 
 413.971142578125 
 21 
 339.332788085938 
 31 
 0 
 0 
LINE
 10 
 413.971142578125 
 20 
 339.332788085938 
 30 
 0 
 11 
 413.26962890625 
 21 
 339.598388671875 
 31 
 0 
 0 
LINE
 10 
 413.26962890625 
 20 
 339.598388671875 
 30 
 0 
 11 
 412.46240234375 
 21 
 339.777587890625 
 31 
 0 
 0 
LINE
 10 
 412.46240234375 
 20 
 339.777587890625 
 30 
 0 
 11 
 411.616796875 
 21 
 339.851196289063 
 31 
 0 
 0 
LINE
 10 
 411.616796875 
 20 
 339.851196289063 
 30 
 0 
 11 
 410.8 
 21 
 339.8 
 31 
 0 
 0 
LINE
 10 
 410.8 
 20 
 339.8 
 30 
 0 
 11 
 409.86796875 
 21 
 339.60078125 
 31 
 0 
 0 
LINE
 10 
 409.86796875 
 20 
 339.60078125 
 30 
 0 
 11 
 409.2 
 21 
 339.214428710938 
 31 
 0 
 0 
LINE
 10 
 409.2 
 20 
 339.214428710938 
 30 
 0 
 11 
 408.747998046875 
 21 
 338.597607421875 
 31 
 0 
 0 
LINE
 10 
 408.747998046875 
 20 
 338.597607421875 
 30 
 0 
 11 
 408.464013671875 
 21 
 337.707202148438 
 31 
 0 
 0 
LINE
 10 
 408.464013671875 
 20 
 337.707202148438 
 30 
 0 
 11 
 408.3 
 21 
 336.5 
 31 
 0 
 0 
LINE
 10 
 408.3 
 20 
 336.5 
 30 
 0 
 11 
 408.273583984375 
 21 
 335.664794921875 
 31 
 0 
 0 
LINE
 10 
 408.273583984375 
 20 
 335.664794921875 
 30 
 0 
 11 
 408.304809570313 
 21 
 335.098413085938 
 31 
 0 
 0 
LINE
 10 
 408.304809570313 
 20 
 335.098413085938 
 30 
 0 
 11 
 408.37919921875 
 21 
 334.829614257813 
 31 
 0 
 0 
LINE
 10 
 408.37919921875 
 20 
 334.829614257813 
 30 
 0 
 11 
 408.482397460938 
 21 
 334.88720703125 
 31 
 0 
 0 
LINE
 10 
 408.482397460938 
 20 
 334.88720703125 
 30 
 0 
 11 
 408.6 
 21 
 335.3 
 31 
 0 
 0 
LINE
 10 
 408.6 
 20 
 335.3 
 30 
 0 
 11 
 408.943188476563 
 21 
 335.937573242188 
 31 
 0 
 0 
LINE
 10 
 408.943188476563 
 20 
 335.937573242188 
 30 
 0 
 11 
 409.521606445313 
 21 
 336.416796875 
 31 
 0 
 0 
LINE
 10 
 409.521606445313 
 20 
 336.416796875 
 30 
 0 
 11 
 410.378369140625 
 21 
 336.747216796875 
 31 
 0 
 0 
LINE
 10 
 410.378369140625 
 20 
 336.747216796875 
 30 
 0 
 11 
 411.556787109375 
 21 
 336.938403320313 
 31 
 0 
 0 
LINE
 10 
 411.556787109375 
 20 
 336.938403320313 
 30 
 0 
 11 
 413.1 
 21 
 337 
 31 
 0 
 0 
LINE
 10 
 413.1 
 20 
 337 
 30 
 0 
 11 
 414.350341796875 
 21 
 337.056811523438 
 31 
 0 
 0 
LINE
 10 
 414.350341796875 
 20 
 337.056811523438 
 30 
 0 
 11 
 415.423193359375 
 21 
 337.214404296875 
 31 
 0 
 0 
LINE
 10 
 415.423193359375 
 20 
 337.214404296875 
 30 
 0 
 11 
 416.260791015625 
 21 
 337.45361328125 
 31 
 0 
 0 
LINE
 10 
 416.260791015625 
 20 
 337.45361328125 
 30 
 0 
 11 
 416.805615234375 
 21 
 337.755200195313 
 31 
 0 
 0 
LINE
 10 
 416.805615234375 
 20 
 337.755200195313 
 30 
 0 
 11 
 417 
 21 
 338.1 
 31 
 0 
 0 
LINE
 10 
 417 
 20 
 338.1 
 30 
 0 
 11 
 417.1759765625 
 21 
 338.470385742188 
 31 
 0 
 0 
LINE
 10 
 417.1759765625 
 20 
 338.470385742188 
 30 
 0 
 11 
 417.68798828125 
 21 
 338.735229492188 
 31 
 0 
 0 
LINE
 10 
 417.68798828125 
 20 
 338.735229492188 
 30 
 0 
 11 
 418.51201171875 
 21 
 338.884814453125 
 31 
 0 
 0 
LINE
 10 
 418.51201171875 
 20 
 338.884814453125 
 30 
 0 
 11 
 419.6240234375 
 21 
 338.909594726563 
 31 
 0 
 0 
LINE
 10 
 419.6240234375 
 20 
 338.909594726563 
 30 
 0 
 11 
 421 
 21 
 338.8 
 31 
 0 
 0 
LINE
 10 
 421 
 20 
 338.8 
 30 
 0 
 11 
 424.9 
 21 
 338.5 
 31 
 0 
 0 
LINE
 10 
 424.9 
 20 
 338.5 
 30 
 0 
 11 
 422.8 
 21 
 340.7 
 31 
 0 
 0 
LINE
 10 
 422.8 
 20 
 340.7 
 30 
 0 
 11 
 421.61279296875 
 21 
 341.921606445313 
 31 
 0 
 0 
LINE
 10 
 421.61279296875 
 20 
 341.921606445313 
 30 
 0 
 11 
 420.718408203125 
 21 
 342.624829101563 
 31 
 0 
 0 
LINE
 10 
 420.718408203125 
 20 
 342.624829101563 
 30 
 0 
 11 
 419.977587890625 
 21 
 342.867211914063 
 31 
 0 
 0 
LINE
 10 
 419.977587890625 
 20 
 342.867211914063 
 30 
 0 
 11 
 419.251220703125 
 21 
 342.706396484375 
 31 
 0 
 0 
LINE
 10 
 419.251220703125 
 20 
 342.706396484375 
 30 
 0 
 11 
 418.4 
 21 
 342.2 
 31 
 0 
 0 
LINE
 10 
 105.7 
 20 
 334.3 
 30 
 0 
 11 
 105.473596191406 
 21 
 334.009594726563 
 31 
 0 
 0 
LINE
 10 
 105.473596191406 
 20 
 334.009594726563 
 30 
 0 
 11 
 105.280798339844 
 21 
 333.53681640625 
 31 
 0 
 0 
LINE
 10 
 105.280798339844 
 20 
 333.53681640625 
 30 
 0 
 11 
 105.131201171875 
 21 
 332.939208984375 
 31 
 0 
 0 
LINE
 10 
 105.131201171875 
 20 
 332.939208984375 
 30 
 0 
 11 
 105.034399414063 
 21 
 332.2744140625 
 31 
 0 
 0 
LINE
 10 
 105.034399414063 
 20 
 332.2744140625 
 30 
 0 
 11 
 105 
 21 
 331.6 
 31 
 0 
 0 
LINE
 10 
 105 
 20 
 331.6 
 30 
 0 
 11 
 105.026403808594 
 21 
 330.807177734375 
 31 
 0 
 0 
LINE
 10 
 105.026403808594 
 20 
 330.807177734375 
 30 
 0 
 11 
 105.115209960938 
 21 
 330.34560546875 
 31 
 0 
 0 
LINE
 10 
 105.115209960938 
 20 
 330.34560546875 
 30 
 0 
 11 
 105.280798339844 
 21 
 330.210400390625 
 31 
 0 
 0 
LINE
 10 
 105.280798339844 
 20 
 330.210400390625 
 30 
 0 
 11 
 105.53759765625 
 21 
 330.396801757813 
 31 
 0 
 0 
LINE
 10 
 105.53759765625 
 20 
 330.396801757813 
 30 
 0 
 11 
 105.9 
 21 
 330.9 
 31 
 0 
 0 
LINE
 10 
 105.9 
 20 
 330.9 
 30 
 0 
 11 
 106.332788085938 
 21 
 331.366381835938 
 31 
 0 
 0 
LINE
 10 
 106.332788085938 
 20 
 331.366381835938 
 30 
 0 
 11 
 106.914404296875 
 21 
 331.67919921875 
 31 
 0 
 0 
LINE
 10 
 106.914404296875 
 20 
 331.67919921875 
 30 
 0 
 11 
 107.649597167969 
 21 
 331.82880859375 
 31 
 0 
 0 
LINE
 10 
 107.649597167969 
 20 
 331.82880859375 
 30 
 0 
 11 
 108.543200683594 
 21 
 331.805615234375 
 31 
 0 
 0 
LINE
 10 
 108.543200683594 
 20 
 331.805615234375 
 30 
 0 
 11 
 109.6 
 21 
 331.6 
 31 
 0 
 0 
LINE
 10 
 109.6 
 20 
 331.6 
 30 
 0 
 11 
 110.952001953125 
 21 
 331.2744140625 
 31 
 0 
 0 
LINE
 10 
 110.952001953125 
 20 
 331.2744140625 
 30 
 0 
 11 
 111.680004882813 
 21 
 331.179174804688 
 31 
 0 
 0 
LINE
 10 
 111.680004882813 
 20 
 331.179174804688 
 30 
 0 
 11 
 111.832006835938 
 21 
 331.376782226563 
 31 
 0 
 0 
LINE
 10 
 111.832006835938 
 20 
 331.376782226563 
 30 
 0 
 11 
 111.455993652344 
 21 
 331.929614257813 
 31 
 0 
 0 
LINE
 10 
 111.455993652344 
 20 
 331.929614257813 
 30 
 0 
 11 
 110.6 
 21 
 332.9 
 31 
 0 
 0 
LINE
 10 
 110.6 
 20 
 332.9 
 30 
 0 
 11 
 109.476000976563 
 21 
 333.9671875 
 31 
 0 
 0 
LINE
 10 
 109.476000976563 
 20 
 333.9671875 
 30 
 0 
 11 
 108.4 
 21 
 334.645581054688 
 31 
 0 
 0 
LINE
 10 
 108.4 
 20 
 334.645581054688 
 30 
 0 
 11 
 107.39599609375 
 21 
 334.930419921875 
 31 
 0 
 0 
LINE
 10 
 107.39599609375 
 20 
 334.930419921875 
 30 
 0 
 11 
 106.488000488281 
 21 
 334.816796875 
 31 
 0 
 0 
LINE
 10 
 106.488000488281 
 20 
 334.816796875 
 30 
 0 
 11 
 105.7 
 21 
 334.3 
 31 
 0 
 0 
LINE
 10 
 113 
 20 
 333.6 
 30 
 0 
 11 
 113.162390136719 
 21 
 333.134375 
 31 
 0 
 0 
LINE
 10 
 113.162390136719 
 20 
 333.134375 
 30 
 0 
 11 
 113.627209472656 
 21 
 332.707202148438 
 31 
 0 
 0 
LINE
 10 
 113.627209472656 
 20 
 332.707202148438 
 30 
 0 
 11 
 114.360803222656 
 21 
 332.332788085938 
 31 
 0 
 0 
LINE
 10 
 114.360803222656 
 20 
 332.332788085938 
 30 
 0 
 11 
 115.329602050781 
 21 
 332.025610351563 
 31 
 0 
 0 
LINE
 10 
 115.329602050781 
 20 
 332.025610351563 
 30 
 0 
 11 
 116.5 
 21 
 331.8 
 31 
 0 
 0 
LINE
 10 
 116.5 
 20 
 331.8 
 30 
 0 
 11 
 118.107995605469 
 21 
 331.628784179688 
 31 
 0 
 0 
LINE
 10 
 118.107995605469 
 20 
 331.628784179688 
 30 
 0 
 11 
 119.020007324219 
 21 
 331.630395507813 
 31 
 0 
 0 
LINE
 10 
 119.020007324219 
 20 
 331.630395507813 
 30 
 0 
 11 
 119.3080078125 
 21 
 331.8576171875 
 31 
 0 
 0 
LINE
 10 
 119.3080078125 
 20 
 331.8576171875 
 30 
 0 
 11 
 119.044006347656 
 21 
 332.363208007813 
 31 
 0 
 0 
LINE
 10 
 119.044006347656 
 20 
 332.363208007813 
 30 
 0 
 11 
 118.3 
 21 
 333.2 
 31 
 0 
 0 
LINE
 10 
 118.3 
 20 
 333.2 
 30 
 0 
 11 
 117.019201660156 
 21 
 334.239990234375 
 31 
 0 
 0 
LINE
 10 
 117.019201660156 
 20 
 334.239990234375 
 30 
 0 
 11 
 115.613598632813 
 21 
 334.823999023438 
 31 
 0 
 0 
LINE
 10 
 115.613598632813 
 20 
 334.823999023438 
 30 
 0 
 11 
 114.318408203125 
 21 
 334.928002929688 
 31 
 0 
 0 
LINE
 10 
 114.318408203125 
 20 
 334.928002929688 
 30 
 0 
 11 
 113.368798828125 
 21 
 334.528002929688 
 31 
 0 
 0 
LINE
 10 
 113.368798828125 
 20 
 334.528002929688 
 30 
 0 
 11 
 113 
 21 
 333.6 
 31 
 0 
 0 
LINE
 10 
 387.8 
 20 
 330.3 
 30 
 0 
 11 
 387.686376953125 
 21 
 329.573583984375 
 31 
 0 
 0 
LINE
 10 
 387.686376953125 
 20 
 329.573583984375 
 30 
 0 
 11 
 387.851220703125 
 21 
 329.048828125 
 31 
 0 
 0 
LINE
 10 
 387.851220703125 
 20 
 329.048828125 
 30 
 0 
 11 
 388.3328125 
 21 
 328.68720703125 
 31 
 0 
 0 
LINE
 10 
 388.3328125 
 20 
 328.68720703125 
 30 
 0 
 11 
 389.169604492188 
 21 
 328.450415039063 
 31 
 0 
 0 
LINE
 10 
 389.169604492188 
 20 
 328.450415039063 
 30 
 0 
 11 
 390.4 
 21 
 328.3 
 31 
 0 
 0 
LINE
 10 
 390.4 
 20 
 328.3 
 30 
 0 
 11 
 393.677587890625 
 21 
 328.019189453125 
 31 
 0 
 0 
LINE
 10 
 393.677587890625 
 20 
 328.019189453125 
 30 
 0 
 11 
 396.772802734375 
 21 
 327.565625 
 31 
 0 
 0 
LINE
 10 
 396.772802734375 
 20 
 327.565625 
 30 
 0 
 11 
 399.47919921875 
 21 
 326.982421875 
 31 
 0 
 0 
LINE
 10 
 399.47919921875 
 20 
 326.982421875 
 30 
 0 
 11 
 401.590405273438 
 21 
 326.312817382813 
 31 
 0 
 0 
LINE
 10 
 401.590405273438 
 20 
 326.312817382813 
 30 
 0 
 11 
 402.9 
 21 
 325.6 
 31 
 0 
 0 
LINE
 10 
 402.9 
 20 
 325.6 
 30 
 0 
 11 
 403.491967773438 
 21 
 325.183203125 
 31 
 0 
 0 
LINE
 10 
 403.491967773438 
 20 
 325.183203125 
 30 
 0 
 11 
 403.844018554688 
 21 
 325.025610351563 
 31 
 0 
 0 
LINE
 10 
 403.844018554688 
 20 
 325.025610351563 
 30 
 0 
 11 
 403.980029296875 
 21 
 325.146411132813 
 31 
 0 
 0 
LINE
 10 
 403.980029296875 
 20 
 325.146411132813 
 30 
 0 
 11 
 403.9240234375 
 21 
 325.564794921875 
 31 
 0 
 0 
LINE
 10 
 403.9240234375 
 20 
 325.564794921875 
 30 
 0 
 11 
 403.7 
 21 
 326.3 
 31 
 0 
 0 
LINE
 10 
 403.7 
 20 
 326.3 
 30 
 0 
 11 
 403.473583984375 
 21 
 326.927172851563 
 31 
 0 
 0 
LINE
 10 
 403.473583984375 
 20 
 326.927172851563 
 30 
 0 
 11 
 403.280810546875 
 21 
 327.5736328125 
 31 
 0 
 0 
LINE
 10 
 403.280810546875 
 20 
 327.5736328125 
 30 
 0 
 11 
 403.131201171875 
 21 
 328.186401367188 
 31 
 0 
 0 
LINE
 10 
 403.131201171875 
 20 
 328.186401367188 
 30 
 0 
 11 
 403.034399414063 
 21 
 328.712817382813 
 31 
 0 
 0 
LINE
 10 
 403.034399414063 
 20 
 328.712817382813 
 30 
 0 
 11 
 403 
 21 
 329.1 
 31 
 0 
 0 
LINE
 10 
 403 
 20 
 329.1 
 30 
 0 
 11 
 402.531982421875 
 21 
 329.703198242188 
 31 
 0 
 0 
LINE
 10 
 402.531982421875 
 20 
 329.703198242188 
 30 
 0 
 11 
 401.367993164063 
 21 
 329.965625 
 31 
 0 
 0 
LINE
 10 
 401.367993164063 
 20 
 329.965625 
 30 
 0 
 11 
 399.867993164063 
 21 
 329.906396484375 
 31 
 0 
 0 
LINE
 10 
 399.867993164063 
 20 
 329.906396484375 
 30 
 0 
 11 
 398.392016601563 
 21 
 329.544799804688 
 31 
 0 
 0 
LINE
 10 
 398.392016601563 
 20 
 329.544799804688 
 30 
 0 
 11 
 397.3 
 21 
 328.9 
 31 
 0 
 0 
LINE
 10 
 397.3 
 20 
 328.9 
 30 
 0 
 11 
 396.840771484375 
 21 
 328.552783203125 
 31 
 0 
 0 
LINE
 10 
 396.840771484375 
 20 
 328.552783203125 
 30 
 0 
 11 
 396.410424804688 
 21 
 328.474389648438 
 31 
 0 
 0 
LINE
 10 
 396.410424804688 
 20 
 328.474389648438 
 30 
 0 
 11 
 395.989599609375 
 21 
 328.669604492188 
 31 
 0 
 0 
LINE
 10 
 395.989599609375 
 20 
 328.669604492188 
 30 
 0 
 11 
 395.559204101563 
 21 
 329.143212890625 
 31 
 0 
 0 
LINE
 10 
 395.559204101563 
 20 
 329.143212890625 
 30 
 0 
 11 
 395.1 
 21 
 329.9 
 31 
 0 
 0 
LINE
 10 
 395.1 
 20 
 329.9 
 30 
 0 
 11 
 393.822387695313 
 21 
 331.218408203125 
 31 
 0 
 0 
LINE
 10 
 393.822387695313 
 20 
 331.218408203125 
 30 
 0 
 11 
 392.055200195313 
 21 
 331.927221679688 
 31 
 0 
 0 
LINE
 10 
 392.055200195313 
 20 
 331.927221679688 
 30 
 0 
 11 
 390.196801757813 
 21 
 332.016796875 
 31 
 0 
 0 
LINE
 10 
 390.196801757813 
 20 
 332.016796875 
 30 
 0 
 11 
 388.64560546875 
 21 
 331.477612304688 
 31 
 0 
 0 
LINE
 10 
 388.64560546875 
 20 
 331.477612304688 
 30 
 0 
 11 
 387.8 
 21 
 330.3 
 31 
 0 
 0 
LINE
 10 
 407 
 20 
 316.5 
 30 
 0 
 11 
 407.04560546875 
 21 
 316.036767578125 
 31 
 0 
 0 
LINE
 10 
 407.04560546875 
 20 
 316.036767578125 
 30 
 0 
 11 
 407.172778320313 
 21 
 315.626416015625 
 31 
 0 
 0 
LINE
 10 
 407.172778320313 
 20 
 315.626416015625 
 30 
 0 
 11 
 407.3671875 
 21 
 315.297607421875 
 31 
 0 
 0 
LINE
 10 
 407.3671875 
 20 
 315.297607421875 
 30 
 0 
 11 
 407.614404296875 
 21 
 315.07919921875 
 31 
 0 
 0 
LINE
 10 
 407.614404296875 
 20 
 315.07919921875 
 30 
 0 
 11 
 407.9 
 21 
 315 
 31 
 0 
 0 
LINE
 10 
 407.9 
 20 
 315 
 30 
 0 
 11 
 408.33359375 
 21 
 314.9423828125 
 31 
 0 
 0 
LINE
 10 
 408.33359375 
 20 
 314.9423828125 
 30 
 0 
 11 
 408.992822265625 
 21 
 314.77919921875 
 31 
 0 
 0 
LINE
 10 
 408.992822265625 
 20 
 314.77919921875 
 30 
 0 
 11 
 409.815185546875 
 21 
 314.5248046875 
 31 
 0 
 0 
LINE
 10 
 409.815185546875 
 20 
 314.5248046875 
 30 
 0 
 11 
 410.738427734375 
 21 
 314.193603515625 
 31 
 0 
 0 
LINE
 10 
 410.738427734375 
 20 
 314.193603515625 
 30 
 0 
 11 
 411.7 
 21 
 313.8 
 31 
 0 
 0 
LINE
 10 
 411.7 
 20 
 313.8 
 30 
 0 
 11 
 412.681591796875 
 21 
 313.46640625 
 31 
 0 
 0 
LINE
 10 
 412.681591796875 
 20 
 313.46640625 
 30 
 0 
 11 
 413.768798828125 
 21 
 313.19521484375 
 31 
 0 
 0 
LINE
 10 
 413.768798828125 
 20 
 313.19521484375 
 30 
 0 
 11 
 414.8751953125 
 21 
 313.000805664063 
 31 
 0 
 0 
LINE
 10 
 414.8751953125 
 20 
 313.000805664063 
 30 
 0 
 11 
 415.914404296875 
 21 
 312.897607421875 
 31 
 0 
 0 
LINE
 10 
 415.914404296875 
 20 
 312.897607421875 
 30 
 0 
 11 
 416.8 
 21 
 312.9 
 31 
 0 
 0 
LINE
 10 
 416.8 
 20 
 312.9 
 30 
 0 
 11 
 417.618359375 
 21 
 312.906396484375 
 31 
 0 
 0 
LINE
 10 
 417.618359375 
 20 
 312.906396484375 
 30 
 0 
 11 
 418.4751953125 
 21 
 312.711181640625 
 31 
 0 
 0 
LINE
 10 
 418.4751953125 
 20 
 312.711181640625 
 30 
 0 
 11 
 419.31279296875 
 21 
 312.352783203125 
 31 
 0 
 0 
LINE
 10 
 419.31279296875 
 20 
 312.352783203125 
 30 
 0 
 11 
 420.073583984375 
 21 
 311.869604492188 
 31 
 0 
 0 
LINE
 10 
 420.073583984375 
 20 
 311.869604492188 
 30 
 0 
 11 
 420.7 
 21 
 311.3 
 31 
 0 
 0 
LINE
 10 
 420.7 
 20 
 311.3 
 30 
 0 
 11 
 421.37919921875 
 21 
 310.499169921875 
 31 
 0 
 0 
LINE
 10 
 421.37919921875 
 20 
 310.499169921875 
 30 
 0 
 11 
 421.765625 
 21 
 310.149609375 
 31 
 0 
 0 
LINE
 10 
 421.765625 
 20 
 310.149609375 
 30 
 0 
 11 
 421.902392578125 
 21 
 310.27041015625 
 31 
 0 
 0 
LINE
 10 
 421.902392578125 
 20 
 310.27041015625 
 30 
 0 
 11 
 421.8328125 
 21 
 310.880810546875 
 31 
 0 
 0 
LINE
 10 
 421.8328125 
 20 
 310.880810546875 
 30 
 0 
 11 
 421.6 
 21 
 312 
 31 
 0 
 0 
LINE
 10 
 421.6 
 20 
 312 
 30 
 0 
 11 
 421.422412109375 
 21 
 312.8328125 
 31 
 0 
 0 
LINE
 10 
 421.422412109375 
 20 
 312.8328125 
 30 
 0 
 11 
 421.2591796875 
 21 
 313.622412109375 
 31 
 0 
 0 
LINE
 10 
 421.2591796875 
 20 
 313.622412109375 
 30 
 0 
 11 
 421.1248046875 
 21 
 314.325610351563 
 31 
 0 
 0 
LINE
 10 
 421.1248046875 
 20 
 314.325610351563 
 30 
 0 
 11 
 421.03359375 
 21 
 314.89921875 
 31 
 0 
 0 
LINE
 10 
 421.03359375 
 20 
 314.89921875 
 30 
 0 
 11 
 421 
 21 
 315.3 
 31 
 0 
 0 
LINE
 10 
 421 
 20 
 315.3 
 30 
 0 
 11 
 420.636767578125 
 21 
 315.806396484375 
 31 
 0 
 0 
LINE
 10 
 420.636767578125 
 20 
 315.806396484375 
 30 
 0 
 11 
 419.726416015625 
 21 
 316.015209960938 
 31 
 0 
 0 
LINE
 10 
 419.726416015625 
 20 
 316.015209960938 
 30 
 0 
 11 
 418.53759765625 
 21 
 315.9408203125 
 31 
 0 
 0 
LINE
 10 
 418.53759765625 
 20 
 315.9408203125 
 30 
 0 
 11 
 417.339208984375 
 21 
 315.597607421875 
 31 
 0 
 0 
LINE
 10 
 417.339208984375 
 20 
 315.597607421875 
 30 
 0 
 11 
 416.4 
 21 
 315 
 31 
 0 
 0 
LINE
 10 
 416.4 
 20 
 315 
 30 
 0 
 11 
 415.95439453125 
 21 
 314.700805664063 
 31 
 0 
 0 
LINE
 10 
 415.95439453125 
 20 
 314.700805664063 
 30 
 0 
 11 
 415.451220703125 
 21 
 314.646411132813 
 31 
 0 
 0 
LINE
 10 
 415.451220703125 
 20 
 314.646411132813 
 30 
 0 
 11 
 414.880810546875 
 21 
 314.8416015625 
 31 
 0 
 0 
LINE
 10 
 414.880810546875 
 20 
 314.8416015625 
 30 
 0 
 11 
 414.23359375 
 21 
 315.2912109375 
 31 
 0 
 0 
LINE
 10 
 414.23359375 
 20 
 315.2912109375 
 30 
 0 
 11 
 413.5 
 21 
 316 
 31 
 0 
 0 
LINE
 10 
 413.5 
 20 
 316 
 30 
 0 
 11 
 412.017578125 
 21 
 317.184790039063 
 31 
 0 
 0 
LINE
 10 
 412.017578125 
 20 
 317.184790039063 
 30 
 0 
 11 
 410.304833984375 
 21 
 317.846411132813 
 31 
 0 
 0 
LINE
 10 
 410.304833984375 
 20 
 317.846411132813 
 30 
 0 
 11 
 408.683203125 
 21 
 317.965600585938 
 31 
 0 
 0 
LINE
 10 
 408.683203125 
 20 
 317.965600585938 
 30 
 0 
 11 
 407.4744140625 
 21 
 317.523193359375 
 31 
 0 
 0 
LINE
 10 
 407.4744140625 
 20 
 317.523193359375 
 30 
 0 
 11 
 407 
 21 
 316.5 
 31 
 0 
 0 
LINE
 10 
 116.7 
 20 
 311.1 
 30 
 0 
 11 
 116.582397460938 
 21 
 310.378393554688 
 31 
 0 
 0 
LINE
 10 
 116.582397460938 
 20 
 310.378393554688 
 30 
 0 
 11 
 116.599206542969 
 21 
 309.88720703125 
 31 
 0 
 0 
LINE
 10 
 116.599206542969 
 20 
 309.88720703125 
 30 
 0 
 11 
 116.764807128906 
 21 
 309.616821289063 
 31 
 0 
 0 
LINE
 10 
 116.764807128906 
 20 
 309.616821289063 
 30 
 0 
 11 
 117.093603515625 
 21 
 309.5576171875 
 31 
 0 
 0 
LINE
 10 
 117.093603515625 
 20 
 309.5576171875 
 30 
 0 
 11 
 117.6 
 21 
 309.7 
 31 
 0 
 0 
LINE
 10 
 117.6 
 20 
 309.7 
 30 
 0 
 11 
 118.131994628906 
 21 
 309.809594726563 
 31 
 0 
 0 
LINE
 10 
 118.131994628906 
 20 
 309.809594726563 
 30 
 0 
 11 
 118.735998535156 
 21 
 309.784814453125 
 31 
 0 
 0 
LINE
 10 
 118.735998535156 
 20 
 309.784814453125 
 30 
 0 
 11 
 119.364001464844 
 21 
 309.635180664063 
 31 
 0 
 0 
LINE
 10 
 119.364001464844 
 20 
 309.635180664063 
 30 
 0 
 11 
 119.968005371094 
 21 
 309.37041015625 
 31 
 0 
 0 
LINE
 10 
 119.968005371094 
 20 
 309.37041015625 
 30 
 0 
 11 
 120.5 
 21 
 309 
 31 
 0 
 0 
LINE
 10 
 120.5 
 20 
 309 
 30 
 0 
 11 
 121.596801757813 
 21 
 308.30478515625 
 31 
 0 
 0 
LINE
 10 
 121.596801757813 
 20 
 308.30478515625 
 30 
 0 
 11 
 122.338391113281 
 21 
 308.214404296875 
 31 
 0 
 0 
LINE
 10 
 122.338391113281 
 20 
 308.214404296875 
 30 
 0 
 11 
 122.681604003906 
 21 
 308.661596679688 
 31 
 0 
 0 
LINE
 10 
 122.681604003906 
 20 
 308.661596679688 
 30 
 0 
 11 
 122.583203125 
 21 
 309.57919921875 
 31 
 0 
 0 
LINE
 10 
 122.583203125 
 20 
 309.57919921875 
 30 
 0 
 11 
 122 
 21 
 310.9 
 31 
 0 
 0 
LINE
 10 
 122 
 20 
 310.9 
 30 
 0 
 11 
 120.978405761719 
 21 
 312.1591796875 
 31 
 0 
 0 
LINE
 10 
 120.978405761719 
 20 
 312.1591796875 
 30 
 0 
 11 
 119.731201171875 
 21 
 312.813598632813 
 31 
 0 
 0 
LINE
 10 
 119.731201171875 
 20 
 312.813598632813 
 30 
 0 
 11 
 118.464807128906 
 21 
 312.8583984375 
 31 
 0 
 0 
LINE
 10 
 118.464807128906 
 20 
 312.8583984375 
 30 
 0 
 11 
 117.385607910156 
 21 
 312.288818359375 
 31 
 0 
 0 
LINE
 10 
 117.385607910156 
 20 
 312.288818359375 
 30 
 0 
 11 
 116.7 
 21 
 311.1 
 31 
 0 
 0 
LINE
 10 
 124.7 
 20 
 310.3 
 30 
 0 
 11 
 124.657592773438 
 21 
 309.93359375 
 31 
 0 
 0 
LINE
 10 
 124.657592773438 
 20 
 309.93359375 
 30 
 0 
 11 
 124.864807128906 
 21 
 309.456811523438 
 31 
 0 
 0 
LINE
 10 
 124.864807128906 
 20 
 309.456811523438 
 30 
 0 
 11 
 125.283203125 
 21 
 308.903198242188 
 31 
 0 
 0 
LINE
 10 
 125.283203125 
 20 
 308.903198242188 
 30 
 0 
 11 
 125.874401855469 
 21 
 308.306420898438 
 31 
 0 
 0 
LINE
 10 
 125.874401855469 
 20 
 308.306420898438 
 30 
 0 
 11 
 126.6 
 21 
 307.7 
 31 
 0 
 0 
LINE
 10 
 126.6 
 20 
 307.7 
 30 
 0 
 11 
 127.814392089844 
 21 
 306.897607421875 
 31 
 0 
 0 
LINE
 10 
 127.814392089844 
 20 
 306.897607421875 
 30 
 0 
 11 
 128.58720703125 
 21 
 306.656811523438 
 31 
 0 
 0 
LINE
 10 
 128.58720703125 
 20 
 306.656811523438 
 30 
 0 
 11 
 128.932800292969 
 21 
 306.987182617188 
 31 
 0 
 0 
LINE
 10 
 128.932800292969 
 20 
 306.987182617188 
 30 
 0 
 11 
 128.865600585938 
 21 
 307.898413085938 
 31 
 0 
 0 
LINE
 10 
 128.865600585938 
 20 
 307.898413085938 
 30 
 0 
 11 
 128.4 
 21 
 309.4 
 31 
 0 
 0 
LINE
 10 
 128.4 
 20 
 309.4 
 30 
 0 
 11 
 127.861584472656 
 21 
 310.27119140625 
 31 
 0 
 0 
LINE
 10 
 127.861584472656 
 20 
 310.27119140625 
 30 
 0 
 11 
 127.068798828125 
 21 
 310.825610351563 
 31 
 0 
 0 
LINE
 10 
 127.068798828125 
 20 
 310.825610351563 
 30 
 0 
 11 
 126.1751953125 
 21 
 311.034399414063 
 31 
 0 
 0 
LINE
 10 
 126.1751953125 
 20 
 311.034399414063 
 30 
 0 
 11 
 125.334399414063 
 21 
 310.868798828125 
 31 
 0 
 0 
LINE
 10 
 125.334399414063 
 20 
 310.868798828125 
 30 
 0 
 11 
 124.7 
 21 
 310.3 
 31 
 0 
 0 
LINE
 10 
 398 
 20 
 301.5 
 30 
 0 
 11 
 397.25439453125 
 21 
 300.48720703125 
 31 
 0 
 0 
LINE
 10 
 397.25439453125 
 20 
 300.48720703125 
 30 
 0 
 11 
 397.09921875 
 21 
 299.829614257813 
 31 
 0 
 0 
LINE
 10 
 397.09921875 
 20 
 299.829614257813 
 30 
 0 
 11 
 397.596801757813 
 21 
 299.498388671875 
 31 
 0 
 0 
LINE
 10 
 397.596801757813 
 20 
 299.498388671875 
 30 
 0 
 11 
 398.809619140625 
 21 
 299.464794921875 
 31 
 0 
 0 
LINE
 10 
 398.809619140625 
 20 
 299.464794921875 
 30 
 0 
 11 
 400.8 
 21 
 299.7 
 31 
 0 
 0 
LINE
 10 
 400.8 
 20 
 299.7 
 30 
 0 
 11 
 402.103173828125 
 21 
 299.945581054688 
 31 
 0 
 0 
LINE
 10 
 402.103173828125 
 20 
 299.945581054688 
 30 
 0 
 11 
 402.921606445313 
 21 
 300.2248046875 
 31 
 0 
 0 
LINE
 10 
 402.921606445313 
 20 
 300.2248046875 
 30 
 0 
 11 
 403.298413085938 
 21 
 300.57119140625 
 31 
 0 
 0 
LINE
 10 
 403.298413085938 
 20 
 300.57119140625 
 30 
 0 
 11 
 403.276806640625 
 21 
 301.018408203125 
 31 
 0 
 0 
LINE
 10 
 403.276806640625 
 20 
 301.018408203125 
 30 
 0 
 11 
 402.9 
 21 
 301.6 
 31 
 0 
 0 
LINE
 10 
 402.9 
 20 
 301.6 
 30 
 0 
 11 
 401.967993164063 
 21 
 302.46318359375 
 31 
 0 
 0 
LINE
 10 
 401.967993164063 
 20 
 302.46318359375 
 30 
 0 
 11 
 400.988012695313 
 21 
 302.889599609375 
 31 
 0 
 0 
LINE
 10 
 400.988012695313 
 20 
 302.889599609375 
 30 
 0 
 11 
 399.984008789063 
 21 
 302.874389648438 
 31 
 0 
 0 
LINE
 10 
 399.984008789063 
 20 
 302.874389648438 
 30 
 0 
 11 
 398.980004882813 
 21 
 302.412817382813 
 31 
 0 
 0 
LINE
 10 
 398.980004882813 
 20 
 302.412817382813 
 30 
 0 
 11 
 398 
 21 
 301.5 
 31 
 0 
 0 
LINE
 10 
 388.5 
 20 
 298.1 
 30 
 0 
 11 
 388.295190429688 
 21 
 297.330395507813 
 31 
 0 
 0 
LINE
 10 
 388.295190429688 
 20 
 297.330395507813 
 30 
 0 
 11 
 388.63759765625 
 21 
 296.815209960938 
 31 
 0 
 0 
LINE
 10 
 388.63759765625 
 20 
 296.815209960938 
 30 
 0 
 11 
 389.522412109375 
 21 
 296.544799804688 
 31 
 0 
 0 
LINE
 10 
 389.522412109375 
 20 
 296.544799804688 
 30 
 0 
 11 
 390.944799804688 
 21 
 296.509594726563 
 31 
 0 
 0 
LINE
 10 
 390.944799804688 
 20 
 296.509594726563 
 30 
 0 
 11 
 392.9 
 21 
 296.7 
 31 
 0 
 0 
LINE
 10 
 392.9 
 20 
 296.7 
 30 
 0 
 11 
 394.077587890625 
 21 
 296.941577148438 
 31 
 0 
 0 
LINE
 10 
 394.077587890625 
 20 
 296.941577148438 
 30 
 0 
 11 
 394.856811523438 
 21 
 297.192797851563 
 31 
 0 
 0 
LINE
 10 
 394.856811523438 
 20 
 297.192797851563 
 30 
 0 
 11 
 395.247216796875 
 21 
 297.46318359375 
 31 
 0 
 0 
LINE
 10 
 395.247216796875 
 20 
 297.46318359375 
 30 
 0 
 11 
 395.258422851563 
 21 
 297.76240234375 
 31 
 0 
 0 
LINE
 10 
 395.258422851563 
 20 
 297.76240234375 
 30 
 0 
 11 
 394.9 
 21 
 298.1 
 31 
 0 
 0 
LINE
 10 
 394.9 
 20 
 298.1 
 30 
 0 
 11 
 393.581591796875 
 21 
 298.666357421875 
 31 
 0 
 0 
LINE
 10 
 393.581591796875 
 20 
 298.666357421875 
 30 
 0 
 11 
 392.056787109375 
 21 
 298.935205078125 
 31 
 0 
 0 
LINE
 10 
 392.056787109375 
 20 
 298.935205078125 
 30 
 0 
 11 
 390.551220703125 
 21 
 298.92080078125 
 31 
 0 
 0 
LINE
 10 
 390.551220703125 
 20 
 298.92080078125 
 30 
 0 
 11 
 389.290405273438 
 21 
 298.63759765625 
 31 
 0 
 0 
LINE
 10 
 389.290405273438 
 20 
 298.63759765625 
 30 
 0 
 11 
 388.5 
 21 
 298.1 
 31 
 0 
 0 
LINE
 10 
 128.8 
 20 
 288.7 
 30 
 0 
 11 
 128.655200195313 
 21 
 287.696020507813 
 31 
 0 
 0 
LINE
 10 
 128.655200195313 
 20 
 287.696020507813 
 30 
 0 
 11 
 128.74560546875 
 21 
 287.052001953125 
 31 
 0 
 0 
LINE
 10 
 128.74560546875 
 20 
 287.052001953125 
 30 
 0 
 11 
 129.138403320313 
 21 
 286.719995117188 
 31 
 0 
 0 
LINE
 10 
 129.138403320313 
 20 
 286.719995117188 
 30 
 0 
 11 
 129.900805664063 
 21 
 286.652001953125 
 31 
 0 
 0 
LINE
 10 
 129.900805664063 
 20 
 286.652001953125 
 30 
 0 
 11 
 131.1 
 21 
 286.8 
 31 
 0 
 0 
LINE
 10 
 131.1 
 20 
 286.8 
 30 
 0 
 11 
 131.951989746094 
 21 
 286.861572265625 
 31 
 0 
 0 
LINE
 10 
 131.951989746094 
 20 
 286.861572265625 
 30 
 0 
 11 
 132.780004882813 
 21 
 286.812817382813 
 31 
 0 
 0 
LINE
 10 
 132.780004882813 
 20 
 286.812817382813 
 30 
 0 
 11 
 133.51201171875 
 21 
 286.663208007813 
 31 
 0 
 0 
LINE
 10 
 133.51201171875 
 20 
 286.663208007813 
 30 
 0 
 11 
 134.076000976563 
 21 
 286.422412109375 
 31 
 0 
 0 
LINE
 10 
 134.076000976563 
 20 
 286.422412109375 
 30 
 0 
 11 
 134.4 
 21 
 286.1 
 31 
 0 
 0 
LINE
 10 
 134.4 
 20 
 286.1 
 30 
 0 
 11 
 134.775183105469 
 21 
 285.789575195313 
 31 
 0 
 0 
LINE
 10 
 134.775183105469 
 20 
 285.789575195313 
 30 
 0 
 11 
 135.385607910156 
 21 
 285.584790039063 
 31 
 0 
 0 
LINE
 10 
 135.385607910156 
 20 
 285.584790039063 
 30 
 0 
 11 
 136.178393554688 
 21 
 285.495190429688 
 31 
 0 
 0 
LINE
 10 
 136.178393554688 
 20 
 285.495190429688 
 30 
 0 
 11 
 137.100805664063 
 21 
 285.530419921875 
 31 
 0 
 0 
LINE
 10 
 137.100805664063 
 20 
 285.530419921875 
 30 
 0 
 11 
 138.1 
 21 
 285.7 
 31 
 0 
 0 
LINE
 10 
 138.1 
 20 
 285.7 
 30 
 0 
 11 
 139.296801757813 
 21 
 285.852783203125 
 31 
 0 
 0 
LINE
 10 
 139.296801757813 
 20 
 285.852783203125 
 30 
 0 
 11 
 140.282397460938 
 21 
 285.818432617188 
 31 
 0 
 0 
LINE
 10 
 140.282397460938 
 20 
 285.818432617188 
 30 
 0 
 11 
 141.109606933594 
 21 
 285.577587890625 
 31 
 0 
 0 
LINE
 10 
 141.109606933594 
 20 
 285.577587890625 
 30 
 0 
 11 
 141.831201171875 
 21 
 285.111206054688 
 31 
 0 
 0 
LINE
 10 
 141.831201171875 
 20 
 285.111206054688 
 30 
 0 
 11 
 142.5 
 21 
 284.4 
 31 
 0 
 0 
LINE
 10 
 142.5 
 20 
 284.4 
 30 
 0 
 11 
 143.14560546875 
 21 
 283.556811523438 
 31 
 0 
 0 
LINE
 10 
 143.14560546875 
 20 
 283.556811523438 
 30 
 0 
 11 
 143.560803222656 
 21 
 283.222412109375 
 31 
 0 
 0 
LINE
 10 
 143.560803222656 
 20 
 283.222412109375 
 30 
 0 
 11 
 143.803198242188 
 21 
 283.449609375 
 31 
 0 
 0 
LINE
 10 
 143.803198242188 
 20 
 283.449609375 
 30 
 0 
 11 
 143.930407714844 
 21 
 284.2912109375 
 31 
 0 
 0 
LINE
 10 
 143.930407714844 
 20 
 284.2912109375 
 30 
 0 
 11 
 144 
 21 
 285.8 
 31 
 0 
 0 
LINE
 10 
 144 
 20 
 285.8 
 30 
 0 
 11 
 143.943200683594 
 21 
 287.169604492188 
 31 
 0 
 0 
LINE
 10 
 143.943200683594 
 20 
 287.169604492188 
 30 
 0 
 11 
 143.73759765625 
 21 
 288.092797851563 
 31 
 0 
 0 
LINE
 10 
 143.73759765625 
 20 
 288.092797851563 
 30 
 0 
 11 
 143.330395507813 
 21 
 288.651196289063 
 31 
 0 
 0 
LINE
 10 
 143.330395507813 
 20 
 288.651196289063 
 30 
 0 
 11 
 142.668811035156 
 21 
 288.926416015625 
 31 
 0 
 0 
LINE
 10 
 142.668811035156 
 20 
 288.926416015625 
 30 
 0 
 11 
 141.7 
 21 
 289 
 31 
 0 
 0 
LINE
 10 
 141.7 
 20 
 289 
 30 
 0 
 11 
 140.905603027344 
 21 
 288.943994140625 
 31 
 0 
 0 
LINE
 10 
 140.905603027344 
 20 
 288.943994140625 
 30 
 0 
 11 
 140.120812988281 
 21 
 288.792016601563 
 31 
 0 
 0 
LINE
 10 
 140.120812988281 
 20 
 288.792016601563 
 30 
 0 
 11 
 139.403198242188 
 21 
 288.567993164063 
 31 
 0 
 0 
LINE
 10 
 139.403198242188 
 20 
 288.567993164063 
 30 
 0 
 11 
 138.810400390625 
 21 
 288.296020507813 
 31 
 0 
 0 
LINE
 10 
 138.810400390625 
 20 
 288.296020507813 
 30 
 0 
 11 
 138.4 
 21 
 288 
 31 
 0 
 0 
LINE
 10 
 138.4 
 20 
 288 
 30 
 0 
 11 
 137.95439453125 
 21 
 287.700805664063 
 31 
 0 
 0 
LINE
 10 
 137.95439453125 
 20 
 287.700805664063 
 30 
 0 
 11 
 137.451208496094 
 21 
 287.64638671875 
 31 
 0 
 0 
LINE
 10 
 137.451208496094 
 20 
 287.64638671875 
 30 
 0 
 11 
 136.880810546875 
 21 
 287.8416015625 
 31 
 0 
 0 
LINE
 10 
 136.880810546875 
 20 
 287.8416015625 
 30 
 0 
 11 
 136.233605957031 
 21 
 288.2912109375 
 31 
 0 
 0 
LINE
 10 
 136.233605957031 
 20 
 288.2912109375 
 30 
 0 
 11 
 135.5 
 21 
 289 
 31 
 0 
 0 
LINE
 10 
 135.5 
 20 
 289 
 30 
 0 
 11 
 133.900793457031 
 21 
 290.322387695313 
 31 
 0 
 0 
LINE
 10 
 133.900793457031 
 20 
 290.322387695313 
 30 
 0 
 11 
 132.234399414063 
 21 
 290.939208984375 
 31 
 0 
 0 
LINE
 10 
 132.234399414063 
 20 
 290.939208984375 
 30 
 0 
 11 
 130.697595214844 
 21 
 290.864794921875 
 31 
 0 
 0 
LINE
 10 
 130.697595214844 
 20 
 290.864794921875 
 30 
 0 
 11 
 129.48720703125 
 21 
 290.113598632813 
 31 
 0 
 0 
LINE
 10 
 129.48720703125 
 20 
 290.113598632813 
 30 
 0 
 11 
 128.8 
 21 
 288.7 
 31 
 0 
 0 
LINE
 10 
 375 
 20 
 278 
 30 
 0 
 11 
 374.55439453125 
 21 
 277.10078125 
 31 
 0 
 0 
LINE
 10 
 374.55439453125 
 20 
 277.10078125 
 30 
 0 
 11 
 374.459204101563 
 21 
 276.518408203125 
 31 
 0 
 0 
LINE
 10 
 374.459204101563 
 20 
 276.518408203125 
 30 
 0 
 11 
 374.776782226563 
 21 
 276.185620117188 
 31 
 0 
 0 
LINE
 10 
 374.776782226563 
 20 
 276.185620117188 
 30 
 0 
 11 
 375.569604492188 
 21 
 276.035205078125 
 31 
 0 
 0 
LINE
 10 
 375.569604492188 
 20 
 276.035205078125 
 30 
 0 
 11 
 376.9 
 21 
 276 
 31 
 0 
 0 
LINE
 10 
 376.9 
 20 
 276 
 30 
 0 
 11 
 377.859985351563 
 21 
 275.943994140625 
 31 
 0 
 0 
LINE
 10 
 377.859985351563 
 20 
 275.943994140625 
 30 
 0 
 11 
 378.771997070313 
 21 
 275.7919921875 
 31 
 0 
 0 
LINE
 10 
 378.771997070313 
 20 
 275.7919921875 
 30 
 0 
 11 
 379.564013671875 
 21 
 275.567993164063 
 31 
 0 
 0 
LINE
 10 
 379.564013671875 
 20 
 275.567993164063 
 30 
 0 
 11 
 380.164013671875 
 21 
 275.29599609375 
 31 
 0 
 0 
LINE
 10 
 380.164013671875 
 20 
 275.29599609375 
 30 
 0 
 11 
 380.5 
 21 
 275 
 31 
 0 
 0 
LINE
 10 
 380.5 
 20 
 275 
 30 
 0 
 11 
 380.827978515625 
 21 
 274.68876953125 
 31 
 0 
 0 
LINE
 10 
 380.827978515625 
 20 
 274.68876953125 
 30 
 0 
 11 
 381.3 
 21 
 274.47841796875 
 31 
 0 
 0 
LINE
 10 
 381.3 
 20 
 274.47841796875 
 30 
 0 
 11 
 381.868017578125 
 21 
 274.373608398438 
 31 
 0 
 0 
LINE
 10 
 381.868017578125 
 20 
 274.373608398438 
 30 
 0 
 11 
 382.484008789063 
 21 
 274.379223632813 
 31 
 0 
 0 
LINE
 10 
 382.484008789063 
 20 
 274.379223632813 
 30 
 0 
 11 
 383.1 
 21 
 274.5 
 31 
 0 
 0 
LINE
 10 
 383.1 
 20 
 274.5 
 30 
 0 
 11 
 383.895190429688 
 21 
 274.635986328125 
 31 
 0 
 0 
LINE
 10 
 383.895190429688 
 20 
 274.635986328125 
 30 
 0 
 11 
 384.805615234375 
 21 
 274.580004882813 
 31 
 0 
 0 
LINE
 10 
 384.805615234375 
 20 
 274.580004882813 
 30 
 0 
 11 
 385.77841796875 
 21 
 274.356005859375 
 31 
 0 
 0 
LINE
 10 
 385.77841796875 
 20 
 274.356005859375 
 30 
 0 
 11 
 386.760815429688 
 21 
 273.98798828125 
 31 
 0 
 0 
LINE
 10 
 386.760815429688 
 20 
 273.98798828125 
 30 
 0 
 11 
 387.7 
 21 
 273.5 
 31 
 0 
 0 
LINE
 10 
 387.7 
 20 
 273.5 
 30 
 0 
 11 
 388.9255859375 
 21 
 272.683984375 
 31 
 0 
 0 
LINE
 10 
 388.9255859375 
 20 
 272.683984375 
 30 
 0 
 11 
 389.656787109375 
 21 
 272.276000976563 
 31 
 0 
 0 
LINE
 10 
 389.656787109375 
 20 
 272.276000976563 
 30 
 0 
 11 
 389.975219726563 
 21 
 272.276000976563 
 31 
 0 
 0 
LINE
 10 
 389.975219726563 
 20 
 272.276000976563 
 30 
 0 
 11 
 389.96240234375 
 21 
 272.684008789063 
 31 
 0 
 0 
LINE
 10 
 389.96240234375 
 20 
 272.684008789063 
 30 
 0 
 11 
 389.7 
 21 
 273.5 
 31 
 0 
 0 
LINE
 10 
 389.7 
 20 
 273.5 
 30 
 0 
 11 
 389.473608398438 
 21 
 274.091186523438 
 31 
 0 
 0 
LINE
 10 
 389.473608398438 
 20 
 274.091186523438 
 30 
 0 
 11 
 389.280810546875 
 21 
 274.749584960938 
 31 
 0 
 0 
LINE
 10 
 389.280810546875 
 20 
 274.749584960938 
 30 
 0 
 11 
 389.131201171875 
 21 
 275.422412109375 
 31 
 0 
 0 
LINE
 10 
 389.131201171875 
 20 
 275.422412109375 
 30 
 0 
 11 
 389.034399414063 
 21 
 276.056811523438 
 31 
 0 
 0 
LINE
 10 
 389.034399414063 
 20 
 276.056811523438 
 30 
 0 
 11 
 389 
 21 
 276.6 
 31 
 0 
 0 
LINE
 10 
 389 
 20 
 276.6 
 30 
 0 
 11 
 388.681591796875 
 21 
 277.501586914063 
 31 
 0 
 0 
LINE
 10 
 388.681591796875 
 20 
 277.501586914063 
 30 
 0 
 11 
 387.844799804688 
 21 
 277.9328125 
 31 
 0 
 0 
LINE
 10 
 387.844799804688 
 20 
 277.9328125 
 30 
 0 
 11 
 386.667211914063 
 21 
 277.903198242188 
 31 
 0 
 0 
LINE
 10 
 386.667211914063 
 20 
 277.903198242188 
 30 
 0 
 11 
 385.326416015625 
 21 
 277.422412109375 
 31 
 0 
 0 
LINE
 10 
 385.326416015625 
 20 
 277.422412109375 
 30 
 0 
 11 
 384 
 21 
 276.5 
 31 
 0 
 0 
LINE
 10 
 384 
 20 
 276.5 
 30 
 0 
 11 
 383.1759765625 
 21 
 275.845581054688 
 31 
 0 
 0 
LINE
 10 
 383.1759765625 
 20 
 275.845581054688 
 30 
 0 
 11 
 382.543994140625 
 21 
 275.584814453125 
 31 
 0 
 0 
LINE
 10 
 382.543994140625 
 20 
 275.584814453125 
 30 
 0 
 11 
 381.984008789063 
 21 
 275.751220703125 
 31 
 0 
 0 
LINE
 10 
 381.984008789063 
 20 
 275.751220703125 
 30 
 0 
 11 
 381.376000976563 
 21 
 276.37841796875 
 31 
 0 
 0 
LINE
 10 
 381.376000976563 
 20 
 276.37841796875 
 30 
 0 
 11 
 380.6 
 21 
 277.5 
 31 
 0 
 0 
LINE
 10 
 380.6 
 20 
 277.5 
 30 
 0 
 11 
 379.393579101563 
 21 
 278.96318359375 
 31 
 0 
 0 
LINE
 10 
 379.393579101563 
 20 
 278.96318359375 
 30 
 0 
 11 
 378.196801757813 
 21 
 279.749609375 
 31 
 0 
 0 
LINE
 10 
 378.196801757813 
 20 
 279.749609375 
 30 
 0 
 11 
 377.043188476563 
 21 
 279.85439453125 
 31 
 0 
 0 
LINE
 10 
 377.043188476563 
 20 
 279.85439453125 
 30 
 0 
 11 
 375.96640625 
 21 
 279.272802734375 
 31 
 0 
 0 
LINE
 10 
 375.96640625 
 20 
 279.272802734375 
 30 
 0 
 11 
 375 
 21 
 278 
 31 
 0 
 0 
ENDSEC
 0 
EOF
