  0
SECTION
  2
HEADER
  9
$ACADVER
  1
AC1015
  9
$ACADMAINTVER
 70
     6
  9
$DWGCODEPAGE
  3
ANSI_1252
  9
$INSBASE
 10
0.0
 20
0.0
 30
0.0
  9
$EXTMIN
 10
150.7416
 20
-87.26309999999999
 30
0.0
  9
$EXTMAX
 10
240.183
 20
35.1135
 30
0.0
  9
$LIMMIN
 10
0.0
 20
0.0
  9
$LIMMAX
 10
12.0
 20
9.0
  9
$ORTHOMODE
 70
     0
  9
$REGENMODE
 70
     1
  9
$FILLMODE
 70
     1
  9
$QTEXTMODE
 70
     0
  9
$MIRRTEXT
 70
     1
  9
$LTSCALE
 40
1.0
  9
$ATTMODE
 70
     1
  9
$TEXTSIZE
 40
0.2
  9
$TRACEWID
 40
0.05
  9
$TEXTSTYLE
  7
Standard
  9
$CLAYER
  8
0
  9
$CELTYPE
  6
ByLayer
  9
$CECOLOR
 62
   256
  9
$CELTSCALE
 40
1.0
  9
$DISPSILH
 70
     0
  9
$DIMSCALE
 40
1.0
  9
$DIMASZ
 40
0.18
  9
$DIMEXO
 40
0.0625
  9
$DIMDLI
 40
0.38
  9
$DIMRND
 40
0.0
  9
$DIMDLE
 40
0.0
  9
$DIMEXE
 40
0.18
  9
$DIMTP
 40
0.0
  9
$DIMTM
 40
0.0
  9
$DIMTXT
 40
0.18
  9
$DIMCEN
 40
0.09
  9
$DIMTSZ
 40
0.0
  9
$DIMTOL
 70
     0
  9
$DIMLIM
 70
     0
  9
$DIMTIH
 70
     1
  9
$DIMTOH
 70
     1
  9
$DIMSE1
 70
     0
  9
$DIMSE2
 70
     0
  9
$DIMTAD
 70
     0
  9
$DIMZIN
 70
     0
  9
$DIMBLK
  1

  9
$DIMASO
 70
     1
  9
$DIMSHO
 70
     1
  9
$DIMPOST
  1

  9
$DIMAPOST
  1

  9
$DIMALT
 70
     0
  9
$DIMALTD
 70
     2
  9
$DIMALTF
 40
25.4
  9
$DIMLFAC
 40
1.0
  9
$DIMTOFL
 70
     0
  9
$DIMTVP
 40
0.0
  9
$DIMTIX
 70
     0
  9
$DIMSOXD
 70
     0
  9
$DIMSAH
 70
     0
  9
$DIMBLK1
  1

  9
$DIMBLK2
  1

  9
$DIMSTYLE
  2
Standard
  9
$DIMCLRD
 70
     0
  9
$DIMCLRE
 70
     0
  9
$DIMCLRT
 70
     0
  9
$DIMTFAC
 40
1.0
  9
$DIMGAP
 40
0.09
  9
$DIMJUST
 70
     0
  9
$DIMSD1
 70
     0
  9
$DIMSD2
 70
     0
  9
$DIMTOLJ
 70
     1
  9
$DIMTZIN
 70
     0
  9
$DIMALTZ
 70
     0
  9
$DIMALTTZ
 70
     0
  9
$DIMUPT
 70
     0
  9
$DIMDEC
 70
     4
  9
$DIMTDEC
 70
     4
  9
$DIMALTU
 70
     2
  9
$DIMALTTD
 70
     2
  9
$DIMTXSTY
  7
Standard
  9
$DIMAUNIT
 70
     0
  9
$DIMADEC
 70
     0
  9
$DIMALTRND
 40
0.0
  9
$DIMAZIN
 70
     0
  9
$DIMDSEP
 70
    46
  9
$DIMATFIT
 70
     3
  9
$DIMFRAC
 70
     0
  9
$DIMLDRBLK
  1

  9
$DIMLUNIT
 70
     2
  9
$DIMLWD
 70
    -2
  9
$DIMLWE
 70
    -2
  9
$DIMTMOVE
 70
     0
  9
$LUNITS
 70
     2
  9
$LUPREC
 70
     4
  9
$SKETCHINC
 40
0.1
  9
$FILLETRAD
 40
0.5
  9
$AUNITS
 70
     0
  9
$AUPREC
 70
     0
  9
$MENU
  1
.
  9
$ELEVATION
 40
0.0
  9
$PELEVATION
 40
0.0
  9
$THICKNESS
 40
0.0
  9
$LIMCHECK
 70
     0
  9
$CHAMFERA
 40
0.5
  9
$CHAMFERB
 40
0.5
  9
$CHAMFERC
 40
1.0
  9
$CHAMFERD
 40
0.0
  9
$SKPOLY
 70
     0
  9
$TDCREATE
 40
2458310.724680208
  9
$TDUCREATE
 40
2458310.495513542
  9
$TDUPDATE
 40
2458310.72468022
  9
$TDUUPDATE
 40
2458310.495513553
  9
$TDINDWG
 40
0.0000000116
  9
$TDUSRTIMER
 40
0.0000000116
  9
$USRTIMER
 70
     1
  9
$ANGBASE
 50
0.0
  9
$ANGDIR
 70
     0
  9
$PDMODE
 70
     0
  9
$PDSIZE
 40
0.0
  9
$PLINEWID
 40
0.0
  9
$SPLFRAME
 70
     0
  9
$SPLINETYPE
 70
     6
  9
$SPLINESEGS
 70
     8
  9
$HANDSEED
  5
60
  9
$SURFTAB1
 70
     6
  9
$SURFTAB2
 70
     6
  9
$SURFTYPE
 70
     6
  9
$SURFU
 70
     6
  9
$SURFV
 70
     6
  9
$UCSBASE
  2

  9
$UCSNAME
  2

  9
$UCSORG
 10
0.0
 20
0.0
 30
0.0
  9
$UCSXDIR
 10
1.0
 20
0.0
 30
0.0
  9
$UCSYDIR
 10
0.0
 20
1.0
 30
0.0
  9
$UCSORTHOREF
  2

  9
$UCSORTHOVIEW
 70
     0
  9
$UCSORGTOP
 10
0.0
 20
0.0
 30
0.0
  9
$UCSORGBOTTOM
 10
0.0
 20
0.0
 30
0.0
  9
$UCSORGLEFT
 10
0.0
 20
0.0
 30
0.0
  9
$UCSORGRIGHT
 10
0.0
 20
0.0
 30
0.0
  9
$UCSORGFRONT
 10
0.0
 20
0.0
 30
0.0
  9
$UCSORGBACK
 10
0.0
 20
0.0
 30
0.0
  9
$PUCSBASE
  2

  9
$PUCSNAME
  2

  9
$PUCSORG
 10
0.0
 20
0.0
 30
0.0
  9
$PUCSXDIR
 10
1.0
 20
0.0
 30
0.0
  9
$PUCSYDIR
 10
0.0
 20
1.0
 30
0.0
  9
$PUCSORTHOREF
  2

  9
$PUCSORTHOVIEW
 70
     0
  9
$PUCSORGTOP
 10
0.0
 20
0.0
 30
0.0
  9
$PUCSORGBOTTOM
 10
0.0
 20
0.0
 30
0.0
  9
$PUCSORGLEFT
 10
0.0
 20
0.0
 30
0.0
  9
$PUCSORGRIGHT
 10
0.0
 20
0.0
 30
0.0
  9
$PUCSORGFRONT
 10
0.0
 20
0.0
 30
0.0
  9
$PUCSORGBACK
 10
0.0
 20
0.0
 30
0.0
  9
$USERI1
 70
     0
  9
$USERI2
 70
     0
  9
$USERI3
 70
     0
  9
$USERI4
 70
     0
  9
$USERI5
 70
     0
  9
$USERR1
 40
0.0
  9
$USERR2
 40
0.0
  9
$USERR3
 40
0.0
  9
$USERR4
 40
0.0
  9
$USERR5
 40
0.0
  9
$WORLDVIEW
 70
     1
  9
$SHADEDGE
 70
     3
  9
$SHADEDIF
 70
    70
  9
$TILEMODE
 70
     1
  9
$MAXACTVP
 70
    64
  9
$PINSBASE
 10
0.0
 20
0.0
 30
0.0
  9
$PLIMCHECK
 70
     0
  9
$PEXTMIN
 10
1.000000000000000E+20
 20
1.000000000000000E+20
 30
1.000000000000000E+20
  9
$PEXTMAX
 10
-1.000000000000000E+20
 20
-1.000000000000000E+20
 30
-1.000000000000000E+20
  9
$PLIMMIN
 10
0.0
 20
0.0
  9
$PLIMMAX
 10
12.0
 20
9.0
  9
$UNITMODE
 70
     0
  9
$VISRETAIN
 70
     1
  9
$PLINEGEN
 70
     0
  9
$PSLTSCALE
 70
     1
  9
$TREEDEPTH
 70
  3020
  9
$CMLSTYLE
  2
Standard
  9
$CMLJUST
 70
     0
  9
$CMLSCALE
 40
1.0
  9
$PROXYGRAPHICS
 70
     1
  9
$MEASUREMENT
 70
     0
  9
$CELWEIGHT
370
    -1
  9
$ENDCAPS
280
     0
  9
$JOINSTYLE
280
     0
  9
$LWDISPLAY
290
     0
  9
$INSUNITS
 70
     4
  9
$HYPERLINKBASE
  1

  9
$STYLESHEET
  1

  9
$XEDIT
290
     1
  9
$CEPSNTYPE
380
     0
  9
$PSTYLEMODE
290
     0
  9
$FINGERPRINTGUID
  2
{FAEB1C30-E019-11D5-929B-00C0DF256EC4}
  9
$VERSIONGUID
  2
{FAEB1C32-E019-11D5-929B-00C0DF256EC4}
  9
$EXTNAMES
290
     1
  9
$PSVPSCALE
 40
0.0
  9
$OLESTARTUP
290
     0
  0
ENDSEC
  0
SECTION
  2
CLASSES
  0
CLASS
  1
ACDBDICTIONARYWDFLT
  2
AcDbDictionaryWithDefault
  3
ObjectDBX Classes
 90
        0
280
     0
281
     0
  0
CLASS
  1
ACDBPLACEHOLDER
  2
AcDbPlaceHolder
  3
ObjectDBX Classes
 90
        0
280
     0
281
     0
  0
CLASS
  1
LAYOUT
  2
AcDbLayout
  3
ObjectDBX Classes
 90
        0
280
     0
281
     0
  0
ENDSEC
  0
SECTION
  2
TABLES
  0
TABLE
  2
VPORT
  5
8
330
0
100
AcDbSymbolTable
 70
     2
  0
VPORT
  5
29
330
8
100
AcDbSymbolTableRecord
100
AcDbViewportTableRecord
  2
*Active
 70
     0
 10
0.0
 20
0.0
 11
1.0
 21
1.0
 12
10.42990654205607
 22
4.5
 13
0.0
 23
0.0
 14
0.5
 24
0.5
 15
0.5
 25
0.5
 16
0.0
 26
0.0
 36
1.0
 17
0.0
 27
0.0
 37
0.0
 40
9.0
 41
1.972972972850329
 42
50.0
 43
0.0
 44
0.0
 50
0.0
 51
0.0
 71
     0
 72
   100
 73
     1
 74
     3
 75
     0
 76
     0
 77
     0
 78
     0
281
     0
 65
     1
110
0.0
120
0.0
130
0.0
111
1.0
121
0.0
131
0.0
112
0.0
122
1.0
132
0.0
 79
     0
146
0.0
  0
ENDTAB
  0
TABLE
  2
LTYPE
  5
5
330
0
100
AcDbSymbolTable
 70
     1
  0
LTYPE
  5
14
330
5
100
AcDbSymbolTableRecord
100
AcDbLinetypeTableRecord
  2
ByBlock
 70
     0
  3

 72
    65
 73
     0
 40
0.0
  0
LTYPE
  5
15
330
5
100
AcDbSymbolTableRecord
100
AcDbLinetypeTableRecord
  2
ByLayer
 70
     0
  3

 72
    65
 73
     0
 40
0.0
  0
LTYPE
  5
16
330
5
100
AcDbSymbolTableRecord
100
AcDbLinetypeTableRecord
  2
Continuous
 70
     0
  3
Solid line
 72
    65
 73
     0
 40
0.0
  0
ENDTAB
  0
TABLE
  2
LAYER
  5
2
330
0
100
AcDbSymbolTable
 70
     2
  0
LAYER
  5
10
330
2
100
AcDbSymbolTableRecord
100
AcDbLayerTableRecord
  2
0
 70
     0
 62
     7
  6
Continuous
370
    -3
390
F
  0
LAYER
  5
2B
330
2
100
AcDbSymbolTableRecord
100
AcDbLayerTableRecord
  2
Layer 1
 70
     0
 62
     7
  6
Continuous
370
    -3
390
F
  0
ENDTAB
  0
TABLE
  2
STYLE
  5
3
330
0
100
AcDbSymbolTable
 70
     1
  0
STYLE
  5
11
330
3
100
AcDbSymbolTableRecord
100
AcDbTextStyleTableRecord
  2
Standard
 70
     0
 40
0.0
 41
1.0
 50
0.0
 71
     0
 42
0.2
  3
txt
  4

  0
ENDTAB
  0
TABLE
  2
VIEW
  5
6
330
0
100
AcDbSymbolTable
 70
     0
  0
ENDTAB
  0
TABLE
  2
UCS
  5
7
330
0
100
AcDbSymbolTable
 70
     0
  0
ENDTAB
  0
TABLE
  2
APPID
  5
9
330
0
100
AcDbSymbolTable
 70
     2
  0
APPID
  5
12
330
9
100
AcDbSymbolTableRecord
100
AcDbRegAppTableRecord
  2
ACAD
 70
     0
  0
APPID
  5
2A
330
9
100
AcDbSymbolTableRecord
100
AcDbRegAppTableRecord
  2
ODA
 70
     0
  0
ENDTAB
  0
TABLE
  2
DIMSTYLE
  5
A
330
0
100
AcDbSymbolTable
 70
     1
100
AcDbDimStyleTable
  0
DIMSTYLE
105
27
330
A
100
AcDbSymbolTableRecord
100
AcDbDimStyleTableRecord
  2
Standard
 70
     0
340
11
  0
ENDTAB
  0
TABLE
  2
BLOCK_RECORD
  5
1
330
0
100
AcDbSymbolTable
 70
     1
  0
BLOCK_RECORD
  5
1F
330
1
100
AcDbSymbolTableRecord
100
AcDbBlockTableRecord
  2
*Model_Space
340
22
  0
BLOCK_RECORD
  5
1B
330
1
100
AcDbSymbolTableRecord
100
AcDbBlockTableRecord
  2
*Paper_Space
340
1E
  0
BLOCK_RECORD
  5
23
330
1
100
AcDbSymbolTableRecord
100
AcDbBlockTableRecord
  2
*Paper_Space0
340
26
  0
ENDTAB
  0
ENDSEC
  0
SECTION
  2
BLOCKS
  0
BLOCK
  5
20
330
1F
100
AcDbEntity
  8
0
100
AcDbBlockBegin
  2
*Model_Space
 70
     0
 71
     0
 10
0.0
 20
0.0
 30
0.0
  3
*Model_Space
  1

  0
ENDBLK
  5
21
330
1F
100
AcDbEntity
  8
0
100
AcDbBlockEnd
  0
BLOCK
  5
1C
330
1B
100
AcDbEntity
 67
     1
  8
0
100
AcDbBlockBegin
  2
*Paper_Space
 70
     0
 71
     0
 10
0.0
 20
0.0
 30
0.0
  3
*Paper_Space
  1

  0
ENDBLK
  5
1D
330
1B
100
AcDbEntity
 67
     1
  8
0
100
AcDbBlockEnd
  0
BLOCK
  5
24
330
23
100
AcDbEntity
  8
0
100
AcDbBlockBegin
  2
*Paper_Space0
 70
     0
 71
     0
 10
0.0
 20
0.0
 30
0.0
  3
*Paper_Space0
  1

  0
ENDBLK
  5
25
330
23
100
AcDbEntity
  8
0
100
AcDbBlockEnd
  0
ENDSEC
  0
SECTION
  2
ENTITIES
  0
SPLINE
  5
2C
330
1F
100
AcDbEntity
  8
Layer 1
370
     5
100
AcDbSpline
210
0.0
220
0.0
230
1.0
 70
    11
 71
     3
 72
   132
 73
   128
 74
     0
 42
0.0000000001
 43
0.0000000001
 40
0.0
 40
0.0
 40
0.0
 40
0.0
 40
0.03125
 40
0.03125
 40
0.03125
 40
0.03125
 40
0.0625
 40
0.0625
 40
0.0625
 40
0.0625
 40
0.09375
 40
0.09375
 40
0.09375
 40
0.09375
 40
0.125
 40
0.125
 40
0.125
 40
0.125
 40
0.15625
 40
0.15625
 40
0.15625
 40
0.15625
 40
0.1875
 40
0.1875
 40
0.1875
 40
0.1875
 40
0.21875
 40
0.21875
 40
0.21875
 40
0.21875
 40
0.25
 40
0.25
 40
0.25
 40
0.25
 40
0.28125
 40
0.28125
 40
0.28125
 40
0.28125
 40
0.3125
 40
0.3125
 40
0.3125
 40
0.3125
 40
0.34375
 40
0.34375
 40
0.34375
 40
0.34375
 40
0.375
 40
0.375
 40
0.375
 40
0.375
 40
0.40625
 40
0.40625
 40
0.40625
 40
0.40625
 40
0.4375
 40
0.4375
 40
0.4375
 40
0.4375
 40
0.46875
 40
0.46875
 40
0.46875
 40
0.46875
 40
0.5
 40
0.5
 40
0.5
 40
0.5
 40
0.53125
 40
0.53125
 40
0.53125
 40
0.53125
 40
0.5625
 40
0.5625
 40
0.5625
 40
0.5625
 40
0.59375
 40
0.59375
 40
0.59375
 40
0.59375
 40
0.625
 40
0.625
 40
0.625
 40
0.625
 40
0.65625
 40
0.65625
 40
0.65625
 40
0.65625
 40
0.6875
 40
0.6875
 40
0.6875
 40
0.6875
 40
0.71875
 40
0.71875
 40
0.71875
 40
0.71875
 40
0.75
 40
0.75
 40
0.75
 40
0.75
 40
0.78125
 40
0.78125
 40
0.78125
 40
0.78125
 40
0.8125
 40
0.8125
 40
0.8125
 40
0.8125
 40
0.84375
 40
0.84375
 40
0.84375
 40
0.84375
 40
0.875
 40
0.875
 40
0.875
 40
0.875
 40
0.90625
 40
0.90625
 40
0.90625
 40
0.90625
 40
0.9375
 40
0.9375
 40
0.9375
 40
0.9375
 40
0.96875
 40
0.96875
 40
0.96875
 40
0.96875
 40
1.0
 40
1.0
 40
1.0
 40
1.0
 10
169.4698
 20
-44.40170000000001
 30
0.0
 10
169.4698
 20
-44.40170000000001
 30
0.0
 10
169.5989
 20
-44.0397
 30
0.0
 10
169.8831
 20
-44.35
 30
0.0
 10
169.8831
 20
-44.35
 30
0.0
 10
170.1673
 20
-44.6603
 30
0.0
 10
171.2781
 20
-45.6561
 30
0.0
 10
171.8464
 20
-45.82420000000001
 30
0.0
 10
171.8464
 20
-45.82420000000001
 30
0.0
 10
172.4147
 20
-45.9923
 30
0.0
 10
173.0216
 20
-45.82420000000001
 30
0.0
 10
173.6804
 20
-45.669
 30
0.0
 10
173.6804
 20
-45.669
 30
0.0
 10
174.3392
 20
-45.5138
 30
0.0
 10
174.8428
 20
-45.37150000000001
 30
0.0
 10
175.127
 20
-45.7207
 30
0.0
 10
175.127
 20
-45.7207
 30
0.0
 10
175.4112
 20
-46.0699
 30
0.0
 10
175.9795
 20
-46.5871
 30
0.0
 10
176.5478
 20
-46.57420000000001
 30
0.0
 10
176.5478
 20
-46.57420000000001
 30
0.0
 10
177.1161
 20
-46.5613
 30
0.0
 10
177.8136
 20
-46.0311
 30
0.0
 10
178.1236
 20
-45.7466
 30
0.0
 10
178.1236
 20
-45.7466
 30
0.0
 10
178.4336
 20
-45.4621
 30
0.0
 10
179.286
 20
-45.5149
 30
0.0
 10
179.8931
 20
-45.6636
 30
0.0
 10
179.8931
 20
-45.6636
 30
0.0
 10
180.5002
 20
-45.8123
 30
0.0
 10
183.6645
 20
-45.99180000000001
 30
0.0
 10
184.207
 20
-45.9142
 30
0.0
 10
184.207
 20
-45.9142
 30
0.0
 10
184.7495
 20
-45.8366
 30
0.0
 10
184.5882
 20
-45.8123
 30
0.0
 10
184.7496
 20
-45.6765
 30
0.0
 10
184.7496
 20
-45.6765
 30
0.0
 10
184.911
 20
-45.5407
 30
0.0
 10
185.0661
 20
-45.6635
 30
0.0
 10
185.2792
 20
-45.5213
 30
0.0
 10
185.2792
 20
-45.5213
 30
0.0
 10
185.4923
 20
-45.3791
 30
0.0
 10
185.7441
 20
-45.1721
 30
0.0
 10
185.8539
 20
-45.2303
 30
0.0
 10
185.8539
 20
-45.2303
 30
0.0
 10
185.9637
 20
-45.2885
 30
0.0
 10
185.841
 20
-45.6053
 30
0.0
 10
185.5827
 20
-45.77990000000001
 30
0.0
 10
185.5827
 20
-45.77990000000001
 30
0.0
 10
185.3244
 20
-45.9545
 30
0.0
 10
185.0726
 20
-45.8898
 30
0.0
 10
184.924
 20
-45.9868
 30
0.0
 10
184.924
 20
-45.9868
 30
0.0
 10
184.7754
 20
-46.0838
 30
0.0
 10
184.0003
 20
-46.509
 30
0.0
 10
181.7271
 20
-46.5349
 30
0.0
 10
181.7271
 20
-46.5349
 30
0.0
 10
179.4539
 20
-46.5608
 30
0.0
 10
179.5572
 20
-46.3538
 30
0.0
 10
179.1181
 20
-46.4573
 30
0.0
 10
179.1181
 20
-46.4573
 30
0.0
 10
178.679
 20
-46.5608
 30
0.0
 10
178.7823
 20
-46.6126
 30
0.0
 10
178.2398
 20
-47.0522
 30
0.0
 10
178.2398
 20
-47.0522
 30
0.0
 10
177.6973
 20
-47.49180000000001
 30
0.0
 10
177.2324
 20
-47.7505
 30
0.0
 10
176.4574
 20
-47.7505
 30
0.0
 10
176.4574
 20
-47.7505
 30
0.0
 10
175.6824
 20
-47.7505
 30
0.0
 10
175.1658
 20
-47.2072
 30
0.0
 10
174.8558
 20
-46.9228
 30
0.0
 10
174.8558
 20
-46.9228
 30
0.0
 10
174.5458
 20
-46.6384
 30
0.0
 10
174.2875
 20
-46.5607
 30
0.0
 10
173.7192
 20
-46.5866
 30
0.0
 10
173.7192
 20
-46.5866
 30
0.0
 10
173.1509
 20
-46.6125
 30
0.0
 10
172.0659
 20
-46.8712
 30
0.0
 10
171.4718
 20
-46.4832
 30
0.0
 10
171.4718
 20
-46.4832
 30
0.0
 10
171.4718
 20
-46.4832
 30
0.0
 10
171.136
 20
-46.84520000000001
 30
0.0
 10
171.5493
 20
-47.2073
 30
0.0
 10
171.5493
 20
-47.2073
 30
0.0
 10
171.9626
 20
-47.5694
 30
0.0
 10
171.8205
 20
-48.1901
 30
0.0
 10
173.2671
 20
-48.9143
 30
0.0
 10
173.2671
 20
-48.9143
 30
0.0
 10
174.7137
 20
-49.6385
 30
0.0
 10
177.3874
 20
-49.5091
 30
0.0
 10
178.214
 20
-49.4574
 30
0.0
 10
178.214
 20
-49.4574
 30
0.0
 10
179.0406
 20
-49.4057
 30
0.0
 10
180.4614
 20
-48.785
 30
0.0
 10
181.2105
 20
-48.3453
 30
0.0
 10
181.2105
 20
-48.3453
 30
0.0
 10
181.9596
 20
-47.9056
 30
0.0
 10
182.7863
 20
-47.3366
 30
0.0
 10
183.3029
 20
-47.1556
 30
0.0
 10
183.3029
 20
-47.1556
 30
0.0
 10
183.8195
 20
-46.9746
 30
0.0
 10
184.1036
 20
-46.8194
 30
0.0
 10
184.1295
 20
-47.0263
 30
0.0
 10
184.1295
 20
-47.0263
 30
0.0
 10
184.1554
 20
-47.2332
 30
0.0
 10
183.4838
 20
-47.6212
 30
0.0
 10
182.7863
 20
-48.1384
 30
0.0
 10
182.7863
 20
-48.1384
 30
0.0
 10
181.6798
 20
-48.9591
 30
0.0
 10
180.6506
 20
-49.8879
 30
0.0
 10
179.4698
 20
-50.4153
 30
0.0
 10
179.4698
 20
-50.4153
 30
0.0
 10
177.4349
 20
-51.32420000000001
 30
0.0
 10
174.4547
 20
-51.2176
 30
0.0
 10
172.7117
 20
-50.1298
 30
0.0
 10
172.7117
 20
-50.1298
 30
0.0
 10
172.7117
 20
-50.1298
 30
0.0
 10
171.2135
 20
-49.2505
 30
0.0
 10
170.8002
 20
-46.6642
 30
0.0
 10
170.8002
 20
-46.6642
 30
0.0
 10
170.8002
 20
-46.6642
 30
0.0
 10
170.9551
 20
-46.01770000000001
 30
0.0
 10
170.5418
 20
-45.7073
 30
0.0
 10
170.5418
 20
-45.7073
 30
0.0
 10
170.1285
 20
-45.3969
 30
0.0
 10
169.4827
 20
-44.9314
 30
0.0
 10
169.4698
 20
-44.40170000000001
 30
0.0
  0
SPLINE
  5
2D
330
1F
100
AcDbEntity
  8
Layer 1
370
     5
100
AcDbSpline
210
0.0
220
0.0
230
1.0
 70
    11
 71
     3
 72
    32
 73
    28
 74
     0
 42
0.0000000001
 43
0.0000000001
 40
0.0
 40
0.0
 40
0.0
 40
0.0
 40
0.1428571428571429
 40
0.1428571428571429
 40
0.1428571428571429
 40
0.1428571428571429
 40
0.2857142857142857
 40
0.2857142857142857
 40
0.2857142857142857
 40
0.2857142857142857
 40
0.4285714285714286
 40
0.4285714285714286
 40
0.4285714285714286
 40
0.4285714285714286
 40
0.5714285714285714
 40
0.5714285714285714
 40
0.5714285714285714
 40
0.5714285714285714
 40
0.7142857142857142
 40
0.7142857142857142
 40
0.7142857142857142
 40
0.7142857142857142
 40
0.857142857142857
 40
0.857142857142857
 40
0.857142857142857
 40
0.857142857142857
 40
1.0
 40
1.0
 40
1.0
 40
1.0
 10
182.3988
 20
-29.2844
 30
0.0
 10
182.3988
 20
-29.2844
 30
0.0
 10
183.0705
 20
-28.819
 30
0.0
 10
184.1554
 20
-29.0517
 30
0.0
 10
184.1554
 20
-29.0517
 30
0.0
 10
185.2403
 20
-29.2844
 30
0.0
 10
188.5727
 20
-30.1379
 30
0.0
 10
191.2334
 20
-29.362
 30
0.0
 10
191.2334
 20
-29.362
 30
0.0
 10
193.8941
 20
-28.5861
 30
0.0
 10
194.8241
 20
-28.0688
 30
0.0
 10
195.599
 20
-27.8102
 30
0.0
 10
195.599
 20
-27.8102
 30
0.0
 10
196.3739
 20
-27.5516
 30
0.0
 10
196.684
 20
-27.7326
 30
0.0
 10
196.4773
 20
-27.8102
 30
0.0
 10
196.4773
 20
-27.8102
 30
0.0
 10
196.2706
 20
-27.8878
 30
0.0
 10
194.1782
 20
-29.3619
 30
0.0
 10
192.4733
 20
-30.0344
 30
0.0
 10
192.4733
 20
-30.0344
 30
0.0
 10
190.7684
 20
-30.7069
 30
0.0
 10
188.6243
 20
-31.793
 30
0.0
 10
185.0853
 20
-30.2413
 30
0.0
 10
185.0853
 20
-30.2413
 30
0.0
 10
185.0853
 20
-30.2413
 30
0.0
 10
183.1996
 20
-29.4137
 30
0.0
 10
182.3988
 20
-29.2844
 30
0.0
  0
SPLINE
  5
2E
330
1F
100
AcDbEntity
  8
Layer 1
370
     5
100
AcDbSpline
210
0.0
220
0.0
230
1.0
 70
    11
 71
     3
 72
    24
 73
    20
 74
     0
 42
0.0000000001
 43
0.0000000001
 40
0.0
 40
0.0
 40
0.0
 40
0.0
 40
0.2
 40
0.2
 40
0.2
 40
0.2
 40
0.4
 40
0.4
 40
0.4
 40
0.4
 40
0.6000000000000001
 40
0.6000000000000001
 40
0.6000000000000001
 40
0.6000000000000001
 40
0.8
 40
0.8
 40
0.8
 40
0.8
 40
1.0
 40
1.0
 40
1.0
 40
1.0
 10
159.9249
 20
-26.8533
 30
0.0
 10
159.9249
 20
-26.8533
 30
0.0
 10
159.7181
 20
-26.2068
 30
0.0
 10
160.2348
 20
-26.6206
 30
0.0
 10
160.2348
 20
-26.6206
 30
0.0
 10
160.7515
 20
-27.0344
 30
0.0
 10
162.7146
 20
-28.7672
 30
0.0
 10
165.8662
 20
-29.1551
 30
0.0
 10
165.8662
 20
-29.1551
 30
0.0
 10
169.0178
 20
-29.543
 30
0.0
 10
171.1618
 20
-29.4396
 30
0.0
 10
171.3168
 20
-29.7241
 30
0.0
 10
171.3168
 20
-29.7241
 30
0.0
 10
171.4718
 20
-30.0086
 30
0.0
 10
171.0843
 20
-30.0344
 30
0.0
 10
170.1802
 20
-30.1896
 30
0.0
 10
170.1802
 20
-30.1896
 30
0.0
 10
165.6475
 20
-30.9677
 30
0.0
 10
162.5286
 20
-30.7856
 30
0.0
 10
159.9249
 20
-26.8533
 30
0.0
  0
SPLINE
  5
2F
330
1F
100
AcDbEntity
  8
Layer 1
370
     5
100
AcDbSpline
210
0.0
220
0.0
230
1.0
 70
    11
 71
     3
 72
   108
 73
   104
 74
     0
 42
0.0000000001
 43
0.0000000001
 40
0.0
 40
0.0
 40
0.0
 40
0.0
 40
0.0384615384615385
 40
0.0384615384615385
 40
0.0384615384615385
 40
0.0384615384615385
 40
0.0769230769230769
 40
0.0769230769230769
 40
0.0769230769230769
 40
0.0769230769230769
 40
0.1153846153846154
 40
0.1153846153846154
 40
0.1153846153846154
 40
0.1153846153846154
 40
0.1538461538461539
 40
0.1538461538461539
 40
0.1538461538461539
 40
0.1538461538461539
 40
0.1923076923076923
 40
0.1923076923076923
 40
0.1923076923076923
 40
0.1923076923076923
 40
0.2307692307692308
 40
0.2307692307692308
 40
0.2307692307692308
 40
0.2307692307692308
 40
0.2692307692307693
 40
0.2692307692307693
 40
0.2692307692307693
 40
0.2692307692307693
 40
0.3076923076923077
 40
0.3076923076923077
 40
0.3076923076923077
 40
0.3076923076923077
 40
0.3461538461538462
 40
0.3461538461538462
 40
0.3461538461538462
 40
0.3461538461538462
 40
0.3846153846153846
 40
0.3846153846153846
 40
0.3846153846153846
 40
0.3846153846153846
 40
0.423076923076923
 40
0.423076923076923
 40
0.423076923076923
 40
0.423076923076923
 40
0.4615384615384615
 40
0.4615384615384615
 40
0.4615384615384615
 40
0.4615384615384615
 40
0.4999999999999999
 40
0.4999999999999999
 40
0.4999999999999999
 40
0.4999999999999999
 40
0.5384615384615383
 40
0.5384615384615383
 40
0.5384615384615383
 40
0.5384615384615383
 40
0.5769230769230768
 40
0.5769230769230768
 40
0.5769230769230768
 40
0.5769230769230768
 40
0.6153846153846152
 40
0.6153846153846152
 40
0.6153846153846152
 40
0.6153846153846152
 40
0.6538461538461536
 40
0.6538461538461536
 40
0.6538461538461536
 40
0.6538461538461536
 40
0.6923076923076921
 40
0.6923076923076921
 40
0.6923076923076921
 40
0.6923076923076921
 40
0.7307692307692305
 40
0.7307692307692305
 40
0.7307692307692305
 40
0.7307692307692305
 40
0.7692307692307689
 40
0.7692307692307689
 40
0.7692307692307689
 40
0.7692307692307689
 40
0.8076923076923074
 40
0.8076923076923074
 40
0.8076923076923074
 40
0.8076923076923074
 40
0.8461538461538458
 40
0.8461538461538458
 40
0.8461538461538458
 40
0.8461538461538458
 40
0.8846153846153843
 40
0.8846153846153843
 40
0.8846153846153843
 40
0.8846153846153843
 40
0.9230769230769227
 40
0.9230769230769227
 40
0.9230769230769227
 40
0.9230769230769227
 40
0.9615384615384611
 40
0.9615384615384611
 40
0.9615384615384611
 40
0.9615384615384611
 40
1.0
 40
1.0
 40
1.0
 40
1.0
 10
157.6
 20
-20.6462
 30
0.0
 10
157.6
 20
-20.6462
 30
0.0
 10
157.8583
 20
-20.9566
 30
0.0
 10
158.1941
 20
-20.3876
 30
0.0
 10
158.1941
 20
-20.3876
 30
0.0
 10
158.5299
 20
-19.8186
 30
0.0
 10
158.6073
 20
-19.2239
 30
0.0
 10
160.3123
 20
-19.1721
 30
0.0
 10
160.3123
 20
-19.1721
 30
0.0
 10
162.0173
 20
-19.1203
 30
0.0
 10
165.0397
 20
-19.8186
 30
0.0
 10
166.5379
 20
-20.9307
 30
0.0
 10
166.5379
 20
-20.9307
 30
0.0
 10
168.0361
 20
-22.0428
 30
0.0
 10
171.6302
 20
-24.9073
 30
0.0
 10
172.1462
 20
-27.4873
 30
0.0
 10
172.1462
 20
-27.4873
 30
0.0
 10
172.6622
 20
-30.0673
 30
0.0
 10
172.6106
 20
-31.8733
 30
0.0
 10
172.301
 20
-33.9889
 30
0.0
 10
172.301
 20
-33.9889
 30
0.0
 10
171.9914
 20
-36.1045
 30
0.0
 10
170.8562
 20
-37.9621
 30
0.0
 10
170.8046
 20
-38.6329
 30
0.0
 10
170.8046
 20
-38.6329
 30
0.0
 10
170.753
 20
-39.3037
 30
0.0
 10
170.3402
 20
-39.81970000000001
 30
0.0
 10
171.3722
 20
-40.7485
 30
0.0
 10
171.3722
 20
-40.7485
 30
0.0
 10
172.4042
 20
-41.6773
 30
0.0
 10
173.9006
 20
-43.0705
 30
0.0
 10
174.881
 20
-43.27690000000001
 30
0.0
 10
174.881
 20
-43.27690000000001
 30
0.0
 10
175.8614
 20
-43.4833
 30
0.0
 10
176.4806
 20
-43.27690000000001
 30
0.0
 10
178.3382
 20
-42.3997
 30
0.0
 10
178.3382
 20
-42.3997
 30
0.0
 10
180.1958
 20
-41.5225
 30
0.0
 10
180.9698
 20
-41.4193
 30
0.0
 10
181.7438
 20
-41.1097
 30
0.0
 10
181.7438
 20
-41.1097
 30
0.0
 10
182.5178
 20
-40.8001
 30
0.0
 10
182.3472
 20
-39.7075
 30
0.0
 10
182.1405
 20
-39.2808
 30
0.0
 10
182.1405
 20
-39.2808
 30
0.0
 10
181.9338
 20
-38.8541
 30
0.0
 10
181.5592
 20
-38.7636
 30
0.0
 10
181.3655
 20
-38.3627
 30
0.0
 10
181.3655
 20
-38.3627
 30
0.0
 10
181.1718
 20
-37.9618
 30
0.0
 10
180.8746
 20
-37.9748
 30
0.0
 10
180.9005
 20
-38.2334
 30
0.0
 10
180.9005
 20
-38.2334
 30
0.0
 10
180.9264
 20
-38.492
 30
0.0
 10
181.1717
 20
-38.7895
 30
0.0
 10
181.4817
 20
-39.1645
 30
0.0
 10
181.4817
 20
-39.1645
 30
0.0
 10
181.7917
 20
-39.5395
 30
0.0
 10
181.9597
 20
-39.8498
 30
0.0
 10
181.8434
 20
-40.17310000000001
 30
0.0
 10
181.8434
 20
-40.17310000000001
 30
0.0
 10
181.7271
 20
-40.4964
 30
0.0
 10
181.4946
 20
-40.7551
 30
0.0
 10
181.0038
 20
-40.81970000000001
 30
0.0
 10
181.0038
 20
-40.81970000000001
 30
0.0
 10
180.513
 20
-40.8843
 30
0.0
 10
179.7251
 20
-41.02670000000001
 30
0.0
 10
179.131
 20
-41.2594
 30
0.0
 10
179.131
 20
-41.2594
 30
0.0
 10
178.5369
 20
-41.4921
 30
0.0
 10
177.8264
 20
-41.97060000000001
 30
0.0
 10
177.129
 20
-42.2939
 30
0.0
 10
177.129
 20
-42.2939
 30
0.0
 10
176.4316
 20
-42.6172
 30
0.0
 10
175.9407
 20
-42.9663
 30
0.0
 10
175.1916
 20
-42.72060000000001
 30
0.0
 10
175.1916
 20
-42.72060000000001
 30
0.0
 10
174.4425
 20
-42.47490000000001
 30
0.0
 10
174.378
 20
-42.3586
 30
0.0
 10
173.7709
 20
-42.0353
 30
0.0
 10
173.7709
 20
-42.0353
 30
0.0
 10
173.1638
 20
-41.712
 30
0.0
 10
172.531
 20
-41.6603
 30
0.0
 10
172.5697
 20
-40.6904
 30
0.0
 10
172.5697
 20
-40.6904
 30
0.0
 10
172.6084
 20
-39.7205
 30
0.0
 10
172.9958
 20
-39.1128
 30
0.0
 10
173.2671
 20
-38.5955
 30
0.0
 10
173.2671
 20
-38.5955
 30
0.0
 10
173.5384
 20
-38.0782
 30
0.0
 10
175.655
 20
-31.0993
 30
0.0
 10
174.7778
 20
-28.0033
 30
0.0
 10
174.7778
 20
-28.0033
 30
0.0
 10
173.9006
 20
-24.9073
 30
0.0
 10
173.2814
 20
-24.0301
 30
0.0
 10
171.0626
 20
-22.5337
 30
0.0
 10
171.0626
 20
-22.5337
 30
0.0
 10
168.8438
 20
-21.0373
 30
0.0
 10
162.8439
 20
-17.8272
 30
0.0
 10
159.6407
 20
-18.4738
 30
0.0
 10
159.6407
 20
-18.4738
 30
0.0
 10
159.6407
 20
-18.4738
 30
0.0
 10
157.29
 20
-18.991
 30
0.0
 10
157.6
 20
-20.6462
 30
0.0
  0
SPLINE
  5
30
330
1F
100
AcDbEntity
  8
Layer 1
370
     5
100
AcDbSpline
210
0.0
220
0.0
230
1.0
 70
    11
 71
     3
 72
    32
 73
    28
 74
     0
 42
0.0000000001
 43
0.0000000001
 40
0.0
 40
0.0
 40
0.0
 40
0.0
 40
0.1428571428571429
 40
0.1428571428571429
 40
0.1428571428571429
 40
0.1428571428571429
 40
0.2857142857142857
 40
0.2857142857142857
 40
0.2857142857142857
 40
0.2857142857142857
 40
0.4285714285714286
 40
0.4285714285714286
 40
0.4285714285714286
 40
0.4285714285714286
 40
0.5714285714285714
 40
0.5714285714285714
 40
0.5714285714285714
 40
0.5714285714285714
 40
0.7142857142857142
 40
0.7142857142857142
 40
0.7142857142857142
 40
0.7142857142857142
 40
0.857142857142857
 40
0.857142857142857
 40
0.857142857142857
 40
0.857142857142857
 40
1.0
 40
1.0
 40
1.0
 40
1.0
 10
173.9775
 20
-18.0085
 30
0.0
 10
173.9775
 20
-18.0085
 30
0.0
 10
173.9001
 20
-17.9567
 30
0.0
 10
173.6934
 20
-18.4352
 30
0.0
 10
173.6934
 20
-18.4352
 30
0.0
 10
173.4867
 20
-18.9137
 30
0.0
 10
173.0476
 20
-19.9611
 30
0.0
 10
174.1713
 20
-20.6982
 30
0.0
 10
174.1713
 20
-20.6982
 30
0.0
 10
175.295
 20
-21.4353
 30
0.0
 10
176.3283
 20
-20.5172
 30
0.0
 10
176.5091
 20
-20.2327
 30
0.0
 10
176.5091
 20
-20.2327
 30
0.0
 10
176.6899
 20
-19.9482
 30
0.0
 10
176.3929
 20
-20.0776
 30
0.0
 10
176.2766
 20
-20.0905
 30
0.0
 10
176.2766
 20
-20.0905
 30
0.0
 10
175.0156
 20
-20.2303
 30
0.0
 10
174.1647
 20
-19.9999
 30
0.0
 10
174.1196
 20
-18.5516
 30
0.0
 10
174.1196
 20
-18.5516
 30
0.0
 10
174.0938
 20
-17.724
 30
0.0
 10
174.1225
 20
-18.6296
 30
0.0
 10
174.1225
 20
-18.6296
 30
0.0
 10
174.1225
 20
-18.6296
 30
0.0
 10
174.1225
 20
-18.6296
 30
0.0
 10
174.2229
 20
-17.6464
 30
0.0
 10
173.9775
 20
-18.0085
 30
0.0
  0
SPLINE
  5
31
330
1F
100
AcDbEntity
  8
Layer 1
370
     5
100
AcDbSpline
210
0.0
220
0.0
230
1.0
 70
    11
 71
     3
 72
    32
 73
    28
 74
     0
 42
0.0000000001
 43
0.0000000001
 40
0.0
 40
0.0
 40
0.0
 40
0.0
 40
0.1428571428571429
 40
0.1428571428571429
 40
0.1428571428571429
 40
0.1428571428571429
 40
0.2857142857142857
 40
0.2857142857142857
 40
0.2857142857142857
 40
0.2857142857142857
 40
0.4285714285714286
 40
0.4285714285714286
 40
0.4285714285714286
 40
0.4285714285714286
 40
0.5714285714285714
 40
0.5714285714285714
 40
0.5714285714285714
 40
0.5714285714285714
 40
0.7142857142857142
 40
0.7142857142857142
 40
0.7142857142857142
 40
0.7142857142857142
 40
0.857142857142857
 40
0.857142857142857
 40
0.857142857142857
 40
0.857142857142857
 40
1.0
 40
1.0
 40
1.0
 40
1.0
 10
178.9631
 20
-23.6981
 30
0.0
 10
178.6818
 20
-22.9584
 30
0.0
 10
182.6869
 20
-20.6938
 30
0.0
 10
186.4924
 20
-19.5138
 30
0.0
 10
186.4924
 20
-19.5138
 30
0.0
 10
188.2223
 20
-18.9775
 30
0.0
 10
190.0956
 20
-18.8293
 30
0.0
 10
191.1817
 20
-18.8617
 30
0.0
 10
191.1817
 20
-18.8617
 30
0.0
 10
194.6432
 20
-18.965
 30
0.0
 10
196.7356
 20
-19.6377
 30
0.0
 10
196.8906
 20
-19.8704
 30
0.0
 10
196.8906
 20
-19.8704
 30
0.0
 10
197.0456
 20
-20.1031
 30
0.0
 10
196.7614
 20
-20.2324
 30
0.0
 10
196.1931
 20
-20.1807
 30
0.0
 10
196.1931
 20
-20.1807
 30
0.0
 10
195.6248
 20
-20.129
 30
0.0
 10
189.5284
 20
-18.2411
 30
0.0
 10
183.3287
 20
-21.6808
 30
0.0
 10
183.3287
 20
-21.6808
 30
0.0
 10
183.3287
 20
-21.6808
 30
0.0
 10
179.8672
 20
-23.6205
 30
0.0
 10
179.5314
 20
-23.7498
 30
0.0
 10
179.5314
 20
-23.7498
 30
0.0
 10
179.1956
 20
-23.8791
 30
0.0
 10
178.9631
 20
-23.6981
 30
0.0
 10
178.9631
 20
-23.6981
 30
0.0
  0
SPLINE
  5
32
330
1F
100
AcDbEntity
  8
Layer 1
370
     5
100
AcDbSpline
210
0.0
220
0.0
230
1.0
 70
    11
 71
     3
 72
    32
 73
    28
 74
     0
 42
0.0000000001
 43
0.0000000001
 40
0.0
 40
0.0
 40
0.0
 40
0.0
 40
0.1428571428571429
 40
0.1428571428571429
 40
0.1428571428571429
 40
0.1428571428571429
 40
0.2857142857142857
 40
0.2857142857142857
 40
0.2857142857142857
 40
0.2857142857142857
 40
0.4285714285714286
 40
0.4285714285714286
 40
0.4285714285714286
 40
0.4285714285714286
 40
0.5714285714285714
 40
0.5714285714285714
 40
0.5714285714285714
 40
0.5714285714285714
 40
0.7142857142857142
 40
0.7142857142857142
 40
0.7142857142857142
 40
0.7142857142857142
 40
0.857142857142857
 40
0.857142857142857
 40
0.857142857142857
 40
0.857142857142857
 40
1.0
 40
1.0
 40
1.0
 40
1.0
 10
202.8578
 20
-22.8319
 30
0.0
 10
202.8578
 20
-22.8319
 30
0.0
 10
202.7416
 20
-22.47
 30
0.0
 10
203.1549
 20
-22.0949
 30
0.0
 10
203.1549
 20
-22.0949
 30
0.0
 10
203.5682
 20
-21.7198
 30
0.0
 10
204.0332
 20
-21.7457
 30
0.0
 10
204.2786
 20
-21.8362
 30
0.0
 10
204.2786
 20
-21.8362
 30
0.0
 10
204.524
 20
-21.9267
 30
0.0
 10
204.692
 20
-22.3922
 30
0.0
 10
204.5111
 20
-22.8319
 30
0.0
 10
204.5111
 20
-22.8319
 30
0.0
 10
204.3302
 20
-23.2716
 30
0.0
 10
204.1236
 20
-23.3621
 30
0.0
 10
203.8911
 20
-23.569
 30
0.0
 10
203.8911
 20
-23.569
 30
0.0
 10
203.6586
 20
-23.7759
 30
0.0
 10
203.4262
 20
-23.8277
 30
0.0
 10
202.987
 20
-23.8406
 30
0.0
 10
202.987
 20
-23.8406
 30
0.0
 10
202.5478
 20
-23.8535
 30
0.0
 10
202.2637
 20
-23.6467
 30
0.0
 10
202.2766
 20
-23.3363
 30
0.0
 10
202.2766
 20
-23.3363
 30
0.0
 10
202.2895
 20
-23.0259
 30
0.0
 10
202.3153
 20
-22.819
 30
0.0
 10
202.8578
 20
-22.8319
 30
0.0
  0
SPLINE
  5
33
330
1F
100
AcDbEntity
  8
Layer 1
370
     5
100
AcDbSpline
210
0.0
220
0.0
230
1.0
 70
    11
 71
     3
 72
    52
 73
    48
 74
     0
 42
0.0000000001
 43
0.0000000001
 40
0.0
 40
0.0
 40
0.0
 40
0.0
 40
0.0833333333333333
 40
0.0833333333333333
 40
0.0833333333333333
 40
0.0833333333333333
 40
0.1666666666666667
 40
0.1666666666666667
 40
0.1666666666666667
 40
0.1666666666666667
 40
0.25
 40
0.25
 40
0.25
 40
0.25
 40
0.3333333333333333
 40
0.3333333333333333
 40
0.3333333333333333
 40
0.3333333333333333
 40
0.4166666666666666
 40
0.4166666666666666
 40
0.4166666666666666
 40
0.4166666666666666
 40
0.4999999999999999
 40
0.4999999999999999
 40
0.4999999999999999
 40
0.4999999999999999
 40
0.5833333333333333
 40
0.5833333333333333
 40
0.5833333333333333
 40
0.5833333333333333
 40
0.6666666666666666
 40
0.6666666666666666
 40
0.6666666666666666
 40
0.6666666666666666
 40
0.75
 40
0.75
 40
0.75
 40
0.75
 40
0.8333333333333334
 40
0.8333333333333334
 40
0.8333333333333334
 40
0.8333333333333334
 40
0.9166666666666667
 40
0.9166666666666667
 40
0.9166666666666667
 40
0.9166666666666667
 40
1.0
 40
1.0
 40
1.0
 40
1.0
 10
205.5443
 20
-24.6941
 30
0.0
 10
205.5443
 20
-24.6941
 30
0.0
 10
205.0793
 20
-24.6036
 30
0.0
 10
205.131
 20
-24.2027
 30
0.0
 10
205.131
 20
-24.2027
 30
0.0
 10
205.1827
 20
-23.8018
 30
0.0
 10
205.6348
 20
-23.6208
 30
0.0
 10
205.9835
 20
-23.6337
 30
0.0
 10
205.9835
 20
-23.6337
 30
0.0
 10
206.3322
 20
-23.6466
 30
0.0
 10
206.8489
 20
-23.7243
 30
0.0
 10
207.2493
 20
-24.1898
 30
0.0
 10
207.2493
 20
-24.1898
 30
0.0
 10
207.6497
 20
-24.6553
 30
0.0
 10
207.7272
 20
-24.888
 30
0.0
 10
207.8176
 20
-25.2113
 30
0.0
 10
207.8176
 20
-25.2113
 30
0.0
 10
207.908
 20
-25.5346
 30
0.0
 10
207.7271
 20
-25.7416
 30
0.0
 10
207.4817
 20
-25.7545
 30
0.0
 10
207.4817
 20
-25.7545
 30
0.0
 10
207.2363
 20
-25.7674
 30
0.0
 10
207.0169
 20
-25.5604
 30
0.0
 10
206.681
 20
-25.082
 30
0.0
 10
206.681
 20
-25.082
 30
0.0
 10
206.681
 20
-25.082
 30
0.0
 10
206.3193
 20
-25.1983
 30
0.0
 10
206.1772
 20
-25.9872
 30
0.0
 10
206.1772
 20
-25.9872
 30
0.0
 10
206.0351
 20
-26.7761
 30
0.0
 10
206.0738
 20
-27.9657
 30
0.0
 10
205.7122
 20
-28.3278
 30
0.0
 10
205.7122
 20
-28.3278
 30
0.0
 10
205.3506
 20
-28.6899
 30
0.0
 10
205.2215
 20
-28.7933
 30
0.0
 10
204.9373
 20
-28.6511
 30
0.0
 10
204.9373
 20
-28.6511
 30
0.0
 10
204.6531
 20
-28.5089
 30
0.0
 10
204.4981
 20
-28.1856
 30
0.0
 10
204.6402
 20
-27.358
 30
0.0
 10
204.6402
 20
-27.358
 30
0.0
 10
204.7823
 20
-26.5304
 30
0.0
 10
205.1957
 20
-25.7157
 30
0.0
 10
205.3248
 20
-25.4312
 30
0.0
 10
205.3248
 20
-25.4312
 30
0.0
 10
205.4539
 20
-25.1467
 30
0.0
 10
205.5443
 20
-24.6941
 30
0.0
 10
205.5443
 20
-24.6941
 30
0.0
  0
SPLINE
  5
34
330
1F
100
AcDbEntity
  8
Layer 1
370
     5
100
AcDbSpline
210
0.0
220
0.0
230
1.0
 70
    11
 71
     3
 72
  1060
 73
  1056
 74
     0
 42
0.0000000001
 43
0.0000000001
 40
0.0
 40
0.0
 40
0.0
 40
0.0
 40
0.0037878787878788
 40
0.0037878787878788
 40
0.0037878787878788
 40
0.0037878787878788
 40
0.0075757575757576
 40
0.0075757575757576
 40
0.0075757575757576
 40
0.0075757575757576
 40
0.0113636363636364
 40
0.0113636363636364
 40
0.0113636363636364
 40
0.0113636363636364
 40
0.0151515151515152
 40
0.0151515151515152
 40
0.0151515151515152
 40
0.0151515151515152
 40
0.0189393939393939
 40
0.0189393939393939
 40
0.0189393939393939
 40
0.0189393939393939
 40
0.0227272727272727
 40
0.0227272727272727
 40
0.0227272727272727
 40
0.0227272727272727
 40
0.0265151515151515
 40
0.0265151515151515
 40
0.0265151515151515
 40
0.0265151515151515
 40
0.0303030303030303
 40
0.0303030303030303
 40
0.0303030303030303
 40
0.0303030303030303
 40
0.0340909090909091
 40
0.0340909090909091
 40
0.0340909090909091
 40
0.0340909090909091
 40
0.0378787878787879
 40
0.0378787878787879
 40
0.0378787878787879
 40
0.0378787878787879
 40
0.0416666666666667
 40
0.0416666666666667
 40
0.0416666666666667
 40
0.0416666666666667
 40
0.0454545454545454
 40
0.0454545454545454
 40
0.0454545454545454
 40
0.0454545454545454
 40
0.0492424242424242
 40
0.0492424242424242
 40
0.0492424242424242
 40
0.0492424242424242
 40
0.053030303030303
 40
0.053030303030303
 40
0.053030303030303
 40
0.053030303030303
 40
0.0568181818181818
 40
0.0568181818181818
 40
0.0568181818181818
 40
0.0568181818181818
 40
0.0606060606060606
 40
0.0606060606060606
 40
0.0606060606060606
 40
0.0606060606060606
 40
0.0643939393939394
 40
0.0643939393939394
 40
0.0643939393939394
 40
0.0643939393939394
 40
0.0681818181818181
 40
0.0681818181818181
 40
0.0681818181818181
 40
0.0681818181818181
 40
0.0719696969696969
 40
0.0719696969696969
 40
0.0719696969696969
 40
0.0719696969696969
 40
0.0757575757575757
 40
0.0757575757575757
 40
0.0757575757575757
 40
0.0757575757575757
 40
0.0795454545454545
 40
0.0795454545454545
 40
0.0795454545454545
 40
0.0795454545454545
 40
0.0833333333333333
 40
0.0833333333333333
 40
0.0833333333333333
 40
0.0833333333333333
 40
0.0871212121212121
 40
0.0871212121212121
 40
0.0871212121212121
 40
0.0871212121212121
 40
0.0909090909090909
 40
0.0909090909090909
 40
0.0909090909090909
 40
0.0909090909090909
 40
0.0946969696969696
 40
0.0946969696969696
 40
0.0946969696969696
 40
0.0946969696969696
 40
0.0984848484848484
 40
0.0984848484848484
 40
0.0984848484848484
 40
0.0984848484848484
 40
0.1022727272727272
 40
0.1022727272727272
 40
0.1022727272727272
 40
0.1022727272727272
 40
0.106060606060606
 40
0.106060606060606
 40
0.106060606060606
 40
0.106060606060606
 40
0.1098484848484848
 40
0.1098484848484848
 40
0.1098484848484848
 40
0.1098484848484848
 40
0.1136363636363636
 40
0.1136363636363636
 40
0.1136363636363636
 40
0.1136363636363636
 40
0.1174242424242424
 40
0.1174242424242424
 40
0.1174242424242424
 40
0.1174242424242424
 40
0.1212121212121211
 40
0.1212121212121211
 40
0.1212121212121211
 40
0.1212121212121211
 40
0.1249999999999999
 40
0.1249999999999999
 40
0.1249999999999999
 40
0.1249999999999999
 40
0.1287878787878787
 40
0.1287878787878787
 40
0.1287878787878787
 40
0.1287878787878787
 40
0.1325757575757575
 40
0.1325757575757575
 40
0.1325757575757575
 40
0.1325757575757575
 40
0.1363636363636363
 40
0.1363636363636363
 40
0.1363636363636363
 40
0.1363636363636363
 40
0.1401515151515151
 40
0.1401515151515151
 40
0.1401515151515151
 40
0.1401515151515151
 40
0.1439393939393938
 40
0.1439393939393938
 40
0.1439393939393938
 40
0.1439393939393938
 40
0.1477272727272726
 40
0.1477272727272726
 40
0.1477272727272726
 40
0.1477272727272726
 40
0.1515151515151514
 40
0.1515151515151514
 40
0.1515151515151514
 40
0.1515151515151514
 40
0.1553030303030302
 40
0.1553030303030302
 40
0.1553030303030302
 40
0.1553030303030302
 40
0.159090909090909
 40
0.159090909090909
 40
0.159090909090909
 40
0.159090909090909
 40
0.1628787878787878
 40
0.1628787878787878
 40
0.1628787878787878
 40
0.1628787878787878
 40
0.1666666666666666
 40
0.1666666666666666
 40
0.1666666666666666
 40
0.1666666666666666
 40
0.1704545454545453
 40
0.1704545454545453
 40
0.1704545454545453
 40
0.1704545454545453
 40
0.1742424242424241
 40
0.1742424242424241
 40
0.1742424242424241
 40
0.1742424242424241
 40
0.1780303030303029
 40
0.1780303030303029
 40
0.1780303030303029
 40
0.1780303030303029
 40
0.1818181818181817
 40
0.1818181818181817
 40
0.1818181818181817
 40
0.1818181818181817
 40
0.1856060606060605
 40
0.1856060606060605
 40
0.1856060606060605
 40
0.1856060606060605
 40
0.1893939393939393
 40
0.1893939393939393
 40
0.1893939393939393
 40
0.1893939393939393
 40
0.193181818181818
 40
0.193181818181818
 40
0.193181818181818
 40
0.193181818181818
 40
0.1969696969696968
 40
0.1969696969696968
 40
0.1969696969696968
 40
0.1969696969696968
 40
0.2007575757575756
 40
0.2007575757575756
 40
0.2007575757575756
 40
0.2007575757575756
 40
0.2045454545454544
 40
0.2045454545454544
 40
0.2045454545454544
 40
0.2045454545454544
 40
0.2083333333333332
 40
0.2083333333333332
 40
0.2083333333333332
 40
0.2083333333333332
 40
0.212121212121212
 40
0.212121212121212
 40
0.212121212121212
 40
0.212121212121212
 40
0.2159090909090908
 40
0.2159090909090908
 40
0.2159090909090908
 40
0.2159090909090908
 40
0.2196969696969695
 40
0.2196969696969695
 40
0.2196969696969695
 40
0.2196969696969695
 40
0.2234848484848483
 40
0.2234848484848483
 40
0.2234848484848483
 40
0.2234848484848483
 40
0.2272727272727271
 40
0.2272727272727271
 40
0.2272727272727271
 40
0.2272727272727271
 40
0.2310606060606059
 40
0.2310606060606059
 40
0.2310606060606059
 40
0.2310606060606059
 40
0.2348484848484847
 40
0.2348484848484847
 40
0.2348484848484847
 40
0.2348484848484847
 40
0.2386363636363635
 40
0.2386363636363635
 40
0.2386363636363635
 40
0.2386363636363635
 40
0.2424242424242422
 40
0.2424242424242422
 40
0.2424242424242422
 40
0.2424242424242422
 40
0.246212121212121
 40
0.246212121212121
 40
0.246212121212121
 40
0.246212121212121
 40
0.2499999999999998
 40
0.2499999999999998
 40
0.2499999999999998
 40
0.2499999999999998
 40
0.2537878787878786
 40
0.2537878787878786
 40
0.2537878787878786
 40
0.2537878787878786
 40
0.2575757575757574
 40
0.2575757575757574
 40
0.2575757575757574
 40
0.2575757575757574
 40
0.2613636363636362
 40
0.2613636363636362
 40
0.2613636363636362
 40
0.2613636363636362
 40
0.265151515151515
 40
0.265151515151515
 40
0.265151515151515
 40
0.265151515151515
 40
0.2689393939393938
 40
0.2689393939393938
 40
0.2689393939393938
 40
0.2689393939393938
 40
0.2727272727272725
 40
0.2727272727272725
 40
0.2727272727272725
 40
0.2727272727272725
 40
0.2765151515151513
 40
0.2765151515151513
 40
0.2765151515151513
 40
0.2765151515151513
 40
0.2803030303030301
 40
0.2803030303030301
 40
0.2803030303030301
 40
0.2803030303030301
 40
0.2840909090909089
 40
0.2840909090909089
 40
0.2840909090909089
 40
0.2840909090909089
 40
0.2878787878787877
 40
0.2878787878787877
 40
0.2878787878787877
 40
0.2878787878787877
 40
0.2916666666666665
 40
0.2916666666666665
 40
0.2916666666666665
 40
0.2916666666666665
 40
0.2954545454545453
 40
0.2954545454545453
 40
0.2954545454545453
 40
0.2954545454545453
 40
0.299242424242424
 40
0.299242424242424
 40
0.299242424242424
 40
0.299242424242424
 40
0.3030303030303028
 40
0.3030303030303028
 40
0.3030303030303028
 40
0.3030303030303028
 40
0.3068181818181816
 40
0.3068181818181816
 40
0.3068181818181816
 40
0.3068181818181816
 40
0.3106060606060604
 40
0.3106060606060604
 40
0.3106060606060604
 40
0.3106060606060604
 40
0.3143939393939392
 40
0.3143939393939392
 40
0.3143939393939392
 40
0.3143939393939392
 40
0.318181818181818
 40
0.318181818181818
 40
0.318181818181818
 40
0.318181818181818
 40
0.3219696969696967
 40
0.3219696969696967
 40
0.3219696969696967
 40
0.3219696969696967
 40
0.3257575757575755
 40
0.3257575757575755
 40
0.3257575757575755
 40
0.3257575757575755
 40
0.3295454545454543
 40
0.3295454545454543
 40
0.3295454545454543
 40
0.3295454545454543
 40
0.3333333333333331
 40
0.3333333333333331
 40
0.3333333333333331
 40
0.3333333333333331
 40
0.3371212121212119
 40
0.3371212121212119
 40
0.3371212121212119
 40
0.3371212121212119
 40
0.3409090909090907
 40
0.3409090909090907
 40
0.3409090909090907
 40
0.3409090909090907
 40
0.3446969696969695
 40
0.3446969696969695
 40
0.3446969696969695
 40
0.3446969696969695
 40
0.3484848484848482
 40
0.3484848484848482
 40
0.3484848484848482
 40
0.3484848484848482
 40
0.352272727272727
 40
0.352272727272727
 40
0.352272727272727
 40
0.352272727272727
 40
0.3560606060606058
 40
0.3560606060606058
 40
0.3560606060606058
 40
0.3560606060606058
 40
0.3598484848484846
 40
0.3598484848484846
 40
0.3598484848484846
 40
0.3598484848484846
 40
0.3636363636363634
 40
0.3636363636363634
 40
0.3636363636363634
 40
0.3636363636363634
 40
0.3674242424242422
 40
0.3674242424242422
 40
0.3674242424242422
 40
0.3674242424242422
 40
0.3712121212121209
 40
0.3712121212121209
 40
0.3712121212121209
 40
0.3712121212121209
 40
0.3749999999999997
 40
0.3749999999999997
 40
0.3749999999999997
 40
0.3749999999999997
 40
0.3787878787878785
 40
0.3787878787878785
 40
0.3787878787878785
 40
0.3787878787878785
 40
0.3825757575757573
 40
0.3825757575757573
 40
0.3825757575757573
 40
0.3825757575757573
 40
0.3863636363636361
 40
0.3863636363636361
 40
0.3863636363636361
 40
0.3863636363636361
 40
0.3901515151515149
 40
0.3901515151515149
 40
0.3901515151515149
 40
0.3901515151515149
 40
0.3939393939393937
 40
0.3939393939393937
 40
0.3939393939393937
 40
0.3939393939393937
 40
0.3977272727272724
 40
0.3977272727272724
 40
0.3977272727272724
 40
0.3977272727272724
 40
0.4015151515151512
 40
0.4015151515151512
 40
0.4015151515151512
 40
0.4015151515151512
 40
0.40530303030303
 40
0.40530303030303
 40
0.40530303030303
 40
0.40530303030303
 40
0.4090909090909088
 40
0.4090909090909088
 40
0.4090909090909088
 40
0.4090909090909088
 40
0.4128787878787876
 40
0.4128787878787876
 40
0.4128787878787876
 40
0.4128787878787876
 40
0.4166666666666664
 40
0.4166666666666664
 40
0.4166666666666664
 40
0.4166666666666664
 40
0.4204545454545451
 40
0.4204545454545451
 40
0.4204545454545451
 40
0.4204545454545451
 40
0.4242424242424239
 40
0.4242424242424239
 40
0.4242424242424239
 40
0.4242424242424239
 40
0.4280303030303027
 40
0.4280303030303027
 40
0.4280303030303027
 40
0.4280303030303027
 40
0.4318181818181815
 40
0.4318181818181815
 40
0.4318181818181815
 40
0.4318181818181815
 40
0.4356060606060603
 40
0.4356060606060603
 40
0.4356060606060603
 40
0.4356060606060603
 40
0.4393939393939391
 40
0.4393939393939391
 40
0.4393939393939391
 40
0.4393939393939391
 40
0.4431818181818178
 40
0.4431818181818178
 40
0.4431818181818178
 40
0.4431818181818178
 40
0.4469696969696966
 40
0.4469696969696966
 40
0.4469696969696966
 40
0.4469696969696966
 40
0.4507575757575754
 40
0.4507575757575754
 40
0.4507575757575754
 40
0.4507575757575754
 40
0.4545454545454542
 40
0.4545454545454542
 40
0.4545454545454542
 40
0.4545454545454542
 40
0.458333333333333
 40
0.458333333333333
 40
0.458333333333333
 40
0.458333333333333
 40
0.4621212121212118
 40
0.4621212121212118
 40
0.4621212121212118
 40
0.4621212121212118
 40
0.4659090909090906
 40
0.4659090909090906
 40
0.4659090909090906
 40
0.4659090909090906
 40
0.4696969696969693
 40
0.4696969696969693
 40
0.4696969696969693
 40
0.4696969696969693
 40
0.4734848484848481
 40
0.4734848484848481
 40
0.4734848484848481
 40
0.4734848484848481
 40
0.4772727272727269
 40
0.4772727272727269
 40
0.4772727272727269
 40
0.4772727272727269
 40
0.4810606060606057
 40
0.4810606060606057
 40
0.4810606060606057
 40
0.4810606060606057
 40
0.4848484848484845
 40
0.4848484848484845
 40
0.4848484848484845
 40
0.4848484848484845
 40
0.4886363636363633
 40
0.4886363636363633
 40
0.4886363636363633
 40
0.4886363636363633
 40
0.492424242424242
 40
0.492424242424242
 40
0.492424242424242
 40
0.492424242424242
 40
0.4962121212121208
 40
0.4962121212121208
 40
0.4962121212121208
 40
0.4962121212121208
 40
0.4999999999999996
 40
0.4999999999999996
 40
0.4999999999999996
 40
0.4999999999999996
 40
0.5037878787878785
 40
0.5037878787878785
 40
0.5037878787878785
 40
0.5037878787878785
 40
0.5075757575757572
 40
0.5075757575757572
 40
0.5075757575757572
 40
0.5075757575757572
 40
0.511363636363636
 40
0.511363636363636
 40
0.511363636363636
 40
0.511363636363636
 40
0.5151515151515148
 40
0.5151515151515148
 40
0.5151515151515148
 40
0.5151515151515148
 40
0.5189393939393936
 40
0.5189393939393936
 40
0.5189393939393936
 40
0.5189393939393936
 40
0.5227272727272724
 40
0.5227272727272724
 40
0.5227272727272724
 40
0.5227272727272724
 40
0.5265151515151512
 40
0.5265151515151512
 40
0.5265151515151512
 40
0.5265151515151512
 40
0.5303030303030299
 40
0.5303030303030299
 40
0.5303030303030299
 40
0.5303030303030299
 40
0.5340909090909087
 40
0.5340909090909087
 40
0.5340909090909087
 40
0.5340909090909087
 40
0.5378787878787875
 40
0.5378787878787875
 40
0.5378787878787875
 40
0.5378787878787875
 40
0.5416666666666663
 40
0.5416666666666663
 40
0.5416666666666663
 40
0.5416666666666663
 40
0.5454545454545451
 40
0.5454545454545451
 40
0.5454545454545451
 40
0.5454545454545451
 40
0.5492424242424239
 40
0.5492424242424239
 40
0.5492424242424239
 40
0.5492424242424239
 40
0.5530303030303027
 40
0.5530303030303027
 40
0.5530303030303027
 40
0.5530303030303027
 40
0.5568181818181814
 40
0.5568181818181814
 40
0.5568181818181814
 40
0.5568181818181814
 40
0.5606060606060602
 40
0.5606060606060602
 40
0.5606060606060602
 40
0.5606060606060602
 40
0.564393939393939
 40
0.564393939393939
 40
0.564393939393939
 40
0.564393939393939
 40
0.5681818181818178
 40
0.5681818181818178
 40
0.5681818181818178
 40
0.5681818181818178
 40
0.5719696969696966
 40
0.5719696969696966
 40
0.5719696969696966
 40
0.5719696969696966
 40
0.5757575757575754
 40
0.5757575757575754
 40
0.5757575757575754
 40
0.5757575757575754
 40
0.5795454545454541
 40
0.5795454545454541
 40
0.5795454545454541
 40
0.5795454545454541
 40
0.5833333333333329
 40
0.5833333333333329
 40
0.5833333333333329
 40
0.5833333333333329
 40
0.5871212121212117
 40
0.5871212121212117
 40
0.5871212121212117
 40
0.5871212121212117
 40
0.5909090909090905
 40
0.5909090909090905
 40
0.5909090909090905
 40
0.5909090909090905
 40
0.5946969696969693
 40
0.5946969696969693
 40
0.5946969696969693
 40
0.5946969696969693
 40
0.5984848484848481
 40
0.5984848484848481
 40
0.5984848484848481
 40
0.5984848484848481
 40
0.6022727272727269
 40
0.6022727272727269
 40
0.6022727272727269
 40
0.6022727272727269
 40
0.6060606060606056
 40
0.6060606060606056
 40
0.6060606060606056
 40
0.6060606060606056
 40
0.6098484848484844
 40
0.6098484848484844
 40
0.6098484848484844
 40
0.6098484848484844
 40
0.6136363636363632
 40
0.6136363636363632
 40
0.6136363636363632
 40
0.6136363636363632
 40
0.617424242424242
 40
0.617424242424242
 40
0.617424242424242
 40
0.617424242424242
 40
0.6212121212121208
 40
0.6212121212121208
 40
0.6212121212121208
 40
0.6212121212121208
 40
0.6249999999999996
 40
0.6249999999999996
 40
0.6249999999999996
 40
0.6249999999999996
 40
0.6287878787878783
 40
0.6287878787878783
 40
0.6287878787878783
 40
0.6287878787878783
 40
0.6325757575757571
 40
0.6325757575757571
 40
0.6325757575757571
 40
0.6325757575757571
 40
0.6363636363636359
 40
0.6363636363636359
 40
0.6363636363636359
 40
0.6363636363636359
 40
0.6401515151515147
 40
0.6401515151515147
 40
0.6401515151515147
 40
0.6401515151515147
 40
0.6439393939393935
 40
0.6439393939393935
 40
0.6439393939393935
 40
0.6439393939393935
 40
0.6477272727272723
 40
0.6477272727272723
 40
0.6477272727272723
 40
0.6477272727272723
 40
0.6515151515151511
 40
0.6515151515151511
 40
0.6515151515151511
 40
0.6515151515151511
 40
0.6553030303030298
 40
0.6553030303030298
 40
0.6553030303030298
 40
0.6553030303030298
 40
0.6590909090909086
 40
0.6590909090909086
 40
0.6590909090909086
 40
0.6590909090909086
 40
0.6628787878787874
 40
0.6628787878787874
 40
0.6628787878787874
 40
0.6628787878787874
 40
0.6666666666666662
 40
0.6666666666666662
 40
0.6666666666666662
 40
0.6666666666666662
 40
0.670454545454545
 40
0.670454545454545
 40
0.670454545454545
 40
0.670454545454545
 40
0.6742424242424238
 40
0.6742424242424238
 40
0.6742424242424238
 40
0.6742424242424238
 40
0.6780303030303025
 40
0.6780303030303025
 40
0.6780303030303025
 40
0.6780303030303025
 40
0.6818181818181813
 40
0.6818181818181813
 40
0.6818181818181813
 40
0.6818181818181813
 40
0.6856060606060601
 40
0.6856060606060601
 40
0.6856060606060601
 40
0.6856060606060601
 40
0.6893939393939389
 40
0.6893939393939389
 40
0.6893939393939389
 40
0.6893939393939389
 40
0.6931818181818177
 40
0.6931818181818177
 40
0.6931818181818177
 40
0.6931818181818177
 40
0.6969696969696965
 40
0.6969696969696965
 40
0.6969696969696965
 40
0.6969696969696965
 40
0.7007575757575753
 40
0.7007575757575753
 40
0.7007575757575753
 40
0.7007575757575753
 40
0.704545454545454
 40
0.704545454545454
 40
0.704545454545454
 40
0.704545454545454
 40
0.7083333333333328
 40
0.7083333333333328
 40
0.7083333333333328
 40
0.7083333333333328
 40
0.7121212121212116
 40
0.7121212121212116
 40
0.7121212121212116
 40
0.7121212121212116
 40
0.7159090909090904
 40
0.7159090909090904
 40
0.7159090909090904
 40
0.7159090909090904
 40
0.7196969696969692
 40
0.7196969696969692
 40
0.7196969696969692
 40
0.7196969696969692
 40
0.723484848484848
 40
0.723484848484848
 40
0.723484848484848
 40
0.723484848484848
 40
0.7272727272727267
 40
0.7272727272727267
 40
0.7272727272727267
 40
0.7272727272727267
 40
0.7310606060606055
 40
0.7310606060606055
 40
0.7310606060606055
 40
0.7310606060606055
 40
0.7348484848484843
 40
0.7348484848484843
 40
0.7348484848484843
 40
0.7348484848484843
 40
0.7386363636363631
 40
0.7386363636363631
 40
0.7386363636363631
 40
0.7386363636363631
 40
0.7424242424242419
 40
0.7424242424242419
 40
0.7424242424242419
 40
0.7424242424242419
 40
0.7462121212121207
 40
0.7462121212121207
 40
0.7462121212121207
 40
0.7462121212121207
 40
0.7499999999999994
 40
0.7499999999999994
 40
0.7499999999999994
 40
0.7499999999999994
 40
0.7537878787878782
 40
0.7537878787878782
 40
0.7537878787878782
 40
0.7537878787878782
 40
0.757575757575757
 40
0.757575757575757
 40
0.757575757575757
 40
0.757575757575757
 40
0.7613636363636358
 40
0.7613636363636358
 40
0.7613636363636358
 40
0.7613636363636358
 40
0.7651515151515146
 40
0.7651515151515146
 40
0.7651515151515146
 40
0.7651515151515146
 40
0.7689393939393934
 40
0.7689393939393934
 40
0.7689393939393934
 40
0.7689393939393934
 40
0.7727272727272722
 40
0.7727272727272722
 40
0.7727272727272722
 40
0.7727272727272722
 40
0.7765151515151509
 40
0.7765151515151509
 40
0.7765151515151509
 40
0.7765151515151509
 40
0.7803030303030297
 40
0.7803030303030297
 40
0.7803030303030297
 40
0.7803030303030297
 40
0.7840909090909085
 40
0.7840909090909085
 40
0.7840909090909085
 40
0.7840909090909085
 40
0.7878787878787873
 40
0.7878787878787873
 40
0.7878787878787873
 40
0.7878787878787873
 40
0.7916666666666661
 40
0.7916666666666661
 40
0.7916666666666661
 40
0.7916666666666661
 40
0.7954545454545449
 40
0.7954545454545449
 40
0.7954545454545449
 40
0.7954545454545449
 40
0.7992424242424236
 40
0.7992424242424236
 40
0.7992424242424236
 40
0.7992424242424236
 40
0.8030303030303024
 40
0.8030303030303024
 40
0.8030303030303024
 40
0.8030303030303024
 40
0.8068181818181812
 40
0.8068181818181812
 40
0.8068181818181812
 40
0.8068181818181812
 40
0.81060606060606
 40
0.81060606060606
 40
0.81060606060606
 40
0.81060606060606
 40
0.8143939393939388
 40
0.8143939393939388
 40
0.8143939393939388
 40
0.8143939393939388
 40
0.8181818181818176
 40
0.8181818181818176
 40
0.8181818181818176
 40
0.8181818181818176
 40
0.8219696969696964
 40
0.8219696969696964
 40
0.8219696969696964
 40
0.8219696969696964
 40
0.8257575757575751
 40
0.8257575757575751
 40
0.8257575757575751
 40
0.8257575757575751
 40
0.8295454545454539
 40
0.8295454545454539
 40
0.8295454545454539
 40
0.8295454545454539
 40
0.8333333333333327
 40
0.8333333333333327
 40
0.8333333333333327
 40
0.8333333333333327
 40
0.8371212121212115
 40
0.8371212121212115
 40
0.8371212121212115
 40
0.8371212121212115
 40
0.8409090909090903
 40
0.8409090909090903
 40
0.8409090909090903
 40
0.8409090909090903
 40
0.8446969696969691
 40
0.8446969696969691
 40
0.8446969696969691
 40
0.8446969696969691
 40
0.8484848484848478
 40
0.8484848484848478
 40
0.8484848484848478
 40
0.8484848484848478
 40
0.8522727272727266
 40
0.8522727272727266
 40
0.8522727272727266
 40
0.8522727272727266
 40
0.8560606060606054
 40
0.8560606060606054
 40
0.8560606060606054
 40
0.8560606060606054
 40
0.8598484848484842
 40
0.8598484848484842
 40
0.8598484848484842
 40
0.8598484848484842
 40
0.863636363636363
 40
0.863636363636363
 40
0.863636363636363
 40
0.863636363636363
 40
0.8674242424242418
 40
0.8674242424242418
 40
0.8674242424242418
 40
0.8674242424242418
 40
0.8712121212121206
 40
0.8712121212121206
 40
0.8712121212121206
 40
0.8712121212121206
 40
0.8749999999999993
 40
0.8749999999999993
 40
0.8749999999999993
 40
0.8749999999999993
 40
0.8787878787878781
 40
0.8787878787878781
 40
0.8787878787878781
 40
0.8787878787878781
 40
0.8825757575757569
 40
0.8825757575757569
 40
0.8825757575757569
 40
0.8825757575757569
 40
0.8863636363636357
 40
0.8863636363636357
 40
0.8863636363636357
 40
0.8863636363636357
 40
0.8901515151515145
 40
0.8901515151515145
 40
0.8901515151515145
 40
0.8901515151515145
 40
0.8939393939393933
 40
0.8939393939393933
 40
0.8939393939393933
 40
0.8939393939393933
 40
0.897727272727272
 40
0.897727272727272
 40
0.897727272727272
 40
0.897727272727272
 40
0.9015151515151508
 40
0.9015151515151508
 40
0.9015151515151508
 40
0.9015151515151508
 40
0.9053030303030296
 40
0.9053030303030296
 40
0.9053030303030296
 40
0.9053030303030296
 40
0.9090909090909084
 40
0.9090909090909084
 40
0.9090909090909084
 40
0.9090909090909084
 40
0.9128787878787872
 40
0.9128787878787872
 40
0.9128787878787872
 40
0.9128787878787872
 40
0.916666666666666
 40
0.916666666666666
 40
0.916666666666666
 40
0.916666666666666
 40
0.9204545454545448
 40
0.9204545454545448
 40
0.9204545454545448
 40
0.9204545454545448
 40
0.9242424242424235
 40
0.9242424242424235
 40
0.9242424242424235
 40
0.9242424242424235
 40
0.9280303030303023
 40
0.9280303030303023
 40
0.9280303030303023
 40
0.9280303030303023
 40
0.9318181818181811
 40
0.9318181818181811
 40
0.9318181818181811
 40
0.9318181818181811
 40
0.9356060606060599
 40
0.9356060606060599
 40
0.9356060606060599
 40
0.9356060606060599
 40
0.9393939393939387
 40
0.9393939393939387
 40
0.9393939393939387
 40
0.9393939393939387
 40
0.9431818181818175
 40
0.9431818181818175
 40
0.9431818181818175
 40
0.9431818181818175
 40
0.9469696969696962
 40
0.9469696969696962
 40
0.9469696969696962
 40
0.9469696969696962
 40
0.950757575757575
 40
0.950757575757575
 40
0.950757575757575
 40
0.950757575757575
 40
0.9545454545454538
 40
0.9545454545454538
 40
0.9545454545454538
 40
0.9545454545454538
 40
0.9583333333333326
 40
0.9583333333333326
 40
0.9583333333333326
 40
0.9583333333333326
 40
0.9621212121212114
 40
0.9621212121212114
 40
0.9621212121212114
 40
0.9621212121212114
 40
0.9659090909090902
 40
0.9659090909090902
 40
0.9659090909090902
 40
0.9659090909090902
 40
0.969696969696969
 40
0.969696969696969
 40
0.969696969696969
 40
0.969696969696969
 40
0.9734848484848477
 40
0.9734848484848477
 40
0.9734848484848477
 40
0.9734848484848477
 40
0.9772727272727265
 40
0.9772727272727265
 40
0.9772727272727265
 40
0.9772727272727265
 40
0.9810606060606053
 40
0.9810606060606053
 40
0.9810606060606053
 40
0.9810606060606053
 40
0.9848484848484841
 40
0.9848484848484841
 40
0.9848484848484841
 40
0.9848484848484841
 40
0.9886363636363629
 40
0.9886363636363629
 40
0.9886363636363629
 40
0.9886363636363629
 40
0.9924242424242417
 40
0.9924242424242417
 40
0.9924242424242417
 40
0.9924242424242417
 40
0.9962121212121204
 40
0.9962121212121204
 40
0.9962121212121204
 40
0.9962121212121204
 40
1.0
 40
1.0
 40
1.0
 40
1.0
 10
213.7874
 20
-87.21730000000001
 30
0.0
 10
223.2302
 20
-75.58450000000001
 30
0.0
 10
233.447
 20
-70.10890000000001
 30
0.0
 10
233.447
 20
-70.10890000000001
 30
0.0
 10
233.447
 20
-70.10890000000001
 30
0.0
 10
233.447
 20
-70.10890000000001
 30
0.0
 10
208.1114
 20
-58.0861
 30
0.0
 10
208.1114
 20
-58.0861
 30
0.0
 10
208.1114
 20
-58.0861
 30
0.0
 10
208.1114
 20
-58.0861
 30
0.0
 10
201.971
 20
-78.5197
 30
0.0
 10
201.5582
 20
-80.2741
 30
0.0
 10
201.5582
 20
-80.2741
 30
0.0
 10
201.1454
 20
-82.02850000000001
 30
0.0
 10
200.9906
 20
-82.0801
 30
0.0
 10
200.6294
 20
-81.82210000000001
 30
0.0
 10
200.6294
 20
-81.82210000000001
 30
0.0
 10
200.2682
 20
-81.56410000000001
 30
0.0
 10
201.7646
 20
-76.8685
 30
0.0
 10
202.2806
 20
-74.4949
 30
0.0
 10
202.2806
 20
-74.4949
 30
0.0
 10
202.7966
 20
-72.12130000000001
 30
0.0
 10
206.7068
 20
-57.34560000000001
 30
0.0
 10
206.7068
 20
-57.34560000000001
 30
0.0
 10
206.7068
 20
-57.34560000000001
 30
0.0
 10
206.7068
 20
-57.34560000000001
 30
0.0
 10
203.6069
 20
-55.89720000000001
 30
0.0
 10
201.5145
 20
-54.0093
 30
0.0
 10
201.5145
 20
-54.0093
 30
0.0
 10
199.4221
 20
-52.1214
 30
0.0
 10
198.363
 20
-49.6902
 30
0.0
 10
197.8464
 20
-47.466
 30
0.0
 10
197.8464
 20
-47.466
 30
0.0
 10
197.3298
 20
-45.24180000000001
 30
0.0
 10
198.7718
 20
-44.5669
 30
0.0
 10
193.1474
 20
-50.9653
 30
0.0
 10
193.1474
 20
-50.9653
 30
0.0
 10
187.523
 20
-57.3637
 30
0.0
 10
182.3114
 20
-59.5825
 30
0.0
 10
177.8222
 20
-59.9953
 30
0.0
 10
177.8222
 20
-59.9953
 30
0.0
 10
173.333
 20
-60.40810000000001
 30
0.0
 10
168.6044
 20
-54.42310000000001
 30
0.0
 10
168.0361
 20
-53.75060000000001
 30
0.0
 10
168.0361
 20
-53.75060000000001
 30
0.0
 10
167.4678
 20
-53.0781
 30
0.0
 10
166.822
 20
-51.8109
 30
0.0
 10
166.4604
 20
-51.8885
 30
0.0
 10
166.4604
 20
-51.8885
 30
0.0
 10
166.0988
 20
-51.9661
 30
0.0
 10
165.2721
 20
-53.4403
 30
0.0
 10
163.9547
 20
-54.6041
 30
0.0
 10
163.9547
 20
-54.6041
 30
0.0
 10
162.6373
 20
-55.7679
 30
0.0
 10
162.6631
 20
-55.79380000000001
 30
0.0
 10
159.9765
 20
-57.3973
 30
0.0
 10
159.9765
 20
-57.3973
 30
0.0
 10
157.2899
 20
-59.00080000000001
 30
0.0
 10
154.526
 20
-59.8284
 30
0.0
 10
152.6402
 20
-60.52670000000001
 30
0.0
 10
152.6402
 20
-60.52670000000001
 30
0.0
 10
150.7544
 20
-61.225
 30
0.0
 10
150.8069
 20
-61.0181
 30
0.0
 10
150.8069
 20
-60.7594
 30
0.0
 10
150.8069
 20
-60.7594
 30
0.0
 10
150.8069
 20
-60.5007
 30
0.0
 10
154.526
 20
-58.9232
 30
0.0
 10
157.91
 20
-56.9576
 30
0.0
 10
157.91
 20
-56.9576
 30
0.0
 10
161.294
 20
-54.992
 30
0.0
 10
165.5046
 20
-49.716
 30
0.0
 10
165.3238
 20
-49.5091
 30
0.0
 10
165.3238
 20
-49.5091
 30
0.0
 10
165.143
 20
-49.3022
 30
0.0
 10
164.2905
 20
-47.7246
 30
0.0
 10
164.0322
 20
-47.49180000000001
 30
0.0
 10
164.0322
 20
-47.49180000000001
 30
0.0
 10
163.7739
 20
-47.259
 30
0.0
 10
163.6188
 20
-48.24180000000001
 30
0.0
 10
162.9472
 20
-49.2246
 30
0.0
 10
162.9472
 20
-49.2246
 30
0.0
 10
162.2756
 20
-50.2074
 30
0.0
 10
161.3456
 20
-50.104
 30
0.0
 10
160.4932
 20
-49.81950000000001
 30
0.0
 10
160.4932
 20
-49.81950000000001
 30
0.0
 10
159.6408
 20
-49.535
 30
0.0
 10
158.7302
 20
-48.4885
 30
0.0
 10
158.2142
 20
-46.68250000000001
 30
0.0
 10
158.2142
 20
-46.68250000000001
 30
0.0
 10
157.6982
 20
-44.8765
 30
0.0
 10
157.595
 20
-41.3677
 30
0.0
 10
157.595
 20
-38.7361
 30
0.0
 10
157.595
 20
-38.7361
 30
0.0
 10
157.595
 20
-36.1045
 30
0.0
 10
157.5434
 20
-34.9693
 30
0.0
 10
156.6146
 20
-31.7701
 30
0.0
 10
156.6146
 20
-31.7701
 30
0.0
 10
155.6858
 20
-28.5709
 30
0.0
 10
152.2286
 20
-22.0693
 30
0.0
 10
151.403
 20
-19.2313
 30
0.0
 10
151.403
 20
-19.2313
 30
0.0
 10
150.5774
 20
-16.3933
 30
0.0
 10
152.1494
 20
-16.4565
 30
0.0
 10
152.4336
 20
-16.4565
 30
0.0
 10
152.4336
 20
-16.4565
 30
0.0
 10
152.7178
 20
-16.4565
 30
0.0
 10
153.131
 20
-16.4565
 30
0.0
 10
152.8727
 20
-15.8616
 30
0.0
 10
152.8727
 20
-15.8616
 30
0.0
 10
152.6144
 20
-15.2667
 30
0.0
 10
152.2269
 20
-14.284
 30
0.0
 10
152.2527
 20
-13.0943
 30
0.0
 10
152.2527
 20
-13.0943
 30
0.0
 10
152.2785
 20
-11.9046
 30
0.0
 10
152.511
 20
-12.1891
 30
0.0
 10
152.0202
 20
-11.3874
 30
0.0
 10
152.0202
 20
-11.3874
 30
0.0
 10
151.5294
 20
-10.5857
 30
0.0
 10
151.5036
 20
-10.2753
 30
0.0
 10
151.5811
 20
-9.447700000000001
 30
0.0
 10
151.5811
 20
-9.447700000000001
 30
0.0
 10
151.6586
 20
-8.620100000000001
 30
0.0
 10
151.8911
 20
-8.568300000000001
 30
0.0
 10
151.6328
 20
-7.844200000000001
 30
0.0
 10
151.6328
 20
-7.844200000000001
 30
0.0
 10
151.3745
 20
-7.120100000000001
 30
0.0
 10
151.3744
 20
-6.1889
 30
0.0
 10
151.6844
 20
-5.283700000000001
 30
0.0
 10
151.6844
 20
-5.283700000000001
 30
0.0
 10
151.9944
 20
-4.3785
 30
0.0
 10
152.369
 20
-4.3787
 30
0.0
 10
152.5627
 20
-4.133
 30
0.0
 10
152.5627
 20
-4.133
 30
0.0
 10
152.7564
 20
-3.8873
 30
0.0
 10
152.4852
 20
-3.6933
 30
0.0
 10
151.9944
 20
-3.564
 30
0.0
 10
151.9944
 20
-3.564
 30
0.0
 10
151.5036
 20
-3.4347
 30
0.0
 10
151.284
 20
-3.2019
 30
0.0
 10
150.9611
 20
-2.7234
 30
0.0
 10
150.9611
 20
-2.7234
 30
0.0
 10
150.6382
 20
-2.2449
 30
0.0
 10
150.8069
 20
-1.7148
 30
0.0
 10
150.9999
 20
-1.288
 30
0.0
 10
150.9999
 20
-1.288
 30
0.0
 10
151.1929
 20
-0.8612000000000001
 30
0.0
 10
151.6973
 20
-0.913
 30
0.0
 10
151.904
 20
-0.6544
 30
0.0
 10
151.904
 20
-0.6544
 30
0.0
 10
152.1107
 20
-0.3958
 30
0.0
 10
151.6844
 20
-0.4475
 30
0.0
 10
151.5294
 20
-0.0854
 30
0.0
 10
151.5294
 20
-0.0854
 30
0.0
 10
151.3744
 20
0.2767
 30
0.0
 10
151.3357
 20
0.6905
 30
0.0
 10
151.7232
 20
1.3371
 30
0.0
 10
151.7232
 20
1.3371
 30
0.0
 10
152.1107
 20
1.9837
 30
0.0
 10
152.7179
 20
1.6864
 30
0.0
 10
153.1441
 20
1.7251
 30
0.0
 10
153.1441
 20
1.7251
 30
0.0
 10
153.5703
 20
1.7638
 30
0.0
 10
153.777
 20
1.945
 30
0.0
 10
153.9449
 20
2.2165
 30
0.0
 10
153.9449
 20
2.2165
 30
0.0
 10
154.1128
 20
2.488
 30
0.0
 10
153.9578
 20
2.6174
 30
0.0
 10
153.7641
 20
2.6433
 30
0.0
 10
153.7641
 20
2.6433
 30
0.0
 10
153.5704
 20
2.6692
 30
0.0
 10
152.9633
 20
2.3071
 30
0.0
 10
152.4983
 20
2.4752
 30
0.0
 10
152.4983
 20
2.4752
 30
0.0
 10
152.0333
 20
2.6433
 30
0.0
 10
152.0979
 20
2.9795
 30
0.0
 10
152.2271
 20
3.4967
 30
0.0
 10
152.2271
 20
3.4967
 30
0.0
 10
152.3563
 20
4.013900000000001
 30
0.0
 10
152.9116
 20
4.091600000000001
 30
0.0
 10
153.2733
 20
4.1045
 30
0.0
 10
153.2733
 20
4.1045
 30
0.0
 10
153.635
 20
4.1174
 30
0.0
 10
153.7382
 20
4.1045
 30
0.0
 10
153.9062
 20
4.440700000000001
 30
0.0
 10
153.9062
 20
4.440700000000001
 30
0.0
 10
154.0742
 20
4.7769
 30
0.0
 10
153.8157
 20
5.1778
 30
0.0
 10
154.0224
 20
5.9019
 30
0.0
 10
154.0224
 20
5.9019
 30
0.0
 10
154.2291
 20
6.626
 30
0.0
 10
155.004
 20
6.535600000000001
 30
0.0
 10
155.2236
 20
6.4321
 30
0.0
 10
155.2236
 20
6.4321
 30
0.0
 10
155.4432
 20
6.328600000000001
 30
0.0
 10
155.4819
 20
6.1024
 30
0.0
 10
155.6563
 20
6.0507
 30
0.0
 10
155.6563
 20
6.0507
 30
0.0
 10
155.8307
 20
5.999000000000001
 30
0.0
 10
156.0567
 20
6.1153
 30
0.0
 10
156.076
 20
6.335100000000001
 30
0.0
 10
156.076
 20
6.335100000000001
 30
0.0
 10
156.0953
 20
6.5549
 30
0.0
 10
156.1148
 20
6.6196
 30
0.0
 10
156.1858
 20
6.8201
 30
0.0
 10
156.1858
 20
6.8201
 30
0.0
 10
156.2568
 20
7.0206
 30
0.0
 10
156.2762
 20
7.156300000000001
 30
0.0
 10
156.0502
 20
7.2145
 30
0.0
 10
156.0502
 20
7.2145
 30
0.0
 10
155.8242
 20
7.2727
 30
0.0
 10
155.4109
 20
7.1821
 30
0.0
 10
155.2236
 20
7.311500000000001
 30
0.0
 10
155.2236
 20
7.311500000000001
 30
0.0
 10
155.0363
 20
7.4409
 30
0.0
 10
154.8232
 20
7.899800000000001
 30
0.0
 10
155.0363
 20
8.410600000000001
 30
0.0
 10
155.0363
 20
8.410600000000001
 30
0.0
 10
155.2494
 20
8.9214
 30
0.0
 10
155.766
 20
8.753300000000001
 30
0.0
 10
156.0308
 20
8.785600000000001
 30
0.0
 10
156.0308
 20
8.785600000000001
 30
0.0
 10
156.2956
 20
8.8179
 30
0.0
 10
156.3473
 20
8.902000000000001
 30
0.0
 10
156.5475
 20
9.2964
 30
0.0
 10
156.5475
 20
9.2964
 30
0.0
 10
156.7477
 20
9.690800000000001
 30
0.0
 10
156.9672
 20
9.8331
 30
0.0
 10
157.2901
 20
9.910600000000001
 30
0.0
 10
157.2901
 20
9.910600000000001
 30
0.0
 10
157.613
 20
9.988100000000001
 30
0.0
 10
157.8584
 20
9.7684
 30
0.0
 10
158.1297
 20
9.8201
 30
0.0
 10
158.1297
 20
9.8201
 30
0.0
 10
158.401
 20
9.8718
 30
0.0
 10
158.2588
 20
10.2598
 30
0.0
 10
158.1942
 20
10.6348
 30
0.0
 10
158.1942
 20
10.6348
 30
0.0
 10
158.1296
 20
11.0098
 30
0.0
 10
158.233
 20
11.1908
 30
0.0
 10
158.5688
 20
11.3202
 30
0.0
 10
158.5688
 20
11.3202
 30
0.0
 10
158.9046
 20
11.4496
 30
0.0
 10
159.0984
 20
11.3848
 30
0.0
 10
159.3438
 20
11.2296
 30
0.0
 10
159.3438
 20
11.2296
 30
0.0
 10
159.5892
 20
11.0744
 30
0.0
 10
159.7054
 20
11.1133
 30
0.0
 10
159.8604
 20
11.2943
 30
0.0
 10
159.8604
 20
11.2943
 30
0.0
 10
160.0154
 20
11.4753
 30
0.0
 10
159.7183
 20
11.8762
 30
0.0
 10
159.925
 20
12.7555
 30
0.0
 10
159.925
 20
12.7555
 30
0.0
 10
160.1317
 20
13.6348
 30
0.0
 10
161.1259
 20
13.6738
 30
0.0
 10
161.4553
 20
13.6415
 30
0.0
 10
161.4553
 20
13.6415
 30
0.0
 10
161.7847
 20
13.6092
 30
0.0
 10
162.1269
 20
13.4992
 30
0.0
 10
162.2949
 20
13.0789
 30
0.0
 10
162.2949
 20
13.0789
 30
0.0
 10
162.4629
 20
12.6586
 30
0.0
 10
162.1721
 20
12.0897
 30
0.0
 10
162.0365
 20
11.9151
 30
0.0
 10
162.0365
 20
11.9151
 30
0.0
 10
161.9009
 20
11.7405
 30
0.0
 10
161.7717
 20
11.4366
 30
0.0
 10
161.9719
 20
11.2232
 30
0.0
 10
161.9719
 20
11.2232
 30
0.0
 10
162.1721
 20
11.0098
 30
0.0
 10
162.353
 20
11.1456
 30
0.0
 10
162.6823
 20
11.1456
 30
0.0
 10
162.6823
 20
11.1456
 30
0.0
 10
163.0116
 20
11.1456
 30
0.0
 10
163.1215
 20
10.8741
 30
0.0
 10
163.27
 20
10.8611
 30
0.0
 10
163.27
 20
10.8611
 30
0.0
 10
163.4185
 20
10.8481
 30
0.0
 10
163.6446
 20
10.8223
 30
0.0
 10
163.7285
 20
11.0874
 30
0.0
 10
163.7285
 20
11.0874
 30
0.0
 10
163.8124
 20
11.3525
 30
0.0
 10
163.6188
 20
11.3332
 30
0.0
 10
163.3411
 20
11.7534
 30
0.0
 10
163.3411
 20
11.7534
 30
0.0
 10
163.0634
 20
12.1736
 30
0.0
 10
163.0634
 20
12.7298
 30
0.0
 10
163.2184
 20
13.163
 30
0.0
 10
163.2184
 20
13.163
 30
0.0
 10
163.3734
 20
13.5962
 30
0.0
 10
163.7544
 20
13.7191
 30
0.0
 10
163.9933
 20
13.7773
 30
0.0
 10
163.9933
 20
13.7773
 30
0.0
 10
164.2322
 20
13.8355
 30
0.0
 10
164.3098
 20
13.8936
 30
0.0
 10
164.6779
 20
13.8484
 30
0.0
 10
164.6779
 20
13.8484
 30
0.0
 10
165.046
 20
13.8032
 30
0.0
 10
165.1364
 20
13.5122
 30
0.0
 10
165.2268
 20
13.1953
 30
0.0
 10
165.2268
 20
13.1953
 30
0.0
 10
165.3172
 20
12.8784
 30
0.0
 10
165.1043
 20
12.6909
 30
0.0
 10
164.9622
 20
12.3159
 30
0.0
 10
164.9622
 20
12.3159
 30
0.0
 10
164.8201
 20
11.9409
 30
0.0
 10
165.1301
 20
11.6822
 30
0.0
 10
165.608
 20
11.2814
 30
0.0
 10
165.608
 20
11.2814
 30
0.0
 10
166.0859
 20
10.8806
 30
0.0
 10
166.4604
 20
10.8676
 30
0.0
 10
167.0287
 20
10.9322
 30
0.0
 10
167.0287
 20
10.9322
 30
0.0
 10
167.597
 20
10.9968
 30
0.0
 10
167.5583
 20
11.3977
 30
0.0
 10
167.9458
 20
11.5917
 30
0.0
 10
167.9458
 20
11.5917
 30
0.0
 10
168.3333
 20
11.7857
 30
0.0
 10
168.5528
 20
11.734
 30
0.0
 10
168.7337
 20
11.6305
 30
0.0
 10
168.7337
 20
11.6305
 30
0.0
 10
168.9146
 20
11.527
 30
0.0
 10
169.1728
 20
11.5271
 30
0.0
 10
169.3278
 20
11.721
 30
0.0
 10
169.3278
 20
11.721
 30
0.0
 10
169.4828
 20
11.9149
 30
0.0
 10
169.147
 20
12.0443
 30
0.0
 10
168.9145
 20
12.29
 30
0.0
 10
168.9145
 20
12.29
 30
0.0
 10
168.682
 20
12.5357
 30
0.0
 10
168.7595
 20
12.8073
 30
0.0
 10
169.0178
 20
13.0529
 30
0.0
 10
169.0178
 20
13.0529
 30
0.0
 10
169.2761
 20
13.2985
 30
0.0
 10
169.5086
 20
13.2857
 30
0.0
 10
169.8703
 20
13.3504
 30
0.0
 10
169.8703
 20
13.3504
 30
0.0
 10
170.232
 20
13.4151
 30
0.0
 10
170.2836
 20
13.415
 30
0.0
 10
170.6581
 20
13.803
 30
0.0
 10
170.6581
 20
13.803
 30
0.0
 10
171.0326
 20
14.191
 30
0.0
 10
171.2264
 20
14.0616
 30
0.0
 10
171.4072
 20
13.9581
 30
0.0
 10
171.4072
 20
13.9581
 30
0.0
 10
171.588
 20
13.8546
 30
0.0
 10
171.4589
 20
13.1435
 30
0.0
 10
171.136
 20
12.7426
 30
0.0
 10
171.136
 20
12.7426
 30
0.0
 10
170.8131
 20
12.3417
 30
0.0
 10
170.8777
 20
12.3417
 30
0.0
 10
170.4773
 20
11.8374
 30
0.0
 10
170.4773
 20
11.8374
 30
0.0
 10
170.0769
 20
11.3331
 30
0.0
 10
169.9607
 20
11.5658
 30
0.0
 10
169.7153
 20
11.5012
 30
0.0
 10
169.7153
 20
11.5012
 30
0.0
 10
169.4699
 20
11.4366
 30
0.0
 10
169.6894
 20
11.1003
 30
0.0
 10
169.9348
 20
11.0227
 30
0.0
 10
169.9348
 20
11.0227
 30
0.0
 10
170.1802
 20
10.9451
 30
0.0
 10
170.1932
 20
10.6607
 30
0.0
 10
170.5677
 20
10.5572
 30
0.0
 10
170.5677
 20
10.5572
 30
0.0
 10
170.9422
 20
10.4537
 30
0.0
 10
171.2135
 20
10.7512
 30
0.0
 10
171.5752
 20
11.1262
 30
0.0
 10
171.5752
 20
11.1262
 30
0.0
 10
171.9369
 20
11.5012
 30
0.0
 10
172.053
 20
11.5141
 30
0.0
 10
172.4793
 20
11.5788
 30
0.0
 10
172.4793
 20
11.5788
 30
0.0
 10
172.9056
 20
11.6435
 30
0.0
 10
173.0605
 20
11.5012
 30
0.0
 10
173.4221
 20
11.4236
 30
0.0
 10
173.4221
 20
11.4236
 30
0.0
 10
173.7837
 20
11.346
 30
0.0
 10
173.9646
 20
11.346
 30
0.0
 10
174.0938
 20
10.9064
 30
0.0
 10
174.0938
 20
10.9064
 30
0.0
 10
174.223
 20
10.4668
 30
0.0
 10
173.8742
 20
10.415
 30
0.0
 10
173.6675
 20
10.3115
 30
0.0
 10
173.6675
 20
10.3115
 30
0.0
 10
173.4608
 20
10.208
 30
0.0
 10
173.5642
 20
9.8719
 30
0.0
 10
173.8484
 20
9.1477
 30
0.0
 10
173.8484
 20
9.1477
 30
0.0
 10
174.1326
 20
8.423500000000001
 30
0.0
 10
173.6675
 20
8.113200000000001
 30
0.0
 10
172.9959
 20
8.113200000000001
 30
0.0
 10
172.9959
 20
8.113200000000001
 30
0.0
 10
172.3243
 20
8.113200000000001
 30
0.0
 10
171.8851
 20
8.346
 30
0.0
 10
171.5493
 20
8.6563
 30
0.0
 10
171.5493
 20
8.6563
 30
0.0
 10
171.2135
 20
8.9666
 30
0.0
 10
171.136
 20
8.785600000000001
 30
0.0
 10
170.3094
 20
8.6822
 30
0.0
 10
170.3094
 20
8.6822
 30
0.0
 10
169.4828
 20
8.578800000000001
 30
0.0
 10
168.4236
 20
8.552900000000001
 30
0.0
 10
167.5454
 20
8.7339
 30
0.0
 10
167.5454
 20
8.7339
 30
0.0
 10
166.6672
 20
8.914900000000001
 30
0.0
 10
165.5821
 20
9.8977
 30
0.0
 10
165.1688
 20
10.0012
 30
0.0
 10
165.1688
 20
10.0012
 30
0.0
 10
164.7555
 20
10.1047
 30
0.0
 10
164.1872
 20
9.5098
 30
0.0
 10
163.7481
 20
9.535600000000001
 30
0.0
 10
163.7481
 20
9.535600000000001
 30
0.0
 10
163.309
 20
9.561400000000001
 30
0.0
 10
162.8698
 20
9.8977
 30
0.0
 10
162.3273
 20
9.665000000000001
 30
0.0
 10
162.3273
 20
9.665000000000001
 30
0.0
 10
161.7848
 20
9.4323
 30
0.0
 10
161.5007
 20
9.1218
 30
0.0
 10
160.7774
 20
8.9925
 30
0.0
 10
160.7774
 20
8.9925
 30
0.0
 10
160.0541
 20
8.863200000000001
 30
0.0
 10
159.4599
 20
8.7598
 30
0.0
 10
158.8658
 20
8.3718
 30
0.0
 10
158.8658
 20
8.3718
 30
0.0
 10
158.2717
 20
7.983800000000001
 30
0.0
 10
158.6333
 20
7.518400000000001
 30
0.0
 10
159.15
 20
7.5442
 30
0.0
 10
159.15
 20
7.5442
 30
0.0
 10
159.6667
 20
7.57
 30
0.0
 10
160.1574
 20
8.035600000000001
 30
0.0
 10
160.6999
 20
8.3201
 30
0.0
 10
160.6999
 20
8.3201
 30
0.0
 10
161.2424
 20
8.6046
 30
0.0
 10
161.8882
 20
8.423500000000001
 30
0.0
 10
162.224
 20
8.3977
 30
0.0
 10
162.224
 20
8.3977
 30
0.0
 10
162.5598
 20
8.3719
 30
0.0
 10
162.5598
 20
8.139100000000001
 30
0.0
 10
162.9731
 20
8.087300000000001
 30
0.0
 10
162.9731
 20
8.087300000000001
 30
0.0
 10
163.3864
 20
8.035500000000001
 30
0.0
 10
163.5672
 20
8.3718
 30
0.0
 10
164.0064
 20
8.6822
 30
0.0
 10
164.0064
 20
8.6822
 30
0.0
 10
164.4456
 20
8.992600000000001
 30
0.0
 10
164.8847
 20
8.9925
 30
0.0
 10
165.2463
 20
8.914900000000001
 30
0.0
 10
165.2463
 20
8.914900000000001
 30
0.0
 10
165.6079
 20
8.837300000000001
 30
0.0
 10
165.8404
 20
8.811500000000001
 30
0.0
 10
166.2796
 20
8.6304
 30
0.0
 10
166.2796
 20
8.6304
 30
0.0
 10
166.7188
 20
8.449300000000001
 30
0.0
 10
166.5896
 20
8.009700000000001
 30
0.0
 10
166.3571
 20
7.725300000000001
 30
0.0
 10
166.3571
 20
7.725300000000001
 30
0.0
 10
166.1246
 20
7.4409
 30
0.0
 10
166.2021
 20
7.130400000000001
 30
0.0
 10
166.5896
 20
7.0787
 30
0.0
 10
166.5896
 20
7.0787
 30
0.0
 10
166.9771
 20
7.027
 30
0.0
 10
167.287
 20
7.5701
 30
0.0
 10
167.8553
 20
7.932200000000001
 30
0.0
 10
167.8553
 20
7.932200000000001
 30
0.0
 10
168.4236
 20
8.2943
 30
0.0
 10
168.7078
 20
8.087300000000001
 30
0.0
 10
169.1728
 20
7.932200000000001
 30
0.0
 10
169.1728
 20
7.932200000000001
 30
0.0
 10
169.6378
 20
7.777100000000001
 30
0.0
 10
169.5861
 20
7.4408
 30
0.0
 10
169.5086
 20
6.8718
 30
0.0
 10
169.5086
 20
6.8718
 30
0.0
 10
169.4311
 20
6.3028
 30
0.0
 10
169.6894
 20
6.1218
 30
0.0
 10
170.2319
 20
5.6821
 30
0.0
 10
170.2319
 20
5.6821
 30
0.0
 10
170.7744
 20
5.2424
 30
0.0
 10
170.6969
 20
4.8028
 30
0.0
 10
170.3352
 20
4.440700000000001
 30
0.0
 10
170.3352
 20
4.440700000000001
 30
0.0
 10
169.9735
 20
4.0786
 30
0.0
 10
169.2503
 20
4.1304
 30
0.0
 10
168.4236
 20
4.1562
 30
0.0
 10
168.4236
 20
4.1562
 30
0.0
 10
167.5969
 20
4.182
 30
0.0
 10
166.7704
 20
5.009700000000001
 30
0.0
 10
166.5379
 20
5.397600000000001
 30
0.0
 10
166.5379
 20
5.397600000000001
 30
0.0
 10
166.3054
 20
5.7855
 30
0.0
 10
165.9438
 20
5.759700000000001
 30
0.0
 10
165.4788
 20
5.5787
 30
0.0
 10
165.4788
 20
5.5787
 30
0.0
 10
165.0138
 20
5.3977
 30
0.0
 10
165.143
 20
5.242500000000001
 30
0.0
 10
164.5747
 20
5.32
 30
0.0
 10
164.5747
 20
5.32
 30
0.0
 10
164.0064
 20
5.3975
 30
0.0
 10
163.7739
 20
6.0183
 30
0.0
 10
163.3089
 20
6.1218
 30
0.0
 10
163.3089
 20
6.1218
 30
0.0
 10
162.8439
 20
6.225300000000001
 30
0.0
 10
162.6889
 20
5.6821
 30
0.0
 10
162.4565
 20
5.2942
 30
0.0
 10
162.4565
 20
5.2942
 30
0.0
 10
162.2241
 20
4.9063
 30
0.0
 10
162.3015
 20
4.3373
 30
0.0
 10
162.6114
 20
4.1304
 30
0.0
 10
162.6114
 20
4.1304
 30
0.0
 10
162.9213
 20
3.9235
 30
0.0
 10
163.1797
 20
3.7166
 30
0.0
 10
163.2314
 20
3.4321
 30
0.0
 10
163.2314
 20
3.4321
 30
0.0
 10
163.2831
 20
3.1476
 30
0.0
 10
163.3864
 20
3.07
 30
0.0
 10
163.7739
 20
3.0183
 30
0.0
 10
163.7739
 20
3.0183
 30
0.0
 10
164.1614
 20
2.9666
 30
0.0
 10
164.2647
 20
3.3545
 30
0.0
 10
164.988
 20
3.5872
 30
0.0
 10
164.988
 20
3.5872
 30
0.0
 10
165.7113
 20
3.8199
 30
0.0
 10
165.7629
 20
3.639
 30
0.0
 10
166.3829
 20
3.2252
 30
0.0
 10
166.3829
 20
3.2252
 30
0.0
 10
167.0029
 20
2.8114
 30
0.0
 10
166.7446
 20
2.0355
 30
0.0
 10
167.4162
 20
1.5958
 30
0.0
 10
167.4162
 20
1.5958
 30
0.0
 10
168.0878
 20
1.1561
 30
0.0
 10
168.3203
 20
1.4665
 30
0.0
 10
168.7336
 20
1.7251
 30
0.0
 10
168.7336
 20
1.7251
 30
0.0
 10
169.1469
 20
1.9837
 30
0.0
 10
169.1469
 20
2.1907
 30
0.0
 10
169.9219
 20
2.9924
 30
0.0
 10
169.9219
 20
2.9924
 30
0.0
 10
170.6969
 20
3.7941
 30
0.0
 10
170.6452
 20
3.251
 30
0.0
 10
171.3427
 20
3.0441
 30
0.0
 10
171.3427
 20
3.0441
 30
0.0
 10
172.0402
 20
2.8372
 30
0.0
 10
171.7301
 20
2.5269
 30
0.0
 10
172.1176
 20
1.751
 30
0.0
 10
172.1176
 20
1.751
 30
0.0
 10
172.5051
 20
0.9751000000000001
 30
0.0
 10
172.6601
 20
1.0527
 30
0.0
 10
173.2542
 20
1.1044
 30
0.0
 10
173.2542
 20
1.1044
 30
0.0
 10
173.8483
 20
1.1561
 30
0.0
 10
173.59
 20
1.3113
 30
0.0
 10
173.8742
 20
1.3113
 30
0.0
 10
173.8742
 20
1.3113
 30
0.0
 10
174.1584
 20
1.3113
 30
0.0
 10
174.4425
 20
1.4924
 30
0.0
 10
174.6492
 20
2.0096
 30
0.0
 10
174.6492
 20
2.0096
 30
0.0
 10
174.8559
 20
2.5268
 30
0.0
 10
174.9591
 20
2.7079
 30
0.0
 10
175.5533
 20
2.9407
 30
0.0
 10
175.5533
 20
2.9407
 30
0.0
 10
176.1475
 20
3.1735
 30
0.0
 10
177.129
 20
2.9924
 30
0.0
 10
177.8007
 20
2.7596
 30
0.0
 10
177.8007
 20
2.7596
 30
0.0
 10
178.4724
 20
2.5268
 30
0.0
 10
178.9114
 20
1.8544
 30
0.0
 10
178.9889
 20
1.0526
 30
0.0
 10
178.9889
 20
1.0526
 30
0.0
 10
179.0664
 20
0.2508
 30
0.0
 10
179.1698
 20
-0.0595
 30
0.0
 10
179.7897
 20
-1.1198
 30
0.0
 10
179.7897
 20
-1.1198
 30
0.0
 10
180.4096
 20
-2.1801
 30
0.0
 10
181.2105
 20
-2.5423
 30
0.0
 10
181.753
 20
-2.4906
 30
0.0
 10
181.753
 20
-2.4906
 30
0.0
 10
182.2955
 20
-2.4389
 30
0.0
 10
182.3988
 20
-1.844
 30
0.0
 10
182.3988
 20
-1.3267
 30
0.0
 10
182.3988
 20
-1.3267
 30
0.0
 10
182.3988
 20
-0.8094
 30
0.0
 10
182.218
 20
-0.5767
 30
0.0
 10
181.908
 20
-0.0595
 30
0.0
 10
181.908
 20
-0.0595
 30
0.0
 10
181.598
 20
0.4577
 30
0.0
 10
180.6164
 20
1.2337
 30
0.0
 10
180.4872
 20
2.113
 30
0.0
 10
180.4872
 20
2.113
 30
0.0
 10
180.358
 20
2.9923
 30
0.0
 10
180.668
 20
3.6389
 30
0.0
 10
181.4688
 20
4.182
 30
0.0
 10
181.4688
 20
4.182
 30
0.0
 10
182.2696
 20
4.7251
 30
0.0
 10
183.5096
 20
4.5183
 30
0.0
 10
184.0262
 20
4.233800000000001
 30
0.0
 10
184.0262
 20
4.233800000000001
 30
0.0
 10
184.5428
 20
3.9493
 30
0.0
 10
185.0078
 20
3.251
 30
0.0
 10
184.8787
 20
2.3975
 30
0.0
 10
184.8787
 20
2.3975
 30
0.0
 10
184.7496
 20
1.544
 30
0.0
 10
183.5871
 20
0.4061
 30
0.0
 10
183.5871
 20
0.4061
 30
0.0
 10
183.5871
 20
0.4061
 30
0.0
 10
183.148
 20
-0.3698
 30
0.0
 10
184.3362
 20
-0.6284000000000001
 30
0.0
 10
184.3362
 20
-0.6284000000000001
 30
0.0
 10
184.3362
 20
-0.6284000000000001
 30
0.0
 10
186.5578
 20
-0.0077
 30
0.0
 10
186.5061
 20
-1.3009
 30
0.0
 10
187.0486
 20
-1.6888
 30
0.0
 10
187.0486
 20
-1.6888
 30
0.0
 10
187.5911
 20
-2.0767
 30
0.0
 10
187.6169
 20
-1.7147
 30
0.0
 10
187.6169
 20
-1.7147
 30
0.0
 10
187.6169
 20
-1.7147
 30
0.0
 10
187.419
 20
-0.1204
 30
0.0
 10
188.1593
 20
0.2509
 30
0.0
 10
188.9343
 20
0.5612
 30
0.0
 10
188.9343
 20
0.5612
 30
0.0
 10
189.7093
 20
0.8715000000000001
 30
0.0
 10
190.1742
 20
0.7423000000000001
 30
0.0
 10
190.8717
 20
0.3543
 30
0.0
 10
190.8717
 20
0.3543
 30
0.0
 10
191.5692
 20
-0.0337
 30
0.0
 10
191.9567
 20
-0.1629
 30
0.0
 10
192.4216
 20
-0.2146
 30
0.0
 10
192.4216
 20
-0.2146
 30
0.0
 10
192.8865
 20
-0.2663
 30
0.0
 10
193.3516
 20
-0.0595
 30
0.0
 10
194.0749
 20
0.3543
 30
0.0
 10
194.0749
 20
0.3543
 30
0.0
 10
194.7982
 20
0.7681
 30
0.0
 10
195.2632
 20
0.6388
 30
0.0
 10
196.1156
 20
0.4319
 30
0.0
 10
196.1156
 20
0.4319
 30
0.0
 10
196.968
 20
0.225
 30
0.0
 10
197.0972
 20
-0.0077
 30
0.0
 10
197.2781
 20
-0.7836000000000001
 30
0.0
 10
197.2781
 20
-0.7836000000000001
 30
0.0
 10
197.459
 20
-1.5595
 30
0.0
 10
197.3297
 20
-1.4043
 30
0.0
 10
197.9239
 20
-1.4561
 30
0.0
 10
197.9239
 20
-1.4561
 30
0.0
 10
198.5181
 20
-1.5079
 30
0.0
 10
198.5438
 20
-1.844
 30
0.0
 10
198.7247
 20
-2.1285
 30
0.0
 10
198.7247
 20
-2.1285
 30
0.0
 10
198.9056
 20
-2.413
 30
0.0
 10
199.3705
 20
-2.3354
 30
0.0
 10
200.2229
 20
-2.3095
 30
0.0
 10
200.2229
 20
-2.3095
 30
0.0
 10
201.0753
 20
-2.2836
 30
0.0
 10
200.9204
 20
-2.4388
 30
0.0
 10
201.3854
 20
-2.8268
 30
0.0
 10
201.3854
 20
-2.8268
 30
0.0
 10
201.8504
 20
-3.2148
 30
0.0
 10
201.592
 20
-4.171600000000001
 30
0.0
 10
201.7212
 20
-4.533700000000001
 30
0.0
 10
201.7212
 20
-4.533700000000001
 30
0.0
 10
201.8504
 20
-4.8958
 30
0.0
 10
202.057
 20
-4.8182
 30
0.0
 10
202.5995
 20
-4.766500000000001
 30
0.0
 10
202.5995
 20
-4.766500000000001
 30
0.0
 10
203.142
 20
-4.7148
 30
0.0
 10
203.3228
 20
-4.8958
 30
0.0
 10
203.8394
 20
-5.2579
 30
0.0
 10
203.8394
 20
-5.2579
 30
0.0
 10
204.356
 20
-5.62
 30
0.0
 10
204.2786
 20
-6.861400000000001
 30
0.0
 10
204.0461
 20
-7.5597
 30
0.0
 10
204.0461
 20
-7.5597
 30
0.0
 10
203.8136
 20
-8.258000000000001
 30
0.0
 10
203.8653
 20
-8.7752
 30
0.0
 10
204.1494
 20
-8.8011
 30
0.0
 10
204.1494
 20
-8.8011
 30
0.0
 10
204.4335
 20
-8.827
 30
0.0
 10
205.0794
 20
-8.8787
 30
0.0
 10
205.6218
 20
-8.8787
 30
0.0
 10
205.6218
 20
-8.8787
 30
0.0
 10
206.1642
 20
-8.8787
 30
0.0
 10
206.1643
 20
-8.568300000000001
 30
0.0
 10
206.1385
 20
-7.9218
 30
0.0
 10
206.1385
 20
-7.9218
 30
0.0
 10
206.1127
 20
-7.275300000000001
 30
0.0
 10
206.1385
 20
-6.861400000000001
 30
0.0
 10
206.6293
 20
-6.7062
 30
0.0
 10
206.6293
 20
-6.7062
 30
0.0
 10
207.1201
 20
-6.551
 30
0.0
 10
207.7917
 20
-6.7321
 30
0.0
 10
208.1534
 20
-6.602700000000001
 30
0.0
 10
208.1534
 20
-6.602700000000001
 30
0.0
 10
208.5151
 20
-6.4733
 30
0.0
 10
208.1275
 20
-5.7493
 30
0.0
 10
208.36
 20
-4.9993
 30
0.0
 10
208.36
 20
-4.9993
 30
0.0
 10
208.5925
 20
-4.2493
 30
0.0
 10
209.2383
 20
-4.6113
 30
0.0
 10
209.2383
 20
-4.6113
 30
0.0
 10
209.2383
 20
-4.6113
 30
0.0
 10
209.2383
 20
-4.6113
 30
0.0
 10
209.2383
 20
-4.1199
 30
0.0
 10
209.5741
 20
-3.8872
 30
0.0
 10
209.5741
 20
-3.8872
 30
0.0
 10
209.9099
 20
-3.6545
 30
0.0
 10
210.2458
 20
-3.913
 30
0.0
 10
210.3491
 20
-4.5854
 30
0.0
 10
210.3491
 20
-4.5854
 30
0.0
 10
210.4524
 20
-5.257800000000001
 30
0.0
 10
209.91
 20
-6.292400000000001
 30
0.0
 10
209.5483
 20
-6.8097
 30
0.0
 10
209.5483
 20
-6.8097
 30
0.0
 10
209.1866
 20
-7.327
 30
0.0
 10
209.29
 20
-7.301
 30
0.0
 10
209.135
 20
-8.0252
 30
0.0
 10
209.135
 20
-8.0252
 30
0.0
 10
208.98
 20
-8.7494
 30
0.0
 10
208.3342
 20
-9.008000000000001
 30
0.0
 10
207.8176
 20
-9.085600000000001
 30
0.0
 10
207.8176
 20
-9.085600000000001
 30
0.0
 10
207.301
 20
-9.1632
 30
0.0
 10
207.3784
 20
-9.732100000000001
 30
0.0
 10
206.9651
 20
-10.4563
 30
0.0
 10
206.9651
 20
-10.4563
 30
0.0
 10
206.5518
 20
-11.1805
 30
0.0
 10
205.7768
 20
-10.9736
 30
0.0
 10
205.3119
 20
-10.896
 30
0.0
 10
205.3119
 20
-10.896
 30
0.0
 10
204.847
 20
-10.8184
 30
0.0
 10
204.821
 20
-11.3615
 30
0.0
 10
204.0461
 20
-11.9822
 30
0.0
 10
204.0461
 20
-11.9822
 30
0.0
 10
203.2712
 20
-12.6029
 30
0.0
 10
201.902
 20
-11.8012
 30
0.0
 10
201.5662
 20
-11.077
 30
0.0
 10
201.5662
 20
-11.077
 30
0.0
 10
201.2304
 20
-10.3528
 30
0.0
 10
201.747
 20
-9.5511
 30
0.0
 10
201.8762
 20
-9.1632
 30
0.0
 10
201.8762
 20
-9.1632
 30
0.0
 10
202.0054
 20
-8.7753
 30
0.0
 10
201.3854
 20
-8.7235
 30
0.0
 10
200.6362
 20
-7.973500000000001
 30
0.0
 10
200.6362
 20
-7.973500000000001
 30
0.0
 10
199.887
 20
-7.223500000000001
 30
0.0
 10
200.1713
 20
-6.499300000000001
 30
0.0
 10
200.1196
 20
-5.9562
 30
0.0
 10
200.1196
 20
-5.9562
 30
0.0
 10
200.0679
 20
-5.4131
 30
0.0
 10
199.8613
 20
-5.62
 30
0.0
 10
198.983
 20
-5.62
 30
0.0
 10
198.983
 20
-5.62
 30
0.0
 10
198.1047
 20
-5.62
 30
0.0
 10
197.4589
 20
-5.051
 30
0.0
 10
197.0456
 20
-4.533700000000001
 30
0.0
 10
197.0456
 20
-4.533700000000001
 30
0.0
 10
196.6323
 20
-4.0164
 30
0.0
 10
196.7873
 20
-3.5899
 30
0.0
 10
196.4256
 20
-3.37
 30
0.0
 10
196.4256
 20
-3.37
 30
0.0
 10
196.0639
 20
-3.1501
 30
0.0
 10
195.8056
 20
-3.4864
 30
0.0
 10
195.0307
 20
-3.4735
 30
0.0
 10
195.0307
 20
-3.4735
 30
0.0
 10
194.2558
 20
-3.4606
 30
0.0
 10
194.1911
 20
-3.0597
 30
0.0
 10
193.8682
 20
-2.7105
 30
0.0
 10
193.8682
 20
-2.7105
 30
0.0
 10
193.5453
 20
-2.3613
 30
0.0
 10
193.0804
 20
-2.426
 30
0.0
 10
192.8091
 20
-2.6717
 30
0.0
 10
192.8091
 20
-2.6717
 30
0.0
 10
192.5378
 20
-2.9174
 30
0.0
 10
192.6154
 20
-3.3183
 30
0.0
 10
192.2021
 20
-3.5381
 30
0.0
 10
192.2021
 20
-3.5381
 30
0.0
 10
191.7888
 20
-3.7579
 30
0.0
 10
190.8717
 20
-3.5381
 30
0.0
 10
189.8255
 20
-3.6157
 30
0.0
 10
189.8255
 20
-3.6157
 30
0.0
 10
188.7793
 20
-3.6933
 30
0.0
 10
188.4822
 20
-3.2666
 30
0.0
 10
188.1335
 20
-3.189
 30
0.0
 10
188.1335
 20
-3.189
 30
0.0
 10
187.7848
 20
-3.1114
 30
0.0
 10
187.6298
 20
-3.6545
 30
0.0
 10
187.2423
 20
-4.0683
 30
0.0
 10
187.2423
 20
-4.0683
 30
0.0
 10
186.8548
 20
-4.4821
 30
0.0
 10
186.364
 20
-4.611400000000001
 30
0.0
 10
185.0337
 20
-4.689
 30
0.0
 10
185.0337
 20
-4.689
 30
0.0
 10
183.7034
 20
-4.7666
 30
0.0
 10
183.3287
 20
-4.3399
 30
0.0
 10
182.7992
 20
-4.0683
 30
0.0
 10
182.7992
 20
-4.0683
 30
0.0
 10
182.2697
 20
-3.7967
 30
0.0
 10
182.1921
 20
-4.249400000000001
 30
0.0
 10
181.5592
 20
-4.9218
 30
0.0
 10
181.5592
 20
-4.9218
 30
0.0
 10
180.9263
 20
-5.5942
 30
0.0
 10
180.216
 20
-5.646
 30
0.0
 10
179.3248
 20
-5.6718
 30
0.0
 10
179.3248
 20
-5.6718
 30
0.0
 10
178.4336
 20
-5.6976
 30
0.0
 10
178.0332
 20
-5.309600000000001
 30
0.0
 10
177.594
 20
-5.283700000000001
 30
0.0
 10
177.594
 20
-5.283700000000001
 30
0.0
 10
177.1548
 20
-5.257800000000001
 30
0.0
 10
176.6899
 20
-5.7493
 30
0.0
 10
175.6566
 20
-6.2407
 30
0.0
 10
175.6566
 20
-6.2407
 30
0.0
 10
174.6233
 20
-6.7321
 30
0.0
 10
173.5384
 20
-6.5252
 30
0.0
 10
172.8151
 20
-6.085500000000001
 30
0.0
 10
172.8151
 20
-6.085500000000001
 30
0.0
 10
172.0918
 20
-5.6458
 30
0.0
 10
171.9626
 20
-5.4389
 30
0.0
 10
171.3685
 20
-5.4648
 30
0.0
 10
171.3685
 20
-5.4648
 30
0.0
 10
170.7744
 20
-5.4907
 30
0.0
 10
170.206
 20
-5.878600000000001
 30
0.0
 10
168.7078
 20
-5.878600000000001
 30
0.0
 10
168.7078
 20
-5.878600000000001
 30
0.0
 10
167.2096
 20
-5.878600000000001
 30
0.0
 10
167.0029
 20
-5.2062
 30
0.0
 10
166.4604
 20
-4.6372
 30
0.0
 10
166.4604
 20
-4.6372
 30
0.0
 10
165.9179
 20
-4.0682
 30
0.0
 10
165.4529
 20
-4.559600000000001
 30
0.0
 10
164.4971
 20
-4.6889
 30
0.0
 10
164.4971
 20
-4.6889
 30
0.0
 10
163.5413
 20
-4.8182
 30
0.0
 10
162.7922
 20
-4.5854
 30
0.0
 10
162.3531
 20
-4.1458
 30
0.0
 10
162.3531
 20
-4.1458
 30
0.0
 10
161.914
 20
-3.7062
 30
0.0
 10
161.7589
 20
-4.016500000000001
 30
0.0
 10
161.0615
 20
-4.1975
 30
0.0
 10
161.0615
 20
-4.1975
 30
0.0
 10
160.3641
 20
-4.3785
 30
0.0
 10
160.054
 20
-4.171600000000001
 30
0.0
 10
159.2791
 20
-3.8872
 30
0.0
 10
159.2791
 20
-3.8872
 30
0.0
 10
158.5042
 20
-3.6028
 30
0.0
 10
158.1469
 20
-3.9708
 30
0.0
 10
158.1469
 20
-3.9708
 30
0.0
 10
158.1469
 20
-3.9708
 30
0.0
 10
154.8413
 20
-11.5117
 30
0.0
 10
158.6634
 20
-28.2463
 30
0.0
 10
158.6634
 20
-28.2463
 30
0.0
 10
158.6634
 20
-28.2463
 30
0.0
 10
160.3162
 20
-37.3367
 30
0.0
 10
163.7251
 20
-44.46440000000001
 30
0.0
 10
163.7251
 20
-44.46440000000001
 30
0.0
 10
163.7251
 20
-44.46440000000001
 30
0.0
 10
170.5429
 20
-57.7901
 30
0.0
 10
177.7706
 20
-57.3121
 30
0.0
 10
177.7706
 20
-57.3121
 30
0.0
 10
177.7706
 20
-57.3121
 30
0.0
 10
186.2846
 20
-57.4669
 30
0.0
 10
197.1206
 20
-44.3605
 30
0.0
 10
198.5654
 20
-42.3481
 30
0.0
 10
198.5654
 20
-42.3481
 30
0.0
 10
200.0102
 20
-40.3357
 30
0.0
 10
201.5274
 20
-38.117
 30
0.0
 10
201.7212
 20
-38.1299
 30
0.0
 10
201.7212
 20
-38.1299
 30
0.0
 10
201.915
 20
-38.1428
 30
0.0
 10
201.7987
 20
-38.4403
 30
0.0
 10
201.5662
 20
-38.9317
 30
0.0
 10
201.5662
 20
-38.9317
 30
0.0
 10
201.3337
 20
-39.42310000000001
 30
0.0
 10
201.1454
 20
-40.1293
 30
0.0
 10
201.1454
 20
-40.1293
 30
0.0
 10
201.1454
 20
-40.1293
 30
0.0
 10
199.907
 20
-45.7537
 30
0.0
 10
201.3002
 20
-47.7661
 30
0.0
 10
202.5902
 20
-48.6949
 30
0.0
 10
202.5902
 20
-48.6949
 30
0.0
 10
203.8802
 20
-49.6237
 30
0.0
 10
204.809
 20
-48.12730000000001
 30
0.0
 10
205.325
 20
-46.9405
 30
0.0
 10
205.325
 20
-46.9405
 30
0.0
 10
205.841
 20
-45.7537
 30
0.0
 10
205.7378
 20
-41.8321
 30
0.0
 10
205.7894
 20
-39.6133
 30
0.0
 10
205.7894
 20
-39.6133
 30
0.0
 10
205.841
 20
-37.3945
 30
0.0
 10
206.4086
 20
-35.5369
 30
0.0
 10
207.389
 20
-33.7825
 30
0.0
 10
207.389
 20
-33.7825
 30
0.0
 10
208.3694
 20
-32.0281
 30
0.0
 10
208.6442
 20
-28.9223
 30
0.0
 10
208.9025
 20
-27.8361
 30
0.0
 10
208.9025
 20
-27.8361
 30
0.0
 10
209.1608
 20
-26.7499
 30
0.0
 10
209.7808
 20
-25.7412
 30
0.0
 10
210.1941
 20
-24.5257
 30
0.0
 10
210.1941
 20
-24.5257
 30
0.0
 10
210.6074
 20
-23.3102
 30
0.0
 10
210.8916
 20
-21.4224
 30
0.0
 10
210.6333
 20
-20.0775
 30
0.0
 10
210.6333
 20
-20.0775
 30
0.0
 10
210.375
 20
-18.7326
 30
0.0
 10
209.969
 20
-19.5409
 30
0.0
 10
209.969
 20
-19.5409
 30
0.0
 10
209.969
 20
-19.5409
 30
0.0
 10
209.4512
 20
-28.0736
 30
0.0
 10
205.3221
 20
-35.0512
 30
0.0
 10
204.551
 20
-35.6917
 30
0.0
 10
204.551
 20
-35.6917
 30
0.0
 10
203.7799
 20
-36.3322
 30
0.0
 10
203.3642
 20
-35.74330000000001
 30
0.0
 10
203.3126
 20
-35.1757
 30
0.0
 10
203.3126
 20
-35.1757
 30
0.0
 10
203.261
 20
-34.6081
 30
0.0
 10
205.0154
 20
-33.3181
 30
0.0
 10
205.8926
 20
-32.1313
 30
0.0
 10
205.8926
 20
-32.1313
 30
0.0
 10
206.7698
 20
-30.9445
 30
0.0
 10
207.5954
 20
-28.7773
 30
0.0
 10
208.3178
 20
-25.7845
 30
0.0
 10
208.3178
 20
-25.7845
 30
0.0
 10
209.0402
 20
-22.7917
 30
0.0
 10
209.3417
 20
-19.3663
 30
0.0
 10
209.0704
 20
-19.2629
 30
0.0
 10
209.0704
 20
-19.2629
 30
0.0
 10
208.7991
 20
-19.1595
 30
0.0
 10
208.5538
 20
-19.431
 30
0.0
 10
207.5076
 20
-20.2844
 30
0.0
 10
207.5076
 20
-20.2844
 30
0.0
 10
206.4614
 20
-21.1378
 30
0.0
 10
206.2216
 20
-21.5889
 30
0.0
 10
205.7639
 20
-22.2242
 30
0.0
 10
205.7639
 20
-22.2242
 30
0.0
 10
205.3062
 20
-22.8595
 30
0.0
 10
205.2408
 20
-22.8288
 30
0.0
 10
205.1827
 20
-22.819
 30
0.0
 10
205.1827
 20
-22.819
 30
0.0
 10
205.1827
 20
-22.819
 30
0.0
 10
204.9502
 20
-22.6635
 30
0.0
 10
205.131
 20
-22.1204
 30
0.0
 10
205.131
 20
-22.1204
 30
0.0
 10
205.3118
 20
-21.5773
 30
0.0
 10
207.3526
 20
-18.1634
 30
0.0
 10
208.4375
 20
-17.1806
 30
0.0
 10
208.4375
 20
-17.1806
 30
0.0
 10
209.5224
 20
-16.1978
 30
0.0
 10
210.8658
 20
-16.1461
 30
0.0
 10
211.4857
 20
-16.6634
 30
0.0
 10
211.4857
 20
-16.6634
 30
0.0
 10
212.1056
 20
-17.1807
 30
0.0
 10
212.209
 20
-19.5341
 30
0.0
 10
211.8732
 20
-21.0859
 30
0.0
 10
211.8732
 20
-21.0859
 30
0.0
 10
211.5374
 20
-22.6377
 30
0.0
 10
210.2974
 20
-25.4567
 30
0.0
 10
209.7291
 20
-27.1378
 30
0.0
 10
209.7291
 20
-27.1378
 30
0.0
 10
209.1608
 20
-28.8189
 30
0.0
 10
209.2383
 20
-29.9051
 30
0.0
 10
209.0317
 20
-31.6379
 30
0.0
 10
209.0317
 20
-31.6379
 30
0.0
 10
208.8251
 20
-33.3707
 30
0.0
 10
208.1534
 20
-34.1984
 30
0.0
 10
207.5076
 20
-35.5691
 30
0.0
 10
207.5076
 20
-35.5691
 30
0.0
 10
206.8618
 20
-36.93980000000001
 30
0.0
 10
206.526
 20
-39.7071
 30
0.0
 10
206.4485
 20
-42.4227
 30
0.0
 10
206.4485
 20
-42.4227
 30
0.0
 10
206.371
 20
-45.1383
 30
0.0
 10
206.0093
 20
-47.3108
 30
0.0
 10
205.5185
 20
-48.1643
 30
0.0
 10
205.5185
 20
-48.1643
 30
0.0
 10
205.0277
 20
-49.0178
 30
0.0
 10
203.5811
 20
-50.72470000000001
 30
0.0
 10
202.1087
 20
-50.4143
 30
0.0
 10
202.1087
 20
-50.4143
 30
0.0
 10
200.6363
 20
-50.1039
 30
0.0
 10
200.0679
 20
-47.8539
 30
0.0
 10
199.8096
 20
-47.1039
 30
0.0
 10
199.8096
 20
-47.1039
 30
0.0
 10
199.5513
 20
-46.3539
 30
0.0
 10
199.448
 20
-47.0263
 30
0.0
 10
199.448
 20
-47.0263
 30
0.0
 10
199.448
 20
-47.0263
 30
0.0
 10
200.2747
 20
-52.9489
 30
0.0
 10
206.0093
 20
-56.311
 30
0.0
 10
206.2418
 20
-56.4662
 30
0.0
 10
206.2418
 20
-56.4662
 30
0.0
 10
206.4743
 20
-56.6214
 30
0.0
 10
206.681
 20
-56.82830000000001
 30
0.0
 10
206.9393
 20
-56.5955
 30
0.0
 10
206.9393
 20
-56.5955
 30
0.0
 10
207.1976
 20
-56.3627
 30
0.0
 10
207.5334
 20
-56.54380000000001
 30
0.0
 10
207.9467
 20
-56.56970000000001
 30
0.0
 10
207.9467
 20
-56.56970000000001
 30
0.0
 10
208.36
 20
-56.59560000000001
 30
0.0
 10
208.5667
 20
-56.9576
 30
0.0
 10
208.6184
 20
-57.268
 30
0.0
 10
208.6184
 20
-57.268
 30
0.0
 10
208.6701
 20
-57.5784
 30
0.0
 10
208.6959
 20
-57.47490000000001
 30
0.0
 10
209.0833
 20
-57.44900000000001
 30
0.0
 10
209.0833
 20
-57.44900000000001
 30
0.0
 10
209.4707
 20
-57.42310000000001
 30
0.0
 10
209.7626
 20
-57.9829
 30
0.0
 10
209.7626
 20
-57.9829
 30
0.0
 10
209.7626
 20
-57.9829
 30
0.0
 10
209.7626
 20
-57.9829
 30
0.0
 10
235.9616
 20
-69.1268
 30
0.0
 10
236.4395
 20
-69.26900000000001
 30
0.0
 10
236.4395
 20
-69.26900000000001
 30
0.0
 10
236.9174
 20
-69.41120000000001
 30
0.0
 10
237.1241
 20
-69.3725
 30
0.0
 10
237.8215
 20
-69.46300000000001
 30
0.0
 10
237.8215
 20
-69.46300000000001
 30
0.0
 10
238.5189
 20
-69.5535
 30
0.0
 10
238.6353
 20
-69.85090000000001
 30
0.0
 10
238.8548
 20
-70.08370000000001
 30
0.0
 10
238.8548
 20
-70.08370000000001
 30
0.0
 10
239.0743
 20
-70.31650000000001
 30
0.0
 10
239.4102
 20
-70.3553
 30
0.0
 10
239.6427
 20
-70.8596
 30
0.0
 10
239.6427
 20
-70.8596
 30
0.0
 10
239.8752
 20
-71.3639
 30
0.0
 10
239.591
 20
-71.26050000000001
 30
0.0
 10
239.9269
 20
-71.76480000000001
 30
0.0
 10
239.9269
 20
-71.76480000000001
 30
0.0
 10
240.2628
 20
-72.26910000000001
 30
0.0
 10
239.9911
 20
-72.5574
 30
0.0
 10
240.1295
 20
-73.1264
 30
0.0
 10
240.1295
 20
-73.1264
 30
0.0
 10
240.2679
 20
-73.69540000000001
 30
0.0
 10
239.4842
 20
-73.97890000000001
 30
0.0
 10
238.9166
 20
-73.0501
 30
0.0
 10
238.9166
 20
-73.0501
 30
0.0
 10
238.349
 20
-72.12130000000001
 30
0.0
 10
237.4718
 20
-70.98610000000001
 30
0.0
 10
235.3562
 20
-71.55370000000001
 30
0.0
 10
235.3562
 20
-71.55370000000001
 30
0.0
 10
233.2406
 20
-72.12130000000001
 30
0.0
 10
226.739
 20
-76.09450000000001
 30
0.0
 10
223.5398
 20
-79.03570000000001
 30
0.0
 10
223.5398
 20
-79.03570000000001
 30
0.0
 10
220.3406
 20
-81.9769
 30
0.0
 10
215.129
 20
-87.21730000000001
 30
0.0
 10
215.129
 20
-87.21730000000001
 30
0.0
 10
215.129
 20
-87.21730000000001
 30
0.0
 10
215.129
 20
-87.21730000000001
 30
0.0
 10
213.7874
 20
-87.21730000000001
 30
0.0
 10
213.7874
 20
-87.21730000000001
 30
0.0
  0
SPLINE
  5
35
330
1F
100
AcDbEntity
  8
Layer 1
370
     5
100
AcDbSpline
210
0.0
220
0.0
230
1.0
 70
    11
 71
     3
 72
    24
 73
    20
 74
     0
 42
0.0000000001
 43
0.0000000001
 40
0.0
 40
0.0
 40
0.0
 40
0.0
 40
0.2
 40
0.2
 40
0.2
 40
0.2
 40
0.4
 40
0.4
 40
0.4
 40
0.4
 40
0.6000000000000001
 40
0.6000000000000001
 40
0.6000000000000001
 40
0.6000000000000001
 40
0.8
 40
0.8
 40
0.8
 40
0.8
 40
1.0
 40
1.0
 40
1.0
 40
1.0
 10
216.161
 20
-68.1481
 30
0.0
 10
216.161
 20
-68.1481
 30
0.0
 10
214.4066
 20
-71.76010000000001
 30
0.0
 10
213.065
 20
-74.1853
 30
0.0
 10
213.065
 20
-74.1853
 30
0.0
 10
211.7234
 20
-76.6105
 30
0.0
 10
210.0722
 20
-80.2741
 30
0.0
 10
209.1434
 20
-82.23490000000001
 30
0.0
 10
209.1434
 20
-82.23490000000001
 30
0.0
 10
208.2146
 20
-84.1957
 30
0.0
 10
206.5634
 20
-86.93650000000001
 30
0.0
 10
207.0278
 20
-87.21730000000001
 30
0.0
 10
207.0278
 20
-87.21730000000001
 30
0.0
 10
207.4922
 20
-87.49810000000001
 30
0.0
 10
210.4334
 20
-81.5125
 30
0.0
 10
211.517
 20
-79.44850000000001
 30
0.0
 10
211.517
 20
-79.44850000000001
 30
0.0
 10
212.6006
 20
-77.3845
 30
0.0
 10
217.193
 20
-67.8901
 30
0.0
 10
216.161
 20
-68.1481
 30
0.0
  0
SPLINE
  5
36
330
1F
100
AcDbEntity
  8
Layer 1
370
     5
100
AcDbSpline
210
0.0
220
0.0
230
1.0
 70
    11
 71
     3
 72
    68
 73
    64
 74
     0
 42
0.0000000001
 43
0.0000000001
 40
0.0
 40
0.0
 40
0.0
 40
0.0
 40
0.0625
 40
0.0625
 40
0.0625
 40
0.0625
 40
0.125
 40
0.125
 40
0.125
 40
0.125
 40
0.1875
 40
0.1875
 40
0.1875
 40
0.1875
 40
0.25
 40
0.25
 40
0.25
 40
0.25
 40
0.3125
 40
0.3125
 40
0.3125
 40
0.3125
 40
0.375
 40
0.375
 40
0.375
 40
0.375
 40
0.4375
 40
0.4375
 40
0.4375
 40
0.4375
 40
0.5
 40
0.5
 40
0.5
 40
0.5
 40
0.5625
 40
0.5625
 40
0.5625
 40
0.5625
 40
0.625
 40
0.625
 40
0.625
 40
0.625
 40
0.6875
 40
0.6875
 40
0.6875
 40
0.6875
 40
0.75
 40
0.75
 40
0.75
 40
0.75
 40
0.8125
 40
0.8125
 40
0.8125
 40
0.8125
 40
0.875
 40
0.875
 40
0.875
 40
0.875
 40
0.9375
 40
0.9375
 40
0.9375
 40
0.9375
 40
1.0
 40
1.0
 40
1.0
 40
1.0
 10
202.3928
 20
-14.3874
 30
0.0
 10
202.3928
 20
-14.3874
 30
0.0
 10
202.7545
 20
-13.5599
 30
0.0
 10
203.4003
 20
-13.534
 30
0.0
 10
203.4003
 20
-13.534
 30
0.0
 10
204.0461
 20
-13.5081
 30
0.0
 10
204.2268
 20
-13.9477
 30
0.0
 10
204.7435
 20
-13.7667
 30
0.0
 10
204.7435
 20
-13.7667
 30
0.0
 10
205.2602
 20
-13.5857
 30
0.0
 10
205.441
 20
-13.0167
 30
0.0
 10
206.061
 20
-13.0943
 30
0.0
 10
206.061
 20
-13.0943
 30
0.0
 10
206.681
 20
-13.1719
 30
0.0
 10
206.6292
 20
-14.284
 30
0.0
 10
207.2234
 20
-14.4133
 30
0.0
 10
207.2234
 20
-14.4133
 30
0.0
 10
207.8176
 20
-14.5426
 30
0.0
 10
207.7918
 20
-14.0772
 30
0.0
 10
208.3084
 20
-14.0254
 30
0.0
 10
208.3084
 20
-14.0254
 30
0.0
 10
208.825
 20
-13.9736
 30
0.0
 10
209.5741
 20
-13.6633
 30
0.0
 10
209.6516
 20
-14.4392
 30
0.0
 10
209.6516
 20
-14.4392
 30
0.0
 10
209.7291
 20
-15.2151
 30
0.0
 10
209.3416
 20
-15.6289
 30
0.0
 10
208.515
 20
-16.2496
 30
0.0
 10
208.515
 20
-16.2496
 30
0.0
 10
207.6884
 20
-16.8703
 30
0.0
 10
207.2492
 20
-17.0513
 30
0.0
 10
206.9651
 20
-17.9048
 30
0.0
 10
206.9651
 20
-17.9048
 30
0.0
 10
206.681
 20
-18.7583
 30
0.0
 10
206.2677
 20
-19.6635
 30
0.0
 10
205.6477
 20
-20.0514
 30
0.0
 10
205.6477
 20
-20.0514
 30
0.0
 10
205.0277
 20
-20.4393
 30
0.0
 10
203.9943
 20
-20.4393
 30
0.0
 10
203.3744
 20
-20.2324
 30
0.0
 10
203.3744
 20
-20.2324
 30
0.0
 10
202.7545
 20
-20.0255
 30
0.0
 10
202.1603
 20
-19.5858
 30
0.0
 10
202.3928
 20
-18.991
 30
0.0
 10
202.3928
 20
-18.991
 30
0.0
 10
202.6253
 20
-18.3962
 30
0.0
 10
202.8577
 20
-17.9564
 30
0.0
 10
203.6844
 20
-18.0082
 30
0.0
 10
203.6844
 20
-18.0082
 30
0.0
 10
204.5111
 20
-18.06
 30
0.0
 10
205.0019
 20
-18.1376
 30
0.0
 10
205.1052
 20
-17.6462
 30
0.0
 10
205.1052
 20
-17.6462
 30
0.0
 10
205.2085
 20
-17.1548
 30
0.0
 10
205.4152
 20
-16.5598
 30
0.0
 10
204.9502
 20
-16.6116
 30
0.0
 10
204.9502
 20
-16.6116
 30
0.0
 10
204.4852
 20
-16.6634
 30
0.0
 10
203.7877
 20
-16.6892
 30
0.0
 10
203.1161
 20
-16.4306
 30
0.0
 10
203.1161
 20
-16.4306
 30
0.0
 10
202.4445
 20
-16.172
 30
0.0
 10
202.1087
 20
-15.6547
 30
0.0
 10
202.3928
 20
-14.3874
 30
0.0
  0
SPLINE
  5
37
330
1F
100
AcDbEntity
  8
Layer 1
370
     5
100
AcDbSpline
210
0.0
220
0.0
230
1.0
 70
    11
 71
     3
 72
    48
 73
    44
 74
     0
 42
0.0000000001
 43
0.0000000001
 40
0.0
 40
0.0
 40
0.0
 40
0.0
 40
0.0909090909090909
 40
0.0909090909090909
 40
0.0909090909090909
 40
0.0909090909090909
 40
0.1818181818181818
 40
0.1818181818181818
 40
0.1818181818181818
 40
0.1818181818181818
 40
0.2727272727272727
 40
0.2727272727272727
 40
0.2727272727272727
 40
0.2727272727272727
 40
0.3636363636363637
 40
0.3636363636363637
 40
0.3636363636363637
 40
0.3636363636363637
 40
0.4545454545454546
 40
0.4545454545454546
 40
0.4545454545454546
 40
0.4545454545454546
 40
0.5454545454545455
 40
0.5454545454545455
 40
0.5454545454545455
 40
0.5454545454545455
 40
0.6363636363636365
 40
0.6363636363636365
 40
0.6363636363636365
 40
0.6363636363636365
 40
0.7272727272727274
 40
0.7272727272727274
 40
0.7272727272727274
 40
0.7272727272727274
 40
0.8181818181818183
 40
0.8181818181818183
 40
0.8181818181818183
 40
0.8181818181818183
 40
0.9090909090909093
 40
0.9090909090909093
 40
0.9090909090909093
 40
0.9090909090909093
 40
1.0
 40
1.0
 40
1.0
 40
1.0
 10
206.4743
 20
-12.2926
 30
0.0
 10
206.4743
 20
-12.2926
 30
0.0
 10
206.0352
 20
-11.2839
 30
0.0
 10
207.1201
 20
-10.9994
 30
0.0
 10
207.1201
 20
-10.9994
 30
0.0
 10
208.205
 20
-10.7149
 30
0.0
 10
208.4633
 20
-10.5857
 30
0.0
 10
208.515
 20
-10.1977
 30
0.0
 10
208.515
 20
-10.1977
 30
0.0
 10
208.5667
 20
-9.809700000000001
 30
0.0
 10
208.5925
 20
-9.2408
 30
0.0
 10
209.2383
 20
-8.956300000000001
 30
0.0
 10
209.2383
 20
-8.956300000000001
 30
0.0
 10
209.8841
 20
-8.671800000000001
 30
0.0
 10
210.194
 20
-8.827
 30
0.0
 10
210.3749
 20
-9.1632
 30
0.0
 10
210.3749
 20
-9.1632
 30
0.0
 10
210.5558
 20
-9.4994
 30
0.0
 10
210.3492
 20
-9.9132
 30
0.0
 10
210.1425
 20
-10.327
 30
0.0
 10
210.1425
 20
-10.327
 30
0.0
 10
209.9358
 20
-10.7408
 30
0.0
 10
209.9875
 20
-10.8701
 30
0.0
 10
210.3233
 20
-11.4132
 30
0.0
 10
210.3233
 20
-11.4132
 30
0.0
 10
210.6591
 20
-11.9563
 30
0.0
 10
210.7625
 20
-12.2408
 30
0.0
 10
210.5558
 20
-12.6805
 30
0.0
 10
210.5558
 20
-12.6805
 30
0.0
 10
210.3491
 20
-13.1202
 30
0.0
 10
209.8324
 20
-13.5081
 30
0.0
 10
209.3158
 20
-13.4564
 30
0.0
 10
209.3158
 20
-13.4564
 30
0.0
 10
208.7992
 20
-13.4047
 30
0.0
 10
208.7734
 20
-13.1978
 30
0.0
 10
208.6442
 20
-12.9909
 30
0.0
 10
208.6442
 20
-12.9909
 30
0.0
 10
208.515
 20
-12.784
 30
0.0
 10
208.1792
 20
-12.5513
 30
0.0
 10
207.8434
 20
-12.784
 30
0.0
 10
207.8434
 20
-12.784
 30
0.0
 10
207.5076
 20
-13.0167
 30
0.0
 10
206.6551
 20
-13.0943
 30
0.0
 10
206.4743
 20
-12.2926
 30
0.0
  0
SPLINE
  5
38
330
1F
100
AcDbEntity
  8
Layer 1
370
     5
100
AcDbSpline
210
0.0
220
0.0
230
1.0
 70
    11
 71
     3
 72
    72
 73
    68
 74
     0
 42
0.0000000001
 43
0.0000000001
 40
0.0
 40
0.0
 40
0.0
 40
0.0
 40
0.0588235294117647
 40
0.0588235294117647
 40
0.0588235294117647
 40
0.0588235294117647
 40
0.1176470588235294
 40
0.1176470588235294
 40
0.1176470588235294
 40
0.1176470588235294
 40
0.1764705882352941
 40
0.1764705882352941
 40
0.1764705882352941
 40
0.1764705882352941
 40
0.2352941176470588
 40
0.2352941176470588
 40
0.2352941176470588
 40
0.2352941176470588
 40
0.2941176470588235
 40
0.2941176470588235
 40
0.2941176470588235
 40
0.2941176470588235
 40
0.3529411764705883
 40
0.3529411764705883
 40
0.3529411764705883
 40
0.3529411764705883
 40
0.411764705882353
 40
0.411764705882353
 40
0.411764705882353
 40
0.411764705882353
 40
0.4705882352941177
 40
0.4705882352941177
 40
0.4705882352941177
 40
0.4705882352941177
 40
0.5294117647058824
 40
0.5294117647058824
 40
0.5294117647058824
 40
0.5294117647058824
 40
0.5882352941176471
 40
0.5882352941176471
 40
0.5882352941176471
 40
0.5882352941176471
 40
0.6470588235294118
 40
0.6470588235294118
 40
0.6470588235294118
 40
0.6470588235294118
 40
0.7058823529411765
 40
0.7058823529411765
 40
0.7058823529411765
 40
0.7058823529411765
 40
0.7647058823529412
 40
0.7647058823529412
 40
0.7647058823529412
 40
0.7647058823529412
 40
0.823529411764706
 40
0.823529411764706
 40
0.823529411764706
 40
0.823529411764706
 40
0.8823529411764707
 40
0.8823529411764707
 40
0.8823529411764707
 40
0.8823529411764707
 40
0.9411764705882354
 40
0.9411764705882354
 40
0.9411764705882354
 40
0.9411764705882354
 40
1.0
 40
1.0
 40
1.0
 40
1.0
 10
204.0332
 20
-4.0425
 30
0.0
 10
204.0332
 20
-4.0425
 30
0.0
 10
203.8523
 20
-3.2795
 30
0.0
 10
204.3173
 20
-2.7105
 30
0.0
 10
204.3173
 20
-2.7105
 30
0.0
 10
204.7823
 20
-2.1415
 30
0.0
 10
205.1698
 20
-2.2708
 30
0.0
 10
205.441
 20
-2.3096
 30
0.0
 10
205.441
 20
-2.3096
 30
0.0
 10
205.7122
 20
-2.3484
 30
0.0
 10
205.9577
 20
-2.8011
 30
0.0
 10
206.3064
 20
-2.814
 30
0.0
 10
206.3064
 20
-2.814
 30
0.0
 10
206.6551
 20
-2.8269
 30
0.0
 10
206.8101
 20
-2.7623
 30
0.0
 10
206.7972
 20
-2.3226
 30
0.0
 10
206.7972
 20
-2.3226
 30
0.0
 10
206.7843
 20
-1.8829
 30
0.0
 10
206.6293
 20
-1.4044
 30
0.0
 10
207.0555
 20
-1.2751
 30
0.0
 10
207.0555
 20
-1.2751
 30
0.0
 10
207.4817
 20
-1.1458
 30
0.0
 10
207.6239
 20
-1.3915
 30
0.0
 10
207.8305
 20
-1.0682
 30
0.0
 10
207.8305
 20
-1.0682
 30
0.0
 10
208.0371
 20
-0.7449
 30
0.0
 10
207.7659
 20
-0.0208
 30
0.0
 10
207.9984
 20
0.212
 30
0.0
 10
207.9984
 20
0.212
 30
0.0
 10
208.2309
 20
0.4448
 30
0.0
 10
208.5666
 20
0.2638
 30
0.0
 10
208.8379
 20
0.2767
 30
0.0
 10
208.8379
 20
0.2767
 30
0.0
 10
209.1092
 20
0.2896
 30
0.0
 10
209.2513
 20
0.4318
 30
0.0
 10
209.445
 20
0.0568
 30
0.0
 10
209.445
 20
0.0568
 30
0.0
 10
209.6387
 20
-0.3182
 30
0.0
 10
209.7937
 20
-0.5897
 30
0.0
 10
209.5483
 20
-1.0811
 30
0.0
 10
209.5483
 20
-1.0811
 30
0.0
 10
209.3029
 20
-1.5725
 30
0.0
 10
209.0317
 20
-2.0251
 30
0.0
 10
208.6571
 20
-2.1803
 30
0.0
 10
208.6571
 20
-2.1803
 30
0.0
 10
208.2825
 20
-2.3355
 30
0.0
 10
207.9855
 20
-2.7363
 30
0.0
 10
207.9855
 20
-3.1372
 30
0.0
 10
207.9855
 20
-3.1372
 30
0.0
 10
207.9855
 20
-3.5381
 30
0.0
 10
208.0889
 20
-3.9778
 30
0.0
 10
207.7272
 20
-4.3011
 30
0.0
 10
207.7272
 20
-4.3011
 30
0.0
 10
207.3655
 20
-4.624400000000001
 30
0.0
 10
207.0556
 20
-4.5338
 30
0.0
 10
206.7843
 20
-4.5726
 30
0.0
 10
206.7843
 20
-4.5726
 30
0.0
 10
206.513
 20
-4.611400000000001
 30
0.0
 10
206.6681
 20
-4.702
 30
0.0
 10
206.3064
 20
-5.1158
 30
0.0
 10
206.3064
 20
-5.1158
 30
0.0
 10
205.9447
 20
-5.5296
 30
0.0
 10
205.8671
 20
-5.607200000000001
 30
0.0
 10
205.3893
 20
-5.6201
 30
0.0
 10
205.3893
 20
-5.6201
 30
0.0
 10
204.9115
 20
-5.633
 30
0.0
 10
204.059
 20
-5.2839
 30
0.0
 10
204.0332
 20
-4.0425
 30
0.0
  0
SPLINE
  5
39
330
1F
100
AcDbEntity
  8
Layer 1
370
     5
100
AcDbSpline
210
0.0
220
0.0
230
1.0
 70
    11
 71
     3
 72
    68
 73
    64
 74
     0
 42
0.0000000001
 43
0.0000000001
 40
0.0
 40
0.0
 40
0.0
 40
0.0
 40
0.0625
 40
0.0625
 40
0.0625
 40
0.0625
 40
0.125
 40
0.125
 40
0.125
 40
0.125
 40
0.1875
 40
0.1875
 40
0.1875
 40
0.1875
 40
0.25
 40
0.25
 40
0.25
 40
0.25
 40
0.3125
 40
0.3125
 40
0.3125
 40
0.3125
 40
0.375
 40
0.375
 40
0.375
 40
0.375
 40
0.4375
 40
0.4375
 40
0.4375
 40
0.4375
 40
0.5
 40
0.5
 40
0.5
 40
0.5
 40
0.5625
 40
0.5625
 40
0.5625
 40
0.5625
 40
0.625
 40
0.625
 40
0.625
 40
0.625
 40
0.6875
 40
0.6875
 40
0.6875
 40
0.6875
 40
0.75
 40
0.75
 40
0.75
 40
0.75
 40
0.8125
 40
0.8125
 40
0.8125
 40
0.8125
 40
0.875
 40
0.875
 40
0.875
 40
0.875
 40
0.9375
 40
0.9375
 40
0.9375
 40
0.9375
 40
1.0
 40
1.0
 40
1.0
 40
1.0
 10
201.1916
 20
-0.8742000000000001
 30
0.0
 10
201.1916
 20
-0.8742000000000001
 30
0.0
 10
200.9203
 20
-0.0338
 30
0.0
 10
201.5145
 20
0.3025
 30
0.0
 10
201.5145
 20
0.3025
 30
0.0
 10
202.1087
 20
0.6388
 30
0.0
 10
202.7932
 20
0.3671
 30
0.0
 10
203.2711
 20
0.5870000000000001
 30
0.0
 10
203.2711
 20
0.5870000000000001
 30
0.0
 10
203.749
 20
0.8069000000000001
 30
0.0
 10
203.6846
 20
0.7614000000000001
 30
0.0
 10
203.8913
 20
1.2205
 30
0.0
 10
203.8913
 20
1.2205
 30
0.0
 10
204.098
 20
1.6796
 30
0.0
 10
204.1235
 20
2.2811
 30
0.0
 10
204.7177
 20
2.7854
 30
0.0
 10
204.7177
 20
2.7854
 30
0.0
 10
205.3119
 20
3.2897
 30
0.0
 10
205.6993
 20
3.2639
 30
0.0
 10
205.9189
 20
3.1604
 30
0.0
 10
205.9189
 20
3.1604
 30
0.0
 10
206.1385
 20
3.0569
 30
0.0
 10
206.3839
 20
2.7854
 30
0.0
 10
206.5389
 20
3.044
 30
0.0
 10
206.5389
 20
3.044
 30
0.0
 10
206.6939
 20
3.3026
 30
0.0
 10
206.513
 20
3.9879
 30
0.0
 10
206.978
 20
4.2854
 30
0.0
 10
206.978
 20
4.2854
 30
0.0
 10
207.443
 20
4.5829
 30
0.0
 10
207.7271
 20
4.5441
 30
0.0
 10
208.0242
 20
4.2725
 30
0.0
 10
208.0242
 20
4.2725
 30
0.0
 10
208.3213
 20
4.000900000000001
 30
0.0
 10
208.3987
 20
3.8199
 30
0.0
 10
208.36
 20
3.0828
 30
0.0
 10
208.36
 20
3.0828
 30
0.0
 10
208.3213
 20
2.3457
 30
0.0
 10
208.1147
 20
1.7768
 30
0.0
 10
207.6755
 20
1.544
 30
0.0
 10
207.6755
 20
1.544
 30
0.0
 10
207.2363
 20
1.3112
 30
0.0
 10
206.9909
 20
1.4664
 30
0.0
 10
206.668
 20
0.9750000000000001
 30
0.0
 10
206.668
 20
0.9750000000000001
 30
0.0
 10
206.3451
 20
0.4836
 30
0.0
 10
206.0352
 20
-0.0208
 30
0.0
 10
205.4281
 20
-0.2794
 30
0.0
 10
205.4281
 20
-0.2794
 30
0.0
 10
204.821
 20
-0.538
 30
0.0
 10
204.4594
 20
-0.3181
 30
0.0
 10
204.2269
 20
-0.6285000000000001
 30
0.0
 10
204.2269
 20
-0.6285000000000001
 30
0.0
 10
203.9944
 20
-0.9389000000000001
 30
0.0
 10
204.2526
 20
-1.094
 30
0.0
 10
203.9427
 20
-1.4432
 30
0.0
 10
203.9427
 20
-1.4432
 30
0.0
 10
203.6328
 20
-1.7924
 30
0.0
 10
203.3873
 20
-2.1932
 30
0.0
 10
202.9611
 20
-2.2191
 30
0.0
 10
202.9611
 20
-2.2191
 30
0.0
 10
202.5349
 20
-2.245
 30
0.0
 10
201.6437
 20
-2.2967
 30
0.0
 10
201.1916
 20
-0.8742000000000001
 30
0.0
  0
SPLINE
  5
3A
330
1F
100
AcDbEntity
  8
Layer 1
370
     5
100
AcDbSpline
210
0.0
220
0.0
230
1.0
 70
    11
 71
     3
 72
    44
 73
    40
 74
     0
 42
0.0000000001
 43
0.0000000001
 40
0.0
 40
0.0
 40
0.0
 40
0.0
 40
0.1
 40
0.1
 40
0.1
 40
0.1
 40
0.2
 40
0.2
 40
0.2
 40
0.2
 40
0.3
 40
0.3
 40
0.3
 40
0.3
 40
0.4
 40
0.4
 40
0.4
 40
0.4
 40
0.5
 40
0.5
 40
0.5
 40
0.5
 40
0.6
 40
0.6
 40
0.6
 40
0.6
 40
0.7
 40
0.7
 40
0.7
 40
0.7
 40
0.7999999999999999
 40
0.7999999999999999
 40
0.7999999999999999
 40
0.7999999999999999
 40
0.8999999999999999
 40
0.8999999999999999
 40
0.8999999999999999
 40
0.8999999999999999
 40
1.0
 40
1.0
 40
1.0
 40
1.0
 10
191.6078
 20
3.8976
 30
0.0
 10
191.6078
 20
3.8976
 30
0.0
 10
191.711
 20
4.8674
 30
0.0
 10
192.951
 20
5.1519
 30
0.0
 10
192.951
 20
5.1519
 30
0.0
 10
194.191
 20
5.4364
 30
0.0
 10
195.263
 20
4.5959
 30
0.0
 10
196.1671
 20
4.0269
 30
0.0
 10
196.1671
 20
4.0269
 30
0.0
 10
197.0712
 20
3.4579
 30
0.0
 10
197.1357
 20
3.5097
 30
0.0
 10
198.2982
 20
3.445
 30
0.0
 10
198.2982
 20
3.445
 30
0.0
 10
199.4607
 20
3.3803
 30
0.0
 10
199.8611
 20
3.2253
 30
0.0
 10
200.184
 20
2.6821
 30
0.0
 10
200.184
 20
2.6821
 30
0.0
 10
200.5069
 20
2.1389
 30
0.0
 10
200.5068
 20
1.3243
 30
0.0
 10
200.1452
 20
0.7941
 30
0.0
 10
200.1452
 20
0.7941
 30
0.0
 10
199.7836
 20
0.2639
 30
0.0
 10
199.4864
 20
0.2122
 30
0.0
 10
198.9569
 20
0.2251
 30
0.0
 10
198.9569
 20
0.2251
 30
0.0
 10
198.4274
 20
0.238
 30
0.0
 10
197.9236
 20
0.6647000000000001
 30
0.0
 10
197.4845
 20
1.0527
 30
0.0
 10
197.4845
 20
1.0527
 30
0.0
 10
197.0454
 20
1.4407
 30
0.0
 10
196.5545
 20
1.8932
 30
0.0
 10
195.9604
 20
1.932
 30
0.0
 10
195.9604
 20
1.932
 30
0.0
 10
195.3663
 20
1.9708
 30
0.0
 10
194.8238
 20
1.8673
 30
0.0
 10
194.0876
 20
1.8027
 30
0.0
 10
194.0876
 20
1.8027
 30
0.0
 10
193.3514
 20
1.7381
 30
0.0
 10
191.4528
 20
1.932
 30
0.0
 10
191.6078
 20
3.8976
 30
0.0
  0
SPLINE
  5
3B
330
1F
100
AcDbEntity
  8
Layer 1
370
     5
100
AcDbSpline
210
0.0
220
0.0
230
1.0
 70
    11
 71
     3
 72
    44
 73
    40
 74
     0
 42
0.0000000001
 43
0.0000000001
 40
0.0
 40
0.0
 40
0.0
 40
0.0
 40
0.1
 40
0.1
 40
0.1
 40
0.1
 40
0.2
 40
0.2
 40
0.2
 40
0.2
 40
0.3
 40
0.3
 40
0.3
 40
0.3
 40
0.4
 40
0.4
 40
0.4
 40
0.4
 40
0.5
 40
0.5
 40
0.5
 40
0.5
 40
0.6
 40
0.6
 40
0.6
 40
0.6
 40
0.7
 40
0.7
 40
0.7
 40
0.7
 40
0.7999999999999999
 40
0.7999999999999999
 40
0.7999999999999999
 40
0.7999999999999999
 40
0.8999999999999999
 40
0.8999999999999999
 40
0.8999999999999999
 40
0.8999999999999999
 40
1.0
 40
1.0
 40
1.0
 40
1.0
 10
186.8805
 20
2.5398
 30
0.0
 10
186.8805
 20
2.5398
 30
0.0
 10
187.2552
 20
2.7208
 30
0.0
 10
187.3714
 20
2.3717
 30
0.0
 10
187.3714
 20
2.3717
 30
0.0
 10
187.4876
 20
2.0226
 30
0.0
 10
187.1259
 20
1.9967
 30
0.0
 10
187.2034
 20
1.6605
 30
0.0
 10
187.2034
 20
1.6605
 30
0.0
 10
187.2809
 20
1.3243
 30
0.0
 10
187.4747
 20
1.001
 30
0.0
 10
187.9655
 20
1.0527
 30
0.0
 10
187.9655
 20
1.0527
 30
0.0
 10
188.4563
 20
1.1044
 30
0.0
 10
189.0116
 20
1.376
 30
0.0
 10
189.2054
 20
1.8286
 30
0.0
 10
189.2054
 20
1.8286
 30
0.0
 10
189.3992
 20
2.2812
 30
0.0
 10
189.0763
 20
2.9278
 30
0.0
 10
189.3346
 20
3.3416
 30
0.0
 10
189.3346
 20
3.3416
 30
0.0
 10
189.5929
 20
3.7554
 30
0.0
 10
189.7221
 20
3.5226
 30
0.0
 10
189.9029
 20
3.9881
 30
0.0
 10
189.9029
 20
3.9881
 30
0.0
 10
190.0837
 20
4.4536
 30
0.0
 10
189.8383
 20
5.164800000000001
 30
0.0
 10
189.3604
 20
5.2812
 30
0.0
 10
189.3604
 20
5.2812
 30
0.0
 10
188.8825
 20
5.397600000000001
 30
0.0
 10
188.4304
 20
5.4493
 30
0.0
 10
187.7459
 20
5.0743
 30
0.0
 10
187.7459
 20
5.0743
 30
0.0
 10
187.0614
 20
4.6993
 30
0.0
 10
186.6868
 20
4.828600000000001
 30
0.0
 10
186.4543
 20
4.2855
 30
0.0
 10
186.4543
 20
4.2855
 30
0.0
 10
186.2218
 20
3.7424
 30
0.0
 10
186.1573
 20
2.8243
 30
0.0
 10
186.8805
 20
2.5398
 30
0.0
  0
SPLINE
  5
3C
330
1F
100
AcDbEntity
  8
Layer 1
370
     5
100
AcDbSpline
210
0.0
220
0.0
230
1.0
 70
    11
 71
     3
 72
    36
 73
    32
 74
     0
 42
0.0000000001
 43
0.0000000001
 40
0.0
 40
0.0
 40
0.0
 40
0.0
 40
0.125
 40
0.125
 40
0.125
 40
0.125
 40
0.25
 40
0.25
 40
0.25
 40
0.25
 40
0.375
 40
0.375
 40
0.375
 40
0.375
 40
0.5
 40
0.5
 40
0.5
 40
0.5
 40
0.625
 40
0.625
 40
0.625
 40
0.625
 40
0.75
 40
0.75
 40
0.75
 40
0.75
 40
0.875
 40
0.875
 40
0.875
 40
0.875
 40
1.0
 40
1.0
 40
1.0
 40
1.0
 10
183.884
 20
8.6692
 30
0.0
 10
184.0003
 20
8.7339
 30
0.0
 10
184.7494
 20
9.290000000000001
 30
0.0
 10
185.1627
 20
9.0184
 30
0.0
 10
185.1627
 20
9.0184
 30
0.0
 10
185.576
 20
8.7468
 30
0.0
 10
185.4339
 20
7.958
 30
0.0
 10
185.6664
 20
7.8287
 30
0.0
 10
185.6664
 20
7.8287
 30
0.0
 10
185.8989
 20
7.699400000000001
 30
0.0
 10
186.0121
 20
7.764
 30
0.0
 10
186.222
 20
7.540900000000001
 30
0.0
 10
186.222
 20
7.540900000000001
 30
0.0
 10
186.4319
 20
7.3178
 30
0.0
 10
186.7771
 20
7.505500000000001
 30
0.0
 10
186.8805
 20
6.936500000000001
 30
0.0
 10
186.8805
 20
6.936500000000001
 30
0.0
 10
186.9839
 20
6.367500000000001
 30
0.0
 10
187.1001
 20
6.108800000000001
 30
0.0
 10
186.2864
 20
5.695
 30
0.0
 10
186.2864
 20
5.695
 30
0.0
 10
185.4727
 20
5.2812
 30
0.0
 10
185.0853
 20
5.2424
 30
0.0
 10
184.4653
 20
5.4752
 30
0.0
 10
184.4653
 20
5.4752
 30
0.0
 10
183.8453
 20
5.708
 30
0.0
 10
183.5741
 20
5.6433
 30
0.0
 10
183.4191
 20
6.458
 30
0.0
 10
183.4191
 20
6.458
 30
0.0
 10
183.2641
 20
7.2727
 30
0.0
 10
182.9799
 20
7.971
 30
0.0
 10
183.884
 20
8.6692
 30
0.0
  0
SPLINE
  5
3D
330
1F
100
AcDbEntity
  8
Layer 1
370
     5
100
AcDbSpline
210
0.0
220
0.0
230
1.0
 70
    11
 71
     3
 72
    40
 73
    36
 74
     0
 42
0.0000000001
 43
0.0000000001
 40
0.0
 40
0.0
 40
0.0
 40
0.0
 40
0.1111111111111111
 40
0.1111111111111111
 40
0.1111111111111111
 40
0.1111111111111111
 40
0.2222222222222222
 40
0.2222222222222222
 40
0.2222222222222222
 40
0.2222222222222222
 40
0.3333333333333333
 40
0.3333333333333333
 40
0.3333333333333333
 40
0.3333333333333333
 40
0.4444444444444444
 40
0.4444444444444444
 40
0.4444444444444444
 40
0.4444444444444444
 40
0.5555555555555556
 40
0.5555555555555556
 40
0.5555555555555556
 40
0.5555555555555556
 40
0.6666666666666667
 40
0.6666666666666667
 40
0.6666666666666667
 40
0.6666666666666667
 40
0.7777777777777779
 40
0.7777777777777779
 40
0.7777777777777779
 40
0.7777777777777779
 40
0.8888888888888891
 40
0.8888888888888891
 40
0.8888888888888891
 40
0.8888888888888891
 40
1.0
 40
1.0
 40
1.0
 40
1.0
 10
180.4872
 20
8.7339
 30
0.0
 10
180.4872
 20
8.7339
 30
0.0
 10
181.12
 20
8.617600000000001
 30
0.0
 10
181.0425
 20
8.100300000000001
 30
0.0
 10
181.0425
 20
8.100300000000001
 30
0.0
 10
180.965
 20
7.583
 30
0.0
 10
180.6422
 20
7.4537
 30
0.0
 10
180.513
 20
7.1951
 30
0.0
 10
180.513
 20
7.1951
 30
0.0
 10
180.3838
 20
6.936500000000001
 30
0.0
 10
180.4612
 20
6.8589
 30
0.0
 10
180.7971
 20
6.7813
 30
0.0
 10
180.7971
 20
6.7813
 30
0.0
 10
181.133
 20
6.7037
 30
0.0
 10
181.3913
 20
6.82
 30
0.0
 10
181.3913
 20
6.1864
 30
0.0
 10
181.3913
 20
6.1864
 30
0.0
 10
181.3913
 20
5.5528
 30
0.0
 10
181.2105
 20
5.1002
 30
0.0
 10
180.5776
 20
5.009700000000001
 30
0.0
 10
180.5776
 20
5.009700000000001
 30
0.0
 10
179.9447
 20
4.9192
 30
0.0
 10
179.6606
 20
4.854600000000001
 30
0.0
 10
178.976
 20
5.1261
 30
0.0
 10
178.976
 20
5.1261
 30
0.0
 10
178.2914
 20
5.397600000000001
 30
0.0
 10
177.9169
 20
5.721
 30
0.0
 10
177.749
 20
6.367500000000001
 30
0.0
 10
177.749
 20
6.367500000000001
 30
0.0
 10
177.5811
 20
7.014
 30
0.0
 10
177.7619
 20
7.7641
 30
0.0
 10
178.2527
 20
8.177900000000001
 30
0.0
 10
178.2527
 20
8.177900000000001
 30
0.0
 10
178.7435
 20
8.591700000000001
 30
0.0
 10
179.4668
 20
8.914900000000001
 30
0.0
 10
180.4872
 20
8.7339
 30
0.0
  0
SPLINE
  5
3E
330
1F
100
AcDbEntity
  8
Layer 1
370
     5
100
AcDbSpline
210
0.0
220
0.0
230
1.0
 70
    11
 71
     3
 72
    32
 73
    28
 74
     0
 42
0.0000000001
 43
0.0000000001
 40
0.0
 40
0.0
 40
0.0
 40
0.0
 40
0.1428571428571429
 40
0.1428571428571429
 40
0.1428571428571429
 40
0.1428571428571429
 40
0.2857142857142857
 40
0.2857142857142857
 40
0.2857142857142857
 40
0.2857142857142857
 40
0.4285714285714286
 40
0.4285714285714286
 40
0.4285714285714286
 40
0.4285714285714286
 40
0.5714285714285714
 40
0.5714285714285714
 40
0.5714285714285714
 40
0.5714285714285714
 40
0.7142857142857142
 40
0.7142857142857142
 40
0.7142857142857142
 40
0.7142857142857142
 40
0.857142857142857
 40
0.857142857142857
 40
0.857142857142857
 40
0.857142857142857
 40
1.0
 40
1.0
 40
1.0
 40
1.0
 10
181.895
 20
11.7857
 30
0.0
 10
181.895
 20
11.7857
 30
0.0
 10
182.0112
 20
12.29
 30
0.0
 10
182.502
 20
12.3288
 30
0.0
 10
182.502
 20
12.3288
 30
0.0
 10
182.9928
 20
12.3676
 30
0.0
 10
183.3416
 20
12.3288
 30
0.0
 10
183.5224
 20
11.9926
 30
0.0
 10
183.5224
 20
11.9926
 30
0.0
 10
183.7032
 20
11.6564
 30
0.0
 10
183.742
 20
11.2426
 30
0.0
 10
183.4966
 20
10.8676
 30
0.0
 10
183.4966
 20
10.8676
 30
0.0
 10
183.2512
 20
10.4926
 30
0.0
 10
183.2642
 20
10.402
 30
0.0
 10
183.4062
 20
9.988200000000001
 30
0.0
 10
183.4062
 20
9.988200000000001
 30
0.0
 10
183.5482
 20
9.574400000000001
 30
0.0
 10
183.5483
 20
9.458
 30
0.0
 10
183.1866
 20
9.315800000000001
 30
0.0
 10
183.1866
 20
9.315800000000001
 30
0.0
 10
182.8249
 20
9.1736
 30
0.0
 10
182.2695
 20
9.0702
 30
0.0
 10
181.9079
 20
9.264100000000001
 30
0.0
 10
181.9079
 20
9.264100000000001
 30
0.0
 10
181.5463
 20
9.458
 30
0.0
 10
180.978
 20
10.5184
 30
0.0
 10
181.895
 20
11.7857
 30
0.0
  0
SPLINE
  5
3F
330
1F
100
AcDbEntity
  8
Layer 1
370
     5
100
AcDbSpline
210
0.0
220
0.0
230
1.0
 70
    11
 71
     3
 72
    20
 73
    16
 74
     0
 42
0.0000000001
 43
0.0000000001
 40
0.0
 40
0.0
 40
0.0
 40
0.0
 40
0.25
 40
0.25
 40
0.25
 40
0.25
 40
0.5
 40
0.5
 40
0.5
 40
0.5
 40
0.75
 40
0.75
 40
0.75
 40
0.75
 40
1.0
 40
1.0
 40
1.0
 40
1.0
 10
156.5151
 20
4.5442
 30
0.0
 10
156.5151
 20
4.5442
 30
0.0
 10
156.1793
 20
4.777
 30
0.0
 10
155.6885
 20
4.1304
 30
0.0
 10
155.6885
 20
4.1304
 30
0.0
 10
155.1977
 20
3.4838
 30
0.0
 10
154.8619
 20
3.0182
 30
0.0
 10
155.3527
 20
2.9665
 30
0.0
 10
155.3527
 20
2.9665
 30
0.0
 10
155.8435
 20
2.9148
 30
0.0
 10
155.921
 20
3.3803
 30
0.0
 10
156.2568
 20
3.6648
 30
0.0
 10
156.2568
 20
3.6648
 30
0.0
 10
156.5926
 20
3.9493
 30
0.0
 10
156.8509
 20
4.5442
 30
0.0
 10
156.5151
 20
4.5442
 30
0.0
  0
SPLINE
  5
40
330
1F
100
AcDbEntity
  8
Layer 1
370
     5
100
AcDbSpline
210
0.0
220
0.0
230
1.0
 70
    11
 71
     3
 72
    20
 73
    16
 74
     0
 42
0.0000000001
 43
0.0000000001
 40
0.0
 40
0.0
 40
0.0
 40
0.0
 40
0.25
 40
0.25
 40
0.25
 40
0.25
 40
0.5
 40
0.5
 40
0.5
 40
0.5
 40
0.75
 40
0.75
 40
0.75
 40
0.75
 40
1.0
 40
1.0
 40
1.0
 40
1.0
 10
153.4928
 20
-1.0163
 30
0.0
 10
153.4928
 20
-1.0163
 30
0.0
 10
153.2087
 20
-0.2922
 30
0.0
 10
153.9836
 20
-0.2663
 30
0.0
 10
153.9836
 20
-0.2663
 30
0.0
 10
154.7585
 20
-0.2404
 30
0.0
 10
154.8876
 20
-0.4473
 30
0.0
 10
154.836
 20
-0.7835000000000001
 30
0.0
 10
154.836
 20
-0.7835000000000001
 30
0.0
 10
154.7844
 20
-1.1197
 30
0.0
 10
154.7585
 20
-1.2749
 30
0.0
 10
154.4227
 20
-1.3525
 30
0.0
 10
154.4227
 20
-1.3525
 30
0.0
 10
154.0869
 20
-1.4301
 30
0.0
 10
153.6736
 20
-1.6111
 30
0.0
 10
153.4928
 20
-1.0163
 30
0.0
  0
SPLINE
  5
41
330
1F
100
AcDbEntity
  8
Layer 1
370
     5
100
AcDbSpline
210
0.0
220
0.0
230
1.0
 70
    11
 71
     3
 72
    32
 73
    28
 74
     0
 42
0.0000000001
 43
0.0000000001
 40
0.0
 40
0.0
 40
0.0
 40
0.0
 40
0.1428571428571429
 40
0.1428571428571429
 40
0.1428571428571429
 40
0.1428571428571429
 40
0.2857142857142857
 40
0.2857142857142857
 40
0.2857142857142857
 40
0.2857142857142857
 40
0.4285714285714286
 40
0.4285714285714286
 40
0.4285714285714286
 40
0.4285714285714286
 40
0.5714285714285714
 40
0.5714285714285714
 40
0.5714285714285714
 40
0.5714285714285714
 40
0.7142857142857142
 40
0.7142857142857142
 40
0.7142857142857142
 40
0.7142857142857142
 40
0.857142857142857
 40
0.857142857142857
 40
0.857142857142857
 40
0.857142857142857
 40
1.0
 40
1.0
 40
1.0
 40
1.0
 10
156.3343
 20
-0.5508000000000001
 30
0.0
 10
156.3343
 20
-0.5508000000000001
 30
0.0
 10
155.9725
 20
-0.1887
 30
0.0
 10
156.3084
 20
0.1475
 30
0.0
 10
156.3084
 20
0.1475
 30
0.0
 10
156.3084
 20
0.1475
 30
0.0
 10
156.36
 20
0.1473
 30
0.0
 10
156.347
 20
0.3412
 30
0.0
 10
156.347
 20
0.3412
 30
0.0
 10
156.334
 20
0.5351
 30
0.0
 10
156.3534
 20
0.7485000000000001
 30
0.0
 10
156.7861
 20
0.9037000000000001
 30
0.0
 10
156.7861
 20
0.9037000000000001
 30
0.0
 10
157.2188
 20
1.0589
 30
0.0
 10
157.0185
 20
1.324
 30
0.0
 10
157.5352
 20
1.3822
 30
0.0
 10
157.5352
 20
1.3822
 30
0.0
 10
158.0519
 20
1.4404
 30
0.0
 10
158.3101
 20
1.3046
 30
0.0
 10
158.2133
 20
0.7938000000000001
 30
0.0
 10
158.2133
 20
0.7938000000000001
 30
0.0
 10
158.1165
 20
0.283
 30
0.0
 10
157.9098
 20
-0.1439
 30
0.0
 10
157.6773
 20
-0.396
 30
0.0
 10
157.6773
 20
-0.396
 30
0.0
 10
157.4448
 20
-0.6481
 30
0.0
 10
156.6117
 20
-0.8874000000000001
 30
0.0
 10
156.3343
 20
-0.5508000000000001
 30
0.0
  0
SPLINE
  5
42
330
1F
100
AcDbEntity
  8
Layer 1
370
     5
100
AcDbSpline
210
0.0
220
0.0
230
1.0
 70
    11
 71
     3
 72
    28
 73
    24
 74
     0
 42
0.0000000001
 43
0.0000000001
 40
0.0
 40
0.0
 40
0.0
 40
0.0
 40
0.1666666666666667
 40
0.1666666666666667
 40
0.1666666666666667
 40
0.1666666666666667
 40
0.3333333333333333
 40
0.3333333333333333
 40
0.3333333333333333
 40
0.3333333333333333
 40
0.5
 40
0.5
 40
0.5
 40
0.5
 40
0.6666666666666666
 40
0.6666666666666666
 40
0.6666666666666666
 40
0.6666666666666666
 40
0.8333333333333333
 40
0.8333333333333333
 40
0.8333333333333333
 40
0.8333333333333333
 40
1.0
 40
1.0
 40
1.0
 40
1.0
 10
159.7762
 20
0.8584000000000001
 30
0.0
 10
159.7762
 20
0.8584000000000001
 30
0.0
 10
160.0021
 20
1.4857
 30
0.0
 10
160.493
 20
1.2141
 30
0.0
 10
160.493
 20
1.2141
 30
0.0
 10
160.9839
 20
0.9425
 30
0.0
 10
160.9902
 20
0.9037000000000001
 30
0.0
 10
161.3713
 20
0.9231
 30
0.0
 10
161.3713
 20
0.9231
 30
0.0
 10
161.7524
 20
0.9425
 30
0.0
 10
162.1979
 20
0.7679
 30
0.0
 10
162.0365
 20
0.1795
 30
0.0
 10
162.0365
 20
0.1795
 30
0.0
 10
161.8751
 20
-0.4089
 30
0.0
 10
161.6427
 20
-0.7192000000000001
 30
0.0
 10
161.1389
 20
-0.8033
 30
0.0
 10
161.1389
 20
-0.8033
 30
0.0
 10
160.6351
 20
-0.8874000000000001
 30
0.0
 10
160.2477
 20
-0.8808
 30
0.0
 10
160.0087
 20
-0.7192000000000001
 30
0.0
 10
160.0087
 20
-0.7192000000000001
 30
0.0
 10
159.7697
 20
-0.5576
 30
0.0
 10
159.3887
 20
-0.0274
 30
0.0
 10
159.7762
 20
0.8584000000000001
 30
0.0
  0
SPLINE
  5
43
330
1F
100
AcDbEntity
  8
Layer 1
370
     5
100
AcDbSpline
210
0.0
220
0.0
230
1.0
 70
    11
 71
     3
 72
    40
 73
    36
 74
     0
 42
0.0000000001
 43
0.0000000001
 40
0.0
 40
0.0
 40
0.0
 40
0.0
 40
0.1111111111111111
 40
0.1111111111111111
 40
0.1111111111111111
 40
0.1111111111111111
 40
0.2222222222222222
 40
0.2222222222222222
 40
0.2222222222222222
 40
0.2222222222222222
 40
0.3333333333333333
 40
0.3333333333333333
 40
0.3333333333333333
 40
0.3333333333333333
 40
0.4444444444444444
 40
0.4444444444444444
 40
0.4444444444444444
 40
0.4444444444444444
 40
0.5555555555555556
 40
0.5555555555555556
 40
0.5555555555555556
 40
0.5555555555555556
 40
0.6666666666666667
 40
0.6666666666666667
 40
0.6666666666666667
 40
0.6666666666666667
 40
0.7777777777777779
 40
0.7777777777777779
 40
0.7777777777777779
 40
0.7777777777777779
 40
0.8888888888888891
 40
0.8888888888888891
 40
0.8888888888888891
 40
0.8888888888888891
 40
1.0
 40
1.0
 40
1.0
 40
1.0
 10
164.2517
 20
0.8845000000000001
 30
0.0
 10
164.2517
 20
0.8845000000000001
 30
0.0
 10
163.9159
 20
0.9491000000000001
 30
0.0
 10
163.7609
 20
0.4189
 30
0.0
 10
163.7609
 20
0.4189
 30
0.0
 10
163.6059
 20
-0.1113
 30
0.0
 10
163.438
 20
-0.6155000000000001
 30
0.0
 10
163.6059
 20
-1.1199
 30
0.0
 10
163.6059
 20
-1.1199
 30
0.0
 10
163.7738
 20
-1.6243
 30
0.0
 10
163.9159
 20
-1.5209
 30
0.0
 10
164.2259
 20
-1.87
 30
0.0
 10
164.2259
 20
-1.87
 30
0.0
 10
164.5359
 20
-2.2191
 30
0.0
 10
165.0137
 20
-2.3225
 30
0.0
 10
165.2979
 20
-2.1027
 30
0.0
 10
165.2979
 20
-2.1027
 30
0.0
 10
165.5821
 20
-1.8829
 30
0.0
 10
165.8274
 20
-1.9347
 30
0.0
 10
166.0341
 20
-1.6631
 30
0.0
 10
166.0341
 20
-1.6631
 30
0.0
 10
166.2408
 20
-1.3915
 30
0.0
 10
166.357
 20
-1.0424
 30
0.0
 10
166.1116
 20
-0.8484
 30
0.0
 10
166.1116
 20
-0.8484
 30
0.0
 10
165.8662
 20
-0.6544
 30
0.0
 10
165.75
 20
-0.7967000000000001
 30
0.0
 10
165.3496
 20
-0.4863
 30
0.0
 10
165.3496
 20
-0.4863
 30
0.0
 10
164.9492
 20
-0.1759
 30
0.0
 10
165.0009
 20
-0.176
 30
0.0
 10
164.7813
 20
0.1344
 30
0.0
 10
164.7813
 20
0.1344
 30
0.0
 10
164.5617
 20
0.4448
 30
0.0
 10
164.5617
 20
1.0138
 30
0.0
 10
164.2517
 20
0.8845000000000001
 30
0.0
  0
SPLINE
  5
44
330
1F
100
AcDbEntity
  8
Layer 1
370
     5
100
AcDbSpline
210
0.0
220
0.0
230
1.0
 70
    11
 71
     3
 72
    52
 73
    48
 74
     0
 42
0.0000000001
 43
0.0000000001
 40
0.0
 40
0.0
 40
0.0
 40
0.0
 40
0.0833333333333333
 40
0.0833333333333333
 40
0.0833333333333333
 40
0.0833333333333333
 40
0.1666666666666667
 40
0.1666666666666667
 40
0.1666666666666667
 40
0.1666666666666667
 40
0.25
 40
0.25
 40
0.25
 40
0.25
 40
0.3333333333333333
 40
0.3333333333333333
 40
0.3333333333333333
 40
0.3333333333333333
 40
0.4166666666666666
 40
0.4166666666666666
 40
0.4166666666666666
 40
0.4166666666666666
 40
0.4999999999999999
 40
0.4999999999999999
 40
0.4999999999999999
 40
0.4999999999999999
 40
0.5833333333333333
 40
0.5833333333333333
 40
0.5833333333333333
 40
0.5833333333333333
 40
0.6666666666666666
 40
0.6666666666666666
 40
0.6666666666666666
 40
0.6666666666666666
 40
0.75
 40
0.75
 40
0.75
 40
0.75
 40
0.8333333333333334
 40
0.8333333333333334
 40
0.8333333333333334
 40
0.8333333333333334
 40
0.9166666666666667
 40
0.9166666666666667
 40
0.9166666666666667
 40
0.9166666666666667
 40
1.0
 40
1.0
 40
1.0
 40
1.0
 10
168.2815
 20
-0.7708
 30
0.0
 10
168.2815
 20
-0.7708
 30
0.0
 10
168.514
 20
-0.2276
 30
0.0
 10
169.4052
 20
-0.2923
 30
0.0
 10
169.4052
 20
-0.2923
 30
0.0
 10
170.2964
 20
-0.357
 30
0.0
 10
170.4643
 20
-0.7319
 30
0.0
 10
171.1489
 20
-0.7449
 30
0.0
 10
171.1489
 20
-0.7449
 30
0.0
 10
171.8335
 20
-0.7579
 30
0.0
 10
172.2081
 20
-0.8872
 30
0.0
 10
172.9701
 20
-0.6156
 30
0.0
 10
172.9701
 20
-0.6156
 30
0.0
 10
173.7321
 20
-0.344
 30
0.0
 10
174.7654
 20
0.1733
 30
0.0
 10
175.3466
 20
-0.0595
 30
0.0
 10
175.3466
 20
-0.0595
 30
0.0
 10
175.9278
 20
-0.2923
 30
0.0
 10
176.8319
 20
-0.4605
 30
0.0
 10
176.9611
 20
-1.3398
 30
0.0
 10
176.9611
 20
-1.3398
 30
0.0
 10
177.0903
 20
-2.2191
 30
0.0
 10
176.8449
 20
-2.5424
 30
0.0
 10
176.6253
 20
-2.8786
 30
0.0
 10
176.6253
 20
-2.8786
 30
0.0
 10
176.4057
 20
-3.2148
 30
0.0
 10
175.8892
 20
-3.4864
 30
0.0
 10
175.3854
 20
-3.4864
 30
0.0
 10
175.3854
 20
-3.4864
 30
0.0
 10
174.8816
 20
-3.4864
 30
0.0
 10
174.3649
 20
-2.8399
 30
0.0
 10
174.1583
 20
-2.5683
 30
0.0
 10
174.1583
 20
-2.5683
 30
0.0
 10
173.9517
 20
-2.2967
 30
0.0
 10
173.5076
 20
-1.8151
 30
0.0
 10
173.0734
 20
-1.7794
 30
0.0
 10
173.0734
 20
-1.7794
 30
0.0
 10
172.6392
 20
-1.7437
 30
0.0
 10
172.4017
 20
-1.5209
 30
0.0
 10
171.7301
 20
-1.8312
 30
0.0
 10
171.7301
 20
-1.8312
 30
0.0
 10
171.0585
 20
-2.1415
 30
0.0
 10
169.754
 20
-2.4778
 30
0.0
 10
169.2761
 20
-2.3226
 30
0.0
 10
169.2761
 20
-2.3226
 30
0.0
 10
168.7982
 20
-2.1674
 30
0.0
 10
167.9328
 20
-1.87
 30
0.0
 10
168.2815
 20
-0.7708
 30
0.0
  0
SPLINE
  5
45
330
1F
100
AcDbEntity
  8
Layer 1
370
     5
100
AcDbSpline
210
0.0
220
0.0
230
1.0
 70
    11
 71
     3
 72
    32
 73
    28
 74
     0
 42
0.0000000001
 43
0.0000000001
 40
0.0
 40
0.0
 40
0.0
 40
0.0
 40
0.1428571428571429
 40
0.1428571428571429
 40
0.1428571428571429
 40
0.1428571428571429
 40
0.2857142857142857
 40
0.2857142857142857
 40
0.2857142857142857
 40
0.2857142857142857
 40
0.4285714285714286
 40
0.4285714285714286
 40
0.4285714285714286
 40
0.4285714285714286
 40
0.5714285714285714
 40
0.5714285714285714
 40
0.5714285714285714
 40
0.5714285714285714
 40
0.7142857142857142
 40
0.7142857142857142
 40
0.7142857142857142
 40
0.7142857142857142
 40
0.857142857142857
 40
0.857142857142857
 40
0.857142857142857
 40
0.857142857142857
 40
1.0
 40
1.0
 40
1.0
 40
1.0
 10
158.1229
 20
5.2552
 30
0.0
 10
158.1229
 20
5.2552
 30
0.0
 10
158.1875
 20
5.488
 30
0.0
 10
158.4523
 20
5.5979
 30
0.0
 10
158.4523
 20
5.5979
 30
0.0
 10
158.7171
 20
5.707800000000001
 30
0.0
 10
158.7106
 20
5.8114
 30
0.0
 10
158.8527
 20
6.0635
 30
0.0
 10
158.8527
 20
6.0635
 30
0.0
 10
158.9948
 20
6.3156
 30
0.0
 10
159.3628
 20
6.723000000000001
 30
0.0
 10
159.6922
 20
6.7424
 30
0.0
 10
159.6922
 20
6.7424
 30
0.0
 10
160.0216
 20
6.7618
 30
0.0
 10
160.5964
 20
6.6776
 30
0.0
 10
160.7966
 20
6.1992
 30
0.0
 10
160.7966
 20
6.1992
 30
0.0
 10
160.9968
 20
5.720800000000001
 30
0.0
 10
161.1453
 20
5.4751
 30
0.0
 10
160.9903
 20
5.1841
 30
0.0
 10
160.9903
 20
5.1841
 30
0.0
 10
160.8353
 20
4.8931
 30
0.0
 10
160.4865
 20
4.7573
 30
0.0
 10
160.1572
 20
4.556900000000001
 30
0.0
 10
160.1572
 20
4.556900000000001
 30
0.0
 10
159.8279
 20
4.356500000000001
 30
0.0
 10
157.8582
 20
4.3629
 30
0.0
 10
158.1229
 20
5.2552
 30
0.0
  0
SPLINE
  5
46
330
1F
100
AcDbEntity
  8
Layer 1
370
     5
100
AcDbSpline
210
0.0
220
0.0
230
1.0
 70
    11
 71
     3
 72
    48
 73
    44
 74
     0
 42
0.0000000001
 43
0.0000000001
 40
0.0
 40
0.0
 40
0.0
 40
0.0
 40
0.0909090909090909
 40
0.0909090909090909
 40
0.0909090909090909
 40
0.0909090909090909
 40
0.1818181818181818
 40
0.1818181818181818
 40
0.1818181818181818
 40
0.1818181818181818
 40
0.2727272727272727
 40
0.2727272727272727
 40
0.2727272727272727
 40
0.2727272727272727
 40
0.3636363636363637
 40
0.3636363636363637
 40
0.3636363636363637
 40
0.3636363636363637
 40
0.4545454545454546
 40
0.4545454545454546
 40
0.4545454545454546
 40
0.4545454545454546
 40
0.5454545454545455
 40
0.5454545454545455
 40
0.5454545454545455
 40
0.5454545454545455
 40
0.6363636363636365
 40
0.6363636363636365
 40
0.6363636363636365
 40
0.6363636363636365
 40
0.7272727272727274
 40
0.7272727272727274
 40
0.7272727272727274
 40
0.7272727272727274
 40
0.8181818181818183
 40
0.8181818181818183
 40
0.8181818181818183
 40
0.8181818181818183
 40
0.9090909090909093
 40
0.9090909090909093
 40
0.9090909090909093
 40
0.9090909090909093
 40
1.0
 40
1.0
 40
1.0
 40
1.0
 10
171.5622
 20
5.3718
 30
0.0
 10
171.5622
 20
5.3718
 30
0.0
 10
171.446
 20
5.9794
 30
0.0
 10
172.1047
 20
6.315700000000001
 30
0.0
 10
172.1047
 20
6.315700000000001
 30
0.0
 10
172.7634
 20
6.652
 30
0.0
 10
172.8151
 20
6.548500000000001
 30
0.0
 10
173.293
 20
6.949400000000001
 30
0.0
 10
173.293
 20
6.949400000000001
 30
0.0
 10
173.7709
 20
7.350300000000001
 30
0.0
 10
174.1455
 20
7.531300000000001
 30
0.0
 10
174.5975
 20
7.3632
 30
0.0
 10
174.5975
 20
7.3632
 30
0.0
 10
175.0495
 20
7.1951
 30
0.0
 10
175.1012
 20
6.7942
 30
0.0
 10
175.1141
 20
6.2511
 30
0.0
 10
175.1141
 20
6.2511
 30
0.0
 10
175.127
 20
5.708
 30
0.0
 10
175.0884
 20
5.6692
 30
0.0
 10
175.7083
 20
5.5528
 30
0.0
 10
175.7083
 20
5.5528
 30
0.0
 10
176.3282
 20
5.4364
 30
0.0
 10
176.9223
 20
4.9451
 30
0.0
 10
176.8061
 20
4.5959
 30
0.0
 10
176.8061
 20
4.5959
 30
0.0
 10
176.6899
 20
4.246700000000001
 30
0.0
 10
176.664
 20
4.001
 30
0.0
 10
175.9278
 20
3.7036
 30
0.0
 10
175.9278
 20
3.7036
 30
0.0
 10
175.1916
 20
3.4062
 30
0.0
 10
175.1788
 20
3.251
 30
0.0
 10
174.83
 20
3.2381
 30
0.0
 10
174.83
 20
3.2381
 30
0.0
 10
174.4812
 20
3.2252
 30
0.0
 10
174.055
 20
3.5355
 30
0.0
 10
173.6288
 20
3.7424
 30
0.0
 10
173.6288
 20
3.7424
 30
0.0
 10
173.2026
 20
3.9493
 30
0.0
 10
172.9443
 20
4.1562
 30
0.0
 10
172.5697
 20
4.1174
 30
0.0
 10
172.5697
 20
4.1174
 30
0.0
 10
172.1951
 20
4.0786
 30
0.0
 10
171.3039
 20
4.5571
 30
0.0
 10
171.5622
 20
5.3718
 30
0.0
  0
SPLINE
  5
47
330
1F
100
AcDbEntity
  8
Layer 1
370
     5
100
AcDbSpline
210
0.0
220
0.0
230
1.0
 70
    11
 71
     3
 72
    36
 73
    32
 74
     0
 42
0.0000000001
 43
0.0000000001
 40
0.0
 40
0.0
 40
0.0
 40
0.0
 40
0.125
 40
0.125
 40
0.125
 40
0.125
 40
0.25
 40
0.25
 40
0.25
 40
0.25
 40
0.375
 40
0.375
 40
0.375
 40
0.375
 40
0.5
 40
0.5
 40
0.5
 40
0.5
 40
0.625
 40
0.625
 40
0.625
 40
0.625
 40
0.75
 40
0.75
 40
0.75
 40
0.75
 40
0.875
 40
0.875
 40
0.875
 40
0.875
 40
1.0
 40
1.0
 40
1.0
 40
1.0
 10
175.7212
 20
10.3762
 30
0.0
 10
175.7212
 20
10.3762
 30
0.0
 10
175.902
 20
10.7254
 30
0.0
 10
176.3347
 20
10.8094
 30
0.0
 10
176.3347
 20
10.8094
 30
0.0
 10
176.7674
 20
10.8934
 30
0.0
 10
177.0514
 20
10.8611
 30
0.0
 10
177.1871
 20
11.1068
 30
0.0
 10
177.1871
 20
11.1068
 30
0.0
 10
177.3228
 20
11.3525
 30
0.0
 10
177.2905
 20
11.6176
 30
0.0
 10
177.7813
 20
11.8568
 30
0.0
 10
177.7813
 20
11.8568
 30
0.0
 10
178.2721
 20
12.096
 30
0.0
 10
178.7757
 20
12.012
 30
0.0
 10
179.0147
 20
11.637
 30
0.0
 10
179.0147
 20
11.637
 30
0.0
 10
179.2537
 20
11.262
 30
0.0
 10
179.4022
 20
10.3179
 30
0.0
 10
179.1697
 20
9.8201
 30
0.0
 10
179.1697
 20
9.8201
 30
0.0
 10
178.9372
 20
9.3223
 30
0.0
 10
178.5884
 20
8.837400000000001
 30
0.0
 10
178.201
 20
8.6046
 30
0.0
 10
178.201
 20
8.6046
 30
0.0
 10
177.8136
 20
8.3718
 30
0.0
 10
177.2065
 20
8.035600000000001
 30
0.0
 10
176.5026
 20
8.152000000000001
 30
0.0
 10
176.5026
 20
8.152000000000001
 30
0.0
 10
175.7987
 20
8.2684
 30
0.0
 10
174.9398
 20
9.1736
 30
0.0
 10
175.7212
 20
10.3762
 30
0.0
  0
SPLINE
  5
48
330
1F
100
AcDbEntity
  8
Layer 1
370
     5
100
AcDbSpline
210
0.0
220
0.0
230
1.0
 70
    11
 71
     3
 72
    48
 73
    44
 74
     0
 42
0.0000000001
 43
0.0000000001
 40
0.0
 40
0.0
 40
0.0
 40
0.0
 40
0.0909090909090909
 40
0.0909090909090909
 40
0.0909090909090909
 40
0.0909090909090909
 40
0.1818181818181818
 40
0.1818181818181818
 40
0.1818181818181818
 40
0.1818181818181818
 40
0.2727272727272727
 40
0.2727272727272727
 40
0.2727272727272727
 40
0.2727272727272727
 40
0.3636363636363637
 40
0.3636363636363637
 40
0.3636363636363637
 40
0.3636363636363637
 40
0.4545454545454546
 40
0.4545454545454546
 40
0.4545454545454546
 40
0.4545454545454546
 40
0.5454545454545455
 40
0.5454545454545455
 40
0.5454545454545455
 40
0.5454545454545455
 40
0.6363636363636365
 40
0.6363636363636365
 40
0.6363636363636365
 40
0.6363636363636365
 40
0.7272727272727274
 40
0.7272727272727274
 40
0.7272727272727274
 40
0.7272727272727274
 40
0.8181818181818183
 40
0.8181818181818183
 40
0.8181818181818183
 40
0.8181818181818183
 40
0.9090909090909093
 40
0.9090909090909093
 40
0.9090909090909093
 40
0.9090909090909093
 40
1.0
 40
1.0
 40
1.0
 40
1.0
 10
174.4102
 20
13.7966
 30
0.0
 10
174.4102
 20
13.7966
 30
0.0
 10
174.4166
 20
13.8225
 30
0.0
 10
174.746
 20
14.2234
 30
0.0
 10
174.746
 20
14.2234
 30
0.0
 10
175.0754
 20
14.6243
 30
0.0
 10
175.2626
 20
14.7536
 30
0.0
 10
175.6243
 20
14.773
 30
0.0
 10
175.6243
 20
14.773
 30
0.0
 10
175.986
 20
14.7924
 30
0.0
 10
176.2507
 20
14.6567
 30
0.0
 10
176.3476
 20
14.398
 30
0.0
 10
176.3476
 20
14.398
 30
0.0
 10
176.4445
 20
14.1393
 30
0.0
 10
176.4574
 20
13.9647
 30
0.0
 10
176.212
 20
13.6285
 30
0.0
 10
176.212
 20
13.6285
 30
0.0
 10
175.9666
 20
13.2923
 30
0.0
 10
175.7277
 20
13.0853
 30
0.0
 10
175.9085
 20
13.0207
 30
0.0
 10
175.9085
 20
13.0207
 30
0.0
 10
176.0893
 20
12.9561
 30
0.0
 10
176.3993
 20
13.1502
 30
0.0
 10
176.677
 20
12.9626
 30
0.0
 10
176.677
 20
12.9626
 30
0.0
 10
176.9547
 20
12.775
 30
0.0
 10
177.129
 20
12.484
 30
0.0
 10
176.9482
 20
12.0379
 30
0.0
 10
176.9482
 20
12.0379
 30
0.0
 10
176.7674
 20
11.5918
 30
0.0
 10
176.5026
 20
11.3396
 30
0.0
 10
176.1345
 20
11.2038
 30
0.0
 10
176.1345
 20
11.2038
 30
0.0
 10
175.7664
 20
11.068
 30
0.0
 10
175.0688
 20
11.178
 30
0.0
 10
174.6814
 20
11.2685
 30
0.0
 10
174.6814
 20
11.2685
 30
0.0
 10
174.294
 20
11.359
 30
0.0
 10
173.7901
 20
11.6694
 30
0.0
 10
173.8806
 20
12.497
 30
0.0
 10
173.8806
 20
12.497
 30
0.0
 10
173.9711
 20
13.3246
 30
0.0
 10
174.4102
 20
13.7966
 30
0.0
 10
174.4102
 20
13.7966
 30
0.0
  0
SPLINE
  5
49
330
1F
100
AcDbEntity
  8
Layer 1
370
     5
100
AcDbSpline
210
0.0
220
0.0
230
1.0
 70
    11
 71
     3
 72
    48
 73
    44
 74
     0
 42
0.0000000001
 43
0.0000000001
 40
0.0
 40
0.0
 40
0.0
 40
0.0
 40
0.0909090909090909
 40
0.0909090909090909
 40
0.0909090909090909
 40
0.0909090909090909
 40
0.1818181818181818
 40
0.1818181818181818
 40
0.1818181818181818
 40
0.1818181818181818
 40
0.2727272727272727
 40
0.2727272727272727
 40
0.2727272727272727
 40
0.2727272727272727
 40
0.3636363636363637
 40
0.3636363636363637
 40
0.3636363636363637
 40
0.3636363636363637
 40
0.4545454545454546
 40
0.4545454545454546
 40
0.4545454545454546
 40
0.4545454545454546
 40
0.5454545454545455
 40
0.5454545454545455
 40
0.5454545454545455
 40
0.5454545454545455
 40
0.6363636363636365
 40
0.6363636363636365
 40
0.6363636363636365
 40
0.6363636363636365
 40
0.7272727272727274
 40
0.7272727272727274
 40
0.7272727272727274
 40
0.7272727272727274
 40
0.8181818181818183
 40
0.8181818181818183
 40
0.8181818181818183
 40
0.8181818181818183
 40
0.9090909090909093
 40
0.9090909090909093
 40
0.9090909090909093
 40
0.9090909090909093
 40
1.0
 40
1.0
 40
1.0
 40
1.0
 10
179.1956
 20
13.7255
 30
0.0
 10
179.2279
 20
13.7514
 30
0.0
 10
179.2149
 20
13.7772
 30
0.0
 10
179.3183
 20
14.1587
 30
0.0
 10
179.3183
 20
14.1587
 30
0.0
 10
179.4217
 20
14.5402
 30
0.0
 10
179.7381
 20
14.7729
 30
0.0
 10
180.0287
 20
14.7859
 30
0.0
 10
180.0287
 20
14.7859
 30
0.0
 10
180.3193
 20
14.7989
 30
0.0
 10
180.2742
 20
14.9411
 30
0.0
 10
180.5906
 20
14.9411
 30
0.0
 10
180.5906
 20
14.9411
 30
0.0
 10
180.907
 20
14.9411
 30
0.0
 10
181.2686
 20
14.9152
 30
0.0
 10
181.2945
 20
14.6372
 30
0.0
 10
181.2945
 20
14.6372
 30
0.0
 10
181.3204
 20
14.3592
 30
0.0
 10
181.2817
 20
14.107
 30
0.0
 10
181.1008
 20
13.9389
 30
0.0
 10
181.1008
 20
13.9389
 30
0.0
 10
180.9199
 20
13.7708
 30
0.0
 10
180.7521
 20
13.635
 30
0.0
 10
180.8683
 20
13.4992
 30
0.0
 10
180.8683
 20
13.4992
 30
0.0
 10
180.9845
 20
13.3634
 30
0.0
 10
181.2493
 20
13.2922
 30
0.0
 10
181.2816
 20
13.0207
 30
0.0
 10
181.2816
 20
13.0207
 30
0.0
 10
181.3139
 20
12.7492
 30
0.0
 10
181.2815
 20
12.6522
 30
0.0
 10
180.9845
 20
12.4776
 30
0.0
 10
180.9845
 20
12.4776
 30
0.0
 10
180.6875
 20
12.303
 30
0.0
 10
180.3969
 20
12.1349
 30
0.0
 10
180.0352
 20
12.1737
 30
0.0
 10
180.0352
 20
12.1737
 30
0.0
 10
179.6735
 20
12.2125
 30
0.0
 10
179.2022
 20
12.2578
 30
0.0
 10
179.0859
 20
12.691
 30
0.0
 10
179.0859
 20
12.691
 30
0.0
 10
178.9696
 20
13.1242
 30
0.0
 10
178.9179
 20
13.1889
 30
0.0
 10
179.1956
 20
13.7255
 30
0.0
  0
SPLINE
  5
4A
330
1F
100
AcDbEntity
  8
Layer 1
370
     5
100
AcDbSpline
210
0.0
220
0.0
230
1.0
 70
    11
 71
     3
 72
    24
 73
    20
 74
     0
 42
0.0000000001
 43
0.0000000001
 40
0.0
 40
0.0
 40
0.0
 40
0.0
 40
0.2
 40
0.2
 40
0.2
 40
0.2
 40
0.4
 40
0.4
 40
0.4
 40
0.4
 40
0.6000000000000001
 40
0.6000000000000001
 40
0.6000000000000001
 40
0.6000000000000001
 40
0.8
 40
0.8
 40
0.8
 40
0.8
 40
1.0
 40
1.0
 40
1.0
 40
1.0
 10
167.2999
 20
13.7385
 30
0.0
 10
167.2999
 20
13.7385
 30
0.0
 10
167.3257
 20
14.0294
 30
0.0
 10
167.584
 20
14.2363
 30
0.0
 10
167.584
 20
14.2363
 30
0.0
 10
167.8423
 20
14.4432
 30
0.0
 10
168.1265
 20
14.4496
 30
0.0
 10
168.3913
 20
14.3656
 30
0.0
 10
168.3913
 20
14.3656
 30
0.0
 10
168.6561
 20
14.2816
 30
0.0
 10
168.8305
 20
14.1975
 30
0.0
 10
168.8111
 20
13.8936
 30
0.0
 10
168.8111
 20
13.8936
 30
0.0
 10
168.7917
 20
13.5897
 30
0.0
 10
168.8176
 20
13.3506
 30
0.0
 10
168.4559
 20
13.1307
 30
0.0
 10
168.4559
 20
13.1307
 30
0.0
 10
168.0942
 20
12.9108
 30
0.0
 10
167.1901
 20
12.8979
 30
0.0
 10
167.2999
 20
13.7385
 30
0.0
  0
SPLINE
  5
4B
330
1F
100
AcDbEntity
  8
Layer 1
370
     5
100
AcDbSpline
210
0.0
220
0.0
230
1.0
 70
    11
 71
     3
 72
    20
 73
    16
 74
     0
 42
0.0000000001
 43
0.0000000001
 40
0.0
 40
0.0
 40
0.0
 40
0.0
 40
0.25
 40
0.25
 40
0.25
 40
0.25
 40
0.5
 40
0.5
 40
0.5
 40
0.5
 40
0.75
 40
0.75
 40
0.75
 40
0.75
 40
1.0
 40
1.0
 40
1.0
 40
1.0
 10
169.3536
 20
18.523
 30
0.0
 10
169.3536
 20
18.523
 30
0.0
 10
169.3148
 20
18.7041
 30
0.0
 10
169.0823
 20
18.2644
 30
0.0
 10
169.0823
 20
18.2644
 30
0.0
 10
168.8498
 20
17.8247
 30
0.0
 10
168.5786
 20
17.5274
 30
0.0
 10
168.8886
 20
17.3075
 30
0.0
 10
168.8886
 20
17.3075
 30
0.0
 10
169.1986
 20
17.0876
 30
0.0
 10
169.4569
 20
17.204
 30
0.0
 10
169.5473
 20
17.5273
 30
0.0
 10
169.5473
 20
17.5273
 30
0.0
 10
169.6377
 20
17.8506
 30
0.0
 10
169.5473
 20
18.4842
 30
0.0
 10
169.3536
 20
18.523
 30
0.0
  0
SPLINE
  5
4C
330
1F
100
AcDbEntity
  8
Layer 1
370
     5
100
AcDbSpline
210
0.0
220
0.0
230
1.0
 70
    11
 71
     3
 72
    32
 73
    28
 74
     0
 42
0.0000000001
 43
0.0000000001
 40
0.0
 40
0.0
 40
0.0
 40
0.0
 40
0.1428571428571429
 40
0.1428571428571429
 40
0.1428571428571429
 40
0.1428571428571429
 40
0.2857142857142857
 40
0.2857142857142857
 40
0.2857142857142857
 40
0.2857142857142857
 40
0.4285714285714286
 40
0.4285714285714286
 40
0.4285714285714286
 40
0.4285714285714286
 40
0.5714285714285714
 40
0.5714285714285714
 40
0.5714285714285714
 40
0.5714285714285714
 40
0.7142857142857142
 40
0.7142857142857142
 40
0.7142857142857142
 40
0.7142857142857142
 40
0.857142857142857
 40
0.857142857142857
 40
0.857142857142857
 40
0.857142857142857
 40
1.0
 40
1.0
 40
1.0
 40
1.0
 10
171.7818
 20
17.3721
 30
0.0
 10
171.7818
 20
17.3721
 30
0.0
 10
171.7559
 20
17.9411
 30
0.0
 10
171.9884
 20
18.1739
 30
0.0
 10
171.9884
 20
18.1739
 30
0.0
 10
172.2209
 20
18.4067
 30
0.0
 10
172.3243
 20
18.4584
 30
0.0
 10
172.8926
 20
18.5489
 30
0.0
 10
172.8926
 20
18.5489
 30
0.0
 10
173.4609
 20
18.6394
 30
0.0
 10
173.6675
 20
18.73
 30
0.0
 10
173.8225
 20
18.4196
 30
0.0
 10
173.8225
 20
18.4196
 30
0.0
 10
173.9775
 20
18.1092
 30
0.0
 10
173.7579
 20
17.9153
 30
0.0
 10
173.4996
 20
17.7989
 30
0.0
 10
173.4996
 20
17.7989
 30
0.0
 10
173.2413
 20
17.6825
 30
0.0
 10
172.7892
 20
17.7472
 30
0.0
 10
172.5955
 20
17.6696
 30
0.0
 10
172.5955
 20
17.6696
 30
0.0
 10
172.4018
 20
17.592
 30
0.0
 10
172.518
 20
17.5272
 30
0.0
 10
172.2855
 20
17.3333
 30
0.0
 10
172.2855
 20
17.3333
 30
0.0
 10
172.053
 20
17.1394
 30
0.0
 10
171.7689
 20
17.1652
 30
0.0
 10
171.7818
 20
17.3721
 30
0.0
  0
SPLINE
  5
4D
330
1F
100
AcDbEntity
  8
Layer 1
370
     5
100
AcDbSpline
210
0.0
220
0.0
230
1.0
 70
    11
 71
     3
 72
    28
 73
    24
 74
     0
 42
0.0000000001
 43
0.0000000001
 40
0.0
 40
0.0
 40
0.0
 40
0.0
 40
0.1666666666666667
 40
0.1666666666666667
 40
0.1666666666666667
 40
0.1666666666666667
 40
0.3333333333333333
 40
0.3333333333333333
 40
0.3333333333333333
 40
0.3333333333333333
 40
0.5
 40
0.5
 40
0.5
 40
0.5
 40
0.6666666666666666
 40
0.6666666666666666
 40
0.6666666666666666
 40
0.6666666666666666
 40
0.8333333333333333
 40
0.8333333333333333
 40
0.8333333333333333
 40
0.8333333333333333
 40
1.0
 40
1.0
 40
1.0
 40
1.0
 10
170.1866
 20
21.8596
 30
0.0
 10
170.1866
 20
21.8596
 30
0.0
 10
170.0123
 20
22.1506
 30
0.0
 10
170.2383
 20
22.4351
 30
0.0
 10
170.2383
 20
22.4351
 30
0.0
 10
170.4643
 20
22.7196
 30
0.0
 10
170.6323
 20
22.9523
 30
0.0
 10
170.9681
 20
22.9523
 30
0.0
 10
170.9681
 20
22.9523
 30
0.0
 10
171.3039
 20
22.9523
 30
0.0
 10
171.4652
 20
22.8618
 30
0.0
 10
171.5234
 20
22.6549
 30
0.0
 10
171.5234
 20
22.6549
 30
0.0
 10
171.5816
 20
22.448
 30
0.0
 10
171.6398
 20
22.2153
 30
0.0
 10
171.291
 20
21.9954
 30
0.0
 10
171.291
 20
21.9954
 30
0.0
 10
170.9422
 20
21.7755
 30
0.0
 10
170.7937
 20
21.8661
 30
0.0
 10
170.6516
 20
21.8273
 30
0.0
 10
170.6516
 20
21.8273
 30
0.0
 10
170.5095
 20
21.7885
 30
0.0
 10
170.29
 20
21.7044
 30
0.0
 10
170.1866
 20
21.8596
 30
0.0
  0
SPLINE
  5
4E
330
1F
100
AcDbEntity
  8
Layer 1
370
     5
100
AcDbSpline
210
0.0
220
0.0
230
1.0
 70
    11
 71
     3
 72
    36
 73
    32
 74
     0
 42
0.0000000001
 43
0.0000000001
 40
0.0
 40
0.0
 40
0.0
 40
0.0
 40
0.125
 40
0.125
 40
0.125
 40
0.125
 40
0.25
 40
0.25
 40
0.25
 40
0.25
 40
0.375
 40
0.375
 40
0.375
 40
0.375
 40
0.5
 40
0.5
 40
0.5
 40
0.5
 40
0.625
 40
0.625
 40
0.625
 40
0.625
 40
0.75
 40
0.75
 40
0.75
 40
0.75
 40
0.875
 40
0.875
 40
0.875
 40
0.875
 40
1.0
 40
1.0
 40
1.0
 40
1.0
 10
173.3188
 20
22.351
 30
0.0
 10
173.3188
 20
22.351
 30
0.0
 10
173.1961
 20
22.7066
 30
0.0
 10
173.5513
 20
22.8941
 30
0.0
 10
173.5513
 20
22.8941
 30
0.0
 10
173.9065
 20
23.0816
 30
0.0
 10
173.9322
 20
23.2109
 30
0.0
 10
174.1906
 20
23.295
 30
0.0
 10
174.1906
 20
23.295
 30
0.0
 10
174.449
 20
23.3791
 30
0.0
 10
174.7912
 20
23.3468
 30
0.0
 10
175.1206
 20
23.1722
 30
0.0
 10
175.1206
 20
23.1722
 30
0.0
 10
175.45
 20
22.9976
 30
0.0
 10
175.6567
 20
22.9718
 30
0.0
 10
175.6954
 20
22.8101
 30
0.0
 10
175.6954
 20
22.8101
 30
0.0
 10
175.7341
 20
22.6484
 30
0.0
 10
175.7277
 20
22.4545
 30
0.0
 10
175.4952
 20
22.3704
 30
0.0
 10
175.4952
 20
22.3704
 30
0.0
 10
175.2627
 20
22.2863
 30
0.0
 10
175.0496
 20
22.3511
 30
0.0
 10
174.83
 20
22.3769
 30
0.0
 10
174.83
 20
22.3769
 30
0.0
 10
174.6104
 20
22.4027
 30
0.0
 10
174.4101
 20
22.5902
 30
0.0
 10
174.1583
 20
22.4027
 30
0.0
 10
174.1583
 20
22.4027
 30
0.0
 10
173.9065
 20
22.2152
 30
0.0
 10
173.4802
 20
21.9631
 30
0.0
 10
173.3188
 20
22.351
 30
0.0
  0
SPLINE
  5
4F
330
1F
100
AcDbEntity
  8
Layer 1
370
     5
100
AcDbSpline
210
0.0
220
0.0
230
1.0
 70
    11
 71
     3
 72
   196
 73
   192
 74
     0
 42
0.0000000001
 43
0.0000000001
 40
0.0
 40
0.0
 40
0.0
 40
0.0
 40
0.0208333333333333
 40
0.0208333333333333
 40
0.0208333333333333
 40
0.0208333333333333
 40
0.0416666666666667
 40
0.0416666666666667
 40
0.0416666666666667
 40
0.0416666666666667
 40
0.0625
 40
0.0625
 40
0.0625
 40
0.0625
 40
0.0833333333333333
 40
0.0833333333333333
 40
0.0833333333333333
 40
0.0833333333333333
 40
0.1041666666666667
 40
0.1041666666666667
 40
0.1041666666666667
 40
0.1041666666666667
 40
0.125
 40
0.125
 40
0.125
 40
0.125
 40
0.1458333333333333
 40
0.1458333333333333
 40
0.1458333333333333
 40
0.1458333333333333
 40
0.1666666666666667
 40
0.1666666666666667
 40
0.1666666666666667
 40
0.1666666666666667
 40
0.1875
 40
0.1875
 40
0.1875
 40
0.1875
 40
0.2083333333333333
 40
0.2083333333333333
 40
0.2083333333333333
 40
0.2083333333333333
 40
0.2291666666666667
 40
0.2291666666666667
 40
0.2291666666666667
 40
0.2291666666666667
 40
0.25
 40
0.25
 40
0.25
 40
0.25
 40
0.2708333333333333
 40
0.2708333333333333
 40
0.2708333333333333
 40
0.2708333333333333
 40
0.2916666666666666
 40
0.2916666666666666
 40
0.2916666666666666
 40
0.2916666666666666
 40
0.3124999999999999
 40
0.3124999999999999
 40
0.3124999999999999
 40
0.3124999999999999
 40
0.3333333333333333
 40
0.3333333333333333
 40
0.3333333333333333
 40
0.3333333333333333
 40
0.3541666666666666
 40
0.3541666666666666
 40
0.3541666666666666
 40
0.3541666666666666
 40
0.3749999999999999
 40
0.3749999999999999
 40
0.3749999999999999
 40
0.3749999999999999
 40
0.3958333333333332
 40
0.3958333333333332
 40
0.3958333333333332
 40
0.3958333333333332
 40
0.4166666666666665
 40
0.4166666666666665
 40
0.4166666666666665
 40
0.4166666666666665
 40
0.4374999999999998
 40
0.4374999999999998
 40
0.4374999999999998
 40
0.4374999999999998
 40
0.4583333333333332
 40
0.4583333333333332
 40
0.4583333333333332
 40
0.4583333333333332
 40
0.4791666666666665
 40
0.4791666666666665
 40
0.4791666666666665
 40
0.4791666666666665
 40
0.4999999999999998
 40
0.4999999999999998
 40
0.4999999999999998
 40
0.4999999999999998
 40
0.5208333333333332
 40
0.5208333333333332
 40
0.5208333333333332
 40
0.5208333333333332
 40
0.5416666666666665
 40
0.5416666666666665
 40
0.5416666666666665
 40
0.5416666666666665
 40
0.5624999999999999
 40
0.5624999999999999
 40
0.5624999999999999
 40
0.5624999999999999
 40
0.5833333333333333
 40
0.5833333333333333
 40
0.5833333333333333
 40
0.5833333333333333
 40
0.6041666666666666
 40
0.6041666666666666
 40
0.6041666666666666
 40
0.6041666666666666
 40
0.625
 40
0.625
 40
0.625
 40
0.625
 40
0.6458333333333334
 40
0.6458333333333334
 40
0.6458333333333334
 40
0.6458333333333334
 40
0.6666666666666667
 40
0.6666666666666667
 40
0.6666666666666667
 40
0.6666666666666667
 40
0.6875000000000001
 40
0.6875000000000001
 40
0.6875000000000001
 40
0.6875000000000001
 40
0.7083333333333335
 40
0.7083333333333335
 40
0.7083333333333335
 40
0.7083333333333335
 40
0.7291666666666669
 40
0.7291666666666669
 40
0.7291666666666669
 40
0.7291666666666669
 40
0.7500000000000002
 40
0.7500000000000002
 40
0.7500000000000002
 40
0.7500000000000002
 40
0.7708333333333336
 40
0.7708333333333336
 40
0.7708333333333336
 40
0.7708333333333336
 40
0.791666666666667
 40
0.791666666666667
 40
0.791666666666667
 40
0.791666666666667
 40
0.8125000000000003
 40
0.8125000000000003
 40
0.8125000000000003
 40
0.8125000000000003
 40
0.8333333333333337
 40
0.8333333333333337
 40
0.8333333333333337
 40
0.8333333333333337
 40
0.8541666666666671
 40
0.8541666666666671
 40
0.8541666666666671
 40
0.8541666666666671
 40
0.8750000000000004
 40
0.8750000000000004
 40
0.8750000000000004
 40
0.8750000000000004
 40
0.8958333333333338
 40
0.8958333333333338
 40
0.8958333333333338
 40
0.8958333333333338
 40
0.9166666666666672
 40
0.9166666666666672
 40
0.9166666666666672
 40
0.9166666666666672
 40
0.9375000000000006
 40
0.9375000000000006
 40
0.9375000000000006
 40
0.9375000000000006
 40
0.9583333333333339
 40
0.9583333333333339
 40
0.9583333333333339
 40
0.9583333333333339
 40
0.9791666666666673
 40
0.9791666666666673
 40
0.9791666666666673
 40
0.9791666666666673
 40
1.0
 40
1.0
 40
1.0
 40
1.0
 10
168.0878
 20
22.0663
 30
0.0
 10
168.0878
 20
22.0663
 30
0.0
 10
168.372
 20
22.1309
 30
0.0
 10
168.372
 20
22.7387
 30
0.0
 10
168.372
 20
22.7387
 30
0.0
 10
168.372
 20
23.3465
 30
0.0
 10
168.4236
 20
23.9544
 30
0.0
 10
168.824
 20
24.3552
 30
0.0
 10
168.824
 20
24.3552
 30
0.0
 10
169.2244
 20
24.756
 30
0.0
 10
170.1027
 20
25.0793
 30
0.0
 10
170.8389
 20
25.0793
 30
0.0
 10
170.8389
 20
25.0793
 30
0.0
 10
171.5751
 20
25.0793
 30
0.0
 10
172.0531
 20
25.1828
 30
0.0
 10
172.6601
 20
24.769
 30
0.0
 10
172.6601
 20
24.769
 30
0.0
 10
173.2671
 20
24.3552
 30
0.0
 10
173.6158
 20
24.4973
 30
0.0
 10
173.8096
 20
24.7948
 30
0.0
 10
173.8096
 20
24.7948
 30
0.0
 10
174.0034
 20
25.0923
 30
0.0
 10
174.3134
 20
25.312
 30
0.0
 10
174.7396
 20
25.5836
 30
0.0
 10
174.7396
 20
25.5836
 30
0.0
 10
175.1658
 20
25.8552
 30
0.0
 10
175.3336
 20
26.0232
 30
0.0
 10
175.8503
 20
25.9069
 30
0.0
 10
175.8503
 20
25.9069
 30
0.0
 10
176.367
 20
25.7906
 30
0.0
 10
176.8836
 20
25.5319
 30
0.0
 10
177.1807
 20
24.5879
 30
0.0
 10
177.1807
 20
24.5879
 30
0.0
 10
177.4778
 20
23.6439
 30
0.0
 10
178.0202
 20
22.5448
 30
0.0
 10
178.976
 20
22.2732
 30
0.0
 10
178.976
 20
22.2732
 30
0.0
 10
179.9318
 20
22.0016
 30
0.0
 10
180.1126
 20
22.1698
 30
0.0
 10
180.4872
 20
22.3896
 30
0.0
 10
180.4872
 20
22.3896
 30
0.0
 10
180.8618
 20
22.6094
 30
0.0
 10
181.3526
 20
22.9068
 30
0.0
 10
181.7013
 20
22.8551
 30
0.0
 10
181.7013
 20
22.8551
 30
0.0
 10
182.05
 20
22.8034
 30
0.0
 10
182.1533
 20
22.868
 30
0.0
 10
182.5279
 20
22.4542
 30
0.0
 10
182.5279
 20
22.4542
 30
0.0
 10
182.9025
 20
22.0404
 30
0.0
 10
183.1867
 20
21.7688
 30
0.0
 10
183.5096
 20
21.8852
 30
0.0
 10
183.5096
 20
21.8852
 30
0.0
 10
183.8325
 20
22.0016
 30
0.0
 10
184.0003
 20
22.0146
 30
0.0
 10
184.1424
 20
22.4801
 30
0.0
 10
184.1424
 20
22.4801
 30
0.0
 10
184.2845
 20
22.9456
 30
0.0
 10
184.8657
 20
23.5406
 30
0.0
 10
185.4082
 20
23.6181
 30
0.0
 10
185.4082
 20
23.6181
 30
0.0
 10
185.9507
 20
23.6956
 30
0.0
 10
186.0153
 20
23.644
 30
0.0
 10
186.3511
 20
23.2043
 30
0.0
 10
186.3511
 20
23.2043
 30
0.0
 10
186.6869
 20
22.7646
 30
0.0
 10
186.5577
 20
22.6353
 30
0.0
 10
186.9581
 20
22.5706
 30
0.0
 10
186.9581
 20
22.5706
 30
0.0
 10
187.3585
 20
22.5059
 30
0.0
 10
187.7201
 20
22.7257
 30
0.0
 10
188.0043
 20
22.3378
 30
0.0
 10
188.0043
 20
22.3378
 30
0.0
 10
188.2885
 20
21.9499
 30
0.0
 10
188.1723
 20
21.5878
 30
0.0
 10
187.8881
 20
21.2257
 30
0.0
 10
187.8881
 20
21.2257
 30
0.0
 10
187.6039
 20
20.8636
 30
0.0
 10
187.5136
 20
20.8378
 30
0.0
 10
187.294
 20
20.5145
 30
0.0
 10
187.294
 20
20.5145
 30
0.0
 10
187.0744
 20
20.1912
 30
0.0
 10
186.984
 20
19.7903
 30
0.0
 10
186.4286
 20
19.8162
 30
0.0
 10
186.4286
 20
19.8162
 30
0.0
 10
185.8732
 20
19.8421
 30
0.0
 10
185.5891
 20
20.1654
 30
0.0
 10
185.2016
 20
20.2559
 30
0.0
 10
185.2016
 20
20.2559
 30
0.0
 10
184.8141
 20
20.3464
 30
0.0
 10
184.5429
 20
20.1137
 30
0.0
 10
184.3362
 20
19.8421
 30
0.0
 10
184.3362
 20
19.8421
 30
0.0
 10
184.1295
 20
19.5705
 30
0.0
 10
183.6711
 20
19.0534
 30
0.0
 10
183.4063
 20
18.9952
 30
0.0
 10
183.4063
 20
18.9952
 30
0.0
 10
183.1415
 20
18.937
 30
0.0
 10
182.851
 20
18.9112
 30
0.0
 10
182.5668
 20
19.0793
 30
0.0
 10
182.5668
 20
19.0793
 30
0.0
 10
182.2826
 20
19.2474
 30
0.0
 10
181.5721
 20
19.9583
 30
0.0
 10
181.0813
 20
19.9196
 30
0.0
 10
181.0813
 20
19.9196
 30
0.0
 10
180.5905
 20
19.8809
 30
0.0
 10
180.3064
 20
19.674
 30
0.0
 10
180.216
 20
19.3507
 30
0.0
 10
180.216
 20
19.3507
 30
0.0
 10
180.1256
 20
19.0274
 30
0.0
 10
180.371
 20
19.0532
 30
0.0
 10
180.6164
 20
18.3032
 30
0.0
 10
180.6164
 20
18.3032
 30
0.0
 10
180.8618
 20
17.5532
 30
0.0
 10
180.6551
 20
17.1523
 30
0.0
 10
180.3968
 20
16.9842
 30
0.0
 10
180.3968
 20
16.9842
 30
0.0
 10
180.1385
 20
16.8161
 30
0.0
 10
179.4668
 20
16.441
 30
0.0
 10
178.666
 20
16.7902
 30
0.0
 10
178.666
 20
16.7902
 30
0.0
 10
177.8652
 20
17.1394
 30
0.0
 10
177.6198
 20
17.5015
 30
0.0
 10
177.749
 20
17.9153
 30
0.0
 10
177.749
 20
17.9153
 30
0.0
 10
177.8782
 20
18.3291
 30
0.0
 10
178.0461
 20
18.6781
 30
0.0
 10
178.0719
 20
18.9368
 30
0.0
 10
178.0719
 20
18.9368
 30
0.0
 10
178.0977
 20
19.1955
 30
0.0
 10
178.0589
 20
19.4929
 30
0.0
 10
177.6973
 20
19.4541
 30
0.0
 10
177.6973
 20
19.4541
 30
0.0
 10
177.3357
 20
19.4153
 30
0.0
 10
176.5737
 20
19.2602
 30
0.0
 10
176.3412
 20
18.8722
 30
0.0
 10
176.3412
 20
18.8722
 30
0.0
 10
176.1087
 20
18.4842
 30
0.0
 10
176.225
 20
18.3419
 30
0.0
 10
176.4187
 20
18.1092
 30
0.0
 10
176.4187
 20
18.1092
 30
0.0
 10
176.6124
 20
17.8765
 30
0.0
 10
177.0902
 20
16.8679
 30
0.0
 10
176.6382
 20
16.4023
 30
0.0
 10
176.6382
 20
16.4023
 30
0.0
 10
176.1862
 20
15.9367
 30
0.0
 10
175.5662
 20
15.6781
 30
0.0
 10
174.8429
 20
15.9238
 30
0.0
 10
174.8429
 20
15.9238
 30
0.0
 10
174.1196
 20
16.1695
 30
0.0
 10
173.2413
 20
16.3764
 30
0.0
 10
172.8409
 20
16.1307
 30
0.0
 10
172.8409
 20
16.1307
 30
0.0
 10
172.4405
 20
15.885
 30
0.0
 10
171.9626
 20
15.4582
 30
0.0
 10
171.3039
 20
15.316
 30
0.0
 10
171.3039
 20
15.316
 30
0.0
 10
170.6452
 20
15.1738
 30
0.0
 10
170.2835
 20
15.5488
 30
0.0
 10
169.8573
 20
15.51
 30
0.0
 10
169.8573
 20
15.51
 30
0.0
 10
169.4311
 20
15.4712
 30
0.0
 10
169.0694
 20
15.3549
 30
0.0
 10
168.7465
 20
15.135
 30
0.0
 10
168.7465
 20
15.135
 30
0.0
 10
168.4236
 20
14.9151
 30
0.0
 10
167.9199
 20
14.6695
 30
0.0
 10
167.1966
 20
14.6824
 30
0.0
 10
167.1966
 20
14.6824
 30
0.0
 10
166.4733
 20
14.6953
 30
0.0
 10
166.0858
 20
15.3937
 30
0.0
 10
166.3054
 20
15.9885
 30
0.0
 10
166.3054
 20
15.9885
 30
0.0
 10
166.525
 20
16.5833
 30
0.0
 10
167.1321
 20
17.1393
 30
0.0
 10
167.2483
 20
17.6954
 30
0.0
 10
167.2483
 20
17.6954
 30
0.0
 10
167.3645
 20
18.2515
 30
0.0
 10
167.429
 20
18.4195
 30
0.0
 10
167.1578
 20
18.6006
 30
0.0
 10
167.1578
 20
18.6006
 30
0.0
 10
166.8866
 20
18.7817
 30
0.0
 10
166.2925
 20
19.286
 30
0.0
 10
166.3829
 20
20.2688
 30
0.0
 10
166.3829
 20
20.2688
 30
0.0
 10
166.4733
 20
21.2516
 30
0.0
 10
166.99
 20
21.4585
 30
0.0
 10
167.2483
 20
21.6266
 30
0.0
 10
167.2483
 20
21.6266
 30
0.0
 10
167.5066
 20
21.7947
 30
0.0
 10
168.0878
 20
22.0663
 30
0.0
 10
168.0878
 20
22.0663
 30
0.0
  0
SPLINE
  5
50
330
1F
100
AcDbEntity
  8
Layer 1
370
     5
100
AcDbSpline
210
0.0
220
0.0
230
1.0
 70
    11
 71
     3
 72
    24
 73
    20
 74
     0
 42
0.0000000001
 43
0.0000000001
 40
0.0
 40
0.0
 40
0.0
 40
0.0
 40
0.2
 40
0.2
 40
0.2
 40
0.2
 40
0.4
 40
0.4
 40
0.4
 40
0.4
 40
0.6000000000000001
 40
0.6000000000000001
 40
0.6000000000000001
 40
0.6000000000000001
 40
0.8
 40
0.8
 40
0.8
 40
0.8
 40
1.0
 40
1.0
 40
1.0
 40
1.0
 10
183.0317
 20
18.1739
 30
0.0
 10
183.0317
 20
18.1739
 30
0.0
 10
183.135
 20
18.6782
 30
0.0
 10
183.6258
 20
18.7946
 30
0.0
 10
183.6258
 20
18.7946
 30
0.0
 10
184.1166
 20
18.911
 30
0.0
 10
184.8141
 20
18.8593
 30
0.0
 10
184.9691
 20
18.4584
 30
0.0
 10
184.9691
 20
18.4584
 30
0.0
 10
185.1241
 20
18.0575
 30
0.0
 10
185.0336
 20
17.7601
 30
0.0
 10
184.672
 20
17.5661
 30
0.0
 10
184.672
 20
17.5661
 30
0.0
 10
184.3104
 20
17.3721
 30
0.0
 10
183.6388
 20
17.0489
 30
0.0
 10
183.2771
 20
17.3463
 30
0.0
 10
183.2771
 20
17.3463
 30
0.0
 10
182.9154
 20
17.6437
 30
0.0
 10
182.9929
 20
17.7989
 30
0.0
 10
183.0317
 20
18.1739
 30
0.0
  0
SPLINE
  5
51
330
1F
100
AcDbEntity
  8
Layer 1
370
     5
100
AcDbSpline
210
0.0
220
0.0
230
1.0
 70
    11
 71
     3
 72
    20
 73
    16
 74
     0
 42
0.0000000001
 43
0.0000000001
 40
0.0
 40
0.0
 40
0.0
 40
0.0
 40
0.25
 40
0.25
 40
0.25
 40
0.25
 40
0.5
 40
0.5
 40
0.5
 40
0.5
 40
0.75
 40
0.75
 40
0.75
 40
0.75
 40
1.0
 40
1.0
 40
1.0
 40
1.0
 10
186.9711
 20
17.8765
 30
0.0
 10
186.9711
 20
17.8765
 30
0.0
 10
186.8677
 20
18.6911
 30
0.0
 10
187.4231
 20
18.9756
 30
0.0
 10
187.4231
 20
18.9756
 30
0.0
 10
187.9785
 20
19.2601
 30
0.0
 10
188.5597
 20
18.9369
 30
0.0
 10
188.7147
 20
18.6653
 30
0.0
 10
188.7147
 20
18.6653
 30
0.0
 10
188.8697
 20
18.3937
 30
0.0
 10
188.8051
 20
17.8248
 30
0.0
 10
188.4047
 20
17.5015
 30
0.0
 10
188.4047
 20
17.5015
 30
0.0
 10
188.0043
 20
17.1782
 30
0.0
 10
186.9969
 20
17.4109
 30
0.0
 10
186.9711
 20
17.8765
 30
0.0
  0
SPLINE
  5
52
330
1F
100
AcDbEntity
  8
Layer 1
370
     5
100
AcDbSpline
210
0.0
220
0.0
230
1.0
 70
    11
 71
     3
 72
    20
 73
    16
 74
     0
 42
0.0000000001
 43
0.0000000001
 40
0.0
 40
0.0
 40
0.0
 40
0.0
 40
0.25
 40
0.25
 40
0.25
 40
0.25
 40
0.5
 40
0.5
 40
0.5
 40
0.5
 40
0.75
 40
0.75
 40
0.75
 40
0.75
 40
1.0
 40
1.0
 40
1.0
 40
1.0
 10
189.283
 20
17.7859
 30
0.0
 10
189.283
 20
17.7859
 30
0.0
 10
189.1151
 20
18.148
 30
0.0
 10
189.5026
 20
18.6006
 30
0.0
 10
189.5026
 20
18.6006
 30
0.0
 10
189.8901
 20
19.0532
 30
0.0
 10
190.6522
 20
18.8592
 30
0.0
 10
190.833
 20
18.6394
 30
0.0
 10
190.833
 20
18.6394
 30
0.0
 10
191.0138
 20
18.4196
 30
0.0
 10
191.1559
 20
18.1093
 30
0.0
 10
190.9234
 20
17.7472
 30
0.0
 10
190.9234
 20
17.7472
 30
0.0
 10
190.6909
 20
17.3851
 30
0.0
 10
189.7997
 20
16.9971
 30
0.0
 10
189.283
 20
17.7859
 30
0.0
  0
SPLINE
  5
53
330
1F
100
AcDbEntity
  8
Layer 1
370
     5
100
AcDbSpline
210
0.0
220
0.0
230
1.0
 70
    11
 71
     3
 72
    64
 73
    60
 74
     0
 42
0.0000000001
 43
0.0000000001
 40
0.0
 40
0.0
 40
0.0
 40
0.0
 40
0.0666666666666667
 40
0.0666666666666667
 40
0.0666666666666667
 40
0.0666666666666667
 40
0.1333333333333333
 40
0.1333333333333333
 40
0.1333333333333333
 40
0.1333333333333333
 40
0.2
 40
0.2
 40
0.2
 40
0.2
 40
0.2666666666666667
 40
0.2666666666666667
 40
0.2666666666666667
 40
0.2666666666666667
 40
0.3333333333333333
 40
0.3333333333333333
 40
0.3333333333333333
 40
0.3333333333333333
 40
0.4
 40
0.4
 40
0.4
 40
0.4
 40
0.4666666666666666
 40
0.4666666666666666
 40
0.4666666666666666
 40
0.4666666666666666
 40
0.5333333333333333
 40
0.5333333333333333
 40
0.5333333333333333
 40
0.5333333333333333
 40
0.6
 40
0.6
 40
0.6
 40
0.6
 40
0.6666666666666666
 40
0.6666666666666666
 40
0.6666666666666666
 40
0.6666666666666666
 40
0.7333333333333333
 40
0.7333333333333333
 40
0.7333333333333333
 40
0.7333333333333333
 40
0.7999999999999999
 40
0.7999999999999999
 40
0.7999999999999999
 40
0.7999999999999999
 40
0.8666666666666666
 40
0.8666666666666666
 40
0.8666666666666666
 40
0.8666666666666666
 40
0.9333333333333332
 40
0.9333333333333332
 40
0.9333333333333332
 40
0.9333333333333332
 40
1.0
 40
1.0
 40
1.0
 40
1.0
 10
200.326
 20
4.7899
 30
0.0
 10
200.326
 20
4.7899
 30
0.0
 10
199.9902
 20
5.5917
 30
0.0
 10
200.5456
 20
6.199400000000001
 30
0.0
 10
200.5456
 20
6.199400000000001
 30
0.0
 10
201.101
 20
6.8071
 30
0.0
 10
201.6693
 20
6.716600000000001
 30
0.0
 10
201.9018
 20
6.6261
 30
0.0
 10
201.9018
 20
6.6261
 30
0.0
 10
202.1343
 20
6.535600000000001
 30
0.0
 10
202.6508
 20
6.2123
 30
0.0
 10
202.8317
 20
6.548500000000001
 30
0.0
 10
202.8317
 20
6.548500000000001
 30
0.0
 10
203.0126
 20
6.884700000000001
 30
0.0
 10
202.8059
 20
7.3891
 30
0.0
 10
203.1288
 20
7.7641
 30
0.0
 10
203.1288
 20
7.7641
 30
0.0
 10
203.4517
 20
8.139100000000001
 30
0.0
 10
203.7487
 20
8.2942
 30
0.0
 10
204.0587
 20
8.2037
 30
0.0
 10
204.0587
 20
8.2037
 30
0.0
 10
204.3687
 20
8.113200000000001
 30
0.0
 10
204.64
 20
8.035600000000001
 30
0.0
 10
204.7304
 20
8.2813
 30
0.0
 10
204.7304
 20
8.2813
 30
0.0
 10
204.8208
 20
8.527000000000001
 30
0.0
 10
204.6788
 20
8.992600000000001
 30
0.0
 10
205.3762
 20
9.264100000000001
 30
0.0
 10
205.3762
 20
9.264100000000001
 30
0.0
 10
206.0736
 20
9.535600000000001
 30
0.0
 10
206.8228
 20
9.315800000000001
 30
0.0
 10
206.939
 20
8.5787
 30
0.0
 10
206.939
 20
8.5787
 30
0.0
 10
207.0552
 20
7.841600000000001
 30
0.0
 10
207.1199
 20
7.221
 30
0.0
 10
206.7453
 20
6.8589
 30
0.0
 10
206.7453
 20
6.8589
 30
0.0
 10
206.3707
 20
6.4968
 30
0.0
 10
206.1382
 20
6.639
 30
0.0
 10
205.7249
 20
6.509700000000001
 30
0.0
 10
205.7249
 20
6.509700000000001
 30
0.0
 10
205.3116
 20
6.380400000000001
 30
0.0
 10
205.3115
 20
6.458
 30
0.0
 10
205.1824
 20
6.0054
 30
0.0
 10
205.1824
 20
6.0054
 30
0.0
 10
205.0533
 20
5.5528
 30
0.0
 10
205.092
 20
5.009700000000001
 30
0.0
 10
204.3558
 20
4.8933
 30
0.0
 10
204.3558
 20
4.8933
 30
0.0
 10
203.6196
 20
4.7769
 30
0.0
 10
203.2193
 20
4.9709
 30
0.0
 10
202.9351
 20
4.8028
 30
0.0
 10
202.9351
 20
4.8028
 30
0.0
 10
202.6509
 20
4.634700000000001
 30
0.0
 10
202.8059
 20
4.285600000000001
 30
0.0
 10
202.4055
 20
4.014
 30
0.0
 10
202.4055
 20
4.014
 30
0.0
 10
202.0051
 20
3.7424
 30
0.0
 10
200.8427
 20
3.264
 30
0.0
 10
200.326
 20
4.7899
 30
0.0
  0
SPLINE
  5
54
330
1F
100
AcDbEntity
  8
Layer 1
370
     5
100
AcDbSpline
210
0.0
220
0.0
230
1.0
 70
    11
 71
     3
 72
    40
 73
    36
 74
     0
 42
0.0000000001
 43
0.0000000001
 40
0.0
 40
0.0
 40
0.0
 40
0.0
 40
0.1111111111111111
 40
0.1111111111111111
 40
0.1111111111111111
 40
0.1111111111111111
 40
0.2222222222222222
 40
0.2222222222222222
 40
0.2222222222222222
 40
0.2222222222222222
 40
0.3333333333333333
 40
0.3333333333333333
 40
0.3333333333333333
 40
0.3333333333333333
 40
0.4444444444444444
 40
0.4444444444444444
 40
0.4444444444444444
 40
0.4444444444444444
 40
0.5555555555555556
 40
0.5555555555555556
 40
0.5555555555555556
 40
0.5555555555555556
 40
0.6666666666666667
 40
0.6666666666666667
 40
0.6666666666666667
 40
0.6666666666666667
 40
0.7777777777777779
 40
0.7777777777777779
 40
0.7777777777777779
 40
0.7777777777777779
 40
0.8888888888888891
 40
0.8888888888888891
 40
0.8888888888888891
 40
0.8888888888888891
 40
1.0
 40
1.0
 40
1.0
 40
1.0
 10
175.8116
 20
29.4631
 30
0.0
 10
175.8116
 20
29.4631
 30
0.0
 10
175.5404
 20
29.5794
 30
0.0
 10
175.7083
 20
30.6269
 30
0.0
 10
175.7083
 20
30.6269
 30
0.0
 10
175.8762
 20
31.6744
 30
0.0
 10
175.8375
 20
32.7218
 30
0.0
 10
176.7416
 20
33.7822
 30
0.0
 10
176.7416
 20
33.7822
 30
0.0
 10
177.6457
 20
34.8426
 30
0.0
 10
177.9299
 20
35.0754
 30
0.0
 10
178.524
 20
35.0754
 30
0.0
 10
178.524
 20
35.0754
 30
0.0
 10
179.1181
 20
35.0754
 30
0.0
 10
179.5572
 20
34.8814
 30
0.0
 10
180.0093
 20
33.8081
 30
0.0
 10
180.0093
 20
33.8081
 30
0.0
 10
180.4614
 20
32.7348
 30
0.0
 10
180.655
 20
32.69600000000001
 30
0.0
 10
180.8359
 20
31.8425
 30
0.0
 10
180.8359
 20
31.8425
 30
0.0
 10
181.0168
 20
30.989
 30
0.0
 10
181.0296
 20
30.5494
 30
0.0
 10
180.6809
 20
30.1485
 30
0.0
 10
180.6809
 20
30.1485
 30
0.0
 10
180.3322
 20
29.7476
 30
0.0
 10
179.8932
 20
29.5794
 30
0.0
 10
179.1569
 20
29.5536
 30
0.0
 10
179.1569
 20
29.5536
 30
0.0
 10
178.4206
 20
29.5278
 30
0.0
 10
178.0591
 20
29.6053
 30
0.0
 10
177.5553
 20
29.4372
 30
0.0
 10
177.5553
 20
29.4372
 30
0.0
 10
177.0515
 20
29.2691
 30
0.0
 10
176.1474
 20
29.0881
 30
0.0
 10
175.8116
 20
29.4631
 30
0.0
  0
SPLINE
  5
55
330
1F
100
AcDbEntity
  8
Layer 1
370
     5
100
AcDbSpline
210
0.0
220
0.0
230
1.0
 70
    11
 71
     3
 72
    24
 73
    20
 74
     0
 42
0.0000000001
 43
0.0000000001
 40
0.0
 40
0.0
 40
0.0
 40
0.0
 40
0.2
 40
0.2
 40
0.2
 40
0.2
 40
0.4
 40
0.4
 40
0.4
 40
0.4
 40
0.6000000000000001
 40
0.6000000000000001
 40
0.6000000000000001
 40
0.6000000000000001
 40
0.8
 40
0.8
 40
0.8
 40
0.8
 40
1.0
 40
1.0
 40
1.0
 40
1.0
 10
174.3456
 20
27.0517
 30
0.0
 10
174.3456
 20
27.0517
 30
0.0
 10
174.3328
 20
27.4784
 30
0.0
 10
174.6944
 20
27.6918
 30
0.0
 10
174.6944
 20
27.6918
 30
0.0
 10
175.056
 20
27.9052
 30
0.0
 10
175.4048
 20
27.8858
 30
0.0
 10
175.6179
 20
27.6918
 30
0.0
 10
175.6179
 20
27.6918
 30
0.0
 10
175.831
 20
27.4978
 30
0.0
 10
175.9342
 20
27.2069
 30
0.0
 10
175.9149
 20
26.9418
 30
0.0
 10
175.9149
 20
26.9418
 30
0.0
 10
175.8956
 20
26.6767
 30
0.0
 10
175.689
 20
26.4375
 30
0.0
 10
175.295
 20
26.3405
 30
0.0
 10
175.295
 20
26.3405
 30
0.0
 10
174.901
 20
26.2435
 30
0.0
 10
174.2423
 20
26.3663
 30
0.0
 10
174.3456
 20
27.0517
 30
0.0
  0
SPLINE
  5
56
330
1F
100
AcDbEntity
  8
Layer 1
370
     5
100
AcDbSpline
210
0.0
220
0.0
230
1.0
 70
    11
 71
     3
 72
    40
 73
    36
 74
     0
 42
0.0000000001
 43
0.0000000001
 40
0.0
 40
0.0
 40
0.0
 40
0.0
 40
0.1111111111111111
 40
0.1111111111111111
 40
0.1111111111111111
 40
0.1111111111111111
 40
0.2222222222222222
 40
0.2222222222222222
 40
0.2222222222222222
 40
0.2222222222222222
 40
0.3333333333333333
 40
0.3333333333333333
 40
0.3333333333333333
 40
0.3333333333333333
 40
0.4444444444444444
 40
0.4444444444444444
 40
0.4444444444444444
 40
0.4444444444444444
 40
0.5555555555555556
 40
0.5555555555555556
 40
0.5555555555555556
 40
0.5555555555555556
 40
0.6666666666666667
 40
0.6666666666666667
 40
0.6666666666666667
 40
0.6666666666666667
 40
0.7777777777777779
 40
0.7777777777777779
 40
0.7777777777777779
 40
0.7777777777777779
 40
0.8888888888888891
 40
0.8888888888888891
 40
0.8888888888888891
 40
0.8888888888888891
 40
1.0
 40
1.0
 40
1.0
 40
1.0
 10
171.0133
 20
26.8319
 30
0.0
 10
171.0133
 20
26.8319
 30
0.0
 10
171.588
 20
26.7802
 30
0.0
 10
171.8657
 20
27.0194
 30
0.0
 10
171.8657
 20
27.0194
 30
0.0
 10
172.1434
 20
27.2586
 30
0.0
 10
172.3242
 20
27.543
 30
0.0
 10
172.7892
 20
27.5754
 30
0.0
 10
172.7892
 20
27.5754
 30
0.0
 10
173.2542
 20
27.6078
 30
0.0
 10
173.5901
 20
27.4914
 30
0.0
 10
173.7709
 20
27.1875
 30
0.0
 10
173.7709
 20
27.1875
 30
0.0
 10
173.9517
 20
26.8836
 30
0.0
 10
173.9581
 20
26.7285
 30
0.0
 10
173.8806
 20
26.4116
 30
0.0
 10
173.8806
 20
26.4116
 30
0.0
 10
173.8031
 20
26.0947
 30
0.0
 10
173.7579
 20
25.7973
 30
0.0
 10
173.1444
 20
25.7068
 30
0.0
 10
173.1444
 20
25.7068
 30
0.0
 10
172.5309
 20
25.6163
 30
0.0
 10
172.2596
 20
25.8427
 30
0.0
 10
171.7882
 20
25.7327
 30
0.0
 10
171.7882
 20
25.7327
 30
0.0
 10
171.3168
 20
25.6227
 30
0.0
 10
170.8196
 20
25.3576
 30
0.0
 10
170.4127
 20
25.474
 30
0.0
 10
170.4127
 20
25.474
 30
0.0
 10
170.0058
 20
25.5904
 30
0.0
 10
169.741
 20
25.7262
 30
0.0
 10
169.8314
 20
26.1012
 30
0.0
 10
169.8314
 20
26.1012
 30
0.0
 10
169.9218
 20
26.4762
 30
0.0
 10
170.2512
 20
26.8642
 30
0.0
 10
171.0133
 20
26.8319
 30
0.0
  0
SPLINE
  5
57
330
1F
100
AcDbEntity
  8
Layer 1
370
     5
100
AcDbSpline
210
0.0
220
0.0
230
1.0
 70
    11
 71
     3
 72
    32
 73
    28
 74
     0
 42
0.0000000001
 43
0.0000000001
 40
0.0
 40
0.0
 40
0.0
 40
0.0
 40
0.1428571428571429
 40
0.1428571428571429
 40
0.1428571428571429
 40
0.1428571428571429
 40
0.2857142857142857
 40
0.2857142857142857
 40
0.2857142857142857
 40
0.2857142857142857
 40
0.4285714285714286
 40
0.4285714285714286
 40
0.4285714285714286
 40
0.4285714285714286
 40
0.5714285714285714
 40
0.5714285714285714
 40
0.5714285714285714
 40
0.5714285714285714
 40
0.7142857142857142
 40
0.7142857142857142
 40
0.7142857142857142
 40
0.7142857142857142
 40
0.857142857142857
 40
0.857142857142857
 40
0.857142857142857
 40
0.857142857142857
 40
1.0
 40
1.0
 40
1.0
 40
1.0
 10
178.0461
 20
25.4414
 30
0.0
 10
178.0461
 20
25.4414
 30
0.0
 10
177.9427
 20
26.0881
 30
0.0
 10
178.5627
 20
26.4889
 30
0.0
 10
178.5627
 20
26.4889
 30
0.0
 10
179.1827
 20
26.8897
 30
0.0
 10
179.6864
 20
26.5018
 30
0.0
 10
179.8414
 20
26.3078
 30
0.0
 10
179.8414
 20
26.3078
 30
0.0
 10
179.9964
 20
26.1138
 30
0.0
 10
180.1255
 20
25.6483
 30
0.0
 10
180.4872
 20
25.4414
 30
0.0
 10
180.4872
 20
25.4414
 30
0.0
 10
180.8489
 20
25.2345
 30
0.0
 10
180.9392
 20
25.1698
 30
0.0
 10
180.9134
 20
24.7043
 30
0.0
 10
180.9134
 20
24.7043
 30
0.0
 10
180.8876
 20
24.2388
 30
0.0
 10
180.7456
 20
24.0965
 30
0.0
 10
180.3839
 20
23.8896
 30
0.0
 10
180.3839
 20
23.8896
 30
0.0
 10
180.0222
 20
23.6827
 30
0.0
 10
179.4926
 20
23.3983
 30
0.0
 10
178.976
 20
23.6181
 30
0.0
 10
178.976
 20
23.6181
 30
0.0
 10
178.4594
 20
23.8379
 30
0.0
 10
177.7361
 20
24.187
 30
0.0
 10
178.0461
 20
25.4414
 30
0.0
  0
SPLINE
  5
58
330
1F
100
AcDbEntity
  8
Layer 1
370
     5
100
AcDbSpline
210
0.0
220
0.0
230
1.0
 70
    11
 71
     3
 72
    24
 73
    20
 74
     0
 42
0.0000000001
 43
0.0000000001
 40
0.0
 40
0.0
 40
0.0
 40
0.0
 40
0.2
 40
0.2
 40
0.2
 40
0.2
 40
0.4
 40
0.4
 40
0.4
 40
0.4
 40
0.6000000000000001
 40
0.6000000000000001
 40
0.6000000000000001
 40
0.6000000000000001
 40
0.8
 40
0.8
 40
0.8
 40
0.8
 40
1.0
 40
1.0
 40
1.0
 40
1.0
 10
182.3729
 20
25.0535
 30
0.0
 10
182.3729
 20
25.0535
 30
0.0
 10
182.2696
 20
25.6094
 30
0.0
 10
182.8121
 20
25.9069
 30
0.0
 10
182.8121
 20
25.9069
 30
0.0
 10
183.3546
 20
26.2044
 30
0.0
 10
183.7162
 20
26.1785
 30
0.0
 10
184.0262
 20
26.0492
 30
0.0
 10
184.0262
 20
26.0492
 30
0.0
 10
184.3362
 20
25.9199
 30
0.0
 10
184.5945
 20
25.5837
 30
0.0
 10
184.5041
 20
25.144
 30
0.0
 10
184.5041
 20
25.144
 30
0.0
 10
184.4137
 20
24.7043
 30
0.0
 10
184.207
 20
24.2906
 30
0.0
 10
183.6516
 20
24.2388
 30
0.0
 10
183.6516
 20
24.2388
 30
0.0
 10
183.0962
 20
24.187
 30
0.0
 10
182.3471
 20
24.3681
 30
0.0
 10
182.3729
 20
25.0535
 30
0.0
  0
SPLINE
  5
59
330
1F
100
AcDbEntity
  8
Layer 1
370
     5
100
AcDbSpline
210
0.0
220
0.0
230
1.0
 70
    11
 71
     3
 72
    24
 73
    20
 74
     0
 42
0.0000000001
 43
0.0000000001
 40
0.0
 40
0.0
 40
0.0
 40
0.0
 40
0.2
 40
0.2
 40
0.2
 40
0.2
 40
0.4
 40
0.4
 40
0.4
 40
0.4
 40
0.6000000000000001
 40
0.6000000000000001
 40
0.6000000000000001
 40
0.6000000000000001
 40
0.8
 40
0.8
 40
0.8
 40
0.8
 40
1.0
 40
1.0
 40
1.0
 40
1.0
 10
191.8599
 20
17.715
 30
0.0
 10
191.8599
 20
17.715
 30
0.0
 10
191.8922
 20
18.1094
 30
0.0
 10
192.3572
 20
18.2775
 30
0.0
 10
192.3572
 20
18.2775
 30
0.0
 10
192.8222
 20
18.4456
 30
0.0
 10
193.1127
 20
18.2258
 30
0.0
 10
193.2613
 20
18.0189
 30
0.0
 10
193.2613
 20
18.0189
 30
0.0
 10
193.4099
 20
17.812
 30
0.0
 10
193.4421
 20
17.618
 30
0.0
 10
193.3582
 20
17.3464
 30
0.0
 10
193.3582
 20
17.3464
 30
0.0
 10
193.2743
 20
17.0748
 30
0.0
 10
193.0741
 20
16.855
 30
0.0
 10
192.7447
 20
16.8033
 30
0.0
 10
192.7447
 20
16.8033
 30
0.0
 10
192.4153
 20
16.7516
 30
0.0
 10
191.7308
 20
16.8744
 30
0.0
 10
191.8599
 20
17.715
 30
0.0
  0
SPLINE
  5
5A
330
1F
100
AcDbEntity
  8
Layer 1
370
     5
100
AcDbSpline
210
0.0
220
0.0
230
1.0
 70
    11
 71
     3
 72
    28
 73
    24
 74
     0
 42
0.0000000001
 43
0.0000000001
 40
0.0
 40
0.0
 40
0.0
 40
0.0
 40
0.1666666666666667
 40
0.1666666666666667
 40
0.1666666666666667
 40
0.1666666666666667
 40
0.3333333333333333
 40
0.3333333333333333
 40
0.3333333333333333
 40
0.3333333333333333
 40
0.5
 40
0.5
 40
0.5
 40
0.5
 40
0.6666666666666666
 40
0.6666666666666666
 40
0.6666666666666666
 40
0.6666666666666666
 40
0.8333333333333333
 40
0.8333333333333333
 40
0.8333333333333333
 40
0.8333333333333333
 40
1.0
 40
1.0
 40
1.0
 40
1.0
 10
194.1978
 20
17.327
 30
0.0
 10
194.1978
 20
17.327
 30
0.0
 10
194.0815
 20
17.5857
 30
0.0
 10
194.4238
 20
17.8249
 30
0.0
 10
194.4238
 20
17.8249
 30
0.0
 10
194.7661
 20
18.0641
 30
0.0
 10
194.7789
 20
18.1158
 30
0.0
 10
195.1083
 20
18.0641
 30
0.0
 10
195.1083
 20
18.0641
 30
0.0
 10
195.4377
 20
18.0124
 30
0.0
 10
195.5733
 20
17.883
 30
0.0
 10
195.6379
 20
17.6632
 30
0.0
 10
195.6379
 20
17.6632
 30
0.0
 10
195.7025
 20
17.4434
 30
0.0
 10
195.6638
 20
17.3465
 30
0.0
 10
195.5217
 20
17.1072
 30
0.0
 10
195.5217
 20
17.1072
 30
0.0
 10
195.3796
 20
16.8679
 30
0.0
 10
195.0632
 20
16.7128
 30
0.0
 10
194.7532
 20
16.7839
 30
0.0
 10
194.7532
 20
16.7839
 30
0.0
 10
194.4432
 20
16.855
 30
0.0
 10
194.2365
 20
17.0361
 30
0.0
 10
194.1978
 20
17.327
 30
0.0
  0
SPLINE
  5
5B
330
1F
100
AcDbEntity
  8
Layer 1
370
     5
100
AcDbSpline
210
0.0
220
0.0
230
1.0
 70
    11
 71
     3
 72
    28
 73
    24
 74
     0
 42
0.0000000001
 43
0.0000000001
 40
0.0
 40
0.0
 40
0.0
 40
0.0
 40
0.1666666666666667
 40
0.1666666666666667
 40
0.1666666666666667
 40
0.1666666666666667
 40
0.3333333333333333
 40
0.3333333333333333
 40
0.3333333333333333
 40
0.3333333333333333
 40
0.5
 40
0.5
 40
0.5
 40
0.5
 40
0.6666666666666666
 40
0.6666666666666666
 40
0.6666666666666666
 40
0.6666666666666666
 40
0.8333333333333333
 40
0.8333333333333333
 40
0.8333333333333333
 40
0.8333333333333333
 40
1.0
 40
1.0
 40
1.0
 40
1.0
 10
192.4282
 20
20.6893
 30
0.0
 10
192.4282
 20
20.6893
 30
0.0
 10
192.4283
 20
20.9673
 30
0.0
 10
192.7318
 20
21.1225
 30
0.0
 10
192.7318
 20
21.1225
 30
0.0
 10
193.0353
 20
21.2777
 30
0.0
 10
193.0353
 20
21.3617
 30
0.0
 10
193.3711
 20
21.3423
 30
0.0
 10
193.3711
 20
21.3423
 30
0.0
 10
193.7069
 20
21.3229
 30
0.0
 10
193.7069
 20
21.1742
 30
0.0
 10
193.9071
 20
20.9673
 30
0.0
 10
193.9071
 20
20.9673
 30
0.0
 10
194.1073
 20
20.7604
 30
0.0
 10
194.1074
 20
20.463
 30
0.0
 10
193.9976
 20
20.2173
 30
0.0
 10
193.9976
 20
20.2173
 30
0.0
 10
193.8878
 20
19.9716
 30
0.0
 10
193.4874
 20
19.6483
 30
0.0
 10
192.9901
 20
19.7776
 30
0.0
 10
192.9901
 20
19.7776
 30
0.0
 10
192.4928
 20
19.9069
 30
0.0
 10
192.2991
 20
20.2367
 30
0.0
 10
192.4282
 20
20.6893
 30
0.0
  0
SPLINE
  5
5C
330
1F
100
AcDbEntity
  8
Layer 1
370
     5
100
AcDbSpline
210
0.0
220
0.0
230
1.0
 70
    11
 71
     3
 72
    24
 73
    20
 74
     0
 42
0.0000000001
 43
0.0000000001
 40
0.0
 40
0.0
 40
0.0
 40
0.0
 40
0.2
 40
0.2
 40
0.2
 40
0.2
 40
0.4
 40
0.4
 40
0.4
 40
0.4
 40
0.6000000000000001
 40
0.6000000000000001
 40
0.6000000000000001
 40
0.6000000000000001
 40
0.8
 40
0.8
 40
0.8
 40
0.8
 40
1.0
 40
1.0
 40
1.0
 40
1.0
 10
189.225
 20
21.6139
 30
0.0
 10
189.225
 20
21.6139
 30
0.0
 10
189.2768
 20
21.8466
 30
0.0
 10
189.7159
 20
22.06
 30
0.0
 10
189.7159
 20
22.06
 30
0.0
 10
190.155
 20
22.2734
 30
0.0
 10
190.4843
 20
22.144
 30
0.0
 10
190.7233
 20
21.8725
 30
0.0
 10
190.7233
 20
21.8725
 30
0.0
 10
190.9623
 20
21.601
 30
0.0
 10
191.0074
 20
21.2453
 30
0.0
 10
190.9041
 20
20.9608
 30
0.0
 10
190.9041
 20
20.9608
 30
0.0
 10
190.8008
 20
20.6763
 30
0.0
 10
190.5683
 20
20.3401
 30
0.0
 10
190.0775
 20
20.3013
 30
0.0
 10
190.0775
 20
20.3013
 30
0.0
 10
189.5867
 20
20.2625
 30
0.0
 10
188.8246
 20
20.7733
 30
0.0
 10
189.225
 20
21.6139
 30
0.0
  0
SPLINE
  5
5D
330
1F
100
AcDbEntity
  8
Layer 1
370
     5
100
AcDbSpline
210
0.0
220
0.0
230
1.0
 70
    11
 71
     3
 72
    24
 73
    20
 74
     0
 42
0.0000000001
 43
0.0000000001
 40
0.0
 40
0.0
 40
0.0
 40
0.0
 40
0.2
 40
0.2
 40
0.2
 40
0.2
 40
0.4
 40
0.4
 40
0.4
 40
0.4
 40
0.6000000000000001
 40
0.6000000000000001
 40
0.6000000000000001
 40
0.6000000000000001
 40
0.8
 40
0.8
 40
0.8
 40
0.8
 40
1.0
 40
1.0
 40
1.0
 40
1.0
 10
187.1002
 20
25.7906
 30
0.0
 10
187.1002
 20
25.7906
 30
0.0
 10
187.5394
 20
26.2044
 30
0.0
 10
187.8623
 20
26.2432
 30
0.0
 10
187.8623
 20
26.2432
 30
0.0
 10
188.1852
 20
26.282
 30
0.0
 10
188.4823
 20
26.2561
 30
0.0
 10
188.5985
 20
25.6871
 30
0.0
 10
188.5985
 20
25.6871
 30
0.0
 10
188.7147
 20
25.1181
 30
0.0
 10
188.4823
 20
24.6525
 30
0.0
 10
188.1723
 20
24.381
 30
0.0
 10
188.1723
 20
24.381
 30
0.0
 10
187.8623
 20
24.1095
 30
0.0
 10
187.3456
 20
24.0577
 30
0.0
 10
187.1002
 20
24.4198
 30
0.0
 10
187.1002
 20
24.4198
 30
0.0
 10
186.8548
 20
24.7819
 30
0.0
 10
186.6998
 20
25.3638
 30
0.0
 10
187.1002
 20
25.7906
 30
0.0
  0
SPLINE
  5
5E
330
1F
100
AcDbEntity
  8
Layer 1
370
     5
100
AcDbSpline
210
0.0
220
0.0
230
1.0
 70
    11
 71
     3
 72
    20
 73
    16
 74
     0
 42
0.0000000001
 43
0.0000000001
 40
0.0
 40
0.0
 40
0.0
 40
0.0
 40
0.25
 40
0.25
 40
0.25
 40
0.25
 40
0.5
 40
0.5
 40
0.5
 40
0.5
 40
0.75
 40
0.75
 40
0.75
 40
0.75
 40
1.0
 40
1.0
 40
1.0
 40
1.0
 10
190.3809
 20
24.7043
 30
0.0
 10
190.3809
 20
24.7043
 30
0.0
 10
190.7943
 20
25.2604
 30
0.0
 10
191.2463
 20
25.2604
 30
0.0
 10
191.2463
 20
25.2604
 30
0.0
 10
191.6983
 20
25.2604
 30
0.0
 10
191.8405
 20
24.7949
 30
0.0
 10
191.8017
 20
24.3681
 30
0.0
 10
191.8017
 20
24.3681
 30
0.0
 10
191.7629
 20
23.9413
 30
0.0
 10
191.5175
 20
23.5275
 30
0.0
 10
191.13
 20
23.5275
 30
0.0
 10
191.13
 20
23.5275
 30
0.0
 10
190.7425
 20
23.5275
 30
0.0
 10
190.2388
 20
23.8638
 30
0.0
 10
190.3809
 20
24.7043
 30
0.0
  0
SPLINE
  5
5F
330
1F
100
AcDbEntity
  8
Layer 1
370
     5
100
AcDbSpline
210
0.0
220
0.0
230
1.0
 70
    11
 71
     3
 72
    20
 73
    16
 74
     0
 42
0.0000000001
 43
0.0000000001
 40
0.0
 40
0.0
 40
0.0
 40
0.0
 40
0.25
 40
0.25
 40
0.25
 40
0.25
 40
0.5
 40
0.5
 40
0.5
 40
0.5
 40
0.75
 40
0.75
 40
0.75
 40
0.75
 40
1.0
 40
1.0
 40
1.0
 40
1.0
 10
192.7316
 20
23.8767
 30
0.0
 10
192.7316
 20
23.8767
 30
0.0
 10
192.7574
 20
24.3681
 30
0.0
 10
193.2224
 20
24.4069
 30
0.0
 10
193.2224
 20
24.4069
 30
0.0
 10
193.6874
 20
24.4457
 30
0.0
 10
193.8424
 20
24.3035
 30
0.0
 10
193.9199
 20
24.1612
 30
0.0
 10
193.9199
 20
24.1612
 30
0.0
 10
193.9974
 20
24.0189
 30
0.0
 10
194.0233
 20
23.5923
 30
0.0
 10
193.6487
 20
23.3724
 30
0.0
 10
193.6487
 20
23.3724
 30
0.0
 10
193.2741
 20
23.1525
 30
0.0
 10
192.7575
 20
23.1913
 30
0.0
 10
192.7316
 20
23.8767
 30
0.0
  0
ENDSEC
  0
SECTION
  2
OBJECTS
  0
DICTIONARY
  5
C
330
0
100
AcDbDictionary
281
     1
  3
ACAD_GROUP
350
D
  3
ACAD_LAYOUT
350
1A
  3
ACAD_MLINESTYLE
350
17
  3
ACAD_PLOTSETTINGS
350
19
  3
ACAD_PLOTSTYLENAME
350
E
  0
DICTIONARY
  5
D
102
{ACAD_REACTORS
330
C
102
}
330
C
100
AcDbDictionary
281
     1
  0
DICTIONARY
  5
1A
102
{ACAD_REACTORS
330
C
102
}
330
C
100
AcDbDictionary
281
     1
  3
Layout1
350
1E
  3
Layout2
350
26
  3
Model
350
22
  0
DICTIONARY
  5
17
102
{ACAD_REACTORS
330
C
102
}
330
C
100
AcDbDictionary
281
     1
  3
Standard
350
18
  0
DICTIONARY
  5
19
102
{ACAD_REACTORS
330
C
102
}
330
C
100
AcDbDictionary
281
     1
  0
ACDBDICTIONARYWDFLT
  5
E
102
{ACAD_REACTORS
330
C
102
}
330
C
100
AcDbDictionary
281
     1
  3
Normal
350
F
100
AcDbDictionaryWithDefault
340
F
  0
LAYOUT
  5
1E
102
{ACAD_REACTORS
330
1A
102
}
330
1A
100
AcDbPlotSettings
  1

  2

  4

  6

 40
0.0
 41
0.0
 42
0.0
 43
0.0
 44
0.0
 45
0.0
 46
0.0
 47
0.0
 48
0.0
 49
0.0
140
0.0
141
0.0
142
1.0
143
1.0
 70
   688
 72
     0
 73
     0
 74
     5
  7

 75
    16
147
1.0
148
0.0
149
0.0
100
AcDbLayout
  1
Layout1
 70
     1
 71
     1
 10
0.0
 20
0.0
 11
12.0
 21
9.0
 12
0.0
 22
0.0
 32
0.0
 14
1.000000000000000E+20
 24
1.000000000000000E+20
 34
1.000000000000000E+20
 15
-1.000000000000000E+20
 25
-1.000000000000000E+20
 35
-1.000000000000000E+20
146
0.0
 13
0.0
 23
0.0
 33
0.0
 16
1.0
 26
0.0
 36
0.0
 17
0.0
 27
1.0
 37
0.0
 76
     0
330
1B
  0
LAYOUT
  5
26
102
{ACAD_REACTORS
330
1A
102
}
330
1A
100
AcDbPlotSettings
  1

  2

  4

  6

 40
0.0
 41
0.0
 42
0.0
 43
0.0
 44
0.0
 45
0.0
 46
0.0
 47
0.0
 48
0.0
 49
0.0
140
0.0
141
0.0
142
1.0
143
1.0
 70
   688
 72
     0
 73
     0
 74
     5
  7

 75
    16
147
1.0
148
0.0
149
0.0
100
AcDbLayout
  1
Layout2
 70
     1
 71
     2
 10
0.0
 20
0.0
 11
0.0
 21
0.0
 12
0.0
 22
0.0
 32
0.0
 14
0.0
 24
0.0
 34
0.0
 15
0.0
 25
0.0
 35
0.0
146
0.0
 13
0.0
 23
0.0
 33
0.0
 16
1.0
 26
0.0
 36
0.0
 17
0.0
 27
1.0
 37
0.0
 76
     0
330
23
  0
LAYOUT
  5
22
102
{ACAD_REACTORS
330
1A
102
}
330
1A
100
AcDbPlotSettings
  1

  2

  4

  6

 40
0.0
 41
0.0
 42
0.0
 43
0.0
 44
0.0
 45
0.0
 46
0.0
 47
0.0
 48
0.0
 49
0.0
140
0.0
141
0.0
142
1.0
143
1.0
 70
  1712
 72
     0
 73
     0
 74
     0
  7

 75
     0
147
1.0
148
0.0
149
0.0
100
AcDbLayout
  1
Model
 70
     1
 71
     0
 10
0.0
 20
0.0
 11
0.0
 21
0.0
 12
0.0
 22
0.0
 32
0.0
 14
150.7416
 24
-87.26309999999999
 34
0.0
 15
240.183
 25
35.1135
 35
0.0
146
0.0
 13
0.0
 23
0.0
 33
0.0
 16
1.0
 26
0.0
 36
0.0
 17
0.0
 27
1.0
 37
0.0
 76
     0
330
1F
  0
MLINESTYLE
  5
18
102
{ACAD_REACTORS
330
17
102
}
330
17
100
AcDbMlineStyle
  2
Standard
 70
     0
  3

 62
   256
 51
90.0
 52
90.0
 71
     2
 49
0.5
 62
   256
  6
BYLAYER
 49
-0.5
 62
   256
  6
BYLAYER
  0
ACDBPLACEHOLDER
  5
F
102
{ACAD_REACTORS
330
E
102
}
330
E
  0
ENDSEC
  0
EOF
