999
DXF created by Inkscape
  0
SECTION
  2
HEADER
  9
$ACADVER
  1
AC1014
  9
$HANDSEED
  5
FFFF
  9
$MEASUREMENT
 70
     1
  0
ENDSEC
  0
SECTION
  2
TABLES
  0
TABLE
  2
VPORT
  5
8
330
0
100
AcDbSymbolTable
 70
     4
  0
VPORT
  5
2E
330
8
100
AcDbSymbolTableRecord
100
AcDbViewportTableRecord
  2
*ACTIVE
 70
     0
 10
0.0
 20
0.0
 11
1.0
 21
1.0
 12
210.0
 22
148.5
 13
0.0
 23
0.0
 14
10.0
 24
10.0
 15
10.0
 25
10.0
 16
0.0
 26
0.0
 36
1.0
 17
0.0
 27
0.0
 37
0.0
 40
341.0
 41
1.24
 42
50.0
 43
0.0
 44
0.0
 50
0.0
 51
0.0
 71
     0
 72
   100
 73
     1
 74
     3
 75
     0
 76
     0
 77
     0
 78
     0
  0
ENDTAB
  0
TABLE
  2
LTYPE
  5
5
330
0
100
AcDbSymbolTable
 70
     1
  0
LTYPE
  5
14
330
5
100
AcDbSymbolTableRecord
100
AcDbLinetypeTableRecord
  2
BYBLOCK
 70
     0
  3

 72
    65
 73
     0
 40
0.0
  0
LTYPE
  5
15
330
5
100
AcDbSymbolTableRecord
100
AcDbLinetypeTableRecord
  2
BYLAYER
 70
     0
  3

 72
    65
 73
     0
 40
0.0
  0
LTYPE
  5
16
330
5
100
AcDbSymbolTableRecord
100
AcDbLinetypeTableRecord
  2
CONTINUOUS
 70
     0
  3
Solid line
 72
    65
 73
     0
 40
0.0
  0
ENDTAB
  0
TABLE
  2
LAYER
  5
2
330
0
100
AcDbSymbolTable
 70
1
  0
LAYER
  5
10
330
2
100
AcDbSymbolTableRecord
100
AcDbLayerTableRecord
  2
0
 70
     0
 62
     7
  6
CONTINUOUS
  0
ENDTAB
  0
TABLE
  2
STYLE
  5
3
330
0
100
AcDbSymbolTable
 70
     1
  0
STYLE
  5
11
330
3
100
AcDbSymbolTableRecord
100
AcDbTextStyleTableRecord
  2
STANDARD
 70
     0
 40
0.0
 41
1.0
 50
0.0
 71
     0
 42
2.5
  3
txt
  4

  0
ENDTAB
  0
TABLE
  2
VIEW
  5
6
330
0
100
AcDbSymbolTable
 70
     0
  0
ENDTAB
  0
TABLE
  2
UCS
  5
7
330
0
100
AcDbSymbolTable
 70
     0
  0
ENDTAB
  0
TABLE
  2
APPID
  5
9
330
0
100
AcDbSymbolTable
 70
     2
  0
APPID
  5
12
330
9
100
AcDbSymbolTableRecord
100
AcDbRegAppTableRecord
  2
ACAD
 70
     0
  0
ENDTAB
  0
TABLE
  2
DIMSTYLE
  5
A
330
0
100
AcDbSymbolTable
 70
     1
  0
DIMSTYLE
105
27
330
A
100
AcDbSymbolTableRecord
100
AcDbDimStyleTableRecord
  2
ISO-25
 70
     0
  3

  4

  5

  6

  7

 40
1.0
 41
2.5
 42
0.625
 43
3.75
 44
1.25
 45
0.0
 46
0.0
 47
0.0
 48
0.0
140
2.5
141
2.5
142
0.0
143
0.03937007874016
144
1.0
145
0.0
146
1.0
147
0.625
 71
     0
 72
     0
 73
     0
 74
     0
 75
     0
 76
     0
 77
     1
 78
     8
170
     0
171
     3
172
     1
173
     0
174
     0
175
     0
176
     0
177
     0
178
     0
270
     2
271
     2
272
     2
273
     2
274
     3
340
11
275
     0
280
     0
281
     0
282
     0
283
     0
284
     8
285
     0
286
     0
287
     3
288
     0
  0
ENDTAB
  0
TABLE
  2
BLOCK_RECORD
  5
1
330
0
100
AcDbSymbolTable
 70
     1
  0
BLOCK_RECORD
  5
1F
330
1
100
AcDbSymbolTableRecord
100
AcDbBlockTableRecord
  2
*MODEL_SPACE
  0
BLOCK_RECORD
  5
1B
330
1
100
AcDbSymbolTableRecord
100
AcDbBlockTableRecord
  2
*PAPER_SPACE
  0
ENDTAB
  0
ENDSEC
  0
SECTION
  2
BLOCKS
  0
BLOCK
  5
20
330
1F
100
AcDbEntity
  8
0
100
AcDbBlockBegin
  2
*MODEL_SPACE
 70
     0
 10
0.0
 20
0.0
 30
0.0
  3
*MODEL_SPACE
  1

  0
ENDBLK
  5
21
330
1F
100
AcDbEntity
  8
0
100
AcDbBlockEnd
  0
BLOCK
  5
1C
330
1B
100
AcDbEntity
 67
     1
  8
0
100
AcDbBlockBegin
  2
*PAPER_SPACE
  1

  0
ENDBLK
  5
1D
330
1B
100
AcDbEntity
 67
     1
  8
0
100
AcDbBlockEnd
  0
ENDSEC
  0
SECTION
  2
ENTITIES
  0
SPLINE
  5
100
100
AcDbEntity
  8
0
 62
7
100
AcDbSpline
 70
8
 71
3
 72
8
 73
4
 74
0
 40
0
 40
0
 40
0
 40
0
 40
1
 40
1
 40
1
 40
1
 10
334.715556
 20
-1128.888889
 30
0.0
 10
332.457778
 20
-1157.111111
 30
0.0
 10
360.962222
 20
-1180.817778
 30
0.0
 10
388.337778
 20
-1175.173333
 30
0.0
  0
SPLINE
  5
101
100
AcDbEntity
  8
0
 62
7
100
AcDbSpline
 70
8
 71
3
 72
8
 73
4
 74
0
 40
0
 40
0
 40
0
 40
0
 40
1
 40
1
 40
1
 40
1
 10
388.337778
 20
-1175.173333
 30
0.0
 10
414.584444
 20
-1171.786667
 30
0.0
 10
432.928889
 20
-1141.588889
 30
0.0
 10
424.180000
 20
-1116.471111
 30
0.0
  0
SPLINE
  5
102
100
AcDbEntity
  8
0
 62
7
100
AcDbSpline
 70
8
 71
3
 72
8
 73
4
 74
0
 40
0
 40
0
 40
0
 40
0
 40
1
 40
1
 40
1
 40
1
 10
424.180000
 20
-1116.471111
 30
0.0
 10
421.640000
 20
-1105.746667
 30
0.0
 10
412.326667
 20
-1098.691111
 30
0.0
 10
406.117778
 20
-1089.942222
 30
0.0
  0
SPLINE
  5
103
100
AcDbEntity
  8
0
 62
7
100
AcDbSpline
 70
8
 71
3
 72
8
 73
4
 74
0
 40
0
 40
0
 40
0
 40
0
 40
1
 40
1
 40
1
 40
1
 10
406.117778
 20
-1089.942222
 30
0.0
 10
431.517778
 20
-1062.566667
 30
0.0
 10
456.917778
 20
-1034.908889
 30
0.0
 10
482.035556
 20
-1007.251111
 30
0.0
  0
SPLINE
  5
104
100
AcDbEntity
  8
0
 62
7
100
AcDbSpline
 70
8
 71
3
 72
8
 73
4
 74
0
 40
0
 40
0
 40
0
 40
0
 40
1
 40
1
 40
1
 40
1
 10
482.035556
 20
-1007.251111
 30
0.0
 10
488.526667
 20
-999.913333
 30
0.0
 10
496.993333
 20
-993.986667
 30
0.0
 10
500.662222
 20
-984.673333
 30
0.0
  0
SPLINE
  5
105
100
AcDbEntity
  8
0
 62
7
100
AcDbSpline
 70
8
 71
3
 72
8
 73
4
 74
0
 40
0
 40
0
 40
0
 40
0
 40
1
 40
1
 40
1
 40
1
 10
500.662222
 20
-984.673333
 30
0.0
 10
484.011111
 20
-984.955556
 30
0.0
 10
467.924444
 20
-990.317778
 30
0.0
 10
450.991111
 20
-991.164444
 30
0.0
  0
SPLINE
  5
106
100
AcDbEntity
  8
0
 62
7
100
AcDbSpline
 70
8
 71
3
 72
8
 73
4
 74
0
 40
0
 40
0
 40
0
 40
0
 40
1
 40
1
 40
1
 40
1
 10
450.991111
 20
-991.164444
 30
0.0
 10
481.471111
 20
-948.548889
 30
0.0
 10
515.620000
 20
-909.037778
 30
0.0
 10
545.535556
 20
-866.140000
 30
0.0
  0
SPLINE
  5
107
100
AcDbEntity
  8
0
 62
7
100
AcDbSpline
 70
8
 71
3
 72
8
 73
4
 74
0
 40
0
 40
0
 40
0
 40
0
 40
1
 40
1
 40
1
 40
1
 10
545.535556
 20
-866.140000
 30
0.0
 10
524.086667
 20
-867.268889
 30
0.0
 10
503.202222
 20
-872.066667
 30
0.0
 10
481.753333
 20
-872.913333
 30
0.0
  0
SPLINE
  5
108
100
AcDbEntity
  8
0
 62
7
100
AcDbSpline
 70
8
 71
3
 72
8
 73
4
 74
0
 40
0
 40
0
 40
0
 40
0
 40
1
 40
1
 40
1
 40
1
 10
481.753333
 20
-872.913333
 30
0.0
 10
522.675556
 20
-821.548889
 30
0.0
 10
568.677778
 20
-773.853333
 30
0.0
 10
610.446667
 20
-722.488889
 30
0.0
  0
SPLINE
  5
109
100
AcDbEntity
  8
0
 62
7
100
AcDbSpline
 70
8
 71
3
 72
8
 73
4
 74
0
 40
0
 40
0
 40
0
 40
0
 40
1
 40
1
 40
1
 40
1
 10
610.446667
 20
-722.488889
 30
0.0
 10
583.353333
 20
-721.360000
 30
0.0
 10
556.824444
 20
-726.440000
 30
0.0
 10
530.013333
 20
-725.311111
 30
0.0
  0
SPLINE
  5
10a
100
AcDbEntity
  8
0
 62
7
100
AcDbSpline
 70
8
 71
3
 72
8
 73
4
 74
0
 40
0
 40
0
 40
0
 40
0
 40
1
 40
1
 40
1
 40
1
 10
530.013333
 20
-725.311111
 30
0.0
 10
531.988889
 20
-721.642222
 30
0.0
 10
534.246667
 20
-717.973333
 30
0.0
 10
536.786667
 20
-714.868889
 30
0.0
  0
SPLINE
  5
10b
100
AcDbEntity
  8
0
 62
7
100
AcDbSpline
 70
8
 71
3
 72
8
 73
4
 74
0
 40
0
 40
0
 40
0
 40
0
 40
1
 40
1
 40
1
 40
1
 10
536.786667
 20
-714.868889
 30
0.0
 10
577.426667
 20
-664.068889
 30
0.0
 10
618.066667
 20
-613.551111
 30
0.0
 10
658.706667
 20
-563.033333
 30
0.0
  0
SPLINE
  5
10c
100
AcDbEntity
  8
0
 62
7
100
AcDbSpline
 70
8
 71
3
 72
8
 73
4
 74
0
 40
0
 40
0
 40
0
 40
0
 40
1
 40
1
 40
1
 40
1
 10
658.706667
 20
-563.033333
 30
0.0
 10
662.940000
 20
-558.235556
 30
0.0
 10
666.608889
 20
-553.437778
 30
0.0
 10
669.431111
 20
-547.793333
 30
0.0
  0
SPLINE
  5
10d
100
AcDbEntity
  8
0
 62
7
100
AcDbSpline
 70
8
 71
3
 72
8
 73
4
 74
0
 40
0
 40
0
 40
0
 40
0
 40
1
 40
1
 40
1
 40
1
 10
669.431111
 20
-547.793333
 30
0.0
 10
591.255556
 20
-547.228889
 30
0.0
 10
513.080000
 20
-548.075556
 30
0.0
 10
434.622222
 20
-547.511111
 30
0.0
  0
SPLINE
  5
10e
100
AcDbEntity
  8
0
 62
7
100
AcDbSpline
 70
8
 71
3
 72
8
 73
4
 74
0
 40
0
 40
0
 40
0
 40
0
 40
1
 40
1
 40
1
 40
1
 10
434.622222
 20
-547.511111
 30
0.0
 10
434.057778
 20
-529.166667
 30
0.0
 10
435.186667
 20
-510.540000
 30
0.0
 10
434.057778
 20
-492.195556
 30
0.0
  0
SPLINE
  5
10f
100
AcDbEntity
  8
0
 62
7
100
AcDbSpline
 70
8
 71
3
 72
8
 73
4
 74
0
 40
0
 40
0
 40
0
 40
0
 40
1
 40
1
 40
1
 40
1
 10
434.057778
 20
-492.195556
 30
0.0
 10
422.204444
 20
-492.195556
 30
0.0
 10
410.351111
 20
-492.195556
 30
0.0
 10
398.497778
 20
-491.913333
 30
0.0
  0
SPLINE
  5
110
100
AcDbEntity
  8
0
 62
7
100
AcDbSpline
 70
8
 71
3
 72
8
 73
4
 74
0
 40
0
 40
0
 40
0
 40
0
 40
1
 40
1
 40
1
 40
1
 10
398.497778
 20
-491.913333
 30
0.0
 10
397.086667
 20
-595.206667
 30
0.0
 10
398.780000
 20
-698.217778
 30
0.0
 10
397.651111
 20
-801.511111
 30
0.0
  0
SPLINE
  5
111
100
AcDbEntity
  8
0
 62
7
100
AcDbSpline
 70
8
 71
3
 72
8
 73
4
 74
0
 40
0
 40
0
 40
0
 40
0
 40
1
 40
1
 40
1
 40
1
 10
397.651111
 20
-801.511111
 30
0.0
 10
386.362222
 20
-803.204444
 30
0.0
 10
374.791111
 20
-803.204444
 30
0.0
 10
363.502222
 20
-801.511111
 30
0.0
  0
SPLINE
  5
112
100
AcDbEntity
  8
0
 62
7
100
AcDbSpline
 70
8
 71
3
 72
8
 73
4
 74
0
 40
0
 40
0
 40
0
 40
0
 40
1
 40
1
 40
1
 40
1
 10
363.502222
 20
-801.511111
 30
0.0
 10
362.091111
 20
-698.500000
 30
0.0
 10
363.784444
 20
-595.488889
 30
0.0
 10
362.655556
 20
-492.477778
 30
0.0
  0
SPLINE
  5
113
100
AcDbEntity
  8
0
 62
7
100
AcDbSpline
 70
8
 71
3
 72
8
 73
4
 74
0
 40
0
 40
0
 40
0
 40
0
 40
1
 40
1
 40
1
 40
1
 10
362.655556
 20
-492.477778
 30
0.0
 10
350.802222
 20
-491.913333
 30
0.0
 10
339.231111
 20
-492.195556
 30
0.0
 10
327.660000
 20
-491.913333
 30
0.0
  0
SPLINE
  5
114
100
AcDbEntity
  8
0
 62
7
100
AcDbSpline
 70
8
 71
3
 72
8
 73
4
 74
0
 40
0
 40
0
 40
0
 40
0
 40
1
 40
1
 40
1
 40
1
 10
327.660000
 20
-491.913333
 30
0.0
 10
325.684444
 20
-510.257778
 30
0.0
 10
327.377778
 20
-528.884444
 30
0.0
 10
326.813333
 20
-547.228889
 30
0.0
  0
SPLINE
  5
115
100
AcDbEntity
  8
0
 62
7
100
AcDbSpline
 70
8
 71
3
 72
8
 73
4
 74
0
 40
0
 40
0
 40
0
 40
0
 40
1
 40
1
 40
1
 40
1
 10
326.813333
 20
-547.228889
 30
0.0
 10
248.073333
 20
-548.357778
 30
0.0
 10
169.051111
 20
-546.946667
 30
0.0
 10
90.311111
 20
-547.793333
 30
0.0
  0
SPLINE
  5
116
100
AcDbEntity
  8
0
 62
7
100
AcDbSpline
 70
8
 71
3
 72
8
 73
4
 74
0
 40
0
 40
0
 40
0
 40
0
 40
1
 40
1
 40
1
 40
1
 10
90.311111
 20
-547.793333
 30
0.0
 10
136.313333
 20
-607.906667
 30
0.0
 10
185.420000
 20
-665.480000
 30
0.0
 10
231.704444
 20
-725.311111
 30
0.0
  0
SPLINE
  5
117
100
AcDbEntity
  8
0
 62
7
100
AcDbSpline
 70
8
 71
3
 72
8
 73
4
 74
0
 40
0
 40
0
 40
0
 40
0
 40
1
 40
1
 40
1
 40
1
 10
231.704444
 20
-725.311111
 30
0.0
 10
204.611111
 20
-726.440000
 30
0.0
 10
177.800000
 20
-721.642222
 30
0.0
 10
150.988889
 20
-722.488889
 30
0.0
  0
SPLINE
  5
118
100
AcDbEntity
  8
0
 62
7
100
AcDbSpline
 70
8
 71
3
 72
8
 73
4
 74
0
 40
0
 40
0
 40
0
 40
0
 40
1
 40
1
 40
1
 40
1
 10
150.988889
 20
-722.488889
 30
0.0
 10
153.528889
 20
-727.568889
 30
0.0
 10
157.197778
 20
-732.084444
 30
0.0
 10
161.148889
 20
-736.317778
 30
0.0
  0
SPLINE
  5
119
100
AcDbEntity
  8
0
 62
7
100
AcDbSpline
 70
8
 71
3
 72
8
 73
4
 74
0
 40
0
 40
0
 40
0
 40
0
 40
1
 40
1
 40
1
 40
1
 10
161.148889
 20
-736.317778
 30
0.0
 10
198.684444
 20
-778.933333
 30
0.0
 10
235.655556
 20
-821.831111
 30
0.0
 10
272.908889
 20
-864.446667
 30
0.0
  0
SPLINE
  5
11a
100
AcDbEntity
  8
0
 62
7
100
AcDbSpline
 70
8
 71
3
 72
8
 73
4
 74
0
 40
0
 40
0
 40
0
 40
0
 40
1
 40
1
 40
1
 40
1
 10
272.908889
 20
-864.446667
 30
0.0
 10
275.166667
 20
-866.986667
 30
0.0
 10
276.860000
 20
-869.808889
 30
0.0
 10
278.553333
 20
-872.631111
 30
0.0
  0
SPLINE
  5
11b
100
AcDbEntity
  8
0
 62
7
100
AcDbSpline
 70
8
 71
3
 72
8
 73
4
 74
0
 40
0
 40
0
 40
0
 40
0
 40
1
 40
1
 40
1
 40
1
 10
278.553333
 20
-872.631111
 30
0.0
 10
257.386667
 20
-872.631111
 30
0.0
 10
236.784444
 20
-866.986667
 30
0.0
 10
215.617778
 20
-866.140000
 30
0.0
  0
SPLINE
  5
11c
100
AcDbEntity
  8
0
 62
7
100
AcDbSpline
 70
8
 71
3
 72
8
 73
4
 74
0
 40
0
 40
0
 40
0
 40
0
 40
1
 40
1
 40
1
 40
1
 10
215.617778
 20
-866.140000
 30
0.0
 10
217.311111
 20
-869.808889
 30
0.0
 10
219.286667
 20
-873.195556
 30
0.0
 10
221.544444
 20
-876.300000
 30
0.0
  0
SPLINE
  5
11d
100
AcDbEntity
  8
0
 62
7
100
AcDbSpline
 70
8
 71
3
 72
8
 73
4
 74
0
 40
0
 40
0
 40
0
 40
0
 40
1
 40
1
 40
1
 40
1
 10
221.544444
 20
-876.300000
 30
0.0
 10
247.226667
 20
-909.037778
 30
0.0
 10
272.344444
 20
-942.057778
 30
0.0
 10
298.026667
 20
-975.077778
 30
0.0
  0
SPLINE
  5
11e
100
AcDbEntity
  8
0
 62
7
100
AcDbSpline
 70
8
 71
3
 72
8
 73
4
 74
0
 40
0
 40
0
 40
0
 40
0
 40
1
 40
1
 40
1
 40
1
 10
298.026667
 20
-975.077778
 30
0.0
 10
301.977778
 20
-979.875556
 30
0.0
 10
305.646667
 20
-985.237778
 30
0.0
 10
308.751111
 20
-990.600000
 30
0.0
  0
SPLINE
  5
11f
100
AcDbEntity
  8
0
 62
7
100
AcDbSpline
 70
8
 71
3
 72
8
 73
4
 74
0
 40
0
 40
0
 40
0
 40
0
 40
1
 40
1
 40
1
 40
1
 10
308.751111
 20
-990.600000
 30
0.0
 10
292.100000
 20
-990.035556
 30
0.0
 10
275.731111
 20
-984.955556
 30
0.0
 10
259.080000
 20
-984.673333
 30
0.0
  0
SPLINE
  5
120
100
AcDbEntity
  8
0
 62
7
100
AcDbSpline
 70
8
 71
3
 72
8
 73
4
 74
0
 40
0
 40
0
 40
0
 40
0
 40
1
 40
1
 40
1
 40
1
 10
259.080000
 20
-984.673333
 30
0.0
 10
266.700000
 20
-995.962222
 30
0.0
 10
276.577778
 20
-1005.275556
 30
0.0
 10
285.608889
 20
-1015.435556
 30
0.0
  0
SPLINE
  5
121
100
AcDbEntity
  8
0
 62
7
100
AcDbSpline
 70
8
 71
3
 72
8
 73
4
 74
0
 40
0
 40
0
 40
0
 40
0
 40
1
 40
1
 40
1
 40
1
 10
285.608889
 20
-1015.435556
 30
0.0
 10
309.033333
 20
-1040.271111
 30
0.0
 10
331.328889
 20
-1065.953333
 30
0.0
 10
355.035556
 20
-1090.224444
 30
0.0
  0
SPLINE
  5
122
100
AcDbEntity
  8
0
 62
7
100
AcDbSpline
 70
8
 71
3
 72
8
 73
4
 74
0
 40
0
 40
0
 40
0
 40
0
 40
1
 40
1
 40
1
 40
1
 10
355.035556
 20
-1090.224444
 30
0.0
 10
344.593333
 20
-1100.666667
 30
0.0
 10
333.586667
 20
-1112.802222
 30
0.0
 10
334.715556
 20
-1128.888889
 30
0.0
  0
SPLINE
  5
123
100
AcDbEntity
  8
0
 62
7
100
AcDbSpline
 70
8
 71
3
 72
8
 73
4
 74
0
 40
0
 40
0
 40
0
 40
0
 40
1
 40
1
 40
1
 40
1
 10
367.453333
 20
-1153.724444
 30
0.0
 10
382.693333
 20
-1163.602222
 30
0.0
 10
404.424444
 20
-1151.748889
 30
0.0
 10
406.964444
 20
-1134.533333
 30
0.0
  0
SPLINE
  5
124
100
AcDbEntity
  8
0
 62
7
100
AcDbSpline
 70
8
 71
3
 72
8
 73
4
 74
0
 40
0
 40
0
 40
0
 40
0
 40
1
 40
1
 40
1
 40
1
 10
406.964444
 20
-1134.533333
 30
0.0
 10
408.940000
 20
-1122.962222
 30
0.0
 10
402.448889
 20
-1111.391111
 30
0.0
 10
392.571111
 20
-1105.746667
 30
0.0
  0
SPLINE
  5
125
100
AcDbEntity
  8
0
 62
7
100
AcDbSpline
 70
8
 71
3
 72
8
 73
4
 74
0
 40
0
 40
0
 40
0
 40
0
 40
1
 40
1
 40
1
 40
1
 10
392.571111
 20
-1105.746667
 30
0.0
 10
388.620000
 20
-1109.415556
 30
0.0
 10
384.668889
 20
-1113.084444
 30
0.0
 10
380.717778
 20
-1116.471111
 30
0.0
  0
SPLINE
  5
126
100
AcDbEntity
  8
0
 62
7
100
AcDbSpline
 70
8
 71
3
 72
8
 73
4
 74
0
 40
0
 40
0
 40
0
 40
0
 40
1
 40
1
 40
1
 40
1
 10
380.717778
 20
-1116.471111
 30
0.0
 10
375.920000
 20
-1113.366667
 30
0.0
 10
372.251111
 20
-1108.568889
 30
0.0
 10
366.888889
 20
-1106.593333
 30
0.0
  0
SPLINE
  5
127
100
AcDbEntity
  8
0
 62
7
100
AcDbSpline
 70
8
 71
3
 72
8
 73
4
 74
0
 40
0
 40
0
 40
0
 40
0
 40
1
 40
1
 40
1
 40
1
 10
366.888889
 20
-1106.593333
 30
0.0
 10
348.826667
 20
-1115.906667
 30
0.0
 10
348.826667
 20
-1144.975556
 30
0.0
 10
367.453333
 20
-1153.724444
 30
0.0
  0
SPLINE
  5
128
100
AcDbEntity
  8
0
 62
7
100
AcDbSpline
 70
8
 71
3
 72
8
 73
4
 74
0
 40
0
 40
0
 40
0
 40
0
 40
1
 40
1
 40
1
 40
1
 10
367.453333
 20
-1153.724444
 30
0.0
 10
382.693333
 20
-1163.602222
 30
0.0
 10
404.424444
 20
-1151.748889
 30
0.0
 10
406.964444
 20
-1134.533333
 30
0.0
  0
SPLINE
  5
129
100
AcDbEntity
  8
0
 62
7
100
AcDbSpline
 70
8
 71
3
 72
8
 73
4
 74
0
 40
0
 40
0
 40
0
 40
0
 40
1
 40
1
 40
1
 40
1
 10
406.964444
 20
-1134.533333
 30
0.0
 10
408.940000
 20
-1122.962222
 30
0.0
 10
402.448889
 20
-1111.391111
 30
0.0
 10
392.571111
 20
-1105.746667
 30
0.0
  0
SPLINE
  5
12a
100
AcDbEntity
  8
0
 62
7
100
AcDbSpline
 70
8
 71
3
 72
8
 73
4
 74
0
 40
0
 40
0
 40
0
 40
0
 40
1
 40
1
 40
1
 40
1
 10
392.571111
 20
-1105.746667
 30
0.0
 10
388.620000
 20
-1109.415556
 30
0.0
 10
384.668889
 20
-1113.084444
 30
0.0
 10
380.717778
 20
-1116.471111
 30
0.0
  0
SPLINE
  5
12b
100
AcDbEntity
  8
0
 62
7
100
AcDbSpline
 70
8
 71
3
 72
8
 73
4
 74
0
 40
0
 40
0
 40
0
 40
0
 40
1
 40
1
 40
1
 40
1
 10
380.717778
 20
-1116.471111
 30
0.0
 10
375.920000
 20
-1113.366667
 30
0.0
 10
372.251111
 20
-1108.568889
 30
0.0
 10
366.888889
 20
-1106.593333
 30
0.0
  0
SPLINE
  5
12c
100
AcDbEntity
  8
0
 62
7
100
AcDbSpline
 70
8
 71
3
 72
8
 73
4
 74
0
 40
0
 40
0
 40
0
 40
0
 40
1
 40
1
 40
1
 40
1
 10
366.888889
 20
-1106.593333
 30
0.0
 10
348.826667
 20
-1115.906667
 30
0.0
 10
348.826667
 20
-1144.975556
 30
0.0
 10
367.453333
 20
-1153.724444
 30
0.0
  0
SPLINE
  5
12d
100
AcDbEntity
  8
0
 62
7
100
AcDbSpline
 70
8
 71
3
 72
8
 73
4
 74
0
 40
0
 40
0
 40
0
 40
0
 40
1
 40
1
 40
1
 40
1
 10
320.322222
 20
-977.900000
 30
0.0
 10
327.095556
 20
-978.746667
 30
0.0
 10
334.151111
 20
-979.028889
 30
0.0
 10
340.924444
 20
-978.746667
 30
0.0
  0
SPLINE
  5
12e
100
AcDbEntity
  8
0
 62
7
100
AcDbSpline
 70
8
 71
3
 72
8
 73
4
 74
0
 40
0
 40
0
 40
0
 40
0
 40
1
 40
1
 40
1
 40
1
 10
340.924444
 20
-978.746667
 30
0.0
 10
348.262222
 20
-967.740000
 30
0.0
 10
339.231111
 20
-954.757778
 30
0.0
 10
343.182222
 20
-942.904444
 30
0.0
  0
SPLINE
  5
12f
100
AcDbEntity
  8
0
 62
7
100
AcDbSpline
 70
8
 71
3
 72
8
 73
4
 74
0
 40
0
 40
0
 40
0
 40
0
 40
1
 40
1
 40
1
 40
1
 10
343.182222
 20
-942.904444
 30
0.0
 10
338.384444
 20
-929.922222
 30
0.0
 10
341.488889
 20
-916.375556
 30
0.0
 10
338.666667
 20
-903.111111
 30
0.0
  0
SPLINE
  5
130
100
AcDbEntity
  8
0
 62
7
100
AcDbSpline
 70
8
 71
3
 72
8
 73
4
 74
0
 40
0
 40
0
 40
0
 40
0
 40
1
 40
1
 40
1
 40
1
 10
338.666667
 20
-903.111111
 30
0.0
 10
340.360000
 20
-888.717778
 30
0.0
 10
337.255556
 20
-874.324444
 30
0.0
 10
333.022222
 20
-860.777778
 30
0.0
  0
SPLINE
  5
131
100
AcDbEntity
  8
0
 62
7
100
AcDbSpline
 70
8
 71
3
 72
8
 73
4
 74
0
 40
0
 40
0
 40
0
 40
0
 40
1
 40
1
 40
1
 40
1
 10
333.022222
 20
-860.777778
 30
0.0
 10
329.353333
 20
-873.477778
 30
0.0
 10
322.015556
 20
-886.177778
 30
0.0
 10
324.837778
 20
-899.724444
 30
0.0
  0
SPLINE
  5
132
100
AcDbEntity
  8
0
 62
7
100
AcDbSpline
 70
8
 71
3
 72
8
 73
4
 74
0
 40
0
 40
0
 40
0
 40
0
 40
1
 40
1
 40
1
 40
1
 10
324.837778
 20
-899.724444
 30
0.0
 10
326.813333
 20
-907.626667
 30
0.0
 10
320.040000
 20
-914.400000
 30
0.0
 10
322.862222
 20
-922.020000
 30
0.0
  0
SPLINE
  5
133
100
AcDbEntity
  8
0
 62
7
100
AcDbSpline
 70
8
 71
3
 72
8
 73
4
 74
0
 40
0
 40
0
 40
0
 40
0
 40
1
 40
1
 40
1
 40
1
 10
322.862222
 20
-922.020000
 30
0.0
 10
325.966667
 20
-930.768889
 30
0.0
 10
318.346667
 20
-938.388889
 30
0.0
 10
320.604444
 20
-947.137778
 30
0.0
  0
SPLINE
  5
134
100
AcDbEntity
  8
0
 62
7
100
AcDbSpline
 70
8
 71
3
 72
8
 73
4
 74
0
 40
0
 40
0
 40
0
 40
0
 40
1
 40
1
 40
1
 40
1
 10
320.604444
 20
-947.137778
 30
0.0
 10
322.862222
 20
-957.580000
 30
0.0
 10
316.371111
 20
-967.740000
 30
0.0
 10
320.322222
 20
-977.900000
 30
0.0
  0
SPLINE
  5
135
100
AcDbEntity
  8
0
 62
7
100
AcDbSpline
 70
8
 71
3
 72
8
 73
4
 74
0
 40
0
 40
0
 40
0
 40
0
 40
1
 40
1
 40
1
 40
1
 10
435.468889
 20
-950.524444
 30
0.0
 10
453.248889
 20
-958.144444
 30
0.0
 10
475.826667
 20
-942.622222
 30
0.0
 10
472.157778
 20
-922.866667
 30
0.0
  0
SPLINE
  5
136
100
AcDbEntity
  8
0
 62
7
100
AcDbSpline
 70
8
 71
3
 72
8
 73
4
 74
0
 40
0
 40
0
 40
0
 40
0
 40
1
 40
1
 40
1
 40
1
 10
472.157778
 20
-922.866667
 30
0.0
 10
471.593333
 20
-901.982222
 30
0.0
 10
443.371111
 20
-891.540000
 30
0.0
 10
428.413333
 20
-905.368889
 30
0.0
  0
SPLINE
  5
137
100
AcDbEntity
  8
0
 62
7
100
AcDbSpline
 70
8
 71
3
 72
8
 73
4
 74
0
 40
0
 40
0
 40
0
 40
0
 40
1
 40
1
 40
1
 40
1
 10
428.413333
 20
-905.368889
 30
0.0
 10
413.455556
 20
-917.222222
 30
0.0
 10
417.688889
 20
-944.033333
 30
0.0
 10
435.468889
 20
-950.524444
 30
0.0
  0
SPLINE
  5
138
100
AcDbEntity
  8
0
 62
7
100
AcDbSpline
 70
8
 71
3
 72
8
 73
4
 74
0
 40
0
 40
0
 40
0
 40
0
 40
1
 40
1
 40
1
 40
1
 10
458.046667
 20
-820.702222
 30
0.0
 10
472.157778
 20
-824.653333
 30
0.0
 10
487.962222
 20
-815.340000
 30
0.0
 10
491.348889
 20
-800.946667
 30
0.0
  0
SPLINE
  5
139
100
AcDbEntity
  8
0
 62
7
100
AcDbSpline
 70
8
 71
3
 72
8
 73
4
 74
0
 40
0
 40
0
 40
0
 40
0
 40
1
 40
1
 40
1
 40
1
 10
491.348889
 20
-800.946667
 30
0.0
 10
495.864444
 20
-785.988889
 30
0.0
 10
483.728889
 20
-769.337778
 30
0.0
 10
468.206667
 20
-767.644444
 30
0.0
  0
SPLINE
  5
13a
100
AcDbEntity
  8
0
 62
7
100
AcDbSpline
 70
8
 71
3
 72
8
 73
4
 74
0
 40
0
 40
0
 40
0
 40
0
 40
1
 40
1
 40
1
 40
1
 10
468.206667
 20
-767.644444
 30
0.0
 10
451.837778
 20
-765.951111
 30
0.0
 10
436.033333
 20
-782.037778
 30
0.0
 10
439.420000
 20
-798.688889
 30
0.0
  0
SPLINE
  5
13b
100
AcDbEntity
  8
0
 62
7
100
AcDbSpline
 70
8
 71
3
 72
8
 73
4
 74
0
 40
0
 40
0
 40
0
 40
0
 40
1
 40
1
 40
1
 40
1
 10
439.420000
 20
-798.688889
 30
0.0
 10
440.548889
 20
-809.131111
 30
0.0
 10
448.451111
 20
-817.315556
 30
0.0
 10
458.046667
 20
-820.702222
 30
0.0
  0
SPLINE
  5
13c
100
AcDbEntity
  8
0
 62
7
100
AcDbSpline
 70
8
 71
3
 72
8
 73
4
 74
0
 40
0
 40
0
 40
0
 40
0
 40
1
 40
1
 40
1
 40
1
 10
215.335556
 20
-642.337778
 30
0.0
 10
234.526667
 20
-643.748889
 30
0.0
 10
249.766667
 20
-620.606667
 30
0.0
 10
240.171111
 20
-603.673333
 30
0.0
  0
SPLINE
  5
13d
100
AcDbEntity
  8
0
 62
7
100
AcDbSpline
 70
8
 71
3
 72
8
 73
4
 74
0
 40
0
 40
0
 40
0
 40
0
 40
1
 40
1
 40
1
 40
1
 10
240.171111
 20
-603.673333
 30
0.0
 10
231.986667
 20
-583.635556
 30
0.0
 10
200.095556
 20
-584.482222
 30
0.0
 10
192.193333
 20
-604.237778
 30
0.0
  0
SPLINE
  5
13e
100
AcDbEntity
  8
0
 62
7
100
AcDbSpline
 70
8
 71
3
 72
8
 73
4
 74
0
 40
0
 40
0
 40
0
 40
0
 40
1
 40
1
 40
1
 40
1
 10
192.193333
 20
-604.237778
 30
0.0
 10
183.444444
 20
-620.888889
 30
0.0
 10
197.273333
 20
-641.773333
 30
0.0
 10
215.335556
 20
-642.337778
 30
0.0
  0
SPLINE
  5
13f
100
AcDbEntity
  8
0
 62
7
100
AcDbSpline
 70
8
 71
3
 72
8
 73
4
 74
0
 40
0
 40
0
 40
0
 40
0
 40
1
 40
1
 40
1
 40
1
 10
345.722222
 20
-359.833333
 30
0.0
 10
351.084444
 20
-365.195556
 30
0.0
 10
355.035556
 20
-372.815556
 30
0.0
 10
362.937778
 20
-375.355556
 30
0.0
  0
SPLINE
  5
140
100
AcDbEntity
  8
0
 62
7
100
AcDbSpline
 70
8
 71
3
 72
8
 73
4
 74
0
 40
0
 40
0
 40
0
 40
0
 40
1
 40
1
 40
1
 40
1
 10
362.937778
 20
-375.355556
 30
0.0
 10
363.220000
 20
-278.553333
 30
0.0
 10
362.373333
 20
-181.468889
 30
0.0
 10
363.220000
 20
-84.666667
 30
0.0
  0
SPLINE
  5
141
100
AcDbEntity
  8
0
 62
7
100
AcDbSpline
 70
8
 71
3
 72
8
 73
4
 74
0
 40
0
 40
0
 40
0
 40
0
 40
1
 40
1
 40
1
 40
1
 10
363.220000
 20
-84.666667
 30
0.0
 10
374.791111
 20
-84.666667
 30
0.0
 10
386.362222
 20
-84.666667
 30
0.0
 10
397.651111
 20
-84.948889
 30
0.0
  0
SPLINE
  5
142
100
AcDbEntity
  8
0
 62
7
100
AcDbSpline
 70
8
 71
3
 72
8
 73
4
 74
0
 40
0
 40
0
 40
0
 40
0
 40
1
 40
1
 40
1
 40
1
 10
397.651111
 20
-84.948889
 30
0.0
 10
398.780000
 20
-181.751111
 30
0.0
 10
397.368889
 20
-278.835556
 30
0.0
 10
398.497778
 20
-375.637778
 30
0.0
  0
SPLINE
  5
143
100
AcDbEntity
  8
0
 62
7
100
AcDbSpline
 70
8
 71
3
 72
8
 73
4
 74
0
 40
0
 40
0
 40
0
 40
0
 40
1
 40
1
 40
1
 40
1
 10
398.497778
 20
-375.637778
 30
0.0
 10
404.424444
 20
-371.404444
 30
0.0
 10
409.504444
 20
-366.042222
 30
0.0
 10
414.302222
 20
-360.680000
 30
0.0
  0
SPLINE
  5
144
100
AcDbEntity
  8
0
 62
7
100
AcDbSpline
 70
8
 71
3
 72
8
 73
4
 74
0
 40
0
 40
0
 40
0
 40
0
 40
1
 40
1
 40
1
 40
1
 10
414.302222
 20
-360.680000
 30
0.0
 10
440.831111
 20
-331.611111
 30
0.0
 10
467.360000
 20
-302.824444
 30
0.0
 10
494.171111
 20
-274.037778
 30
0.0
  0
SPLINE
  5
145
100
AcDbEntity
  8
0
 62
7
100
AcDbSpline
 70
8
 71
3
 72
8
 73
4
 74
0
 40
0
 40
0
 40
0
 40
0
 40
1
 40
1
 40
1
 40
1
 10
494.171111
 20
-274.037778
 30
0.0
 10
496.993333
 20
-270.933333
 30
0.0
 10
499.251111
 20
-267.546667
 30
0.0
 10
500.662222
 20
-263.595556
 30
0.0
  0
SPLINE
  5
146
100
AcDbEntity
  8
0
 62
7
100
AcDbSpline
 70
8
 71
3
 72
8
 73
4
 74
0
 40
0
 40
0
 40
0
 40
0
 40
1
 40
1
 40
1
 40
1
 10
500.662222
 20
-263.595556
 30
0.0
 10
484.011111
 20
-265.288889
 30
0.0
 10
467.924444
 20
-268.957778
 30
0.0
 10
451.273333
 20
-270.933333
 30
0.0
  0
SPLINE
  5
147
100
AcDbEntity
  8
0
 62
7
100
AcDbSpline
 70
8
 71
3
 72
8
 73
4
 74
0
 40
0
 40
0
 40
0
 40
0
 40
1
 40
1
 40
1
 40
1
 10
451.273333
 20
-270.933333
 30
0.0
 10
455.224444
 20
-263.031111
 30
0.0
 10
461.151111
 20
-256.257778
 30
0.0
 10
466.513333
 20
-249.202222
 30
0.0
  0
SPLINE
  5
148
100
AcDbEntity
  8
0
 62
7
100
AcDbSpline
 70
8
 71
3
 72
8
 73
4
 74
0
 40
0
 40
0
 40
0
 40
0
 40
1
 40
1
 40
1
 40
1
 10
466.513333
 20
-249.202222
 30
0.0
 10
490.502222
 20
-218.440000
 30
0.0
 10
513.926667
 20
-187.395556
 30
0.0
 10
537.915556
 20
-156.915556
 30
0.0
  0
SPLINE
  5
149
100
AcDbEntity
  8
0
 62
7
100
AcDbSpline
 70
8
 71
3
 72
8
 73
4
 74
0
 40
0
 40
0
 40
0
 40
0
 40
1
 40
1
 40
1
 40
1
 10
537.915556
 20
-156.915556
 30
0.0
 10
540.737778
 20
-153.246667
 30
0.0
 10
543.277778
 20
-149.295556
 30
0.0
 10
545.535556
 20
-145.062222
 30
0.0
  0
SPLINE
  5
14a
100
AcDbEntity
  8
0
 62
7
100
AcDbSpline
 70
8
 71
3
 72
8
 73
4
 74
0
 40
0
 40
0
 40
0
 40
0
 40
1
 40
1
 40
1
 40
1
 10
545.535556
 20
-145.062222
 30
0.0
 10
524.368889
 20
-146.755556
 30
0.0
 10
503.202222
 20
-151.271111
 30
0.0
 10
482.035556
 20
-152.400000
 30
0.0
  0
SPLINE
  5
14b
100
AcDbEntity
  8
0
 62
7
100
AcDbSpline
 70
8
 71
3
 72
8
 73
4
 74
0
 40
0
 40
0
 40
0
 40
0
 40
1
 40
1
 40
1
 40
1
 10
482.035556
 20
-152.400000
 30
0.0
 10
486.833333
 20
-143.368889
 30
0.0
 10
494.735556
 20
-136.595556
 30
0.0
 10
500.944444
 20
-128.411111
 30
0.0
  0
SPLINE
  5
14c
100
AcDbEntity
  8
0
 62
7
100
AcDbSpline
 70
8
 71
3
 72
8
 73
4
 74
0
 40
0
 40
0
 40
0
 40
0
 40
1
 40
1
 40
1
 40
1
 10
500.944444
 20
-128.411111
 30
0.0
 10
536.222222
 20
-88.335556
 30
0.0
 10
570.935556
 20
-47.695556
 30
0.0
 10
606.213333
 20
-7.902222
 30
0.0
  0
SPLINE
  5
14d
100
AcDbEntity
  8
0
 62
7
100
AcDbSpline
 70
8
 71
3
 72
8
 73
4
 74
0
 40
0
 40
0
 40
0
 40
0
 40
1
 40
1
 40
1
 40
1
 10
606.213333
 20
-7.902222
 30
0.0
 10
607.906667
 20
-5.926667
 30
0.0
 10
609.035556
 20
-3.386667
 30
0.0
 10
609.317778
 20
-0.846667
 30
0.0
  0
SPLINE
  5
14e
100
AcDbEntity
  8
0
 62
7
100
AcDbSpline
 70
8
 71
3
 72
8
 73
4
 74
0
 40
0
 40
0
 40
0
 40
0
 40
1
 40
1
 40
1
 40
1
 10
609.317778
 20
-0.846667
 30
0.0
 10
582.224444
 20
-2.822222
 30
0.0
 10
555.131111
 20
-3.386667
 30
0.0
 10
528.037778
 20
-5.362222
 30
0.0
  0
SPLINE
  5
14f
100
AcDbEntity
  8
0
 62
7
100
AcDbSpline
 70
8
 71
3
 72
8
 73
4
 74
0
 40
0
 40
0
 40
0
 40
0
 40
1
 40
1
 40
1
 40
1
 10
528.037778
 20
-5.362222
 30
0.0
 10
567.548889
 20
44.026667
 30
0.0
 10
607.342222
 20
93.415556
 30
0.0
 10
647.135556
 20
143.086667
 30
0.0
  0
SPLINE
  5
150
100
AcDbEntity
  8
0
 62
7
100
AcDbSpline
 70
8
 71
3
 72
8
 73
4
 74
0
 40
0
 40
0
 40
0
 40
0
 40
1
 40
1
 40
1
 40
1
 10
647.135556
 20
143.086667
 30
0.0
 10
654.473333
 20
152.682222
 30
0.0
 10
662.940000
 20
161.713333
 30
0.0
 10
669.713333
 20
172.155556
 30
0.0
  0
SPLINE
  5
151
100
AcDbEntity
  8
0
 62
7
100
AcDbSpline
 70
8
 71
3
 72
8
 73
4
 74
0
 40
0
 40
0
 40
0
 40
0
 40
1
 40
1
 40
1
 40
1
 10
669.713333
 20
172.155556
 30
0.0
 10
591.255556
 20
172.437778
 30
0.0
 10
512.797778
 20
171.873333
 30
0.0
 10
434.622222
 20
172.437778
 30
0.0
  0
SPLINE
  5
152
100
AcDbEntity
  8
0
 62
7
100
AcDbSpline
 70
8
 71
3
 72
8
 73
4
 74
0
 40
0
 40
0
 40
0
 40
0
 40
1
 40
1
 40
1
 40
1
 10
434.622222
 20
172.437778
 30
0.0
 10
434.057778
 20
191.064444
 30
0.0
 10
434.904444
 20
209.691111
 30
0.0
 10
434.340000
 20
228.600000
 30
0.0
  0
SPLINE
  5
153
100
AcDbEntity
  8
0
 62
7
100
AcDbSpline
 70
8
 71
3
 72
8
 73
4
 74
0
 40
0
 40
0
 40
0
 40
0
 40
1
 40
1
 40
1
 40
1
 10
434.340000
 20
228.600000
 30
0.0
 10
398.215556
 20
228.317778
 30
0.0
 10
362.091111
 20
229.164444
 30
0.0
 10
325.966667
 20
228.317778
 30
0.0
  0
SPLINE
  5
154
100
AcDbEntity
  8
0
 62
7
100
AcDbSpline
 70
8
 71
3
 72
8
 73
4
 74
0
 40
0
 40
0
 40
0
 40
0
 40
1
 40
1
 40
1
 40
1
 10
325.966667
 20
228.317778
 30
0.0
 10
326.248889
 20
209.691111
 30
0.0
 10
327.095556
 20
190.782222
 30
0.0
 10
325.684444
 20
172.155556
 30
0.0
  0
SPLINE
  5
155
100
AcDbEntity
  8
0
 62
7
100
AcDbSpline
 70
8
 71
3
 72
8
 73
4
 74
0
 40
0
 40
0
 40
0
 40
0
 40
1
 40
1
 40
1
 40
1
 10
325.684444
 20
172.155556
 30
0.0
 10
247.791111
 20
171.873333
 30
0.0
 10
169.897778
 20
172.155556
 30
0.0
 10
92.004444
 20
172.155556
 30
0.0
  0
SPLINE
  5
156
100
AcDbEntity
  8
0
 62
7
100
AcDbSpline
 70
8
 71
3
 72
8
 73
4
 74
0
 40
0
 40
0
 40
0
 40
0
 40
1
 40
1
 40
1
 40
1
 10
92.004444
 20
172.155556
 30
0.0
 10
93.133333
 20
168.486667
 30
0.0
 10
95.108889
 20
165.100000
 30
0.0
 10
97.648889
 20
162.277778
 30
0.0
  0
SPLINE
  5
157
100
AcDbEntity
  8
0
 62
7
100
AcDbSpline
 70
8
 71
3
 72
8
 73
4
 74
0
 40
0
 40
0
 40
0
 40
0
 40
1
 40
1
 40
1
 40
1
 10
97.648889
 20
162.277778
 30
0.0
 10
138.288889
 20
112.606667
 30
0.0
 10
178.082222
 20
62.371111
 30
0.0
 10
218.440000
 20
12.417778
 30
0.0
  0
SPLINE
  5
158
100
AcDbEntity
  8
0
 62
7
100
AcDbSpline
 70
8
 71
3
 72
8
 73
4
 74
0
 40
0
 40
0
 40
0
 40
0
 40
1
 40
1
 40
1
 40
1
 10
218.440000
 20
12.417778
 30
0.0
 10
222.955556
 20
6.773333
 30
0.0
 10
227.753333
 20
0.846667
 30
0.0
 10
231.704444
 20
-5.362222
 30
0.0
  0
SPLINE
  5
159
100
AcDbEntity
  8
0
 62
7
100
AcDbSpline
 70
8
 71
3
 72
8
 73
4
 74
0
 40
0
 40
0
 40
0
 40
0
 40
1
 40
1
 40
1
 40
1
 10
231.704444
 20
-5.362222
 30
0.0
 10
204.328889
 20
-3.668889
 30
0.0
 10
176.953333
 20
-2.257778
 30
0.0
 10
149.577778
 20
-1.128889
 30
0.0
  0
SPLINE
  5
15a
100
AcDbEntity
  8
0
 62
7
100
AcDbSpline
 70
8
 71
3
 72
8
 73
4
 74
0
 40
0
 40
0
 40
0
 40
0
 40
1
 40
1
 40
1
 40
1
 10
149.577778
 20
-1.128889
 30
0.0
 10
157.197778
 20
-12.700000
 30
0.0
 10
167.357778
 20
-22.013333
 30
0.0
 10
176.106667
 20
-32.455556
 30
0.0
  0
SPLINE
  5
15b
100
AcDbEntity
  8
0
 62
7
100
AcDbSpline
 70
8
 71
3
 72
8
 73
4
 74
0
 40
0
 40
0
 40
0
 40
0
 40
1
 40
1
 40
1
 40
1
 10
176.106667
 20
-32.455556
 30
0.0
 10
210.255556
 20
-72.813333
 30
0.0
 10
246.097778
 20
-111.760000
 30
0.0
 10
279.682222
 20
-152.682222
 30
0.0
  0
SPLINE
  5
15c
100
AcDbEntity
  8
0
 62
7
100
AcDbSpline
 70
8
 71
3
 72
8
 73
4
 74
0
 40
0
 40
0
 40
0
 40
0
 40
1
 40
1
 40
1
 40
1
 10
279.682222
 20
-152.682222
 30
0.0
 10
258.233333
 20
-151.553333
 30
0.0
 10
237.348889
 20
-146.191111
 30
0.0
 10
215.900000
 20
-145.908889
 30
0.0
  0
SPLINE
  5
15d
100
AcDbEntity
  8
0
 62
7
100
AcDbSpline
 70
8
 71
3
 72
8
 73
4
 74
0
 40
0
 40
0
 40
0
 40
0
 40
1
 40
1
 40
1
 40
1
 10
215.900000
 20
-145.908889
 30
0.0
 10
220.133333
 20
-155.222222
 30
0.0
 10
227.471111
 20
-162.277778
 30
0.0
 10
233.397778
 20
-170.462222
 30
0.0
  0
SPLINE
  5
15e
100
AcDbEntity
  8
0
 62
7
100
AcDbSpline
 70
8
 71
3
 72
8
 73
4
 74
0
 40
0
 40
0
 40
0
 40
0
 40
1
 40
1
 40
1
 40
1
 10
233.397778
 20
-170.462222
 30
0.0
 10
258.515556
 20
-204.328889
 30
0.0
 10
285.326667
 20
-237.066667
 30
0.0
 10
310.162222
 20
-270.933333
 30
0.0
  0
SPLINE
  5
15f
100
AcDbEntity
  8
0
 62
7
100
AcDbSpline
 70
8
 71
3
 72
8
 73
4
 74
0
 40
0
 40
0
 40
0
 40
0
 40
1
 40
1
 40
1
 40
1
 10
310.162222
 20
-270.933333
 30
0.0
 10
293.228889
 20
-268.957778
 30
0.0
 10
276.295556
 20
-265.288889
 30
0.0
 10
259.362222
 20
-263.313333
 30
0.0
  0
SPLINE
  5
160
100
AcDbEntity
  8
0
 62
7
100
AcDbSpline
 70
8
 71
3
 72
8
 73
4
 74
0
 40
0
 40
0
 40
0
 40
0
 40
1
 40
1
 40
1
 40
1
 10
259.362222
 20
-263.313333
 30
0.0
 10
260.491111
 20
-266.417778
 30
0.0
 10
261.902222
 20
-269.522222
 30
0.0
 10
264.160000
 20
-271.780000
 30
0.0
  0
SPLINE
  5
161
100
AcDbEntity
  8
0
 62
7
100
AcDbSpline
 70
8
 71
3
 72
8
 73
4
 74
0
 40
0
 40
0
 40
0
 40
0
 40
1
 40
1
 40
1
 40
1
 10
264.160000
 20
-271.780000
 30
0.0
 10
291.817778
 20
-300.848889
 30
0.0
 10
318.346667
 20
-330.482222
 30
0.0
 10
345.722222
 20
-359.833333
 30
0.0
  0
SPLINE
  5
162
100
AcDbEntity
  8
0
 62
7
100
AcDbSpline
 70
8
 71
3
 72
8
 73
4
 74
0
 40
0
 40
0
 40
0
 40
0
 40
1
 40
1
 40
1
 40
1
 10
435.751111
 20
-230.575556
 30
0.0
 10
455.224444
 20
-236.502222
 30
0.0
 10
475.544444
 20
-212.795556
 30
0.0
 10
466.231111
 20
-194.451111
 30
0.0
  0
SPLINE
  5
163
100
AcDbEntity
  8
0
 62
7
100
AcDbSpline
 70
8
 71
3
 72
8
 73
4
 74
0
 40
0
 40
0
 40
0
 40
0
 40
1
 40
1
 40
1
 40
1
 10
466.231111
 20
-194.451111
 30
0.0
 10
459.740000
 20
-177.235556
 30
0.0
 10
434.904444
 20
-171.591111
 30
0.0
 10
422.486667
 20
-185.702222
 30
0.0
  0
SPLINE
  5
164
100
AcDbEntity
  8
0
 62
7
100
AcDbSpline
 70
8
 71
3
 72
8
 73
4
 74
0
 40
0
 40
0
 40
0
 40
0
 40
1
 40
1
 40
1
 40
1
 10
422.486667
 20
-185.702222
 30
0.0
 10
407.246667
 20
-198.966667
 30
0.0
 10
415.995556
 20
-226.624444
 30
0.0
 10
435.751111
 20
-230.575556
 30
0.0
  0
SPLINE
  5
165
100
AcDbEntity
  8
0
 62
7
100
AcDbSpline
 70
8
 71
3
 72
8
 73
4
 74
0
 40
0
 40
0
 40
0
 40
0
 40
1
 40
1
 40
1
 40
1
 10
285.891111
 20
-112.042222
 30
0.0
 10
301.413333
 20
-117.122222
 30
0.0
 10
320.040000
 20
-104.140000
 30
0.0
 10
319.193333
 20
-87.488889
 30
0.0
  0
SPLINE
  5
166
100
AcDbEntity
  8
0
 62
7
100
AcDbSpline
 70
8
 71
3
 72
8
 73
4
 74
0
 40
0
 40
0
 40
0
 40
0
 40
1
 40
1
 40
1
 40
1
 10
319.193333
 20
-87.488889
 30
0.0
 10
320.886667
 20
-72.813333
 30
0.0
 10
307.340000
 20
-60.395556
 30
0.0
 10
293.511111
 20
-59.266667
 30
0.0
  0
SPLINE
  5
167
100
AcDbEntity
  8
0
 62
7
100
AcDbSpline
 70
8
 71
3
 72
8
 73
4
 74
0
 40
0
 40
0
 40
0
 40
0
 40
1
 40
1
 40
1
 40
1
 10
293.511111
 20
-59.266667
 30
0.0
 10
282.222222
 20
-59.831111
 30
0.0
 10
270.651111
 20
-67.168889
 30
0.0
 10
267.546667
 20
-78.457778
 30
0.0
  0
SPLINE
  5
168
100
AcDbEntity
  8
0
 62
7
100
AcDbSpline
 70
8
 71
3
 72
8
 73
4
 74
0
 40
0
 40
0
 40
0
 40
0
 40
1
 40
1
 40
1
 40
1
 10
267.546667
 20
-78.457778
 30
0.0
 10
261.902222
 20
-92.286667
 30
0.0
 10
272.062222
 20
-108.655556
 30
0.0
 10
285.891111
 20
-112.042222
 30
0.0
  0
SPLINE
  5
169
100
AcDbEntity
  8
0
 62
7
100
AcDbSpline
 70
8
 71
3
 72
8
 73
4
 74
0
 40
0
 40
0
 40
0
 40
0
 40
1
 40
1
 40
1
 40
1
 10
506.024444
 20
66.040000
 30
0.0
 10
521.264444
 20
64.346667
 30
0.0
 10
536.786667
 20
77.611111
 30
0.0
 10
536.222222
 20
93.133333
 30
0.0
  0
SPLINE
  5
16a
100
AcDbEntity
  8
0
 62
7
100
AcDbSpline
 70
8
 71
3
 72
8
 73
4
 74
0
 40
0
 40
0
 40
0
 40
0
 40
1
 40
1
 40
1
 40
1
 10
536.222222
 20
93.133333
 30
0.0
 10
535.657778
 20
107.244444
 30
0.0
 10
522.675556
 20
120.791111
 30
0.0
 10
508.000000
 20
119.380000
 30
0.0
  0
SPLINE
  5
16b
100
AcDbEntity
  8
0
 62
7
100
AcDbSpline
 70
8
 71
3
 72
8
 73
4
 74
0
 40
0
 40
0
 40
0
 40
0
 40
1
 40
1
 40
1
 40
1
 10
508.000000
 20
119.380000
 30
0.0
 10
494.453333
 20
119.097778
 30
0.0
 10
482.317778
 20
106.680000
 30
0.0
 10
482.600000
 20
93.133333
 30
0.0
  0
SPLINE
  5
16c
100
AcDbEntity
  8
0
 62
7
100
AcDbSpline
 70
8
 71
3
 72
8
 73
4
 74
0
 40
0
 40
0
 40
0
 40
0
 40
1
 40
1
 40
1
 40
1
 10
482.600000
 20
93.133333
 30
0.0
 10
482.035556
 20
79.586667
 30
0.0
 10
493.324444
 20
67.733333
 30
0.0
 10
506.024444
 20
66.040000
 30
0.0
  0
ENDSEC
  0
SECTION
  2
OBJECTS
  0
DICTIONARY
  5
C
330
0
100
AcDbDictionary
  3
ACAD_GROUP
350
D
  3
ACAD_MLINESTYLE
350
17
  0
DICTIONARY
  5
D
330
C
100
AcDbDictionary
  0
DICTIONARY
  5
1A
330
C
100
AcDbDictionary
  0
DICTIONARY
  5
17
330
C
100
AcDbDictionary
  3
STANDARD
350
18
  0
DICTIONARY
  5
19
330
C
100
AcDbDictionary
  0
ENDSEC
  0
EOF
