  0
SECTION
  2
HEADER
  9
$ACADVER
  1
AC1018
  9
$ACADMAINTVER
 70
     0
  9
$DWGCODEPAGE
  3
ANSI_1252
  9
$INSBASE
 10
0.0
 20
0.0
 30
0.0
  9
$EXTMIN
 10
-108.5286
 20
-90.2
 30
0.0
  9
$EXTMAX
 10
126.125
 20
101.481
 30
0.0
  9
$LIMMIN
 10
0.0
 20
0.0
  9
$LIMMAX
 10
12.0
 20
9.0
  9
$ORTHOMODE
 70
     0
  9
$REGENMODE
 70
     1
  9
$FILLMODE
 70
     1
  9
$QTEXTMODE
 70
     0
  9
$MIRRTEXT
 70
     1
  9
$LTSCALE
 40
1.0
  9
$ATTMODE
 70
     1
  9
$TEXTSIZE
 40
0.2
  9
$TRACEWID
 40
0.05
  9
$TEXTSTYLE
  7
Standard
  9
$CLAYER
  8
0
  9
$CELTYPE
  6
ByLayer
  9
$CECOLOR
 62
   256
  9
$CELTSCALE
 40
1.0
  9
$DISPSILH
 70
     0
  9
$DIMSCALE
 40
1.0
  9
$DIMASZ
 40
0.18
  9
$DIMEXO
 40
0.0625
  9
$DIMDLI
 40
0.38
  9
$DIMRND
 40
0.0
  9
$DIMDLE
 40
0.0
  9
$DIMEXE
 40
0.18
  9
$DIMTP
 40
0.0
  9
$DIMTM
 40
0.0
  9
$DIMTXT
 40
0.18
  9
$DIMCEN
 40
0.09
  9
$DIMTSZ
 40
0.0
  9
$DIMTOL
 70
     0
  9
$DIMLIM
 70
     0
  9
$DIMTIH
 70
     1
  9
$DIMTOH
 70
     1
  9
$DIMSE1
 70
     0
  9
$DIMSE2
 70
     0
  9
$DIMTAD
 70
     0
  9
$DIMZIN
 70
     0
  9
$DIMBLK
  1

  9
$DIMASO
 70
     1
  9
$DIMSHO
 70
     1
  9
$DIMPOST
  1

  9
$DIMAPOST
  1

  9
$DIMALT
 70
     0
  9
$DIMALTD
 70
     2
  9
$DIMALTF
 40
25.4
  9
$DIMLFAC
 40
1.0
  9
$DIMTOFL
 70
     0
  9
$DIMTVP
 40
0.0
  9
$DIMTIX
 70
     0
  9
$DIMSOXD
 70
     0
  9
$DIMSAH
 70
     0
  9
$DIMBLK1
  1

  9
$DIMBLK2
  1

  9
$DIMSTYLE
  2
Standard
  9
$DIMCLRD
 70
     0
  9
$DIMCLRE
 70
     0
  9
$DIMCLRT
 70
     0
  9
$DIMTFAC
 40
1.0
  9
$DIMGAP
 40
0.09
  9
$DIMJUST
 70
     0
  9
$DIMSD1
 70
     0
  9
$DIMSD2
 70
     0
  9
$DIMTOLJ
 70
     1
  9
$DIMTZIN
 70
     0
  9
$DIMALTZ
 70
     0
  9
$DIMALTTZ
 70
     0
  9
$DIMUPT
 70
     0
  9
$DIMDEC
 70
     4
  9
$DIMTDEC
 70
     4
  9
$DIMALTU
 70
     2
  9
$DIMALTTD
 70
     2
  9
$DIMTXSTY
  7
Standard
  9
$DIMAUNIT
 70
     0
  9
$DIMADEC
 70
     0
  9
$DIMALTRND
 40
0.0
  9
$DIMAZIN
 70
     0
  9
$DIMDSEP
 70
    46
  9
$DIMATFIT
 70
     3
  9
$DIMFRAC
 70
     0
  9
$DIMLDRBLK
  1

  9
$DIMLUNIT
 70
     2
  9
$DIMLWD
 70
    -2
  9
$DIMLWE
 70
    -2
  9
$DIMTMOVE
 70
     0
  9
$LUNITS
 70
     2
  9
$LUPREC
 70
     4
  9
$SKETCHINC
 40
0.1
  9
$FILLETRAD
 40
0.5
  9
$AUNITS
 70
     0
  9
$AUPREC
 70
     0
  9
$MENU
  1
.
  9
$ELEVATION
 40
0.0
  9
$PELEVATION
 40
0.0
  9
$THICKNESS
 40
0.0
  9
$LIMCHECK
 70
     0
  9
$CHAMFERA
 40
0.5
  9
$CHAMFERB
 40
0.5
  9
$CHAMFERC
 40
1.0
  9
$CHAMFERD
 40
0.0
  9
$SKPOLY
 70
     0
  9
$TDCREATE
 40
2455181.432447002
  9
$TDUCREATE
 40
2455181.557447002
  9
$TDUPDATE
 40
2455181.47411368
  9
$TDUUPDATE
 40
2455181.557447014
  9
$TDINDWG
 40
0.0000000116
  9
$TDUSRTIMER
 40
0.0000000116
  9
$USRTIMER
 70
     1
  9
$ANGBASE
 50
0.0
  9
$ANGDIR
 70
     0
  9
$PDMODE
 70
     0
  9
$PDSIZE
 40
0.0
  9
$PLINEWID
 40
0.0
  9
$SPLFRAME
 70
     0
  9
$SPLINETYPE
 70
     6
  9
$SPLINESEGS
 70
     8
  9
$HANDSEED
  5
38
  9
$SURFTAB1
 70
     6
  9
$SURFTAB2
 70
     6
  9
$SURFTYPE
 70
     6
  9
$SURFU
 70
     6
  9
$SURFV
 70
     6
  9
$UCSBASE
  2

  9
$UCSNAME
  2

  9
$UCSORG
 10
0.0
 20
0.0
 30
0.0
  9
$UCSXDIR
 10
1.0
 20
0.0
 30
0.0
  9
$UCSYDIR
 10
0.0
 20
1.0
 30
0.0
  9
$UCSORTHOREF
  2

  9
$UCSORTHOVIEW
 70
     0
  9
$UCSORGTOP
 10
0.0
 20
0.0
 30
0.0
  9
$UCSORGBOTTOM
 10
0.0
 20
0.0
 30
0.0
  9
$UCSORGLEFT
 10
0.0
 20
0.0
 30
0.0
  9
$UCSORGRIGHT
 10
0.0
 20
0.0
 30
0.0
  9
$UCSORGFRONT
 10
0.0
 20
0.0
 30
0.0
  9
$UCSORGBACK
 10
0.0
 20
0.0
 30
0.0
  9
$PUCSBASE
  2

  9
$PUCSNAME
  2

  9
$PUCSORG
 10
0.0
 20
0.0
 30
0.0
  9
$PUCSXDIR
 10
1.0
 20
0.0
 30
0.0
  9
$PUCSYDIR
 10
0.0
 20
1.0
 30
0.0
  9
$PUCSORTHOREF
  2

  9
$PUCSORTHOVIEW
 70
     0
  9
$PUCSORGTOP
 10
0.0
 20
0.0
 30
0.0
  9
$PUCSORGBOTTOM
 10
0.0
 20
0.0
 30
0.0
  9
$PUCSORGLEFT
 10
0.0
 20
0.0
 30
0.0
  9
$PUCSORGRIGHT
 10
0.0
 20
0.0
 30
0.0
  9
$PUCSORGFRONT
 10
0.0
 20
0.0
 30
0.0
  9
$PUCSORGBACK
 10
0.0
 20
0.0
 30
0.0
  9
$USERI1
 70
     0
  9
$USERI2
 70
     0
  9
$USERI3
 70
     0
  9
$USERI4
 70
     0
  9
$USERI5
 70
     0
  9
$USERR1
 40
0.0
  9
$USERR2
 40
0.0
  9
$USERR3
 40
0.0
  9
$USERR4
 40
0.0
  9
$USERR5
 40
0.0
  9
$WORLDVIEW
 70
     1
  9
$SHADEDGE
 70
     3
  9
$SHADEDIF
 70
    70
  9
$TILEMODE
 70
     1
  9
$MAXACTVP
 70
    64
  9
$PINSBASE
 10
0.0
 20
0.0
 30
0.0
  9
$PLIMCHECK
 70
     0
  9
$PEXTMIN
 10
1.000000000000000E 20
 20
1.000000000000000E 20
 30
1.000000000000000E 20
  9
$PEXTMAX
 10
-1.000000000000000E 20
 20
-1.000000000000000E 20
 30
-1.000000000000000E 20
  9
$PLIMMIN
 10
0.0
 20
0.0
  9
$PLIMMAX
 10
12.0
 20
9.0
  9
$UNITMODE
 70
     0
  9
$VISRETAIN
 70
     1
  9
$PLINEGEN
 70
     0
  9
$PSLTSCALE
 70
     1
  9
$TREEDEPTH
 70
  3020
  9
$CMLSTYLE
  2
Standard
  9
$CMLJUST
 70
     0
  9
$CMLSCALE
 40
1.0
  9
$PROXYGRAPHICS
 70
     1
  9
$MEASUREMENT
 70
     0
  9
$CELWEIGHT
370
    -1
  9
$ENDCAPS
280
     0
  9
$JOINSTYLE
280
     0
  9
$LWDISPLAY
290
     0
  9
$INSUNITS
 70
     4
  9
$HYPERLINKBASE
  1

  9
$STYLESHEET
  1

  9
$XEDIT
290
     1
  9
$CEPSNTYPE
380
     0
  9
$PSTYLEMODE
290
     0
  9
$FINGERPRINTGUID
  2
{FAEB1C30-E019-11D5-929B-00C0DF256EC4}
  9
$VERSIONGUID
  2
{FAEB1C32-E019-11D5-929B-00C0DF256EC4}
  9
$EXTNAMES
290
     1
  9
$PSVPSCALE
 40
0.0
  9
$OLESTARTUP
290
     0
  9
$SORTENTS
280
   127
  9
$INDEXCTL
280
     0
  9
$HIDETEXT
280
     1
  9
$XCLIPFRAME
290
     0
  9
$HALOGAP
280
     0
  9
$OBSCOLOR
 70
   257
  9
$OBSLTYPE
280
     0
  9
$INTERSECTIONDISPLAY
280
     0
  9
$INTERSECTIONCOLOR
 70
   257
  9
$DIMASSOC
280
     2
  9
$PROJECTNAME
  1

  0
ENDSEC
  0
SECTION
  2
CLASSES
  0
CLASS
  1
ACDBDICTIONARYWDFLT
  2
AcDbDictionaryWithDefault
  3
ObjectDBX Classes
 90
        0
 91
        1
280
     0
281
     0
  0
ENDSEC
  0
SECTION
  2
TABLES
  0
TABLE
  2
VPORT
  5
8
330
0
100
AcDbSymbolTable
 70
     2
  0
VPORT
  5
29
330
8
100
AcDbSymbolTableRecord
100
AcDbViewportTableRecord
  2
*Active
 70
     0
 10
0.0
 20
0.0
 11
1.0
 21
1.0
 12
10.42990654205607
 22
4.5
 13
0.0
 23
0.0
 14
0.5
 24
0.5
 15
0.5
 25
0.5
 16
0.0
 26
0.0
 36
1.0
 17
0.0
 27
0.0
 37
0.0
 40
9.0
 41
1.972972972850329
 42
50.0
 43
0.0
 44
0.0
 50
0.0
 51
0.0
 71
     0
 72
   100
 73
     1
 74
     3
 75
     0
 76
     0
 77
     0
 78
     0
281
     0
 65
     1
110
0.0
120
0.0
130
0.0
111
1.0
121
0.0
131
0.0
112
0.0
122
1.0
132
0.0
 79
     0
146
0.0
  0
ENDTAB
  0
TABLE
  2
LTYPE
  5
5
330
0
100
AcDbSymbolTable
 70
     1
  0
LTYPE
  5
14
330
5
100
AcDbSymbolTableRecord
100
AcDbLinetypeTableRecord
  2
ByBlock
 70
     0
  3

 72
    65
 73
     0
 40
0.0
  0
LTYPE
  5
15
330
5
100
AcDbSymbolTableRecord
100
AcDbLinetypeTableRecord
  2
ByLayer
 70
     0
  3

 72
    65
 73
     0
 40
0.0
  0
LTYPE
  5
16
330
5
100
AcDbSymbolTableRecord
100
AcDbLinetypeTableRecord
  2
Continuous
 70
     0
  3
Solid line
 72
    65
 73
     0
 40
0.0
  0
ENDTAB
  0
TABLE
  2
LAYER
  5
2
330
0
100
AcDbSymbolTable
 70
     2
  0
LAYER
  5
10
330
2
100
AcDbSymbolTableRecord
100
AcDbLayerTableRecord
  2
0
 70
     0
 62
     7
  6
Continuous
370
    -3
390
F
  0
LAYER
  5
2B
330
2
100
AcDbSymbolTableRecord
100
AcDbLayerTableRecord
  2
Camada 1
 70
     0
 62
     7
  6
Continuous
370
    -3
390
F
  0
ENDTAB
  0
TABLE
  2
STYLE
  5
3
330
0
100
AcDbSymbolTable
 70
     1
  0
STYLE
  5
11
330
3
100
AcDbSymbolTableRecord
100
AcDbTextStyleTableRecord
  2
Standard
 70
     0
 40
0.0
 41
1.0
 50
0.0
 71
     0
 42
0.2
  3
txt
  4

  0
ENDTAB
  0
TABLE
  2
VIEW
  5
6
330
0
100
AcDbSymbolTable
 70
     0
  0
ENDTAB
  0
TABLE
  2
UCS
  5
7
330
0
100
AcDbSymbolTable
 70
     0
  0
ENDTAB
  0
TABLE
  2
APPID
  5
9
330
0
100
AcDbSymbolTable
 70
     2
  0
APPID
  5
12
330
9
100
AcDbSymbolTableRecord
100
AcDbRegAppTableRecord
  2
ACAD
 70
     0
  0
APPID
  5
2A
330
9
100
AcDbSymbolTableRecord
100
AcDbRegAppTableRecord
  2
ODA
 70
     0
  0
ENDTAB
  0
TABLE
  2
DIMSTYLE
  5
A
330
0
100
AcDbSymbolTable
 70
     1
100
AcDbDimStyleTable
  0
DIMSTYLE
105
27
330
A
100
AcDbSymbolTableRecord
100
AcDbDimStyleTableRecord
  2
Standard
 70
     0
340
11
  0
ENDTAB
  0
TABLE
  2
BLOCK_RECORD
  5
1
330
0
100
AcDbSymbolTable
 70
     1
  0
BLOCK_RECORD
  5
1F
330
1
100
AcDbSymbolTableRecord
100
AcDbBlockTableRecord
  2
*Model_Space
340
22
  0
BLOCK_RECORD
  5
1B
330
1
100
AcDbSymbolTableRecord
100
AcDbBlockTableRecord
  2
*Paper_Space
340
1E
  0
BLOCK_RECORD
  5
23
330
1
100
AcDbSymbolTableRecord
100
AcDbBlockTableRecord
  2
*Paper_Space0
340
26
  0
ENDTAB
  0
ENDSEC
  0
SECTION
  2
BLOCKS
  0
BLOCK
  5
20
330
1F
100
AcDbEntity
  8
0
100
AcDbBlockBegin
  2
*Model_Space
 70
     0
 71
     0
 10
0.0
 20
0.0
 30
0.0
  3
*Model_Space
  1

  0
ENDBLK
  5
21
330
1F
100
AcDbEntity
  8
0
100
AcDbBlockEnd
  0
BLOCK
  5
1C
330
1B
100
AcDbEntity
 67
     1
  8
0
100
AcDbBlockBegin
  2
*Paper_Space
 70
     0
 71
     0
 10
0.0
 20
0.0
 30
0.0
  3
*Paper_Space
  1

  0
ENDBLK
  5
1D
330
1B
100
AcDbEntity
 67
     1
  8
0
100
AcDbBlockEnd
  0
BLOCK
  5
24
330
23
100
AcDbEntity
  8
0
100
AcDbBlockBegin
  2
*Paper_Space0
 70
     0
 71
     0
 10
0.0
 20
0.0
 30
0.0
  3
*Paper_Space0
  1

  0
ENDBLK
  5
25
330
23
100
AcDbEntity
  8
0
100
AcDbBlockEnd
  0
ENDSEC
  0
SECTION
  2
ENTITIES
  0
SPLINE
  5
2C
330
1F
100
AcDbEntity
  8
Camada 1
 62
   250
370
    25
100
AcDbSpline
210
0.0
220
0.0
230
1.0
 70
    11
 71
     3
 72
   100
 73
    96
 74
     0
 42
0.0000000001
 43
0.0000000001
 40
0.0
 40
0.0
 40
0.0
 40
0.0
 40
0.0416666666666667
 40
0.0416666666666667
 40
0.0416666666666667
 40
0.0416666666666667
 40
0.0833333333333333
 40
0.0833333333333333
 40
0.0833333333333333
 40
0.0833333333333333
 40
0.125
 40
0.125
 40
0.125
 40
0.125
 40
0.1666666666666667
 40
0.1666666666666667
 40
0.1666666666666667
 40
0.1666666666666667
 40
0.2083333333333333
 40
0.2083333333333333
 40
0.2083333333333333
 40
0.2083333333333333
 40
0.25
 40
0.25
 40
0.25
 40
0.25
 40
0.2916666666666666
 40
0.2916666666666666
 40
0.2916666666666666
 40
0.2916666666666666
 40
0.3333333333333333
 40
0.3333333333333333
 40
0.3333333333333333
 40
0.3333333333333333
 40
0.375
 40
0.375
 40
0.375
 40
0.375
 40
0.4166666666666667
 40
0.4166666666666667
 40
0.4166666666666667
 40
0.4166666666666667
 40
0.4583333333333334
 40
0.4583333333333334
 40
0.4583333333333334
 40
0.4583333333333334
 40
0.5
 40
0.5
 40
0.5
 40
0.5
 40
0.5416666666666666
 40
0.5416666666666666
 40
0.5416666666666666
 40
0.5416666666666666
 40
0.5833333333333333
 40
0.5833333333333333
 40
0.5833333333333333
 40
0.5833333333333333
 40
0.6249999999999999
 40
0.6249999999999999
 40
0.6249999999999999
 40
0.6249999999999999
 40
0.6666666666666665
 40
0.6666666666666665
 40
0.6666666666666665
 40
0.6666666666666665
 40
0.7083333333333332
 40
0.7083333333333332
 40
0.7083333333333332
 40
0.7083333333333332
 40
0.7499999999999998
 40
0.7499999999999998
 40
0.7499999999999998
 40
0.7499999999999998
 40
0.7916666666666664
 40
0.7916666666666664
 40
0.7916666666666664
 40
0.7916666666666664
 40
0.833333333333333
 40
0.833333333333333
 40
0.833333333333333
 40
0.833333333333333
 40
0.8749999999999997
 40
0.8749999999999997
 40
0.8749999999999997
 40
0.8749999999999997
 40
0.9166666666666663
 40
0.9166666666666663
 40
0.9166666666666663
 40
0.9166666666666663
 40
0.9583333333333329
 40
0.9583333333333329
 40
0.9583333333333329
 40
0.9583333333333329
 40
1.0
 40
1.0
 40
1.0
 40
1.0
 10
-25.023
 20
-89.9752
 30
0.0
 10
-71.7505
 20
-85.49340000000001
 30
0.0
 10
-81.7799
 20
-75.36590000000001
 30
0.0
 10
-87.21640000000001
 20
-50.9638
 30
0.0
 10
-87.21640000000001
 20
-50.9638
 30
0.0
 10
-92.6529
 20
-26.5617
 30
0.0
 10
-56.898
 20
-8.178800000000001
 30
0.0
 10
-31.524
 20
21.5414
 30
0.0
 10
-31.524
 20
21.5414
 30
0.0
 10
-20.855
 20
36.25850000000001
 30
0.0
 10
-36.7531
 20
50.4431
 30
0.0
 10
-47.8114
 20
47.8114
 30
0.0
 10
-47.8114
 20
47.8114
 30
0.0
 10
-62.7633
 20
45.5552
 30
0.0
 10
-77.82380000000001
 20
36.93
 30
0.0
 10
-82.48780000000001
 20
19.9652
 30
0.0
 10
-82.48780000000001
 20
19.9652
 30
0.0
 10
-83.2111
 20
-2.4476
 30
0.0
 10
-86.845
 20
-11.555
 30
0.0
 10
-92.4704
 20
-11.5588
 30
0.0
 10
-92.4704
 20
-11.5588
 30
0.0
 10
-97.1675
 20
-12.6837
 30
0.0
 10
-93.1108
 20
3.5506
 30
0.0
 10
-92.3395
 20
5.779800000000001
 30
0.0
 10
-92.3395
 20
5.779800000000001
 30
0.0
 10
-90.49770000000001
 20
11.1027
 30
0.0
 10
-117.488
 20
11.0411
 30
0.0
 10
-105.0806
 20
38.8796
 30
0.0
 10
-105.0806
 20
38.8796
 30
0.0
 10
-98.843
 20
52.8747
 30
0.0
 10
-63.128
 20
70.4149
 30
0.0
 10
-42.032
 20
70.929
 30
0.0
 10
-42.032
 20
70.929
 30
0.0
 10
-9.558400000000001
 20
71.7205
 30
0.0
 10
-3.5108
 20
16.4241
 30
0.0
 10
-21.2122
 20
-0.7201000000000001
 30
0.0
 10
-21.2122
 20
-0.7201000000000001
 30
0.0
 10
-27.8663
 20
4.432700000000001
 30
0.0
 10
-30.4723
 20
3.5112
 30
0.0
 10
-31.524
 20
-4.9913
 30
0.0
 10
-31.524
 20
-4.9913
 30
0.0
 10
-33.5878
 20
-24.9209
 30
0.0
 10
-25.3746
 20
-6.997500000000001
 30
0.0
 10
-20.0054
 20
-12.7699
 30
0.0
 10
-20.0054
 20
-12.7699
 30
0.0
 10
-18.0706
 20
-14.85
 30
0.0
 10
-19.0359
 20
-23.753
 30
0.0
 10
-20.6296
 20
-24.6522
 30
0.0
 10
-20.6296
 20
-24.6522
 30
0.0
 10
-24.6439
 20
-26.9171
 30
0.0
 10
-28.1787
 20
-28.0926
 30
0.0
 10
-32.7905
 20
-20.6657
 30
0.0
 10
-32.7905
 20
-20.6657
 30
0.0
 10
-35.9793
 20
-15.5305
 30
0.0
 10
-40.974
 20
-21.2515
 30
0.0
 10
-40.7835
 20
-27.1228
 30
0.0
 10
-40.7835
 20
-27.1228
 30
0.0
 10
-41.1514
 20
-41.8872
 30
0.0
 10
-33.1588
 20
-30.5604
 30
0.0
 10
-26.5327
 20
-33.3629
 30
0.0
 10
-26.5327
 20
-33.3629
 30
0.0
 10
-21.1678
 20
-35.6319
 30
0.0
 10
-16.8645
 20
-38.41410000000001
 30
0.0
 10
-16.8128
 20
-42.2947
 30
0.0
 10
-16.8128
 20
-42.2947
 30
0.0
 10
-16.7454
 20
-47.3601
 30
0.0
 10
-22.157
 20
-49.5602
 30
0.0
 10
-28.1089
 20
-49.6503
 30
0.0
 10
-28.1089
 20
-49.6503
 30
0.0
 10
-31.524
 20
-48.8622
 30
0.0
 10
-39.2531
 20
-43.89850000000001
 30
0.0
 10
-38.3542
 20
-47.286
 30
0.0
 10
-38.3542
 20
-47.286
 30
0.0
 10
-37.58170000000001
 20
-50.1972
 30
0.0
 10
-35.0096
 20
-52.0801
 30
0.0
 10
-31.7867
 20
-53.5908
 30
0.0
 10
-31.7867
 20
-53.5908
 30
0.0
 10
-34.5012
 20
-55.8676
 30
0.0
 10
-43.4479
 20
-59.9981
 30
0.0
 10
-39.9304
 20
-60.421
 30
0.0
 10
-39.9304
 20
-60.421
 30
0.0
 10
-36.6221
 20
-60.8188
 30
0.0
 10
-33.16860000000001
 20
-60.2
 30
0.0
 10
-29.6851
 20
-59.3702
 30
0.0
 10
-29.6851
 20
-59.3702
 30
0.0
 10
-23.8357
 20
-61.39
 30
0.0
 10
-17.8426
 20
-65.8634
 30
0.0
 10
-18.3844
 20
-68.1143
 30
0.0
 10
-18.3844
 20
-68.1143
 30
0.0
 10
-19.1535
 20
-71.31
 30
0.0
 10
-32.5138
 20
-72.1439
 30
0.0
 10
-32.1141
 20
-76.24860000000001
 30
0.0
 10
-32.1141
 20
-76.24860000000001
 30
0.0
 10
-32.2765
 20
-81.30540000000001
 30
0.0
 10
-30.7217
 20
-84.94070000000001
 30
0.0
 10
-25.023
 20
-89.9752
 30
0.0
  0
SPLINE
  5
2D
330
1F
100
AcDbEntity
  8
Camada 1
 62
   250
370
    25
100
AcDbSpline
210
0.0
220
0.0
230
1.0
 70
     8
 71
     3
 72
    64
 73
    60
 74
     0
 42
0.0000000001
 43
0.0000000001
 40
0.0
 40
0.0
 40
0.0
 40
0.0
 40
0.0666666666666667
 40
0.0666666666666667
 40
0.0666666666666667
 40
0.0666666666666667
 40
0.1333333333333333
 40
0.1333333333333333
 40
0.1333333333333333
 40
0.1333333333333333
 40
0.2
 40
0.2
 40
0.2
 40
0.2
 40
0.2666666666666667
 40
0.2666666666666667
 40
0.2666666666666667
 40
0.2666666666666667
 40
0.3333333333333333
 40
0.3333333333333333
 40
0.3333333333333333
 40
0.3333333333333333
 40
0.4
 40
0.4
 40
0.4
 40
0.4
 40
0.4666666666666666
 40
0.4666666666666666
 40
0.4666666666666666
 40
0.4666666666666666
 40
0.5333333333333333
 40
0.5333333333333333
 40
0.5333333333333333
 40
0.5333333333333333
 40
0.6
 40
0.6
 40
0.6
 40
0.6
 40
0.6666666666666666
 40
0.6666666666666666
 40
0.6666666666666666
 40
0.6666666666666666
 40
0.7333333333333333
 40
0.7333333333333333
 40
0.7333333333333333
 40
0.7333333333333333
 40
0.7999999999999999
 40
0.7999999999999999
 40
0.7999999999999999
 40
0.7999999999999999
 40
0.8666666666666666
 40
0.8666666666666666
 40
0.8666666666666666
 40
0.8666666666666666
 40
0.9333333333333332
 40
0.9333333333333332
 40
0.9333333333333332
 40
0.9333333333333332
 40
1.0
 40
1.0
 40
1.0
 40
1.0
 10
-20.6296
 20
-24.6522
 30
0.0
 10
-13.4341
 20
-35.1101
 30
0.0
 10
-2.1135
 20
-36.2072
 30
0.0
 10
14.1858
 20
-26.0073
 30
0.0
 10
14.1858
 20
-26.0073
 30
0.0
 10
23.5096
 20
-19.3524
 30
0.0
 10
30.313
 20
-9.1562
 30
0.0
 10
26.5327
 20
-6.042100000000001
 30
0.0
 10
26.5327
 20
-6.042100000000001
 30
0.0
 10
24.0562
 20
-4.0019
 30
0.0
 10
14.1279
 20
-16.2047
 30
0.0
 10
12.4977
 20
-11.7765
 30
0.0
 10
12.4977
 20
-11.7765
 30
0.0
 10
6.4177
 20
4.739100000000001
 30
0.0
 10
36.8684
 20
34.40490000000001
 30
0.0
 10
40.7185
 20
29.4224
 30
0.0
 10
40.7185
 20
29.4224
 30
0.0
 10
43.6956
 20
25.5695
 30
0.0
 10
47.667
 20
16.0826
 30
0.0
 10
52.145
 20
17.9949
 30
0.0
 10
52.145
 20
17.9949
 30
0.0
 10
62.57060000000001
 20
22.4471
 30
0.0
 10
65.32770000000001
 20
31.0076
 30
0.0
 10
65.93770000000001
 20
40.7185
 30
0.0
 10
65.93770000000001
 20
40.7185
 30
0.0
 10
66.0607
 20
43.58600000000001
 30
0.0
 10
68.7008
 20
43.472
 30
0.0
 10
71.45440000000001
 20
46.2352
 30
0.0
 10
71.45440000000001
 20
46.2352
 30
0.0
 10
76.3398
 20
58.03740000000001
 30
0.0
 10
78.9247
 20
68.15260000000001
 30
0.0
 10
73.2933
 20
72.24250000000001
 30
0.0
 10
73.2933
 20
72.24250000000001
 30
0.0
 10
73.5547
 20
80.38510000000001
 30
0.0
 10
70.66500000000001
 20
85.90180000000001
 30
0.0
 10
64.6242
 20
88.79260000000001
 30
0.0
 10
64.6242
 20
88.79260000000001
 30
0.0
 10
64.84220000000001
 20
96.0265
 30
0.0
 10
63.3535
 20
100.5579
 30
0.0
 10
59.3702
 20
101.1395
 30
0.0
 10
59.3702
 20
101.1395
 30
0.0
 10
52.6605
 20
102.9056
 30
0.0
 10
51.4654
 20
90.2287
 30
0.0
 10
47.5131
 20
84.77340000000001
 30
0.0
 10
47.5131
 20
84.77340000000001
 30
0.0
 10
47.5131
 20
84.77340000000001
 30
0.0
 10
40.7185
 20
75.39490000000001
 30
0.0
 10
40.7185
 20
75.39490000000001
 30
0.0
 10
40.7185
 20
75.39490000000001
 30
0.0
 10
34.0381
 20
62.884
 30
0.0
 10
25.856
 20
51.0405
 30
0.0
 10
16.0247
 20
39.9304
 30
0.0
 10
16.0247
 20
39.9304
 30
0.0
 10
5.6593
 20
35.9694
 30
0.0
 10
-5.2084
 20
29.9464
 30
0.0
 10
-8.2743
 20
19.3082
 30
0.0
 10
-8.2743
 20
19.3082
 30
0.0
 10
-10.9334
 20
10.0814
 30
0.0
 10
-16.0044
 20
5.366800000000001
 30
0.0
 10
-16.8891
 20
4.982200000000001
 30
0.0
  0
SPLINE
  5
2E
330
1F
100
AcDbEntity
  8
Camada 1
 62
   250
370
    25
100
AcDbSpline
210
0.0
220
0.0
230
1.0
 70
     8
 71
     3
 72
    40
 73
    36
 74
     0
 42
0.0000000001
 43
0.0000000001
 40
0.0
 40
0.0
 40
0.0
 40
0.0
 40
0.1111111111111111
 40
0.1111111111111111
 40
0.1111111111111111
 40
0.1111111111111111
 40
0.2222222222222222
 40
0.2222222222222222
 40
0.2222222222222222
 40
0.2222222222222222
 40
0.3333333333333333
 40
0.3333333333333333
 40
0.3333333333333333
 40
0.3333333333333333
 40
0.4444444444444444
 40
0.4444444444444444
 40
0.4444444444444444
 40
0.4444444444444444
 40
0.5555555555555556
 40
0.5555555555555556
 40
0.5555555555555556
 40
0.5555555555555556
 40
0.6666666666666667
 40
0.6666666666666667
 40
0.6666666666666667
 40
0.6666666666666667
 40
0.7777777777777779
 40
0.7777777777777779
 40
0.7777777777777779
 40
0.7777777777777779
 40
0.8888888888888891
 40
0.8888888888888891
 40
0.8888888888888891
 40
0.8888888888888891
 40
1.0
 40
1.0
 40
1.0
 40
1.0
 10
26.5327
 20
-6.042100000000001
 30
0.0
 10
34.6978
 20
-0.0448
 30
0.0
 10
39.7329
 20
-1.2705
 30
0.0
 10
43.3455
 20
-5.7794
 30
0.0
 10
43.3455
 20
-5.7794
 30
0.0
 10
46.1219
 20
-11.9089
 30
0.0
 10
39.8892
 20
-18.0386
 30
0.0
 10
31.7867
 20
-24.1684
 30
0.0
 10
31.7867
 20
-24.1684
 30
0.0
 10
25.7997
 20
-28.9817
 30
0.0
 10
24.1164
 20
-34.1537
 30
0.0
 10
26.5327
 20
-39.6677
 30
0.0
 10
26.5327
 20
-39.6677
 30
0.0
 10
48.5394
 20
-53.9041
 30
0.0
 10
77.79780000000001
 20
-21.9798
 30
0.0
 10
63.5745
 20
-20.7537
 30
0.0
 10
63.5745
 20
-20.7537
 30
0.0
 10
50.6552
 20
-19.64
 30
0.0
 10
51.7659
 20
-13.2607
 30
0.0
 10
61.8493
 20
-0.0667
 30
0.0
 10
61.8493
 20
-0.0667
 30
0.0
 10
74.91640000000001
 20
17.0314
 30
0.0
 10
72.18170000000001
 20
-12.6852
 30
0.0
 10
78.809
 20
-4.3347
 30
0.0
 10
78.809
 20
-4.3347
 30
0.0
 10
83.2346
 20
1.2417
 30
0.0
 10
83.9114
 20
9.609300000000001
 30
0.0
 10
90.8942
 20
13.135
 30
0.0
 10
90.8942
 20
13.135
 30
0.0
 10
96.8914
 20
22.6572
 30
0.0
 10
97.41640000000001
 20
29.4435
 30
0.0
 10
85.9029
 20
30.2105
 30
0.0
 10
85.9029
 20
30.2105
 30
0.0
 10
87.4054
 20
41.3292
 30
0.0
 10
82.20620000000001
 20
46.3206
 30
0.0
 10
71.45440000000001
 20
46.2352
 30
0.0
  0
SPLINE
  5
2F
330
1F
100
AcDbEntity
  8
Camada 1
 62
   250
370
    25
100
AcDbSpline
210
0.0
220
0.0
230
1.0
 70
     8
 71
     3
 72
    36
 73
    32
 74
     0
 42
0.0000000001
 43
0.0000000001
 40
0.0
 40
0.0
 40
0.0
 40
0.0
 40
0.125
 40
0.125
 40
0.125
 40
0.125
 40
0.25
 40
0.25
 40
0.25
 40
0.25
 40
0.375
 40
0.375
 40
0.375
 40
0.375
 40
0.5
 40
0.5
 40
0.5
 40
0.5
 40
0.625
 40
0.625
 40
0.625
 40
0.625
 40
0.75
 40
0.75
 40
0.75
 40
0.75
 40
0.875
 40
0.875
 40
0.875
 40
0.875
 40
1.0
 40
1.0
 40
1.0
 40
1.0
 10
90.8942
 20
13.135
 30
0.0
 10
98.3982
 20
10.028
 30
0.0
 10
101.5283
 20
4.6878
 30
0.0
 10
92.56650000000001
 20
-6.8276
 30
0.0
 10
92.56650000000001
 20
-6.8276
 30
0.0
 10
96.67660000000001
 20
-12.5651
 30
0.0
 10
95.97590000000001
 20
-18.3777
 30
0.0
 10
88.8901
 20
-24.2905
 30
0.0
 10
88.8901
 20
-24.2905
 30
0.0
 10
89.7248
 20
-31.9067
 30
0.0
 10
86.3005
 20
-36.4971
 30
0.0
 10
80.48690000000001
 20
-39.39
 30
0.0
 10
80.48690000000001
 20
-39.39
 30
0.0
 10
82.45690000000001
 20
-44.0649
 30
0.0
 10
81.27000000000001
 20
-49.0268
 30
0.0
 10
77.467
 20
-54.2269
 30
0.0
 10
77.467
 20
-54.2269
 30
0.0
 10
75.8476
 20
-55.3637
 30
0.0
 10
70.0222
 20
-53.39250000000001
 30
0.0
 10
71.32210000000001
 20
-51.4589
 30
0.0
 10
71.32210000000001
 20
-51.4589
 30
0.0
 10
73.7013
 20
-47.9196
 30
0.0
 10
76.2514
 20
-44.9624
 30
0.0
 10
66.7004
 20
-45.03590000000001
 30
0.0
 10
66.7004
 20
-45.03590000000001
 30
0.0
 10
55.57870000000001
 20
-43.6704
 30
0.0
 10
67.7298
 20
-52.1946
 30
0.0
 10
61.5803
 20
-53.1767
 30
0.0
 10
61.5803
 20
-53.1767
 30
0.0
 10
53.3251
 20
-54.4951
 30
0.0
 10
48.6786
 20
-50.8919
 30
0.0
 10
48.12600000000001
 20
-41.70650000000001
 30
0.0
  0
SPLINE
  5
30
330
1F
100
AcDbEntity
  8
Camada 1
 62
   250
370
    25
100
AcDbSpline
210
0.0
220
0.0
230
1.0
 70
     8
 71
     3
 72
    28
 73
    24
 74
     0
 42
0.0000000001
 43
0.0000000001
 40
0.0
 40
0.0
 40
0.0
 40
0.0
 40
0.1666666666666667
 40
0.1666666666666667
 40
0.1666666666666667
 40
0.1666666666666667
 40
0.3333333333333333
 40
0.3333333333333333
 40
0.3333333333333333
 40
0.3333333333333333
 40
0.5
 40
0.5
 40
0.5
 40
0.5
 40
0.6666666666666666
 40
0.6666666666666666
 40
0.6666666666666666
 40
0.6666666666666666
 40
0.8333333333333333
 40
0.8333333333333333
 40
0.8333333333333333
 40
0.8333333333333333
 40
1.0
 40
1.0
 40
1.0
 40
1.0
 10
33.5404
 20
-42.6893
 30
0.0
 10
40.8188
 20
-51.95350000000001
 30
0.0
 10
36.59410000000001
 20
-58.7529
 30
0.0
 10
29.1486
 20
-64.8622
 30
0.0
 10
29.1486
 20
-64.8622
 30
0.0
 10
17.9334
 20
-75.85210000000001
 30
0.0
 10
34.7952
 20
-88.8647
 30
0.0
 10
39.39
 20
-72.47760000000001
 30
0.0
 10
39.39
 20
-72.47760000000001
 30
0.0
 10
43.11
 20
-69.7936
 30
0.0
 10
45.81030000000001
 20
-72.76180000000001
 30
0.0
 10
50.5505
 20
-74.1845
 30
0.0
 10
50.5505
 20
-74.1845
 30
0.0
 10
59.02
 20
-76.72670000000001
 30
0.0
 10
64.4941
 20
-61.7826
 30
0.0
 10
59.4138
 20
-60.9893
 30
0.0
 10
59.4138
 20
-60.9893
 30
0.0
 10
53.8137
 20
-60.1148
 30
0.0
 10
53.3436
 20
-64.105
 30
0.0
 10
50.7475
 20
-62.43320000000001
 30
0.0
 10
50.7475
 20
-62.43320000000001
 30
0.0
 10
46.32080000000001
 20
-59.5825
 30
0.0
 10
51.4115
 20
-54.9269
 30
0.0
 10
55.0319
 20
-52.9862
 30
0.0
  0
SPLINE
  5
31
330
1F
100
AcDbEntity
  8
Camada 1
 62
   250
370
    25
100
AcDbSpline
210
0.0
220
0.0
230
1.0
 70
     8
 71
     3
 72
    28
 73
    24
 74
     0
 42
0.0000000001
 43
0.0000000001
 40
0.0
 40
0.0
 40
0.0
 40
0.0
 40
0.1666666666666667
 40
0.1666666666666667
 40
0.1666666666666667
 40
0.1666666666666667
 40
0.3333333333333333
 40
0.3333333333333333
 40
0.3333333333333333
 40
0.3333333333333333
 40
0.5
 40
0.5
 40
0.5
 40
0.5
 40
0.6666666666666666
 40
0.6666666666666666
 40
0.6666666666666666
 40
0.6666666666666666
 40
0.8333333333333333
 40
0.8333333333333333
 40
0.8333333333333333
 40
0.8333333333333333
 40
1.0
 40
1.0
 40
1.0
 40
1.0
 10
-25.023
 20
-89.9752
 30
0.0
 10
-25.023
 20
-89.9752
 30
0.0
 10
103.0705
 20
-89.5466
 30
0.0
 10
103.0705
 20
-89.5466
 30
0.0
 10
103.0705
 20
-89.5466
 30
0.0
 10
113.8623
 20
-87.34490000000001
 30
0.0
 10
131.5846
 20
-66.8137
 30
0.0
 10
124.2098
 20
-68.80120000000001
 30
0.0
 10
124.2098
 20
-68.80120000000001
 30
0.0
 10
124.2098
 20
-68.80120000000001
 30
0.0
 10
105.6965
 20
-73.7906
 30
0.0
 10
105.6965
 20
-73.7906
 30
0.0
 10
105.6965
 20
-73.7906
 30
0.0
 10
105.6965
 20
-73.7906
 30
0.0
 10
110.9485
 20
-66.04390000000001
 30
0.0
 10
110.9485
 20
-66.04390000000001
 30
0.0
 10
110.9485
 20
-66.04390000000001
 30
0.0
 10
117.2249
 20
-56.7862
 30
0.0
 10
83.68900000000001
 20
-71.85770000000001
 30
0.0
 10
74.84100000000001
 20
-59.87280000000001
 30
0.0
 10
74.84100000000001
 20
-59.87280000000001
 30
0.0
 10
73.34740000000001
 20
-57.84970000000001
 30
0.0
 10
79.857
 20
-57.4434
 30
0.0
 10
77.467
 20
-54.2269
 30
0.0
  0
SPLINE
  5
32
330
1F
100
AcDbEntity
  8
Camada 1
 62
   250
370
    25
100
AcDbSpline
210
0.0
220
0.0
230
1.0
 70
     8
 71
     3
 72
     8
 73
     4
 74
     0
 42
0.0000000001
 43
0.0000000001
 40
0.0
 40
0.0
 40
0.0
 40
0.0
 40
1.0
 40
1.0
 40
1.0
 40
1.0
 10
45.9543
 20
-89.7377
 30
0.0
 10
50.4987
 20
-84.87050000000001
 30
0.0
 10
52.6539
 20
-79.7517
 30
0.0
 10
50.5505
 20
-74.1845
 30
0.0
  0
SPLINE
  5
33
330
1F
100
AcDbEntity
  8
Camada 1
 62
   250
370
    25
100
AcDbSpline
210
0.0
220
0.0
230
1.0
 70
     8
 71
     3
 72
    32
 73
    28
 74
     0
 42
0.0000000001
 43
0.0000000001
 40
0.0
 40
0.0
 40
0.0
 40
0.0
 40
0.1428571428571429
 40
0.1428571428571429
 40
0.1428571428571429
 40
0.1428571428571429
 40
0.2857142857142857
 40
0.2857142857142857
 40
0.2857142857142857
 40
0.2857142857142857
 40
0.4285714285714286
 40
0.4285714285714286
 40
0.4285714285714286
 40
0.4285714285714286
 40
0.5714285714285714
 40
0.5714285714285714
 40
0.5714285714285714
 40
0.5714285714285714
 40
0.7142857142857142
 40
0.7142857142857142
 40
0.7142857142857142
 40
0.7142857142857142
 40
0.857142857142857
 40
0.857142857142857
 40
0.857142857142857
 40
0.857142857142857
 40
1.0
 40
1.0
 40
1.0
 40
1.0
 10
12.867
 20
-89.8484
 30
0.0
 10
8.227700000000001
 20
-82.5265
 30
0.0
 10
12.5895
 20
-78.5716
 30
0.0
 10
20.0057
 20
-66.8665
 30
0.0
 10
20.0057
 20
-66.8665
 30
0.0
 10
22.4372
 20
-63.0289
 30
0.0
 10
11.2462
 20
-63.6529
 30
0.0
 10
10.3727
 20
-59.2163
 30
0.0
 10
10.3727
 20
-59.2163
 30
0.0
 10
3.7233
 20
-62.6064
 30
0.0
 10
0.355
 20
-62.7758
 30
0.0
 10
2.137
 20
-60.6734
 30
0.0
 10
2.137
 20
-60.6734
 30
0.0
 10
2.137
 20
-60.6734
 30
0.0
 10
6.5343
 20
-55.4855
 30
0.0
 10
6.5343
 20
-55.4855
 30
0.0
 10
6.5343
 20
-55.4855
 30
0.0
 10
3.4283
 20
-53.997
 30
0.0
 10
1.5468
 20
-51.9835
 30
0.0
 10
0.8897000000000001
 20
-49.4451
 30
0.0
 10
0.8897000000000001
 20
-49.4451
 30
0.0
 10
0.1103
 20
-46.4346
 30
0.0
 10
10.673
 20
-52.5989
 30
0.0
 10
11.9483
 20
-49.7627
 30
0.0
 10
11.9483
 20
-49.7627
 30
0.0
 10
14.6036
 20
-43.8579
 30
0.0
 10
18.4323
 20
-39.3846
 30
0.0
 10
26.188
 20
-38.80730000000001
 30
0.0
  0
ELLIPSE
  5
34
330
1F
100
AcDbEntity
  8
Camada 1
 62
   250
370
    25
100
AcDbEllipse
 10
24.286
 20
-52.7424
 30
0.0
 11
0.0
 21
1.968
 31
0.0
210
0.0
220
0.0
230
1.0
 40
0.8928353658536585
 41
0.0
 42
6.283185307179586
  0
ELLIPSE
  5
35
330
1F
100
AcDbEntity
  8
Camada 1
 62
   250
370
    25
100
AcDbEllipse
 10
-14.2353
 20
-55.36640000000001
 30
0.0
 11
0.0
 21
1.968
 31
0.0
210
0.0
220
0.0
230
1.0
 40
0.8928353658536585
 41
0.0
 42
6.283185307179586
  0
SPLINE
  5
36
330
1F
100
AcDbEntity
  8
Camada 1
 62
   250
370
    25
100
AcDbSpline
210
0.0
220
0.0
230
1.0
 70
     8
 71
     3
 72
    24
 73
    20
 74
     0
 42
0.0000000001
 43
0.0000000001
 40
0.0
 40
0.0
 40
0.0
 40
0.0
 40
0.2
 40
0.2
 40
0.2
 40
0.2
 40
0.4
 40
0.4
 40
0.4
 40
0.4
 40
0.6000000000000001
 40
0.6000000000000001
 40
0.6000000000000001
 40
0.6000000000000001
 40
0.8
 40
0.8
 40
0.8
 40
0.8
 40
1.0
 40
1.0
 40
1.0
 40
1.0
 10
-16.8879
 20
-43.3859
 30
0.0
 10
-12.2353
 20
-41.9046
 30
0.0
 10
-3.081
 20
-47.7923
 30
0.0
 10
-3.5451
 20
-54.09560000000001
 30
0.0
 10
-3.5451
 20
-54.09560000000001
 30
0.0
 10
-3.5436
 20
-57.5741
 30
0.0
 10
-7.628100000000001
 20
-61.09050000000001
 30
0.0
 10
-9.811400000000001
 20
-67.5556
 30
0.0
 10
-9.811400000000001
 20
-67.5556
 30
0.0
 10
-12.0508
 20
-74.18680000000001
 30
0.0
 10
-8.225900000000001
 20
-83.3687
 30
0.0
 10
-3.0199
 20
-81.0121
 30
0.0
 10
-3.0199
 20
-81.0121
 30
0.0
 10
1.8103
 20
-78.82560000000001
 30
0.0
 10
3.4951
 20
-78.2128
 30
0.0
 10
5.6459
 20
-80.7495
 30
0.0
 10
5.6459
 20
-80.7495
 30
0.0
 10
7.3779
 20
-85.00190000000001
 30
0.0
 10
6.0976
 20
-87.9038
 30
0.0
 10
2.7566
 20
-89.8822
 30
0.0
  0
ELLIPSE
  5
37
330
1F
100
AcDbEntity
  8
Camada 1
 62
   250
370
    25
100
AcDbEllipse
 10
-97.05030000000001
 20
23.7076
 30
0.0
 11
0.0
 21
2.4288
 31
0.0
210
0.0
220
0.0
230
1.0
 40
0.8928689064558629
 41
0.0
 42
6.283185307179586
  0
ENDSEC
  0
SECTION
  2
OBJECTS
  0
DICTIONARY
  5
C
330
0
100
AcDbDictionary
281
     1
  3
ACAD_GROUP
350
D
  3
ACAD_LAYOUT
350
1A
  3
ACAD_MLINESTYLE
350
17
  3
ACAD_PLOTSETTINGS
350
19
  3
ACAD_PLOTSTYLENAME
350
E
  0
DICTIONARY
  5
D
102
{ACAD_REACTORS
330
C
102
}
330
C
100
AcDbDictionary
281
     1
  0
DICTIONARY
  5
1A
102
{ACAD_REACTORS
330
C
102
}
330
C
100
AcDbDictionary
281
     1
  3
Layout1
350
1E
  3
Layout2
350
26
  3
Model
350
22
  0
DICTIONARY
  5
17
102
{ACAD_REACTORS
330
C
102
}
330
C
100
AcDbDictionary
281
     1
  3
Standard
350
18
  0
DICTIONARY
  5
19
102
{ACAD_REACTORS
330
C
102
}
330
C
100
AcDbDictionary
281
     1
  0
ACDBDICTIONARYWDFLT
  5
E
102
{ACAD_REACTORS
330
C
102
}
330
C
100
AcDbDictionary
281
     1
  3
Normal
350
F
100
AcDbDictionaryWithDefault
340
F
  0
LAYOUT
  5
1E
102
{ACAD_REACTORS
330
1A
102
}
330
1A
100
AcDbPlotSettings
  1

  2

  4

  6

 40
0.0
 41
0.0
 42
0.0
 43
0.0
 44
0.0
 45
0.0
 46
0.0
 47
0.0
 48
0.0
 49
0.0
140
0.0
141
0.0
142
1.0
143
1.0
 70
   688
 72
     0
 73
     0
 74
     5
  7

 75
    16
 76
     0
 77
     2
 78
   300
147
1.0
148
0.0
149
0.0
100
AcDbLayout
  1
Layout1
 70
     1
 71
     1
 10
0.0
 20
0.0
 11
12.0
 21
9.0
 12
0.0
 22
0.0
 32
0.0
 14
1.000000000000000E 20
 24
1.000000000000000E 20
 34
1.000000000000000E 20
 15
-1.000000000000000E 20
 25
-1.000000000000000E 20
 35
-1.000000000000000E 20
146
0.0
 13
0.0
 23
0.0
 33
0.0
 16
1.0
 26
0.0
 36
0.0
 17
0.0
 27
1.0
 37
0.0
 76
     0
330
1B
  0
LAYOUT
  5
26
102
{ACAD_REACTORS
330
1A
102
}
330
1A
100
AcDbPlotSettings
  1

  2

  4

  6

 40
0.0
 41
0.0
 42
0.0
 43
0.0
 44
0.0
 45
0.0
 46
0.0
 47
0.0
 48
0.0
 49
0.0
140
0.0
141
0.0
142
1.0
143
1.0
 70
   688
 72
     0
 73
     0
 74
     5
  7

 75
    16
 76
     0
 77
     2
 78
   300
147
1.0
148
0.0
149
0.0
100
AcDbLayout
  1
Layout2
 70
     1
 71
     2
 10
0.0
 20
0.0
 11
0.0
 21
0.0
 12
0.0
 22
0.0
 32
0.0
 14
0.0
 24
0.0
 34
0.0
 15
0.0
 25
0.0
 35
0.0
146
0.0
 13
0.0
 23
0.0
 33
0.0
 16
1.0
 26
0.0
 36
0.0
 17
0.0
 27
1.0
 37
0.0
 76
     0
330
23
  0
LAYOUT
  5
22
102
{ACAD_REACTORS
330
1A
102
}
330
1A
100
AcDbPlotSettings
  1

  2

  4

  6

 40
0.0
 41
0.0
 42
0.0
 43
0.0
 44
0.0
 45
0.0
 46
0.0
 47
0.0
 48
0.0
 49
0.0
140
0.0
141
0.0
142
1.0
143
1.0
 70
  1712
 72
     0
 73
     0
 74
     0
  7

 75
     0
 76
     0
 77
     2
 78
   300
147
1.0
148
0.0
149
0.0
100
AcDbLayout
  1
Model
 70
     1
 71
     0
 10
0.0
 20
0.0
 11
0.0
 21
0.0
 12
0.0
 22
0.0
 32
0.0
 14
-108.5286
 24
-90.2
 34
0.0
 15
126.125
 25
101.481
 35
0.0
146
0.0
 13
0.0
 23
0.0
 33
0.0
 16
1.0
 26
0.0
 36
0.0
 17
0.0
 27
1.0
 37
0.0
 76
     0
330
1F
  0
MLINESTYLE
  5
18
102
{ACAD_REACTORS
330
17
102
}
330
17
100
AcDbMlineStyle
  2
Standard
 70
     0
  3

 62
   256
 51
90.0
 52
90.0
 71
     2
 49
0.5
 62
   256
  6
BYLAYER
 49
-0.5
 62
   256
  6
BYLAYER
  0
ACDBPLACEHOLDER
  5
F
102
{ACAD_REACTORS
330
E
102
}
330
E
  0
ENDSEC
  0
EOF
