  0
SECTION
  2
HEADER
  9
$ACADVER
  1
AC1003
  9
$INSBASE
 10
0.0
 20
0.0
  9
$EXTMIN
 10
-136.9355
 20
-308.9354
  9
$EXTMAX
 10
145.5119
 20
344.7261
  9
$LIMMIN
 10
0.0
 20
0.0
  9
$LIMMAX
 10
12.0
 20
9.0
  9
$ORTHOMODE
 70
     0
  9
$REGENMODE
 70
     1
  9
$FILLMODE
 70
     1
  9
$QTEXTMODE
 70
     0
  9
$DRAGMODE
 70
     2
  9
$LTSCALE
 40
1.0
  9
$OSMODE
 70
    37
  9
$ATTMODE
 70
     1
  9
$TEXTSIZE
 40
0.2
  9
$TRACEWID
 40
0.05
  9
$TEXTSTYLE
  7
STANDARD
  9
$CLAYER
  8
0
  9
$CELTYPE
  6
BYLAYER
  9
$CECOLOR
 62
   256
  9
$DIMSCALE
 40
1.0
  9
$DIMASZ
 40
0.18
  9
$DIMEXO
 40
0.0625
  9
$DIMDLI
 40
0.38
  9
$DIMRND
 40
0.0
  9
$DIMDLE
 40
0.0
  9
$DIMEXE
 40
0.18
  9
$DIMTP
 40
0.0
  9
$DIMTM
 40
0.0
  9
$DIMTXT
 40
0.18
  9
$DIMCEN
 40
0.09
  9
$DIMTSZ
 40
0.0
  9
$DIMTOL
 70
     0
  9
$DIMLIM
 70
     0
  9
$DIMTIH
 70
     1
  9
$DIMTOH
 70
     1
  9
$DIMSE1
 70
     0
  9
$DIMSE2
 70
     0
  9
$DIMTAD
 70
     0
  9
$DIMZIN
 70
     0
  9
$DIMBLK
  1

  9
$DIMASO
 70
     1
  9
$DIMSHO
 70
     1
  9
$DIMPOST
  1

  9
$DIMAPOST
  1

  9
$DIMALT
 70
     0
  9
$DIMALTD
 70
     2
  9
$DIMALTF
 40
25.4
  9
$DIMLFAC
 40
1.0
  9
$DIMTOFL
 70
     0
  9
$DIMTVP
 40
0.0
  9
$DIMTIX
 70
     0
  9
$DIMSOXD
 70
     0
  9
$DIMSAH
 70
     0
  9
$DIMBLK1
  1

  9
$DIMBLK2
  1

  9
$LUNITS
 70
     2
  9
$LUPREC
 70
     4
  9
$SKETCHINC
 40
0.1
  9
$FILLETRAD
 40
0.5
  9
$AUNITS
 70
     0
  9
$AUPREC
 70
     0
  9
$MENU
  1
.
  9
$ELEVATION
 40
0.0
  9
$THICKNESS
 40
0.0
  9
$LIMCHECK
 70
     0
  9
$CHAMFERA
 40
0.5
  9
$CHAMFERB
 40
0.5
  9
$SKPOLY
 70
     0
  9
$TDCREATE
 40
2458310.649895857
  9
$TDUPDATE
 40
2458310.649896088
  9
$TDINDWG
 40
0.0000000116
  9
$TDUSRTIMER
 40
0.0000000116
  9
$USRTIMER
 70
     1
  9
$ANGBASE
 50
0.0
  9
$ANGDIR
 70
     0
  9
$PDMODE
 70
     0
  9
$PDSIZE
 40
0.0
  9
$PLINEWID
 40
0.0
  9
$COORDS
 70
     1
  9
$SURFTAB1
 70
     6
  9
$SURFTAB2
 70
     6
  9
$SURFTYPE
 70
     6
  9
$SURFU
 70
     6
  9
$SURFV
 70
     6
  9
$UCSNAME
  2

  9
$UCSORG
 10
0.0
 20
0.0
 30
0.0
  9
$UCSXDIR
 10
1.0
 20
0.0
 30
0.0
  9
$UCSYDIR
 10
0.0
 20
1.0
 30
0.0
  9
$USERI1
 70
     0
  9
$USERI2
 70
     0
  9
$USERI3
 70
     0
  9
$USERI4
 70
     0
  9
$USERI5
 70
     0
  9
$USERR1
 40
0.0
  9
$USERR2
 40
0.0
  9
$USERR3
 40
0.0
  9
$USERR4
 40
0.0
  9
$USERR5
 40
0.0
  9
$WORLDVIEW
 70
     1
  0
ENDSEC
  0
SECTION
  2
TABLES
  0
TABLE
  2
LTYPE
 70
     1
  0
LTYPE
  2
CONTINUOUS
 70
     0
  3
Solid line
 72
    65
 73
     0
 40
0.0
  0
ENDTAB
  0
TABLE
  2
LAYER
 70
     3
  0
LAYER
  2
0
 70
     0
 62
     7
  6
CONTINUOUS
  0
LAYER
  2
LAYER_1
 70
     0
 62
     7
  6
CONTINUOUS
  0
LAYER
  2
_LAYER_1
 70
     0
 62
     7
  6
CONTINUOUS
  0
ENDTAB
  0
TABLE
  2
STYLE
 70
     1
  0
STYLE
  2
STANDARD
 70
     0
 40
0.0
 41
1.0
 50
0.0
 71
     0
 42
0.2
  3
txt
  4

  0
ENDTAB
  0
TABLE
  2
VIEW
 70
     0
  0
ENDTAB
  0
ENDSEC
  0
SECTION
  2
BLOCKS
  0
ENDSEC
  0
SECTION
  2
ENTITIES
  0
POLYLINE
  8
LAYER_1
 62
     1
 66
     1
  0
VERTEX
  8
LAYER_1
 62
     1
 10
110.0303
 20
219.3452
  0
VERTEX
  8
LAYER_1
 62
     1
 10
108.0942
 20
220.8556
  0
VERTEX
  8
LAYER_1
 62
     1
 10
104.9192
 20
223.2685
  0
VERTEX
  8
LAYER_1
 62
     1
 10
101.6167
 20
225.5547
  0
VERTEX
  8
LAYER_1
 62
     1
 10
98.3149
 20
227.8405
  0
VERTEX
  8
LAYER_1
 62
     1
 10
94.9498
 20
229.9995
  0
VERTEX
  8
LAYER_1
 62
     1
 10
91.5205
 20
232.0949
  0
VERTEX
  8
LAYER_1
 62
     1
 10
88.0279
 20
234.1271
  0
VERTEX
  8
LAYER_1
 62
     1
 10
84.5353
 20
236.0953
  0
VERTEX
  8
LAYER_1
 62
     1
 10
80.9158
 20
237.937
  0
VERTEX
  8
LAYER_1
 62
     1
 10
77.3598
 20
239.715
  0
VERTEX
  8
LAYER_1
 62
     1
 10
73.677
 20
241.4297
  0
VERTEX
  8
LAYER_1
 62
     1
 10
69.9942
 20
243.0172
  0
VERTEX
  8
LAYER_1
 62
     1
 10
66.3107
 20
244.5413
  0
VERTEX
  8
LAYER_1
 62
     1
 10
62.5645
 20
246.0013
  0
VERTEX
  8
LAYER_1
 62
     1
 10
59.9924
 20
246.9019
  0
SEQEND
  8
LAYER_1
 62
     1
  0
POLYLINE
  8
LAYER_1
 62
     1
 66
     1
  0
VERTEX
  8
LAYER_1
 62
     1
 10
126.9533
 20
204.0918
  0
VERTEX
  8
LAYER_1
 62
     1
 10
124.0326
 20
207.0125
  0
VERTEX
  8
LAYER_1
 62
     1
 10
121.1118
 20
209.8065
  0
VERTEX
  8
LAYER_1
 62
     1
 10
118.0636
 20
212.6004
  0
VERTEX
  8
LAYER_1
 62
     1
 10
116.2535
 20
214.2265
  0
SEQEND
  8
LAYER_1
 62
     1
  0
POLYLINE
  8
LAYER_1
 62
     1
 66
     1
  0
VERTEX
  8
LAYER_1
 62
     1
 10
-125.5861
 20
204.0918
  0
VERTEX
  8
LAYER_1
 62
     1
 10
126.9533
 20
204.0918
  0
SEQEND
  8
LAYER_1
 62
     1
  0
POLYLINE
  8
LAYER_1
 62
     1
 66
     1
  0
VERTEX
  8
LAYER_1
 62
     1
 10
-114.8863
 20
214.1838
  0
VERTEX
  8
LAYER_1
 62
     1
 10
-116.6964
 20
212.6004
  0
VERTEX
  8
LAYER_1
 62
     1
 10
-119.7439
 20
209.8065
  0
VERTEX
  8
LAYER_1
 62
     1
 10
-122.6654
 20
207.0125
  0
VERTEX
  8
LAYER_1
 62
     1
 10
-125.5861
 20
204.0918
  0
SEQEND
  8
LAYER_1
 62
     1
  0
POLYLINE
  8
LAYER_1
 62
     1
 66
     1
  0
VERTEX
  8
LAYER_1
 62
     1
 10
-58.6253
 20
246.9019
  0
VERTEX
  8
LAYER_1
 62
     1
 10
-61.1971
 20
246.0013
  0
VERTEX
  8
LAYER_1
 62
     1
 10
-64.9437
 20
244.5413
  0
VERTEX
  8
LAYER_1
 62
     1
 10
-68.6268
 20
243.0172
  0
VERTEX
  8
LAYER_1
 62
     1
 10
-72.3096
 20
241.4297
  0
VERTEX
  8
LAYER_1
 62
     1
 10
-75.9924
 20
239.715
  0
VERTEX
  8
LAYER_1
 62
     1
 10
-79.6122
 20
237.937
  0
VERTEX
  8
LAYER_1
 62
     1
 10
-83.1682
 20
236.0953
  0
VERTEX
  8
LAYER_1
 62
     1
 10
-86.6605
 20
234.1271
  0
VERTEX
  8
LAYER_1
 62
     1
 10
-90.1531
 20
232.0949
  0
VERTEX
  8
LAYER_1
 62
     1
 10
-93.5826
 20
229.9995
  0
VERTEX
  8
LAYER_1
 62
     1
 10
-96.9477
 20
227.8405
  0
VERTEX
  8
LAYER_1
 62
     1
 10
-100.2495
 20
225.5547
  0
VERTEX
  8
LAYER_1
 62
     1
 10
-103.552
 20
223.2685
  0
VERTEX
  8
LAYER_1
 62
     1
 10
-106.727
 20
220.8556
  0
VERTEX
  8
LAYER_1
 62
     1
 10
-108.6638
 20
219.3446
  0
SEQEND
  8
LAYER_1
 62
     1
  0
POLYLINE
  8
LAYER_1
 62
     1
 66
     1
  0
VERTEX
  8
LAYER_1
 62
     1
 10
-2.4279
 20
229.7453
  0
VERTEX
  8
LAYER_1
 62
     1
 10
3.7953
 20
229.7453
  0
SEQEND
  8
LAYER_1
 62
     1
  0
POLYLINE
  8
LAYER_1
 62
     1
 66
     1
  0
VERTEX
  8
LAYER_1
 62
     1
 10
53.7699
 20
225.3638
  0
VERTEX
  8
LAYER_1
 62
     1
 10
59.9924
 20
225.3638
  0
SEQEND
  8
LAYER_1
 62
     1
  0
POLYLINE
  8
LAYER_1
 62
     1
 66
     1
  0
VERTEX
  8
LAYER_1
 62
     1
 10
53.7699
 20
225.3638
  0
VERTEX
  8
LAYER_1
 62
     1
 10
53.7699
 20
248.9228
  0
SEQEND
  8
LAYER_1
 62
     1
  0
POLYLINE
  8
LAYER_1
 62
     1
 66
     1
  0
VERTEX
  8
LAYER_1
 62
     1
 10
59.9924
 20
225.3638
  0
VERTEX
  8
LAYER_1
 62
     1
 10
59.9924
 20
246.9019
  0
SEQEND
  8
LAYER_1
 62
     1
  0
POLYLINE
  8
LAYER_1
 62
     1
 66
     1
  0
VERTEX
  8
LAYER_1
 62
     1
 10
110.0303
 20
209.1078
  0
VERTEX
  8
LAYER_1
 62
     1
 10
116.2535
 20
209.1078
  0
SEQEND
  8
LAYER_1
 62
     1
  0
POLYLINE
  8
LAYER_1
 62
     1
 66
     1
  0
VERTEX
  8
LAYER_1
 62
     1
 10
110.0303
 20
209.1078
  0
VERTEX
  8
LAYER_1
 62
     1
 10
110.0303
 20
219.3452
  0
SEQEND
  8
LAYER_1
 62
     1
  0
POLYLINE
  8
LAYER_1
 62
     1
 66
     1
  0
VERTEX
  8
LAYER_1
 62
     1
 10
116.2535
 20
209.1078
  0
VERTEX
  8
LAYER_1
 62
     1
 10
116.2535
 20
214.2265
  0
SEQEND
  8
LAYER_1
 62
     1
  0
POLYLINE
  8
LAYER_1
 62
     1
 66
     1
  0
VERTEX
  8
LAYER_1
 62
     1
 10
-114.8863
 20
209.1078
  0
VERTEX
  8
LAYER_1
 62
     1
 10
-108.6638
 20
209.1078
  0
SEQEND
  8
LAYER_1
 62
     1
  0
POLYLINE
  8
LAYER_1
 62
     1
 66
     1
  0
VERTEX
  8
LAYER_1
 62
     1
 10
-114.8863
 20
209.1078
  0
VERTEX
  8
LAYER_1
 62
     1
 10
-114.8863
 20
214.1838
  0
SEQEND
  8
LAYER_1
 62
     1
  0
POLYLINE
  8
LAYER_1
 62
     1
 66
     1
  0
VERTEX
  8
LAYER_1
 62
     1
 10
-108.6638
 20
209.1078
  0
VERTEX
  8
LAYER_1
 62
     1
 10
-108.6638
 20
219.3446
  0
SEQEND
  8
LAYER_1
 62
     1
  0
POLYLINE
  8
LAYER_1
 62
     1
 66
     1
  0
VERTEX
  8
LAYER_1
 62
     1
 10
-58.6253
 20
225.3638
  0
VERTEX
  8
LAYER_1
 62
     1
 10
-52.4025
 20
225.3638
  0
SEQEND
  8
LAYER_1
 62
     1
  0
POLYLINE
  8
LAYER_1
 62
     1
 66
     1
  0
VERTEX
  8
LAYER_1
 62
     1
 10
-58.6253
 20
225.3638
  0
VERTEX
  8
LAYER_1
 62
     1
 10
-58.6253
 20
246.9019
  0
SEQEND
  8
LAYER_1
 62
     1
  0
POLYLINE
  8
LAYER_1
 62
     1
 66
     1
  0
VERTEX
  8
LAYER_1
 62
     1
 10
-52.4025
 20
225.3638
  0
VERTEX
  8
LAYER_1
 62
     1
 10
-52.4025
 20
248.7939
  0
SEQEND
  8
LAYER_1
 62
     1
  0
POLYLINE
  8
LAYER_1
 62
     1
 66
     1
  0
VERTEX
  8
LAYER_1
 62
     1
 10
53.7699
 20
248.9228
  0
VERTEX
  8
LAYER_1
 62
     1
 10
51.071
 20
249.6211
  0
VERTEX
  8
LAYER_1
 62
     1
 10
47.1339
 20
250.7004
  0
VERTEX
  8
LAYER_1
 62
     1
 10
43.1969
 20
251.7168
  0
VERTEX
  8
LAYER_1
 62
     1
 10
39.1964
 20
252.669
  0
VERTEX
  8
LAYER_1
 62
     1
 10
35.1322
 20
253.4944
  0
VERTEX
  8
LAYER_1
 62
     1
 10
31.1318
 20
254.1931
  0
VERTEX
  8
LAYER_1
 62
     1
 10
27.0679
 20
254.828
  0
VERTEX
  8
LAYER_1
 62
     1
 10
23.0038
 20
255.3995
  0
VERTEX
  8
LAYER_1
 62
     1
 10
18.9399
 20
255.844
  0
VERTEX
  8
LAYER_1
 62
     1
 10
14.8758
 20
256.1616
  0
VERTEX
  8
LAYER_1
 62
     1
 10
10.7482
 20
256.4155
  0
VERTEX
  8
LAYER_1
 62
     1
 10
6.6844
 20
256.606
  0
VERTEX
  8
LAYER_1
 62
     1
 10
3.7872
 20
256.6505
  0
SEQEND
  8
LAYER_1
 62
     1
  0
POLYLINE
  8
LAYER_1
 62
     1
 66
     1
  0
VERTEX
  8
LAYER_1
 62
     1
 10
-2.4279
 20
256.6694
  0
VERTEX
  8
LAYER_1
 62
     1
 10
-5.317
 20
256.606
  0
VERTEX
  8
LAYER_1
 62
     1
 10
-9.3812
 20
256.4155
  0
VERTEX
  8
LAYER_1
 62
     1
 10
-13.5087
 20
256.1616
  0
VERTEX
  8
LAYER_1
 62
     1
 10
-17.5726
 20
255.844
  0
VERTEX
  8
LAYER_1
 62
     1
 10
-21.6364
 20
255.3995
  0
VERTEX
  8
LAYER_1
 62
     1
 10
-25.7006
 20
254.828
  0
VERTEX
  8
LAYER_1
 62
     1
 10
-29.7647
 20
254.1931
  0
VERTEX
  8
LAYER_1
 62
     1
 10
-33.7652
 20
253.4944
  0
VERTEX
  8
LAYER_1
 62
     1
 10
-37.829
 20
252.669
  0
VERTEX
  8
LAYER_1
 62
     1
 10
-41.8295
 20
251.7168
  0
VERTEX
  8
LAYER_1
 62
     1
 10
-45.7665
 20
250.7004
  0
VERTEX
  8
LAYER_1
 62
     1
 10
-49.7036
 20
249.6211
  0
VERTEX
  8
LAYER_1
 62
     1
 10
-52.4025
 20
248.7939
  0
SEQEND
  8
LAYER_1
 62
     1
  0
POLYLINE
  8
LAYER_1
 62
     1
 66
     1
  0
VERTEX
  8
LAYER_1
 62
     1
 10
-2.4279
 20
229.7453
  0
VERTEX
  8
LAYER_1
 62
     1
 10
-2.4279
 20
256.6694
  0
SEQEND
  8
LAYER_1
 62
     1
  0
POLYLINE
  8
LAYER_1
 62
     1
 66
     1
  0
VERTEX
  8
LAYER_1
 62
     1
 10
3.7953
 20
229.7453
  0
VERTEX
  8
LAYER_1
 62
     1
 10
3.7953
 20
256.6505
  0
SEQEND
  8
LAYER_1
 62
     1
  0
POLYLINE
  8
LAYER_1
 62
     1
 66
     1
  0
VERTEX
  8
LAYER_1
 62
     1
 10
50.0222
 20
175.7991
  0
VERTEX
  8
LAYER_1
 62
     1
 10
47.3233
 20
176.4974
  0
VERTEX
  8
LAYER_1
 62
     1
 10
43.3862
 20
177.5767
  0
VERTEX
  8
LAYER_1
 62
     1
 10
39.4492
 20
178.5931
  0
VERTEX
  8
LAYER_1
 62
     1
 10
35.4487
 20
179.5453
  0
VERTEX
  8
LAYER_1
 62
     1
 10
31.3845
 20
180.3707
  0
VERTEX
  8
LAYER_1
 62
     1
 10
27.3841
 20
181.0694
  0
VERTEX
  8
LAYER_1
 62
     1
 10
23.3202
 20
181.7043
  0
VERTEX
  8
LAYER_1
 62
     1
 10
19.2561
 20
182.2758
  0
VERTEX
  8
LAYER_1
 62
     1
 10
15.1922
 20
182.7203
  0
VERTEX
  8
LAYER_1
 62
     1
 10
11.1281
 20
183.0379
  0
VERTEX
  8
LAYER_1
 62
     1
 10
7.0005
 20
183.2918
  0
VERTEX
  8
LAYER_1
 62
     1
 10
2.9367
 20
183.4823
  0
VERTEX
  8
LAYER_1
 62
     1
 10
0.0395
 20
183.5268
  0
SEQEND
  8
LAYER_1
 62
     1
  0
POLYLINE
  8
LAYER_1
 62
     1
 66
     1
  0
VERTEX
  8
LAYER_1
 62
     1
 10
106.2826
 20
146.2215
  0
VERTEX
  8
LAYER_1
 62
     1
 10
104.3465
 20
147.7319
  0
VERTEX
  8
LAYER_1
 62
     1
 10
101.1715
 20
150.1448
  0
VERTEX
  8
LAYER_1
 62
     1
 10
97.869
 20
152.431
  0
VERTEX
  8
LAYER_1
 62
     1
 10
94.5672
 20
154.7168
  0
VERTEX
  8
LAYER_1
 62
     1
 10
91.2021
 20
156.8758
  0
VERTEX
  8
LAYER_1
 62
     1
 10
87.7728
 20
158.9712
  0
VERTEX
  8
LAYER_1
 62
     1
 10
84.2802
 20
161.0034
  0
VERTEX
  8
LAYER_1
 62
     1
 10
80.7876
 20
162.9716
  0
VERTEX
  8
LAYER_1
 62
     1
 10
77.1681
 20
164.8133
  0
VERTEX
  8
LAYER_1
 62
     1
 10
73.6121
 20
166.5913
  0
VERTEX
  8
LAYER_1
 62
     1
 10
69.9293
 20
168.306
  0
VERTEX
  8
LAYER_1
 62
     1
 10
66.2465
 20
169.8935
  0
VERTEX
  8
LAYER_1
 62
     1
 10
62.563
 20
171.4176
  0
VERTEX
  8
LAYER_1
 62
     1
 10
58.8168
 20
172.8776
  0
VERTEX
  8
LAYER_1
 62
     1
 10
56.2447
 20
173.7782
  0
SEQEND
  8
LAYER_1
 62
     1
  0
POLYLINE
  8
LAYER_1
 62
     1
 66
     1
  0
VERTEX
  8
LAYER_1
 62
     1
 10
123.2056
 20
130.9681
  0
VERTEX
  8
LAYER_1
 62
     1
 10
120.2849
 20
133.8888
  0
VERTEX
  8
LAYER_1
 62
     1
 10
117.3641
 20
136.6828
  0
VERTEX
  8
LAYER_1
 62
     1
 10
114.3159
 20
139.4767
  0
VERTEX
  8
LAYER_1
 62
     1
 10
112.5058
 20
141.1028
  0
SEQEND
  8
LAYER_1
 62
     1
  0
POLYLINE
  8
LAYER_1
 62
     1
 66
     1
  0
VERTEX
  8
LAYER_1
 62
     1
 10
-129.3338
 20
130.9681
  0
VERTEX
  8
LAYER_1
 62
     1
 10
123.2056
 20
130.9681
  0
SEQEND
  8
LAYER_1
 62
     1
  0
POLYLINE
  8
LAYER_1
 62
     1
 66
     1
  0
VERTEX
  8
LAYER_1
 62
     1
 10
-118.634
 20
141.0601
  0
VERTEX
  8
LAYER_1
 62
     1
 10
-120.4441
 20
139.4767
  0
VERTEX
  8
LAYER_1
 62
     1
 10
-123.4916
 20
136.6828
  0
VERTEX
  8
LAYER_1
 62
     1
 10
-126.4131
 20
133.8888
  0
VERTEX
  8
LAYER_1
 62
     1
 10
-129.3338
 20
130.9681
  0
SEQEND
  8
LAYER_1
 62
     1
  0
POLYLINE
  8
LAYER_1
 62
     1
 66
     1
  0
VERTEX
  8
LAYER_1
 62
     1
 10
-62.373
 20
173.7782
  0
VERTEX
  8
LAYER_1
 62
     1
 10
-64.9448
 20
172.8776
  0
VERTEX
  8
LAYER_1
 62
     1
 10
-68.6914
 20
171.4176
  0
VERTEX
  8
LAYER_1
 62
     1
 10
-72.3745
 20
169.8935
  0
VERTEX
  8
LAYER_1
 62
     1
 10
-76.0573
 20
168.306
  0
VERTEX
  8
LAYER_1
 62
     1
 10
-79.7401
 20
166.5913
  0
VERTEX
  8
LAYER_1
 62
     1
 10
-83.3599
 20
164.8133
  0
VERTEX
  8
LAYER_1
 62
     1
 10
-86.9159
 20
162.9716
  0
VERTEX
  8
LAYER_1
 62
     1
 10
-90.4082
 20
161.0034
  0
VERTEX
  8
LAYER_1
 62
     1
 10
-93.9008
 20
158.9712
  0
VERTEX
  8
LAYER_1
 62
     1
 10
-97.3303
 20
156.8758
  0
VERTEX
  8
LAYER_1
 62
     1
 10
-100.6954
 20
154.7168
  0
VERTEX
  8
LAYER_1
 62
     1
 10
-103.9972
 20
152.431
  0
VERTEX
  8
LAYER_1
 62
     1
 10
-107.2997
 20
150.1448
  0
VERTEX
  8
LAYER_1
 62
     1
 10
-110.4747
 20
147.7319
  0
VERTEX
  8
LAYER_1
 62
     1
 10
-112.4115
 20
146.2209
  0
SEQEND
  8
LAYER_1
 62
     1
  0
POLYLINE
  8
LAYER_1
 62
     1
 66
     1
  0
VERTEX
  8
LAYER_1
 62
     1
 10
-6.1756
 20
183.5457
  0
VERTEX
  8
LAYER_1
 62
     1
 10
-9.0647
 20
183.4823
  0
VERTEX
  8
LAYER_1
 62
     1
 10
-13.1289
 20
183.2918
  0
VERTEX
  8
LAYER_1
 62
     1
 10
-17.2564
 20
183.0379
  0
VERTEX
  8
LAYER_1
 62
     1
 10
-21.3203
 20
182.7203
  0
VERTEX
  8
LAYER_1
 62
     1
 10
-25.3841
 20
182.2758
  0
VERTEX
  8
LAYER_1
 62
     1
 10
-29.4483
 20
181.7043
  0
VERTEX
  8
LAYER_1
 62
     1
 10
-33.5124
 20
181.0694
  0
VERTEX
  8
LAYER_1
 62
     1
 10
-37.5129
 20
180.3707
  0
VERTEX
  8
LAYER_1
 62
     1
 10
-41.5767
 20
179.5453
  0
VERTEX
  8
LAYER_1
 62
     1
 10
-45.5772
 20
178.5931
  0
VERTEX
  8
LAYER_1
 62
     1
 10
-49.5142
 20
177.5767
  0
VERTEX
  8
LAYER_1
 62
     1
 10
-53.4513
 20
176.4974
  0
VERTEX
  8
LAYER_1
 62
     1
 10
-56.1502
 20
175.6702
  0
SEQEND
  8
LAYER_1
 62
     1
  0
POLYLINE
  8
LAYER_1
 62
     1
 66
     1
  0
VERTEX
  8
LAYER_1
 62
     1
 10
-6.1756
 20
156.6216
  0
VERTEX
  8
LAYER_1
 62
     1
 10
0.0476
 20
156.6216
  0
SEQEND
  8
LAYER_1
 62
     1
  0
POLYLINE
  8
LAYER_1
 62
     1
 66
     1
  0
VERTEX
  8
LAYER_1
 62
     1
 10
-6.1756
 20
156.6216
  0
VERTEX
  8
LAYER_1
 62
     1
 10
-6.1756
 20
183.5457
  0
SEQEND
  8
LAYER_1
 62
     1
  0
POLYLINE
  8
LAYER_1
 62
     1
 66
     1
  0
VERTEX
  8
LAYER_1
 62
     1
 10
0.0476
 20
156.6216
  0
VERTEX
  8
LAYER_1
 62
     1
 10
0.0476
 20
183.5268
  0
SEQEND
  8
LAYER_1
 62
     1
  0
POLYLINE
  8
LAYER_1
 62
     1
 66
     1
  0
VERTEX
  8
LAYER_1
 62
     1
 10
50.0222
 20
152.2401
  0
VERTEX
  8
LAYER_1
 62
     1
 10
56.2447
 20
152.2401
  0
SEQEND
  8
LAYER_1
 62
     1
  0
POLYLINE
  8
LAYER_1
 62
     1
 66
     1
  0
VERTEX
  8
LAYER_1
 62
     1
 10
50.0222
 20
152.2401
  0
VERTEX
  8
LAYER_1
 62
     1
 10
50.0222
 20
175.7991
  0
SEQEND
  8
LAYER_1
 62
     1
  0
POLYLINE
  8
LAYER_1
 62
     1
 66
     1
  0
VERTEX
  8
LAYER_1
 62
     1
 10
56.2447
 20
152.2401
  0
VERTEX
  8
LAYER_1
 62
     1
 10
56.2447
 20
173.7782
  0
SEQEND
  8
LAYER_1
 62
     1
  0
POLYLINE
  8
LAYER_1
 62
     1
 66
     1
  0
VERTEX
  8
LAYER_1
 62
     1
 10
106.2826
 20
135.9841
  0
VERTEX
  8
LAYER_1
 62
     1
 10
112.5058
 20
135.9841
  0
SEQEND
  8
LAYER_1
 62
     1
  0
POLYLINE
  8
LAYER_1
 62
     1
 66
     1
  0
VERTEX
  8
LAYER_1
 62
     1
 10
106.2826
 20
135.9841
  0
VERTEX
  8
LAYER_1
 62
     1
 10
106.2826
 20
146.2215
  0
SEQEND
  8
LAYER_1
 62
     1
  0
POLYLINE
  8
LAYER_1
 62
     1
 66
     1
  0
VERTEX
  8
LAYER_1
 62
     1
 10
112.5058
 20
135.9841
  0
VERTEX
  8
LAYER_1
 62
     1
 10
112.5058
 20
141.1028
  0
SEQEND
  8
LAYER_1
 62
     1
  0
POLYLINE
  8
LAYER_1
 62
     1
 66
     1
  0
VERTEX
  8
LAYER_1
 62
     1
 10
-118.634
 20
135.9841
  0
VERTEX
  8
LAYER_1
 62
     1
 10
-112.4115
 20
135.9841
  0
SEQEND
  8
LAYER_1
 62
     1
  0
POLYLINE
  8
LAYER_1
 62
     1
 66
     1
  0
VERTEX
  8
LAYER_1
 62
     1
 10
-118.634
 20
135.9841
  0
VERTEX
  8
LAYER_1
 62
     1
 10
-118.634
 20
141.0601
  0
SEQEND
  8
LAYER_1
 62
     1
  0
POLYLINE
  8
LAYER_1
 62
     1
 66
     1
  0
VERTEX
  8
LAYER_1
 62
     1
 10
-112.4115
 20
135.9841
  0
VERTEX
  8
LAYER_1
 62
     1
 10
-112.4115
 20
146.2209
  0
SEQEND
  8
LAYER_1
 62
     1
  0
POLYLINE
  8
LAYER_1
 62
     1
 66
     1
  0
VERTEX
  8
LAYER_1
 62
     1
 10
-62.373
 20
152.2401
  0
VERTEX
  8
LAYER_1
 62
     1
 10
-56.1502
 20
152.2401
  0
SEQEND
  8
LAYER_1
 62
     1
  0
POLYLINE
  8
LAYER_1
 62
     1
 66
     1
  0
VERTEX
  8
LAYER_1
 62
     1
 10
-62.373
 20
152.2401
  0
VERTEX
  8
LAYER_1
 62
     1
 10
-62.373
 20
173.7782
  0
SEQEND
  8
LAYER_1
 62
     1
  0
POLYLINE
  8
LAYER_1
 62
     1
 66
     1
  0
VERTEX
  8
LAYER_1
 62
     1
 10
-56.1502
 20
152.2401
  0
VERTEX
  8
LAYER_1
 62
     1
 10
-56.1502
 20
175.6702
  0
SEQEND
  8
LAYER_1
 62
     1
  0
POLYLINE
  8
_LAYER_1
 62
     1
 66
     1
  0
VERTEX
  8
_LAYER_1
 62
     1
 10
125.793
 20
-13.5898
  0
VERTEX
  8
_LAYER_1
 62
     1
 10
123.7928
 20
-12.0209
  0
VERTEX
  8
_LAYER_1
 62
     1
 10
120.5544
 20
-9.5445
  0
VERTEX
  8
_LAYER_1
 62
     1
 10
117.1886
 20
-7.1316
  0
VERTEX
  8
_LAYER_1
 62
     1
 10
113.76
 20
-4.8454
  0
VERTEX
  8
_LAYER_1
 62
     1
 10
110.3308
 20
-2.6234
  0
VERTEX
  8
_LAYER_1
 62
     1
 10
106.7747
 20
-0.464
  0
VERTEX
  8
_LAYER_1
 62
     1
 10
103.2187
 20
1.568
  0
VERTEX
  8
_LAYER_1
 62
     1
 10
99.5993
 20
3.5999
  0
VERTEX
  8
_LAYER_1
 62
     1
 10
95.9795
 20
5.4416
  0
VERTEX
  8
_LAYER_1
 62
     1
 10
92.2333
 20
7.2827
  0
VERTEX
  8
_LAYER_1
 62
     1
 10
88.4864
 20
8.9976
  0
VERTEX
  8
_LAYER_1
 62
     1
 10
84.7402
 20
10.5851
  0
VERTEX
  8
_LAYER_1
 62
     1
 10
80.9299
 20
12.1726
  0
VERTEX
  8
_LAYER_1
 62
     1
 10
77.057
 20
13.5693
  0
VERTEX
  8
_LAYER_1
 62
     1
 10
73.1833
 20
14.9666
  0
VERTEX
  8
_LAYER_1
 62
     1
 10
69.2463
 20
16.1731
  0
VERTEX
  8
_LAYER_1
 62
     1
 10
65.3092
 20
17.3796
  0
VERTEX
  8
_LAYER_1
 62
     1
 10
61.3088
 20
18.4586
  0
VERTEX
  8
_LAYER_1
 62
     1
 10
57.3083
 20
19.4115
  0
VERTEX
  8
_LAYER_1
 62
     1
 10
53.3079
 20
20.3003
  0
VERTEX
  8
_LAYER_1
 62
     1
 10
49.2433
 20
21.0624
  0
VERTEX
  8
_LAYER_1
 62
     1
 10
45.1795
 20
21.761
  0
VERTEX
  8
_LAYER_1
 62
     1
 10
41.1153
 20
22.3956
  0
VERTEX
  8
_LAYER_1
 62
     1
 10
37.0515
 20
22.9041
  0
VERTEX
  8
_LAYER_1
 62
     1
 10
32.9239
 20
23.2851
  0
VERTEX
  8
_LAYER_1
 62
     1
 10
28.7964
 20
23.6021
  0
VERTEX
  8
_LAYER_1
 62
     1
 10
24.7325
 20
23.793
  0
VERTEX
  8
_LAYER_1
 62
     1
 10
20.6049
 20
23.9197
  0
VERTEX
  8
_LAYER_1
 62
     1
 10
16.4774
 20
23.9197
  0
SEQEND
  8
_LAYER_1
 62
     1
  0
POLYLINE
  8
_LAYER_1
 62
     1
 66
     1
  0
VERTEX
  8
_LAYER_1
 62
     1
 10
142.7153
 20
-28.5945
  0
VERTEX
  8
_LAYER_1
 62
     1
 10
139.858
 20
-25.6738
  0
VERTEX
  8
_LAYER_1
 62
     1
 10
136.8738
 20
-22.8798
  0
VERTEX
  8
_LAYER_1
 62
     1
 10
133.889
 20
-20.0859
  0
VERTEX
  8
_LAYER_1
 62
     1
 10
132.0156
 20
-18.5838
  0
SEQEND
  8
_LAYER_1
 62
     1
  0
POLYLINE
  8
_LAYER_1
 62
     1
 66
     1
  0
VERTEX
  8
_LAYER_1
 62
     1
 10
75.7933
 20
-28.5945
  0
VERTEX
  8
_LAYER_1
 62
     1
 10
142.7153
 20
-28.5945
  0
SEQEND
  8
_LAYER_1
 62
     1
  0
POLYLINE
  8
_LAYER_1
 62
     1
 66
     1
  0
VERTEX
  8
_LAYER_1
 62
     1
 10
-109.7606
 20
-28.5945
  0
VERTEX
  8
_LAYER_1
 62
     1
 10
-42.8881
 20
-28.5945
  0
VERTEX
  8
_LAYER_1
 62
     1
 10
-42.8881
 20
-7.2494
  0
VERTEX
  8
_LAYER_1
 62
     1
 10
-36.6653
 20
-7.2494
  0
VERTEX
  8
_LAYER_1
 62
     1
 10
-36.6653
 20
-28.5945
  0
VERTEX
  8
_LAYER_1
 62
     1
 10
13.3658
 20
-28.5945
  0
VERTEX
  8
_LAYER_1
 62
     1
 10
13.3658
 20
-2.9403
  0
VERTEX
  8
_LAYER_1
 62
     1
 10
19.589
 20
-2.9403
  0
VERTEX
  8
_LAYER_1
 62
     1
 10
19.589
 20
-28.5945
  0
VERTEX
  8
_LAYER_1
 62
     1
 10
69.5704
 20
-28.5945
  0
SEQEND
  8
_LAYER_1
 62
     1
  0
POLYLINE
  8
_LAYER_1
 62
     1
 66
     1
  0
VERTEX
  8
_LAYER_1
 62
     1
 10
-99.0925
 20
-18.4742
  0
VERTEX
  8
_LAYER_1
 62
     1
 10
-100.9339
 20
-20.0859
  0
VERTEX
  8
_LAYER_1
 62
     1
 10
-103.9184
 20
-22.8798
  0
VERTEX
  8
_LAYER_1
 62
     1
 10
-106.9028
 20
-25.6738
  0
VERTEX
  8
_LAYER_1
 62
     1
 10
-109.7606
 20
-28.5945
  0
SEQEND
  8
_LAYER_1
 62
     1
  0
POLYLINE
  8
_LAYER_1
 62
     1
 66
     1
  0
VERTEX
  8
_LAYER_1
 62
     1
 10
16.4774
 20
23.9197
  0
VERTEX
  8
_LAYER_1
 62
     1
 10
12.3502
 20
23.9197
  0
VERTEX
  8
_LAYER_1
 62
     1
 10
8.2226
 20
23.793
  0
VERTEX
  8
_LAYER_1
 62
     1
 10
4.1584
 20
23.6021
  0
VERTEX
  8
_LAYER_1
 62
     1
 10
0.0312
 20
23.2851
  0
VERTEX
  8
_LAYER_1
 62
     1
 10
-4.0964
 20
22.9041
  0
VERTEX
  8
_LAYER_1
 62
     1
 10
-8.1606
 20
22.3956
  0
VERTEX
  8
_LAYER_1
 62
     1
 10
-12.2244
 20
21.761
  0
VERTEX
  8
_LAYER_1
 62
     1
 10
-16.2886
 20
21.0624
  0
VERTEX
  8
_LAYER_1
 62
     1
 10
-20.3524
 20
20.3003
  0
VERTEX
  8
_LAYER_1
 62
     1
 10
-24.3528
 20
19.4115
  0
VERTEX
  8
_LAYER_1
 62
     1
 10
-28.3533
 20
18.4586
  0
VERTEX
  8
_LAYER_1
 62
     1
 10
-32.3541
 20
17.3796
  0
VERTEX
  8
_LAYER_1
 62
     1
 10
-36.2908
 20
16.1731
  0
VERTEX
  8
_LAYER_1
 62
     1
 10
-40.2278
 20
14.9666
  0
VERTEX
  8
_LAYER_1
 62
     1
 10
-44.1015
 20
13.5693
  0
VERTEX
  8
_LAYER_1
 62
     1
 10
-47.9748
 20
12.1726
  0
VERTEX
  8
_LAYER_1
 62
     1
 10
-51.7848
 20
10.5851
  0
VERTEX
  8
_LAYER_1
 62
     1
 10
-55.5313
 20
8.9976
  0
VERTEX
  8
_LAYER_1
 62
     1
 10
-59.2778
 20
7.2827
  0
VERTEX
  8
_LAYER_1
 62
     1
 10
-63.0244
 20
5.4416
  0
VERTEX
  8
_LAYER_1
 62
     1
 10
-66.6438
 20
3.5999
  0
VERTEX
  8
_LAYER_1
 62
     1
 10
-70.2636
 20
1.568
  0
VERTEX
  8
_LAYER_1
 62
     1
 10
-73.8192
 20
-0.464
  0
VERTEX
  8
_LAYER_1
 62
     1
 10
-77.3753
 20
-2.6234
  0
VERTEX
  8
_LAYER_1
 62
     1
 10
-80.8045
 20
-4.8454
  0
VERTEX
  8
_LAYER_1
 62
     1
 10
-84.2334
 20
-7.1316
  0
VERTEX
  8
_LAYER_1
 62
     1
 10
-87.5989
 20
-9.5445
  0
VERTEX
  8
_LAYER_1
 62
     1
 10
-90.9011
 20
-12.0209
  0
VERTEX
  8
_LAYER_1
 62
     1
 10
-92.8692
 20
-13.596
  0
SEQEND
  8
_LAYER_1
 62
     1
  0
POLYLINE
  8
_LAYER_1
 62
     1
 66
     1
  0
VERTEX
  8
_LAYER_1
 62
     1
 10
132.0156
 20
-23.5778
  0
VERTEX
  8
_LAYER_1
 62
     1
 10
125.793
 20
-23.5778
  0
SEQEND
  8
_LAYER_1
 62
     1
  0
POLYLINE
  8
_LAYER_1
 62
     1
 66
     1
  0
VERTEX
  8
_LAYER_1
 62
     1
 10
125.793
 20
-23.5778
  0
VERTEX
  8
_LAYER_1
 62
     1
 10
125.793
 20
-13.5898
  0
SEQEND
  8
_LAYER_1
 62
     1
  0
POLYLINE
  8
_LAYER_1
 62
     1
 66
     1
  0
VERTEX
  8
_LAYER_1
 62
     1
 10
132.0156
 20
-23.5778
  0
VERTEX
  8
_LAYER_1
 62
     1
 10
132.0156
 20
-18.5838
  0
SEQEND
  8
_LAYER_1
 62
     1
  0
POLYLINE
  8
_LAYER_1
 62
     1
 66
     1
  0
VERTEX
  8
_LAYER_1
 62
     1
 10
-99.0925
 20
-23.5778
  0
VERTEX
  8
_LAYER_1
 62
     1
 10
-92.8692
 20
-23.5778
  0
SEQEND
  8
_LAYER_1
 62
     1
  0
POLYLINE
  8
_LAYER_1
 62
     1
 66
     1
  0
VERTEX
  8
_LAYER_1
 62
     1
 10
-99.0925
 20
-23.5778
  0
VERTEX
  8
_LAYER_1
 62
     1
 10
-99.0925
 20
-18.4742
  0
SEQEND
  8
_LAYER_1
 62
     1
  0
POLYLINE
  8
_LAYER_1
 62
     1
 66
     1
  0
VERTEX
  8
_LAYER_1
 62
     1
 10
-92.8692
 20
-23.5778
  0
VERTEX
  8
_LAYER_1
 62
     1
 10
-92.8692
 20
-13.596
  0
SEQEND
  8
_LAYER_1
 62
     1
  0
POLYLINE
  8
_LAYER_1
 62
     1
 66
     1
  0
VERTEX
  8
_LAYER_1
 62
     1
 10
69.5704
 20
-7.3183
  0
VERTEX
  8
_LAYER_1
 62
     1
 10
75.7933
 20
-7.3183
  0
SEQEND
  8
_LAYER_1
 62
     1
  0
POLYLINE
  8
_LAYER_1
 62
     1
 66
     1
  0
VERTEX
  8
_LAYER_1
 62
     1
 10
69.5704
 20
-7.3183
  0
VERTEX
  8
_LAYER_1
 62
     1
 10
69.5704
 20
-28.5945
  0
SEQEND
  8
_LAYER_1
 62
     1
  0
POLYLINE
  8
_LAYER_1
 62
     1
 66
     1
  0
VERTEX
  8
_LAYER_1
 62
     1
 10
75.7933
 20
-7.3183
  0
VERTEX
  8
_LAYER_1
 62
     1
 10
75.7933
 20
-28.5945
  0
SEQEND
  8
_LAYER_1
 62
     1
  0
POLYLINE
  8
_LAYER_1
 62
     1
 66
     1
  0
VERTEX
  8
_LAYER_1
 62
     1
 10
125.793
 20
-98.2564
  0
VERTEX
  8
_LAYER_1
 62
     1
 10
123.7928
 20
-96.6876
  0
VERTEX
  8
_LAYER_1
 62
     1
 10
120.5544
 20
-94.2112
  0
VERTEX
  8
_LAYER_1
 62
     1
 10
117.1886
 20
-91.7983
  0
VERTEX
  8
_LAYER_1
 62
     1
 10
113.76
 20
-89.5121
  0
VERTEX
  8
_LAYER_1
 62
     1
 10
110.3308
 20
-87.29
  0
VERTEX
  8
_LAYER_1
 62
     1
 10
106.7747
 20
-85.1306
  0
VERTEX
  8
_LAYER_1
 62
     1
 10
103.2187
 20
-83.0987
  0
VERTEX
  8
_LAYER_1
 62
     1
 10
99.5993
 20
-81.0668
  0
VERTEX
  8
_LAYER_1
 62
     1
 10
95.9795
 20
-79.2251
  0
VERTEX
  8
_LAYER_1
 62
     1
 10
92.2333
 20
-77.384
  0
VERTEX
  8
_LAYER_1
 62
     1
 10
88.4864
 20
-75.669
  0
VERTEX
  8
_LAYER_1
 62
     1
 10
84.7402
 20
-74.0815
  0
VERTEX
  8
_LAYER_1
 62
     1
 10
80.9299
 20
-72.494
  0
VERTEX
  8
_LAYER_1
 62
     1
 10
77.057
 20
-71.0974
  0
VERTEX
  8
_LAYER_1
 62
     1
 10
73.1833
 20
-69.7001
  0
VERTEX
  8
_LAYER_1
 62
     1
 10
69.2463
 20
-68.4936
  0
VERTEX
  8
_LAYER_1
 62
     1
 10
65.3092
 20
-67.2871
  0
VERTEX
  8
_LAYER_1
 62
     1
 10
61.3088
 20
-66.2081
  0
VERTEX
  8
_LAYER_1
 62
     1
 10
57.3083
 20
-65.2552
  0
VERTEX
  8
_LAYER_1
 62
     1
 10
53.3079
 20
-64.3663
  0
VERTEX
  8
_LAYER_1
 62
     1
 10
49.2433
 20
-63.6043
  0
VERTEX
  8
_LAYER_1
 62
     1
 10
45.1795
 20
-62.9056
  0
VERTEX
  8
_LAYER_1
 62
     1
 10
41.1153
 20
-62.2711
  0
VERTEX
  8
_LAYER_1
 62
     1
 10
37.0515
 20
-61.7626
  0
VERTEX
  8
_LAYER_1
 62
     1
 10
32.9239
 20
-61.3815
  0
VERTEX
  8
_LAYER_1
 62
     1
 10
28.7964
 20
-61.0646
  0
VERTEX
  8
_LAYER_1
 62
     1
 10
24.7325
 20
-60.8737
  0
VERTEX
  8
_LAYER_1
 62
     1
 10
20.6049
 20
-60.747
  0
VERTEX
  8
_LAYER_1
 62
     1
 10
16.4774
 20
-60.747
  0
SEQEND
  8
_LAYER_1
 62
     1
  0
POLYLINE
  8
_LAYER_1
 62
     1
 66
     1
  0
VERTEX
  8
_LAYER_1
 62
     1
 10
142.7153
 20
-113.2612
  0
VERTEX
  8
_LAYER_1
 62
     1
 10
139.858
 20
-110.3405
  0
VERTEX
  8
_LAYER_1
 62
     1
 10
136.8738
 20
-107.5465
  0
VERTEX
  8
_LAYER_1
 62
     1
 10
133.889
 20
-104.7525
  0
VERTEX
  8
_LAYER_1
 62
     1
 10
132.0156
 20
-103.2505
  0
SEQEND
  8
_LAYER_1
 62
     1
  0
POLYLINE
  8
_LAYER_1
 62
     1
 66
     1
  0
VERTEX
  8
_LAYER_1
 62
     1
 10
75.7933
 20
-113.2612
  0
VERTEX
  8
_LAYER_1
 62
     1
 10
142.7153
 20
-113.2612
  0
SEQEND
  8
_LAYER_1
 62
     1
  0
POLYLINE
  8
_LAYER_1
 62
     1
 66
     1
  0
VERTEX
  8
_LAYER_1
 62
     1
 10
-109.7606
 20
-113.2612
  0
VERTEX
  8
_LAYER_1
 62
     1
 10
-42.8881
 20
-113.2612
  0
VERTEX
  8
_LAYER_1
 62
     1
 10
-42.8881
 20
-91.9161
  0
VERTEX
  8
_LAYER_1
 62
     1
 10
-36.6653
 20
-91.9161
  0
VERTEX
  8
_LAYER_1
 62
     1
 10
-36.6653
 20
-113.2612
  0
VERTEX
  8
_LAYER_1
 62
     1
 10
13.3658
 20
-113.2612
  0
VERTEX
  8
_LAYER_1
 62
     1
 10
13.3658
 20
-87.607
  0
VERTEX
  8
_LAYER_1
 62
     1
 10
19.589
 20
-87.607
  0
VERTEX
  8
_LAYER_1
 62
     1
 10
19.589
 20
-113.2612
  0
VERTEX
  8
_LAYER_1
 62
     1
 10
69.5704
 20
-113.2612
  0
SEQEND
  8
_LAYER_1
 62
     1
  0
POLYLINE
  8
_LAYER_1
 62
     1
 66
     1
  0
VERTEX
  8
_LAYER_1
 62
     1
 10
-99.0925
 20
-103.1409
  0
VERTEX
  8
_LAYER_1
 62
     1
 10
-100.9339
 20
-104.7525
  0
VERTEX
  8
_LAYER_1
 62
     1
 10
-103.9184
 20
-107.5465
  0
VERTEX
  8
_LAYER_1
 62
     1
 10
-106.9028
 20
-110.3405
  0
VERTEX
  8
_LAYER_1
 62
     1
 10
-109.7606
 20
-113.2612
  0
SEQEND
  8
_LAYER_1
 62
     1
  0
POLYLINE
  8
_LAYER_1
 62
     1
 66
     1
  0
VERTEX
  8
_LAYER_1
 62
     1
 10
16.4774
 20
-60.747
  0
VERTEX
  8
_LAYER_1
 62
     1
 10
12.3502
 20
-60.747
  0
VERTEX
  8
_LAYER_1
 62
     1
 10
8.2226
 20
-60.8737
  0
VERTEX
  8
_LAYER_1
 62
     1
 10
4.1584
 20
-61.0646
  0
VERTEX
  8
_LAYER_1
 62
     1
 10
0.0312
 20
-61.3815
  0
VERTEX
  8
_LAYER_1
 62
     1
 10
-4.0964
 20
-61.7626
  0
VERTEX
  8
_LAYER_1
 62
     1
 10
-8.1606
 20
-62.2711
  0
VERTEX
  8
_LAYER_1
 62
     1
 10
-12.2244
 20
-62.9056
  0
VERTEX
  8
_LAYER_1
 62
     1
 10
-16.2886
 20
-63.6043
  0
VERTEX
  8
_LAYER_1
 62
     1
 10
-20.3524
 20
-64.3663
  0
VERTEX
  8
_LAYER_1
 62
     1
 10
-24.3528
 20
-65.2552
  0
VERTEX
  8
_LAYER_1
 62
     1
 10
-28.3533
 20
-66.2081
  0
VERTEX
  8
_LAYER_1
 62
     1
 10
-32.3541
 20
-67.2871
  0
VERTEX
  8
_LAYER_1
 62
     1
 10
-36.2908
 20
-68.4936
  0
VERTEX
  8
_LAYER_1
 62
     1
 10
-40.2278
 20
-69.7001
  0
VERTEX
  8
_LAYER_1
 62
     1
 10
-44.1015
 20
-71.0974
  0
VERTEX
  8
_LAYER_1
 62
     1
 10
-47.9748
 20
-72.494
  0
VERTEX
  8
_LAYER_1
 62
     1
 10
-51.7848
 20
-74.0815
  0
VERTEX
  8
_LAYER_1
 62
     1
 10
-55.5313
 20
-75.669
  0
VERTEX
  8
_LAYER_1
 62
     1
 10
-59.2778
 20
-77.384
  0
VERTEX
  8
_LAYER_1
 62
     1
 10
-63.0244
 20
-79.2251
  0
VERTEX
  8
_LAYER_1
 62
     1
 10
-66.6438
 20
-81.0668
  0
VERTEX
  8
_LAYER_1
 62
     1
 10
-70.2636
 20
-83.0987
  0
VERTEX
  8
_LAYER_1
 62
     1
 10
-73.8192
 20
-85.1306
  0
VERTEX
  8
_LAYER_1
 62
     1
 10
-77.3753
 20
-87.29
  0
VERTEX
  8
_LAYER_1
 62
     1
 10
-80.8045
 20
-89.5121
  0
VERTEX
  8
_LAYER_1
 62
     1
 10
-84.2334
 20
-91.7983
  0
VERTEX
  8
_LAYER_1
 62
     1
 10
-87.5989
 20
-94.2112
  0
VERTEX
  8
_LAYER_1
 62
     1
 10
-90.9011
 20
-96.6876
  0
VERTEX
  8
_LAYER_1
 62
     1
 10
-92.8692
 20
-98.2626
  0
SEQEND
  8
_LAYER_1
 62
     1
  0
POLYLINE
  8
_LAYER_1
 62
     1
 66
     1
  0
VERTEX
  8
_LAYER_1
 62
     1
 10
132.0156
 20
-108.2445
  0
VERTEX
  8
_LAYER_1
 62
     1
 10
125.793
 20
-108.2445
  0
SEQEND
  8
_LAYER_1
 62
     1
  0
POLYLINE
  8
_LAYER_1
 62
     1
 66
     1
  0
VERTEX
  8
_LAYER_1
 62
     1
 10
125.793
 20
-108.2445
  0
VERTEX
  8
_LAYER_1
 62
     1
 10
125.793
 20
-98.2564
  0
SEQEND
  8
_LAYER_1
 62
     1
  0
POLYLINE
  8
_LAYER_1
 62
     1
 66
     1
  0
VERTEX
  8
_LAYER_1
 62
     1
 10
132.0156
 20
-108.2445
  0
VERTEX
  8
_LAYER_1
 62
     1
 10
132.0156
 20
-103.2505
  0
SEQEND
  8
_LAYER_1
 62
     1
  0
POLYLINE
  8
_LAYER_1
 62
     1
 66
     1
  0
VERTEX
  8
_LAYER_1
 62
     1
 10
-99.0925
 20
-108.2445
  0
VERTEX
  8
_LAYER_1
 62
     1
 10
-92.8692
 20
-108.2445
  0
SEQEND
  8
_LAYER_1
 62
     1
  0
POLYLINE
  8
_LAYER_1
 62
     1
 66
     1
  0
VERTEX
  8
_LAYER_1
 62
     1
 10
-99.0925
 20
-108.2445
  0
VERTEX
  8
_LAYER_1
 62
     1
 10
-99.0925
 20
-103.1409
  0
SEQEND
  8
_LAYER_1
 62
     1
  0
POLYLINE
  8
_LAYER_1
 62
     1
 66
     1
  0
VERTEX
  8
_LAYER_1
 62
     1
 10
-92.8692
 20
-108.2445
  0
VERTEX
  8
_LAYER_1
 62
     1
 10
-92.8692
 20
-98.2626
  0
SEQEND
  8
_LAYER_1
 62
     1
  0
POLYLINE
  8
_LAYER_1
 62
     1
 66
     1
  0
VERTEX
  8
_LAYER_1
 62
     1
 10
69.5704
 20
-91.985
  0
VERTEX
  8
_LAYER_1
 62
     1
 10
75.7933
 20
-91.985
  0
SEQEND
  8
_LAYER_1
 62
     1
  0
POLYLINE
  8
_LAYER_1
 62
     1
 66
     1
  0
VERTEX
  8
_LAYER_1
 62
     1
 10
69.5704
 20
-91.985
  0
VERTEX
  8
_LAYER_1
 62
     1
 10
69.5704
 20
-113.2612
  0
SEQEND
  8
_LAYER_1
 62
     1
  0
POLYLINE
  8
_LAYER_1
 62
     1
 66
     1
  0
VERTEX
  8
_LAYER_1
 62
     1
 10
75.7933
 20
-91.985
  0
VERTEX
  8
_LAYER_1
 62
     1
 10
75.7933
 20
-113.2612
  0
SEQEND
  8
_LAYER_1
 62
     1
  0
POLYLINE
  8
_LAYER_1
 62
     1
 66
     1
  0
VERTEX
  8
_LAYER_1
 62
     1
 10
141.0179
 20
-218.1868
  0
VERTEX
  8
_LAYER_1
 62
     1
 10
132.372
 20
-211.8394
  0
VERTEX
  8
_LAYER_1
 62
     1
 10
123.2651
 20
-206.285
  0
VERTEX
  8
_LAYER_1
 62
     1
 10
113.7523
 20
-201.5428
  0
VERTEX
  8
_LAYER_1
 62
     1
 10
103.8885
 20
-197.632
  0
VERTEX
  8
_LAYER_1
 62
     1
 10
93.7286
 20
-194.5716
  0
VERTEX
  8
_LAYER_1
 62
     1
 10
83.3276
 20
-192.3808
  0
VERTEX
  8
_LAYER_1
 62
     1
 10
72.7404
 20
-191.0788
  0
VERTEX
  8
_LAYER_1
 62
     1
 10
62.0219
 20
-190.6846
  0
SEQEND
  8
_LAYER_1
 62
     1
  0
POLYLINE
  8
_LAYER_1
 62
     1
 66
     1
  0
VERTEX
  8
_LAYER_1
 62
     1
 10
121.3795
 20
-218.1778
  0
VERTEX
  8
_LAYER_1
 62
     1
 10
141.0531
 20
-218.1778
  0
SEQEND
  8
_LAYER_1
 62
     1
  0
POLYLINE
  8
_LAYER_1
 62
     1
 66
     1
  0
VERTEX
  8
_LAYER_1
 62
     1
 10
65.1707
 20
-218.1871
  0
VERTEX
  8
_LAYER_1
 62
     1
 10
115.157
 20
-218.1871
  0
SEQEND
  8
_LAYER_1
 62
     1
  0
POLYLINE
  8
_LAYER_1
 62
     1
 66
     1
  0
VERTEX
  8
_LAYER_1
 62
     1
 10
8.8778
 20
-218.1778
  0
VERTEX
  8
_LAYER_1
 62
     1
 10
58.9475
 20
-218.1778
  0
SEQEND
  8
_LAYER_1
 62
     1
  0
POLYLINE
  8
_LAYER_1
 62
     1
 66
     1
  0
VERTEX
  8
_LAYER_1
 62
     1
 10
-16.9351
 20
-218.1778
  0
VERTEX
  8
_LAYER_1
 62
     1
 10
2.6546
 20
-218.1799
  0
SEQEND
  8
_LAYER_1
 62
     1
  0
POLYLINE
  8
_LAYER_1
 62
     1
 66
     1
  0
VERTEX
  8
_LAYER_1
 62
     1
 10
62.044
 20
-190.6846
  0
VERTEX
  8
_LAYER_1
 62
     1
 10
51.3255
 20
-191.078
  0
VERTEX
  8
_LAYER_1
 62
     1
 10
40.7382
 20
-192.3791
  0
VERTEX
  8
_LAYER_1
 62
     1
 10
30.337
 20
-194.569
  0
VERTEX
  8
_LAYER_1
 62
     1
 10
20.1768
 20
-197.6285
  0
VERTEX
  8
_LAYER_1
 62
     1
 10
10.3127
 20
-201.5385
  0
VERTEX
  8
_LAYER_1
 62
     1
 10
0.7995
 20
-206.2798
  0
VERTEX
  8
_LAYER_1
 62
     1
 10
-8.3079
 20
-211.8333
  0
VERTEX
  8
_LAYER_1
 62
     1
 10
-16.9544
 20
-218.1799
  0
SEQEND
  8
_LAYER_1
 62
     1
  0
POLYLINE
  8
_LAYER_1
 62
     1
 66
     1
  0
VERTEX
  8
_LAYER_1
 62
     1
 10
58.9475
 20
-207.1921
  0
VERTEX
  8
_LAYER_1
 62
     1
 10
65.1707
 20
-207.1921
  0
SEQEND
  8
_LAYER_1
 62
     1
  0
POLYLINE
  8
_LAYER_1
 62
     1
 66
     1
  0
VERTEX
  8
_LAYER_1
 62
     1
 10
58.9475
 20
-207.1921
  0
VERTEX
  8
_LAYER_1
 62
     1
 10
58.9475
 20
-218.1778
  0
SEQEND
  8
_LAYER_1
 62
     1
  0
POLYLINE
  8
_LAYER_1
 62
     1
 66
     1
  0
VERTEX
  8
_LAYER_1
 62
     1
 10
65.1707
 20
-207.1921
  0
VERTEX
  8
_LAYER_1
 62
     1
 10
65.1707
 20
-218.1871
  0
SEQEND
  8
_LAYER_1
 62
     1
  0
POLYLINE
  8
_LAYER_1
 62
     1
 66
     1
  0
VERTEX
  8
_LAYER_1
 62
     1
 10
2.6546
 20
-213.1611
  0
VERTEX
  8
_LAYER_1
 62
     1
 10
2.6546
 20
-218.1799
  0
SEQEND
  8
_LAYER_1
 62
     1
  0
POLYLINE
  8
_LAYER_1
 62
     1
 66
     1
  0
VERTEX
  8
_LAYER_1
 62
     1
 10
8.8778
 20
-213.1611
  0
VERTEX
  8
_LAYER_1
 62
     1
 10
8.8778
 20
-218.1778
  0
SEQEND
  8
_LAYER_1
 62
     1
  0
POLYLINE
  8
_LAYER_1
 62
     1
 66
     1
  0
VERTEX
  8
_LAYER_1
 62
     1
 10
2.6546
 20
-213.1611
  0
VERTEX
  8
_LAYER_1
 62
     1
 10
8.8778
 20
-213.1611
  0
SEQEND
  8
_LAYER_1
 62
     1
  0
POLYLINE
  8
_LAYER_1
 62
     1
 66
     1
  0
VERTEX
  8
_LAYER_1
 62
     1
 10
115.157
 20
-213.1611
  0
VERTEX
  8
_LAYER_1
 62
     1
 10
121.3795
 20
-213.1611
  0
SEQEND
  8
_LAYER_1
 62
     1
  0
POLYLINE
  8
_LAYER_1
 62
     1
 66
     1
  0
VERTEX
  8
_LAYER_1
 62
     1
 10
115.157
 20
-213.1611
  0
VERTEX
  8
_LAYER_1
 62
     1
 10
115.157
 20
-218.1871
  0
SEQEND
  8
_LAYER_1
 62
     1
  0
POLYLINE
  8
_LAYER_1
 62
     1
 66
     1
  0
VERTEX
  8
_LAYER_1
 62
     1
 10
121.3795
 20
-213.1611
  0
VERTEX
  8
_LAYER_1
 62
     1
 10
121.3795
 20
-218.1778
  0
SEQEND
  8
_LAYER_1
 62
     1
  0
POLYLINE
  8
_LAYER_1
 62
     1
 66
     1
  0
VERTEX
  8
_LAYER_1
 62
     1
 10
141.0179
 20
-175.8534
  0
VERTEX
  8
_LAYER_1
 62
     1
 10
132.372
 20
-169.506
  0
VERTEX
  8
_LAYER_1
 62
     1
 10
123.2651
 20
-163.9516
  0
VERTEX
  8
_LAYER_1
 62
     1
 10
113.7523
 20
-159.2095
  0
VERTEX
  8
_LAYER_1
 62
     1
 10
103.8885
 20
-155.2986
  0
VERTEX
  8
_LAYER_1
 62
     1
 10
93.7286
 20
-152.2382
  0
VERTEX
  8
_LAYER_1
 62
     1
 10
83.3276
 20
-150.0474
  0
VERTEX
  8
_LAYER_1
 62
     1
 10
72.7404
 20
-148.7454
  0
VERTEX
  8
_LAYER_1
 62
     1
 10
62.0219
 20
-148.3512
  0
SEQEND
  8
_LAYER_1
 62
     1
  0
POLYLINE
  8
_LAYER_1
 62
     1
 66
     1
  0
VERTEX
  8
_LAYER_1
 62
     1
 10
121.3795
 20
-175.8445
  0
VERTEX
  8
_LAYER_1
 62
     1
 10
141.0531
 20
-175.8445
  0
SEQEND
  8
_LAYER_1
 62
     1
  0
POLYLINE
  8
_LAYER_1
 62
     1
 66
     1
  0
VERTEX
  8
_LAYER_1
 62
     1
 10
65.1707
 20
-175.8538
  0
VERTEX
  8
_LAYER_1
 62
     1
 10
115.157
 20
-175.8538
  0
SEQEND
  8
_LAYER_1
 62
     1
  0
POLYLINE
  8
_LAYER_1
 62
     1
 66
     1
  0
VERTEX
  8
_LAYER_1
 62
     1
 10
8.8778
 20
-175.8445
  0
VERTEX
  8
_LAYER_1
 62
     1
 10
58.9475
 20
-175.8445
  0
SEQEND
  8
_LAYER_1
 62
     1
  0
POLYLINE
  8
_LAYER_1
 62
     1
 66
     1
  0
VERTEX
  8
_LAYER_1
 62
     1
 10
-16.9351
 20
-175.8445
  0
VERTEX
  8
_LAYER_1
 62
     1
 10
2.6546
 20
-175.8466
  0
SEQEND
  8
_LAYER_1
 62
     1
  0
POLYLINE
  8
_LAYER_1
 62
     1
 66
     1
  0
VERTEX
  8
_LAYER_1
 62
     1
 10
62.044
 20
-148.3512
  0
VERTEX
  8
_LAYER_1
 62
     1
 10
51.3255
 20
-148.7446
  0
VERTEX
  8
_LAYER_1
 62
     1
 10
40.7382
 20
-150.0458
  0
VERTEX
  8
_LAYER_1
 62
     1
 10
30.337
 20
-152.2357
  0
VERTEX
  8
_LAYER_1
 62
     1
 10
20.1768
 20
-155.2952
  0
VERTEX
  8
_LAYER_1
 62
     1
 10
10.3127
 20
-159.2051
  0
VERTEX
  8
_LAYER_1
 62
     1
 10
0.7995
 20
-163.9464
  0
VERTEX
  8
_LAYER_1
 62
     1
 10
-8.3079
 20
-169.4999
  0
VERTEX
  8
_LAYER_1
 62
     1
 10
-16.9544
 20
-175.8466
  0
SEQEND
  8
_LAYER_1
 62
     1
  0
POLYLINE
  8
_LAYER_1
 62
     1
 66
     1
  0
VERTEX
  8
_LAYER_1
 62
     1
 10
58.9475
 20
-164.8588
  0
VERTEX
  8
_LAYER_1
 62
     1
 10
65.1707
 20
-164.8588
  0
SEQEND
  8
_LAYER_1
 62
     1
  0
POLYLINE
  8
_LAYER_1
 62
     1
 66
     1
  0
VERTEX
  8
_LAYER_1
 62
     1
 10
58.9475
 20
-164.8588
  0
VERTEX
  8
_LAYER_1
 62
     1
 10
58.9475
 20
-175.8445
  0
SEQEND
  8
_LAYER_1
 62
     1
  0
POLYLINE
  8
_LAYER_1
 62
     1
 66
     1
  0
VERTEX
  8
_LAYER_1
 62
     1
 10
65.1707
 20
-164.8588
  0
VERTEX
  8
_LAYER_1
 62
     1
 10
65.1707
 20
-175.8538
  0
SEQEND
  8
_LAYER_1
 62
     1
  0
POLYLINE
  8
_LAYER_1
 62
     1
 66
     1
  0
VERTEX
  8
_LAYER_1
 62
     1
 10
2.6546
 20
-170.8277
  0
VERTEX
  8
_LAYER_1
 62
     1
 10
2.6546
 20
-175.8466
  0
SEQEND
  8
_LAYER_1
 62
     1
  0
POLYLINE
  8
_LAYER_1
 62
     1
 66
     1
  0
VERTEX
  8
_LAYER_1
 62
     1
 10
8.8778
 20
-170.8277
  0
VERTEX
  8
_LAYER_1
 62
     1
 10
8.8778
 20
-175.8445
  0
SEQEND
  8
_LAYER_1
 62
     1
  0
POLYLINE
  8
_LAYER_1
 62
     1
 66
     1
  0
VERTEX
  8
_LAYER_1
 62
     1
 10
2.6546
 20
-170.8277
  0
VERTEX
  8
_LAYER_1
 62
     1
 10
8.8778
 20
-170.8277
  0
SEQEND
  8
_LAYER_1
 62
     1
  0
POLYLINE
  8
_LAYER_1
 62
     1
 66
     1
  0
VERTEX
  8
_LAYER_1
 62
     1
 10
115.157
 20
-170.8277
  0
VERTEX
  8
_LAYER_1
 62
     1
 10
121.3795
 20
-170.8277
  0
SEQEND
  8
_LAYER_1
 62
     1
  0
POLYLINE
  8
_LAYER_1
 62
     1
 66
     1
  0
VERTEX
  8
_LAYER_1
 62
     1
 10
115.157
 20
-170.8277
  0
VERTEX
  8
_LAYER_1
 62
     1
 10
115.157
 20
-175.8538
  0
SEQEND
  8
_LAYER_1
 62
     1
  0
POLYLINE
  8
_LAYER_1
 62
     1
 66
     1
  0
VERTEX
  8
_LAYER_1
 62
     1
 10
121.3795
 20
-170.8277
  0
VERTEX
  8
_LAYER_1
 62
     1
 10
121.3795
 20
-175.8445
  0
SEQEND
  8
_LAYER_1
 62
     1
  0
POLYLINE
  8
_LAYER_1
 62
     1
 66
     1
  0
VERTEX
  8
_LAYER_1
 62
     1
 10
141.0463
 20
-308.5823
  0
VERTEX
  8
_LAYER_1
 62
     1
 10
132.4004
 20
-302.2349
  0
VERTEX
  8
_LAYER_1
 62
     1
 10
123.2935
 20
-296.6805
  0
VERTEX
  8
_LAYER_1
 62
     1
 10
113.7807
 20
-291.9383
  0
VERTEX
  8
_LAYER_1
 62
     1
 10
103.9169
 20
-288.0275
  0
VERTEX
  8
_LAYER_1
 62
     1
 10
93.757
 20
-284.9671
  0
VERTEX
  8
_LAYER_1
 62
     1
 10
83.356
 20
-282.7763
  0
VERTEX
  8
_LAYER_1
 62
     1
 10
72.7688
 20
-281.4743
  0
VERTEX
  8
_LAYER_1
 62
     1
 10
62.0503
 20
-281.0801
  0
SEQEND
  8
_LAYER_1
 62
     1
  0
POLYLINE
  8
_LAYER_1
 62
     1
 66
     1
  0
VERTEX
  8
_LAYER_1
 62
     1
 10
121.4079
 20
-308.5733
  0
VERTEX
  8
_LAYER_1
 62
     1
 10
141.0815
 20
-308.5733
  0
SEQEND
  8
_LAYER_1
 62
     1
  0
POLYLINE
  8
_LAYER_1
 62
     1
 66
     1
  0
VERTEX
  8
_LAYER_1
 62
     1
 10
65.1991
 20
-308.5826
  0
VERTEX
  8
_LAYER_1
 62
     1
 10
115.1854
 20
-308.5826
  0
SEQEND
  8
_LAYER_1
 62
     1
  0
POLYLINE
  8
_LAYER_1
 62
     1
 66
     1
  0
VERTEX
  8
_LAYER_1
 62
     1
 10
8.9063
 20
-308.5733
  0
VERTEX
  8
_LAYER_1
 62
     1
 10
58.9759
 20
-308.5733
  0
SEQEND
  8
_LAYER_1
 62
     1
  0
POLYLINE
  8
_LAYER_1
 62
     1
 66
     1
  0
VERTEX
  8
_LAYER_1
 62
     1
 10
-16.9066
 20
-308.5733
  0
VERTEX
  8
_LAYER_1
 62
     1
 10
2.6831
 20
-308.5754
  0
SEQEND
  8
_LAYER_1
 62
     1
  0
POLYLINE
  8
_LAYER_1
 62
     1
 66
     1
  0
VERTEX
  8
_LAYER_1
 62
     1
 10
62.0723
 20
-281.0801
  0
VERTEX
  8
_LAYER_1
 62
     1
 10
51.3538
 20
-281.4735
  0
VERTEX
  8
_LAYER_1
 62
     1
 10
40.7665
 20
-282.7746
  0
VERTEX
  8
_LAYER_1
 62
     1
 10
30.3654
 20
-284.9645
  0
VERTEX
  8
_LAYER_1
 62
     1
 10
20.2052
 20
-288.024
  0
VERTEX
  8
_LAYER_1
 62
     1
 10
10.3411
 20
-291.934
  0
VERTEX
  8
_LAYER_1
 62
     1
 10
0.8279
 20
-296.6753
  0
VERTEX
  8
_LAYER_1
 62
     1
 10
-8.2794
 20
-302.2288
  0
VERTEX
  8
_LAYER_1
 62
     1
 10
-16.9259
 20
-308.5754
  0
SEQEND
  8
_LAYER_1
 62
     1
  0
POLYLINE
  8
_LAYER_1
 62
     1
 66
     1
  0
VERTEX
  8
_LAYER_1
 62
     1
 10
58.9759
 20
-297.5876
  0
VERTEX
  8
_LAYER_1
 62
     1
 10
65.1991
 20
-297.5876
  0
SEQEND
  8
_LAYER_1
 62
     1
  0
POLYLINE
  8
_LAYER_1
 62
     1
 66
     1
  0
VERTEX
  8
_LAYER_1
 62
     1
 10
58.9759
 20
-297.5876
  0
VERTEX
  8
_LAYER_1
 62
     1
 10
58.9759
 20
-308.5733
  0
SEQEND
  8
_LAYER_1
 62
     1
  0
POLYLINE
  8
_LAYER_1
 62
     1
 66
     1
  0
VERTEX
  8
_LAYER_1
 62
     1
 10
65.1991
 20
-297.5876
  0
VERTEX
  8
_LAYER_1
 62
     1
 10
65.1991
 20
-308.5826
  0
SEQEND
  8
_LAYER_1
 62
     1
  0
POLYLINE
  8
_LAYER_1
 62
     1
 66
     1
  0
VERTEX
  8
_LAYER_1
 62
     1
 10
2.6831
 20
-303.5566
  0
VERTEX
  8
_LAYER_1
 62
     1
 10
2.6831
 20
-308.5754
  0
SEQEND
  8
_LAYER_1
 62
     1
  0
POLYLINE
  8
_LAYER_1
 62
     1
 66
     1
  0
VERTEX
  8
_LAYER_1
 62
     1
 10
8.9063
 20
-303.5566
  0
VERTEX
  8
_LAYER_1
 62
     1
 10
8.9063
 20
-308.5733
  0
SEQEND
  8
_LAYER_1
 62
     1
  0
POLYLINE
  8
_LAYER_1
 62
     1
 66
     1
  0
VERTEX
  8
_LAYER_1
 62
     1
 10
2.6831
 20
-303.5566
  0
VERTEX
  8
_LAYER_1
 62
     1
 10
8.9063
 20
-303.5566
  0
SEQEND
  8
_LAYER_1
 62
     1
  0
POLYLINE
  8
_LAYER_1
 62
     1
 66
     1
  0
VERTEX
  8
_LAYER_1
 62
     1
 10
115.1854
 20
-303.5566
  0
VERTEX
  8
_LAYER_1
 62
     1
 10
121.4079
 20
-303.5566
  0
SEQEND
  8
_LAYER_1
 62
     1
  0
POLYLINE
  8
_LAYER_1
 62
     1
 66
     1
  0
VERTEX
  8
_LAYER_1
 62
     1
 10
115.1854
 20
-303.5566
  0
VERTEX
  8
_LAYER_1
 62
     1
 10
115.1854
 20
-308.5826
  0
SEQEND
  8
_LAYER_1
 62
     1
  0
POLYLINE
  8
_LAYER_1
 62
     1
 66
     1
  0
VERTEX
  8
_LAYER_1
 62
     1
 10
121.4079
 20
-303.5566
  0
VERTEX
  8
_LAYER_1
 62
     1
 10
121.4079
 20
-308.5733
  0
SEQEND
  8
_LAYER_1
 62
     1
  0
POLYLINE
  8
_LAYER_1
 62
     1
 66
     1
  0
VERTEX
  8
_LAYER_1
 62
     1
 10
141.0463
 20
-266.249
  0
VERTEX
  8
_LAYER_1
 62
     1
 10
132.4004
 20
-259.9016
  0
VERTEX
  8
_LAYER_1
 62
     1
 10
123.2935
 20
-254.3472
  0
VERTEX
  8
_LAYER_1
 62
     1
 10
113.7807
 20
-249.605
  0
VERTEX
  8
_LAYER_1
 62
     1
 10
103.9169
 20
-245.6942
  0
VERTEX
  8
_LAYER_1
 62
     1
 10
93.757
 20
-242.6338
  0
VERTEX
  8
_LAYER_1
 62
     1
 10
83.356
 20
-240.443
  0
VERTEX
  8
_LAYER_1
 62
     1
 10
72.7688
 20
-239.141
  0
VERTEX
  8
_LAYER_1
 62
     1
 10
62.0503
 20
-238.7468
  0
SEQEND
  8
_LAYER_1
 62
     1
  0
POLYLINE
  8
_LAYER_1
 62
     1
 66
     1
  0
VERTEX
  8
_LAYER_1
 62
     1
 10
121.4079
 20
-266.24
  0
VERTEX
  8
_LAYER_1
 62
     1
 10
141.0815
 20
-266.24
  0
SEQEND
  8
_LAYER_1
 62
     1
  0
POLYLINE
  8
_LAYER_1
 62
     1
 66
     1
  0
VERTEX
  8
_LAYER_1
 62
     1
 10
65.1991
 20
-266.2493
  0
VERTEX
  8
_LAYER_1
 62
     1
 10
115.1854
 20
-266.2493
  0
SEQEND
  8
_LAYER_1
 62
     1
  0
POLYLINE
  8
_LAYER_1
 62
     1
 66
     1
  0
VERTEX
  8
_LAYER_1
 62
     1
 10
8.9063
 20
-266.24
  0
VERTEX
  8
_LAYER_1
 62
     1
 10
58.9759
 20
-266.24
  0
SEQEND
  8
_LAYER_1
 62
     1
  0
POLYLINE
  8
_LAYER_1
 62
     1
 66
     1
  0
VERTEX
  8
_LAYER_1
 62
     1
 10
-16.9066
 20
-266.24
  0
VERTEX
  8
_LAYER_1
 62
     1
 10
2.6831
 20
-266.2421
  0
SEQEND
  8
_LAYER_1
 62
     1
  0
POLYLINE
  8
_LAYER_1
 62
     1
 66
     1
  0
VERTEX
  8
_LAYER_1
 62
     1
 10
62.0723
 20
-238.7468
  0
VERTEX
  8
_LAYER_1
 62
     1
 10
51.3538
 20
-239.1402
  0
VERTEX
  8
_LAYER_1
 62
     1
 10
40.7665
 20
-240.4413
  0
VERTEX
  8
_LAYER_1
 62
     1
 10
30.3654
 20
-242.6312
  0
VERTEX
  8
_LAYER_1
 62
     1
 10
20.2052
 20
-245.6907
  0
VERTEX
  8
_LAYER_1
 62
     1
 10
10.3411
 20
-249.6007
  0
VERTEX
  8
_LAYER_1
 62
     1
 10
0.8279
 20
-254.342
  0
VERTEX
  8
_LAYER_1
 62
     1
 10
-8.2794
 20
-259.8955
  0
VERTEX
  8
_LAYER_1
 62
     1
 10
-16.9259
 20
-266.2421
  0
SEQEND
  8
_LAYER_1
 62
     1
  0
POLYLINE
  8
_LAYER_1
 62
     1
 66
     1
  0
VERTEX
  8
_LAYER_1
 62
     1
 10
58.9759
 20
-255.2543
  0
VERTEX
  8
_LAYER_1
 62
     1
 10
65.1991
 20
-255.2543
  0
SEQEND
  8
_LAYER_1
 62
     1
  0
POLYLINE
  8
_LAYER_1
 62
     1
 66
     1
  0
VERTEX
  8
_LAYER_1
 62
     1
 10
58.9759
 20
-255.2543
  0
VERTEX
  8
_LAYER_1
 62
     1
 10
58.9759
 20
-266.24
  0
SEQEND
  8
_LAYER_1
 62
     1
  0
POLYLINE
  8
_LAYER_1
 62
     1
 66
     1
  0
VERTEX
  8
_LAYER_1
 62
     1
 10
65.1991
 20
-255.2543
  0
VERTEX
  8
_LAYER_1
 62
     1
 10
65.1991
 20
-266.2493
  0
SEQEND
  8
_LAYER_1
 62
     1
  0
POLYLINE
  8
_LAYER_1
 62
     1
 66
     1
  0
VERTEX
  8
_LAYER_1
 62
     1
 10
2.6831
 20
-261.2233
  0
VERTEX
  8
_LAYER_1
 62
     1
 10
2.6831
 20
-266.2421
  0
SEQEND
  8
_LAYER_1
 62
     1
  0
POLYLINE
  8
_LAYER_1
 62
     1
 66
     1
  0
VERTEX
  8
_LAYER_1
 62
     1
 10
8.9063
 20
-261.2233
  0
VERTEX
  8
_LAYER_1
 62
     1
 10
8.9063
 20
-266.24
  0
SEQEND
  8
_LAYER_1
 62
     1
  0
POLYLINE
  8
_LAYER_1
 62
     1
 66
     1
  0
VERTEX
  8
_LAYER_1
 62
     1
 10
2.6831
 20
-261.2233
  0
VERTEX
  8
_LAYER_1
 62
     1
 10
8.9063
 20
-261.2233
  0
SEQEND
  8
_LAYER_1
 62
     1
  0
POLYLINE
  8
_LAYER_1
 62
     1
 66
     1
  0
VERTEX
  8
_LAYER_1
 62
     1
 10
115.1854
 20
-261.2233
  0
VERTEX
  8
_LAYER_1
 62
     1
 10
121.4079
 20
-261.2233
  0
SEQEND
  8
_LAYER_1
 62
     1
  0
POLYLINE
  8
_LAYER_1
 62
     1
 66
     1
  0
VERTEX
  8
_LAYER_1
 62
     1
 10
115.1854
 20
-261.2233
  0
VERTEX
  8
_LAYER_1
 62
     1
 10
115.1854
 20
-266.2493
  0
SEQEND
  8
_LAYER_1
 62
     1
  0
POLYLINE
  8
_LAYER_1
 62
     1
 66
     1
  0
VERTEX
  8
_LAYER_1
 62
     1
 10
121.4079
 20
-261.2233
  0
VERTEX
  8
_LAYER_1
 62
     1
 10
121.4079
 20
-266.24
  0
SEQEND
  8
_LAYER_1
 62
     1
  0
POLYLINE
  8
_LAYER_1
 62
     1
 66
     1
  0
VERTEX
  8
_LAYER_1
 62
     1
 10
60.4256
 20
337.5124
  0
VERTEX
  8
_LAYER_1
 62
     1
 10
57.7215
 20
338.2768
  0
VERTEX
  8
_LAYER_1
 62
     1
 10
53.7135
 20
339.2642
  0
VERTEX
  8
_LAYER_1
 62
     1
 10
49.7699
 20
340.1887
  0
VERTEX
  8
_LAYER_1
 62
     1
 10
45.7636
 20
340.9857
  0
VERTEX
  8
_LAYER_1
 62
     1
 10
41.6945
 20
341.7187
  0
VERTEX
  8
_LAYER_1
 62
     1
 10
37.689
 20
342.3886
  0
VERTEX
  8
_LAYER_1
 62
     1
 10
33.6209
 20
342.9312
  0
VERTEX
  8
_LAYER_1
 62
     1
 10
29.5536
 20
343.4102
  0
VERTEX
  8
_LAYER_1
 62
     1
 10
25.4868
 20
343.7623
  0
VERTEX
  8
_LAYER_1
 62
     1
 10
21.3573
 20
344.0501
  0
VERTEX
  8
_LAYER_1
 62
     1
 10
17.2915
 20
344.2751
  0
VERTEX
  8
_LAYER_1
 62
     1
 10
13.227
 20
344.3733
  0
VERTEX
  8
_LAYER_1
 62
     1
 10
10.3375
 20
344.3526
  0
SEQEND
  8
_LAYER_1
 62
     1
  0
POLYLINE
  8
_LAYER_1
 62
     1
 66
     1
  0
VERTEX
  8
_LAYER_1
 62
     1
 10
116.8814
 20
310.3819
  0
VERTEX
  8
_LAYER_1
 62
     1
 10
114.6797
 20
311.9486
  0
VERTEX
  8
_LAYER_1
 62
     1
 10
111.1698
 20
314.3369
  0
VERTEX
  8
_LAYER_1
 62
     1
 10
107.5976
 20
316.5974
  0
VERTEX
  8
_LAYER_1
 62
     1
 10
103.962
 20
318.8577
  0
VERTEX
  8
_LAYER_1
 62
     1
 10
100.3277
 20
320.927
  0
VERTEX
  8
_LAYER_1
 62
     1
 10
96.6298
 20
322.9961
  0
VERTEX
  8
_LAYER_1
 62
     1
 10
92.8691
 20
324.9379
  0
VERTEX
  8
_LAYER_1
 62
     1
 10
89.0457
 20
326.8157
  0
VERTEX
  8
_LAYER_1
 62
     1
 10
85.2234
 20
328.5666
  0
VERTEX
  8
_LAYER_1
 62
     1
 10
81.3373
 20
330.2536
  0
VERTEX
  8
_LAYER_1
 62
     1
 10
77.3893
 20
331.813
  0
VERTEX
  8
_LAYER_1
 62
     1
 10
73.4419
 20
333.3087
  0
VERTEX
  8
_LAYER_1
 62
     1
 10
69.4307
 20
334.7404
  0
VERTEX
  8
_LAYER_1
 62
     1
 10
66.6619
 20
335.642
  0
SEQEND
  8
_LAYER_1
 62
     1
  0
POLYLINE
  8
_LAYER_1
 62
     1
 66
     1
  0
VERTEX
  8
_LAYER_1
 62
     1
 10
145.1591
 20
285.3681
  0
VERTEX
  8
_LAYER_1
 62
     1
 10
142.4716
 20
288.2703
  0
VERTEX
  8
_LAYER_1
 62
     1
 10
139.6576
 20
291.0442
  0
VERTEX
  8
_LAYER_1
 62
     1
 10
136.8437
 20
293.8182
  0
VERTEX
  8
_LAYER_1
 62
     1
 10
133.9667
 20
296.5281
  0
VERTEX
  8
_LAYER_1
 62
     1
 10
131.027
 20
299.1743
  0
VERTEX
  8
_LAYER_1
 62
     1
 10
128.0239
 20
301.7564
  0
VERTEX
  8
_LAYER_1
 62
     1
 10
124.9578
 20
304.2746
  0
VERTEX
  8
_LAYER_1
 62
     1
 10
123.1381
 20
305.6945
  0
SEQEND
  8
_LAYER_1
 62
     1
  0
POLYLINE
  8
_LAYER_1
 62
     1
 66
     1
  0
VERTEX
  8
_LAYER_1
 62
     1
 10
-129.8523
 20
283.4078
  0
VERTEX
  8
_LAYER_1
 62
     1
 10
145.1591
 20
285.3681
  0
SEQEND
  8
_LAYER_1
 62
     1
  0
POLYLINE
  8
_LAYER_1
 62
     1
 66
     1
  0
VERTEX
  8
_LAYER_1
 62
     1
 10
4.1148
 20
344.3083
  0
VERTEX
  8
_LAYER_1
 62
     1
 10
1.289
 20
344.2882
  0
VERTEX
  8
_LAYER_1
 62
     1
 10
-2.8375
 20
344.1316
  0
VERTEX
  8
_LAYER_1
 62
     1
 10
-6.8997
 20
343.8488
  0
VERTEX
  8
_LAYER_1
 62
     1
 10
-11.0247
 20
343.502
  0
VERTEX
  8
_LAYER_1
 62
     1
 10
-15.0857
 20
343.0921
  0
VERTEX
  8
_LAYER_1
 62
     1
 10
-19.1461
 20
342.555
  0
VERTEX
  8
_LAYER_1
 62
     1
 10
-23.206
 20
341.9545
  0
VERTEX
  8
_LAYER_1
 62
     1
 10
-27.2014
 20
341.2276
  0
VERTEX
  8
_LAYER_1
 62
     1
 10
-31.2599
 20
340.4366
  0
VERTEX
  8
_LAYER_1
 62
     1
 10
-35.2543
 20
339.5827
  0
VERTEX
  8
_LAYER_1
 62
     1
 10
-39.1845
 20
338.602
  0
VERTEX
  8
_LAYER_1
 62
     1
 10
-43.1777
 20
337.5577
  0
VERTEX
  8
_LAYER_1
 62
     1
 10
-45.8709
 20
336.7546
  0
SEQEND
  8
_LAYER_1
 62
     1
  0
POLYLINE
  8
_LAYER_1
 62
     1
 66
     1
  0
VERTEX
  8
_LAYER_1
 62
     1
 10
-46.9155
 20
309.5902
  0
VERTEX
  8
_LAYER_1
 62
     1
 10
-50.6617
 20
309.5635
  0
SEQEND
  8
_LAYER_1
 62
     1
  0
POLYLINE
  8
_LAYER_1
 62
     1
 66
     1
  0
VERTEX
  8
_LAYER_1
 62
     1
 10
-52.08
 20
334.7952
  0
VERTEX
  8
_LAYER_1
 62
     1
 10
-54.8356
 20
333.8547
  0
VERTEX
  8
_LAYER_1
 62
     1
 10
-58.8255
 20
332.3659
  0
VERTEX
  8
_LAYER_1
 62
     1
 10
-62.7515
 20
330.8141
  0
VERTEX
  8
_LAYER_1
 62
     1
 10
-66.6137
 20
329.199
  0
VERTEX
  8
_LAYER_1
 62
     1
 10
-70.4749
 20
327.4568
  0
VERTEX
  8
_LAYER_1
 62
     1
 10
-74.3357
 20
325.6513
  0
VERTEX
  8
_LAYER_1
 62
     1
 10
-78.0683
 20
323.7194
  0
VERTEX
  8
_LAYER_1
 62
     1
 10
-81.8007
 20
321.7242
  0
VERTEX
  8
_LAYER_1
 62
     1
 10
-85.5322
 20
319.6024
  0
VERTEX
  8
_LAYER_1
 62
     1
 10
-89.1367
 20
317.4812
  0
VERTEX
  8
_LAYER_1
 62
     1
 10
-92.7399
 20
315.1694
  0
VERTEX
  8
_LAYER_1
 62
     1
 10
-96.2794
 20
312.8582
  0
VERTEX
  8
_LAYER_1
 62
     1
 10
-99.691
 20
310.4205
  0
VERTEX
  8
_LAYER_1
 62
     1
 10
-101.934
 20
308.8059
  0
SEQEND
  8
_LAYER_1
 62
     1
  0
POLYLINE
  8
_LAYER_1
 62
     1
 66
     1
  0
VERTEX
  8
_LAYER_1
 62
     1
 10
-108.1231
 20
304.046
  0
VERTEX
  8
_LAYER_1
 62
     1
 10
-109.9227
 20
302.6005
  0
VERTEX
  8
_LAYER_1
 62
     1
 10
-112.9525
 20
300.0387
  0
VERTEX
  8
_LAYER_1
 62
     1
 10
-115.9183
 20
297.4142
  0
VERTEX
  8
_LAYER_1
 62
     1
 10
-118.8203
 20
294.7263
  0
VERTEX
  8
_LAYER_1
 62
     1
 10
-121.6582
 20
291.9758
  0
VERTEX
  8
_LAYER_1
 62
     1
 10
-124.4322
 20
289.1618
  0
VERTEX
  8
_LAYER_1
 62
     1
 10
-127.2062
 20
286.3479
  0
VERTEX
  8
_LAYER_1
 62
     1
 10
-129.8523
 20
283.4078
  0
SEQEND
  8
_LAYER_1
 62
     1
  0
POLYLINE
  8
_LAYER_1
 62
     1
 66
     1
  0
VERTEX
  8
_LAYER_1
 62
     1
 10
10.5511
 20
314.3815
  0
VERTEX
  8
_LAYER_1
 62
     1
 10
10.3375
 20
344.3526
  0
SEQEND
  8
_LAYER_1
 62
     1
  0
POLYLINE
  8
_LAYER_1
 62
     1
 66
     1
  0
VERTEX
  8
_LAYER_1
 62
     1
 10
4.3284
 20
314.337
  0
VERTEX
  8
_LAYER_1
 62
     1
 10
4.1148
 20
344.3083
  0
SEQEND
  8
_LAYER_1
 62
     1
  0
POLYLINE
  8
_LAYER_1
 62
     1
 66
     1
  0
VERTEX
  8
_LAYER_1
 62
     1
 10
10.5511
 20
314.3815
  0
VERTEX
  8
_LAYER_1
 62
     1
 10
4.3284
 20
314.337
  0
SEQEND
  8
_LAYER_1
 62
     1
  0
POLYLINE
  8
_LAYER_1
 62
     1
 66
     1
  0
VERTEX
  8
_LAYER_1
 62
     1
 10
-45.6773
 20
309.599
  0
VERTEX
  8
_LAYER_1
 62
     1
 10
-45.8709
 20
336.7546
  0
SEQEND
  8
_LAYER_1
 62
     1
  0
POLYLINE
  8
_LAYER_1
 62
     1
 66
     1
  0
VERTEX
  8
_LAYER_1
 62
     1
 10
-51.9
 20
309.5547
  0
VERTEX
  8
_LAYER_1
 62
     1
 10
-52.08
 20
334.7952
  0
SEQEND
  8
_LAYER_1
 62
     1
  0
POLYLINE
  8
_LAYER_1
 62
     1
 66
     1
  0
VERTEX
  8
_LAYER_1
 62
     1
 10
-45.6773
 20
309.599
  0
VERTEX
  8
_LAYER_1
 62
     1
 10
-51.9
 20
309.5547
  0
SEQEND
  8
_LAYER_1
 62
     1
  0
POLYLINE
  8
_LAYER_1
 62
     1
 66
     1
  0
VERTEX
  8
_LAYER_1
 62
     1
 10
66.8418
 20
310.401
  0
VERTEX
  8
_LAYER_1
 62
     1
 10
66.6619
 20
335.642
  0
SEQEND
  8
_LAYER_1
 62
     1
  0
POLYLINE
  8
_LAYER_1
 62
     1
 66
     1
  0
VERTEX
  8
_LAYER_1
 62
     1
 10
60.6192
 20
310.3568
  0
VERTEX
  8
_LAYER_1
 62
     1
 10
60.4256
 20
337.5124
  0
SEQEND
  8
_LAYER_1
 62
     1
  0
POLYLINE
  8
_LAYER_1
 62
     1
 66
     1
  0
VERTEX
  8
_LAYER_1
 62
     1
 10
66.8418
 20
310.401
  0
VERTEX
  8
_LAYER_1
 62
     1
 10
60.6192
 20
310.3568
  0
SEQEND
  8
_LAYER_1
 62
     1
  0
POLYLINE
  8
_LAYER_1
 62
     1
 66
     1
  0
VERTEX
  8
_LAYER_1
 62
     1
 10
123.2056
 20
296.1974
  0
VERTEX
  8
_LAYER_1
 62
     1
 10
123.1381
 20
305.6945
  0
SEQEND
  8
_LAYER_1
 62
     1
  0
POLYLINE
  8
_LAYER_1
 62
     1
 66
     1
  0
VERTEX
  8
_LAYER_1
 62
     1
 10
116.9831
 20
296.153
  0
VERTEX
  8
_LAYER_1
 62
     1
 10
116.8814
 20
310.3819
  0
SEQEND
  8
_LAYER_1
 62
     1
  0
POLYLINE
  8
_LAYER_1
 62
     1
 66
     1
  0
VERTEX
  8
_LAYER_1
 62
     1
 10
123.2056
 20
296.1974
  0
VERTEX
  8
_LAYER_1
 62
     1
 10
116.9831
 20
296.153
  0
SEQEND
  8
_LAYER_1
 62
     1
  0
POLYLINE
  8
_LAYER_1
 62
     1
 66
     1
  0
VERTEX
  8
_LAYER_1
 62
     1
 10
-101.8325
 20
294.5934
  0
VERTEX
  8
_LAYER_1
 62
     1
 10
-101.934
 20
308.8059
  0
SEQEND
  8
_LAYER_1
 62
     1
  0
POLYLINE
  8
_LAYER_1
 62
     1
 66
     1
  0
VERTEX
  8
_LAYER_1
 62
     1
 10
-108.0554
 20
294.5489
  0
VERTEX
  8
_LAYER_1
 62
     1
 10
-108.1231
 20
304.046
  0
SEQEND
  8
_LAYER_1
 62
     1
  0
POLYLINE
  8
_LAYER_1
 62
     1
 66
     1
  0
VERTEX
  8
_LAYER_1
 62
     1
 10
-101.8325
 20
294.5934
  0
VERTEX
  8
_LAYER_1
 62
     1
 10
-108.0554
 20
294.5489
  0
SEQEND
  8
_LAYER_1
 62
     1
  0
POLYLINE
  8
_LAYER_1
 62
     1
 66
     1
  0
VERTEX
  8
_LAYER_1
 62
     1
 10
-52.2233
 20
47.529
  0
VERTEX
  8
_LAYER_1
 62
     1
 10
-2.1602
 20
47.529
  0
SEQEND
  8
_LAYER_1
 62
     1
  0
POLYLINE
  8
_LAYER_1
 62
     1
 66
     1
  0
VERTEX
  8
_LAYER_1
 62
     1
 10
-136.5827
 20
47.529
  0
VERTEX
  8
_LAYER_1
 62
     1
 10
-58.4462
 20
47.529
  0
SEQEND
  8
_LAYER_1
 62
     1
  0
POLYLINE
  8
_LAYER_1
 62
     1
 66
     1
  0
VERTEX
  8
_LAYER_1
 62
     1
 10
-114.707
 20
68.0493
  0
VERTEX
  8
_LAYER_1
 62
     1
 10
-116.5171
 20
66.579
  0
VERTEX
  8
_LAYER_1
 62
     1
 10
-119.565
 20
64.0389
  0
VERTEX
  8
_LAYER_1
 62
     1
 10
-122.5495
 20
61.4988
  0
VERTEX
  8
_LAYER_1
 62
     1
 10
-125.4702
 20
58.832
  0
VERTEX
  8
_LAYER_1
 62
     1
 10
-128.3279
 20
56.1014
  0
VERTEX
  8
_LAYER_1
 62
     1
 10
-131.1219
 20
53.3074
  0
VERTEX
  8
_LAYER_1
 62
     1
 10
-133.9158
 20
50.4497
  0
VERTEX
  8
_LAYER_1
 62
     1
 10
-136.5827
 20
47.529
  0
SEQEND
  8
_LAYER_1
 62
     1
  0
POLYLINE
  8
_LAYER_1
 62
     1
 66
     1
  0
VERTEX
  8
_LAYER_1
 62
     1
 10
110.3369
 20
72.7853
  0
VERTEX
  8
_LAYER_1
 62
     1
 10
108.1462
 20
74.3893
  0
VERTEX
  8
_LAYER_1
 62
     1
 10
104.6536
 20
76.7389
  0
VERTEX
  8
_LAYER_1
 62
     1
 10
101.0975
 20
79.0884
  0
VERTEX
  8
_LAYER_1
 62
     1
 10
97.5415
 20
81.3109
  0
VERTEX
  8
_LAYER_1
 62
     1
 10
93.8587
 20
83.4699
  0
VERTEX
  8
_LAYER_1
 62
     1
 10
90.1755
 20
85.5018
  0
VERTEX
  8
_LAYER_1
 62
     1
 10
86.429
 20
87.4704
  0
VERTEX
  8
_LAYER_1
 62
     1
 10
82.6825
 20
89.3752
  0
VERTEX
  8
_LAYER_1
 62
     1
 10
78.8725
 20
91.1535
  0
VERTEX
  8
_LAYER_1
 62
     1
 10
74.9992
 20
92.8678
  0
VERTEX
  8
_LAYER_1
 62
     1
 10
71.0622
 20
94.4553
  0
VERTEX
  8
_LAYER_1
 62
     1
 10
67.1251
 20
96.0428
  0
VERTEX
  8
_LAYER_1
 62
     1
 10
63.188
 20
97.4401
  0
VERTEX
  8
_LAYER_1
 62
     1
 10
59.1876
 20
98.7734
  0
VERTEX
  8
_LAYER_1
 62
     1
 10
55.1234
 20
100.0432
  0
VERTEX
  8
_LAYER_1
 62
     1
 10
51.0596
 20
101.1863
  0
VERTEX
  8
_LAYER_1
 62
     1
 10
46.9954
 20
102.266
  0
VERTEX
  8
_LAYER_1
 62
     1
 10
42.8682
 20
103.2182
  0
VERTEX
  8
_LAYER_1
 62
     1
 10
38.7406
 20
104.1074
  0
VERTEX
  8
_LAYER_1
 62
     1
 10
34.5497
 20
104.8691
  0
VERTEX
  8
_LAYER_1
 62
     1
 10
30.4221
 20
105.5678
  0
VERTEX
  8
_LAYER_1
 62
     1
 10
26.2312
 20
106.1393
  0
VERTEX
  8
_LAYER_1
 62
     1
 10
22.0402
 20
106.5841
  0
VERTEX
  8
_LAYER_1
 62
     1
 10
17.7855
 20
106.9651
  0
VERTEX
  8
_LAYER_1
 62
     1
 10
13.5945
 20
107.2824
  0
VERTEX
  8
_LAYER_1
 62
     1
 10
9.4036
 20
107.4729
  0
VERTEX
  8
_LAYER_1
 62
     1
 10
5.1492
 20
107.5363
  0
VERTEX
  8
_LAYER_1
 62
     1
 10
0.9579
 20
107.5363
  0
VERTEX
  8
_LAYER_1
 62
     1
 10
-3.2964
 20
107.5363
  0
VERTEX
  8
_LAYER_1
 62
     1
 10
-7.4874
 20
107.4729
  0
VERTEX
  8
_LAYER_1
 62
     1
 10
-11.7421
 20
107.2824
  0
VERTEX
  8
_LAYER_1
 62
     1
 10
-15.9327
 20
106.9651
  0
VERTEX
  8
_LAYER_1
 62
     1
 10
-20.1874
 20
106.5841
  0
VERTEX
  8
_LAYER_1
 62
     1
 10
-24.3783
 20
106.1393
  0
VERTEX
  8
_LAYER_1
 62
     1
 10
-28.5693
 20
105.5678
  0
VERTEX
  8
_LAYER_1
 62
     1
 10
-32.6969
 20
104.8691
  0
VERTEX
  8
_LAYER_1
 62
     1
 10
-36.8878
 20
104.1074
  0
VERTEX
  8
_LAYER_1
 62
     1
 10
-41.0154
 20
103.2182
  0
VERTEX
  8
_LAYER_1
 62
     1
 10
-45.143
 20
102.266
  0
VERTEX
  8
_LAYER_1
 62
     1
 10
-49.2068
 20
101.1863
  0
VERTEX
  8
_LAYER_1
 62
     1
 10
-53.271
 20
100.0432
  0
VERTEX
  8
_LAYER_1
 62
     1
 10
-57.2714
 20
98.7734
  0
VERTEX
  8
_LAYER_1
 62
     1
 10
-61.3356
 20
97.4401
  0
VERTEX
  8
_LAYER_1
 62
     1
 10
-65.2727
 20
96.0428
  0
VERTEX
  8
_LAYER_1
 62
     1
 10
-69.2094
 20
94.4553
  0
VERTEX
  8
_LAYER_1
 62
     1
 10
-73.1464
 20
92.8678
  0
VERTEX
  8
_LAYER_1
 62
     1
 10
-76.9563
 20
91.1535
  0
VERTEX
  8
_LAYER_1
 62
     1
 10
-80.83
 20
89.3752
  0
VERTEX
  8
_LAYER_1
 62
     1
 10
-84.5762
 20
87.4704
  0
VERTEX
  8
_LAYER_1
 62
     1
 10
-88.3231
 20
85.5018
  0
VERTEX
  8
_LAYER_1
 62
     1
 10
-92.0059
 20
83.4699
  0
VERTEX
  8
_LAYER_1
 62
     1
 10
-95.6253
 20
81.3109
  0
VERTEX
  8
_LAYER_1
 62
     1
 10
-99.2447
 20
79.0884
  0
VERTEX
  8
_LAYER_1
 62
     1
 10
-102.8008
 20
76.7389
  0
VERTEX
  8
_LAYER_1
 62
     1
 10
-106.2934
 20
74.3893
  0
VERTEX
  8
_LAYER_1
 62
     1
 10
-108.4841
 20
72.807
  0
SEQEND
  8
_LAYER_1
 62
     1
  0
POLYLINE
  8
_LAYER_1
 62
     1
 66
     1
  0
VERTEX
  8
_LAYER_1
 62
     1
 10
138.4355
 20
47.529
  0
VERTEX
  8
_LAYER_1
 62
     1
 10
135.7687
 20
50.4497
  0
VERTEX
  8
_LAYER_1
 62
     1
 10
132.9747
 20
53.3074
  0
VERTEX
  8
_LAYER_1
 62
     1
 10
130.1807
 20
56.1014
  0
VERTEX
  8
_LAYER_1
 62
     1
 10
127.323
 20
58.832
  0
VERTEX
  8
_LAYER_1
 62
     1
 10
124.4022
 20
61.4988
  0
VERTEX
  8
_LAYER_1
 62
     1
 10
121.4178
 20
64.0389
  0
VERTEX
  8
_LAYER_1
 62
     1
 10
118.3695
 20
66.579
  0
VERTEX
  8
_LAYER_1
 62
     1
 10
116.5602
 20
68.0276
  0
SEQEND
  8
_LAYER_1
 62
     1
  0
POLYLINE
  8
_LAYER_1
 62
     1
 66
     1
  0
VERTEX
  8
_LAYER_1
 62
     1
 10
60.2129
 20
47.529
  0
VERTEX
  8
_LAYER_1
 62
     1
 10
138.4355
 20
47.529
  0
SEQEND
  8
_LAYER_1
 62
     1
  0
POLYLINE
  8
_LAYER_1
 62
     1
 66
     1
  0
VERTEX
  8
_LAYER_1
 62
     1
 10
4.0626
 20
47.529
  0
VERTEX
  8
_LAYER_1
 62
     1
 10
53.99
 20
47.529
  0
SEQEND
  8
_LAYER_1
 62
     1
  0
POLYLINE
  8
_LAYER_1
 62
     1
 66
     1
  0
VERTEX
  8
_LAYER_1
 62
     1
 10
-114.707
 20
58.5777
  0
VERTEX
  8
_LAYER_1
 62
     1
 10
-114.707
 20
68.0493
  0
SEQEND
  8
_LAYER_1
 62
     1
  0
POLYLINE
  8
_LAYER_1
 62
     1
 66
     1
  0
VERTEX
  8
_LAYER_1
 62
     1
 10
-108.4841
 20
58.5777
  0
VERTEX
  8
_LAYER_1
 62
     1
 10
-108.4841
 20
72.807
  0
SEQEND
  8
_LAYER_1
 62
     1
  0
POLYLINE
  8
_LAYER_1
 62
     1
 66
     1
  0
VERTEX
  8
_LAYER_1
 62
     1
 10
-114.707
 20
58.5777
  0
VERTEX
  8
_LAYER_1
 62
     1
 10
-108.4841
 20
58.5777
  0
SEQEND
  8
_LAYER_1
 62
     1
  0
POLYLINE
  8
_LAYER_1
 62
     1
 66
     1
  0
VERTEX
  8
_LAYER_1
 62
     1
 10
-58.4462
 20
73.1829
  0
VERTEX
  8
_LAYER_1
 62
     1
 10
-52.2233
 20
73.1829
  0
SEQEND
  8
_LAYER_1
 62
     1
  0
POLYLINE
  8
_LAYER_1
 62
     1
 66
     1
  0
VERTEX
  8
_LAYER_1
 62
     1
 10
-58.4462
 20
73.1829
  0
VERTEX
  8
_LAYER_1
 62
     1
 10
-58.4462
 20
47.529
  0
SEQEND
  8
_LAYER_1
 62
     1
  0
POLYLINE
  8
_LAYER_1
 62
     1
 66
     1
  0
VERTEX
  8
_LAYER_1
 62
     1
 10
-52.2233
 20
73.1829
  0
VERTEX
  8
_LAYER_1
 62
     1
 10
-52.2233
 20
47.529
  0
SEQEND
  8
_LAYER_1
 62
     1
  0
POLYLINE
  8
_LAYER_1
 62
     1
 66
     1
  0
VERTEX
  8
_LAYER_1
 62
     1
 10
-2.1602
 20
77.5643
  0
VERTEX
  8
_LAYER_1
 62
     1
 10
-2.1602
 20
47.529
  0
SEQEND
  8
_LAYER_1
 62
     1
  0
POLYLINE
  8
_LAYER_1
 62
     1
 66
     1
  0
VERTEX
  8
_LAYER_1
 62
     1
 10
4.0626
 20
77.5643
  0
VERTEX
  8
_LAYER_1
 62
     1
 10
4.0626
 20
47.529
  0
SEQEND
  8
_LAYER_1
 62
     1
  0
POLYLINE
  8
_LAYER_1
 62
     1
 66
     1
  0
VERTEX
  8
_LAYER_1
 62
     1
 10
53.99
 20
73.1829
  0
VERTEX
  8
_LAYER_1
 62
     1
 10
53.99
 20
47.529
  0
SEQEND
  8
_LAYER_1
 62
     1
  0
POLYLINE
  8
_LAYER_1
 62
     1
 66
     1
  0
VERTEX
  8
_LAYER_1
 62
     1
 10
60.2129
 20
73.1829
  0
VERTEX
  8
_LAYER_1
 62
     1
 10
60.2129
 20
47.529
  0
SEQEND
  8
_LAYER_1
 62
     1
  0
POLYLINE
  8
_LAYER_1
 62
     1
 66
     1
  0
VERTEX
  8
_LAYER_1
 62
     1
 10
53.99
 20
73.1829
  0
VERTEX
  8
_LAYER_1
 62
     1
 10
60.2129
 20
73.1829
  0
SEQEND
  8
_LAYER_1
 62
     1
  0
POLYLINE
  8
_LAYER_1
 62
     1
 66
     1
  0
VERTEX
  8
_LAYER_1
 62
     1
 10
-2.1602
 20
77.5643
  0
VERTEX
  8
_LAYER_1
 62
     1
 10
4.0626
 20
77.5643
  0
SEQEND
  8
_LAYER_1
 62
     1
  0
POLYLINE
  8
_LAYER_1
 62
     1
 66
     1
  0
VERTEX
  8
_LAYER_1
 62
     1
 10
116.5602
 20
58.556
  0
VERTEX
  8
_LAYER_1
 62
     1
 10
116.5602
 20
68.0276
  0
SEQEND
  8
_LAYER_1
 62
     1
  0
POLYLINE
  8
_LAYER_1
 62
     1
 66
     1
  0
VERTEX
  8
_LAYER_1
 62
     1
 10
110.3369
 20
58.556
  0
VERTEX
  8
_LAYER_1
 62
     1
 10
110.3369
 20
72.7853
  0
SEQEND
  8
_LAYER_1
 62
     1
  0
POLYLINE
  8
_LAYER_1
 62
     1
 66
     1
  0
VERTEX
  8
_LAYER_1
 62
     1
 10
116.5602
 20
58.556
  0
VERTEX
  8
_LAYER_1
 62
     1
 10
110.3369
 20
58.556
  0
SEQEND
  8
_LAYER_1
 62
     1
  0
ENDSEC
  0
EOF
