  0
SECTION
  2
HEADER
  9
$ACADVER
  1
AC1009
  9
$DWGCODEPAGE
  3
ansi_1252
  9
$INSBASE
 10
0.0
 20
0.0
 30
0.0
  9
$EXTMIN
 10
0.0
 20
0.0
 30
0.0
  9
$EXTMAX
 10
592.860112835258
 20
292.4345910470109
 30
0.0
  9
$LIMMIN
 10
0.0
 20
0.0
  9
$LIMMAX
 10
12.0
 20
9.0
  9
$ORTHOMODE
 70
     0
  9
$REGENMODE
 70
     1
  9
$FILLMODE
 70
     1
  9
$QTEXTMODE
 70
     0
  9
$MIRRTEXT
 70
     0
  9
$DRAGMODE
 70
     2
  9
$LTSCALE
 40
1.0
  9
$OSMODE
 70
  4791
  9
$ATTMODE
 70
     1
  9
$TEXTSIZE
 40
0.2
  9
$TRACEWID
 40
0.05
  9
$TEXTSTYLE
  7
STANDARD
  9
$CLAYER
  8
0
  9
$CELTYPE
  6
BYLAYER
  9
$CECOLOR
 62
   256
  9
$DIMSCALE
 40
1.0
  9
$DIMASZ
 40
0.18
  9
$DIMEXO
 40
0.0625
  9
$DIMDLI
 40
0.38
  9
$DIMRND
 40
0.0
  9
$DIMDLE
 40
0.0
  9
$DIMEXE
 40
0.18
  9
$DIMTP
 40
0.0
  9
$DIMTM
 40
0.0
  9
$DIMTXT
 40
0.18
  9
$DIMCEN
 40
0.09
  9
$DIMTSZ
 40
0.0
  9
$DIMTOL
 70
     0
  9
$DIMLIM
 70
     0
  9
$DIMTIH
 70
     1
  9
$DIMTOH
 70
     1
  9
$DIMSE1
 70
     0
  9
$DIMSE2
 70
     0
  9
$DIMTAD
 70
     0
  9
$DIMZIN
 70
     0
  9
$DIMBLK
  1

  9
$DIMASO
 70
     1
  9
$DIMSHO
 70
     1
  9
$DIMPOST
  1

  9
$DIMAPOST
  1

  9
$DIMALT
 70
     0
  9
$DIMALTD
 70
     2
  9
$DIMALTF
 40
25.4
  9
$DIMLFAC
 40
1.0
  9
$DIMTOFL
 70
     0
  9
$DIMTVP
 40
0.0
  9
$DIMTIX
 70
     0
  9
$DIMSOXD
 70
     0
  9
$DIMSAH
 70
     0
  9
$DIMBLK1
  1

  9
$DIMBLK2
  1

  9
$DIMSTYLE
  2
STANDARD
  9
$DIMCLRD
 70
     0
  9
$DIMCLRE
 70
     0
  9
$DIMCLRT
 70
     0
  9
$DIMTFAC
 40
1.0
  9
$DIMGAP
 40
0.09
  9
$LUNITS
 70
     2
  9
$LUPREC
 70
     4
  9
$SKETCHINC
 40
0.1
  9
$FILLETRAD
 40
0.0
  9
$AUNITS
 70
     0
  9
$AUPREC
 70
     0
  9
$MENU
  1
.
  9
$ELEVATION
 40
0.0
  9
$PELEVATION
 40
0.0
  9
$THICKNESS
 40
0.0
  9
$LIMCHECK
 70
     0
  9
$CHAMFERA
 40
0.0
  9
$CHAMFERB
 40
0.0
  9
$SKPOLY
 70
     0
  9
$TDCREATE
 40
2452643.146717604
  9
$TDUPDATE
 40
2458268.48870059
  9
$TDINDWG
 40
0.0041092245
  9
$TDUSRTIMER
 40
2458268.401257407
  9
$USRTIMER
 70
     1
  9
$ANGBASE
 50
0.0
  9
$ANGDIR
 70
     0
  9
$PDMODE
 70
     0
  9
$PDSIZE
 40
0.0
  9
$PLINEWID
 40
0.0
  9
$COORDS
 70
     1
  9
$SPLFRAME
 70
     0
  9
$SPLINETYPE
 70
     6
  9
$SPLINESEGS
 70
     8
  9
$ATTDIA
 70
     0
  9
$ATTREQ
 70
     1
  9
$HANDLING
 70
     1
  9
$HANDSEED
  5
E7F
  9
$SURFTAB1
 70
     6
  9
$SURFTAB2
 70
     6
  9
$SURFTYPE
 70
     6
  9
$SURFU
 70
     6
  9
$SURFV
 70
     6
  9
$UCSNAME
  2

  9
$UCSORG
 10
0.0
 20
0.0
 30
0.0
  9
$UCSXDIR
 10
1.0
 20
0.0
 30
0.0
  9
$UCSYDIR
 10
0.0
 20
1.0
 30
0.0
  9
$PUCSNAME
  2

  9
$PUCSORG
 10
0.0
 20
0.0
 30
0.0
  9
$PUCSXDIR
 10
1.0
 20
0.0
 30
0.0
  9
$PUCSYDIR
 10
0.0
 20
1.0
 30
0.0
  9
$USERI1
 70
     0
  9
$USERI2
 70
     0
  9
$USERI3
 70
     0
  9
$USERI4
 70
     0
  9
$USERI5
 70
     0
  9
$USERR1
 40
0.0
  9
$USERR2
 40
0.0
  9
$USERR3
 40
0.0
  9
$USERR4
 40
0.0
  9
$USERR5
 40
0.0
  9
$WORLDVIEW
 70
     1
  9
$SHADEDGE
 70
     3
  9
$SHADEDIF
 70
    70
  9
$TILEMODE
 70
     1
  9
$MAXACTVP
 70
    64
  9
$PLIMCHECK
 70
     0
  9
$PEXTMIN
 10
0.0
 20
0.0
 30
0.0
  9
$PEXTMAX
 10
0.0
 20
0.0
 30
0.0
  9
$PLIMMIN
 10
0.0
 20
0.0
  9
$PLIMMAX
 10
0.0
 20
0.0
  9
$UNITMODE
 70
     0
  9
$VISRETAIN
 70
     1
  9
$PLINEGEN
 70
     0
  9
$PSLTSCALE
 70
     1
  0
ENDSEC
  0
SECTION
  2
TABLES
  0
TABLE
  2
VPORT
 70
     1
  0
VPORT
  2
*ACTIVE
 70
     0
 10
0.0
 20
0.0
 11
1.0
 21
1.0
 12
342.1338395635332
 22
138.8430131113269
 13
0.0
 23
0.0
 14
0.5
 24
0.5
 15
0.5
 25
0.5
 16
0.0
 26
0.0
 36
1.0
 17
-27.66959356597982
 27
-19.53870295786203
 37
0.0
 40
372.854103584939
 41
2.192878338278932
 42
50.0
 43
0.0
 44
0.0
 50
0.0
 51
0.0
 71
    16
 72
  1000
 73
     1
 74
     3
 75
     0
 76
     0
 77
     0
 78
     0
  0
ENDTAB
  0
TABLE
  2
LTYPE
 70
     1
  0
LTYPE
  2
CONTINUOUS
 70
     0
  3
Solid line
 72
    65
 73
     0
 40
0.0
  0
ENDTAB
  0
TABLE
  2
LAYER
 70
     5
  0
LAYER
  2
0
 70
     0
 62
     7
  6
CONTINUOUS
  0
LAYER
  2
TALL__2
 70
     0
 62
     2
  6
CONTINUOUS
  0
LAYER
  2
TALL_1
 70
     0
 62
     4
  6
CONTINUOUS
  0
LAYER
  2
NO_IMPRES
 70
     0
 62
    -5
  6
CONTINUOUS
  0
LAYER
  2
GRAVAT
 70
     0
 62
     6
  6
CONTINUOUS
  0
ENDTAB
  0
TABLE
  2
STYLE
 70
     2
  0
STYLE
  2
STANDARD
 70
     0
 40
0.0
 41
1.0
 50
0.0
 71
     0
 42
0.2
  3
arial.ttf
  4

  0
STYLE
  2
ANNOTATIVE
 70
     0
 40
0.0
 41
1.0
 50
0.0
 71
     0
 42
0.2
  3
arial.ttf
  4

  0
ENDTAB
  0
TABLE
  2
VIEW
 70
     0
  0
ENDTAB
  0
TABLE
  2
UCS
 70
     0
  0
ENDTAB
  0
TABLE
  2
APPID
 70
     4
  0
APPID
  2
ACAD
 70
     0
  0
APPID
  2
ACADANNOTATIVE
 70
     0
  0
APPID
  2
ACAECLAYERSTANDARD
 70
     0
  0
APPID
  2
PLOTTRANSPARENCY
 70
     0
  0
ENDTAB
  0
TABLE
  2
DIMSTYLE
 70
     3
  0
DIMSTYLE
  2
STANDARD
 70
     0
  3

  4

  5

  6

  7

 40
1.0
 41
0.18
 42
0.0625
 43
0.38
 44
0.18
 45
0.0
 46
0.0
 47
0.0
 48
0.0
140
0.18
141
0.09
142
0.0
143
25.4
144
1.0
145
0.0
146
1.0
147
0.09
 71
     0
 72
     0
 73
     1
 74
     1
 75
     0
 76
     0
 77
     0
 78
     0
170
     0
171
     2
172
     0
173
     0
174
     0
175
     0
176
     0
177
     0
178
     0
  0
DIMSTYLE
  2
ANNOTATIVE
 70
     0
  3

  4

  5

  6

  7

 40
0.0
 41
0.18
 42
0.0625
 43
0.38
 44
0.18
 45
0.0
 46
0.0
 47
0.0
 48
0.0
140
0.18
141
0.09
142
0.0
143
25.4
144
1.0
145
0.0
146
1.0
147
0.09
 71
     0
 72
     0
 73
     1
 74
     1
 75
     0
 76
     0
 77
     0
 78
     0
170
     0
171
     2
172
     0
173
     0
174
     0
175
     0
176
     0
177
     0
178
     0
  0
DIMSTYLE
  2
ISO-25
 70
     0
  3

  4

  5

  6

  7

 40
1.0
 41
2.5
 42
0.625
 43
3.75
 44
1.25
 45
0.0
 46
0.0
 47
0.0
 48
0.0
140
2.5
141
2.5
142
0.0
143
0.03937007874016
144
1.0
145
0.0
146
1.0
147
0.625
 71
     0
 72
     0
 73
     0
 74
     0
 75
     0
 76
     0
 77
     1
 78
     8
170
     0
171
     3
172
     1
173
     0
174
     0
175
     0
176
     0
177
     0
178
     0
  0
ENDTAB
  0
ENDSEC
  0
SECTION
  2
BLOCKS
  0
BLOCK
  8
0
  2
$MODEL_SPACE
 70
     0
 10
0.0
 20
0.0
 30
0.0
  3
$MODEL_SPACE
  1

  0
ENDBLK
  5
21
  8
0
  0
BLOCK
 67
     1
  8
0
  2
$PAPER_SPACE
 70
     0
 10
0.0
 20
0.0
 30
0.0
  3
$PAPER_SPACE
  1

  0
ENDBLK
  5
5B
 67
     1
  8
0
  0
BLOCK
  8
0
  2
*U2
 70
     1
 10
0.0
 20
0.0
 30
0.0
  3
*U2
  1

  0
SOLID
  5
DAD
  8
GRAVAT
  6
CONTINUOUS
 10
250.7941856851415
 20
101.0476775087444
 30
0.0
 11
248.6681300350641
 21
103.1642519517475
 31
0.0
 12
250.7941856851415
 22
105.2998312800194
 32
0.0
 13
250.7941856851415
 23
105.2998312800194
 33
0.0
1001
ACAD
1010
0.0
1020
0.0
1030
0.0
  0
SOLID
  5
DAE
  8
GRAVAT
  6
CONTINUOUS
 10
250.7941856851415
 20
101.0476775087444
 30
0.0
 11
250.7941856851415
 21
105.2998312800194
 31
0.0
 12
255.6398310111644
 22
105.9150289301501
 32
0.0
 13
255.6398310111644
 23
105.9150289301501
 33
0.0
1001
ACAD
1010
0.0
1020
0.0
1030
0.0
  0
SOLID
  5
DAF
  8
GRAVAT
  6
CONTINUOUS
 10
255.6398310111644
 20
105.9150289301501
 30
0.0
 11
250.7941856851415
 21
105.2998312800194
 31
0.0
 12
255.6398310111644
 22
110.1671827014251
 32
0.0
 13
255.6398310111644
 23
110.1671827014251
 33
0.0
1001
ACAD
1010
0.0
1020
0.0
1030
0.0
  0
SOLID
  5
DB0
  8
GRAVAT
  6
CONTINUOUS
 10
255.6398310111644
 20
105.9150289301501
 30
0.0
 11
255.6398310111644
 21
110.1671827014251
 31
0.0
 12
257.7658866612418
 22
108.050608258422
 32
0.0
 13
257.7658866612418
 23
108.050608258422
 33
0.0
1001
ACAD
1010
0.0
1020
0.0
1030
0.0
  0
SOLID
  5
DB1
  8
GRAVAT
  6
CONTINUOUS
 10
335.2201112497372
 20
107.7189111514676
 30
0.0
 11
334.9955600656651
 21
107.9424609429962
 31
0.0
 12
335.2201112497372
 22
108.1680180053553
 32
0.0
 13
335.2201112497372
 23
108.1680180053553
 33
0.0
1001
ACAD
1010
0.0
1020
0.0
1030
0.0
  0
SOLID
  5
DB2
  8
GRAVAT
  6
CONTINUOUS
 10
335.2201112497372
 20
107.7189111514676
 30
0.0
 11
335.2201112497372
 21
108.1680180053553
 31
0.0
 12
337.1121345086682
 22
105.8353254253484
 32
0.0
 13
337.1121345086682
 23
105.8353254253484
 33
0.0
1001
ACAD
1010
0.0
1020
0.0
1030
0.0
  0
SOLID
  5
DB3
  8
GRAVAT
  6
CONTINUOUS
 10
337.1121345086682
 20
105.8353254253484
 30
0.0
 11
335.2201112497372
 21
108.1680180053553
 31
0.0
 12
337.1121345086682
 22
110.0685165930736
 32
0.0
 13
337.1121345086682
 23
110.0685165930736
 33
0.0
1001
ACAD
1010
0.0
1020
0.0
1030
0.0
  0
SOLID
  5
DB4
  8
GRAVAT
  6
CONTINUOUS
 10
337.1121345086682
 20
182.48131052103
 30
0.0
 11
335.2201112497372
 21
184.3648962471491
 31
0.0
 12
337.1121345086682
 22
186.2653948348675
 32
0.0
 13
337.1121345086682
 23
186.2653948348675
 33
0.0
1001
ACAD
1010
0.0
1020
0.0
1030
0.0
  0
SOLID
  5
DB5
  8
GRAVAT
  6
CONTINUOUS
 10
337.1121345086682
 20
105.8353254253484
 30
0.0
 11
337.1121345086682
 21
110.0685165930736
 31
0.0
 12
337.3461668998146
 22
105.6023367084644
 32
0.0
 13
337.3461668998146
 23
105.6023367084644
 33
0.0
1001
ACAD
1010
0.0
1020
0.0
1030
0.0
  0
SOLID
  5
DB6
  8
GRAVAT
  6
CONTINUOUS
 10
337.3461668998146
 20
105.6023367084644
 30
0.0
 11
337.1121345086682
 21
110.0685165930736
 31
0.0
 12
337.3461668998146
 22
109.8355278761897
 32
0.0
 13
337.3461668998146
 23
109.8355278761897
 33
0.0
1001
ACAD
1010
0.0
1020
0.0
1030
0.0
  0
SOLID
  5
DB7
  8
GRAVAT
  6
CONTINUOUS
 10
337.1121345086682
 20
182.48131052103
 30
0.0
 11
337.1121345086682
 21
186.2653948348675
 31
0.0
 12
337.3461668998146
 22
182.248321804146
 32
0.0
 13
337.3461668998146
 23
182.248321804146
 33
0.0
1001
ACAD
1010
0.0
1020
0.0
1030
0.0
  0
SOLID
  5
DB8
  8
GRAVAT
  6
CONTINUOUS
 10
337.3461668998146
 20
182.248321804146
 30
0.0
 11
337.1121345086682
 21
186.2653948348675
 31
0.0
 12
337.3461668998146
 22
186.5004755754211
 32
0.0
 13
337.3461668998146
 23
186.5004755754211
 33
0.0
1001
ACAD
1010
0.0
1020
0.0
1030
0.0
  0
SOLID
  5
DB9
  8
GRAVAT
  6
CONTINUOUS
 10
337.3461668998146
 20
105.6023367084644
 30
0.0
 11
337.3461668998146
 21
109.8355278761897
 31
0.0
 12
341.9984908153427
 22
100.9707599668959
 32
0.0
 13
341.9984908153427
 23
100.9707599668959
 33
0.0
1001
ACAD
1010
0.0
1020
0.0
1030
0.0
  0
SOLID
  5
DBA
  8
GRAVAT
  6
CONTINUOUS
 10
341.9984908153427
 20
100.9707599668959
 30
0.0
 11
337.3461668998146
 21
109.8355278761897
 31
0.0
 12
341.9984908153427
 22
105.2039511346211
 32
0.0
 13
341.9984908153427
 23
105.2039511346211
 33
0.0
1001
ACAD
1010
0.0
1020
0.0
1030
0.0
  0
SOLID
  5
DBB
  8
GRAVAT
  6
CONTINUOUS
 10
337.3461668998146
 20
182.248321804146
 30
0.0
 11
337.3461668998146
 21
186.5004755754211
 31
0.0
 12
341.9984908153427
 22
186.9214858307156
 32
0.0
 13
341.9984908153427
 23
186.9214858307156
 33
0.0
1001
ACAD
1010
0.0
1020
0.0
1030
0.0
  0
SOLID
  5
DBC
  8
GRAVAT
  6
CONTINUOUS
 10
341.9984908153427
 20
186.9214858307156
 30
0.0
 11
337.3461668998146
 21
186.5004755754211
 31
0.0
 12
341.9984908153427
 22
191.1736396019907
 32
0.0
 13
341.9984908153427
 23
191.1736396019907
 33
0.0
1001
ACAD
1010
0.0
1020
0.0
1030
0.0
  0
SOLID
  5
DBD
  8
GRAVAT
  6
CONTINUOUS
 10
341.9984908153427
 20
100.9707599668959
 30
0.0
 11
341.9984908153427
 21
105.2039511346211
 31
0.0
 12
342.1918122258376
 22
101.164947361732
 32
0.0
 13
342.1918122258376
 23
101.164947361732
 33
0.0
1001
ACAD
1010
0.0
1020
0.0
1030
0.0
  0
SOLID
  5
DBE
  8
GRAVAT
  6
CONTINUOUS
 10
342.1918122258376
 20
101.164947361732
 30
0.0
 11
341.9984908153427
 21
105.2039511346211
 31
0.0
 12
342.1918122258376
 22
105.0114918465852
 32
0.0
 13
342.1918122258376
 23
105.0114918465852
 33
0.0
1001
ACAD
1010
0.0
1020
0.0
1030
0.0
  0
SOLID
  5
DBF
  8
GRAVAT
  6
CONTINUOUS
 10
341.9984908153427
 20
186.9214858307156
 30
0.0
 11
341.9984908153427
 21
191.1736396019907
 31
0.0
 12
342.1918122258376
 22
187.1156732255517
 32
0.0
 13
342.1918122258376
 23
187.1156732255517
 33
0.0
1001
ACAD
1010
0.0
1020
0.0
1030
0.0
  0
SOLID
  5
DC0
  8
GRAVAT
  6
CONTINUOUS
 10
342.1918122258376
 20
187.1156732255517
 30
0.0
 11
341.9984908153427
 21
191.1736396019907
 31
0.0
 12
342.1918122258376
 22
191.3678269968268
 32
0.0
 13
342.1918122258376
 23
191.3678269968268
 33
0.0
1001
ACAD
1010
0.0
1020
0.0
1030
0.0
  0
SOLID
  5
DC1
  8
GRAVAT
  6
CONTINUOUS
 10
342.1918122258376
 20
101.164947361732
 30
0.0
 11
342.1918122258376
 21
105.0114918465852
 31
0.0
 12
344.1150652583459
 22
103.0968156169733
 32
0.0
 13
344.1150652583459
 23
103.0968156169733
 33
0.0
1001
ACAD
1010
0.0
1020
0.0
1030
0.0
  0
SOLID
  5
DC2
  8
GRAVAT
  6
CONTINUOUS
 10
342.1918122258376
 20
187.1156732255517
 30
0.0
 11
342.1918122258376
 21
191.3678269968268
 31
0.0
 12
344.1150652583459
 22
189.047541480793
 32
0.0
 13
344.1150652583459
 23
189.047541480793
 33
0.0
1001
ACAD
1010
0.0
1020
0.0
1030
0.0
  0
SOLID
  5
DC3
  8
GRAVAT
  6
CONTINUOUS
 10
344.1150652583459
 20
189.047541480793
 30
0.0
 11
342.1918122258376
 21
191.3678269968268
 31
0.0
 12
344.1150652583459
 22
189.4531507672149
 32
0.0
 13
344.1150652583459
 23
189.4531507672149
 33
0.0
1001
ACAD
1010
0.0
1020
0.0
1030
0.0
  0
SOLID
  5
DC4
  8
GRAVAT
  6
CONTINUOUS
 10
344.1150652583459
 20
189.047541480793
 30
0.0
 11
344.1150652583459
 21
189.4531507672149
 31
0.0
 12
344.317867875915
 22
189.2512525538237
 32
0.0
 13
344.317867875915
 23
189.2512525538237
 33
0.0
1001
ACAD
1010
0.0
1020
0.0
1030
0.0
  0
ENDBLK
  5
E58
  8
0
  0
BLOCK
  8
0
  2
*U3
 70
     1
 10
0.0
 20
0.0
 30
0.0
  3
*U3
  1

  0
SOLID
  5
DDF
  8
GRAVAT
  6
CONTINUOUS
 10
236.5497155064496
 20
153.6146698341065
 30
0.0
 11
234.6106151069392
 21
155.4937965532107
 31
0.0
 12
236.5497155064496
 22
156.0470980496511
 32
0.0
 13
236.5497155064496
 23
156.0470980496511
 33
0.0
1001
ACAD
1010
0.0
1020
0.0
1030
0.0
  0
SOLID
  5
DE0
  8
GRAVAT
  6
CONTINUOUS
 10
236.5497155064496
 20
153.6146698341065
 30
0.0
 11
236.5497155064496
 21
155.0071853128422
 31
0.0
 12
306.4091345531826
 22
85.91590552826973
 32
0.0
 13
306.4091345531826
 23
85.91590552826973
 33
0.0
1001
ACAD
1010
0.0
1020
0.0
1030
0.0
  0
SOLID
  5
DE1
  8
GRAVAT
  6
CONTINUOUS
 10
306.4091345531826
 20
85.91590552826973
 30
0.0
 11
236.5497155064496
 21
155.0071853128422
 31
0.0
 12
306.4091345531826
 22
87.30842100700549
 32
0.0
 13
306.4091345531826
 23
87.30842100700549
 33
0.0
1001
ACAD
1010
0.0
1020
0.0
1030
0.0
  0
SOLID
  5
DE2
  8
GRAVAT
  6
CONTINUOUS
 10
236.5497155064496
 20
155.0071853128421
 30
0.0
 11
236.5497155064496
 21
156.0470980496511
 31
0.0
 12
306.4091345531826
 22
174.9408210899113
 32
0.0
 13
306.4091345531826
 23
174.9408210899113
 33
0.0
1001
ACAD
1010
0.0
1020
0.0
1030
0.0
  0
SOLID
  5
DE3
  8
GRAVAT
  6
CONTINUOUS
 10
306.4091345531826
 20
174.9408210899113
 30
0.0
 11
236.5497155064496
 21
156.0470980496511
 31
0.0
 12
306.4091345531826
 22
175.98073382672
 32
0.0
 13
306.4091345531826
 23
175.98073382672
 33
0.0
1001
ACAD
1010
0.0
1020
0.0
1030
0.0
  0
SOLID
  5
DE4
  8
GRAVAT
  6
CONTINUOUS
 10
306.4091345531826
 20
85.91590552826973
 30
0.0
 11
306.4091345531826
 21
87.3084210070055
 31
0.0
 12
306.9564064170788
 22
85.38556002252872
 32
0.0
 13
306.9564064170788
 23
85.38556002252872
 33
0.0
1001
ACAD
1010
0.0
1020
0.0
1030
0.0
  0
SOLID
  5
DE5
  8
GRAVAT
  6
CONTINUOUS
 10
306.9564064170788
 20
85.38556002252872
 30
0.0
 11
306.4091345531826
 21
87.3084210070055
 31
0.0
 12
306.9564064170788
 22
89.48306255336948
 32
0.0
 13
306.9564064170788
 23
89.48306255336948
 33
0.0
1001
ACAD
1010
0.0
1020
0.0
1030
0.0
  0
SOLID
  5
DE6
  8
GRAVAT
  6
CONTINUOUS
 10
306.4091345531826
 20
174.9408210899113
 30
0.0
 11
306.4091345531826
 21
175.98073382672
 31
0.0
 12
306.9564064170788
 22
175.0969792451723
 32
0.0
 13
306.9564064170788
 23
175.0969792451723
 33
0.0
1001
ACAD
1010
0.0
1020
0.0
1030
0.0
  0
SOLID
  5
DE7
  8
GRAVAT
  6
CONTINUOUS
 10
306.9564064170788
 20
175.0969792451723
 30
0.0
 11
306.4091345531826
 21
175.98073382672
 31
0.0
 12
306.9564064170788
 22
176.1368919819811
 32
0.0
 13
306.9564064170788
 23
176.1368919819811
 33
0.0
1001
ACAD
1010
0.0
1020
0.0
1030
0.0
  0
SOLID
  5
DE8
  8
GRAVAT
  6
CONTINUOUS
 10
306.9564064170788
 20
85.38556002252872
 30
0.0
 11
306.9564064170788
 21
89.48306255336948
 31
0.0
 12
330.1689272482625
 22
177.6229205108926
 32
0.0
 13
330.1689272482625
 23
177.6229205108926
 33
0.0
1001
ACAD
1010
0.0
1020
0.0
1030
0.0
  0
SOLID
  5
DE9
  8
GRAVAT
  6
CONTINUOUS
 10
330.1689272482625
 20
177.6229205108926
 30
0.0
 11
306.9564064170788
 21
89.48306255336948
 31
0.0
 12
330.1689272482625
 22
181.7204230417334
 32
0.0
 13
330.1689272482625
 23
181.7204230417334
 33
0.0
1001
ACAD
1010
0.0
1020
0.0
1030
0.0
  0
SOLID
  5
DEA
  8
GRAVAT
  6
CONTINUOUS
 10
306.9564064170788
 20
175.0969792451723
 30
0.0
 11
306.9564064170788
 21
176.1368919819811
 31
0.0
 12
330.1689272482625
 22
181.7204230417334
 32
0.0
 13
330.1689272482625
 23
181.7204230417334
 33
0.0
1001
ACAD
1010
0.0
1020
0.0
1030
0.0
  0
SOLID
  5
DEB
  8
GRAVAT
  6
CONTINUOUS
 10
330.1689272482625
 20
181.7204230417334
 30
0.0
 11
306.9564064170788
 21
176.1368919819811
 31
0.0
 12
330.1689272482625
 22
182.7603357785421
 32
0.0
 13
330.1689272482625
 23
182.7603357785421
 33
0.0
1001
ACAD
1010
0.0
1020
0.0
1030
0.0
  0
SOLID
  5
DEC
  8
GRAVAT
  6
CONTINUOUS
 10
330.1689272482625
 20
177.6229205108926
 30
0.0
 11
330.1689272482625
 21
182.7603357785421
 31
0.0
 12
331.5618358258253
 22
183.1577872981048
 32
0.0
 13
331.5618358258253
 23
183.1577872981048
 33
0.0
1001
ACAD
1010
0.0
1020
0.0
1030
0.0
  0
ENDBLK
  5
E5A
  8
0
  0
ENDSEC
  0
SECTION
  2
ENTITIES
  0
LINE
  5
5BD
  8
TALL_1
 10
351.3412968479948
 20
190.795997141688
 30
0.0
 11
347.4522095514689
 21
194.6850844382141
 31
0.0
  0
LINE
  5
5BE
  8
TALL_1
 10
347.0639612195382
 20
186.5186615132316
 30
0.0
 11
343.1748739230123
 21
190.4077488097577
 31
0.0
  0
LINE
  5
5BF
  8
TALL_1
 10
351.3412968479948
 20
190.795997141688
 30
0.0
 11
347.0639612195382
 21
186.5186615132316
 31
0.0
  0
LINE
  5
5C0
  8
TALL_1
 10
339.2857866264862
 20
194.2968361062837
 30
0.0
 11
343.1748739230122
 21
190.4077488097577
 31
0.0
  0
LINE
  5
5C1
  8
TALL_1
 10
343.5631222549429
 20
198.5741717347401
 30
0.0
 11
339.2857866264862
 21
194.2968361062837
 31
0.0
  0
LINE
  5
5C2
  8
TALL_1
 10
343.5631222549429
 20
198.5741717347401
 30
0.0
 11
347.4522095514687
 21
194.685084438214
 31
0.0
  0
CIRCLE
  5
5C3
  8
TALL_1
 10
339.8688195221042
 20
197.9911388391224
 30
0.0
 40
1.05
  0
CIRCLE
  5
5C4
  8
TALL_1
 10
350.7582639523769
 20
187.1016944088494
 30
0.0
 40
1.05
  0
ARC
  5
5C5
  8
TALL__2
 10
295.2990943265434
 20
245.7474701839852
 30
0.0
 40
78.62927508301905
 50
325.9477660576675
 51
336.6954428153888
  0
ARC
  5
5C6
  8
TALL__2
 10
399.2397611289443
 20
142.6958437255004
 30
0.0
 40
78.62927508301905
 50
113.7967295790375
 51
124.5047633763915
  0
LINE
  5
5C7
  8
0
 10
592.7796638717041
 20
289.4799991119812
 30
0.0
 11
578.4055189086052
 21
289.4799991119812
 31
0.0
  0
LINE
  5
5C8
  8
0
 10
578.4055189086052
 20
289.4799991119812
 30
0.0
 11
578.4055189086052
 21
292.372747686981
 31
0.0
  0
LINE
  5
5C9
  8
0
 10
578.4055189086052
 20
292.372747686981
 30
0.0
 11
563.9417760336053
 21
292.372747686981
 31
0.0
  0
LINE
  5
5CA
  8
0
 10
563.9417760336053
 20
292.372747686981
 30
0.0
 11
563.9417760336053
 21
289.4799991119812
 31
0.0
  0
LINE
  5
5CB
  8
0
 10
563.9417760336053
 20
289.4799991119812
 30
0.0
 11
549.4780331586053
 21
289.4799991119812
 31
0.0
  0
LINE
  5
5CC
  8
0
 10
549.4780331586053
 20
289.4799991119812
 30
0.0
 11
549.4780331586053
 21
292.372747686981
 31
0.0
  0
LINE
  5
5CD
  8
0
 10
549.4780331586053
 20
292.372747686981
 30
0.0
 11
535.0142902836053
 21
292.372747686981
 31
0.0
  0
LINE
  5
5CE
  8
0
 10
535.0142902836053
 20
292.372747686981
 30
0.0
 11
535.0142902836053
 21
289.4799991119812
 31
0.0
  0
LINE
  5
5CF
  8
0
 10
535.0142902836053
 20
289.4799991119812
 30
0.0
 11
520.5505474086053
 21
289.4799991119812
 31
0.0
  0
LINE
  5
5D0
  8
0
 10
520.5505474086053
 20
289.4799991119812
 30
0.0
 11
520.5505474086053
 21
292.372747686981
 31
0.0
  0
LINE
  5
5D1
  8
0
 10
520.5505474086053
 20
292.372747686981
 30
0.0
 11
506.0868045336053
 21
292.372747686981
 31
0.0
  0
LINE
  5
5D2
  8
0
 10
506.0868045336053
 20
292.372747686981
 30
0.0
 11
506.0868045336053
 21
289.4799991119812
 31
0.0
  0
LINE
  5
5D3
  8
0
 10
506.0868045336053
 20
289.4799991119812
 30
0.0
 11
491.6230616586052
 21
289.4799991119812
 31
0.0
  0
LINE
  5
5D4
  8
0
 10
491.6230616586052
 20
289.4799991119812
 30
0.0
 11
491.6230616586052
 21
292.372747686981
 31
0.0
  0
LINE
  5
5D5
  8
0
 10
491.6230616586052
 20
292.372747686981
 30
0.0
 11
491.6230616586052
 21
292.372747686981
 31
0.0
  0
LINE
  5
5D6
  8
0
 10
491.6230616586052
 20
292.372747686981
 30
0.0
 11
477.1593187836052
 21
292.372747686981
 31
0.0
  0
LINE
  5
5D7
  8
0
 10
477.1593187836052
 20
292.372747686981
 30
0.0
 11
477.1593187836052
 21
289.4799991119812
 31
0.0
  0
LINE
  5
5D8
  8
0
 10
477.1593187836052
 20
289.4799991119812
 30
0.0
 11
462.6955759086052
 21
289.4799991119812
 31
0.0
  0
LINE
  5
5D9
  8
0
 10
462.6955759086052
 20
289.4799991119812
 30
0.0
 11
462.6955759086052
 21
292.372747686981
 31
0.0
  0
LINE
  5
5DA
  8
0
 10
462.6955759086052
 20
292.372747686981
 30
0.0
 11
451.1245816086053
 21
292.372747686981
 31
0.0
  0
LINE
  5
5DB
  8
0
 10
506.1764487074839
 20
150.6610495968896
 30
0.0
 11
506.1782772365472
 21
147.7701116737536
 31
0.0
  0
LINE
  5
5DC
  8
0
 10
506.1782772365472
 20
147.7701116737536
 30
0.0
 11
491.7145372547357
 21
147.760963304047
 31
0.0
  0
LINE
  5
5DD
  8
0
 10
491.7145372547357
 20
147.760963304047
 30
0.0
 11
491.7127087289351
 21
150.6518960691965
 31
0.0
  0
LINE
  5
5DE
  8
0
 10
491.7127087289351
 20
150.6518960691965
 30
0.0
 11
477.2489687510354
 21
150.6427425415039
 31
0.0
  0
LINE
  5
5DF
  8
0
 10
477.2489687510354
 20
150.6427425415039
 30
0.0
 11
477.2507972729246
 21
147.7518149343404
 31
0.0
  0
LINE
  5
5E0
  8
0
 10
477.2507972729246
 20
147.7518149343404
 30
0.0
 11
462.7870572911133
 21
147.7426665646339
 31
0.0
  0
LINE
  5
5E1
  8
0
 10
462.7870572911133
 20
147.7426665646339
 30
0.0
 11
462.7852287718374
 21
150.6335890138104
 31
0.0
  0
LINE
  5
5E2
  8
0
 10
462.7852287718374
 20
150.6335890138104
 30
0.0
 11
448.3214867090186
 21
150.6277307555945
 31
0.0
  0
LINE
  5
5E3
  8
0
 10
448.3214867090186
 20
150.6277307555945
 30
0.0
 11
448.3141689395962
 21
162.1972581767388
 31
0.0
  0
LINE
  5
5E4
  8
0
 10
448.3141689395962
 20
162.1972581767388
 30
0.0
 11
451.2069169359585
 21
162.19908785068
 31
0.0
  0
LINE
  5
5E5
  8
0
 10
451.2069169359585
 20
162.19908785068
 30
0.0
 11
451.1977685662525
 21
176.662827832491
 31
0.0
  0
LINE
  5
5E6
  8
0
 10
451.1977685662525
 20
176.662827832491
 30
0.0
 11
448.3050205698902
 21
176.6609981585499
 31
0.0
  0
LINE
  5
5E7
  8
0
 10
448.3050205698902
 20
176.6609981585499
 30
0.0
 11
448.2958722001843
 21
191.1247381403613
 31
0.0
  0
LINE
  5
5E8
  8
0
 10
448.2958722001843
 20
191.1247381403613
 30
0.0
 11
451.1886201965467
 21
191.1265678143024
 31
0.0
  0
LINE
  5
5E9
  8
0
 10
451.1886201965467
 20
191.1265678143024
 30
0.0
 11
451.1794718268406
 21
205.5903077961137
 31
0.0
  0
LINE
  5
5EA
  8
0
 10
451.1794718268406
 20
205.5903077961137
 30
0.0
 11
448.2867238304785
 21
205.5884781221726
 31
0.0
  0
LINE
  5
5EB
  8
0
 10
448.2867238304785
 20
205.5884781221726
 30
0.0
 11
448.2775754607725
 21
220.0522181039838
 31
0.0
  0
LINE
  5
5EC
  8
0
 10
448.2775754607725
 20
220.0522181039838
 30
0.0
 11
451.1703234571348
 21
220.0540477779249
 31
0.0
  0
LINE
  5
5ED
  8
0
 10
451.1703234571348
 20
220.0540477779249
 30
0.0
 11
451.1611750874288
 21
234.5177877597361
 31
0.0
  0
LINE
  5
5EE
  8
0
 10
451.1611750874288
 20
234.5177877597361
 30
0.0
 11
448.2684270910666
 21
234.5159580857949
 31
0.0
  0
LINE
  5
5EF
  8
0
 10
448.2684270910666
 20
234.5159580857949
 30
0.0
 11
448.2684270910666
 21
234.5159580857949
 31
0.0
  0
LINE
  5
5F0
  8
0
 10
448.2684270910666
 20
234.5159580857949
 30
0.0
 11
448.2592787213608
 21
248.9796980676063
 31
0.0
  0
LINE
  5
5F1
  8
0
 10
448.2592787213608
 20
248.9796980676063
 30
0.0
 11
451.152026717723
 21
248.9815277415474
 31
0.0
  0
LINE
  5
5F2
  8
0
 10
451.152026717723
 20
248.9815277415474
 30
0.0
 11
451.1428783480171
 21
263.4452677233587
 31
0.0
  0
LINE
  5
5F3
  8
0
 10
451.1428783480171
 20
263.4452677233587
 30
0.0
 11
448.2501303516548
 21
263.4434380494175
 31
0.0
  0
LINE
  5
5F4
  8
0
 10
448.2501303516548
 20
263.4434380494175
 30
0.0
 11
448.2409819819489
 21
277.9071780312288
 31
0.0
  0
LINE
  5
5F5
  8
0
 10
448.2409819819489
 20
277.9071780312288
 30
0.0
 11
451.1337299783111
 21
277.90900770517
 31
0.0
  0
LINE
  5
5F6
  8
0
 10
451.1337299783111
 20
277.90900770517
 30
0.0
 11
451.1245816086053
 21
292.372747686981
 31
0.0
  0
LINE
  5
5F7
  8
0
 10
535.1039286639323
 20
150.6793566522753
 30
0.0
 11
535.1057571929955
 21
147.7884187291392
 31
0.0
  0
LINE
  5
5F8
  8
0
 10
535.1057571929955
 20
147.7884187291392
 30
0.0
 11
520.6420172111841
 21
147.7792703594327
 31
0.0
  0
LINE
  5
5F9
  8
0
 10
520.6420172111841
 20
147.7792703594327
 30
0.0
 11
520.6401886853835
 21
150.6702031245822
 31
0.0
  0
LINE
  5
5FA
  8
0
 10
520.6401886853835
 20
150.6702031245822
 30
0.0
 11
506.1764487074839
 21
150.6610495968896
 31
0.0
  0
LINE
  5
5FB
  8
0
 10
564.0314086203807
 20
150.697663707661
 30
0.0
 11
564.033237149444
 21
147.8067257845249
 31
0.0
  0
LINE
  5
5FC
  8
0
 10
564.033237149444
 20
147.8067257845249
 30
0.0
 11
549.5694971676326
 21
147.7975774148184
 31
0.0
  0
LINE
  5
5FD
  8
0
 10
549.5694971676326
 20
147.7975774148184
 30
0.0
 11
549.5676686418319
 21
150.6885101799679
 31
0.0
  0
LINE
  5
5FE
  8
0
 10
549.5676686418319
 20
150.6885101799679
 30
0.0
 11
535.1039286639323
 21
150.6793566522753
 31
0.0
  0
LINE
  5
5FF
  8
0
 10
589.9765132086018
 20
147.8231453197695
 30
0.0
 11
578.496977124081
 21
147.8158844702041
 31
0.0
  0
LINE
  5
600
  8
0
 10
578.496977124081
 20
147.8158844702041
 30
0.0
 11
578.4951485982804
 21
150.7068172353536
 31
0.0
  0
LINE
  5
601
  8
0
 10
578.4951485982804
 20
150.7068172353536
 30
0.0
 11
564.0314086203807
 21
150.697663707661
 31
0.0
  0
LINE
  5
602
  8
0
 10
448.3214867090186
 20
150.6277307555945
 30
0.0
 11
451.2142352840186
 21
150.6277307555945
 31
0.0
  0
LINE
  5
603
  8
0
 10
451.2142352840186
 20
150.6277307555945
 30
0.0
 11
454.1069838590186
 21
150.6277307555945
 31
0.0
  0
LINE
  5
604
  8
0
 10
451.1245816086053
 20
292.372747686981
 30
0.0
 11
451.1245816086053
 21
286.5872505369811
 31
0.0
  0
LINE
  5
605
  8
0
 10
592.7796638717041
 20
289.4799991119812
 30
0.0
 11
587.0837646336051
 21
289.4799991119812
 31
0.0
  0
ARC
  5
606
  8
TALL__2
 10
484.0267595333005
 20
146.8732919414018
 30
0.0
 40
78.62927508301904
 50
101.122847958771
 51
111.4493566181755
  0
ARC
  5
607
  8
TALL__2
 10
484.0267595333005
 20
146.8732919414018
 30
0.0
 40
78.62927508301904
 50
68.55064338182426
 51
97.11022007664074
  0
LINE
  5
608
  8
TALL__2
 10
468.8632326434507
 20
219.9913546188428
 30
0.0
 11
468.85812948201
 21
224.0255800633245
 31
0.0
  0
ARC
  5
609
  8
TALL__2
 10
593.8019907585783
 20
256.5791141373558
 30
0.0
 40
78.62927508301904
 50
172.9933243004351
 51
201.4131180067255
  0
ARC
  5
60A
  8
TALL__2
 10
593.8019907585783
 20
256.5791141373558
 30
0.0
 40
78.62927508301904
 50
158.5144047703744
 51
168.8465295733221
  0
LINE
  5
60B
  8
TALL__2
 10
520.5953742463121
 20
271.7889770551035
 30
0.0
 11
516.6578207254229
 21
271.7889770551035
 31
0.0
  0
ARC
  5
60C
  8
TALL__2
 10
557.1639889593232
 20
146.8732919414018
 30
0.0
 40
78.62927508301904
 50
68.55064338182422
 51
78.87715204122881
  0
ARC
  5
60D
  8
TALL__2
 10
557.1639889593232
 20
146.8732919414018
 30
0.0
 40
78.62927508301904
 50
82.9504533575354
 51
111.4493566181756
  0
LINE
  5
60E
  8
TALL__2
 10
572.3275158491731
 20
219.9913546188428
 30
0.0
 11
572.3326190106138
 21
224.0255800633245
 31
0.0
  0
ARC
  5
60F
  8
TALL__2
 10
447.3887577340456
 20
256.5791141373558
 30
0.0
 40
78.62927508301904
 50
338.5868819932742
 51
7.00667569956494
  0
ARC
  5
610
  8
TALL__2
 10
447.3887577340456
 20
256.5791141373558
 30
0.0
 40
78.62927508301904
 50
11.15347042667784
 51
21.48559522962558
  0
LINE
  5
611
  8
TALL__2
 10
520.5953742463121
 20
271.7889770551035
 30
0.0
 11
524.532927767201
 21
271.7889770551035
 31
0.0
  0
ARC
  5
612
  8
TALL__2
 10
484.0267595333005
 20
293.2865542441988
 30
0.0
 40
78.62927508301904
 50
248.5506433818244
 51
258.877152041229
  0
ARC
  5
613
  8
TALL__2
 10
484.0267595333005
 20
293.2865542441988
 30
0.0
 40
78.62927508301904
 50
262.8897799233593
 51
291.4493566181754
  0
LINE
  5
614
  8
TALL__2
 10
468.8632326434507
 20
220.1684915667578
 30
0.0
 11
468.85812948201
 21
216.1342661222762
 31
0.0
  0
ARC
  5
615
  8
TALL__2
 10
593.8019907585783
 20
183.5807320482449
 30
0.0
 40
78.62927508301904
 50
158.5868819932744
 51
187.0406380020184
  0
ARC
  5
616
  8
TALL__2
 10
593.8019907585783
 20
183.5807320482449
 30
0.0
 40
78.62927508301904
 50
191.1534704266779
 51
201.4855952296255
  0
LINE
  5
617
  8
TALL__2
 10
520.5953742463121
 20
168.3708691304971
 30
0.0
 11
516.6578207254229
 21
168.3708691304971
 31
0.0
  0
ARC
  5
618
  8
TALL__2
 10
557.1639889593232
 20
293.2865542441988
 30
0.0
 40
81.81129851551904
 50
280.6879559826527
 51
285.837210784132
  0
ARC
  5
619
  8
TALL__2
 10
557.1639889593232
 20
293.2865542441988
 30
0.0
 40
78.62927508301904
 50
281.122847958771
 51
291.4493566181754
  0
ARC
  5
61A
  8
TALL__2
 10
557.1639889593232
 20
293.2865542441988
 30
0.0
 40
78.62927508301904
 50
248.5506433818243
 51
277.0495466424646
  0
LINE
  5
61B
  8
TALL__2
 10
572.3275158491731
 20
220.1684915667578
 30
0.0
 11
572.3326190106138
 21
216.1342661222762
 31
0.0
  0
LINE
  5
61C
  8
TALL__2
 10
572.3546702577573
 20
198.7019933354031
 30
0.0
 11
572.3929139169677
 21
168.4690593255028
 31
0.0
  0
LINE
  5
61D
  8
TALL__2
 10
572.3367171640639
 20
212.8945342196936
 30
0.0
 11
572.3436250022389
 21
207.4336494610344
 31
0.0
  0
ARC
  5
61E
  8
TALL__2
 10
598.185449399175
 20
246.0427668969355
 30
0.0
 40
81.81129851551904
 50
235.7144232260047
 51
241.7989688282575
  0
ARC
  5
61F
  8
TALL__2
 10
598.185449399175
 20
246.0427668969355
 30
0.0
 40
78.62927508301904
 50
236.1534704266781
 51
246.4855952296257
  0
ARC
  5
620
  8
TALL__2
 10
598.185449399175
 20
246.0427668969355
 30
0.0
 40
78.62927508301904
 50
203.5868819932742
 51
231.592968783572
  0
ARC
  5
621
  8
TALL__2
 10
494.7538290198586
 20
142.4802261943446
 30
0.0
 40
78.62927508301904
 50
38.47493318706132
 51
66.48559522962552
  0
ARC
  5
622
  8
TALL__2
 10
494.7538290198586
 20
142.4802261943446
 30
0.0
 40
78.62927508301904
 50
23.58688199327449
 51
33.91527761463934
  0
ARC
  5
623
  8
TALL__2
 10
494.7538290198586
 20
142.4802261943446
 30
0.0
 40
81.81129851551904
 50
28.25987153013633
 51
34.35155375816806
  0
LINE
  5
624
  8
TALL__2
 10
562.2964933357225
 20
188.6438164133682
 30
0.0
 11
566.8139714980713
 21
193.1612945757171
 31
0.0
  0
LINE
  5
625
  8
TALL__2
 10
554.3912808497803
 20
180.738603927426
 30
0.0
 11
560.0053972596759
 21
186.3527203373217
 31
0.0
  0
LINE
  5
626
  8
TALL__2
 10
542.0235460528513
 20
168.3708691304971
 30
0.0
 11
572.2948478507442
 21
168.3708691304971
 31
0.0
  0
LINE
  5
627
  8
TALL__2
 10
547.5955598084147
 20
173.9428828860604
 30
0.0
 11
552.0996662010666
 21
178.4469892787122
 31
0.0
  0
ARC
  5
628
  8
TALL__2
 10
447.3887577340456
 20
183.580732048245
 30
0.0
 40
78.62927508301904
 50
352.9593619979815
 51
21.4131180067256
  0
ARC
  5
629
  8
TALL__2
 10
447.3887577340456
 20
183.580732048245
 30
0.0
 40
78.62927508301904
 50
338.5144047703743
 51
348.846529573322
  0
LINE
  5
62A
  8
TALL__2
 10
527.7737602831446
 20
168.3708691304971
 30
0.0
 11
533.2808446717017
 21
168.3708691304971
 31
0.0
  0
LINE
  5
62B
  8
TALL__2
 10
520.5953742463121
 20
168.3708691304971
 30
0.0
 11
524.532927767201
 21
168.3708691304971
 31
0.0
  0
ARC
  5
62C
  8
TALL__2
 10
447.3887577340456
 20
183.580732048245
 30
0.0
 40
81.81129851551904
 50
344.0921736503341
 51
349.2855767739952
  0
ARC
  5
62D
  8
TALL__2
 10
447.3887577340456
 20
183.580732048245
 30
0.0
 40
81.81129851551904
 50
353.2345114761801
 51
18.48568012921086
  0
ARC
  5
62E
  8
TALL__2
 10
494.7538290198586
 20
142.4802261943446
 30
0.0
 40
81.81129851551904
 50
38.72976243177364
 51
63.44944151775982
  0
ARC
  5
62F
  8
TALL__2
 10
557.1639889593232
 20
293.2865542441988
 30
0.0
 40
81.81129851551904
 50
251.5867970936899
 51
276.7740456827024
  0
ARC
  5
630
  8
TALL__2
 10
598.185449399175
 20
246.0427668969355
 30
0.0
 40
81.81129851551904
 50
206.5143198707889
 51
231.3354656344023
  0
LINE
  5
631
  8
TALL__2
 10
530.0168419200071
 20
156.3641649976529
 30
0.0
 11
542.0235460528513
 21
168.3708691304971
 31
0.0
  0
LINE
  5
632
  8
TALL__2
 10
530.0168419200071
 20
156.3641649976529
 30
0.0
 11
584.1910160586074
 21
156.3641649976529
 31
0.0
  0
LINE
  5
633
  8
TALL__2
 10
457.0619410003142
 20
156.3641649976529
 30
0.0
 11
511.1739065726167
 21
156.3641649976529
 31
0.0
  0
LINE
  5
634
  8
TALL__2
 10
572.3546702577571
 20
198.701993335403
 30
0.0
 11
584.1910160586074
 21
210.5383391362533
 31
0.0
  0
LINE
  5
635
  8
TALL__2
 10
457.0619410003142
 20
283.6945019619809
 30
0.0
 11
511.07272734665
 21
283.6945019619809
 31
0.0
  0
LINE
  5
636
  8
TALL__2
 10
530.1180211459739
 20
283.6945019619809
 30
0.0
 11
584.1910160586074
 21
283.6945019619809
 31
0.0
  0
LINE
  5
637
  8
TALL__2
 10
457.0619410003142
 20
229.6837156156452
 30
0.0
 11
457.0619410003142
 21
283.6945019619809
 31
0.0
  0
LINE
  5
638
  8
TALL__2
 10
457.0619410003142
 20
156.3641649976529
 30
0.0
 11
457.0619410003142
 21
210.4761305699554
 31
0.0
  0
LINE
  5
639
  8
TALL__2
 10
584.1910160586074
 20
283.6945019619809
 30
0.0
 11
584.1910160586074
 21
229.6215070493473
 31
0.0
  0
LINE
  5
63A
  8
TALL__2
 10
584.1910160586074
 20
210.5383391362533
 30
0.0
 11
584.1910160586074
 21
156.3641649976529
 31
0.0
  0
LINE
  5
63B
  8
TALL__2
 10
579.4907097847181
 20
214.5807342435136
 30
0.0
 11
572.3436250022389
 21
207.4336494610344
 31
0.0
  0
LINE
  5
63C
  8
TALL__2
 10
566.8139714980713
 20
201.9039959568668
 30
0.0
 11
558.5752744466056
 21
193.665298905401
 31
0.0
  0
LINE
  5
63D
  8
TALL__2
 10
556.3111497951445
 20
191.40117425394
 30
0.0
 11
549.3374880554527
 21
184.4275125142481
 31
0.0
  0
LINE
  5
63E
  8
TALL__2
 10
547.0730670165501
 20
182.1630914753455
 30
0.0
 11
538.8528584272651
 21
173.9428828860604
 31
0.0
  0
LINE
  5
63F
  8
TALL__2
 10
533.2808446717017
 20
168.3708691304971
 30
0.0
 11
526.0670008592908
 21
161.157025318086
 31
0.0
  0
LINE
  5
640
  8
TALL__2
 10
499.084572748375
 20
168.3708691304971
 30
0.0
 11
468.813270950482
 21
168.3708691304971
 31
0.0
  0
LINE
  5
641
  8
TALL__2
 10
468.753448543469
 20
198.7019933354031
 30
0.0
 11
468.7152048842585
 21
168.4690593255028
 31
0.0
  0
ARC
  5
642
  8
TALL__2
 10
442.9226694020512
 20
246.0427668969355
 30
0.0
 40
81.81129851551904
 50
298.2010311717427
 51
304.2855767739953
  0
ARC
  5
643
  8
TALL__2
 10
442.9226694020512
 20
246.0427668969355
 30
0.0
 40
78.62927508301904
 50
293.5144047703744
 51
303.846529573322
  0
ARC
  5
644
  8
TALL__2
 10
546.3542897813677
 20
142.4802261943446
 30
0.0
 40
78.62927508301904
 50
146.0847223853607
 51
156.4131180067255
  0
ARC
  5
645
  8
TALL__2
 10
546.3542897813677
 20
142.4802261943446
 30
0.0
 40
81.81129851551904
 50
145.648446241832
 51
151.7401284698637
  0
LINE
  5
646
  8
TALL__2
 10
478.8116254655038
 20
188.6438164133682
 30
0.0
 11
474.2941473031549
 21
193.1612945757171
 31
0.0
  0
LINE
  5
647
  8
TALL__2
 10
486.7168379514461
 20
180.738603927426
 30
0.0
 11
481.1027215415504
 21
186.3527203373217
 31
0.0
  0
LINE
  5
648
  8
TALL__2
 10
493.5125589928116
 20
173.9428828860604
 30
0.0
 11
489.0084526001597
 21
178.4469892787122
 31
0.0
  0
ARC
  5
649
  8
TALL__2
 10
593.7193610671807
 20
183.580732048245
 30
0.0
 40
81.81129851551904
 50
161.5143198707891
 51
186.7654885238199
  0
ARC
  5
64A
  8
TALL__2
 10
483.944129841903
 20
293.2865542441988
 30
0.0
 40
81.81129851551904
 50
263.2259543172974
 51
288.41320290631
  0
LINE
  5
64B
  8
TALL__2
 10
511.0912768812192
 20
156.3641649976529
 30
0.0
 11
499.084572748375
 21
168.3708691304971
 31
0.0
  0
LINE
  5
64C
  8
TALL__2
 10
468.7534485434691
 20
198.701993335403
 30
0.0
 11
456.9171027426189
 21
210.5383391362533
 31
0.0
  0
LINE
  5
64D
  8
TALL__2
 10
468.7714016371625
 20
212.8945342196936
 30
0.0
 11
468.7644937989874
 21
207.4336494610344
 31
0.0
  0
LINE
  5
64E
  8
TALL__2
 10
461.6174090165082
 20
214.5807342435136
 30
0.0
 11
468.7644937989874
 21
207.4336494610344
 31
0.0
  0
LINE
  5
64F
  8
TALL__2
 10
474.2941473031549
 20
201.9039959568668
 30
0.0
 11
482.5328443546207
 21
193.665298905401
 31
0.0
  0
ARC
  5
650
  8
TALL__2
 10
546.3542897813677
 20
142.4802261943446
 30
0.0
 40
81.81129851551904
 50
116.5505584822402
 51
141.2702375682263
  0
ARC
  5
651
  8
TALL__2
 10
546.3542897813677
 20
142.4802261943446
 30
0.0
 40
78.62927508301904
 50
113.5144047703745
 51
141.5250668129388
  0
LINE
  5
652
  8
TALL__2
 10
484.7969690060817
 20
191.40117425394
 30
0.0
 11
491.7706307457736
 21
184.4275125142481
 31
0.0
  0
ARC
  5
653
  8
TALL__2
 10
442.9226694020512
 20
246.0427668969355
 30
0.0
 40
81.81129851551904
 50
308.6645343655978
 51
333.4856801292111
  0
ARC
  5
654
  8
TALL__2
 10
442.9226694020512
 20
246.0427668969355
 30
0.0
 40
78.62927508301904
 50
308.407031216428
 51
336.4131180067258
  0
LINE
  5
655
  8
TALL__2
 10
494.0350517846762
 20
182.1630914753455
 30
0.0
 11
502.2552603739612
 21
173.9428828860604
 31
0.0
  0
LINE
  5
656
  8
TALL__2
 10
513.3343585180817
 20
168.3708691304971
 30
0.0
 11
507.8272741295245
 21
168.3708691304971
 31
0.0
  0
LINE
  5
657
  8
TALL__2
 10
507.8272741295245
 20
168.3708691304971
 30
0.0
 11
515.0411179419355
 21
161.157025318086
 31
0.0
  0
ARC
  5
658
  8
TALL__2
 10
483.944129841903
 20
293.2865542441988
 30
0.0
 40
81.81129851551904
 50
254.1627892158681
 51
259.3120440173473
  0
ARC
  5
659
  8
TALL__2
 10
593.7193610671807
 20
183.580732048245
 30
0.0
 40
81.81129851551904
 50
190.7144232260048
 51
195.9078263496658
  0
LINE
  5
65A
  8
TALL__2
 10
572.3546702577573
 20
241.4115947903884
 30
0.0
 11
572.3929139169677
 21
271.6445288002888
 31
0.0
  0
ARC
  5
65B
  8
TALL__2
 10
598.185449399175
 20
194.070821228856
 30
0.0
 40
81.81129851551904
 50
118.2010311717427
 51
124.2855767739954
  0
ARC
  5
65C
  8
TALL__2
 10
598.185449399175
 20
194.070821228856
 30
0.0
 40
78.62927508301904
 50
113.5144047703744
 51
123.8465295733219
  0
ARC
  5
65D
  8
TALL__2
 10
494.7538290198586
 20
297.633361931447
 30
0.0
 40
78.62927508301904
 50
326.0847223853606
 51
336.4131180067254
  0
ARC
  5
65E
  8
TALL__2
 10
494.7538290198586
 20
297.633361931447
 30
0.0
 40
81.81129851551904
 50
325.6484462418319
 51
331.7401284698636
  0
LINE
  5
65F
  8
TALL__2
 10
562.2964933357225
 20
251.4697717124234
 30
0.0
 11
566.8139714980713
 21
246.9522935500745
 31
0.0
  0
LINE
  5
660
  8
TALL__2
 10
554.3912808497803
 20
259.3749841983656
 30
0.0
 11
560.0053972596759
 21
253.7608677884698
 31
0.0
  0
LINE
  5
661
  8
TALL__2
 10
542.0235460528513
 20
271.7427189952945
 30
0.0
 11
572.2948478507442
 21
271.7427189952945
 31
0.0
  0
LINE
  5
662
  8
TALL__2
 10
547.5955598084147
 20
266.1707052397311
 30
0.0
 11
552.0996662010666
 21
261.6665988470793
 31
0.0
  0
ARC
  5
663
  8
TALL__2
 10
447.3887577340456
 20
256.5328560775465
 30
0.0
 40
81.81129851551904
 50
341.5143198707891
 51
6.765488523819902
  0
ARC
  5
664
  8
TALL__2
 10
557.1639889593232
 20
146.8270338815927
 30
0.0
 40
81.81129851551904
 50
83.22595431729748
 51
108.41320290631
  0
LINE
  5
665
  8
TALL__2
 10
530.0168419200071
 20
283.7494231281386
 30
0.0
 11
542.0235460528513
 21
271.7427189952945
 31
0.0
  0
LINE
  5
666
  8
TALL__2
 10
572.3546702577571
 20
241.4115947903885
 30
0.0
 11
584.1910160586074
 21
229.5752489895382
 31
0.0
  0
LINE
  5
667
  8
TALL__2
 10
572.3367171640639
 20
227.2190539060979
 30
0.0
 11
572.3436250022389
 21
232.6799386647571
 31
0.0
  0
LINE
  5
668
  8
TALL__2
 10
579.4907097847181
 20
225.5328538822779
 30
0.0
 11
572.3436250022389
 21
232.6799386647571
 31
0.0
  0
LINE
  5
669
  8
TALL__2
 10
566.8139714980713
 20
238.2095921689248
 30
0.0
 11
558.5752744466056
 21
246.4482892203905
 31
0.0
  0
ARC
  5
66A
  8
TALL__2
 10
494.7538290198586
 20
297.633361931447
 30
0.0
 40
81.81129851551904
 50
296.5505584822401
 51
321.2702375682263
  0
ARC
  5
66B
  8
TALL__2
 10
494.7538290198586
 20
297.633361931447
 30
0.0
 40
78.62927508301904
 50
293.5144047703745
 51
321.5250668129387
  0
LINE
  5
66C
  8
TALL__2
 10
556.3111497951445
 20
248.7124138718515
 30
0.0
 11
549.3374880554527
 21
255.6860756115434
 31
0.0
  0
ARC
  5
66D
  8
TALL__2
 10
598.185449399175
 20
194.070821228856
 30
0.0
 40
81.81129851551904
 50
128.6645343655977
 51
153.4856801292111
  0
ARC
  5
66E
  8
TALL__2
 10
598.185449399175
 20
194.070821228856
 30
0.0
 40
78.62927508301904
 50
128.407031216428
 51
156.4131180067258
  0
LINE
  5
66F
  8
TALL__2
 10
547.0730670165501
 20
257.950496650446
 30
0.0
 11
538.8528584272651
 21
266.1707052397311
 31
0.0
  0
LINE
  5
670
  8
TALL__2
 10
527.7737602831446
 20
271.7427189952945
 30
0.0
 11
533.2808446717017
 21
271.7427189952945
 31
0.0
  0
LINE
  5
671
  8
TALL__2
 10
533.2808446717017
 20
271.7427189952945
 30
0.0
 11
526.0670008592908
 21
278.9565628077055
 31
0.0
  0
ARC
  5
672
  8
TALL__2
 10
557.1639889593232
 20
146.8270338815927
 30
0.0
 40
81.81129851551904
 50
74.16278921586807
 51
79.31204401734736
  0
ARC
  5
673
  8
TALL__2
 10
447.3887577340456
 20
256.5328560775465
 30
0.0
 40
81.81129851551904
 50
10.71442322600481
 51
15.90782634966591
  0
ARC
  5
674
  8
TALL__2
 10
593.7193610671807
 20
256.5328560775465
 30
0.0
 40
81.81129851551904
 50
164.0921736503341
 51
169.2855767739952
  0
LINE
  5
675
  8
TALL__2
 10
499.084572748375
 20
271.7427189952945
 30
0.0
 11
468.813270950482
 21
271.7427189952945
 31
0.0
  0
LINE
  5
676
  8
TALL__2
 10
468.753448543469
 20
241.4115947903884
 30
0.0
 11
468.7152048842585
 21
271.6445288002888
 31
0.0
  0
ARC
  5
677
  8
TALL__2
 10
442.9226694020512
 20
194.070821228856
 30
0.0
 40
81.81129851551904
 50
55.71442322600469
 51
61.79896882825727
  0
ARC
  5
678
  8
TALL__2
 10
442.9226694020512
 20
194.070821228856
 30
0.0
 40
78.62927508301904
 50
56.15347042667803
 51
66.48559522962566
  0
ARC
  5
679
  8
TALL__2
 10
546.3542897813677
 20
297.633361931447
 30
0.0
 40
78.62927508301904
 50
203.5868819932745
 51
213.9152776146394
  0
ARC
  5
67A
  8
TALL__2
 10
546.3542897813677
 20
297.633361931447
 30
0.0
 40
81.81129851551904
 50
208.259871530136
 51
214.351553758168
  0
LINE
  5
67B
  8
TALL__2
 10
478.8116254655038
 20
251.4697717124234
 30
0.0
 11
474.2941473031548
 21
246.9522935500743
 31
0.0
  0
LINE
  5
67C
  8
TALL__2
 10
486.7168379514461
 20
259.3749841983656
 30
0.0
 11
481.1027215415504
 21
253.7608677884698
 31
0.0
  0
LINE
  5
67D
  8
TALL__2
 10
493.5125589928116
 20
266.1707052397311
 30
0.0
 11
489.0084526001597
 21
261.6665988470793
 31
0.0
  0
ARC
  5
67E
  8
TALL__2
 10
483.944129841903
 20
146.8270338815927
 30
0.0
 40
81.81129851551904
 50
71.58679709369
 51
96.77404568270258
  0
LINE
  5
67F
  8
TALL__2
 10
511.0912768812192
 20
283.7494231281386
 30
0.0
 11
499.084572748375
 21
271.7427189952945
 31
0.0
  0
LINE
  5
680
  8
TALL__2
 10
468.7534485434691
 20
241.4115947903885
 30
0.0
 11
456.9171027426189
 21
229.5752489895382
 31
0.0
  0
LINE
  5
681
  8
TALL__2
 10
468.7714016371625
 20
227.2190539060979
 30
0.0
 11
468.7644937989874
 21
232.6799386647571
 31
0.0
  0
LINE
  5
682
  8
TALL__2
 10
461.6174090165082
 20
225.5328538822779
 30
0.0
 11
468.7644937989874
 21
232.6799386647571
 31
0.0
  0
LINE
  5
683
  8
TALL__2
 10
474.2941473031548
 20
238.2095921689246
 30
0.0
 11
482.5328443546207
 21
246.4482892203905
 31
0.0
  0
ARC
  5
684
  8
TALL__2
 10
546.3542897813677
 20
297.633361931447
 30
0.0
 40
81.81129851551904
 50
218.7297624317737
 51
243.4494415177598
  0
ARC
  5
685
  8
TALL__2
 10
546.3542897813677
 20
297.633361931447
 30
0.0
 40
78.62927508301904
 50
218.4749331870612
 51
246.4855952296254
  0
LINE
  5
686
  8
TALL__2
 10
484.7969690060817
 20
248.7124138718515
 30
0.0
 11
491.7706307457736
 21
255.6860756115434
 31
0.0
  0
ARC
  5
687
  8
TALL__2
 10
442.9226694020512
 20
194.070821228856
 30
0.0
 40
81.81129851551904
 50
26.51431987078895
 51
51.33546563440227
  0
ARC
  5
688
  8
TALL__2
 10
442.9226694020512
 20
194.070821228856
 30
0.0
 40
78.62927508301904
 50
23.5868819932742
 51
51.59296878357203
  0
LINE
  5
689
  8
TALL__2
 10
494.0350517846762
 20
257.950496650446
 30
0.0
 11
502.2552603739612
 21
266.1707052397311
 31
0.0
  0
LINE
  5
68A
  8
TALL__2
 10
513.3343585180817
 20
271.7427189952945
 30
0.0
 11
507.8272741295245
 21
271.7427189952945
 31
0.0
  0
LINE
  5
68B
  8
TALL__2
 10
507.8272741295245
 20
271.7427189952945
 30
0.0
 11
515.0411179419355
 21
278.9565628077055
 31
0.0
  0
ARC
  5
68C
  8
TALL__2
 10
593.7193610671807
 20
256.5328560775465
 30
0.0
 40
81.81129851551904
 50
173.2345114761801
 51
198.4856801292108
  0
ARC
  5
68D
  8
TALL__2
 10
483.944129841903
 20
146.8270338815927
 30
0.0
 40
81.81129851551904
 50
100.6879559826526
 51
105.8372107841319
  0
LINE
  5
68E
  8
TALL__2
 10
559.5241600981994
 20
266.1707052397311
 30
0.0
 11
547.5955598084147
 21
266.1707052397311
 31
0.0
  0
LINE
  5
68F
  8
TALL__2
 10
493.5125589928116
 20
266.1707052397311
 30
0.0
 11
481.5839587030268
 21
266.1707052397311
 31
0.0
  0
LINE
  5
690
  8
TALL__2
 10
512.4777434791345
 20
266.1707052397311
 30
0.0
 11
502.2552603739612
 21
266.1707052397311
 31
0.0
  0
LINE
  5
691
  8
TALL__2
 10
525.4308251093139
 20
266.1707052397311
 30
0.0
 11
515.75992338331
 21
266.1707052397311
 31
0.0
  0
LINE
  5
692
  8
TALL__2
 10
538.8528584272651
 20
266.1707052397311
 30
0.0
 11
528.6303753220918
 21
266.1707052397311
 31
0.0
  0
LINE
  5
693
  8
TALL__2
 10
566.8139714980713
 20
258.8980494786596
 30
0.0
 11
566.8139714980713
 21
246.9522935500745
 31
0.0
  0
LINE
  5
694
  8
TALL__2
 10
559.5241600981996
 20
173.9428828860604
 30
0.0
 11
547.5955598084147
 21
173.9428828860604
 31
0.0
  0
LINE
  5
695
  8
TALL__2
 10
474.2941473031549
 20
181.2155386471319
 30
0.0
 11
474.2941473031549
 21
193.1612945757171
 31
0.0
  0
LINE
  5
696
  8
TALL__2
 10
474.2941473031548
 20
246.9522935500744
 30
0.0
 11
474.2941473031548
 21
258.89804947866
 31
0.0
  0
LINE
  5
697
  8
TALL__2
 10
474.2941473031549
 20
228.0672111450455
 30
0.0
 11
474.2941473031548
 21
238.2095921689246
 31
0.0
  0
LINE
  5
698
  8
TALL__2
 10
474.2941473031549
 20
215.26194813011
 30
0.0
 11
474.2941473031549
 21
224.8978980554906
 31
0.0
  0
LINE
  5
699
  8
TALL__2
 10
474.2941473031549
 20
201.9039959568668
 30
0.0
 11
474.2941473031549
 21
212.046376980746
 31
0.0
  0
LINE
  5
69A
  8
TALL__2
 10
493.5125589928116
 20
173.9428828860604
 30
0.0
 11
481.5839587030267
 21
173.9428828860604
 31
0.0
  0
LINE
  5
69B
  8
TALL__2
 10
512.4777434791345
 20
173.9428828860604
 30
0.0
 11
502.2552603739613
 21
173.9428828860604
 31
0.0
  0
LINE
  5
69C
  8
TALL__2
 10
525.4251259453357
 20
173.9428828860604
 30
0.0
 11
515.7656225472882
 21
173.9428828860604
 31
0.0
  0
LINE
  5
69D
  8
TALL__2
 10
538.8528584272651
 20
173.9428828860604
 30
0.0
 11
528.6303753220918
 21
173.9428828860604
 31
0.0
  0
LINE
  5
69E
  8
TALL__2
 10
566.8139714980713
 20
193.1612945757171
 30
0.0
 11
566.8139714980713
 21
181.2155386471318
 31
0.0
  0
LINE
  5
69F
  8
TALL__2
 10
566.8139714980713
 20
238.2095921689248
 30
0.0
 11
566.8139714980713
 21
228.0672111450455
 31
0.0
  0
LINE
  5
6A0
  8
TALL__2
 10
566.8139714980713
 20
224.9081606673947
 30
0.0
 11
566.8139714980713
 21
215.2516855182059
 31
0.0
  0
LINE
  5
6A1
  8
TALL__2
 10
566.8139714980713
 20
212.046376980746
 30
0.0
 11
566.8139714980713
 21
201.9039959568668
 31
0.0
  0
ARC
  5
6A2
  8
TALL__2
 10
446.1580024660432
 20
183.6630670353683
 30
0.0
 40
78.62927508301904
 50
191.122847958771
 51
201.4493566181755
  0
LINE
  5
6A3
  8
TALL__2
 10
373.0399397886022
 20
168.4995401455184
 30
0.0
 11
369.0057143441205
 21
168.4944369840778
 31
0.0
  0
ARC
  5
6A4
  8
TALL__2
 10
336.4521802700892
 20
293.4382982606461
 30
0.0
 40
78.62927508301904
 50
248.5144047703744
 51
258.8465295733221
  0
LINE
  5
6A5
  8
TALL__2
 10
321.2423173523415
 20
220.2316817483798
 30
0.0
 11
321.2423173523415
 21
216.2941282274907
 31
0.0
  0
ARC
  5
6A6
  8
TALL__2
 10
446.1580024660432
 20
256.800296461391
 30
0.0
 40
78.62927508301904
 50
158.5506433818242
 51
168.8771520412288
  0
LINE
  5
6A7
  8
TALL__2
 10
373.0399397886022
 20
271.9638233512408
 30
0.0
 11
369.0057143441205
 21
271.9689265126816
 31
0.0
  0
ARC
  5
6A8
  8
TALL__2
 10
336.4521802700892
 20
147.0250652361133
 30
0.0
 40
78.62927508301904
 50
101.1534704266779
 51
111.4855952296256
  0
LINE
  5
6A9
  8
TALL__2
 10
321.2423173523415
 20
220.2316817483798
 30
0.0
 11
321.2423173523415
 21
224.1692352692689
 31
0.0
  0
ARC
  5
6AA
  8
TALL__2
 10
299.7447401632462
 20
183.6630670353683
 30
0.0
 40
78.62927508301904
 50
338.5506433818244
 51
348.8771520412288
  0
LINE
  5
6AB
  8
TALL__2
 10
372.8628028406872
 20
168.4995401455184
 30
0.0
 11
376.8970282851689
 21
168.4944369840778
 31
0.0
  0
ARC
  5
6AC
  8
TALL__2
 10
409.4505623592001
 20
293.4382982606461
 30
0.0
 40
78.62927508301904
 50
281.1534704266778
 51
291.4855952296254
  0
LINE
  5
6AD
  8
TALL__2
 10
424.660425276948
 20
220.2316817483798
 30
0.0
 11
424.660425276948
 21
216.2941282274907
 31
0.0
  0
ARC
  5
6AE
  8
TALL__2
 10
299.7447401632462
 20
256.800296461391
 30
0.0
 40
78.62927508301904
 50
11.12284795877103
 51
21.44935661817549
  0
LINE
  5
6AF
  8
TALL__2
 10
372.8628028406872
 20
271.9638233512408
 30
0.0
 11
376.8970282851689
 21
271.9689265126816
 31
0.0
  0
LINE
  5
6B0
  8
TALL__2
 10
394.329301072042
 20
271.990977759825
 30
0.0
 11
424.5622350819423
 21
272.0292214190355
 31
0.0
  0
ARC
  5
6B1
  8
TALL__2
 10
346.9885275105095
 20
297.8217569012428
 30
0.0
 40
78.62927508301904
 50
326.153470426678
 51
336.4855952296256
  0
ARC
  5
6B2
  8
TALL__2
 10
450.5510682131005
 20
194.3901365219264
 30
0.0
 40
78.62927508301904
 50
113.5868819932745
 51
123.9152776146394
  0
LINE
  5
6B3
  8
TALL__2
 10
412.292690480019
 20
254.027588351848
 30
0.0
 11
406.6785740701233
 21
259.6417047617437
 31
0.0
  0
LINE
  5
6B4
  8
TALL__2
 10
424.660425276948
 20
241.659853554919
 30
0.0
 11
424.660425276948
 21
271.931155352812
 31
0.0
  0
ARC
  5
6B5
  8
TALL__2
 10
409.4505623592
 20
147.0250652361133
 30
0.0
 40
78.62927508301904
 50
68.51440477037428
 51
78.84652957332199
  0
LINE
  5
6B6
  8
TALL__2
 10
424.660425276948
 20
220.2316817483798
 30
0.0
 11
424.660425276948
 21
224.1692352692688
 31
0.0
  0
LINE
  5
6B7
  8
TALL__2
 10
436.6671294097921
 20
229.6531494220748
 30
0.0
 11
424.660425276948
 21
241.659853554919
 31
0.0
  0
LINE
  5
6B8
  8
TALL__2
 10
436.6671294097921
 20
229.6531494220748
 30
0.0
 11
436.6671294097921
 21
283.8273235606752
 31
0.0
  0
LINE
  5
6B9
  8
TALL__2
 10
436.6671294097921
 20
156.698248502382
 30
0.0
 11
436.6671294097921
 21
210.8102140746844
 31
0.0
  0
LINE
  5
6BA
  8
TALL__2
 10
394.329301072042
 20
271.9909777598249
 30
0.0
 11
382.4929552711917
 21
283.8273235606752
 31
0.0
  0
LINE
  5
6BB
  8
TALL__2
 10
309.3367924454641
 20
229.7543286480417
 30
0.0
 11
309.3367924454641
 21
283.8273235606752
 31
0.0
  0
LINE
  5
6BC
  8
TALL__2
 10
436.6671294097921
 20
156.698248502382
 30
0.0
 11
382.5551638374895
 21
156.698248502382
 31
0.0
  0
LINE
  5
6BD
  8
TALL__2
 10
309.3367924454641
 20
283.8273235606752
 30
0.0
 11
363.4097873580977
 21
283.8273235606752
 31
0.0
  0
LINE
  5
6BE
  8
TALL__2
 10
382.4929552711917
 20
283.8273235606752
 30
0.0
 11
436.6671294097921
 21
283.8273235606752
 31
0.0
  0
ARC
  5
6BF
  8
TALL__2
 10
299.7447401632462
 20
256.800296461391
 30
0.0
 40
81.81129851551904
 50
10.68795598265264
 51
15.83721078413185
  0
LINE
  5
6C0
  8
TALL__2
 10
380.1367601877514
 20
271.9730246661316
 30
0.0
 11
385.5976449464106
 21
271.9799325043066
 31
0.0
  0
LINE
  5
6C1
  8
TALL__2
 10
378.4505601639314
 20
279.1270172867858
 30
0.0
 11
385.5976449464106
 21
271.9799325043066
 31
0.0
  0
ARC
  5
6C2
  8
TALL__2
 10
450.5510682131005
 20
194.3901365219264
 30
0.0
 40
81.81129851551904
 50
128.7297624317737
 51
153.4494415177598
  0
ARC
  5
6C3
  8
TALL__2
 10
450.5510682131005
 20
194.3901365219264
 30
0.0
 40
78.62927508301904
 50
128.4749331870613
 51
156.4855952296255
  0
LINE
  5
6C4
  8
TALL__2
 10
401.630120153505
 20
255.9474572972123
 30
0.0
 11
408.6037818931969
 21
248.9737955575205
 31
0.0
  0
ARC
  5
6C5
  8
TALL__2
 10
346.9885275105095
 20
297.8217569012428
 30
0.0
 40
81.81129851551904
 50
296.514319870789
 51
321.3354656344022
  0
ARC
  5
6C6
  8
TALL__2
 10
346.9885275105095
 20
297.8217569012428
 30
0.0
 40
78.62927508301904
 50
293.5868819932742
 51
321.592968783572
  0
LINE
  5
6C7
  8
TALL__2
 10
424.660425276948
 20
227.4100677852123
 30
0.0
 11
424.660425276948
 21
232.9171521737695
 31
0.0
  0
LINE
  5
6C8
  8
TALL__2
 10
424.660425276948
 20
232.9171521737695
 30
0.0
 11
431.874269089359
 21
225.7033083613586
 31
0.0
  0
ARC
  5
6C9
  8
TALL__2
 10
409.4505623592
 20
147.0250652361133
 30
0.0
 40
81.81129851551904
 50
74.09217365033412
 51
79.28557677399515
  0
LINE
  5
6CA
  8
TALL__2
 10
424.660425276948
 20
198.7208802504428
 30
0.0
 11
424.660425276948
 21
168.4495784525498
 31
0.0
  0
LINE
  5
6CB
  8
TALL__2
 10
394.329301072042
 20
168.3897560455368
 30
0.0
 11
424.5622350819423
 21
168.3515123863263
 31
0.0
  0
ARC
  5
6CC
  8
TALL__2
 10
346.9885275105095
 20
142.558976904119
 30
0.0
 40
78.62927508301904
 50
23.51440477037429
 51
33.84652957332197
  0
ARC
  5
6CD
  8
TALL__2
 10
450.5510682131005
 20
245.9905972834354
 30
0.0
 40
78.62927508301904
 50
236.0847223853606
 51
246.4131180067254
  0
LINE
  5
6CE
  8
TALL__2
 10
412.292690480019
 20
186.3531454535138
 30
0.0
 11
406.6785740701233
 21
180.7390290436181
 31
0.0
  0
LINE
  5
6CF
  8
TALL__2
 10
436.6671294097921
 20
210.7275843832869
 30
0.0
 11
424.660425276948
 21
198.7208802504428
 31
0.0
  0
LINE
  5
6D0
  8
TALL__2
 10
394.329301072042
 20
168.3897560455369
 30
0.0
 11
382.4929552711917
 21
156.5534102446866
 31
0.0
  0
LINE
  5
6D1
  8
TALL__2
 10
380.1367601877514
 20
168.4077091392302
 30
0.0
 11
385.5976449464106
 21
168.4008013010552
 31
0.0
  0
LINE
  5
6D2
  8
TALL__2
 10
378.4505601639314
 20
161.2537165185759
 30
0.0
 11
385.5976449464106
 21
168.4008013010552
 31
0.0
  0
ARC
  5
6D3
  8
TALL__2
 10
450.5510682131005
 20
245.9905972834354
 30
0.0
 40
81.81129851551904
 50
206.5505584822402
 51
231.2702375682262
  0
ARC
  5
6D4
  8
TALL__2
 10
450.5510682131005
 20
245.9905972834354
 30
0.0
 40
78.62927508301904
 50
203.5144047703744
 51
231.5250668129387
  0
LINE
  5
6D5
  8
TALL__2
 10
401.630120153505
 20
184.4332765081495
 30
0.0
 11
408.6037818931969
 21
191.4069382478413
 31
0.0
  0
ARC
  5
6D6
  8
TALL__2
 10
346.9885275105095
 20
142.558976904119
 30
0.0
 40
81.81129851551904
 50
38.66453436559773
 51
63.48568012921102
  0
ARC
  5
6D7
  8
TALL__2
 10
346.9885275105095
 20
142.558976904119
 30
0.0
 40
78.62927508301904
 50
38.40703121642797
 51
66.41311800672572
  0
LINE
  5
6D8
  8
TALL__2
 10
424.660425276948
 20
212.9706660201495
 30
0.0
 11
424.660425276948
 21
207.4635816315923
 31
0.0
  0
LINE
  5
6D9
  8
TALL__2
 10
424.660425276948
 20
207.4635816315923
 30
0.0
 11
431.874269089359
 21
214.6774254440033
 31
0.0
  0
ARC
  5
6DA
  8
TALL__2
 10
299.7447401632462
 20
183.5804373439708
 30
0.0
 40
81.81129851551904
 50
344.162789215868
 51
349.3120440173473
  0
ARC
  5
6DB
  8
TALL__2
 10
409.4505623592
 20
293.3556685692485
 30
0.0
 40
81.81129851551904
 50
280.7144232260047
 51
285.9078263496658
  0
LINE
  5
6DC
  8
TALL__2
 10
351.6196996170565
 20
271.990977759825
 30
0.0
 11
321.3867656071562
 21
272.0292214190355
 31
0.0
  0
ARC
  5
6DD
  8
TALL__2
 10
398.960473178589
 20
297.8217569012428
 30
0.0
 40
78.62927508301904
 50
203.5144047703743
 51
213.846529573322
  0
ARC
  5
6DE
  8
TALL__2
 10
295.397932475998
 20
194.3901365219264
 30
0.0
 40
78.62927508301904
 50
56.0847223853606
 51
66.41311800672537
  0
LINE
  5
6DF
  8
TALL__2
 10
333.6563102090794
 20
254.027588351848
 30
0.0
 11
339.2704266189752
 21
259.6417047617437
 31
0.0
  0
LINE
  5
6E0
  8
TALL__2
 10
321.2885754121505
 20
241.659853554919
 30
0.0
 11
321.2885754121505
 21
271.931155352812
 31
0.0
  0
LINE
  5
6E1
  8
TALL__2
 10
309.2818712793064
 20
229.6531494220748
 30
0.0
 11
321.2885754121505
 21
241.659853554919
 31
0.0
  0
LINE
  5
6E2
  8
TALL__2
 10
351.6196996170565
 20
271.9909777598249
 30
0.0
 11
363.4560454179068
 21
283.8273235606752
 31
0.0
  0
LINE
  5
6E3
  8
TALL__2
 10
365.8122405013471
 20
271.9730246661316
 30
0.0
 11
360.3513557426879
 21
271.9799325043066
 31
0.0
  0
LINE
  5
6E4
  8
TALL__2
 10
367.4984405251671
 20
279.1270172867858
 30
0.0
 11
360.3513557426879
 21
271.9799325043066
 31
0.0
  0
ARC
  5
6E5
  8
TALL__2
 10
295.397932475998
 20
194.3901365219264
 30
0.0
 40
81.81129851551904
 50
26.55055848224018
 51
51.27023756822632
  0
ARC
  5
6E6
  8
TALL__2
 10
295.397932475998
 20
194.3901365219264
 30
0.0
 40
78.62927508301904
 50
23.51440477037452
 51
51.52506681293866
  0
LINE
  5
6E7
  8
TALL__2
 10
344.3188805355935
 20
255.9474572972123
 30
0.0
 11
337.3452187959016
 21
248.9737955575205
 31
0.0
  0
ARC
  5
6E8
  8
TALL__2
 10
398.960473178589
 20
297.8217569012428
 30
0.0
 40
81.81129851551904
 50
218.6645343655977
 51
243.485680129211
  0
ARC
  5
6E9
  8
TALL__2
 10
398.960473178589
 20
297.8217569012428
 30
0.0
 40
78.62927508301904
 50
218.407031216428
 51
246.4131180067257
  0
LINE
  5
6EA
  8
TALL__2
 10
321.2885754121505
 20
227.4100677852123
 30
0.0
 11
321.2885754121505
 21
232.9171521737695
 31
0.0
  0
LINE
  5
6EB
  8
TALL__2
 10
321.2885754121505
 20
232.9171521737695
 30
0.0
 11
314.0747315997395
 21
225.7033083613586
 31
0.0
  0
ARC
  5
6EC
  8
TALL__2
 10
446.2042605258523
 20
256.800296461391
 30
0.0
 40
81.81129851551904
 50
164.1627892158681
 51
169.3120440173474
  0
ARC
  5
6ED
  8
TALL__2
 10
336.4984383298985
 20
147.0250652361133
 30
0.0
 40
81.81129851551904
 50
100.7144232260048
 51
105.9078263496659
  0
ARC
  5
6EE
  8
TALL__2
 10
336.4984383298985
 20
293.3556685692485
 30
0.0
 40
81.81129851551904
 50
254.0921736503341
 51
259.2855767739952
  0
LINE
  5
6EF
  8
TALL__2
 10
365.8122405013471
 20
168.4077091392302
 30
0.0
 11
360.3513557426879
 21
168.4008013010552
 31
0.0
  0
LINE
  5
6F0
  8
TALL__2
 10
367.4984405251671
 20
161.2537165185759
 30
0.0
 11
360.3513557426879
 21
168.4008013010552
 31
0.0
  0
ARC
  5
6F1
  8
TALL__2
 10
295.397932475998
 20
245.9905972834354
 30
0.0
 40
81.81129851551904
 50
325.3396790223406
 51
333.4494415177598
  0
ARC
  5
6F2
  8
TALL__2
 10
398.960473178589
 20
142.558976904119
 30
0.0
 40
81.81129851551904
 50
116.5143198707889
 51
124.7026480187664
  0
LINE
  5
6F3
  8
TALL__2
 10
321.2885754121505
 20
212.9706660201495
 30
0.0
 11
321.2885754121505
 21
207.4635816315923
 31
0.0
  0
LINE
  5
6F4
  8
TALL__2
 10
321.2885754121505
 20
207.4635816315923
 30
0.0
 11
314.0747315997395
 21
214.6774254440033
 31
0.0
  0
ARC
  5
6F5
  8
TALL__2
 10
446.2042605258523
 20
183.5804373439708
 30
0.0
 40
81.81129851551904
 50
190.6879559826526
 51
195.8372107841319
  0
ARC
  5
6F6
  8
TALL__2
 10
336.4984383298985
 20
293.3556685692485
 30
0.0
 40
81.81129851551904
 50
279.223603733987
 51
288.4856801292107
  0
LINE
  5
6F7
  8
TALL__2
 10
335.0807977569989
 20
246.7093745186178
 30
0.0
 11
326.8605891677139
 21
238.4891659293328
 31
0.0
  0
ARC
  5
6F8
  8
TALL__2
 10
336.4984383298985
 20
147.0250652361133
 30
0.0
 40
81.81129851551904
 50
71.51431987078908
 51
96.76548852381991
  0
LINE
  5
6F9
  8
TALL__2
 10
326.8605891677139
 20
247.2318673104824
 30
0.0
 11
331.3646955603657
 21
251.7359737031343
 31
0.0
  0
ARC
  5
6FA
  8
TALL__2
 10
398.960473178589
 20
297.8217569012428
 30
0.0
 40
81.81129851551904
 50
208.2010311717427
 51
214.2855767739953
  0
ARC
  5
6FB
  8
TALL__2
 10
336.4521802700892
 20
147.0250652361133
 30
0.0
 40
78.62927508301904
 50
68.58688199327416
 51
89.87856532473882
  0
LINE
  5
6FC
  8
TALL__2
 10
326.8605891677139
 20
238.4891659293328
 30
0.0
 11
326.8605891677139
 21
228.2666828241595
 31
0.0
  0
LINE
  5
6FD
  8
TALL__2
 10
326.8605891677139
 20
259.1604676002672
 30
0.0
 11
326.8605891677139
 21
247.2318673104824
 31
0.0
  0
ARC
  5
6FE
  8
TALL__2
 10
446.2042605258523
 20
183.5804373439708
 30
0.0
 40
81.81129851551904
 50
161.58679709369
 51
170.7779559372861
  0
ARC
  5
6FF
  8
TALL__2
 10
299.7447401632462
 20
183.5804373439708
 30
0.0
 40
81.81129851551904
 50
353.2259543172974
 51
18.41320290630994
  0
ARC
  5
700
  8
TALL__2
 10
299.7447401632462
 20
183.6630670353683
 30
0.0
 40
78.62927508301904
 50
0.0336696788467512
 51
21.40322045861712
  0
ARC
  5
701
  8
TALL__2
 10
446.1580024660432
 20
183.6630670353683
 30
0.0
 40
78.62927508301904
 50
158.5967795413828
 51
172.4988079465241
  0
LINE
  5
702
  8
TALL__2
 10
391.1272984505782
 20
173.9304548052227
 30
0.0
 11
399.365995502044
 21
182.1691518566885
 31
0.0
  0
LINE
  5
703
  8
TALL__2
 10
404.3874779940768
 20
178.4479329675716
 30
0.0
 11
399.8699998317279
 21
173.9304548052227
 31
0.0
  0
LINE
  5
704
  8
TALL__2
 10
391.1272984505782
 20
173.9304548052227
 30
0.0
 11
380.984917426699
 21
173.9304548052227
 31
0.0
  0
ARC
  5
705
  8
TALL__2
 10
450.5510682131005
 20
245.9905972834354
 30
0.0
 40
81.81129851551904
 50
235.6484462418319
 51
241.7401284698637
  0
LINE
  5
706
  8
TALL__2
 10
411.8157557603131
 20
173.9304548052227
 30
0.0
 11
399.8699998317279
 21
173.9304548052227
 31
0.0
  0
ARC
  5
707
  8
TALL__2
 10
346.9885275105095
 20
142.558976904119
 30
0.0
 40
81.81129851551904
 50
28.20103117174261
 51
34.28557677399526
  0
LINE
  5
708
  8
TALL__2
 10
410.8682029320995
 20
193.671359286744
 30
0.0
 11
419.0884115213846
 21
201.891567876029
 31
0.0
  0
ARC
  5
709
  8
TALL__2
 10
409.4505623592
 20
293.3556685692485
 30
0.0
 40
81.81129851551904
 50
251.5143198707891
 51
276.7654885238199
  0
LINE
  5
70A
  8
TALL__2
 10
419.0884115213846
 20
193.1488664948794
 30
0.0
 11
414.5843051287328
 21
188.6447601022275
 31
0.0
  0
LINE
  5
70B
  8
TALL__2
 10
410.8682029320995
 20
246.7093745186178
 30
0.0
 11
419.0884115213846
 21
238.4891659293328
 31
0.0
  0
ARC
  5
70C
  8
TALL__2
 10
409.4505623592
 20
147.0250652361133
 30
0.0
 40
81.81129851551904
 50
83.2345114761801
 51
108.4856801292109
  0
ARC
  5
70D
  8
TALL__2
 10
409.4505623592
 20
147.0250652361133
 30
0.0
 40
78.62927508301904
 50
82.95936199798156
 51
111.4032496896992
  0
LINE
  5
70E
  8
TALL__2
 10
419.0884115213846
 20
247.2318673104824
 30
0.0
 11
414.5843051287328
 21
251.7359737031343
 31
0.0
  0
ARC
  5
70F
  8
TALL__2
 10
346.9885275105095
 20
297.8217569012428
 30
0.0
 40
81.81129851551904
 50
325.7144232260047
 51
331.7989688282573
  0
ARC
  5
710
  8
TALL__2
 10
409.4505623592001
 20
293.4382982606461
 30
0.0
 40
78.62927508301904
 50
248.5967503103008
 51
277.0406380020184
  0
LINE
  5
711
  8
TALL__2
 10
419.0884115213846
 20
193.1488664948794
 30
0.0
 11
419.0884115213846
 21
181.2202662050944
 31
0.0
  0
LINE
  5
712
  8
TALL__2
 10
419.0884115213846
 20
212.1140509812022
 30
0.0
 11
419.0884115213846
 21
201.891567876029
 31
0.0
  0
LINE
  5
713
  8
TALL__2
 10
419.0884115213846
 20
225.0614334474034
 30
0.0
 11
419.0884115213846
 21
215.4019300493559
 31
0.0
  0
LINE
  5
714
  8
TALL__2
 10
419.0884115213846
 20
238.4891659293328
 30
0.0
 11
419.0884115213846
 21
228.2666828241595
 31
0.0
  0
LINE
  5
715
  8
TALL__2
 10
419.0884115213846
 20
259.1604676002673
 30
0.0
 11
419.0884115213846
 21
247.2318673104824
 31
0.0
  0
ARC
  5
716
  8
TALL__2
 10
450.5510682131005
 20
194.3901365219264
 30
0.0
 40
81.81129851551904
 50
118.2598715301363
 51
124.3515537581681
  0
LINE
  5
717
  8
TALL__2
 10
391.1272984505782
 20
266.4502790001391
 30
0.0
 11
399.365995502044
 21
258.2115819486733
 31
0.0
  0
LINE
  5
718
  8
TALL__2
 10
404.3874779940768
 20
261.9328008377902
 30
0.0
 11
399.869999831728
 21
266.4502790001391
 31
0.0
  0
LINE
  5
719
  8
TALL__2
 10
399.869999831728
 20
266.4502790001391
 30
0.0
 11
411.8157557603132
 21
266.4502790001391
 31
0.0
  0
LINE
  5
71A
  8
TALL__2
 10
354.8217022385203
 20
266.4502790001391
 30
0.0
 11
346.5830051870545
 21
258.2115819486733
 31
0.0
  0
ARC
  5
71B
  8
TALL__2
 10
446.2042605258523
 20
256.800296461391
 30
0.0
 40
81.81129851551904
 50
173.2259543172975
 51
198.41320290631
  0
LINE
  5
71C
  8
TALL__2
 10
341.5615226950217
 20
261.9328008377902
 30
0.0
 11
346.0790008573705
 21
266.4502790001391
 31
0.0
  0
ARC
  5
71D
  8
TALL__2
 10
299.7447401632462
 20
256.800296461391
 30
0.0
 40
81.81129851551904
 50
341.5867970936899
 51
6.774045682702367
  0
ARC
  5
71E
  8
TALL__2
 10
299.7447401632462
 20
256.800296461391
 30
0.0
 40
78.62927508301904
 50
338.5967795413828
 51
7.049546642464605
  0
ARC
  5
71F
  8
TALL__2
 10
446.1580024660432
 20
256.800296461391
 30
0.0
 40
78.62927508301904
 50
172.9504533575354
 51
201.4032204586172
  0
LINE
  5
720
  8
TALL__2
 10
354.8217022385203
 20
266.4502790001391
 30
0.0
 11
364.9640832623995
 21
266.4502790001391
 31
0.0
  0
LINE
  5
721
  8
TALL__2
 10
380.984917426699
 20
266.4502790001391
 30
0.0
 11
391.1272984505782
 21
266.4502790001391
 31
0.0
  0
LINE
  5
722
  8
TALL__2
 10
368.1231337400503
 20
266.4502790001391
 30
0.0
 11
377.7796088892391
 21
266.4502790001391
 31
0.0
  0
ARC
  5
723
  8
TALL__2
 10
295.397932475998
 20
194.3901365219264
 30
0.0
 40
81.81129851551904
 50
55.6484462418319
 51
61.74012846986367
  0
LINE
  5
724
  8
TALL__2
 10
334.1332449287854
 20
266.4502790001391
 30
0.0
 11
346.0790008573705
 21
266.4502790001391
 31
0.0
  0
LINE
  5
725
  8
TALL__2
 10
378.3740016697927
 20
183.7092732709781
 30
0.0
 11
368.2016252764136
 21
193.9278688137405
 31
0.0
  0
LINE
  5
726
  8
TALL__2
 10
346.7610908298286
 20
215.4658203461785
 30
0.0
 11
336.6188297758357
 21
225.6541637176762
 31
0.0
  0
LINE
  5
727
  8
TALL__2
 10
352.3838676355009
 20
209.8174959249756
 30
0.0
 11
349.6117944606876
 21
212.6021642751161
 31
0.0
  0
LINE
  5
728
  8
TALL__2
 10
360.4456061245439
 20
201.7191281684828
 30
0.0
 11
354.698262182202
 21
207.4925857088627
 31
0.0
  0
LINE
  5
729
  8
TALL__2
 10
365.4503992977403
 20
196.6915952465435
 30
0.0
 11
362.6908414324408
 21
199.4636914226836
 31
0.0
  0
ARC
  5
72A
  8
TALL__2
 10
336.4058871947894
 20
293.4102406580774
 30
0.0
 40
78.62927508301904
 50
277.5676400043476
 51
291.4493566181739
  0
POLYLINE
  5
72B
  8
0
 66
     1
 10
0.0
 20
0.0
 30
0.0
  0
VERTEX
  5
C61
  8
0
 10
592.7796638717041
 20
289.4799991119812
 30
0.0
  0
VERTEX
  5
C62
  8
0
 10
592.7869258776109
 20
277.9986348300118
 30
0.0
  0
VERTEX
  5
C63
  8
0
 10
589.8941778812487
 20
277.9968051560706
 30
0.0
  0
VERTEX
  5
C64
  8
0
 10
589.9033262509545
 20
263.5330651742595
 30
0.0
  0
VERTEX
  5
C65
  8
0
 10
592.7960742473167
 20
263.5348948482006
 30
0.0
  0
VERTEX
  5
C66
  8
0
 10
592.8052226170225
 20
249.0711548663893
 30
0.0
  0
VERTEX
  5
C67
  8
0
 10
589.9124746206603
 20
249.0693251924482
 30
0.0
  0
VERTEX
  5
C68
  8
0
 10
589.9216229903664
 20
234.6055852106369
 30
0.0
  0
VERTEX
  5
C69
  8
0
 10
592.8143709867286
 20
234.607414884578
 30
0.0
  0
VERTEX
  5
C6A
  8
0
 10
592.8235193564344
 20
220.1436749027668
 30
0.0
  0
VERTEX
  5
C6B
  8
0
 10
589.9307713600722
 20
220.1418452288257
 30
0.0
  0
VERTEX
  5
C6C
  8
0
 10
589.939919729778
 20
205.6781052470145
 30
0.0
  0
VERTEX
  5
C6D
  8
0
 10
592.8326677261402
 20
205.6799349209556
 30
0.0
  0
VERTEX
  5
C6E
  8
0
 10
592.8326677261402
 20
205.6799349209556
 30
0.0
  0
VERTEX
  5
C6F
  8
0
 10
592.8418160958463
 20
191.2161949391443
 30
0.0
  0
VERTEX
  5
C70
  8
0
 10
589.9490680994841
 20
191.2143652652032
 30
0.0
  0
VERTEX
  5
C71
  8
0
 10
589.9582164691899
 20
176.7506252833918
 30
0.0
  0
VERTEX
  5
C72
  8
0
 10
592.8509644655524
 20
176.752454957333
 30
0.0
  0
VERTEX
  5
C73
  8
0
 10
592.860112835258
 20
162.2887149755218
 30
0.0
  0
VERTEX
  5
C74
  8
0
 10
589.9673648388957
 20
162.2868853015805
 30
0.0
  0
VERTEX
  5
C75
  8
0
 10
589.9765132086018
 20
147.8231453197695
 30
0.0
  0
SEQEND
  5
E5B
  8
0
  0
ARC
  5
72C
  8
TALL__2
 10
398.4947084455047
 20
149.9895335162677
 30
0.0
 40
78.62927508301905
 50
235.9477660576675
 51
246.6954428153888
  0
ARC
  5
72D
  8
TALL__2
 10
295.4430819870199
 20
46.04886671386683
 30
0.0
 40
78.62927508301905
 50
23.7967295790375
 51
34.50476337639147
  0
LINE
  5
72E
  8
0
 10
592.7796638717041
 20
141.7373325473473
 30
0.0
 11
578.4055189086052
 21
141.7373325473473
 31
0.0
  0
LINE
  5
72F
  8
0
 10
578.4055189086052
 20
141.7373325473473
 30
0.0
 11
578.4055189086052
 21
144.6300811223471
 31
0.0
  0
LINE
  5
730
  8
0
 10
578.4055189086052
 20
144.6300811223471
 30
0.0
 11
563.9417760336053
 21
144.6300811223471
 31
0.0
  0
LINE
  5
731
  8
0
 10
563.9417760336053
 20
144.6300811223471
 30
0.0
 11
563.9417760336053
 21
141.7373325473473
 31
0.0
  0
LINE
  5
732
  8
0
 10
563.9417760336053
 20
141.7373325473473
 30
0.0
 11
549.4780331586053
 21
141.7373325473473
 31
0.0
  0
LINE
  5
733
  8
0
 10
549.4780331586053
 20
141.7373325473473
 30
0.0
 11
549.4780331586053
 21
144.6300811223471
 31
0.0
  0
LINE
  5
734
  8
0
 10
549.4780331586053
 20
144.6300811223471
 30
0.0
 11
535.0142902836053
 21
144.6300811223471
 31
0.0
  0
LINE
  5
735
  8
0
 10
535.0142902836053
 20
144.6300811223471
 30
0.0
 11
535.0142902836053
 21
141.7373325473473
 31
0.0
  0
LINE
  5
736
  8
0
 10
535.0142902836053
 20
141.7373325473473
 30
0.0
 11
520.5505474086053
 21
141.7373325473473
 31
0.0
  0
LINE
  5
737
  8
0
 10
520.5505474086053
 20
141.7373325473473
 30
0.0
 11
520.5505474086053
 21
144.6300811223471
 31
0.0
  0
LINE
  5
738
  8
0
 10
520.5505474086053
 20
144.6300811223471
 30
0.0
 11
506.0868045336053
 21
144.6300811223471
 31
0.0
  0
LINE
  5
739
  8
0
 10
506.0868045336053
 20
144.6300811223471
 30
0.0
 11
506.0868045336053
 21
141.7373325473473
 31
0.0
  0
LINE
  5
73A
  8
0
 10
506.0868045336053
 20
141.7373325473473
 30
0.0
 11
491.6230616586052
 21
141.7373325473473
 31
0.0
  0
LINE
  5
73B
  8
0
 10
491.6230616586052
 20
141.7373325473473
 30
0.0
 11
491.6230616586052
 21
144.6300811223471
 31
0.0
  0
LINE
  5
73C
  8
0
 10
491.6230616586052
 20
144.6300811223471
 30
0.0
 11
491.6230616586052
 21
144.6300811223471
 31
0.0
  0
LINE
  5
73D
  8
0
 10
491.6230616586052
 20
144.6300811223471
 30
0.0
 11
477.1593187836052
 21
144.6300811223471
 31
0.0
  0
LINE
  5
73E
  8
0
 10
477.1593187836052
 20
144.6300811223471
 30
0.0
 11
477.1593187836052
 21
141.7373325473473
 31
0.0
  0
LINE
  5
73F
  8
0
 10
477.1593187836052
 20
141.7373325473473
 30
0.0
 11
462.6955759086052
 21
141.7373325473473
 31
0.0
  0
LINE
  5
740
  8
0
 10
462.6955759086052
 20
141.7373325473473
 30
0.0
 11
462.6955759086052
 21
144.6300811223471
 31
0.0
  0
LINE
  5
741
  8
0
 10
462.6955759086052
 20
144.6300811223471
 30
0.0
 11
451.1245816086053
 21
144.6300811223471
 31
0.0
  0
LINE
  5
742
  8
0
 10
506.1764487074839
 20
2.918383032255718
 30
0.0
 11
506.1782772365472
 21
0.0274451091196966
 31
0.0
  0
LINE
  5
743
  8
0
 10
506.1782772365472
 20
0.0274451091196966
 30
0.0
 11
491.7145372547357
 21
0.018296739413131
 31
0.0
  0
LINE
  5
744
  8
0
 10
491.7145372547357
 20
0.018296739413131
 30
0.0
 11
491.7127087289351
 21
2.90922950456266
 31
0.0
  0
LINE
  5
745
  8
0
 10
491.7127087289351
 20
2.90922950456266
 30
0.0
 11
477.2489687510354
 21
2.900075976870028
 31
0.0
  0
LINE
  5
746
  8
0
 10
477.2489687510354
 20
2.900075976870028
 30
0.0
 11
477.2507972729246
 21
0.0091483697065655
 31
0.0
  0
LINE
  5
747
  8
0
 10
477.2507972729246
 20
0.0091483697065655
 30
0.0
 11
462.7870572911133
 21
0.0
 31
0.0
  0
LINE
  5
748
  8
0
 10
462.7870572911133
 20
0.0
 30
0.0
 11
462.7852287718374
 21
2.890922449176543
 31
0.0
  0
LINE
  5
749
  8
0
 10
462.7852287718374
 20
2.890922449176543
 30
0.0
 11
448.3214867090186
 21
2.885064190960662
 31
0.0
  0
LINE
  5
74A
  8
0
 10
448.3214867090186
 20
2.885064190960662
 30
0.0
 11
448.3141689395962
 21
14.45459161210496
 31
0.0
  0
LINE
  5
74B
  8
0
 10
448.3141689395962
 20
14.45459161210496
 30
0.0
 11
451.2069169359585
 21
14.45642128604609
 31
0.0
  0
LINE
  5
74C
  8
0
 10
451.2069169359585
 20
14.45642128604609
 30
0.0
 11
451.1977685662525
 21
28.92016126785717
 31
0.0
  0
LINE
  5
74D
  8
0
 10
451.1977685662525
 20
28.92016126785717
 30
0.0
 11
448.3050205698902
 21
28.91833159391607
 31
0.0
  0
LINE
  5
74E
  8
0
 10
448.3050205698902
 20
28.91833159391607
 30
0.0
 11
448.2958722001843
 21
43.38207157572742
 31
0.0
  0
LINE
  5
74F
  8
0
 10
448.2958722001843
 20
43.38207157572742
 30
0.0
 11
451.1886201965467
 21
43.38390124966855
 31
0.0
  0
LINE
  5
750
  8
0
 10
451.1886201965467
 20
43.38390124966855
 30
0.0
 11
451.1794718268406
 21
57.84764123147983
 31
0.0
  0
LINE
  5
751
  8
0
 10
451.1794718268406
 20
57.84764123147983
 30
0.0
 11
448.2867238304785
 21
57.8458115575387
 31
0.0
  0
LINE
  5
752
  8
0
 10
448.2867238304785
 20
57.8458115575387
 30
0.0
 11
448.2775754607725
 21
72.30955153934991
 31
0.0
  0
LINE
  5
753
  8
0
 10
448.2775754607725
 20
72.30955153934991
 30
0.0
 11
451.1703234571348
 21
72.31138121329104
 31
0.0
  0
LINE
  5
754
  8
0
 10
451.1703234571348
 20
72.31138121329104
 30
0.0
 11
451.1611750874288
 21
86.77512119510226
 31
0.0
  0
LINE
  5
755
  8
0
 10
451.1611750874288
 20
86.77512119510226
 30
0.0
 11
448.2684270910666
 21
86.77329152116107
 31
0.0
  0
LINE
  5
756
  8
0
 10
448.2684270910666
 20
86.77329152116107
 30
0.0
 11
448.2684270910666
 21
86.77329152116107
 31
0.0
  0
LINE
  5
757
  8
0
 10
448.2684270910666
 20
86.77329152116107
 30
0.0
 11
448.2592787213608
 21
101.2370315029724
 31
0.0
  0
LINE
  5
758
  8
0
 10
448.2592787213608
 20
101.2370315029724
 30
0.0
 11
451.152026717723
 21
101.2388611769135
 31
0.0
  0
LINE
  5
759
  8
0
 10
451.152026717723
 20
101.2388611769135
 30
0.0
 11
451.1428783480171
 21
115.7026011587248
 31
0.0
  0
LINE
  5
75A
  8
0
 10
451.1428783480171
 20
115.7026011587248
 30
0.0
 11
448.2501303516548
 21
115.7007714847836
 31
0.0
  0
LINE
  5
75B
  8
0
 10
448.2501303516548
 20
115.7007714847836
 30
0.0
 11
448.2409819819489
 21
130.1645114665949
 31
0.0
  0
LINE
  5
75C
  8
0
 10
448.2409819819489
 20
130.1645114665949
 30
0.0
 11
451.1337299783111
 21
130.1663411405362
 31
0.0
  0
LINE
  5
75D
  8
0
 10
451.1337299783111
 20
130.1663411405362
 30
0.0
 11
451.1245816086053
 21
144.6300811223471
 31
0.0
  0
LINE
  5
75E
  8
0
 10
535.1039286639323
 20
2.936690087641409
 30
0.0
 11
535.1057571929955
 21
0.0457521645053589
 31
0.0
  0
LINE
  5
75F
  8
0
 10
535.1057571929955
 20
0.0457521645053589
 30
0.0
 11
520.6420172111841
 21
0.0366037947987934
 31
0.0
  0
LINE
  5
760
  8
0
 10
520.6420172111841
 20
0.0366037947987934
 30
0.0
 11
520.6401886853835
 21
2.927536559948351
 31
0.0
  0
LINE
  5
761
  8
0
 10
520.6401886853835
 20
2.927536559948351
 30
0.0
 11
506.1764487074839
 21
2.918383032255718
 31
0.0
  0
LINE
  5
762
  8
0
 10
564.0314086203807
 20
2.954997143027072
 30
0.0
 11
564.033237149444
 21
0.0640592198910497
 31
0.0
  0
LINE
  5
763
  8
0
 10
564.033237149444
 20
0.0640592198910497
 30
0.0
 11
549.5694971676326
 21
0.0549108501844842
 31
0.0
  0
LINE
  5
764
  8
0
 10
549.5694971676326
 20
0.0549108501844842
 30
0.0
 11
549.5676686418319
 21
2.945843615334013
 31
0.0
  0
LINE
  5
765
  8
0
 10
549.5676686418319
 20
2.945843615334013
 30
0.0
 11
535.1039286639323
 21
2.936690087641409
 31
0.0
  0
LINE
  5
766
  8
0
 10
589.9765132086018
 20
0.0804787551356014
 30
0.0
 11
578.496977124081
 21
0.0732179055702034
 31
0.0
  0
LINE
  5
767
  8
0
 10
578.496977124081
 20
0.0732179055702034
 30
0.0
 11
578.4951485982804
 21
2.964150670719704
 31
0.0
  0
LINE
  5
768
  8
0
 10
578.4951485982804
 20
2.964150670719704
 30
0.0
 11
564.0314086203807
 21
2.954997143027072
 31
0.0
  0
LINE
  5
769
  8
0
 10
448.3214867090186
 20
2.885064190960662
 30
0.0
 11
451.2142352840186
 21
2.885064190960662
 31
0.0
  0
LINE
  5
76A
  8
0
 10
451.2142352840186
 20
2.885064190960662
 30
0.0
 11
454.1069838590186
 21
2.885064190960662
 31
0.0
  0
LINE
  5
76B
  8
0
 10
451.1245816086053
 20
144.6300811223471
 30
0.0
 11
451.1245816086053
 21
138.8445839723472
 31
0.0
  0
LINE
  5
76C
  8
0
 10
592.7796638717041
 20
141.7373325473473
 30
0.0
 11
587.0837646336051
 21
141.7373325473473
 31
0.0
  0
ARC
  5
76D
  8
TALL__2
 10
484.0267595333005
 20
-0.8693746232320336
 30
0.0
 40
78.62927508301904
 50
101.122847958771
 51
111.4493566181755
  0
LINE
  5
76E
  8
TALL__2
 10
468.8632326434507
 20
72.24868805420891
 30
0.0
 11
468.85812948201
 21
76.28291349869065
 31
0.0
  0
ARC
  5
76F
  8
TALL__2
 10
593.8019907585783
 20
108.8364475727219
 30
0.0
 40
78.62927508301904
 50
158.5144047703744
 51
168.8465295733221
  0
LINE
  5
770
  8
TALL__2
 10
520.5953742463121
 20
124.0463104904696
 30
0.0
 11
516.6578207254229
 21
124.0463104904696
 31
0.0
  0
ARC
  5
771
  8
TALL__2
 10
557.1639889593232
 20
-0.8693746232320336
 30
0.0
 40
78.62927508301904
 50
68.55064338182422
 51
78.87715204122881
  0
LINE
  5
772
  8
TALL__2
 10
572.3275158491731
 20
72.24868805420891
 30
0.0
 11
572.3326190106138
 21
76.28291349869065
 31
0.0
  0
ARC
  5
773
  8
TALL__2
 10
447.3887577340456
 20
108.8364475727219
 30
0.0
 40
78.62927508301904
 50
11.15347042667784
 51
21.48559522962556
  0
LINE
  5
774
  8
TALL__2
 10
520.5953742463121
 20
124.0463104904696
 30
0.0
 11
524.532927767201
 21
124.0463104904696
 31
0.0
  0
ARC
  5
775
  8
TALL__2
 10
484.0267595333005
 20
145.5438876795649
 30
0.0
 40
78.62927508301904
 50
248.5506433818244
 51
258.877152041229
  0
LINE
  5
776
  8
TALL__2
 10
468.8632326434507
 20
72.42582500212393
 30
0.0
 11
468.85812948201
 21
68.39159955764228
 31
0.0
  0
ARC
  5
777
  8
TALL__2
 10
593.8019907585783
 20
35.83806548361105
 30
0.0
 40
78.62927508301904
 50
191.1534704266779
 51
201.4855952296255
  0
LINE
  5
778
  8
TALL__2
 10
520.5953742463121
 20
20.62820256586318
 30
0.0
 11
516.6578207254229
 21
20.62820256586318
 31
0.0
  0
ARC
  5
779
  8
TALL__2
 10
557.1639889593232
 20
145.5438876795649
 30
0.0
 40
78.62927508301904
 50
281.122847958771
 51
291.4493566181754
  0
LINE
  5
77A
  8
TALL__2
 10
572.3275158491731
 20
72.42582500212393
 30
0.0
 11
572.3326190106138
 21
68.39159955764228
 31
0.0
  0
LINE
  5
77B
  8
TALL__2
 10
572.3546702577573
 20
50.9593267707692
 30
0.0
 11
572.3929139169677
 21
20.72639276086889
 31
0.0
  0
ARC
  5
77C
  8
TALL__2
 10
598.185449399175
 20
98.30010033230164
 30
0.0
 40
78.62927508301904
 50
236.1534704266781
 51
246.4855952296257
  0
ARC
  5
77D
  8
TALL__2
 10
494.7538290198586
 20
-5.262440370289312
 30
0.0
 40
78.62927508301904
 50
23.5868819932745
 51
33.91527761463934
  0
LINE
  5
77E
  8
TALL__2
 10
554.3912808497803
 20
32.99593736279209
 30
0.0
 11
560.0053972596759
 21
38.61005377268782
 31
0.0
  0
LINE
  5
77F
  8
TALL__2
 10
542.0235460528513
 20
20.62820256586318
 30
0.0
 11
572.2948478507442
 21
20.62820256586318
 31
0.0
  0
ARC
  5
780
  8
TALL__2
 10
447.3887577340456
 20
35.8380654836111
 30
0.0
 40
78.62927508301904
 50
338.5144047703743
 51
348.846529573322
  0
LINE
  5
781
  8
TALL__2
 10
520.5953742463121
 20
20.62820256586318
 30
0.0
 11
524.532927767201
 21
20.62820256586318
 31
0.0
  0
LINE
  5
782
  8
TALL__2
 10
530.0168419200071
 20
8.621498433019042
 30
0.0
 11
542.0235460528513
 21
20.62820256586318
 31
0.0
  0
LINE
  5
783
  8
TALL__2
 10
530.0168419200071
 20
8.621498433019042
 30
0.0
 11
584.1910160586074
 21
8.621498433019042
 31
0.0
  0
LINE
  5
784
  8
TALL__2
 10
457.0619410003142
 20
8.62149843301907
 30
0.0
 11
511.1739065726167
 21
8.621498433019042
 31
0.0
  0
LINE
  5
785
  8
TALL__2
 10
572.3546702577571
 20
50.95932677076917
 30
0.0
 11
584.1910160586074
 21
62.79567257161943
 31
0.0
  0
LINE
  5
786
  8
TALL__2
 10
457.0619410003142
 20
135.951835397347
 30
0.0
 11
511.07272734665
 21
135.951835397347
 31
0.0
  0
LINE
  5
787
  8
TALL__2
 10
530.1180211459739
 20
135.951835397347
 30
0.0
 11
584.1910160586074
 21
135.951835397347
 31
0.0
  0
LINE
  5
788
  8
TALL__2
 10
457.0619410003142
 20
81.9410490510113
 30
0.0
 11
457.0619410003142
 21
135.951835397347
 31
0.0
  0
LINE
  5
789
  8
TALL__2
 10
457.0619410003142
 20
8.62149843301907
 30
0.0
 11
457.0619410003142
 21
62.73346400532157
 31
0.0
  0
LINE
  5
78A
  8
TALL__2
 10
584.1910160586074
 20
135.951835397347
 30
0.0
 11
584.1910160586074
 21
81.87884048471344
 31
0.0
  0
LINE
  5
78B
  8
TALL__2
 10
584.1910160586074
 20
62.79567257161943
 30
0.0
 11
584.1910160586074
 21
8.621498433019042
 31
0.0
  0
ARC
  5
78C
  8
TALL__2
 10
557.1639889593232
 20
145.5438876795649
 30
0.0
 40
81.81129851551904
 50
280.6879559826527
 51
285.837210784132
  0
LINE
  5
78D
  8
TALL__2
 10
572.3367171640639
 20
65.1518676550597
 30
0.0
 11
572.3436250022389
 21
59.69098289640053
 31
0.0
  0
LINE
  5
78E
  8
TALL__2
 10
579.4907097847181
 20
66.83806767887975
 30
0.0
 11
572.3436250022389
 21
59.69098289640053
 31
0.0
  0
ARC
  5
78F
  8
TALL__2
 10
494.7538290198586
 20
-5.262440370289312
 30
0.0
 40
81.81129851551904
 50
38.72976243177364
 51
63.44944151775982
  0
ARC
  5
790
  8
TALL__2
 10
494.7538290198586
 20
-5.262440370289312
 30
0.0
 40
78.62927508301904
 50
38.47493318706131
 51
66.48559522962552
  0
LINE
  5
791
  8
TALL__2
 10
556.3111497951445
 20
43.65850768930611
 30
0.0
 11
549.3374880554527
 21
36.68484594961421
 31
0.0
  0
ARC
  5
792
  8
TALL__2
 10
598.185449399175
 20
98.30010033230164
 30
0.0
 40
81.81129851551904
 50
206.5143198707889
 51
231.3354656344023
  0
ARC
  5
793
  8
TALL__2
 10
598.185449399175
 20
98.30010033230164
 30
0.0
 40
78.62927508301904
 50
203.5868819932742
 51
231.592968783572
  0
LINE
  5
794
  8
TALL__2
 10
527.7737602831446
 20
20.62820256586318
 30
0.0
 11
533.2808446717017
 21
20.62820256586318
 31
0.0
  0
LINE
  5
795
  8
TALL__2
 10
533.2808446717017
 20
20.62820256586318
 30
0.0
 11
526.0670008592908
 21
13.41435875345215
 31
0.0
  0
ARC
  5
796
  8
TALL__2
 10
447.3887577340456
 20
35.8380654836111
 30
0.0
 40
81.81129851551904
 50
344.0921736503341
 51
349.2855767739952
  0
LINE
  5
797
  8
TALL__2
 10
499.084572748375
 20
20.62820256586318
 30
0.0
 11
468.813270950482
 21
20.62820256586318
 31
0.0
  0
LINE
  5
798
  8
TALL__2
 10
468.753448543469
 20
50.9593267707692
 30
0.0
 11
468.7152048842585
 21
20.72639276086889
 31
0.0
  0
ARC
  5
799
  8
TALL__2
 10
442.9226694020512
 20
98.30010033230164
 30
0.0
 40
78.62927508301904
 50
293.5144047703744
 51
303.846529573322
  0
ARC
  5
79A
  8
TALL__2
 10
546.3542897813677
 20
-5.262440370289312
 30
0.0
 40
78.62927508301904
 50
146.0847223853607
 51
156.4131180067255
  0
LINE
  5
79B
  8
TALL__2
 10
486.7168379514461
 20
32.99593736279209
 30
0.0
 11
481.1027215415504
 21
38.61005377268782
 31
0.0
  0
LINE
  5
79C
  8
TALL__2
 10
511.0912768812192
 20
8.621498433019042
 30
0.0
 11
499.084572748375
 21
20.62820256586318
 31
0.0
  0
LINE
  5
79D
  8
TALL__2
 10
468.7534485434691
 20
50.95932677076917
 30
0.0
 11
456.9171027426189
 21
62.79567257161943
 31
0.0
  0
LINE
  5
79E
  8
TALL__2
 10
468.7714016371625
 20
65.1518676550597
 30
0.0
 11
468.7644937989874
 21
59.69098289640053
 31
0.0
  0
LINE
  5
79F
  8
TALL__2
 10
461.6174090165082
 20
66.83806767887975
 30
0.0
 11
468.7644937989874
 21
59.69098289640053
 31
0.0
  0
ARC
  5
7A0
  8
TALL__2
 10
546.3542897813677
 20
-5.262440370289312
 30
0.0
 40
81.81129851551904
 50
116.5505584822402
 51
141.2702375682263
  0
ARC
  5
7A1
  8
TALL__2
 10
546.3542897813677
 20
-5.262440370289312
 30
0.0
 40
78.62927508301904
 50
113.5144047703745
 51
141.5250668129388
  0
LINE
  5
7A2
  8
TALL__2
 10
484.7969690060817
 20
43.65850768930611
 30
0.0
 11
491.7706307457736
 21
36.68484594961421
 31
0.0
  0
ARC
  5
7A3
  8
TALL__2
 10
442.9226694020512
 20
98.30010033230164
 30
0.0
 40
81.81129851551904
 50
308.6645343655978
 51
333.4856801292111
  0
ARC
  5
7A4
  8
TALL__2
 10
442.9226694020512
 20
98.30010033230164
 30
0.0
 40
78.62927508301904
 50
308.407031216428
 51
336.4131180067258
  0
LINE
  5
7A5
  8
TALL__2
 10
513.3343585180817
 20
20.62820256586318
 30
0.0
 11
507.8272741295245
 21
20.62820256586318
 31
0.0
  0
LINE
  5
7A6
  8
TALL__2
 10
507.8272741295245
 20
20.62820256586318
 30
0.0
 11
515.0411179419355
 21
13.41435875345215
 31
0.0
  0
ARC
  5
7A7
  8
TALL__2
 10
483.944129841903
 20
145.5438876795649
 30
0.0
 40
81.81129851551904
 50
254.1627892158681
 51
259.3120440173473
  0
ARC
  5
7A8
  8
TALL__2
 10
593.7193610671807
 20
35.8380654836111
 30
0.0
 40
81.81129851551904
 50
190.7144232260048
 51
195.9078263496658
  0
LINE
  5
7A9
  8
TALL__2
 10
572.3546702577573
 20
93.66892822575457
 30
0.0
 11
572.3929139169677
 21
123.9018622356549
 31
0.0
  0
ARC
  5
7AA
  8
TALL__2
 10
598.185449399175
 20
46.32815466422213
 30
0.0
 40
78.62927508301904
 50
113.5144047703743
 51
123.8465295733219
  0
ARC
  5
7AB
  8
TALL__2
 10
494.7538290198586
 20
149.8906953668131
 30
0.0
 40
78.62927508301904
 50
326.0847223853606
 51
336.4131180067254
  0
LINE
  5
7AC
  8
TALL__2
 10
554.3912808497803
 20
111.6323176337317
 30
0.0
 11
560.0053972596759
 21
106.0182012238359
 31
0.0
  0
LINE
  5
7AD
  8
TALL__2
 10
542.0235460528513
 20
124.0000524306606
 30
0.0
 11
572.2948478507442
 21
124.0000524306606
 31
0.0
  0
LINE
  5
7AE
  8
TALL__2
 10
530.0168419200071
 20
136.0067565635047
 30
0.0
 11
542.0235460528513
 21
124.0000524306606
 31
0.0
  0
LINE
  5
7AF
  8
TALL__2
 10
572.3546702577571
 20
93.6689282257546
 30
0.0
 11
584.1910160586074
 21
81.83258242490433
 31
0.0
  0
LINE
  5
7B0
  8
TALL__2
 10
572.3367171640639
 20
79.47638734146406
 30
0.0
 11
572.3436250022389
 21
84.93727210012324
 31
0.0
  0
LINE
  5
7B1
  8
TALL__2
 10
579.4907097847181
 20
77.79018731764401
 30
0.0
 11
572.3436250022389
 21
84.93727210012324
 31
0.0
  0
ARC
  5
7B2
  8
TALL__2
 10
494.7538290198586
 20
149.8906953668131
 30
0.0
 40
81.81129851551904
 50
296.5505584822401
 51
321.2702375682263
  0
ARC
  5
7B3
  8
TALL__2
 10
494.7538290198586
 20
149.8906953668131
 30
0.0
 40
78.62927508301904
 50
293.5144047703745
 51
321.5250668129387
  0
LINE
  5
7B4
  8
TALL__2
 10
556.3111497951445
 20
100.9697473072177
 30
0.0
 11
549.3374880554527
 21
107.9434090469095
 31
0.0
  0
ARC
  5
7B5
  8
TALL__2
 10
598.185449399175
 20
46.32815466422213
 30
0.0
 40
81.81129851551904
 50
128.6645343655977
 51
153.4856801292111
  0
ARC
  5
7B6
  8
TALL__2
 10
598.185449399175
 20
46.32815466422213
 30
0.0
 40
78.62927508301904
 50
128.407031216428
 51
156.4131180067258
  0
LINE
  5
7B7
  8
TALL__2
 10
527.7737602831446
 20
124.0000524306606
 30
0.0
 11
533.2808446717017
 21
124.0000524306606
 31
0.0
  0
LINE
  5
7B8
  8
TALL__2
 10
533.2808446717017
 20
124.0000524306606
 30
0.0
 11
526.0670008592908
 21
131.2138962430716
 31
0.0
  0
ARC
  5
7B9
  8
TALL__2
 10
557.1639889593232
 20
-0.9156326830411388
 30
0.0
 40
81.81129851551904
 50
74.16278921586807
 51
79.31204401734736
  0
ARC
  5
7BA
  8
TALL__2
 10
447.3887577340456
 20
108.7901895129126
 30
0.0
 40
81.81129851551904
 50
10.71442322600481
 51
15.90782634966589
  0
ARC
  5
7BB
  8
TALL__2
 10
593.7193610671807
 20
108.7901895129126
 30
0.0
 40
81.81129851551904
 50
164.0921736503341
 51
169.2855767739952
  0
LINE
  5
7BC
  8
TALL__2
 10
499.084572748375
 20
124.0000524306606
 30
0.0
 11
468.813270950482
 21
124.0000524306606
 31
0.0
  0
LINE
  5
7BD
  8
TALL__2
 10
468.753448543469
 20
93.66892822575457
 30
0.0
 11
468.7152048842585
 21
123.9018622356549
 31
0.0
  0
ARC
  5
7BE
  8
TALL__2
 10
442.9226694020512
 20
46.32815466422213
 30
0.0
 40
78.62927508301904
 50
56.15347042667803
 51
66.48559522962566
  0
ARC
  5
7BF
  8
TALL__2
 10
546.3542897813677
 20
149.8906953668131
 30
0.0
 40
78.62927508301904
 50
203.5868819932745
 51
213.9152776146394
  0
LINE
  5
7C0
  8
TALL__2
 10
486.7168379514461
 20
111.6323176337317
 30
0.0
 11
481.1027215415504
 21
106.0182012238359
 31
0.0
  0
LINE
  5
7C1
  8
TALL__2
 10
511.0912768812192
 20
136.0067565635047
 30
0.0
 11
499.084572748375
 21
124.0000524306606
 31
0.0
  0
LINE
  5
7C2
  8
TALL__2
 10
468.7534485434691
 20
93.6689282257546
 30
0.0
 11
456.9171027426189
 21
81.83258242490433
 31
0.0
  0
LINE
  5
7C3
  8
TALL__2
 10
468.7714016371625
 20
79.47638734146406
 30
0.0
 11
468.7644937989874
 21
84.93727210012324
 31
0.0
  0
LINE
  5
7C4
  8
TALL__2
 10
461.6174090165082
 20
77.79018731764401
 30
0.0
 11
468.7644937989874
 21
84.93727210012324
 31
0.0
  0
ARC
  5
7C5
  8
TALL__2
 10
546.3542897813677
 20
149.8906953668131
 30
0.0
 40
81.81129851551904
 50
218.7297624317736
 51
243.4494415177598
  0
ARC
  5
7C6
  8
TALL__2
 10
546.3542897813677
 20
149.8906953668131
 30
0.0
 40
78.62927508301904
 50
218.4749331870612
 51
246.4855952296254
  0
LINE
  5
7C7
  8
TALL__2
 10
484.7969690060817
 20
100.9697473072177
 30
0.0
 11
491.7706307457736
 21
107.9434090469095
 31
0.0
  0
ARC
  5
7C8
  8
TALL__2
 10
442.9226694020512
 20
46.32815466422213
 30
0.0
 40
81.81129851551904
 50
26.51431987078896
 51
51.33546563440226
  0
ARC
  5
7C9
  8
TALL__2
 10
442.9226694020512
 20
46.32815466422213
 30
0.0
 40
78.62927508301904
 50
23.5868819932742
 51
51.59296878357203
  0
LINE
  5
7CA
  8
TALL__2
 10
513.3343585180817
 20
124.0000524306606
 30
0.0
 11
507.8272741295245
 21
124.0000524306606
 31
0.0
  0
LINE
  5
7CB
  8
TALL__2
 10
507.8272741295245
 20
124.0000524306606
 30
0.0
 11
515.0411179419355
 21
131.2138962430716
 31
0.0
  0
ARC
  5
7CC
  8
TALL__2
 10
483.944129841903
 20
-0.9156326830411388
 30
0.0
 40
81.81129851551904
 50
100.6879559826526
 51
105.8372107841319
  0
ARC
  5
7CD
  8
TALL__2
 10
593.7193610671807
 20
108.7901895129126
 30
0.0
 40
81.81129851551904
 50
173.2345114761801
 51
198.4856801292108
  0
LINE
  5
7CE
  8
TALL__2
 10
494.0350517846762
 20
110.2078300858122
 30
0.0
 11
502.2552603739612
 21
118.4280386750972
 31
0.0
  0
LINE
  5
7CF
  8
TALL__2
 10
493.5125589928116
 20
118.4280386750972
 30
0.0
 11
489.0084526001597
 21
113.9239322824454
 31
0.0
  0
ARC
  5
7D0
  8
TALL__2
 10
442.9226694020512
 20
46.32815466422213
 30
0.0
 40
81.81129851551904
 50
55.71442322600469
 51
61.79896882825727
  0
LINE
  5
7D1
  8
TALL__2
 10
547.0730670165501
 20
110.2078300858122
 30
0.0
 11
538.8528584272651
 21
118.4280386750972
 31
0.0
  0
ARC
  5
7D2
  8
TALL__2
 10
447.3887577340456
 20
108.7901895129126
 30
0.0
 40
81.81129851551904
 50
341.5143198707891
 51
6.765488523819902
  0
LINE
  5
7D3
  8
TALL__2
 10
547.5955598084147
 20
118.4280386750972
 30
0.0
 11
552.0996662010666
 21
113.9239322824454
 31
0.0
  0
ARC
  5
7D4
  8
TALL__2
 10
598.185449399175
 20
46.32815466422213
 30
0.0
 40
81.81129851551904
 50
118.2010311717427
 51
124.2855767739954
  0
ARC
  5
7D5
  8
TALL__2
 10
447.3887577340456
 20
108.8364475727219
 30
0.0
 40
78.62927508301904
 50
338.5868819932742
 51
7.00667569956493
  0
ARC
  5
7D6
  8
TALL__2
 10
593.8019907585783
 20
108.8364475727219
 30
0.0
 40
78.62927508301904
 50
172.9933243004351
 51
201.4131180067255
  0
LINE
  5
7D7
  8
TALL__2
 10
493.5125589928116
 20
118.4280386750972
 30
0.0
 11
481.5839587030268
 21
118.4280386750972
 31
0.0
  0
LINE
  5
7D8
  8
TALL__2
 10
512.4777434791345
 20
118.4280386750972
 30
0.0
 11
502.2552603739612
 21
118.4280386750972
 31
0.0
  0
LINE
  5
7D9
  8
TALL__2
 10
525.4308251093139
 20
118.4280386750972
 30
0.0
 11
515.75992338331
 21
118.4280386750972
 31
0.0
  0
LINE
  5
7DA
  8
TALL__2
 10
538.8528584272651
 20
118.4280386750972
 30
0.0
 11
528.6303753220918
 21
118.4280386750972
 31
0.0
  0
LINE
  5
7DB
  8
TALL__2
 10
559.5241600981994
 20
118.4280386750972
 30
0.0
 11
547.5955598084147
 21
118.4280386750972
 31
0.0
  0
LINE
  5
7DC
  8
TALL__2
 10
474.2941473031548
 20
90.46692560429074
 30
0.0
 11
482.5328443546207
 21
98.70562265575663
 31
0.0
  0
ARC
  5
7DD
  8
TALL__2
 10
483.944129841903
 20
-0.9156326830411388
 30
0.0
 40
81.81129851551904
 50
71.58679709369
 51
96.77404568270258
  0
LINE
  5
7DE
  8
TALL__2
 10
478.8116254655038
 20
103.7271051477895
 30
0.0
 11
474.2941473031548
 21
99.20962698544045
 31
0.0
  0
ARC
  5
7DF
  8
TALL__2
 10
546.3542897813677
 20
149.8906953668131
 30
0.0
 40
81.81129851551904
 50
208.259871530136
 51
214.3515537581679
  0
ARC
  5
7E0
  8
TALL__2
 10
483.944129841903
 20
145.5438876795649
 30
0.0
 40
81.81129851551904
 50
263.2259543172974
 51
288.41320290631
  0
ARC
  5
7E1
  8
TALL__2
 10
484.0267595333005
 20
145.5438876795649
 30
0.0
 40
78.62927508301904
 50
262.8897799233593
 51
291.4493566181754
  0
ARC
  5
7E2
  8
TALL__2
 10
484.0267595333005
 20
-0.8693746232320336
 30
0.0
 40
78.62927508301904
 50
68.55064338182426
 51
97.11022007664074
  0
LINE
  5
7E3
  8
TALL__2
 10
474.2941473031548
 20
99.20962698544048
 30
0.0
 11
474.2941473031548
 21
111.1553829140261
 31
0.0
  0
LINE
  5
7E4
  8
TALL__2
 10
474.2941473031549
 20
80.32454458041161
 30
0.0
 11
474.2941473031548
 21
90.46692560429076
 31
0.0
  0
LINE
  5
7E5
  8
TALL__2
 10
474.2941473031549
 20
67.51928156547612
 30
0.0
 11
474.2941473031549
 21
77.15523149085672
 31
0.0
  0
LINE
  5
7E6
  8
TALL__2
 10
474.2941473031549
 20
54.16132939223294
 30
0.0
 11
482.5328443546207
 21
45.92263234076714
 31
0.0
  0
LINE
  5
7E7
  8
TALL__2
 10
478.8116254655038
 20
40.90114984873429
 30
0.0
 11
474.2941473031549
 21
45.4186280110832
 31
0.0
  0
LINE
  5
7E8
  8
TALL__2
 10
474.2941473031549
 20
54.16132939223294
 30
0.0
 11
474.2941473031549
 21
64.30371041611215
 31
0.0
  0
ARC
  5
7E9
  8
TALL__2
 10
546.3542897813677
 20
-5.262440370289312
 30
0.0
 40
81.81129851551904
 50
145.648446241832
 51
151.7401284698637
  0
LINE
  5
7EA
  8
TALL__2
 10
474.2941473031549
 20
33.47287208249801
 30
0.0
 11
474.2941473031549
 21
45.4186280110832
 31
0.0
  0
ARC
  5
7EB
  8
TALL__2
 10
442.9226694020512
 20
98.30010033230164
 30
0.0
 40
81.81129851551904
 50
298.2010311717426
 51
304.2855767739953
  0
LINE
  5
7EC
  8
TALL__2
 10
494.0350517846762
 20
34.4204249107116
 30
0.0
 11
502.2552603739612
 21
26.20021632142652
 31
0.0
  0
ARC
  5
7ED
  8
TALL__2
 10
593.7193610671807
 20
35.8380654836111
 30
0.0
 40
81.81129851551904
 50
161.5143198707891
 51
186.7654885238199
  0
LINE
  5
7EE
  8
TALL__2
 10
493.5125589928116
 20
26.20021632142652
 30
0.0
 11
489.0084526001597
 21
30.70432271407836
 31
0.0
  0
LINE
  5
7EF
  8
TALL__2
 10
547.0730670165501
 20
34.4204249107116
 30
0.0
 11
538.8528584272651
 21
26.2002163214265
 31
0.0
  0
ARC
  5
7F0
  8
TALL__2
 10
447.3887577340456
 20
35.8380654836111
 30
0.0
 40
81.81129851551904
 50
353.2345114761801
 51
18.48568012921086
  0
ARC
  5
7F1
  8
TALL__2
 10
447.3887577340456
 20
35.8380654836111
 30
0.0
 40
78.62927508301904
 50
352.9593619979815
 51
21.4131180067256
  0
LINE
  5
7F2
  8
TALL__2
 10
547.5955598084147
 20
26.2002163214265
 30
0.0
 11
552.0996662010666
 21
30.70432271407836
 31
0.0
  0
ARC
  5
7F3
  8
TALL__2
 10
598.185449399175
 20
98.30010033230164
 30
0.0
 40
81.81129851551904
 50
235.7144232260047
 51
241.7989688282575
  0
ARC
  5
7F4
  8
TALL__2
 10
593.8019907585783
 20
35.83806548361105
 30
0.0
 40
78.62927508301904
 50
158.5868819932744
 51
187.0406380020184
  0
LINE
  5
7F5
  8
TALL__2
 10
493.5125589928116
 20
26.20021632142652
 30
0.0
 11
481.5839587030267
 21
26.20021632142652
 31
0.0
  0
LINE
  5
7F6
  8
TALL__2
 10
512.4777434791345
 20
26.20021632142652
 30
0.0
 11
502.2552603739613
 21
26.20021632142652
 31
0.0
  0
LINE
  5
7F7
  8
TALL__2
 10
525.4251259453357
 20
26.20021632142652
 30
0.0
 11
515.7656225472882
 21
26.20021632142652
 31
0.0
  0
LINE
  5
7F8
  8
TALL__2
 10
538.8528584272651
 20
26.20021632142652
 30
0.0
 11
528.6303753220918
 21
26.20021632142652
 31
0.0
  0
LINE
  5
7F9
  8
TALL__2
 10
559.5241600981996
 20
26.2002163214265
 30
0.0
 11
547.5955598084147
 21
26.20021632142652
 31
0.0
  0
ARC
  5
7FA
  8
TALL__2
 10
494.7538290198586
 20
-5.262440370289312
 30
0.0
 40
81.81129851551904
 50
28.25987153013633
 51
34.35155375816807
  0
LINE
  5
7FB
  8
TALL__2
 10
566.8139714980713
 20
54.16132939223291
 30
0.0
 11
558.5752744466056
 21
45.92263234076714
 31
0.0
  0
LINE
  5
7FC
  8
TALL__2
 10
562.2964933357225
 20
40.90114984873429
 30
0.0
 11
566.8139714980713
 21
45.41862801108317
 31
0.0
  0
LINE
  5
7FD
  8
TALL__2
 10
566.8139714980713
 20
45.41862801108317
 30
0.0
 11
566.8139714980713
 21
33.47287208249796
 31
0.0
  0
LINE
  5
7FE
  8
TALL__2
 10
566.8139714980713
 20
90.46692560429088
 30
0.0
 11
558.5752744466056
 21
98.70562265575663
 31
0.0
  0
ARC
  5
7FF
  8
TALL__2
 10
557.1639889593232
 20
-0.9156326830411388
 30
0.0
 40
81.81129851551904
 50
83.22595431729748
 51
108.41320290631
  0
LINE
  5
800
  8
TALL__2
 10
562.2964933357225
 20
103.7271051477895
 30
0.0
 11
566.8139714980713
 21
99.20962698544062
 31
0.0
  0
ARC
  5
801
  8
TALL__2
 10
557.1639889593232
 20
145.5438876795649
 30
0.0
 40
81.81129851551904
 50
251.5867970936899
 51
276.7740456827024
  0
ARC
  5
802
  8
TALL__2
 10
557.1639889593232
 20
145.5438876795649
 30
0.0
 40
78.62927508301904
 50
248.5506433818243
 51
277.0495466424646
  0
ARC
  5
803
  8
TALL__2
 10
557.1639889593232
 20
-0.8693746232320336
 30
0.0
 40
78.62927508301904
 50
82.9504533575354
 51
111.4493566181756
  0
LINE
  5
804
  8
TALL__2
 10
566.8139714980713
 20
90.46692560429088
 30
0.0
 11
566.8139714980713
 21
80.32454458041164
 31
0.0
  0
LINE
  5
805
  8
TALL__2
 10
566.8139714980713
 20
64.30371041611212
 30
0.0
 11
566.8139714980713
 21
54.16132939223291
 31
0.0
  0
LINE
  5
806
  8
TALL__2
 10
566.8139714980713
 20
77.16549410276082
 30
0.0
 11
566.8139714980713
 21
67.50901895357205
 31
0.0
  0
ARC
  5
807
  8
TALL__2
 10
494.7538290198586
 20
149.8906953668131
 30
0.0
 40
81.81129851551904
 50
325.6484462418319
 51
331.7401284698636
  0
LINE
  5
808
  8
TALL__2
 10
566.8139714980713
 20
111.1553829140258
 30
0.0
 11
566.8139714980713
 21
99.20962698544062
 31
0.0
  0
ARC
  5
809
  8
TALL__2
 10
336.4103052968878
 20
-0.8693746232320336
 30
0.0
 40
78.62927508301904
 50
101.122847958771
 51
111.4493566181755
  0
LINE
  5
80A
  8
TALL__2
 10
321.2467784070379
 20
72.24868805420891
 30
0.0
 11
321.2416752455973
 21
76.28291349869065
 31
0.0
  0
ARC
  5
80B
  8
TALL__2
 10
446.1855365221656
 20
108.8364475727219
 30
0.0
 40
78.62927508301904
 50
158.5144047703744
 51
168.8465295733221
  0
LINE
  5
80C
  8
TALL__2
 10
372.9789200098992
 20
124.0463104904696
 30
0.0
 11
369.0413664890102
 21
124.0463104904696
 31
0.0
  0
ARC
  5
80D
  8
TALL__2
 10
409.5475347229104
 20
-0.8693746232320336
 30
0.0
 40
78.62927508301904
 50
68.55064338182426
 51
78.87715204122881
  0
LINE
  5
80E
  8
TALL__2
 10
424.7110616127602
 20
72.24868805420891
 30
0.0
 11
424.716164774201
 21
76.28291349869065
 31
0.0
  0
ARC
  5
80F
  8
TALL__2
 10
299.7723034976328
 20
108.8364475727219
 30
0.0
 40
78.62927508301904
 50
11.15347042667784
 51
21.48559522962554
  0
LINE
  5
810
  8
TALL__2
 10
372.9789200098992
 20
124.0463104904696
 30
0.0
 11
376.9164735307883
 21
124.0463104904696
 31
0.0
  0
ARC
  5
811
  8
TALL__2
 10
336.4103052968878
 20
145.5438876795649
 30
0.0
 40
78.62927508301904
 50
248.5506433818244
 51
258.8771520412288
  0
LINE
  5
812
  8
TALL__2
 10
321.2467784070379
 20
72.42582500212393
 30
0.0
 11
321.2416752455973
 21
68.39159955764228
 31
0.0
  0
ARC
  5
813
  8
TALL__2
 10
446.1855365221656
 20
35.83806548361105
 30
0.0
 40
78.62927508301904
 50
191.1534704266778
 51
201.4855952296255
  0
LINE
  5
814
  8
TALL__2
 10
372.9789200098992
 20
20.62820256586318
 30
0.0
 11
369.0413664890102
 21
20.62820256586318
 31
0.0
  0
ARC
  5
815
  8
TALL__2
 10
409.5475347229104
 20
145.5438876795649
 30
0.0
 40
78.62927508301904
 50
281.122847958771
 51
291.4493566181755
  0
LINE
  5
816
  8
TALL__2
 10
424.7110616127602
 20
72.42582500212393
 30
0.0
 11
424.716164774201
 21
68.39159955764228
 31
0.0
  0
LINE
  5
817
  8
TALL__2
 10
424.7382160213444
 20
50.9593267707692
 30
0.0
 11
424.7764596805549
 21
20.72639276086889
 31
0.0
  0
ARC
  5
818
  8
TALL__2
 10
450.5689951627623
 20
98.30010033230164
 30
0.0
 40
78.62927508301904
 50
236.153470426678
 51
246.4855952296257
  0
ARC
  5
819
  8
TALL__2
 10
347.1373747834459
 20
-5.262440370289312
 30
0.0
 40
78.62927508301904
 50
23.58688199327452
 51
33.91527761463938
  0
LINE
  5
81A
  8
TALL__2
 10
406.7748266133674
 20
32.99593736279209
 30
0.0
 11
412.3889430232631
 21
38.61005377268782
 31
0.0
  0
LINE
  5
81B
  8
TALL__2
 10
394.4070918164384
 20
20.62820256586318
 30
0.0
 11
424.6783936143314
 21
20.62820256586318
 31
0.0
  0
ARC
  5
81C
  8
TALL__2
 10
299.7723034976328
 20
35.8380654836111
 30
0.0
 40
78.62927508301904
 50
338.5144047703743
 51
348.846529573322
  0
LINE
  5
81D
  8
TALL__2
 10
372.9789200098992
 20
20.62820256586318
 30
0.0
 11
376.9164735307882
 21
20.62820256586318
 31
0.0
  0
LINE
  5
81E
  8
TALL__2
 10
382.4003876835943
 20
8.621498433019042
 30
0.0
 11
394.4070918164384
 21
20.62820256586318
 31
0.0
  0
LINE
  5
81F
  8
TALL__2
 10
382.4003876835943
 20
8.621498433019042
 30
0.0
 11
436.5745618221947
 21
8.621498433019042
 31
0.0
  0
LINE
  5
820
  8
TALL__2
 10
309.4454867639014
 20
8.62149843301907
 30
0.0
 11
363.5574523362039
 21
8.621498433019042
 31
0.0
  0
LINE
  5
821
  8
TALL__2
 10
424.7382160213443
 20
50.95932677076917
 30
0.0
 11
436.5745618221947
 21
62.79567257161943
 31
0.0
  0
LINE
  5
822
  8
TALL__2
 10
382.5015669095612
 20
135.951835397347
 30
0.0
 11
436.5745618221947
 21
135.951835397347
 31
0.0
  0
LINE
  5
823
  8
TALL__2
 10
309.4454867639014
 20
8.62149843301907
 30
0.0
 11
309.4454867639014
 21
62.73346400532157
 31
0.0
  0
LINE
  5
824
  8
TALL__2
 10
436.5745618221947
 20
135.951835397347
 30
0.0
 11
436.5745618221947
 21
81.87884048471344
 31
0.0
  0
LINE
  5
825
  8
TALL__2
 10
436.5745618221947
 20
62.79567257161943
 30
0.0
 11
436.5745618221947
 21
8.621498433019042
 31
0.0
  0
ARC
  5
826
  8
TALL__2
 10
409.5475347229104
 20
145.5438876795649
 30
0.0
 40
81.81129851551904
 50
280.6879559826527
 51
285.8372107841319
  0
LINE
  5
827
  8
TALL__2
 10
424.720262927651
 20
65.1518676550597
 30
0.0
 11
424.727170765826
 21
59.69098289640053
 31
0.0
  0
LINE
  5
828
  8
TALL__2
 10
431.8742555483053
 20
66.83806767887975
 30
0.0
 11
424.727170765826
 21
59.69098289640053
 31
0.0
  0
ARC
  5
829
  8
TALL__2
 10
347.1373747834459
 20
-5.262440370289312
 30
0.0
 40
81.81129851551904
 50
38.72976243177369
 51
63.44944151775977
  0
ARC
  5
82A
  8
TALL__2
 10
347.1373747834459
 20
-5.262440370289312
 30
0.0
 40
78.62927508301904
 50
38.47493318706132
 51
66.48559522962547
  0
LINE
  5
82B
  8
TALL__2
 10
408.6946955587317
 20
43.65850768930611
 30
0.0
 11
401.7210338190399
 21
36.68484594961421
 31
0.0
  0
ARC
  5
82C
  8
TALL__2
 10
450.5689951627623
 20
98.30010033230164
 30
0.0
 40
81.81129851551904
 50
206.5143198707889
 51
231.3354656344022
  0
ARC
  5
82D
  8
TALL__2
 10
450.5689951627623
 20
98.30010033230164
 30
0.0
 40
78.62927508301904
 50
203.5868819932742
 51
231.5929687835719
  0
LINE
  5
82E
  8
TALL__2
 10
380.1573060467318
 20
20.62820256586318
 30
0.0
 11
385.6643904352889
 21
20.62820256586318
 31
0.0
  0
LINE
  5
82F
  8
TALL__2
 10
385.6643904352889
 20
20.62820256586318
 30
0.0
 11
378.450546622878
 21
13.41435875345215
 31
0.0
  0
ARC
  5
830
  8
TALL__2
 10
299.7723034976328
 20
35.8380654836111
 30
0.0
 40
81.81129851551904
 50
344.0921736503341
 51
349.2855767739952
  0
LINE
  5
831
  8
TALL__2
 10
351.4681185119622
 20
20.62820256586318
 30
0.0
 11
321.1968167140693
 21
20.62820256586318
 31
0.0
  0
LINE
  5
832
  8
TALL__2
 10
321.1369943070562
 20
50.9593267707692
 30
0.0
 11
321.0987506478457
 21
20.72639276086889
 31
0.0
  0
ARC
  5
833
  8
TALL__2
 10
295.3062151656384
 20
98.30010033230164
 30
0.0
 40
78.62927508301904
 50
293.5144047703743
 51
303.846529573322
  0
ARC
  5
834
  8
TALL__2
 10
398.7378355449548
 20
-5.262440370289312
 30
0.0
 40
78.62927508301904
 50
146.0847223853606
 51
156.4131180067255
  0
LINE
  5
835
  8
TALL__2
 10
339.1003837150333
 20
32.99593736279209
 30
0.0
 11
333.4862673051376
 21
38.61005377268782
 31
0.0
  0
LINE
  5
836
  8
TALL__2
 10
363.4748226448064
 20
8.621498433019042
 30
0.0
 11
351.4681185119622
 21
20.62820256586318
 31
0.0
  0
LINE
  5
837
  8
TALL__2
 10
321.1369943070563
 20
50.95932677076917
 30
0.0
 11
309.3006485062061
 21
62.79567257161943
 31
0.0
  0
LINE
  5
838
  8
TALL__2
 10
321.1549474007497
 20
65.1518676550597
 30
0.0
 11
321.1480395625746
 21
59.69098289640053
 31
0.0
  0
LINE
  5
839
  8
TALL__2
 10
314.0009547800954
 20
66.83806767887975
 30
0.0
 11
321.1480395625746
 21
59.69098289640053
 31
0.0
  0
ARC
  5
83A
  8
TALL__2
 10
398.7378355449548
 20
-5.262440370289312
 30
0.0
 40
81.81129851551904
 50
116.5505584822402
 51
141.2702375682263
  0
ARC
  5
83B
  8
TALL__2
 10
398.7378355449548
 20
-5.262440370289312
 30
0.0
 40
78.62927508301904
 50
113.5144047703745
 51
141.5250668129387
  0
LINE
  5
83C
  8
TALL__2
 10
337.1805147696689
 20
43.65850768930611
 30
0.0
 11
344.1541765093608
 21
36.68484594961421
 31
0.0
  0
ARC
  5
83D
  8
TALL__2
 10
295.3062151656384
 20
98.30010033230164
 30
0.0
 40
81.81129851551904
 50
308.6645343655978
 51
333.4856801292111
  0
ARC
  5
83E
  8
TALL__2
 10
295.3062151656384
 20
98.30010033230164
 30
0.0
 40
78.62927508301904
 50
308.407031216428
 51
336.4131180067258
  0
LINE
  5
83F
  8
TALL__2
 10
365.717904281669
 20
20.62820256586318
 30
0.0
 11
360.2108198931117
 21
20.62820256586318
 31
0.0
  0
LINE
  5
840
  8
TALL__2
 10
360.2108198931117
 20
20.62820256586318
 30
0.0
 11
367.4246637055227
 21
13.41435875345215
 31
0.0
  0
ARC
  5
841
  8
TALL__2
 10
336.3276756054902
 20
145.5438876795649
 30
0.0
 40
81.81129851551904
 50
254.162789215868
 51
259.3120440173473
  0
ARC
  5
842
  8
TALL__2
 10
446.1029068307679
 20
35.8380654836111
 30
0.0
 40
81.81129851551904
 50
190.7144232260047
 51
195.9078263496658
  0
LINE
  5
843
  8
TALL__2
 10
424.7382160213444
 20
93.66892822575457
 30
0.0
 11
424.7764596805549
 21
123.9018622356549
 31
0.0
  0
ARC
  5
844
  8
TALL__2
 10
450.5689951627623
 20
46.32815466422213
 30
0.0
 40
78.62927508301904
 50
113.5144047703744
 51
123.846529573322
  0
ARC
  5
845
  8
TALL__2
 10
347.1373747834459
 20
149.8906953668131
 30
0.0
 40
78.62927508301904
 50
326.0847223853606
 51
336.4131180067254
  0
LINE
  5
846
  8
TALL__2
 10
406.7748266133674
 20
111.6323176337317
 30
0.0
 11
412.3889430232631
 21
106.0182012238359
 31
0.0
  0
LINE
  5
847
  8
TALL__2
 10
394.4070918164384
 20
124.0000524306606
 30
0.0
 11
424.6783936143314
 21
124.0000524306606
 31
0.0
  0
LINE
  5
848
  8
TALL__2
 10
382.4003876835943
 20
136.0067565635047
 30
0.0
 11
394.4070918164384
 21
124.0000524306606
 31
0.0
  0
LINE
  5
849
  8
TALL__2
 10
424.7382160213443
 20
93.6689282257546
 30
0.0
 11
436.5745618221947
 21
81.83258242490433
 31
0.0
  0
LINE
  5
84A
  8
TALL__2
 10
424.720262927651
 20
79.47638734146406
 30
0.0
 11
424.727170765826
 21
84.93727210012324
 31
0.0
  0
LINE
  5
84B
  8
TALL__2
 10
431.8742555483053
 20
77.79018731764401
 30
0.0
 11
424.727170765826
 21
84.93727210012324
 31
0.0
  0
ARC
  5
84C
  8
TALL__2
 10
347.1373747834459
 20
149.8906953668131
 30
0.0
 40
81.81129851551904
 50
296.5505584822401
 51
321.2702375682263
  0
ARC
  5
84D
  8
TALL__2
 10
347.1373747834459
 20
149.8906953668131
 30
0.0
 40
78.62927508301904
 50
293.5144047703745
 51
321.5250668129387
  0
LINE
  5
84E
  8
TALL__2
 10
408.6946955587317
 20
100.9697473072177
 30
0.0
 11
401.7210338190399
 21
107.9434090469095
 31
0.0
  0
ARC
  5
84F
  8
TALL__2
 10
450.5689951627623
 20
46.32815466422213
 30
0.0
 40
81.81129851551904
 50
128.6645343655978
 51
153.4856801292111
  0
ARC
  5
850
  8
TALL__2
 10
450.5689951627623
 20
46.32815466422213
 30
0.0
 40
78.62927508301904
 50
128.407031216428
 51
156.4131180067258
  0
LINE
  5
851
  8
TALL__2
 10
380.1573060467318
 20
124.0000524306606
 30
0.0
 11
385.6643904352889
 21
124.0000524306606
 31
0.0
  0
LINE
  5
852
  8
TALL__2
 10
385.6643904352889
 20
124.0000524306606
 30
0.0
 11
378.450546622878
 21
131.2138962430716
 31
0.0
  0
ARC
  5
853
  8
TALL__2
 10
409.5475347229104
 20
-0.9156326830411388
 30
0.0
 40
81.81129851551904
 50
74.1627892158681
 51
79.31204401734736
  0
ARC
  5
854
  8
TALL__2
 10
299.7723034976328
 20
108.7901895129126
 30
0.0
 40
81.81129851551904
 50
10.71442322600481
 51
15.90782634966591
  0
ARC
  5
855
  8
TALL__2
 10
446.1029068307679
 20
108.7901895129126
 30
0.0
 40
81.81129851551904
 50
164.0921736503341
 51
169.2855767739952
  0
LINE
  5
856
  8
TALL__2
 10
321.1549474007497
 20
79.47638734146406
 30
0.0
 11
321.1480395625746
 21
84.93727210012324
 31
0.0
  0
LINE
  5
857
  8
TALL__2
 10
314.0009547800954
 20
77.79018731764401
 30
0.0
 11
321.1480395625746
 21
84.93727210012324
 31
0.0
  0
LINE
  5
858
  8
TALL__2
 10
365.717904281669
 20
124.0000524306606
 30
0.0
 11
360.2108198931117
 21
124.0000524306606
 31
0.0
  0
LINE
  5
859
  8
TALL__2
 10
360.2108198931117
 20
124.0000524306606
 30
0.0
 11
367.4246637055227
 21
131.2138962430716
 31
0.0
  0
ARC
  5
85A
  8
TALL__2
 10
336.3276756054902
 20
-0.9156326830411388
 30
0.0
 40
81.81129851551904
 50
100.6879559826526
 51
105.8372107841319
  0
LINE
  5
85B
  8
TALL__2
 10
399.4566127801372
 20
110.2078300858122
 30
0.0
 11
391.2364041908522
 21
118.4280386750972
 31
0.0
  0
LINE
  5
85C
  8
TALL__2
 10
399.9791055720018
 20
118.4280386750972
 30
0.0
 11
404.4832119646537
 21
113.9239322824454
 31
0.0
  0
ARC
  5
85D
  8
TALL__2
 10
450.5689951627623
 20
46.32815466422213
 30
0.0
 40
81.81129851551904
 50
118.2010311717428
 51
124.2855767739954
  0
LINE
  5
85E
  8
TALL__2
 10
391.2364041908522
 20
118.4280386750972
 30
0.0
 11
381.013921085679
 21
118.4280386750972
 31
0.0
  0
LINE
  5
85F
  8
TALL__2
 10
411.9077058617867
 20
118.4280386750972
 30
0.0
 11
399.9791055720018
 21
118.4280386750972
 31
0.0
  0
LINE
  5
860
  8
TALL__2
 10
326.6776930667422
 20
54.16132939223294
 30
0.0
 11
334.916390118208
 21
45.92263234076714
 31
0.0
  0
LINE
  5
861
  8
TALL__2
 10
331.195171229091
 20
40.90114984873429
 30
0.0
 11
326.6776930667422
 21
45.4186280110832
 31
0.0
  0
LINE
  5
862
  8
TALL__2
 10
326.6776930667422
 20
54.16132939223294
 30
0.0
 11
326.6776930667422
 21
64.30371041611215
 31
0.0
  0
ARC
  5
863
  8
TALL__2
 10
398.7378355449548
 20
-5.262440370289312
 30
0.0
 40
81.81129851551904
 50
145.648446241832
 51
151.7401284698637
  0
LINE
  5
864
  8
TALL__2
 10
326.6776930667422
 20
33.47287208249801
 30
0.0
 11
326.6776930667422
 21
45.4186280110832
 31
0.0
  0
ARC
  5
865
  8
TALL__2
 10
295.3062151656384
 20
98.30010033230164
 30
0.0
 40
81.81129851551904
 50
298.2010311717425
 51
304.2855767739953
  0
LINE
  5
866
  8
TALL__2
 10
346.4185975482634
 20
34.4204249107116
 30
0.0
 11
354.6388061375484
 21
26.20021632142652
 31
0.0
  0
ARC
  5
867
  8
TALL__2
 10
446.1029068307679
 20
35.8380654836111
 30
0.0
 40
81.81129851551904
 50
161.5143198707892
 51
186.7654885238198
  0
LINE
  5
868
  8
TALL__2
 10
345.8961047563989
 20
26.20021632142652
 30
0.0
 11
341.3919983637469
 21
30.70432271407836
 31
0.0
  0
LINE
  5
869
  8
TALL__2
 10
399.4566127801372
 20
34.4204249107116
 30
0.0
 11
391.2364041908522
 21
26.2002163214265
 31
0.0
  0
ARC
  5
86A
  8
TALL__2
 10
299.7723034976328
 20
35.8380654836111
 30
0.0
 40
81.81129851551904
 50
353.2345114761801
 51
18.48568012921088
  0
LINE
  5
86B
  8
TALL__2
 10
399.9791055720018
 20
26.2002163214265
 30
0.0
 11
404.4832119646537
 21
30.70432271407836
 31
0.0
  0
ARC
  5
86C
  8
TALL__2
 10
450.5689951627623
 20
98.30010033230164
 30
0.0
 40
81.81129851551904
 50
235.7144232260047
 51
241.7989688282574
  0
LINE
  5
86D
  8
TALL__2
 10
345.8961047563989
 20
26.20021632142652
 30
0.0
 11
333.9675044666139
 21
26.20021632142652
 31
0.0
  0
LINE
  5
86E
  8
TALL__2
 10
364.8612892427216
 20
26.20021632142652
 30
0.0
 11
354.6388061375484
 21
26.20021632142652
 31
0.0
  0
LINE
  5
86F
  8
TALL__2
 10
377.8086717089229
 20
26.20021632142652
 30
0.0
 11
368.1491683108754
 21
26.20021632142652
 31
0.0
  0
LINE
  5
870
  8
TALL__2
 10
391.2364041908522
 20
26.20021632142652
 30
0.0
 11
381.013921085679
 21
26.20021632142652
 31
0.0
  0
LINE
  5
871
  8
TALL__2
 10
411.9077058617868
 20
26.2002163214265
 30
0.0
 11
399.9791055720018
 21
26.20021632142652
 31
0.0
  0
ARC
  5
872
  8
TALL__2
 10
347.1373747834459
 20
-5.262440370289312
 30
0.0
 40
81.81129851551904
 50
28.25987153013633
 51
34.35155375816807
  0
LINE
  5
873
  8
TALL__2
 10
419.1975172616585
 20
54.16132939223291
 30
0.0
 11
410.9588202101927
 21
45.92263234076714
 31
0.0
  0
LINE
  5
874
  8
TALL__2
 10
414.6800390993096
 20
40.90114984873429
 30
0.0
 11
419.1975172616585
 21
45.41862801108317
 31
0.0
  0
LINE
  5
875
  8
TALL__2
 10
419.1975172616585
 20
45.41862801108317
 30
0.0
 11
419.1975172616585
 21
33.47287208249796
 31
0.0
  0
LINE
  5
876
  8
TALL__2
 10
419.1975172616585
 20
90.46692560429088
 30
0.0
 11
410.9588202101927
 21
98.70562265575663
 31
0.0
  0
ARC
  5
877
  8
TALL__2
 10
409.5475347229104
 20
-0.9156326830411388
 30
0.0
 40
81.81129851551904
 50
83.22595431729748
 51
108.4132029063101
  0
LINE
  5
878
  8
TALL__2
 10
414.6800390993096
 20
103.7271051477895
 30
0.0
 11
419.1975172616585
 21
99.20962698544062
 31
0.0
  0
ARC
  5
879
  8
TALL__2
 10
409.5475347229104
 20
145.5438876795649
 30
0.0
 40
81.81129851551904
 50
251.5867970936899
 51
276.7740456827024
  0
LINE
  5
87A
  8
TALL__2
 10
419.1975172616585
 20
90.46692560429088
 30
0.0
 11
419.1975172616585
 21
80.32454458041164
 31
0.0
  0
LINE
  5
87B
  8
TALL__2
 10
419.1975172616585
 20
64.30371041611212
 30
0.0
 11
419.1975172616585
 21
54.16132939223291
 31
0.0
  0
LINE
  5
87C
  8
TALL__2
 10
419.1975172616585
 20
77.16549410276082
 30
0.0
 11
419.1975172616585
 21
67.50901895357205
 31
0.0
  0
ARC
  5
87D
  8
TALL__2
 10
347.1373747834459
 20
149.8906953668131
 30
0.0
 40
81.81129851551904
 50
325.6484462418319
 51
331.7401284698636
  0
LINE
  5
87E
  8
TALL__2
 10
419.1975172616585
 20
111.1553829140258
 30
0.0
 11
419.1975172616585
 21
99.20962698544062
 31
0.0
  0
ARC
  5
87F
  8
TALL__2
 10
336.3276756054902
 20
145.5438876795649
 30
0.0
 40
81.81129851551904
 50
263.2259543172974
 51
288.4132029063099
  0
ARC
  5
880
  8
TALL__2
 10
299.7723034976328
 20
108.7901895129126
 30
0.0
 40
81.81129851551904
 50
341.5143198707891
 51
6.765488523819902
  0
ARC
  5
881
  8
TALL__2
 10
336.3276756054902
 20
-0.9156326830411388
 30
0.0
 40
81.81129851551904
 50
71.58679709368997
 51
80.7779559372861
  0
ARC
  5
882
  8
TALL__2
 10
398.7378355449548
 20
149.8906953668131
 30
0.0
 40
81.81129851551904
 50
235.3396790223406
 51
243.4494415177598
  0
ARC
  5
883
  8
TALL__2
 10
295.3062151656384
 20
46.32815466422213
 30
0.0
 40
81.81129851551904
 50
26.51431987078893
 51
34.70264801876636
  0
ARC
  5
884
  8
TALL__2
 10
446.1029068307679
 20
108.7901895129126
 30
0.0
 40
81.81129851551904
 50
189.2236037339869
 51
198.4856801292107
  0
ARC
  5
885
  8
TALL__2
 10
299.7723034976328
 20
108.8364475727219
 30
0.0
 40
78.62927508301904
 50
338.5868819932742
 51
359.8785653247388
  0
LINE
  5
886
  8
TALL__2
 10
362.5647341864951
 20
92.90476020731023
 30
0.0
 11
365.3494025366355
 21
95.67683338212353
 31
0.0
  0
LINE
  5
887
  8
TALL__2
 10
354.4663664300022
 20
84.84302171826718
 30
0.0
 11
360.2398239703821
 21
90.59036566060917
 31
0.0
  0
LINE
  5
888
  8
TALL__2
 10
349.4388335080629
 20
79.83822854507088
 30
0.0
 11
352.210929684203
 21
82.59778641037028
 31
0.0
  0
LINE
  5
889
  8
TALL__2
 10
336.4565115324976
 20
66.91462617301843
 30
0.0
 11
346.67510707526
 21
77.08700256639759
 31
0.0
  0
LINE
  5
88A
  8
TALL__2
 10
368.213058607698
 20
98.52753701298255
 30
0.0
 11
378.4014019791957
 21
108.6697980669754
 31
0.0
  0
ARC
  5
88B
  8
TALL__2
 10
446.1574789195968
 20
108.8827406480217
 30
0.0
 40
78.62927508301904
 50
187.5676400043475
 51
201.4493566181738
  0
ARC
  5
88C
  8
TALL__2
 10
336.4103052968878
 20
-0.8693746232320336
 30
0.0
 40
78.62927508301904
 50
68.59677954138279
 51
82.49880794652412
  0
ARC
  5
88D
  8
TALL__2
 10
336.4103052968878
 20
145.5438876795649
 30
0.0
 40
78.62927508301904
 50
270.0336696788468
 51
291.4032204586171
  0
ARC
  5
88E
  8
TALL__2
 10
409.5475347229104
 20
-0.8693746232320336
 30
0.0
 40
78.62927508301904
 50
82.9504533575354
 51
111.4032204586172
  0
ARC
  5
88F
  8
TALL__2
 10
409.5475347229104
 20
145.5438876795649
 30
0.0
 40
78.62927508301904
 50
248.5967795413827
 51
277.0495466424646
  0
ARC
  5
890
  8
TALL__2
 10
446.1855365221656
 20
35.83806548361105
 30
0.0
 40
78.62927508301904
 50
158.5967503103008
 51
187.0406380020184
  0
ARC
  5
891
  8
TALL__2
 10
299.7723034976328
 20
35.8380654836111
 30
0.0
 40
78.62927508301904
 50
352.9593619979815
 51
21.40324968969922
  0
POLYLINE
  5
892
  8
0
 66
     1
 10
0.0
 20
0.0
 30
0.0
  0
VERTEX
  5
C76
  8
0
 10
592.7796638717041
 20
141.7373325473473
 30
0.0
  0
VERTEX
  5
C77
  8
0
 10
592.7869258776109
 20
130.2559682653779
 30
0.0
  0
VERTEX
  5
C78
  8
0
 10
589.8941778812487
 20
130.2541385914367
 30
0.0
  0
VERTEX
  5
C79
  8
0
 10
589.9033262509545
 20
115.7903986096257
 30
0.0
  0
VERTEX
  5
C7A
  8
0
 10
592.7960742473167
 20
115.7922282835667
 30
0.0
  0
VERTEX
  5
C7B
  8
0
 10
592.8052226170225
 20
101.3284883017555
 30
0.0
  0
VERTEX
  5
C7C
  8
0
 10
589.9124746206603
 20
101.3266586278143
 30
0.0
  0
VERTEX
  5
C7D
  8
0
 10
589.9216229903664
 20
86.86291864600301
 30
0.0
  0
VERTEX
  5
C7E
  8
0
 10
592.8143709867286
 20
86.86474831994414
 30
0.0
  0
VERTEX
  5
C7F
  8
0
 10
592.8235193564344
 20
72.40100833813293
 30
0.0
  0
VERTEX
  5
C80
  8
0
 10
589.9307713600722
 20
72.3991786641918
 30
0.0
  0
VERTEX
  5
C81
  8
0
 10
589.939919729778
 20
57.93543868238058
 30
0.0
  0
VERTEX
  5
C82
  8
0
 10
592.8326677261402
 20
57.93726835632171
 30
0.0
  0
VERTEX
  5
C83
  8
0
 10
592.8326677261402
 20
57.93726835632171
 30
0.0
  0
VERTEX
  5
C84
  8
0
 10
592.8418160958463
 20
43.47352837451038
 30
0.0
  0
VERTEX
  5
C85
  8
0
 10
589.9490680994841
 20
43.47169870056931
 30
0.0
  0
VERTEX
  5
C86
  8
0
 10
589.9582164691899
 20
29.00795871875792
 30
0.0
  0
VERTEX
  5
C87
  8
0
 10
592.8509644655524
 20
29.00978839269916
 30
0.0
  0
VERTEX
  5
C88
  8
0
 10
592.860112835258
 20
14.54604841088795
 30
0.0
  0
VERTEX
  5
C89
  8
0
 10
589.9673648388957
 20
14.54421873694665
 30
0.0
  0
VERTEX
  5
C8A
  8
0
 10
589.9765132086018
 20
0.0804787551356014
 30
0.0
  0
SEQEND
  5
E5C
  8
0
  0
POLYLINE
  5
893
  8
0
 66
     1
 10
0.0
 20
0.0
 30
0.0
  0
VERTEX
  5
C8B
  8
0
 10
224.0512617094276
 20
141.7804693457778
 30
0.0
  0
VERTEX
  5
C8C
  8
0
 10
224.0512617094276
 20
141.7804693457778
 30
0.0
  0
VERTEX
  5
C8D
  8
0
 10
224.0512617094276
 20
141.7804693457778
 30
0.0
  0
VERTEX
  5
C8E
  8
0
 10
292.2447340380691
 20
73.54454782553026
 30
0.0
  0
VERTEX
  5
C8F
  8
0
 10
292.2447340380691
 20
73.54454782553026
 30
0.0
  0
VERTEX
  5
C90
  8
0
 10
292.2447340380668
 20
57.93545025513563
 30
0.0
  0
VERTEX
  5
C91
  8
0
 10
289.3519854630688
 20
57.93545025513552
 30
0.0
  0
VERTEX
  5
C92
  8
0
 10
289.3519854630688
 20
43.47170738013554
 30
0.0
  0
VERTEX
  5
C93
  8
0
 10
292.2447340380673
 20
43.47170738013565
 30
0.0
  0
VERTEX
  5
C94
  8
0
 10
292.244734038068
 20
29.00796450513567
 30
0.0
  0
VERTEX
  5
C95
  8
0
 10
289.3519854630688
 20
29.00796450513556
 30
0.0
  0
VERTEX
  5
C96
  8
0
 10
289.3519854630688
 20
14.54422163013558
 30
0.0
  0
VERTEX
  5
C97
  8
0
 10
292.2447340380684
 20
14.5442216301357
 30
0.0
  0
VERTEX
  5
C98
  8
0
 10
292.2447340380691
 20
2.973227330135643
 30
0.0
  0
VERTEX
  5
C99
  8
0
 10
277.7809911630689
 20
2.973227330135643
 30
0.0
  0
VERTEX
  5
C9A
  8
0
 10
277.7809911630689
 20
0.0804787551356014
 30
0.0
  0
VERTEX
  5
C9B
  8
0
 10
263.3172482880689
 20
0.0804787551356014
 30
0.0
  0
VERTEX
  5
C9C
  8
0
 10
263.3172482880689
 20
2.973227330135643
 30
0.0
  0
VERTEX
  5
C9D
  8
0
 10
248.8535054130689
 20
2.973227330135643
 30
0.0
  0
VERTEX
  5
C9E
  8
0
 10
248.8535054130689
 20
0.0804787551356014
 30
0.0
  0
VERTEX
  5
C9F
  8
0
 10
234.3897625380689
 20
0.0804787551356014
 30
0.0
  0
VERTEX
  5
CA0
  8
0
 10
234.3897625380689
 20
2.973227330135643
 30
0.0
  0
VERTEX
  5
CA1
  8
0
 10
219.926019663069
 20
2.973227330135643
 30
0.0
  0
VERTEX
  5
CA2
  8
0
 10
219.926019663069
 20
0.0804787551356014
 30
0.0
  0
VERTEX
  5
CA3
  8
0
 10
205.462276788069
 20
0.0804787551356014
 30
0.0
  0
VERTEX
  5
CA4
  8
0
 10
205.462276788069
 20
2.973227330135643
 30
0.0
  0
VERTEX
  5
CA5
  8
0
 10
190.998533913069
 20
2.973227330135643
 30
0.0
  0
VERTEX
  5
CA6
  8
0
 10
190.998533913069
 20
0.0804787551356014
 30
0.0
  0
VERTEX
  5
CA7
  8
0
 10
190.998533913069
 20
0.0804787551356014
 30
0.0
  0
VERTEX
  5
CA8
  8
0
 10
176.534791038069
 20
0.0804787551356014
 30
0.0
  0
VERTEX
  5
CA9
  8
0
 10
176.534791038069
 20
2.973227330135643
 30
0.0
  0
VERTEX
  5
CAA
  8
0
 10
162.0710481630691
 20
2.973227330135643
 30
0.0
  0
VERTEX
  5
CAB
  8
0
 10
162.0710481630691
 20
0.0804787551356014
 30
0.0
  0
VERTEX
  5
CAC
  8
0
 10
150.5000538630689
 20
0.0804787551356014
 30
0.0
  0
SEQEND
  5
E5D
  8
0
  0
ARC
  5
894
  8
TALL__2
 10
194.3654043897533
 20
149.9895335162677
 30
0.0
 40
78.62927508301905
 50
293.3045571846112
 51
304.0522339423325
  0
ARC
  5
895
  8
TALL__2
 10
297.4170308482381
 20
46.04886671386683
 30
0.0
 40
78.62927508301905
 50
145.4952366236085
 51
156.2032704209625
  0
LINE
  5
896
  8
0
 10
0.080448963553863
 20
141.7373325473473
 30
0.0
 11
14.45459392665271
 21
141.7373325473473
 31
0.0
  0
LINE
  5
897
  8
0
 10
28.91833680165269
 20
141.7373325473473
 30
0.0
 11
43.38207967665267
 21
141.7373325473473
 31
0.0
  0
LINE
  5
898
  8
0
 10
57.84582255165265
 20
141.7373325473473
 30
0.0
 11
72.30956542665263
 21
141.7373325473473
 31
0.0
  0
LINE
  5
899
  8
0
 10
86.77330830165266
 20
141.7373325473473
 30
0.0
 11
101.2370511766528
 21
141.7373325473473
 31
0.0
  0
LINE
  5
89A
  8
0
 10
115.7007940516527
 20
141.7373325473473
 30
0.0
 11
130.1645369266527
 21
141.7373325473473
 31
0.0
  0
LINE
  5
89B
  8
0
 10
86.68366412777408
 20
2.918383032255718
 30
0.0
 11
86.68183559871073
 21
0.0274451091196966
 31
0.0
  0
LINE
  5
89C
  8
0
 10
86.68183559871073
 20
0.0274451091196966
 30
0.0
 11
101.1455755805222
 21
0.018296739413131
 31
0.0
  0
LINE
  5
89D
  8
0
 10
101.1455755805222
 20
0.018296739413131
 30
0.0
 11
101.1474041063229
 21
2.90922950456266
 31
0.0
  0
LINE
  5
89E
  8
0
 10
101.1474041063229
 20
2.90922950456266
 30
0.0
 11
115.6111440842225
 21
2.900075976870028
 31
0.0
  0
LINE
  5
89F
  8
0
 10
115.6111440842225
 20
2.900075976870028
 30
0.0
 11
115.6093155623334
 21
0.0091483697065655
 31
0.0
  0
LINE
  5
8A0
  8
0
 10
115.6093155623334
 20
0.0091483697065655
 30
0.0
 11
130.0730555441447
 21
0.0
 31
0.0
  0
LINE
  5
8A1
  8
0
 10
130.0730555441447
 20
0.0
 30
0.0
 11
130.0748840634206
 21
2.890922449176543
 31
0.0
  0
LINE
  5
8A2
  8
0
 10
130.0748840634206
 20
2.890922449176543
 30
0.0
 11
144.5386261262393
 21
2.885064190960662
 31
0.0
  0
LINE
  5
8A3
  8
0
 10
144.5386261262393
 20
2.885064190960662
 30
0.0
 11
144.5459438956618
 21
14.45459161210496
 31
0.0
  0
LINE
  5
8A4
  8
0
 10
144.5459438956618
 20
14.45459161210496
 30
0.0
 11
141.6531958992994
 21
14.45642128604609
 31
0.0
  0
LINE
  5
8A5
  8
0
 10
141.6531958992994
 20
14.45642128604609
 30
0.0
 11
141.6623442690055
 21
28.92016126785717
 31
0.0
  0
LINE
  5
8A6
  8
0
 10
141.6623442690055
 20
28.92016126785717
 30
0.0
 11
144.5550922653677
 21
28.91833159391607
 31
0.0
  0
LINE
  5
8A7
  8
0
 10
144.5550922653677
 20
28.91833159391607
 30
0.0
 11
144.5642406350736
 21
43.38207157572742
 31
0.0
  0
LINE
  5
8A8
  8
0
 10
144.5642406350736
 20
43.38207157572742
 30
0.0
 11
141.6714926387113
 21
43.38390124966855
 31
0.0
  0
LINE
  5
8A9
  8
0
 10
141.6714926387113
 20
43.38390124966855
 30
0.0
 11
141.6806410084174
 21
57.84764123147983
 31
0.0
  0
LINE
  5
8AA
  8
0
 10
141.6806410084174
 20
57.84764123147983
 30
0.0
 11
144.5733890047795
 21
57.8458115575387
 31
0.0
  0
LINE
  5
8AB
  8
0
 10
144.5733890047795
 20
57.8458115575387
 30
0.0
 11
144.5825373744854
 21
72.30955153934991
 31
0.0
  0
LINE
  5
8AC
  8
0
 10
144.5825373744854
 20
72.30955153934991
 30
0.0
 11
141.6897893781232
 21
72.31138121329104
 31
0.0
  0
LINE
  5
8AD
  8
0
 10
141.6897893781232
 20
72.31138121329104
 30
0.0
 11
141.6989377478291
 21
86.77512119510226
 31
0.0
  0
LINE
  5
8AE
  8
0
 10
141.6989377478291
 20
86.77512119510226
 30
0.0
 11
144.5916857441914
 21
86.77329152116107
 31
0.0
  0
LINE
  5
8AF
  8
0
 10
144.5916857441914
 20
86.77329152116107
 30
0.0
 11
144.5916857441914
 21
86.77329152116107
 31
0.0
  0
LINE
  5
8B0
  8
0
 10
144.5916857441914
 20
86.77329152116107
 30
0.0
 11
144.6008341138972
 21
101.2370315029724
 31
0.0
  0
LINE
  5
8B1
  8
0
 10
144.6008341138972
 20
101.2370315029724
 30
0.0
 11
141.7080861175349
 21
101.2388611769135
 31
0.0
  0
LINE
  5
8B2
  8
0
 10
141.7080861175349
 20
101.2388611769135
 30
0.0
 11
141.7172344872409
 21
115.7026011587248
 31
0.0
  0
LINE
  5
8B3
  8
0
 10
141.7172344872409
 20
115.7026011587248
 30
0.0
 11
144.6099824836031
 21
115.7007714847836
 31
0.0
  0
LINE
  5
8B4
  8
0
 10
144.6099824836031
 20
115.7007714847836
 30
0.0
 11
144.6191308533091
 21
130.1645114665949
 31
0.0
  0
LINE
  5
8B5
  8
0
 10
144.6191308533091
 20
130.1645114665949
 30
0.0
 11
141.7263828569468
 21
130.1663411405362
 31
0.0
  0
LINE
  5
8B6
  8
0
 10
57.75618417132569
 20
2.936690087641409
 30
0.0
 11
57.75435564226245
 21
0.0457521645053589
 31
0.0
  0
LINE
  5
8B7
  8
0
 10
57.75435564226245
 20
0.0457521645053589
 30
0.0
 11
72.21809562407384
 21
0.0366037947987934
 31
0.0
  0
LINE
  5
8B8
  8
0
 10
72.21809562407384
 20
0.0366037947987934
 30
0.0
 11
72.21992414987449
 21
2.927536559948351
 31
0.0
  0
LINE
  5
8B9
  8
0
 10
72.21992414987449
 20
2.927536559948351
 30
0.0
 11
86.68366412777408
 21
2.918383032255718
 31
0.0
  0
LINE
  5
8BA
  8
0
 10
28.82870421487723
 20
2.954997143027072
 30
0.0
 11
28.826875685814
 21
0.0640592198910497
 31
0.0
  0
LINE
  5
8BB
  8
0
 10
28.826875685814
 20
0.0640592198910497
 30
0.0
 11
43.29061566762539
 21
0.0549108501844842
 31
0.0
  0
LINE
  5
8BC
  8
0
 10
43.29061566762539
 20
0.0549108501844842
 30
0.0
 11
43.29244419342604
 21
2.945843615334013
 31
0.0
  0
LINE
  5
8BD
  8
0
 10
43.29244419342604
 20
2.945843615334013
 30
0.0
 11
57.75618417132569
 21
2.936690087641409
 31
0.0
  0
LINE
  5
8BE
  8
0
 10
2.883599626656178
 20
0.0804787551356014
 30
0.0
 11
14.36313571117694
 21
0.0732179055702034
 31
0.0
  0
LINE
  5
8BF
  8
0
 10
14.36313571117694
 20
0.0732179055702034
 30
0.0
 11
14.36496423697758
 21
2.964150670719704
 31
0.0
  0
LINE
  5
8C0
  8
0
 10
14.36496423697758
 20
2.964150670719704
 30
0.0
 11
28.82870421487723
 21
2.954997143027072
 31
0.0
  0
LINE
  5
8C1
  8
0
 10
144.5386261262393
 20
2.885064190960662
 30
0.0
 11
141.6458775512394
 21
2.885064190960662
 31
0.0
  0
LINE
  5
8C2
  8
0
 10
141.6458775512394
 20
2.885064190960662
 30
0.0
 11
138.7531289762393
 21
2.885064190960662
 31
0.0
  0
LINE
  5
8C3
  8
0
 10
0.080448963553863
 20
141.7373325473473
 30
0.0
 11
5.776348201652809
 21
141.7373325473473
 31
0.0
  0
ARC
  5
8C4
  8
TALL__2
 10
108.8333533019574
 20
-0.8693746232320336
 30
0.0
 40
78.62927508301904
 50
68.55064338182449
 51
78.877152041229
  0
LINE
  5
8C5
  8
TALL__2
 10
123.9968801918073
 20
72.24868805420891
 30
0.0
 11
124.0019833532479
 21
76.28291349869065
 31
0.0
  0
ARC
  5
8C6
  8
TALL__2
 10
-0.9418779233203622
 20
108.8364475727219
 30
0.0
 40
78.62927508301904
 50
11.15347042667786
 51
21.48559522962561
  0
LINE
  5
8C7
  8
TALL__2
 10
72.26473858894587
 20
124.0463104904696
 30
0.0
 11
76.20229210983507
 21
124.0463104904696
 31
0.0
  0
ARC
  5
8C8
  8
TALL__2
 10
35.69612387593475
 20
-0.8693746232320336
 30
0.0
 40
78.62927508301904
 50
101.1228479587712
 51
111.4493566181758
  0
LINE
  5
8C9
  8
TALL__2
 10
20.53259698608485
 20
72.24868805420891
 30
0.0
 11
20.52749382464413
 21
76.28291349869065
 31
0.0
  0
ARC
  5
8CA
  8
TALL__2
 10
145.4713551012124
 20
108.8364475727219
 30
0.0
 40
78.62927508301904
 50
158.5144047703745
 51
168.8465295733221
  0
LINE
  5
8CB
  8
TALL__2
 10
72.26473858894587
 20
124.0463104904696
 30
0.0
 11
68.3271850680569
 21
124.0463104904696
 31
0.0
  0
ARC
  5
8CC
  8
TALL__2
 10
108.8333533019574
 20
145.5438876795649
 30
0.0
 40
78.62927508301904
 50
281.122847958771
 51
291.4493566181756
  0
LINE
  5
8CD
  8
TALL__2
 10
123.9968801918073
 20
72.42582500212393
 30
0.0
 11
124.0019833532479
 21
68.39159955764228
 31
0.0
  0
ARC
  5
8CE
  8
TALL__2
 10
-0.9418779233203622
 20
35.83806548361105
 30
0.0
 40
78.62927508301904
 50
338.5144047703745
 51
348.8465295733221
  0
LINE
  5
8CF
  8
TALL__2
 10
72.26473858894587
 20
20.62820256586318
 30
0.0
 11
76.20229210983507
 21
20.62820256586318
 31
0.0
  0
ARC
  5
8D0
  8
TALL__2
 10
35.69612387593475
 20
145.5438876795649
 30
0.0
 40
78.62927508301904
 50
248.5506433818245
 51
258.877152041229
  0
LINE
  5
8D1
  8
TALL__2
 10
20.53259698608485
 20
72.42582500212393
 30
0.0
 11
20.52749382464413
 21
68.39159955764228
 31
0.0
  0
LINE
  5
8D2
  8
TALL__2
 10
20.50544257750062
 20
50.9593267707692
 30
0.0
 11
20.46719891829025
 21
20.72639276086889
 31
0.0
  0
ARC
  5
8D3
  8
TALL__2
 10
-5.325336563917062
 20
98.30010033230164
 30
0.0
 40
78.62927508301904
 50
293.5144047703744
 51
303.8465295733218
  0
ARC
  5
8D4
  8
TALL__2
 10
98.10628381539931
 20
-5.262440370289312
 30
0.0
 40
78.62927508301904
 50
146.0847223853607
 51
156.4131180067255
  0
LINE
  5
8D5
  8
TALL__2
 10
38.46883198547766
 20
32.99593736279209
 30
0.0
 11
32.85471557558208
 21
38.61005377268782
 31
0.0
  0
LINE
  5
8D6
  8
TALL__2
 10
50.83656678240663
 20
20.62820256586318
 30
0.0
 11
20.56526498451376
 21
20.62820256586318
 31
0.0
  0
ARC
  5
8D7
  8
TALL__2
 10
145.4713551012124
 20
35.8380654836111
 30
0.0
 40
78.62927508301904
 50
191.153470426678
 51
201.4855952296257
  0
LINE
  5
8D8
  8
TALL__2
 10
72.26473858894587
 20
20.62820256586318
 30
0.0
 11
68.3271850680569
 21
20.62820256586318
 31
0.0
  0
LINE
  5
8D9
  8
TALL__2
 10
62.84327091525086
 20
8.621498433019042
 30
0.0
 11
50.83656678240663
 21
20.62820256586318
 31
0.0
  0
LINE
  5
8DA
  8
TALL__2
 10
62.84327091525086
 20
8.621498433019042
 30
0.0
 11
8.669096776650576
 21
8.621498433019042
 31
0.0
  0
LINE
  5
8DB
  8
TALL__2
 10
135.7981718349437
 20
8.62149843301907
 30
0.0
 11
81.68620626264124
 21
8.621498433019042
 31
0.0
  0
LINE
  5
8DC
  8
TALL__2
 10
20.50544257750084
 20
50.95932677076917
 30
0.0
 11
8.669096776650576
 21
62.79567257161943
 31
0.0
  0
LINE
  5
8DD
  8
TALL__2
 10
135.7981718349437
 20
135.951835397347
 30
0.0
 11
81.78738548860792
 21
135.951835397347
 31
0.0
  0
LINE
  5
8DE
  8
TALL__2
 10
62.74209168928405
 20
135.951835397347
 30
0.0
 11
8.669096776650576
 21
135.951835397347
 31
0.0
  0
LINE
  5
8DF
  8
TALL__2
 10
135.7981718349437
 20
81.9410490510113
 30
0.0
 11
135.7981718349437
 21
135.951835397347
 31
0.0
  0
LINE
  5
8E0
  8
TALL__2
 10
135.7981718349437
 20
8.62149843301907
 30
0.0
 11
135.7981718349437
 21
62.73346400532157
 31
0.0
  0
LINE
  5
8E1
  8
TALL__2
 10
8.669096776650576
 20
135.951835397347
 30
0.0
 11
8.669096776650576
 21
81.87884048471344
 31
0.0
  0
LINE
  5
8E2
  8
TALL__2
 10
8.669096776650576
 20
62.79567257161943
 30
0.0
 11
8.669096776650576
 21
8.621498433019042
 31
0.0
  0
ARC
  5
8E3
  8
TALL__2
 10
35.69612387593475
 20
145.5438876795649
 30
0.0
 40
81.81129851551904
 50
254.1627892158681
 51
259.3120440173473
  0
LINE
  5
8E4
  8
TALL__2
 10
20.52339567119407
 20
65.1518676550597
 30
0.0
 11
20.51648783301903
 21
59.69098289640053
 31
0.0
  0
LINE
  5
8E5
  8
TALL__2
 10
13.36940305053986
 20
66.83806767887975
 30
0.0
 11
20.51648783301903
 21
59.69098289640053
 31
0.0
  0
ARC
  5
8E6
  8
TALL__2
 10
98.10628381539931
 20
-5.262440370289312
 30
0.0
 40
81.81129851551904
 50
116.5505584822402
 51
141.2702375682263
  0
ARC
  5
8E7
  8
TALL__2
 10
98.10628381539931
 20
-5.262440370289312
 30
0.0
 40
78.62927508301904
 50
113.5144047703745
 51
141.5250668129387
  0
LINE
  5
8E8
  8
TALL__2
 10
36.54896304011345
 20
43.65850768930611
 30
0.0
 11
43.52262477980526
 21
36.68484594961421
 31
0.0
  0
ARC
  5
8E9
  8
TALL__2
 10
-5.325336563917062
 20
98.30010033230164
 30
0.0
 40
81.81129851551904
 50
308.6645343655978
 51
333.4856801292111
  0
ARC
  5
8EA
  8
TALL__2
 10
-5.325336563917062
 20
98.30010033230164
 30
0.0
 40
78.62927508301904
 50
308.407031216428
 51
336.4131180067258
  0
LINE
  5
8EB
  8
TALL__2
 10
65.08635255211334
 20
20.62820256586318
 30
0.0
 11
59.57926816355621
 21
20.62820256586318
 31
0.0
  0
LINE
  5
8EC
  8
TALL__2
 10
59.57926816355621
 20
20.62820256586318
 30
0.0
 11
66.79311197596712
 21
13.41435875345215
 31
0.0
  0
ARC
  5
8ED
  8
TALL__2
 10
145.4713551012124
 20
35.8380654836111
 30
0.0
 40
81.81129851551904
 50
190.7144232260048
 51
195.9078263496659
  0
LINE
  5
8EE
  8
TALL__2
 10
93.77554008688293
 20
20.62820256586318
 30
0.0
 11
124.0468418847759
 21
20.62820256586318
 31
0.0
  0
LINE
  5
8EF
  8
TALL__2
 10
124.1066642917889
 20
50.9593267707692
 30
0.0
 11
124.1449079509994
 21
20.72639276086889
 31
0.0
  0
ARC
  5
8F0
  8
TALL__2
 10
149.9374434332067
 20
98.30010033230164
 30
0.0
 40
78.62927508301904
 50
236.153470426678
 51
246.4855952296257
  0
ARC
  5
8F1
  8
TALL__2
 10
46.50582305389025
 20
-5.262440370289312
 30
0.0
 40
78.62927508301904
 50
23.58688199327447
 51
33.91527761463936
  0
LINE
  5
8F2
  8
TALL__2
 10
106.1432748838119
 20
32.99593736279209
 30
0.0
 11
111.7573912937076
 21
38.61005377268782
 31
0.0
  0
LINE
  5
8F3
  8
TALL__2
 10
81.76883595403876
 20
8.621498433019042
 30
0.0
 11
93.77554008688293
 21
20.62820256586318
 31
0.0
  0
LINE
  5
8F4
  8
TALL__2
 10
124.1066642917888
 20
50.95932677076917
 30
0.0
 11
135.9430100926391
 21
62.79567257161943
 31
0.0
  0
LINE
  5
8F5
  8
TALL__2
 10
124.0887111980955
 20
65.1518676550597
 30
0.0
 11
124.0956190362705
 21
59.69098289640053
 31
0.0
  0
LINE
  5
8F6
  8
TALL__2
 10
131.2427038187498
 20
66.83806767887975
 30
0.0
 11
124.0956190362705
 21
59.69098289640053
 31
0.0
  0
ARC
  5
8F7
  8
TALL__2
 10
46.50582305389025
 20
-5.262440370289312
 30
0.0
 40
81.81129851551904
 50
38.72976243177365
 51
63.44944151775977
  0
ARC
  5
8F8
  8
TALL__2
 10
46.50582305389025
 20
-5.262440370289312
 30
0.0
 40
78.62927508301904
 50
38.47493318706125
 51
66.48559522962547
  0
LINE
  5
8F9
  8
TALL__2
 10
108.0631438291762
 20
43.65850768930611
 30
0.0
 11
101.0894820894844
 21
36.68484594961421
 31
0.0
  0
ARC
  5
8FA
  8
TALL__2
 10
149.9374434332067
 20
98.30010033230164
 30
0.0
 40
81.81129851551904
 50
206.5143198707889
 51
231.3354656344023
  0
ARC
  5
8FB
  8
TALL__2
 10
149.9374434332067
 20
98.30010033230164
 30
0.0
 40
78.62927508301904
 50
203.5868819932742
 51
231.5929687835721
  0
LINE
  5
8FC
  8
TALL__2
 10
79.52575431717628
 20
20.62820256586318
 30
0.0
 11
85.03283870573341
 21
20.62820256586318
 31
0.0
  0
LINE
  5
8FD
  8
TALL__2
 10
85.03283870573341
 20
20.62820256586318
 30
0.0
 11
77.8189948933225
 21
13.41435875345215
 31
0.0
  0
ARC
  5
8FE
  8
TALL__2
 10
108.9159829933549
 20
145.5438876795649
 30
0.0
 40
81.81129851551904
 50
280.6879559826527
 51
285.837210784132
  0
ARC
  5
8FF
  8
TALL__2
 10
-0.8592482319227202
 20
35.8380654836111
 30
0.0
 40
81.81129851551904
 50
344.0921736503342
 51
349.2855767739952
  0
LINE
  5
900
  8
TALL__2
 10
20.50544257750062
 20
93.66892822575457
 30
0.0
 11
20.46719891829025
 21
123.9018622356549
 31
0.0
  0
ARC
  5
901
  8
TALL__2
 10
-5.325336563917062
 20
46.32815466422213
 30
0.0
 40
78.62927508301904
 50
56.15347042667812
 51
66.48559522962566
  0
ARC
  5
902
  8
TALL__2
 10
98.10628381539931
 20
149.8906953668131
 30
0.0
 40
78.62927508301904
 50
203.5868819932747
 51
213.9152776146395
  0
LINE
  5
903
  8
TALL__2
 10
38.46883198547766
 20
111.6323176337317
 30
0.0
 11
32.85471557558208
 21
106.0182012238359
 31
0.0
  0
LINE
  5
904
  8
TALL__2
 10
50.83656678240663
 20
124.0000524306606
 30
0.0
 11
20.56526498451376
 21
124.0000524306606
 31
0.0
  0
LINE
  5
905
  8
TALL__2
 10
62.84327091525086
 20
136.0067565635047
 30
0.0
 11
50.83656678240663
 21
124.0000524306606
 31
0.0
  0
LINE
  5
906
  8
TALL__2
 10
20.50544257750084
 20
93.6689282257546
 30
0.0
 11
8.669096776650576
 21
81.83258242490433
 31
0.0
  0
LINE
  5
907
  8
TALL__2
 10
20.52339567119407
 20
79.47638734146406
 30
0.0
 11
20.51648783301903
 21
84.93727210012324
 31
0.0
  0
LINE
  5
908
  8
TALL__2
 10
13.36940305053986
 20
77.79018731764401
 30
0.0
 11
20.51648783301903
 21
84.93727210012324
 31
0.0
  0
ARC
  5
909
  8
TALL__2
 10
98.10628381539931
 20
149.8906953668131
 30
0.0
 40
81.81129851551904
 50
218.7297624317737
 51
243.4494415177598
  0
ARC
  5
90A
  8
TALL__2
 10
98.10628381539931
 20
149.8906953668131
 30
0.0
 40
78.62927508301904
 50
218.4749331870613
 51
246.4855952296255
  0
LINE
  5
90B
  8
TALL__2
 10
36.54896304011345
 20
100.9697473072177
 30
0.0
 11
43.52262477980526
 21
107.9434090469095
 31
0.0
  0
ARC
  5
90C
  8
TALL__2
 10
-5.325336563917062
 20
46.32815466422213
 30
0.0
 40
81.81129851551904
 50
26.51431987078895
 51
51.33546563440234
  0
ARC
  5
90D
  8
TALL__2
 10
-5.325336563917062
 20
46.32815466422213
 30
0.0
 40
78.62927508301904
 50
23.58688199327423
 51
51.59296878357203
  0
LINE
  5
90E
  8
TALL__2
 10
65.08635255211334
 20
124.0000524306606
 30
0.0
 11
59.57926816355621
 21
124.0000524306606
 31
0.0
  0
LINE
  5
90F
  8
TALL__2
 10
59.57926816355621
 20
124.0000524306606
 30
0.0
 11
66.79311197596712
 21
131.2138962430716
 31
0.0
  0
ARC
  5
910
  8
TALL__2
 10
35.69612387593475
 20
-0.9156326830411388
 30
0.0
 40
81.81129851551904
 50
100.6879559826526
 51
105.8372107841319
  0
ARC
  5
911
  8
TALL__2
 10
145.4713551012124
 20
108.7901895129126
 30
0.0
 40
81.81129851551904
 50
164.0921736503341
 51
169.2855767739952
  0
ARC
  5
912
  8
TALL__2
 10
-0.8592482319227202
 20
108.7901895129126
 30
0.0
 40
81.81129851551904
 50
10.7144232260048
 51
15.9078263496659
  0
LINE
  5
913
  8
TALL__2
 10
93.77554008688293
 20
124.0000524306606
 30
0.0
 11
124.0468418847759
 21
124.0000524306606
 31
0.0
  0
LINE
  5
914
  8
TALL__2
 10
124.1066642917889
 20
93.66892822575457
 30
0.0
 11
124.1449079509994
 21
123.9018622356549
 31
0.0
  0
ARC
  5
915
  8
TALL__2
 10
149.9374434332067
 20
46.32815466422213
 30
0.0
 40
78.62927508301904
 50
113.5144047703743
 51
123.846529573322
  0
ARC
  5
916
  8
TALL__2
 10
46.50582305389025
 20
149.8906953668131
 30
0.0
 40
78.62927508301904
 50
326.0847223853606
 51
336.4131180067255
  0
LINE
  5
917
  8
TALL__2
 10
106.1432748838119
 20
111.6323176337317
 30
0.0
 11
111.7573912937076
 21
106.0182012238359
 31
0.0
  0
LINE
  5
918
  8
TALL__2
 10
81.76883595403876
 20
136.0067565635047
 30
0.0
 11
93.77554008688293
 21
124.0000524306606
 31
0.0
  0
LINE
  5
919
  8
TALL__2
 10
124.1066642917888
 20
93.6689282257546
 30
0.0
 11
135.9430100926391
 21
81.83258242490433
 31
0.0
  0
LINE
  5
91A
  8
TALL__2
 10
124.0887111980955
 20
79.47638734146406
 30
0.0
 11
124.0956190362705
 21
84.93727210012324
 31
0.0
  0
LINE
  5
91B
  8
TALL__2
 10
131.2427038187498
 20
77.79018731764401
 30
0.0
 11
124.0956190362705
 21
84.93727210012324
 31
0.0
  0
ARC
  5
91C
  8
TALL__2
 10
46.50582305389025
 20
149.8906953668131
 30
0.0
 40
81.81129851551904
 50
296.5505584822402
 51
321.2702375682264
  0
ARC
  5
91D
  8
TALL__2
 10
46.50582305389025
 20
149.8906953668131
 30
0.0
 40
78.62927508301904
 50
293.5144047703746
 51
321.5250668129387
  0
LINE
  5
91E
  8
TALL__2
 10
108.0631438291762
 20
100.9697473072177
 30
0.0
 11
101.0894820894844
 21
107.9434090469095
 31
0.0
  0
ARC
  5
91F
  8
TALL__2
 10
149.9374434332067
 20
46.32815466422213
 30
0.0
 40
81.81129851551904
 50
128.6645343655977
 51
153.485680129211
  0
ARC
  5
920
  8
TALL__2
 10
149.9374434332067
 20
46.32815466422213
 30
0.0
 40
78.62927508301904
 50
128.407031216428
 51
156.4131180067258
  0
LINE
  5
921
  8
TALL__2
 10
79.52575431717628
 20
124.0000524306606
 30
0.0
 11
85.03283870573341
 21
124.0000524306606
 31
0.0
  0
LINE
  5
922
  8
TALL__2
 10
85.03283870573341
 20
124.0000524306606
 30
0.0
 11
77.8189948933225
 21
131.2138962430716
 31
0.0
  0
ARC
  5
923
  8
TALL__2
 10
108.9159829933549
 20
-0.9156326830411388
 30
0.0
 40
81.81129851551904
 50
74.16278921586807
 51
79.31204401734736
  0
ARC
  5
924
  8
TALL__2
 10
-0.8592482319227202
 20
108.7901895129126
 30
0.0
 40
81.81129851551904
 50
341.5143198707892
 51
6.765488523819893
  0
LINE
  5
925
  8
TALL__2
 10
98.82506105058172
 20
110.2078300858122
 30
0.0
 11
90.60485246129673
 21
118.4280386750972
 31
0.0
  0
LINE
  5
926
  8
TALL__2
 10
99.34755384244636
 20
118.4280386750972
 30
0.0
 11
103.8516602350982
 21
113.9239322824454
 31
0.0
  0
ARC
  5
927
  8
TALL__2
 10
149.9374434332067
 20
46.32815466422213
 30
0.0
 40
81.81129851551904
 50
118.2010311717427
 51
124.2855767739953
  0
LINE
  5
928
  8
TALL__2
 10
45.78704581870784
 20
110.2078300858122
 30
0.0
 11
54.00725440799283
 21
118.4280386750972
 31
0.0
  0
ARC
  5
929
  8
TALL__2
 10
145.4713551012124
 20
108.7901895129126
 30
0.0
 40
81.81129851551904
 50
173.2345114761801
 51
198.4856801292108
  0
LINE
  5
92A
  8
TALL__2
 10
45.26455302684326
 20
118.4280386750972
 30
0.0
 11
40.76044663419134
 21
113.9239322824454
 31
0.0
  0
ARC
  5
92B
  8
TALL__2
 10
-5.325336563917062
 20
46.32815466422213
 30
0.0
 40
81.81129851551904
 50
55.71442322600463
 51
61.79896882825727
  0
ARC
  5
92C
  8
TALL__2
 10
145.4713551012124
 20
108.8364475727219
 30
0.0
 40
78.62927508301904
 50
172.9933243004351
 51
201.4131180067258
  0
ARC
  5
92D
  8
TALL__2
 10
-0.9418779233203622
 20
108.8364475727219
 30
0.0
 40
78.62927508301904
 50
338.5868819932745
 51
7.006675699564946
  0
LINE
  5
92E
  8
TALL__2
 10
99.34755384244636
 20
118.4280386750972
 30
0.0
 11
111.2761541322312
 21
118.4280386750972
 31
0.0
  0
LINE
  5
92F
  8
TALL__2
 10
80.38236935612349
 20
118.4280386750972
 30
0.0
 11
90.60485246129673
 21
118.4280386750972
 31
0.0
  0
LINE
  5
930
  8
TALL__2
 10
67.42928772594405
 20
118.4280386750972
 30
0.0
 11
77.10018945194793
 21
118.4280386750972
 31
0.0
  0
LINE
  5
931
  8
TALL__2
 10
54.00725440799283
 20
118.4280386750972
 30
0.0
 11
64.22973751316613
 21
118.4280386750972
 31
0.0
  0
LINE
  5
932
  8
TALL__2
 10
33.33595273705851
 20
118.4280386750972
 30
0.0
 11
45.26455302684326
 21
118.4280386750972
 31
0.0
  0
LINE
  5
933
  8
TALL__2
 10
118.5659655321031
 20
90.46692560429074
 30
0.0
 11
110.3272684806372
 21
98.70562265575663
 31
0.0
  0
ARC
  5
934
  8
TALL__2
 10
108.9159829933549
 20
-0.9156326830411388
 30
0.0
 40
81.81129851551904
 50
83.22595431729744
 51
108.41320290631
  0
LINE
  5
935
  8
TALL__2
 10
114.0484873697541
 20
103.7271051477895
 30
0.0
 11
118.5659655321031
 21
99.20962698544045
 31
0.0
  0
ARC
  5
936
  8
TALL__2
 10
46.50582305389025
 20
149.8906953668131
 30
0.0
 40
81.81129851551904
 50
325.648446241832
 51
331.740128469864
  0
ARC
  5
937
  8
TALL__2
 10
108.9159829933549
 20
145.5438876795649
 30
0.0
 40
81.81129851551904
 50
251.58679709369
 51
276.7740456827026
  0
ARC
  5
938
  8
TALL__2
 10
108.8333533019574
 20
145.5438876795649
 30
0.0
 40
78.62927508301904
 50
248.5506433818246
 51
277.1102200766407
  0
ARC
  5
939
  8
TALL__2
 10
108.8333533019574
 20
-0.8693746232320336
 30
0.0
 40
78.62927508301904
 50
82.88977992335927
 51
111.4493566181758
  0
LINE
  5
93A
  8
TALL__2
 10
118.5659655321031
 20
99.20962698544048
 30
0.0
 11
118.5659655321031
 21
111.1553829140261
 31
0.0
  0
LINE
  5
93B
  8
TALL__2
 10
118.5659655321031
 20
80.32454458041161
 30
0.0
 11
118.5659655321031
 21
90.46692560429076
 31
0.0
  0
LINE
  5
93C
  8
TALL__2
 10
118.565965532103
 20
67.51928156547612
 30
0.0
 11
118.5659655321031
 21
77.15523149085672
 31
0.0
  0
LINE
  5
93D
  8
TALL__2
 10
118.565965532103
 20
54.16132939223294
 30
0.0
 11
110.3272684806372
 21
45.92263234076714
 31
0.0
  0
LINE
  5
93E
  8
TALL__2
 10
114.0484873697541
 20
40.90114984873429
 30
0.0
 11
118.565965532103
 21
45.4186280110832
 31
0.0
  0
LINE
  5
93F
  8
TALL__2
 10
118.565965532103
 20
54.16132939223294
 30
0.0
 11
118.565965532103
 21
64.30371041611215
 31
0.0
  0
ARC
  5
940
  8
TALL__2
 10
46.50582305389025
 20
-5.262440370289312
 30
0.0
 40
81.81129851551904
 50
28.25987153013627
 51
34.35155375816802
  0
LINE
  5
941
  8
TALL__2
 10
118.565965532103
 20
33.47287208249801
 30
0.0
 11
118.565965532103
 21
45.4186280110832
 31
0.0
  0
ARC
  5
942
  8
TALL__2
 10
149.9374434332067
 20
98.30010033230164
 30
0.0
 40
81.81129851551904
 50
235.7144232260047
 51
241.7989688282574
  0
LINE
  5
943
  8
TALL__2
 10
98.82506105058172
 20
34.4204249107116
 30
0.0
 11
90.60485246129673
 21
26.20021632142652
 31
0.0
  0
ARC
  5
944
  8
TALL__2
 10
-0.8592482319227202
 20
35.8380654836111
 30
0.0
 40
81.81129851551904
 50
353.2345114761801
 51
18.48568012921091
  0
LINE
  5
945
  8
TALL__2
 10
99.3475538424463
 20
26.20021632142652
 30
0.0
 11
103.8516602350982
 21
30.70432271407836
 31
0.0
  0
LINE
  5
946
  8
TALL__2
 10
45.78704581870784
 20
34.4204249107116
 30
0.0
 11
54.00725440799283
 21
26.2002163214265
 31
0.0
  0
ARC
  5
947
  8
TALL__2
 10
145.4713551012124
 20
35.8380654836111
 30
0.0
 40
81.81129851551904
 50
161.5143198707891
 51
186.7654885238199
  0
ARC
  5
948
  8
TALL__2
 10
145.4713551012124
 20
35.8380654836111
 30
0.0
 40
78.62927508301904
 50
158.5868819932744
 51
187.0406380020184
  0
LINE
  5
949
  8
TALL__2
 10
45.26455302684326
 20
26.2002163214265
 30
0.0
 11
40.76044663419134
 21
30.70432271407836
 31
0.0
  0
ARC
  5
94A
  8
TALL__2
 10
-5.325336563917062
 20
98.30010033230164
 30
0.0
 40
81.81129851551904
 50
298.2010311717425
 51
304.2855767739953
  0
ARC
  5
94B
  8
TALL__2
 10
-0.9418779233203622
 20
35.83806548361105
 30
0.0
 40
78.62927508301904
 50
352.9593619979816
 51
21.41311800672564
  0
LINE
  5
94C
  8
TALL__2
 10
99.3475538424463
 20
26.20021632142652
 30
0.0
 11
111.2761541322313
 21
26.20021632142652
 31
0.0
  0
LINE
  5
94D
  8
TALL__2
 10
80.38236935612349
 20
26.20021632142652
 30
0.0
 11
90.60485246129667
 21
26.20021632142652
 31
0.0
  0
LINE
  5
94E
  8
TALL__2
 10
67.43498688992224
 20
26.20021632142652
 30
0.0
 11
77.09449028796973
 21
26.20021632142652
 31
0.0
  0
LINE
  5
94F
  8
TALL__2
 10
54.00725440799283
 20
26.20021632142652
 30
0.0
 11
64.22973751316613
 21
26.20021632142652
 31
0.0
  0
LINE
  5
950
  8
TALL__2
 10
33.33595273705839
 20
26.2002163214265
 30
0.0
 11
45.26455302684326
 21
26.20021632142652
 31
0.0
  0
ARC
  5
951
  8
TALL__2
 10
98.10628381539931
 20
-5.262440370289312
 30
0.0
 40
81.81129851551904
 50
145.6484462418319
 51
151.7401284698637
  0
LINE
  5
952
  8
TALL__2
 10
26.04614133718667
 20
54.16132939223291
 30
0.0
 11
34.28483838865236
 21
45.92263234076714
 31
0.0
  0
LINE
  5
953
  8
TALL__2
 10
30.56361949953543
 20
40.90114984873429
 30
0.0
 11
26.04614133718667
 21
45.41862801108317
 31
0.0
  0
LINE
  5
954
  8
TALL__2
 10
26.04614133718667
 20
45.41862801108317
 30
0.0
 11
26.04614133718667
 21
33.47287208249796
 31
0.0
  0
LINE
  5
955
  8
TALL__2
 10
26.04614133718667
 20
90.46692560429088
 30
0.0
 11
34.28483838865236
 21
98.70562265575663
 31
0.0
  0
ARC
  5
956
  8
TALL__2
 10
35.69612387593475
 20
-0.9156326830411388
 30
0.0
 40
81.81129851551904
 50
71.58679709368997
 51
96.77404568270254
  0
LINE
  5
957
  8
TALL__2
 10
30.56361949953543
 20
103.7271051477895
 30
0.0
 11
26.04614133718667
 21
99.20962698544062
 31
0.0
  0
ARC
  5
958
  8
TALL__2
 10
35.69612387593475
 20
145.5438876795649
 30
0.0
 40
81.81129851551904
 50
263.2259543172975
 51
288.41320290631
  0
ARC
  5
959
  8
TALL__2
 10
35.69612387593475
 20
145.5438876795649
 30
0.0
 40
78.62927508301904
 50
262.9504533575354
 51
291.4493566181757
  0
ARC
  5
95A
  8
TALL__2
 10
35.69612387593475
 20
-0.8693746232320336
 30
0.0
 40
78.62927508301904
 50
68.55064338182439
 51
97.0495466424646
  0
LINE
  5
95B
  8
TALL__2
 10
26.04614133718667
 20
90.46692560429088
 30
0.0
 11
26.04614133718667
 21
80.32454458041164
 31
0.0
  0
LINE
  5
95C
  8
TALL__2
 10
26.04614133718667
 20
64.30371041611212
 30
0.0
 11
26.04614133718667
 21
54.16132939223291
 31
0.0
  0
LINE
  5
95D
  8
TALL__2
 10
26.04614133718667
 20
77.16549410276082
 30
0.0
 11
26.04614133718667
 21
67.50901895357205
 31
0.0
  0
ARC
  5
95E
  8
TALL__2
 10
98.10628381539931
 20
149.8906953668131
 30
0.0
 40
81.81129851551904
 50
208.2598715301363
 51
214.351553758168
  0
LINE
  5
95F
  8
TALL__2
 10
26.04614133718667
 20
111.1553829140258
 30
0.0
 11
26.04614133718667
 21
99.20962698544062
 31
0.0
  0
ARC
  5
960
  8
TALL__2
 10
256.4498075383702
 20
-0.8693746232320336
 30
0.0
 40
78.62927508301904
 50
68.55064338182449
 51
78.877152041229
  0
LINE
  5
961
  8
TALL__2
 10
271.6133344282201
 20
72.24868805420891
 30
0.0
 11
271.6184375896607
 21
76.28291349869065
 31
0.0
  0
ARC
  5
962
  8
TALL__2
 10
146.6745763130924
 20
108.8364475727219
 30
0.0
 40
78.62927508301904
 50
11.15347042667785
 51
21.48559522962559
  0
LINE
  5
963
  8
TALL__2
 10
219.8811928253587
 20
124.0463104904696
 30
0.0
 11
223.8187463462478
 21
124.0463104904696
 31
0.0
  0
ARC
  5
964
  8
TALL__2
 10
183.3125781123475
 20
-0.8693746232320336
 30
0.0
 40
78.62927508301904
 50
101.1228479587712
 51
111.4493566181758
  0
LINE
  5
965
  8
TALL__2
 10
168.1490512224977
 20
72.24868805420891
 30
0.0
 11
168.1439480610569
 21
76.28291349869065
 31
0.0
  0
ARC
  5
966
  8
TALL__2
 10
293.0878093376252
 20
108.8364475727219
 30
0.0
 40
78.62927508301904
 50
158.5144047703745
 51
168.8465295733221
  0
LINE
  5
967
  8
TALL__2
 10
219.8811928253587
 20
124.0463104904696
 30
0.0
 11
215.9436393044696
 21
124.0463104904696
 31
0.0
  0
ARC
  5
968
  8
TALL__2
 10
256.4498075383702
 20
145.5438876795649
 30
0.0
 40
78.62927508301904
 50
281.1228479587712
 51
291.4493566181756
  0
LINE
  5
969
  8
TALL__2
 10
271.6133344282201
 20
72.42582500212393
 30
0.0
 11
271.6184375896607
 21
68.39159955764228
 31
0.0
  0
ARC
  5
96A
  8
TALL__2
 10
146.6745763130924
 20
35.83806548361105
 30
0.0
 40
78.62927508301904
 50
338.5144047703746
 51
348.8465295733222
  0
LINE
  5
96B
  8
TALL__2
 10
219.8811928253587
 20
20.62820256586318
 30
0.0
 11
223.8187463462478
 21
20.62820256586318
 31
0.0
  0
ARC
  5
96C
  8
TALL__2
 10
183.3125781123475
 20
145.5438876795649
 30
0.0
 40
78.62927508301904
 50
248.5506433818245
 51
258.877152041229
  0
LINE
  5
96D
  8
TALL__2
 10
168.1490512224977
 20
72.42582500212393
 30
0.0
 11
168.1439480610569
 21
68.39159955764228
 31
0.0
  0
LINE
  5
96E
  8
TALL__2
 10
168.1218968139135
 20
50.9593267707692
 30
0.0
 11
168.083653154703
 21
20.72639276086889
 31
0.0
  0
ARC
  5
96F
  8
TALL__2
 10
142.2911176724957
 20
98.30010033230164
 30
0.0
 40
78.62927508301904
 50
293.5144047703744
 51
303.846529573322
  0
ARC
  5
970
  8
TALL__2
 10
245.7227380518121
 20
-5.262440370289312
 30
0.0
 40
78.62927508301904
 50
146.0847223853606
 51
156.4131180067255
  0
LINE
  5
971
  8
TALL__2
 10
186.0852862218906
 20
32.99593736279209
 30
0.0
 11
180.4711698119949
 21
38.61005377268782
 31
0.0
  0
LINE
  5
972
  8
TALL__2
 10
198.4530210188195
 20
20.62820256586318
 30
0.0
 11
168.1817192209265
 21
20.62820256586318
 31
0.0
  0
ARC
  5
973
  8
TALL__2
 10
293.0878093376252
 20
35.8380654836111
 30
0.0
 40
78.62927508301904
 50
191.1534704266779
 51
201.4855952296257
  0
LINE
  5
974
  8
TALL__2
 10
219.8811928253587
 20
20.62820256586318
 30
0.0
 11
215.9436393044697
 21
20.62820256586318
 31
0.0
  0
LINE
  5
975
  8
TALL__2
 10
210.4597251516637
 20
8.621498433019042
 30
0.0
 11
198.4530210188195
 21
20.62820256586318
 31
0.0
  0
LINE
  5
976
  8
TALL__2
 10
210.4597251516637
 20
8.621498433019042
 30
0.0
 11
156.2855510130633
 21
8.621498433019042
 31
0.0
  0
LINE
  5
977
  8
TALL__2
 10
283.4146260713565
 20
8.62149843301907
 30
0.0
 11
229.3026604990541
 21
8.621498433019042
 31
0.0
  0
LINE
  5
978
  8
TALL__2
 10
168.1218968139136
 20
50.95932677076917
 30
0.0
 11
156.2855510130633
 21
62.79567257161943
 31
0.0
  0
LINE
  5
979
  8
TALL__2
 10
210.3585459256968
 20
135.951835397347
 30
0.0
 11
156.2855510130633
 21
135.951835397347
 31
0.0
  0
LINE
  5
97A
  8
TALL__2
 10
283.4146260713565
 20
8.62149843301907
 30
0.0
 11
283.4146260713565
 21
62.73346400532157
 31
0.0
  0
LINE
  5
97B
  8
TALL__2
 10
156.2855510130633
 20
135.951835397347
 30
0.0
 11
156.2855510130633
 21
81.87884048471344
 31
0.0
  0
LINE
  5
97C
  8
TALL__2
 10
156.2855510130633
 20
62.79567257161943
 30
0.0
 11
156.2855510130633
 21
8.621498433019042
 31
0.0
  0
ARC
  5
97D
  8
TALL__2
 10
183.3125781123475
 20
145.5438876795649
 30
0.0
 40
81.81129851551904
 50
254.1627892158681
 51
259.3120440173473
  0
LINE
  5
97E
  8
TALL__2
 10
168.139849907607
 20
65.1518676550597
 30
0.0
 11
168.1329420694319
 21
59.69098289640053
 31
0.0
  0
LINE
  5
97F
  8
TALL__2
 10
160.9858572869527
 20
66.83806767887975
 30
0.0
 11
168.1329420694319
 21
59.69098289640053
 31
0.0
  0
ARC
  5
980
  8
TALL__2
 10
245.7227380518121
 20
-5.262440370289312
 30
0.0
 40
81.81129851551904
 50
116.5505584822402
 51
141.2702375682263
  0
ARC
  5
981
  8
TALL__2
 10
245.7227380518121
 20
-5.262440370289312
 30
0.0
 40
78.62927508301904
 50
113.5144047703745
 51
141.5250668129387
  0
LINE
  5
982
  8
TALL__2
 10
184.1654172765262
 20
43.65850768930611
 30
0.0
 11
191.139079016218
 21
36.68484594961421
 31
0.0
  0
ARC
  5
983
  8
TALL__2
 10
142.2911176724957
 20
98.30010033230164
 30
0.0
 40
81.81129851551904
 50
308.6645343655978
 51
333.4856801292111
  0
ARC
  5
984
  8
TALL__2
 10
142.2911176724957
 20
98.30010033230164
 30
0.0
 40
78.62927508301904
 50
308.407031216428
 51
336.4131180067258
  0
LINE
  5
985
  8
TALL__2
 10
212.7028067885262
 20
20.62820256586318
 30
0.0
 11
207.195722399969
 21
20.62820256586318
 31
0.0
  0
LINE
  5
986
  8
TALL__2
 10
207.195722399969
 20
20.62820256586318
 30
0.0
 11
214.40956621238
 21
13.41435875345215
 31
0.0
  0
ARC
  5
987
  8
TALL__2
 10
293.0878093376252
 20
35.8380654836111
 30
0.0
 40
81.81129851551904
 50
190.7144232260048
 51
195.9078263496659
  0
LINE
  5
988
  8
TALL__2
 10
241.3919943232957
 20
20.62820256586318
 30
0.0
 11
271.6632961211887
 21
20.62820256586318
 31
0.0
  0
LINE
  5
989
  8
TALL__2
 10
271.7231185282017
 20
50.9593267707692
 30
0.0
 11
271.7613621874122
 21
20.72639276086889
 31
0.0
  0
ARC
  5
98A
  8
TALL__2
 10
297.5538976696195
 20
98.30010033230164
 30
0.0
 40
78.62927508301904
 50
236.153470426678
 51
246.4855952296257
  0
ARC
  5
98B
  8
TALL__2
 10
194.1222772903031
 20
-5.262440370289312
 30
0.0
 40
78.62927508301904
 50
23.58688199327451
 51
33.91527761463941
  0
LINE
  5
98C
  8
TALL__2
 10
253.7597291202247
 20
32.99593736279209
 30
0.0
 11
259.3738455301204
 21
38.61005377268782
 31
0.0
  0
LINE
  5
98D
  8
TALL__2
 10
229.3852901904516
 20
8.621498433019042
 30
0.0
 11
241.3919943232957
 21
20.62820256586318
 31
0.0
  0
LINE
  5
98E
  8
TALL__2
 10
271.7231185282016
 20
50.95932677076917
 30
0.0
 11
283.5594643290519
 21
62.79567257161943
 31
0.0
  0
LINE
  5
98F
  8
TALL__2
 10
271.7051654345083
 20
65.1518676550597
 30
0.0
 11
271.7120732726833
 21
59.69098289640053
 31
0.0
  0
LINE
  5
990
  8
TALL__2
 10
278.8591580551626
 20
66.83806767887975
 30
0.0
 11
271.7120732726833
 21
59.69098289640053
 31
0.0
  0
ARC
  5
991
  8
TALL__2
 10
194.1222772903031
 20
-5.262440370289312
 30
0.0
 40
81.81129851551904
 50
38.72976243177374
 51
63.44944151775982
  0
ARC
  5
992
  8
TALL__2
 10
194.1222772903031
 20
-5.262440370289312
 30
0.0
 40
78.62927508301904
 50
38.47493318706132
 51
66.48559522962552
  0
LINE
  5
993
  8
TALL__2
 10
255.679598065589
 20
43.65850768930611
 30
0.0
 11
248.7059363258972
 21
36.68484594961421
 31
0.0
  0
ARC
  5
994
  8
TALL__2
 10
297.5538976696195
 20
98.30010033230164
 30
0.0
 40
81.81129851551904
 50
206.5143198707889
 51
231.3354656344023
  0
ARC
  5
995
  8
TALL__2
 10
297.5538976696195
 20
98.30010033230164
 30
0.0
 40
78.62927508301904
 50
203.5868819932742
 51
231.5929687835721
  0
LINE
  5
996
  8
TALL__2
 10
227.142208553589
 20
20.62820256586318
 30
0.0
 11
232.6492929421462
 21
20.62820256586318
 31
0.0
  0
LINE
  5
997
  8
TALL__2
 10
232.6492929421462
 20
20.62820256586318
 30
0.0
 11
225.4354491297352
 21
13.41435875345215
 31
0.0
  0
ARC
  5
998
  8
TALL__2
 10
256.5324372297677
 20
145.5438876795649
 30
0.0
 40
81.81129851551904
 50
280.6879559826527
 51
285.837210784132
  0
ARC
  5
999
  8
TALL__2
 10
146.75720600449
 20
35.8380654836111
 30
0.0
 40
81.81129851551904
 50
344.0921736503342
 51
349.2855767739953
  0
LINE
  5
99A
  8
TALL__2
 10
168.1218968139135
 20
93.66892822575457
 30
0.0
 11
168.083653154703
 21
123.9018622356549
 31
0.0
  0
ARC
  5
99B
  8
TALL__2
 10
142.2911176724957
 20
46.32815466422213
 30
0.0
 40
78.62927508301904
 50
56.15347042667798
 51
66.48559522962562
  0
ARC
  5
99C
  8
TALL__2
 10
245.7227380518121
 20
149.8906953668131
 30
0.0
 40
78.62927508301904
 50
203.5868819932746
 51
213.9152776146394
  0
LINE
  5
99D
  8
TALL__2
 10
186.0852862218906
 20
111.6323176337317
 30
0.0
 11
180.4711698119949
 21
106.0182012238359
 31
0.0
  0
LINE
  5
99E
  8
TALL__2
 10
198.4530210188195
 20
124.0000524306606
 30
0.0
 11
168.1817192209265
 21
124.0000524306606
 31
0.0
  0
LINE
  5
99F
  8
TALL__2
 10
210.4597251516637
 20
136.0067565635047
 30
0.0
 11
198.4530210188195
 21
124.0000524306606
 31
0.0
  0
LINE
  5
9A0
  8
TALL__2
 10
168.1218968139136
 20
93.6689282257546
 30
0.0
 11
156.2855510130633
 21
81.83258242490433
 31
0.0
  0
LINE
  5
9A1
  8
TALL__2
 10
168.139849907607
 20
79.47638734146406
 30
0.0
 11
168.1329420694319
 21
84.93727210012324
 31
0.0
  0
LINE
  5
9A2
  8
TALL__2
 10
160.9858572869527
 20
77.79018731764401
 30
0.0
 11
168.1329420694319
 21
84.93727210012324
 31
0.0
  0
ARC
  5
9A3
  8
TALL__2
 10
245.7227380518121
 20
149.8906953668131
 30
0.0
 40
81.81129851551904
 50
218.7297624317737
 51
243.4494415177598
  0
ARC
  5
9A4
  8
TALL__2
 10
245.7227380518121
 20
149.8906953668131
 30
0.0
 40
78.62927508301904
 50
218.4749331870613
 51
246.4855952296255
  0
LINE
  5
9A5
  8
TALL__2
 10
184.1654172765262
 20
100.9697473072177
 30
0.0
 11
191.139079016218
 21
107.9434090469095
 31
0.0
  0
ARC
  5
9A6
  8
TALL__2
 10
142.2911176724957
 20
46.32815466422213
 30
0.0
 40
81.81129851551904
 50
26.51431987078895
 51
51.33546563440221
  0
ARC
  5
9A7
  8
TALL__2
 10
142.2911176724957
 20
46.32815466422213
 30
0.0
 40
78.62927508301904
 50
23.58688199327423
 51
51.59296878357198
  0
LINE
  5
9A8
  8
TALL__2
 10
212.7028067885262
 20
124.0000524306606
 30
0.0
 11
207.195722399969
 21
124.0000524306606
 31
0.0
  0
LINE
  5
9A9
  8
TALL__2
 10
207.195722399969
 20
124.0000524306606
 30
0.0
 11
214.40956621238
 21
131.2138962430716
 31
0.0
  0
ARC
  5
9AA
  8
TALL__2
 10
183.3125781123475
 20
-0.9156326830411388
 30
0.0
 40
81.81129851551904
 50
100.6879559826526
 51
105.8372107841319
  0
ARC
  5
9AB
  8
TALL__2
 10
293.0878093376252
 20
108.7901895129126
 30
0.0
 40
81.81129851551904
 50
164.0921736503341
 51
169.2855767739952
  0
ARC
  5
9AC
  8
TALL__2
 10
146.75720600449
 20
108.7901895129126
 30
0.0
 40
81.81129851551904
 50
10.7144232260048
 51
15.9078263496659
  0
LINE
  5
9AD
  8
TALL__2
 10
271.7051654345083
 20
79.47638734146406
 30
0.0
 11
271.7120732726833
 21
84.93727210012324
 31
0.0
  0
LINE
  5
9AE
  8
TALL__2
 10
278.8591580551626
 20
77.79018731764401
 30
0.0
 11
271.7120732726833
 21
84.93727210012324
 31
0.0
  0
LINE
  5
9AF
  8
TALL__2
 10
227.142208553589
 20
124.0000524306606
 30
0.0
 11
232.6492929421462
 21
124.0000524306606
 31
0.0
  0
LINE
  5
9B0
  8
TALL__2
 10
232.6492929421462
 20
124.0000524306606
 30
0.0
 11
225.4354491297352
 21
131.2138962430716
 31
0.0
  0
ARC
  5
9B1
  8
TALL__2
 10
256.5324372297677
 20
-0.9156326830411388
 30
0.0
 40
81.81129851551904
 50
74.16278921586807
 51
79.31204401734736
  0
LINE
  5
9B2
  8
TALL__2
 10
193.4035000551207
 20
110.2078300858122
 30
0.0
 11
201.6237086444057
 21
118.4280386750972
 31
0.0
  0
LINE
  5
9B3
  8
TALL__2
 10
192.8810072632562
 20
118.4280386750972
 30
0.0
 11
188.3769008706042
 21
113.9239322824454
 31
0.0
  0
ARC
  5
9B4
  8
TALL__2
 10
142.2911176724957
 20
46.32815466422213
 30
0.0
 40
81.81129851551904
 50
55.71442322600464
 51
61.79896882825722
  0
LINE
  5
9B5
  8
TALL__2
 10
201.6237086444057
 20
118.4280386750972
 30
0.0
 11
211.846191749579
 21
118.4280386750972
 31
0.0
  0
LINE
  5
9B6
  8
TALL__2
 10
180.9524069734713
 20
118.4280386750972
 30
0.0
 11
192.8810072632562
 21
118.4280386750972
 31
0.0
  0
LINE
  5
9B7
  8
TALL__2
 10
266.1824197685158
 20
54.16132939223294
 30
0.0
 11
257.94372271705
 21
45.92263234076714
 31
0.0
  0
LINE
  5
9B8
  8
TALL__2
 10
261.6649416061669
 20
40.90114984873429
 30
0.0
 11
266.1824197685158
 21
45.4186280110832
 31
0.0
  0
LINE
  5
9B9
  8
TALL__2
 10
266.1824197685158
 20
54.16132939223294
 30
0.0
 11
266.1824197685158
 21
64.30371041611215
 31
0.0
  0
ARC
  5
9BA
  8
TALL__2
 10
194.1222772903031
 20
-5.262440370289312
 30
0.0
 40
81.81129851551904
 50
28.25987153013632
 51
34.35155375816802
  0
LINE
  5
9BB
  8
TALL__2
 10
266.1824197685158
 20
33.47287208249801
 30
0.0
 11
266.1824197685158
 21
45.4186280110832
 31
0.0
  0
ARC
  5
9BC
  8
TALL__2
 10
297.5538976696195
 20
98.30010033230164
 30
0.0
 40
81.81129851551904
 50
235.7144232260047
 51
241.7989688282575
  0
LINE
  5
9BD
  8
TALL__2
 10
246.4415152869945
 20
34.4204249107116
 30
0.0
 11
238.2213066977095
 21
26.20021632142652
 31
0.0
  0
ARC
  5
9BE
  8
TALL__2
 10
146.75720600449
 20
35.8380654836111
 30
0.0
 40
81.81129851551904
 50
353.2345114761801
 51
18.48568012921085
  0
LINE
  5
9BF
  8
TALL__2
 10
246.9640080788591
 20
26.20021632142652
 30
0.0
 11
251.468114471511
 21
30.70432271407836
 31
0.0
  0
LINE
  5
9C0
  8
TALL__2
 10
193.4035000551207
 20
34.4204249107116
 30
0.0
 11
201.6237086444057
 21
26.2002163214265
 31
0.0
  0
ARC
  5
9C1
  8
TALL__2
 10
293.0878093376252
 20
35.8380654836111
 30
0.0
 40
81.81129851551904
 50
161.5143198707891
 51
186.7654885238199
  0
LINE
  5
9C2
  8
TALL__2
 10
192.8810072632562
 20
26.2002163214265
 30
0.0
 11
188.3769008706042
 21
30.70432271407836
 31
0.0
  0
ARC
  5
9C3
  8
TALL__2
 10
142.2911176724957
 20
98.30010033230164
 30
0.0
 40
81.81129851551904
 50
298.2010311717427
 51
304.2855767739953
  0
LINE
  5
9C4
  8
TALL__2
 10
246.9640080788591
 20
26.20021632142652
 30
0.0
 11
258.8926083686441
 21
26.20021632142652
 31
0.0
  0
LINE
  5
9C5
  8
TALL__2
 10
227.9988235925363
 20
26.20021632142652
 30
0.0
 11
238.2213066977095
 21
26.20021632142652
 31
0.0
  0
LINE
  5
9C6
  8
TALL__2
 10
215.0514411263351
 20
26.20021632142652
 30
0.0
 11
224.7109445243826
 21
26.20021632142652
 31
0.0
  0
LINE
  5
9C7
  8
TALL__2
 10
201.6237086444057
 20
26.20021632142652
 30
0.0
 11
211.846191749579
 21
26.20021632142652
 31
0.0
  0
LINE
  5
9C8
  8
TALL__2
 10
180.9524069734712
 20
26.2002163214265
 30
0.0
 11
192.8810072632562
 21
26.20021632142652
 31
0.0
  0
ARC
  5
9C9
  8
TALL__2
 10
245.7227380518121
 20
-5.262440370289312
 30
0.0
 40
81.81129851551904
 50
145.6484462418319
 51
151.7401284698637
  0
LINE
  5
9CA
  8
TALL__2
 10
173.6625955735994
 20
54.16132939223291
 30
0.0
 11
181.9012926250653
 21
45.92263234076714
 31
0.0
  0
LINE
  5
9CB
  8
TALL__2
 10
178.1800737359483
 20
40.90114984873429
 30
0.0
 11
173.6625955735994
 21
45.41862801108317
 31
0.0
  0
LINE
  5
9CC
  8
TALL__2
 10
173.6625955735994
 20
45.41862801108317
 30
0.0
 11
173.6625955735994
 21
33.47287208249796
 31
0.0
  0
LINE
  5
9CD
  8
TALL__2
 10
173.6625955735994
 20
90.46692560429088
 30
0.0
 11
181.9012926250653
 21
98.70562265575663
 31
0.0
  0
ARC
  5
9CE
  8
TALL__2
 10
183.3125781123475
 20
-0.9156326830411388
 30
0.0
 40
81.81129851551904
 50
71.58679709368992
 51
96.77404568270254
  0
LINE
  5
9CF
  8
TALL__2
 10
178.1800737359483
 20
103.7271051477895
 30
0.0
 11
173.6625955735994
 21
99.20962698544062
 31
0.0
  0
ARC
  5
9D0
  8
TALL__2
 10
183.3125781123475
 20
145.5438876795649
 30
0.0
 40
81.81129851551904
 50
263.2259543172976
 51
288.4132029063101
  0
LINE
  5
9D1
  8
TALL__2
 10
173.6625955735994
 20
90.46692560429088
 30
0.0
 11
173.6625955735994
 21
80.32454458041164
 31
0.0
  0
LINE
  5
9D2
  8
TALL__2
 10
173.6625955735994
 20
64.30371041611212
 30
0.0
 11
173.6625955735994
 21
54.16132939223291
 31
0.0
  0
LINE
  5
9D3
  8
TALL__2
 10
173.6625955735994
 20
77.16549410276082
 30
0.0
 11
173.6625955735994
 21
67.50901895357205
 31
0.0
  0
ARC
  5
9D4
  8
TALL__2
 10
245.7227380518121
 20
149.8906953668131
 30
0.0
 40
81.81129851551904
 50
208.2598715301363
 51
214.351553758168
  0
LINE
  5
9D5
  8
TALL__2
 10
173.6625955735994
 20
111.1553829140258
 30
0.0
 11
173.6625955735994
 21
99.20962698544062
 31
0.0
  0
ARC
  5
9D6
  8
TALL__2
 10
256.5324372297677
 20
145.5438876795649
 30
0.0
 40
81.81129851551904
 50
251.5867970936901
 51
276.7740456827026
  0
ARC
  5
9D7
  8
TALL__2
 10
293.0878093376252
 20
108.7901895129126
 30
0.0
 40
81.81129851551904
 50
173.2345114761801
 51
198.4856801292109
  0
ARC
  5
9D8
  8
TALL__2
 10
256.5324372297677
 20
-0.9156326830411388
 30
0.0
 40
81.81129851551904
 50
99.2220440627139
 51
108.41320290631
  0
ARC
  5
9D9
  8
TALL__2
 10
194.1222772903031
 20
149.8906953668131
 30
0.0
 40
81.81129851551904
 50
296.5505584822402
 51
304.6603209776594
  0
ARC
  5
9DA
  8
TALL__2
 10
297.5538976696195
 20
46.32815466422213
 30
0.0
 40
81.81129851551904
 50
145.2973519812336
 51
153.4856801292111
  0
ARC
  5
9DB
  8
TALL__2
 10
146.75720600449
 20
108.7901895129126
 30
0.0
 40
81.81129851551904
 50
341.5143198707893
 51
350.776396266013
  0
ARC
  5
9DC
  8
TALL__2
 10
293.0878093376252
 20
108.8364475727219
 30
0.0
 40
78.62927508301904
 50
180.1214346752612
 51
201.4131180067258
  0
LINE
  5
9DD
  8
TALL__2
 10
230.2953786487629
 20
92.90476020731023
 30
0.0
 11
227.5107102986224
 21
95.67683338212353
 31
0.0
  0
LINE
  5
9DE
  8
TALL__2
 10
238.3937464052557
 20
84.84302171826718
 30
0.0
 11
232.6202888648758
 21
90.59036566060917
 31
0.0
  0
LINE
  5
9DF
  8
TALL__2
 10
243.421279327195
 20
79.83822854507088
 30
0.0
 11
240.649183151055
 21
82.59778641037028
 31
0.0
  0
LINE
  5
9E0
  8
TALL__2
 10
256.4036013027604
 20
66.91462617301843
 30
0.0
 11
246.185005759998
 21
77.08700256639759
 31
0.0
  0
LINE
  5
9E1
  8
TALL__2
 10
224.64705422756
 20
98.52753701298255
 30
0.0
 11
214.4587108560623
 21
108.6697980669754
 31
0.0
  0
ARC
  5
9E2
  8
TALL__2
 10
146.7026339156611
 20
108.8827406480217
 30
0.0
 40
78.62927508301904
 50
338.5506433818262
 51
352.4323599956526
  0
ARC
  5
9E3
  8
TALL__2
 10
256.4498075383702
 20
-0.8693746232320336
 30
0.0
 40
78.62927508301904
 50
97.50119205347588
 51
111.4032204586172
  0
ARC
  5
9E4
  8
TALL__2
 10
256.4498075383702
 20
145.5438876795649
 30
0.0
 40
78.62927508301904
 50
248.5967795413828
 51
269.9663303211532
  0
ARC
  5
9E5
  8
TALL__2
 10
183.3125781123475
 20
-0.8693746232320336
 30
0.0
 40
78.62927508301904
 50
68.59677954138283
 51
97.0495466424646
  0
ARC
  5
9E6
  8
TALL__2
 10
183.3125781123475
 20
145.5438876795649
 30
0.0
 40
78.62927508301904
 50
262.9504533575354
 51
291.4032204586172
  0
ARC
  5
9E7
  8
TALL__2
 10
146.6745763130924
 20
35.83806548361105
 30
0.0
 40
78.62927508301904
 50
352.9593619979816
 51
21.40324968969922
  0
ARC
  5
9E8
  8
TALL__2
 10
293.0878093376252
 20
35.8380654836111
 30
0.0
 40
78.62927508301904
 50
158.5967503103008
 51
187.0406380020184
  0
POLYLINE
  5
9E9
  8
0
 66
     1
 10
0.0
 20
0.0
 30
0.0
  0
VERTEX
  5
CAD
  8
0
 10
0.080448963553863
 20
141.7373325473473
 30
0.0
  0
VERTEX
  5
CAE
  8
0
 10
0.0731869576470672
 20
130.2559682653779
 30
0.0
  0
VERTEX
  5
CAF
  8
0
 10
2.965934954009299
 20
130.2541385914367
 30
0.0
  0
VERTEX
  5
CB0
  8
0
 10
2.956786584303472
 20
115.7903986096257
 30
0.0
  0
VERTEX
  5
CB1
  8
0
 10
0.0640385879412406
 20
115.7922282835667
 30
0.0
  0
VERTEX
  5
CB2
  8
0
 10
0.0548902182354141
 20
101.3284883017555
 30
0.0
  0
VERTEX
  5
CB3
  8
0
 10
2.947638214597646
 20
101.3266586278143
 30
0.0
  0
VERTEX
  5
CB4
  8
0
 10
2.938489844891592
 20
86.86291864600301
 30
0.0
  0
VERTEX
  5
CB5
  8
0
 10
0.0457418485293601
 20
86.86474831994414
 30
0.0
  0
VERTEX
  5
CB6
  8
0
 10
0.0365934788235336
 20
72.40100833813293
 30
0.0
  0
VERTEX
  5
CB7
  8
0
 10
2.929341475185765
 20
72.3991786641918
 30
0.0
  0
VERTEX
  5
CB8
  8
0
 10
2.920193105479939
 20
57.93543868238058
 30
0.0
  0
VERTEX
  5
CB9
  8
0
 10
0.027445109117707
 20
57.93726835632171
 30
0.0
  0
VERTEX
  5
CBA
  8
0
 10
0.027445109117707
 20
57.93726835632171
 30
0.0
  0
VERTEX
  5
CBB
  8
0
 10
0.0182967394116531
 20
43.47352837451038
 30
0.0
  0
VERTEX
  5
CBC
  8
0
 10
2.911044735773885
 20
43.47169870056931
 30
0.0
  0
VERTEX
  5
CBD
  8
0
 10
2.901896366068058
 20
29.00795871875792
 30
0.0
  0
VERTEX
  5
CBE
  8
0
 10
0.0091483697055992
 20
29.00978839269916
 30
0.0
  0
VERTEX
  5
CBF
  8
0
 10
0.0
 20
14.54604841088795
 30
0.0
  0
VERTEX
  5
CC0
  8
0
 10
2.892747996362232
 20
14.54421873694665
 30
0.0
  0
VERTEX
  5
CC1
  8
0
 10
2.883599626656178
 20
0.0804787551356014
 30
0.0
  0
SEQEND
  5
E5E
  8
0
  0
POLYLINE
  5
9EA
  8
0
 66
     1
 10
0.0
 20
0.0
 30
0.0
  0
VERTEX
  5
CC2
  8
0
 10
224.0512617094276
 20
141.7804693457778
 30
0.0
  0
VERTEX
  5
CC3
  8
0
 10
224.0512617094276
 20
141.7804693457778
 30
0.0
  0
VERTEX
  5
CC4
  8
0
 10
224.0512617094276
 20
141.7804693457778
 30
0.0
  0
VERTEX
  5
CC5
  8
0
 10
224.0512617094276
 20
141.7804693457778
 30
0.0
  0
VERTEX
  5
CC6
  8
0
 10
224.0512617094276
 20
141.7804693457778
 30
0.0
  0
VERTEX
  5
CC7
  8
0
 10
224.0512617094276
 20
141.7804693457778
 30
0.0
  0
VERTEX
  5
CC8
  8
0
 10
205.5519209619476
 20
141.7921768452271
 30
0.0
  0
VERTEX
  5
CC9
  8
0
 10
205.5537494910108
 20
144.6831147683631
 30
0.0
  0
VERTEX
  5
CCA
  8
0
 10
191.0900095091996
 20
144.6922631380697
 30
0.0
  0
VERTEX
  5
CCB
  8
0
 10
191.0881809833988
 20
141.8013303729201
 30
0.0
  0
VERTEX
  5
CCC
  8
0
 10
176.6244410054992
 20
141.8104839006128
 30
0.0
  0
VERTEX
  5
CCD
  8
0
 10
176.6262695273883
 20
144.7014115077763
 30
0.0
  0
VERTEX
  5
CCE
  8
0
 10
162.162529545577
 20
144.7105598774828
 30
0.0
  0
VERTEX
  5
CCF
  8
0
 10
162.1607010263011
 20
141.8196374283063
 30
0.0
  0
VERTEX
  5
CD0
  8
0
 10
147.6969589634824
 20
141.8254956865221
 30
0.0
  0
VERTEX
  5
CD1
  8
0
 10
147.6896411940598
 20
130.2559682653779
 30
0.0
  0
VERTEX
  5
CD2
  8
0
 10
150.582389190422
 20
130.2541385914367
 30
0.0
  0
VERTEX
  5
CD3
  8
0
 10
150.5732408207162
 20
115.7903986096257
 30
0.0
  0
VERTEX
  5
CD4
  8
0
 10
147.680492824354
 20
115.7922282835667
 30
0.0
  0
VERTEX
  5
CD5
  8
0
 10
147.6713444546481
 20
101.3284883017555
 30
0.0
  0
VERTEX
  5
CD6
  8
0
 10
150.5640924510104
 20
101.3266586278143
 30
0.0
  0
VERTEX
  5
CD7
  8
0
 10
150.5549440813043
 20
86.86291864600301
 30
0.0
  0
VERTEX
  5
CD8
  8
0
 10
147.6621960849421
 20
86.86474831994414
 30
0.0
  0
VERTEX
  5
CD9
  8
0
 10
147.6530477152363
 20
72.40100833813293
 30
0.0
  0
VERTEX
  5
CDA
  8
0
 10
150.5457957115985
 20
72.3991786641918
 30
0.0
  0
VERTEX
  5
CDB
  8
0
 10
150.5366473418927
 20
57.93543868238058
 30
0.0
  0
VERTEX
  5
CDC
  8
0
 10
147.6438993455304
 20
57.93726835632171
 30
0.0
  0
VERTEX
  5
CDD
  8
0
 10
147.6438993455304
 20
57.93726835632171
 30
0.0
  0
VERTEX
  5
CDE
  8
0
 10
147.6347509758244
 20
43.47352837451038
 30
0.0
  0
VERTEX
  5
CDF
  8
0
 10
150.5274989721866
 20
43.47169870056931
 30
0.0
  0
VERTEX
  5
CE0
  8
0
 10
150.5183506024808
 20
29.00795871875792
 30
0.0
  0
VERTEX
  5
CE1
  8
0
 10
147.6256026061183
 20
29.00978839269916
 30
0.0
  0
VERTEX
  5
CE2
  8
0
 10
147.6164542364127
 20
14.54604841088795
 30
0.0
  0
VERTEX
  5
CE3
  8
0
 10
150.509202232775
 20
14.54421873694665
 30
0.0
  0
VERTEX
  5
CE4
  8
0
 10
150.5000538630689
 20
0.0804787551356014
 30
0.0
  0
SEQEND
  5
E5F
  8
0
  0
LINE
  5
9EB
  8
0
 10
101.2370511766528
 20
141.7373325473473
 30
0.0
 11
101.2370511766528
 21
144.6300811223471
 31
0.0
  0
LINE
  5
9EC
  8
0
 10
115.7007940516527
 20
144.6300811223471
 30
0.0
 11
115.7007940516527
 21
141.7373325473473
 31
0.0
  0
LINE
  5
9ED
  8
0
 10
130.1645369266527
 20
141.7373325473473
 30
0.0
 11
130.1645369266527
 21
144.6300811223471
 31
0.0
  0
LINE
  5
9EE
  8
0
 10
141.7263828569468
 20
130.1663411405362
 30
0.0
 11
141.7355312266527
 21
144.6300811223471
 31
0.0
  0
LINE
  5
9EF
  8
TALL__2
 10
141.7355312266527
 20
144.6300811223471
 30
0.0
 11
141.7355312266527
 21
138.8445839723472
 31
0.0
  0
LINE
  5
9F0
  8
0
 10
14.45459392665271
 20
141.7373325473473
 30
0.0
 11
14.45459392665271
 21
144.6300811223471
 31
0.0
  0
LINE
  5
9F1
  8
0
 10
14.45459392665271
 20
144.6300811223471
 30
0.0
 11
28.91833680165269
 21
144.6300811223471
 31
0.0
  0
LINE
  5
9F2
  8
0
 10
28.91833680165269
 20
144.6300811223471
 30
0.0
 11
28.91833680165269
 21
141.7373325473473
 31
0.0
  0
LINE
  5
9F3
  8
0
 10
43.38207967665267
 20
141.7373325473473
 30
0.0
 11
43.38207967665267
 21
144.6300811223471
 31
0.0
  0
LINE
  5
9F4
  8
0
 10
43.38207967665267
 20
144.6300811223471
 30
0.0
 11
57.84582255165265
 21
144.6300811223471
 31
0.0
  0
LINE
  5
9F5
  8
0
 10
57.84582255165265
 20
144.6300811223471
 30
0.0
 11
57.84582255165265
 21
141.7373325473473
 31
0.0
  0
LINE
  5
9F6
  8
0
 10
72.30956542665263
 20
141.7373325473473
 30
0.0
 11
72.30956542665263
 21
144.6300811223471
 31
0.0
  0
LINE
  5
9F7
  8
0
 10
72.30956542665263
 20
144.6300811223471
 30
0.0
 11
86.77330830165266
 21
144.6300811223471
 31
0.0
  0
LINE
  5
9F8
  8
0
 10
86.77330830165266
 20
144.6300811223471
 30
0.0
 11
86.77330830165266
 21
141.7373325473473
 31
0.0
  0
LINE
  5
9F9
  8
0
 10
101.2370511766528
 20
144.6300811223471
 30
0.0
 11
101.2370511766528
 21
144.6300811223471
 31
0.0
  0
LINE
  5
9FA
  8
0
 10
101.2370511766528
 20
144.6300811223471
 30
0.0
 11
115.7007940516527
 21
144.6300811223471
 31
0.0
  0
LINE
  5
9FB
  8
0
 10
130.1645369266527
 20
144.6300811223471
 30
0.0
 11
141.7355312266527
 21
144.6300811223471
 31
0.0
  0
POLYLINE
  5
9FC
  8
0
 66
     1
 10
0.0
 20
0.0
 30
0.0
  0
VERTEX
  5
CE5
  8
0
 10
222.101293185508
 20
263.7591177661797
 30
0.0
  0
VERTEX
  5
CE6
  8
0
 10
234.8594955110652
 20
267.076869013162
 30
0.0
  0
VERTEX
  5
CE7
  8
0
 10
240.6270136007033
 20
261.1743611033071
 30
0.0
  0
VERTEX
  5
CE8
  8
0
 10
243.9039554268761
 20
264.4214374458381
 30
0.0
  0
VERTEX
  5
CE9
  8
0
 10
252.4995534161077
 20
255.8258394566054
 30
0.0
  0
VERTEX
  5
CEA
  8
0
 10
249.2226115899356
 20
252.5787631140744
 30
0.0
  0
VERTEX
  5
CEB
  8
0
 10
260.8583199281341
 20
240.8600094009522
 30
0.0
  0
VERTEX
  5
CEC
  8
0
 10
264.0874668267903
 20
244.0597264107078
 30
0.0
  0
VERTEX
  5
CED
  8
0
 10
270.791080516615
 20
237.2870138913161
 30
0.0
  0
VERTEX
  5
CEE
  8
0
 10
267.5619336179591
 20
234.0872968815606
 30
0.0
  0
VERTEX
  5
CEF
  8
0
 10
279.2989306034669
 20
222.4736480127327
 30
0.0
  0
VERTEX
  5
CF0
  8
0
 10
282.419259433097
 20
225.5655387026089
 30
0.0
  0
VERTEX
  5
CF1
  8
0
 10
290.9685354181432
 20
216.9239737476424
 30
0.0
  0
VERTEX
  5
CF2
  8
0
 10
287.8862988794484
 20
213.8698281821196
 30
0.0
  0
VERTEX
  5
CF3
  8
0
 10
293.5433864316765
 20
207.853223987802
 30
0.0
  0
VERTEX
  5
CF4
  8
0
 10
290.0704516643668
 20
195.1254016111946
 30
0.0
  0
SEQEND
  5
E60
  8
0
  0
POLYLINE
  5
9FD
  8
TALL_1
 66
     1
 10
0.0
 20
0.0
 30
0.0
  0
VERTEX
  5
CF5
  8
TALL_1
 10
214.8296716869273
 20
114.4037452361809
 30
0.0
  0
VERTEX
  5
CF6
  8
TALL_1
 10
216.8771103603865
 20
116.4472689567642
 30
0.0
  0
VERTEX
  5
CF7
  8
TALL_1
 10
225.4644786363677
 20
107.8434491261512
 30
0.0
  0
VERTEX
  5
CF8
  8
TALL_1
 10
223.4170399629079
 20
105.7999254055678
 30
0.0
  0
VERTEX
  5
CF9
  8
TALL_1
 10
214.8296716869273
 20
114.4037452361809
 30
0.0
  0
SEQEND
  5
E61
  8
TALL_1
  0
POLYLINE
  5
9FE
  8
TALL_1
 66
     1
 10
0.0
 20
0.0
 30
0.0
  0
VERTEX
  5
CFA
  8
TALL_1
 10
235.1559934882259
 20
94.18431812367298
 30
0.0
  0
VERTEX
  5
CFB
  8
TALL_1
 10
237.2014756218759
 20
96.22980025732316
 30
0.0
  0
VERTEX
  5
CFC
  8
TALL_1
 10
243.9050893117006
 20
89.45708773793149
 30
0.0
  0
VERTEX
  5
CFD
  8
TALL_1
 10
241.8596071780502
 20
87.41160560428136
 30
0.0
  0
VERTEX
  5
CFE
  8
TALL_1
 10
235.1559934882259
 20
94.18431812367298
 30
0.0
  0
SEQEND
  5
E62
  8
TALL_1
  0
POLYLINE
  5
9FF
  8
TALL_1
 66
     1
 10
0.0
 20
0.0
 30
0.0
  0
VERTEX
  5
CFF
  8
TALL_1
 10
262.090913505481
 20
67.09725390192688
 30
0.0
  0
VERTEX
  5
D00
  8
TALL_1
 10
264.1363956391313
 20
69.14273603557666
 30
0.0
  0
VERTEX
  5
D01
  8
TALL_1
 10
255.5407976498997
 20
77.73833402480929
 30
0.0
  0
VERTEX
  5
D02
  8
TALL_1
 10
253.4953155162494
 20
75.69285189115882
 30
0.0
  0
VERTEX
  5
D03
  8
TALL_1
 10
262.090913505481
 20
67.09725390192688
 30
0.0
  0
SEQEND
  5
E63
  8
TALL_1
  0
POLYLINE
  5
A00
  8
TALL_1
 66
     1
 10
0.0
 20
0.0
 30
0.0
  0
VERTEX
  5
D04
  8
TALL_1
 10
357.704119347032
 20
94.18431812367298
 30
0.0
  0
VERTEX
  5
D05
  8
TALL_1
 10
355.658637213382
 20
96.22980025732316
 30
0.0
  0
VERTEX
  5
D06
  8
TALL_1
 10
348.9550235235573
 20
89.45708773793149
 30
0.0
  0
VERTEX
  5
D07
  8
TALL_1
 10
351.0005056572078
 20
87.41160560428136
 30
0.0
  0
VERTEX
  5
D08
  8
TALL_1
 10
357.704119347032
 20
94.18431812367298
 30
0.0
  0
SEQEND
  5
E64
  8
TALL_1
  0
POLYLINE
  5
A01
  8
TALL_1
 66
     1
 10
0.0
 20
0.0
 30
0.0
  0
VERTEX
  5
D09
  8
TALL_1
 10
378.0304411483306
 20
114.4037452361809
 30
0.0
  0
VERTEX
  5
D0A
  8
TALL_1
 10
375.9830024748715
 20
116.4472689567642
 30
0.0
  0
VERTEX
  5
D0B
  8
TALL_1
 10
367.3956341988902
 20
107.8434491261512
 30
0.0
  0
VERTEX
  5
D0C
  8
TALL_1
 10
369.4430728723501
 20
105.7999254055678
 30
0.0
  0
VERTEX
  5
D0D
  8
TALL_1
 10
378.0304411483306
 20
114.4037452361809
 30
0.0
  0
SEQEND
  5
E65
  8
TALL_1
  0
POLYLINE
  5
A02
  8
TALL_1
 66
     1
 10
0.0
 20
0.0
 30
0.0
  0
VERTEX
  5
D0E
  8
TALL_1
 10
330.7691993297769
 20
67.09725390192688
 30
0.0
  0
VERTEX
  5
D0F
  8
TALL_1
 10
328.7237171961267
 20
69.14273603557666
 30
0.0
  0
VERTEX
  5
D10
  8
TALL_1
 10
337.3193151853583
 20
77.73833402480929
 30
0.0
  0
VERTEX
  5
D11
  8
TALL_1
 10
339.3647973190085
 20
75.69285189115882
 30
0.0
  0
VERTEX
  5
D12
  8
TALL_1
 10
330.7691993297769
 20
67.09725390192688
 30
0.0
  0
SEQEND
  5
E66
  8
TALL_1
  0
POLYLINE
  5
A03
  8
0
 66
     1
 10
0.0
 20
0.0
 30
0.0
  0
VERTEX
  5
D13
  8
0
 10
303.4712633166843
 20
76.44288153663177
 30
0.0
  0
VERTEX
  5
D14
  8
0
 10
303.4712633166843
 20
76.44288153663177
 30
0.0
  0
VERTEX
  5
D15
  8
0
 10
371.7071848369318
 20
144.6363538652733
 30
0.0
  0
VERTEX
  5
D16
  8
0
 10
371.7071848369318
 20
144.6363538652733
 30
0.0
  0
VERTEX
  5
D17
  8
0
 10
371.7071848369318
 20
144.6363538652733
 30
0.0
  0
VERTEX
  5
D18
  8
0
 10
387.3162824073264
 20
144.636353865271
 30
0.0
  0
VERTEX
  5
D19
  8
0
 10
387.3162824073265
 20
141.743605290273
 30
0.0
  0
VERTEX
  5
D1A
  8
0
 10
401.7800252823265
 20
141.743605290273
 30
0.0
  0
VERTEX
  5
D1B
  8
0
 10
401.7800252823264
 20
144.6363538652715
 30
0.0
  0
VERTEX
  5
D1C
  8
0
 10
416.2437681573264
 20
144.6363538652722
 30
0.0
  0
VERTEX
  5
D1D
  8
0
 10
416.2437681573265
 20
141.743605290273
 30
0.0
  0
VERTEX
  5
D1E
  8
0
 10
430.7075110323265
 20
141.743605290273
 30
0.0
  0
VERTEX
  5
D1F
  8
0
 10
430.7075110323264
 20
144.6363538652726
 30
0.0
  0
VERTEX
  5
D20
  8
0
 10
442.2785053323264
 20
144.6363538652733
 30
0.0
  0
VERTEX
  5
D21
  8
0
 10
442.2785053323264
 20
130.1726109902731
 30
0.0
  0
VERTEX
  5
D22
  8
0
 10
445.1712539073264
 20
130.1726109902731
 30
0.0
  0
VERTEX
  5
D23
  8
0
 10
445.1712539073264
 20
115.7088681152731
 30
0.0
  0
VERTEX
  5
D24
  8
0
 10
442.2785053323264
 20
115.7088681152731
 30
0.0
  0
VERTEX
  5
D25
  8
0
 10
442.2785053323264
 20
101.2451252402731
 30
0.0
  0
VERTEX
  5
D26
  8
0
 10
445.1712539073264
 20
101.2451252402731
 30
0.0
  0
VERTEX
  5
D27
  8
0
 10
445.1712539073264
 20
86.78138236527303
 30
0.0
  0
VERTEX
  5
D28
  8
0
 10
442.2785053323264
 20
86.78138236527303
 30
0.0
  0
VERTEX
  5
D29
  8
0
 10
442.2785053323264
 20
72.31763949027317
 30
0.0
  0
VERTEX
  5
D2A
  8
0
 10
445.1712539073264
 20
72.31763949027317
 30
0.0
  0
VERTEX
  5
D2B
  8
0
 10
445.1712539073264
 20
57.85389661527319
 30
0.0
  0
VERTEX
  5
D2C
  8
0
 10
442.2785053323264
 20
57.85389661527319
 30
0.0
  0
VERTEX
  5
D2D
  8
0
 10
442.2785053323264
 20
43.39015374027315
 30
0.0
  0
VERTEX
  5
D2E
  8
0
 10
445.1712539073264
 20
43.39015374027315
 30
0.0
  0
VERTEX
  5
D2F
  8
0
 10
445.1712539073264
 20
43.39015374027315
 30
0.0
  0
VERTEX
  5
D30
  8
0
 10
445.1712539073264
 20
28.92641086527317
 30
0.0
  0
VERTEX
  5
D31
  8
0
 10
442.2785053323264
 20
28.92641086527317
 30
0.0
  0
VERTEX
  5
D32
  8
0
 10
442.2785053323264
 20
14.46266799027325
 30
0.0
  0
VERTEX
  5
D33
  8
0
 10
445.1712539073264
 20
14.46266799027325
 30
0.0
  0
VERTEX
  5
D34
  8
0
 10
445.1712539073264
 20
2.89167369027308
 30
0.0
  0
SEQEND
  5
E67
  8
0
  0
POLYLINE
  5
A04
  8
0
 66
     1
 10
0.0
 20
0.0
 30
0.0
  0
VERTEX
  5
D35
  8
0
 10
303.4712633166843
 20
76.44288153663177
 30
0.0
  0
VERTEX
  5
D36
  8
0
 10
303.4712633166843
 20
76.44288153663177
 30
0.0
  0
VERTEX
  5
D37
  8
0
 10
303.4712633166843
 20
76.44288153663177
 30
0.0
  0
VERTEX
  5
D38
  8
0
 10
303.4712633166843
 20
76.44288153663177
 30
0.0
  0
VERTEX
  5
D39
  8
0
 10
303.4712633166843
 20
76.44288153663177
 30
0.0
  0
VERTEX
  5
D3A
  8
0
 10
303.4712633166843
 20
76.44288153663177
 30
0.0
  0
VERTEX
  5
D3B
  8
0
 10
303.4595558172349
 20
57.94354078915177
 30
0.0
  0
VERTEX
  5
D3C
  8
0
 10
300.5686178940989
 20
57.945369318215
 30
0.0
  0
VERTEX
  5
D3D
  8
0
 10
300.5594695243924
 20
43.48162933640378
 30
0.0
  0
VERTEX
  5
D3E
  8
0
 10
303.4504022895419
 20
43.47980081060302
 30
0.0
  0
VERTEX
  5
D3F
  8
0
 10
303.4412487618492
 20
29.01606083270337
 30
0.0
  0
VERTEX
  5
D40
  8
0
 10
300.5503211546858
 20
29.01788935459251
 30
0.0
  0
VERTEX
  5
D41
  8
0
 10
300.5411727849793
 20
14.55414937278118
 30
0.0
  0
VERTEX
  5
D42
  8
0
 10
303.4320952341558
 20
14.55232085350525
 30
0.0
  0
VERTEX
  5
D43
  8
0
 10
303.4262369759399
 20
0.0885787906865403
 30
0.0
  0
VERTEX
  5
D44
  8
0
 10
314.9957643970841
 20
0.0812610212639697
 30
0.0
  0
VERTEX
  5
D45
  8
0
 10
314.9975940710253
 20
2.974009017626202
 30
0.0
  0
VERTEX
  5
D46
  8
0
 10
329.4613340528364
 20
2.964860647920375
 30
0.0
  0
VERTEX
  5
D47
  8
0
 10
329.4595043788953
 20
0.0721126515581432
 30
0.0
  0
VERTEX
  5
D48
  8
0
 10
343.9232443607066
 20
0.0629642818523166
 30
0.0
  0
VERTEX
  5
D49
  8
0
 10
343.9250740346477
 20
2.955712278214548
 30
0.0
  0
VERTEX
  5
D4A
  8
0
 10
358.388814016459
 20
2.946563908508494
 30
0.0
  0
VERTEX
  5
D4B
  8
0
 10
358.3869843425179
 20
0.0538159121462627
 30
0.0
  0
VERTEX
  5
D4C
  8
0
 10
372.8507243243291
 20
0.0446675424404361
 30
0.0
  0
VERTEX
  5
D4D
  8
0
 10
372.8525539982703
 20
2.937415538802668
 30
0.0
  0
VERTEX
  5
D4E
  8
0
 10
387.3162939800815
 20
2.928267169096841
 30
0.0
  0
VERTEX
  5
D4F
  8
0
 10
387.3144643061403
 20
0.0355191727346096
 30
0.0
  0
VERTEX
  5
D50
  8
0
 10
387.3144643061403
 20
0.0355191727346096
 30
0.0
  0
VERTEX
  5
D51
  8
0
 10
401.7782042879517
 20
0.0263708030285557
 30
0.0
  0
VERTEX
  5
D52
  8
0
 10
401.7800339618927
 20
2.919118799390787
 30
0.0
  0
VERTEX
  5
D53
  8
0
 10
416.2437739437041
 20
2.909970429684961
 30
0.0
  0
VERTEX
  5
D54
  8
0
 10
416.2419442697629
 20
0.0172224333225017
 30
0.0
  0
VERTEX
  5
D55
  8
0
 10
430.7056842515741
 20
0.0080740636169025
 30
0.0
  0
VERTEX
  5
D56
  8
0
 10
430.7075139255154
 20
2.900822059979134
 30
0.0
  0
VERTEX
  5
D57
  8
0
 10
445.1712539073264
 20
2.89167369027308
 30
0.0
  0
SEQEND
  5
E68
  8
0
  0
POLYLINE
  5
A05
  8
0
 66
     1
 10
0.0
 20
0.0
 30
0.0
  0
VERTEX
  5
D58
  8
0
 10
368.8535348237326
 20
150.7346004563687
 30
0.0
  0
VERTEX
  5
D59
  8
0
 10
368.8535348237326
 20
150.7346004563687
 30
0.0
  0
VERTEX
  5
D5A
  8
0
 10
368.8535348237326
 20
150.7346004563687
 30
0.0
  0
VERTEX
  5
D5B
  8
0
 10
300.6600624950911
 20
218.9705219766162
 30
0.0
  0
VERTEX
  5
D5C
  8
0
 10
300.6600624950911
 20
218.9705219766162
 30
0.0
  0
VERTEX
  5
D5D
  8
0
 10
300.6600624950934
 20
234.5796195470109
 30
0.0
  0
VERTEX
  5
D5E
  8
0
 10
303.5528110700914
 20
234.579619547011
 30
0.0
  0
VERTEX
  5
D5F
  8
0
 10
303.5528110700914
 20
249.0433624220109
 30
0.0
  0
VERTEX
  5
D60
  8
0
 10
300.6600624950929
 20
249.0433624220108
 30
0.0
  0
VERTEX
  5
D61
  8
0
 10
300.6600624950922
 20
263.5071052970108
 30
0.0
  0
VERTEX
  5
D62
  8
0
 10
303.5528110700914
 20
263.5071052970109
 30
0.0
  0
VERTEX
  5
D63
  8
0
 10
303.5528110700914
 20
277.9708481720109
 30
0.0
  0
VERTEX
  5
D64
  8
0
 10
300.6600624950918
 20
277.9708481720108
 30
0.0
  0
VERTEX
  5
D65
  8
0
 10
300.6600624950911
 20
289.5418424720108
 30
0.0
  0
VERTEX
  5
D66
  8
0
 10
315.1238053700913
 20
289.5418424720108
 30
0.0
  0
VERTEX
  5
D67
  8
0
 10
315.1238053700913
 20
292.4345910470109
 30
0.0
  0
VERTEX
  5
D68
  8
0
 10
329.5875482450913
 20
292.4345910470109
 30
0.0
  0
VERTEX
  5
D69
  8
0
 10
329.5875482450913
 20
289.5418424720108
 30
0.0
  0
VERTEX
  5
D6A
  8
0
 10
344.0512911200913
 20
289.5418424720108
 30
0.0
  0
VERTEX
  5
D6B
  8
0
 10
344.0512911200913
 20
292.4345910470109
 30
0.0
  0
VERTEX
  5
D6C
  8
0
 10
358.5150339950914
 20
292.4345910470109
 30
0.0
  0
VERTEX
  5
D6D
  8
0
 10
358.5150339950914
 20
289.5418424720108
 30
0.0
  0
VERTEX
  5
D6E
  8
0
 10
372.9787768700912
 20
289.5418424720108
 30
0.0
  0
VERTEX
  5
D6F
  8
0
 10
372.9787768700912
 20
292.4345910470109
 30
0.0
  0
VERTEX
  5
D70
  8
0
 10
387.4425197450912
 20
292.4345910470109
 30
0.0
  0
VERTEX
  5
D71
  8
0
 10
387.4425197450912
 20
289.5418424720108
 30
0.0
  0
VERTEX
  5
D72
  8
0
 10
401.9062626200913
 20
289.5418424720108
 30
0.0
  0
VERTEX
  5
D73
  8
0
 10
401.9062626200913
 20
292.4345910470109
 30
0.0
  0
VERTEX
  5
D74
  8
0
 10
401.9062626200913
 20
292.4345910470109
 30
0.0
  0
VERTEX
  5
D75
  8
0
 10
416.3700054950913
 20
292.4345910470109
 30
0.0
  0
VERTEX
  5
D76
  8
0
 10
416.3700054950913
 20
289.5418424720108
 30
0.0
  0
VERTEX
  5
D77
  8
0
 10
430.8337483700911
 20
289.5418424720108
 30
0.0
  0
VERTEX
  5
D78
  8
0
 10
430.8337483700911
 20
292.4345910470109
 30
0.0
  0
VERTEX
  5
D79
  8
0
 10
442.4047426700913
 20
292.4345910470109
 30
0.0
  0
SEQEND
  5
E69
  8
0
  0
POLYLINE
  5
A06
  8
0
 66
     1
 10
0.0
 20
0.0
 30
0.0
  0
VERTEX
  5
D7A
  8
0
 10
368.8535348237326
 20
150.7346004563687
 30
0.0
  0
VERTEX
  5
D7B
  8
0
 10
368.8535348237326
 20
150.7346004563687
 30
0.0
  0
VERTEX
  5
D7C
  8
0
 10
368.8535348237326
 20
150.7346004563687
 30
0.0
  0
VERTEX
  5
D7D
  8
0
 10
368.8535348237326
 20
150.7346004563687
 30
0.0
  0
VERTEX
  5
D7E
  8
0
 10
368.8535348237326
 20
150.7346004563687
 30
0.0
  0
VERTEX
  5
D7F
  8
0
 10
368.8535348237326
 20
150.7346004563687
 30
0.0
  0
VERTEX
  5
D80
  8
0
 10
387.3528755712126
 20
150.7228929569193
 30
0.0
  0
VERTEX
  5
D81
  8
0
 10
387.3510470421494
 20
147.8319550337833
 30
0.0
  0
VERTEX
  5
D82
  8
0
 10
401.8147870239607
 20
147.8228066640768
 30
0.0
  0
VERTEX
  5
D83
  8
0
 10
401.8166155497614
 20
150.7137394292263
 30
0.0
  0
VERTEX
  5
D84
  8
0
 10
416.2803555276611
 20
150.7045859015337
 30
0.0
  0
VERTEX
  5
D85
  8
0
 10
416.2785270057719
 20
147.8136582943702
 30
0.0
  0
VERTEX
  5
D86
  8
0
 10
430.7422669875832
 20
147.8045099246637
 30
0.0
  0
VERTEX
  5
D87
  8
0
 10
430.7440955068591
 20
150.6954323738402
 30
0.0
  0
VERTEX
  5
D88
  8
0
 10
445.2078375696778
 20
150.6895741156243
 30
0.0
  0
VERTEX
  5
D89
  8
0
 10
445.2151553391004
 20
162.2591015367686
 30
0.0
  0
VERTEX
  5
D8A
  8
0
 10
442.3224073427382
 20
162.2609312107098
 30
0.0
  0
VERTEX
  5
D8B
  8
0
 10
442.331555712444
 20
176.7246711925208
 30
0.0
  0
VERTEX
  5
D8C
  8
0
 10
445.2243037088062
 20
176.7228415185797
 30
0.0
  0
VERTEX
  5
D8D
  8
0
 10
445.2334520785121
 20
191.186581500391
 30
0.0
  0
VERTEX
  5
D8E
  8
0
 10
442.3407040821498
 20
191.1884111743321
 30
0.0
  0
VERTEX
  5
D8F
  8
0
 10
442.3498524518559
 20
205.6521511561435
 30
0.0
  0
VERTEX
  5
D90
  8
0
 10
445.2426004482181
 20
205.6503214822023
 30
0.0
  0
VERTEX
  5
D91
  8
0
 10
445.251748817924
 20
220.1140614640136
 30
0.0
  0
VERTEX
  5
D92
  8
0
 10
442.3590008215617
 20
220.1158911379547
 30
0.0
  0
VERTEX
  5
D93
  8
0
 10
442.3681491912675
 20
234.5796311197659
 30
0.0
  0
VERTEX
  5
D94
  8
0
 10
445.2608971876298
 20
234.5778014458248
 30
0.0
  0
VERTEX
  5
D95
  8
0
 10
445.2608971876298
 20
234.5778014458248
 30
0.0
  0
VERTEX
  5
D96
  8
0
 10
445.2700455573358
 20
249.0415414276361
 30
0.0
  0
VERTEX
  5
D97
  8
0
 10
442.3772975609736
 20
249.0433711015772
 30
0.0
  0
VERTEX
  5
D98
  8
0
 10
442.3864459306794
 20
263.5071110833886
 30
0.0
  0
VERTEX
  5
D99
  8
0
 10
445.2791939270419
 20
263.5052814094473
 30
0.0
  0
VERTEX
  5
D9A
  8
0
 10
445.2883422967475
 20
277.9690213912585
 30
0.0
  0
VERTEX
  5
D9B
  8
0
 10
442.3955943003853
 20
277.9708510651998
 30
0.0
  0
VERTEX
  5
D9C
  8
0
 10
442.4047426700913
 20
292.4345910470109
 30
0.0
  0
SEQEND
  5
E6A
  8
0
  0
POLYLINE
  5
A07
  8
TALL_1
 66
     1
 10
0.0
 20
0.0
 30
0.0
  0
VERTEX
  5
D9D
  8
TALL_1
 10
378.0304411483306
 20
178.1420509449896
 30
0.0
  0
VERTEX
  5
D9E
  8
TALL_1
 10
375.9830024748715
 20
176.0985272244064
 30
0.0
  0
VERTEX
  5
D9F
  8
TALL_1
 10
367.3956341988902
 20
184.7023470550194
 30
0.0
  0
VERTEX
  5
DA0
  8
TALL_1
 10
369.4430728723501
 20
186.7458707756028
 30
0.0
  0
VERTEX
  5
DA1
  8
TALL_1
 10
378.0304411483306
 20
178.1420509449896
 30
0.0
  0
SEQEND
  5
E6B
  8
TALL_1
  0
POLYLINE
  5
A08
  8
TALL_1
 66
     1
 10
0.0
 20
0.0
 30
0.0
  0
VERTEX
  5
DA2
  8
TALL_1
 10
357.704119347032
 20
198.3614780574975
 30
0.0
  0
VERTEX
  5
DA3
  8
TALL_1
 10
355.658637213382
 20
196.3159959238474
 30
0.0
  0
VERTEX
  5
DA4
  8
TALL_1
 10
348.9550235235573
 20
203.0887084432391
 30
0.0
  0
VERTEX
  5
DA5
  8
TALL_1
 10
351.0005056572078
 20
205.1341905768892
 30
0.0
  0
VERTEX
  5
DA6
  8
TALL_1
 10
357.704119347032
 20
198.3614780574975
 30
0.0
  0
SEQEND
  5
E6C
  8
TALL_1
  0
POLYLINE
  5
A09
  8
TALL_1
 66
     1
 10
0.0
 20
0.0
 30
0.0
  0
VERTEX
  5
DA7
  8
TALL_1
 10
330.7691993297769
 20
225.4485422792437
 30
0.0
  0
VERTEX
  5
DA8
  8
TALL_1
 10
328.7237171961267
 20
223.4030601455939
 30
0.0
  0
VERTEX
  5
DA9
  8
TALL_1
 10
337.3193151853583
 20
214.8074621563613
 30
0.0
  0
VERTEX
  5
DAA
  8
TALL_1
 10
339.3647973190085
 20
216.8529442900117
 30
0.0
  0
VERTEX
  5
DAB
  8
TALL_1
 10
330.7691993297769
 20
225.4485422792437
 30
0.0
  0
SEQEND
  5
E6D
  8
TALL_1
  0
INSERT
  5
A0A
  8
GRAVAT
  2
*U2
 10
0.0
 20
0.0
 30
0.0
  0
POLYLINE
  5
A0B
  8
GRAVAT
 66
     1
 10
0.0
 20
0.0
 30
0.0
  0
VERTEX
  5
DC5
  8
GRAVAT
 10
257.7658866612418
 20
108.050608258422
 30
0.0
  0
VERTEX
  5
DC6
  8
GRAVAT
 10
250.7941856851415
 20
101.0476775087444
 30
0.0
  0
VERTEX
  5
DC7
  8
GRAVAT
 10
248.6681300350641
 20
103.1642519517475
 30
0.0
  0
VERTEX
  5
DC8
  8
GRAVAT
 10
255.6398310111644
 20
110.1671827014251
 30
0.0
  0
VERTEX
  5
DC9
  8
GRAVAT
 10
257.7658866612418
 20
108.050608258422
 30
0.0
  0
SEQEND
  5
E6E
  8
GRAVAT
  0
POLYLINE
  5
A0C
  8
TALL_1
 66
     1
 10
0.0
 20
0.0
 30
0.0
  0
VERTEX
  5
DCA
  8
TALL_1
 10
340.8109778318677
 20
141.9642869083009
 30
0.0
  0
VERTEX
  5
DCB
  8
TALL_1
 10
340.8109778318677
 20
144.964286908301
 30
0.0
  0
VERTEX
  5
DCC
  8
TALL_1
 10
350.2575969727048
 20
154.057384615955
 30
0.0
  0
VERTEX
  5
DCD
  8
TALL_1
 10
354.5026809250132
 20
154.057384615955
 30
0.0
  0
VERTEX
  5
DCE
  8
TALL_1
 10
349.3404929978539
 20
146.6850162173541
 30
0.0
  0
VERTEX
  5
DCF
  8
TALL_1
 10
349.3404929978539
 20
141.9642869083009
 30
0.0
  0
VERTEX
  5
DD0
  8
TALL_1
 10
340.8109778318677
 20
141.9642869083009
 30
0.0
  0
SEQEND
  5
E6F
  8
TALL_1
  0
POLYLINE
  5
A0D
  8
GRAVAT
 66
     1
 10
0.0
 20
0.0
 30
0.0
  0
VERTEX
  5
DD1
  8
GRAVAT
 10
337.1121345086682
 20
110.0685165930736
 30
0.0
  0
VERTEX
  5
DD2
  8
GRAVAT
 10
344.1150652583459
 20
103.0968156169733
 30
0.0
  0
VERTEX
  5
DD3
  8
GRAVAT
 10
341.9984908153427
 20
100.9707599668959
 30
0.0
  0
VERTEX
  5
DD4
  8
GRAVAT
 10
334.9955600656651
 20
107.9424609429962
 30
0.0
  0
VERTEX
  5
DD5
  8
GRAVAT
 10
337.1121345086682
 20
110.0685165930736
 30
0.0
  0
SEQEND
  5
E70
  8
GRAVAT
  0
POLYLINE
  5
A0E
  8
GRAVAT
 66
     1
 10
0.0
 20
0.0
 30
0.0
  0
VERTEX
  5
DD6
  8
GRAVAT
 10
335.2201112497372
 20
184.3648962471491
 30
0.0
  0
VERTEX
  5
DD7
  8
GRAVAT
 10
342.1918122258376
 20
191.3678269968268
 30
0.0
  0
VERTEX
  5
DD8
  8
GRAVAT
 10
344.317867875915
 20
189.2512525538237
 30
0.0
  0
VERTEX
  5
DD9
  8
GRAVAT
 10
337.3461668998146
 20
182.248321804146
 30
0.0
  0
VERTEX
  5
DDA
  8
GRAVAT
 10
335.2201112497372
 20
184.3648962471491
 30
0.0
  0
SEQEND
  5
E71
  8
GRAVAT
  0
POLYLINE
  5
A0F
  8
0
 66
     1
 10
0.0
 20
0.0
 30
0.0
 70
     1
  0
VERTEX
  5
DDB
  8
0
 10
233.4080015727697
 20
155.7488633220886
 30
0.0
  0
VERTEX
  5
DDC
  8
0
 10
307.2491174375871
 20
84.19155054701127
 30
0.0
  0
VERTEX
  5
DDD
  8
0
 10
332.2990101949443
 20
183.9184891172722
 30
0.0
  0
SEQEND
  5
E72
  8
0
  0
INSERT
  5
A10
  8
GRAVAT
  2
*U3
 10
0.0
 20
0.0
 30
0.0
  0
LINE
  5
A11
  8
GRAVAT
 10
331.5618358258253
 20
183.1577872981048
 30
0.0
 11
306.9564064170786
 21
85.38556002252872
 31
0.0
  0
LINE
  5
A12
  8
GRAVAT
 10
330.1689272482625
 20
181.7204230417334
 30
0.0
 11
306.4091345531826
 21
87.30842100700549
 31
0.0
  0
POLYLINE
  5
A13
  8
TALL_1
 66
     1
 10
0.0
 20
0.0
 30
0.0
  0
VERTEX
  5
DED
  8
TALL_1
 10
308.7434771042186
 20
135.2772858268873
 30
0.0
  0
VERTEX
  5
DEE
  8
TALL_1
 10
309.4736768936314
 20
138.1870638712651
 30
0.0
  0
VERTEX
  5
DEF
  8
TALL_1
 10
317.7505017916853
 20
136.1100202942673
 30
0.0
  0
VERTEX
  5
DF0
  8
TALL_1
 10
317.0164757572761
 20
133.2012024342232
 30
0.0
  0
VERTEX
  5
DF1
  8
TALL_1
 10
308.7434771042186
 20
135.2772858268873
 30
0.0
  0
SEQEND
  5
E73
  8
TALL_1
  0
POLYLINE
  5
A14
  8
TALL_1
 66
     1
 10
0.0
 20
0.0
 30
0.0
  0
VERTEX
  5
DF2
  8
TALL_1
 10
279.0593224743243
 20
126.8215976948624
 30
0.0
  0
VERTEX
  5
DF3
  8
TALL_1
 10
276.9054151610098
 20
128.9098226074742
 30
0.0
  0
VERTEX
  5
DF4
  8
TALL_1
 10
270.9654872057359
 20
122.783061938087
 30
0.0
  0
VERTEX
  5
DF5
  8
TALL_1
 10
273.12214045362
 20
120.6976693298491
 30
0.0
  0
VERTEX
  5
DF6
  8
TALL_1
 10
279.0593224743243
 20
126.8215976948624
 30
0.0
  0
SEQEND
  5
E74
  8
TALL_1
  0
POLYLINE
  5
A15
  8
TALL_1
 66
     1
 10
0.0
 20
0.0
 30
0.0
  0
VERTEX
  5
DF7
  8
TALL_1
 10
287.3102858382491
 20
159.6697749110276
 30
0.0
  0
VERTEX
  5
DF8
  8
TALL_1
 10
284.4252442377371
 20
158.8472574563081
 30
0.0
  0
VERTEX
  5
DF9
  8
TALL_1
 10
282.0856042911576
 20
167.0537198691972
 30
0.0
  0
VERTEX
  5
DFA
  8
TALL_1
 10
284.9717274701422
 20
167.8724436063817
 30
0.0
  0
VERTEX
  5
DFB
  8
TALL_1
 10
287.3102858382491
 20
159.6697749110276
 30
0.0
  0
SEQEND
  5
E75
  8
TALL_1
  0
POLYLINE
  5
A16
  8
TALL_1
 66
     1
 10
0.0
 20
0.0
 30
0.0
  0
VERTEX
  5
DFC
  8
TALL_1
 10
241.891026148223
 20
206.5344765282296
 30
0.0
  0
VERTEX
  5
DFD
  8
TALL_1
 10
243.8136865532263
 20
206.2477376614688
 30
0.0
  0
VERTEX
  5
DFE
  8
TALL_1
 10
245.4650504752574
 20
206.0900393398537
 30
0.0
  0
VERTEX
  5
DFF
  8
TALL_1
 10
246.785594686865
 20
206.0670657817088
 30
0.0
  0
VERTEX
  5
E00
  8
TALL_1
 10
247.7277203199748
 20
206.1796450663622
 30
0.0
  0
VERTEX
  5
E01
  8
TALL_1
 10
248.2574685617537
 20
206.4237192861188
 30
0.0
  0
VERTEX
  5
E02
  8
TALL_1
 10
248.3557446962119
 20
206.790490813088
 30
0.0
  0
VERTEX
  5
E03
  8
TALL_1
 10
248.0190063710994
 20
207.2667394086955
 30
0.0
  0
VERTEX
  5
E04
  8
TALL_1
 10
247.2593912815966
 20
207.8352987457001
 30
0.0
  0
VERTEX
  5
E05
  8
TALL_1
 10
246.1042796684516
 20
208.4756751665352
 30
0.0
  0
VERTEX
  5
E06
  8
TALL_1
 10
244.595307400272
 20
209.1647863748979
 30
0.0
  0
VERTEX
  5
E07
  8
TALL_1
 10
242.7868652133083
 20
209.8777934345323
 30
0.0
  0
SEQEND
  5
E76
  8
TALL_1
  0
POLYLINE
  5
A17
  8
0
 66
     1
 10
0.0
 20
0.0
 30
0.0
  0
VERTEX
  5
E08
  8
0
 10
196.6385772189157
 20
170.6125817983552
 30
0.0
  0
VERTEX
  5
E09
  8
0
 10
205.9348284318004
 20
161.2659827749861
 30
0.0
  0
VERTEX
  5
E0A
  8
0
 10
213.9029674463686
 20
163.4136850785463
 30
0.0
  0
VERTEX
  5
E0B
  8
0
 10
215.0723927065711
 20
158.9511412897252
 30
0.0
  0
VERTEX
  5
E0C
  8
0
 10
226.8453344782627
 20
161.9787561307088
 30
0.0
  0
VERTEX
  5
E0D
  8
0
 10
225.6759092180608
 20
166.4412999195296
 30
0.0
  0
VERTEX
  5
E0E
  8
0
 10
241.6549773860875
 20
170.6112252908031
 30
0.0
  0
VERTEX
  5
E0F
  8
0
 10
242.8073463180082
 20
166.2137686985938
 30
0.0
  0
VERTEX
  5
E10
  8
0
 10
252.0240872192244
 20
168.6344625108256
 30
0.0
  0
VERTEX
  5
E11
  8
0
 10
250.871718287304
 20
173.0319191030346
 30
0.0
  0
VERTEX
  5
E12
  8
0
 10
266.8845218704872
 20
177.0598291929751
 30
0.0
  0
VERTEX
  5
E13
  8
0
 10
267.9980574616176
 20
172.8105611936074
 30
0.0
  0
VERTEX
  5
E14
  8
0
 10
279.7545026904066
 20
175.9013151990042
 30
0.0
  0
VERTEX
  5
E15
  8
0
 10
278.6545608978855
 20
180.0987090653138
 30
0.0
  0
VERTEX
  5
E16
  8
0
 10
286.5856679274599
 20
182.4008182916731
 30
0.0
  0
VERTEX
  5
E17
  8
0
 10
290.0704516643668
 20
195.1254016111947
 30
0.0
  0
SEQEND
  5
E77
  8
0
  0
POLYLINE
  5
A18
  8
0
 66
     1
 10
0.0
 20
0.0
 30
0.0
  0
VERTEX
  5
E18
  8
0
 10
196.680581206484
 20
170.5701596438743
 30
0.0
  0
VERTEX
  5
E19
  8
0
 10
187.4265281037112
 20
179.9585408189102
 30
0.0
  0
VERTEX
  5
E1A
  8
0
 10
189.6530562792874
 20
187.905014050701
 30
0.0
  0
VERTEX
  5
E1B
  8
0
 10
185.2023156012875
 20
189.1185872555563
 30
0.0
  0
VERTEX
  5
E1C
  8
0
 10
188.3464029749093
 20
200.8609602768845
 30
0.0
  0
VERTEX
  5
E1D
  8
0
 10
192.7971436529088
 20
199.6473870720298
 30
0.0
  0
VERTEX
  5
E1E
  8
0
 10
197.1251507977593
 20
215.5843645544309
 30
0.0
  0
VERTEX
  5
E1F
  8
0
 10
192.739325165367
 20
216.7802375233836
 30
0.0
  0
VERTEX
  5
E20
  8
0
 10
195.2511999275071
 20
225.9725471652556
 30
0.0
  0
VERTEX
  5
E21
  8
0
 10
199.637025559899
 20
224.7766741963032
 30
0.0
  0
VERTEX
  5
E22
  8
0
 10
203.8233585694892
 20
240.7487922217582
 30
0.0
  0
VERTEX
  5
E23
  8
0
 10
199.5853295816538
 20
241.9043658202065
 30
0.0
  0
VERTEX
  5
E24
  8
0
 10
202.7923896094172
 20
253.6296176604748
 30
0.0
  0
VERTEX
  5
E25
  8
0
 10
206.9786816675857
 20
252.4881510514218
 30
0.0
  0
VERTEX
  5
E26
  8
0
 10
209.359242356552
 20
260.396064582234
 30
0.0
  0
VERTEX
  5
E27
  8
0
 10
222.1177211245949
 20
263.7546294355394
 30
0.0
  0
SEQEND
  5
E78
  8
0
  0
POLYLINE
  5
A19
  8
TALL_1
 66
     1
 10
0.0
 20
0.0
 30
0.0
  0
VERTEX
  5
E28
  8
TALL_1
 10
326.0134311209879
 20
141.9642869083009
 30
0.0
  0
VERTEX
  5
E29
  8
TALL_1
 10
326.0134311209879
 20
144.964286908301
 30
0.0
  0
VERTEX
  5
E2A
  8
TALL_1
 10
335.460050261825
 20
154.057384615955
 30
0.0
  0
VERTEX
  5
E2B
  8
TALL_1
 10
339.7051342141334
 20
154.057384615955
 30
0.0
  0
VERTEX
  5
E2C
  8
TALL_1
 10
334.542946286974
 20
146.6850162173541
 30
0.0
  0
VERTEX
  5
E2D
  8
TALL_1
 10
334.542946286974
 20
141.9642869083009
 30
0.0
  0
VERTEX
  5
E2E
  8
TALL_1
 10
326.0134311209879
 20
141.9642869083009
 30
0.0
  0
SEQEND
  5
E79
  8
TALL_1
  0
POLYLINE
  5
A1A
  8
TALL_1
 66
     1
 10
0.0
 20
0.0
 30
0.0
  0
VERTEX
  5
E2F
  8
TALL_1
 10
340.8109778318677
 20
127.3162103662179
 30
0.0
  0
VERTEX
  5
E30
  8
TALL_1
 10
340.8109778318677
 20
130.3162103662179
 30
0.0
  0
VERTEX
  5
E31
  8
TALL_1
 10
350.2575969727048
 20
139.409308073872
 30
0.0
  0
VERTEX
  5
E32
  8
TALL_1
 10
354.5026809250132
 20
139.409308073872
 30
0.0
  0
VERTEX
  5
E33
  8
TALL_1
 10
349.3404929978539
 20
132.0369396752711
 30
0.0
  0
VERTEX
  5
E34
  8
TALL_1
 10
349.3404929978539
 20
127.3162103662179
 30
0.0
  0
VERTEX
  5
E35
  8
TALL_1
 10
340.8109778318677
 20
127.3162103662179
 30
0.0
  0
SEQEND
  5
E7A
  8
TALL_1
  0
POLYLINE
  5
A1B
  8
TALL_1
 66
     1
 10
0.0
 20
0.0
 30
0.0
  0
VERTEX
  5
E36
  8
TALL_1
 10
258.9440052577512
 20
262.8712638198393
 30
0.0
  0
VERTEX
  5
E37
  8
TALL_1
 10
258.9440052577512
 20
265.8712638198393
 30
0.0
  0
VERTEX
  5
E38
  8
TALL_1
 10
268.3906243985883
 20
274.9643615274933
 30
0.0
  0
VERTEX
  5
E39
  8
TALL_1
 10
272.6357083508967
 20
274.9643615274933
 30
0.0
  0
VERTEX
  5
E3A
  8
TALL_1
 10
267.4735204237373
 20
267.5919931288925
 30
0.0
  0
VERTEX
  5
E3B
  8
TALL_1
 10
267.4735204237373
 20
262.8712638198393
 30
0.0
  0
VERTEX
  5
E3C
  8
TALL_1
 10
258.9440052577512
 20
262.8712638198393
 30
0.0
  0
SEQEND
  5
E7B
  8
TALL_1
  0
POLYLINE
  5
A1C
  8
TALL_1
 66
     1
 10
0.0
 20
0.0
 30
0.0
  0
VERTEX
  5
E3D
  8
TALL_1
 10
275.1845621979591
 20
262.8712638198393
 30
0.0
  0
VERTEX
  5
E3E
  8
TALL_1
 10
275.1845621979591
 20
265.8712638198393
 30
0.0
  0
VERTEX
  5
E3F
  8
TALL_1
 10
284.6311813387962
 20
274.9643615274933
 30
0.0
  0
VERTEX
  5
E40
  8
TALL_1
 10
288.8762652911046
 20
274.9643615274933
 30
0.0
  0
VERTEX
  5
E41
  8
TALL_1
 10
283.7140773639452
 20
267.5919931288925
 30
0.0
  0
VERTEX
  5
E42
  8
TALL_1
 10
283.7140773639452
 20
262.8712638198393
 30
0.0
  0
VERTEX
  5
E43
  8
TALL_1
 10
275.1845621979591
 20
262.8712638198393
 30
0.0
  0
SEQEND
  5
E7C
  8
TALL_1
  0
POLYLINE
  5
A1D
  8
TALL_1
 66
     1
 10
0.0
 20
0.0
 30
0.0
  0
VERTEX
  5
E44
  8
TALL_1
 10
271.3120858464625
 20
244.9083023818782
 30
0.0
  0
VERTEX
  5
E45
  8
TALL_1
 10
271.3120858464625
 20
247.9083023818783
 30
0.0
  0
VERTEX
  5
E46
  8
TALL_1
 10
280.7587049872997
 20
257.0014000895324
 30
0.0
  0
VERTEX
  5
E47
  8
TALL_1
 10
285.0037889396081
 20
257.0014000895324
 30
0.0
  0
VERTEX
  5
E48
  8
TALL_1
 10
279.8416010124487
 20
249.6290316909314
 30
0.0
  0
VERTEX
  5
E49
  8
TALL_1
 10
279.8416010124487
 20
244.9083023818782
 30
0.0
  0
VERTEX
  5
E4A
  8
TALL_1
 10
271.3120858464625
 20
244.9083023818782
 30
0.0
  0
SEQEND
  5
E7D
  8
TALL_1
  0
ARC
  5
A1E
  8
TALL_1
 10
236.2870579859258
 20
209.8277334018971
 30
0.0
 40
6.499999999999996
 50
0.4412702995941545
 51
149.5587297004117
  0
POLYLINE
  5
A1F
  8
TALL_1
 66
     1
 10
0.0
 20
0.0
 30
0.0
  0
VERTEX
  5
E4B
  8
TALL_1
 10
230.6830898236286
 20
213.1209902755647
 30
0.0
  0
VERTEX
  5
E4C
  8
TALL_1
 10
228.7604294186253
 20
213.4077291423255
 30
0.0
  0
VERTEX
  5
E4D
  8
TALL_1
 10
227.1090654965942
 20
213.5654274639406
 30
0.0
  0
VERTEX
  5
E4E
  8
TALL_1
 10
225.7885212849866
 20
213.5884010220854
 30
0.0
  0
VERTEX
  5
E4F
  8
TALL_1
 10
224.8463956518768
 20
213.475821737432
 30
0.0
  0
VERTEX
  5
E50
  8
TALL_1
 10
224.3166474100979
 20
213.2317475176754
 30
0.0
  0
VERTEX
  5
E51
  8
TALL_1
 10
224.2183712756397
 20
212.8649759907062
 30
0.0
  0
VERTEX
  5
E52
  8
TALL_1
 10
224.5551096007522
 20
212.3887273950987
 30
0.0
  0
VERTEX
  5
E53
  8
TALL_1
 10
225.314724690255
 20
211.8201680580941
 30
0.0
  0
VERTEX
  5
E54
  8
TALL_1
 10
226.4698363034001
 20
211.179791637259
 30
0.0
  0
VERTEX
  5
E55
  8
TALL_1
 10
227.9788085715797
 20
210.4906804288963
 30
0.0
  0
VERTEX
  5
E56
  8
TALL_1
 10
229.7872507585435
 20
209.7776733692619
 30
0.0
  0
SEQEND
  5
E7E
  8
TALL_1
  0
ARC
  5
A20
  8
TALL_1
 10
236.2870579859258
 20
209.8277334018971
 30
0.0
 40
6.499999999999996
 50
180.4412702995941
 51
329.5587297004299
  0
ENDSEC
  0
EOF
