  0
SECTION
  2
BLOCKS
  0
ENDSEC
  0
SECTION
  2
ENTITIES
  0
LINE
  8
0
 10
-1587.500000
 11
-1587.500000
 20
0.000000
 21
1212.500000
  0
LINE
  8
0
 10
-1587.500000
 11
-1400.000000
 20
1212.500000
 21
1212.500000
  0
LINE
  8
0
 10
-1400.000000
 11
-1400.000000
 20
1212.500000
 21
1712.500000
  0
LINE
  8
0
 10
-1400.000000
 11
-1587.500000
 20
1712.500000
 21
1712.500000
  0
LINE
  8
0
 10
-1587.500000
 11
-1587.500000
 20
1712.500000
 21
4137.500000
  0
LINE
  8
0
 10
-1587.500000
 11
-1400.000000
 20
4137.500000
 21
4137.500000
  0
LINE
  8
0
 10
-1400.000000
 11
-1400.000000
 20
4137.500000
 21
4637.500000
  0
LINE
  8
0
 10
-1400.000000
 11
-1587.500000
 20
4637.500000
 21
4637.500000
  0
LINE
  8
0
 10
-1587.500000
 11
-1587.500000
 20
4637.500000
 21
5850.000000
  0
LINE
  8
0
 10
-1587.500000
 11
-1552.809000
 20
5850.000000
 21
6180.060000
  0
LINE
  8
0
 10
-1552.809000
 11
-1450.253000
 20
6180.060000
 21
6495.694000
  0
LINE
  8
0
 10
-1450.253000
 11
-1284.314000
 20
6495.694000
 21
6783.109000
  0
LINE
  8
0
 10
-1284.314000
 11
-1062.245000
 20
6783.109000
 21
7029.742000
  0
LINE
  8
0
 10
-1062.245000
 11
-793.750000
 20
7029.742000
 21
7224.815000
  0
LINE
  8
0
 10
-793.750000
 11
-490.564000
 20
7224.815000
 21
7359.802000
  0
LINE
  8
0
 10
-490.564000
 11
-165.939000
 20
7359.802000
 21
7428.804000
  0
LINE
  8
0
 10
-165.939000
 11
0.000000
 20
7428.804000
 21
7428.804000
  0
LINE
  8
0
 10
0.000000
 11
0.000000
 20
7428.804000
 21
7437.500000
  0
LINE
  8
0
 10
0.000000
 11
3175.000000
 20
7437.500000
 21
7437.500000
  0
LINE
  8
0
 10
3175.000000
 11
3175.000000
 20
7437.500000
 21
7428.804000
  0
LINE
  8
0
 10
3175.000000
 11
3340.939000
 20
7428.804000
 21
7428.804000
  0
LINE
  8
0
 10
3340.939000
 11
3665.564000
 20
7428.804000
 21
7359.802000
  0
LINE
  8
0
 10
3665.564000
 11
3968.750000
 20
7359.802000
 21
7224.815000
  0
LINE
  8
0
 10
3968.750000
 11
4237.245000
 20
7224.815000
 21
7029.742000
  0
LINE
  8
0
 10
4237.245000
 11
4459.314000
 20
7029.742000
 21
6783.109000
  0
LINE
  8
0
 10
4459.314000
 11
4625.253000
 20
6783.109000
 21
6495.694000
  0
LINE
  8
0
 10
4625.253000
 11
4727.809000
 20
6495.694000
 21
6180.060000
  0
LINE
  8
0
 10
4727.809000
 11
4762.500000
 20
6180.060000
 21
5850.000000
  0
LINE
  8
0
 10
4762.500000
 11
4762.500000
 20
5850.000000
 21
4637.500000
  0
LINE
  8
0
 10
4762.500000
 11
4575.000000
 20
4637.500000
 21
4637.500000
  0
LINE
  8
0
 10
4575.000000
 11
4575.000000
 20
4637.500000
 21
4137.500000
  0
LINE
  8
0
 10
4575.000000
 11
4762.500000
 20
4137.500000
 21
4137.500000
  0
LINE
  8
0
 10
4762.500000
 11
4762.500000
 20
4137.500000
 21
1712.500000
  0
LINE
  8
0
 10
4762.500000
 11
4575.000000
 20
1712.500000
 21
1712.500000
  0
LINE
  8
0
 10
4575.000000
 11
4575.000000
 20
1712.500000
 21
1212.500000
  0
LINE
  8
0
 10
4575.000000
 11
4762.500000
 20
1212.500000
 21
1212.500000
  0
LINE
  8
0
 10
4762.500000
 11
4762.500000
 20
1212.500000
 21
0.000000
  0
LINE
  8
0
 10
4762.500000
 11
4727.809000
 20
0.000000
 21
-330.060000
  0
LINE
  8
0
 10
4727.809000
 11
4625.253000
 20
-330.060000
 21
-645.694000
  0
LINE
  8
0
 10
4625.253000
 11
4459.314000
 20
-645.694000
 21
-933.109000
  0
LINE
  8
0
 10
4459.314000
 11
4237.245000
 20
-933.109000
 21
-1179.742000
  0
LINE
  8
0
 10
4237.245000
 11
3968.750000
 20
-1179.742000
 21
-1374.815000
  0
LINE
  8
0
 10
3968.750000
 11
3665.564000
 20
-1374.815000
 21
-1509.802000
  0
LINE
  8
0
 10
3665.564000
 11
3340.939000
 20
-1509.802000
 21
-1578.804000
  0
LINE
  8
0
 10
3340.939000
 11
3175.000000
 20
-1578.804000
 21
-1578.804000
  0
LINE
  8
0
 10
3175.000000
 11
3175.000000
 20
-1578.804000
 21
-1587.500000
  0
LINE
  8
0
 10
3175.000000
 11
0.000000
 20
-1587.500000
 21
-1587.500000
  0
LINE
  8
0
 10
0.000000
 11
0.000000
 20
-1587.500000
 21
-1578.804000
  0
LINE
  8
0
 10
0.000000
 11
-165.939000
 20
-1578.804000
 21
-1578.804000
  0
LINE
  8
0
 10
-165.939000
 11
-490.564000
 20
-1578.804000
 21
-1509.802000
  0
LINE
  8
0
 10
-490.564000
 11
-793.750000
 20
-1509.802000
 21
-1374.815000
  0
LINE
  8
0
 10
-793.750000
 11
-1062.245000
 20
-1374.815000
 21
-1179.742000
  0
LINE
  8
0
 10
-1062.245000
 11
-1284.314000
 20
-1179.742000
 21
-933.109000
  0
LINE
  8
0
 10
-1284.314000
 11
-1450.253000
 20
-933.109000
 21
-645.694000
  0
LINE
  8
0
 10
-1450.253000
 11
-1552.809000
 20
-645.694000
 21
-330.060000
  0
LINE
  8
0
 10
-1552.809000
 11
-1587.500000
 20
-330.060000
 21
0.000000
  0
LINE
  8
0
 10
-1587.500000
 11
-1587.500000
 20
10000.000000
 21
11212.500000
  0
LINE
  8
0
 10
-1587.500000
 11
-1400.000000
 20
11212.500000
 21
11212.500000
  0
LINE
  8
0
 10
-1400.000000
 11
-1400.000000
 20
11212.500000
 21
11712.500000
  0
LINE
  8
0
 10
-1400.000000
 11
-1587.500000
 20
11712.500000
 21
11712.500000
  0
LINE
  8
0
 10
-1587.500000
 11
-1587.500000
 20
11712.500000
 21
14137.500000
  0
LINE
  8
0
 10
-1587.500000
 11
-1400.000000
 20
14137.500000
 21
14137.500000
  0
LINE
  8
0
 10
-1400.000000
 11
-1400.000000
 20
14137.500000
 21
14637.500000
  0
LINE
  8
0
 10
-1400.000000
 11
-1587.500000
 20
14637.500000
 21
14637.500000
  0
LINE
  8
0
 10
-1587.500000
 11
-1587.500000
 20
14637.500000
 21
15850.000000
  0
LINE
  8
0
 10
-1587.500000
 11
-1552.809000
 20
15850.000000
 21
16180.060000
  0
LINE
  8
0
 10
-1552.809000
 11
-1450.253000
 20
16180.060000
 21
16495.694000
  0
LINE
  8
0
 10
-1450.253000
 11
-1284.314000
 20
16495.694000
 21
16783.109000
  0
LINE
  8
0
 10
-1284.314000
 11
-1062.245000
 20
16783.109000
 21
17029.742000
  0
LINE
  8
0
 10
-1062.245000
 11
-793.750000
 20
17029.742000
 21
17224.815000
  0
LINE
  8
0
 10
-793.750000
 11
-490.564000
 20
17224.815000
 21
17359.802000
  0
LINE
  8
0
 10
-490.564000
 11
-165.939000
 20
17359.802000
 21
17428.804000
  0
LINE
  8
0
 10
-165.939000
 11
0.000000
 20
17428.804000
 21
17428.804000
  0
LINE
  8
0
 10
0.000000
 11
0.000000
 20
17428.804000
 21
17437.500000
  0
LINE
  8
0
 10
0.000000
 11
3175.000000
 20
17437.500000
 21
17437.500000
  0
LINE
  8
0
 10
3175.000000
 11
3175.000000
 20
17437.500000
 21
17428.804000
  0
LINE
  8
0
 10
3175.000000
 11
3340.939000
 20
17428.804000
 21
17428.804000
  0
LINE
  8
0
 10
3340.939000
 11
3665.564000
 20
17428.804000
 21
17359.802000
  0
LINE
  8
0
 10
3665.564000
 11
3968.750000
 20
17359.802000
 21
17224.815000
  0
LINE
  8
0
 10
3968.750000
 11
4237.245000
 20
17224.815000
 21
17029.742000
  0
LINE
  8
0
 10
4237.245000
 11
4459.314000
 20
17029.742000
 21
16783.109000
  0
LINE
  8
0
 10
4459.314000
 11
4625.253000
 20
16783.109000
 21
16495.694000
  0
LINE
  8
0
 10
4625.253000
 11
4727.809000
 20
16495.694000
 21
16180.060000
  0
LINE
  8
0
 10
4727.809000
 11
4762.500000
 20
16180.060000
 21
15850.000000
  0
LINE
  8
0
 10
4762.500000
 11
4762.500000
 20
15850.000000
 21
14637.500000
  0
LINE
  8
0
 10
4762.500000
 11
4575.000000
 20
14637.500000
 21
14637.500000
  0
LINE
  8
0
 10
4575.000000
 11
4575.000000
 20
14637.500000
 21
14137.500000
  0
LINE
  8
0
 10
4575.000000
 11
4762.500000
 20
14137.500000
 21
14137.500000
  0
LINE
  8
0
 10
4762.500000
 11
4762.500000
 20
14137.500000
 21
11712.500000
  0
LINE
  8
0
 10
4762.500000
 11
4575.000000
 20
11712.500000
 21
11712.500000
  0
LINE
  8
0
 10
4575.000000
 11
4575.000000
 20
11712.500000
 21
11212.500000
  0
LINE
  8
0
 10
4575.000000
 11
4762.500000
 20
11212.500000
 21
11212.500000
  0
LINE
  8
0
 10
4762.500000
 11
4762.500000
 20
11212.500000
 21
10000.000000
  0
LINE
  8
0
 10
4762.500000
 11
4727.809000
 20
10000.000000
 21
9669.940000
  0
LINE
  8
0
 10
4727.809000
 11
4625.253000
 20
9669.940000
 21
9354.306000
  0
LINE
  8
0
 10
4625.253000
 11
4459.314000
 20
9354.306000
 21
9066.891000
  0
LINE
  8
0
 10
4459.314000
 11
4237.245000
 20
9066.891000
 21
8820.258000
  0
LINE
  8
0
 10
4237.245000
 11
3968.750000
 20
8820.258000
 21
8625.185000
  0
LINE
  8
0
 10
3968.750000
 11
3665.564000
 20
8625.185000
 21
8490.198000
  0
LINE
  8
0
 10
3665.564000
 11
3340.939000
 20
8490.198000
 21
8421.196000
  0
LINE
  8
0
 10
3340.939000
 11
3175.000000
 20
8421.196000
 21
8421.196000
  0
LINE
  8
0
 10
3175.000000
 11
3175.000000
 20
8421.196000
 21
8412.500000
  0
LINE
  8
0
 10
3175.000000
 11
0.000000
 20
8412.500000
 21
8412.500000
  0
LINE
  8
0
 10
0.000000
 11
0.000000
 20
8412.500000
 21
8421.196000
  0
LINE
  8
0
 10
0.000000
 11
-165.939000
 20
8421.196000
 21
8421.196000
  0
LINE
  8
0
 10
-165.939000
 11
-490.564000
 20
8421.196000
 21
8490.198000
  0
LINE
  8
0
 10
-490.564000
 11
-793.750000
 20
8490.198000
 21
8625.185000
  0
LINE
  8
0
 10
-793.750000
 11
-1062.245000
 20
8625.185000
 21
8820.258000
  0
LINE
  8
0
 10
-1062.245000
 11
-1284.314000
 20
8820.258000
 21
9066.891000
  0
LINE
  8
0
 10
-1284.314000
 11
-1450.253000
 20
9066.891000
 21
9354.306000
  0
LINE
  8
0
 10
-1450.253000
 11
-1552.809000
 20
9354.306000
 21
9669.940000
  0
LINE
  8
0
 10
-1552.809000
 11
-1587.500000
 20
9669.940000
 21
10000.000000
  0
LINE
  8
0
 10
-1337.500000
 11
-1308.272000
 20
0.000000
 21
278.082000
  0
LINE
  8
0
 10
-1308.272000
 11
-1221.867000
 20
278.082000
 21
544.010000
  0
LINE
  8
0
 10
-1221.867000
 11
-1082.060000
 20
544.010000
 21
786.163000
  0
LINE
  8
0
 10
-1082.060000
 11
-894.962000
 20
786.163000
 21
993.956000
  0
LINE
  8
0
 10
-894.962000
 11
-668.750000
 20
993.956000
 21
1158.309000
  0
LINE
  8
0
 10
-668.750000
 11
-413.310000
 20
1158.309000
 21
1272.038000
  0
LINE
  8
0
 10
-413.310000
 11
-139.807000
 20
1272.038000
 21
1330.173000
  0
LINE
  8
0
 10
-139.807000
 11
139.807000
 20
1330.173000
 21
1330.173000
  0
LINE
  8
0
 10
139.807000
 11
413.310000
 20
1330.173000
 21
1272.038000
  0
LINE
  8
0
 10
413.310000
 11
668.750000
 20
1272.038000
 21
1158.309000
  0
LINE
  8
0
 10
668.750000
 11
894.962000
 20
1158.309000
 21
993.956000
  0
LINE
  8
0
 10
894.962000
 11
1082.060000
 20
993.956000
 21
786.163000
  0
LINE
  8
0
 10
1082.060000
 11
1221.867000
 20
786.163000
 21
544.010000
  0
LINE
  8
0
 10
1221.867000
 11
1308.272000
 20
544.010000
 21
278.082000
  0
LINE
  8
0
 10
1308.272000
 11
1337.500000
 20
278.082000
 21
0.000000
  0
LINE
  8
0
 10
1337.500000
 11
1308.272000
 20
0.000000
 21
-278.082000
  0
LINE
  8
0
 10
1308.272000
 11
1221.867000
 20
-278.082000
 21
-544.010000
  0
LINE
  8
0
 10
1221.867000
 11
1082.060000
 20
-544.010000
 21
-786.163000
  0
LINE
  8
0
 10
1082.060000
 11
894.962000
 20
-786.163000
 21
-993.956000
  0
LINE
  8
0
 10
894.962000
 11
668.750000
 20
-993.956000
 21
-1158.309000
  0
LINE
  8
0
 10
668.750000
 11
413.310000
 20
-1158.309000
 21
-1272.038000
  0
LINE
  8
0
 10
413.310000
 11
139.807000
 20
-1272.038000
 21
-1330.173000
  0
LINE
  8
0
 10
139.807000
 11
-139.807000
 20
-1330.173000
 21
-1330.173000
  0
LINE
  8
0
 10
-139.807000
 11
-413.310000
 20
-1330.173000
 21
-1272.038000
  0
LINE
  8
0
 10
-413.310000
 11
-668.750000
 20
-1272.038000
 21
-1158.309000
  0
LINE
  8
0
 10
-668.750000
 11
-894.962000
 20
-1158.309000
 21
-993.956000
  0
LINE
  8
0
 10
-894.962000
 11
-1082.060000
 20
-993.956000
 21
-786.163000
  0
LINE
  8
0
 10
-1082.060000
 11
-1221.867000
 20
-786.163000
 21
-544.010000
  0
LINE
  8
0
 10
-1221.867000
 11
-1308.272000
 20
-544.010000
 21
-278.082000
  0
LINE
  8
0
 10
-1308.272000
 11
-1337.500000
 20
-278.082000
 21
0.000000
  0
LINE
  8
0
 10
-1337.500000
 11
-1308.272000
 20
2925.000000
 21
3203.082000
  0
LINE
  8
0
 10
-1308.272000
 11
-1221.867000
 20
3203.082000
 21
3469.010000
  0
LINE
  8
0
 10
-1221.867000
 11
-1082.060000
 20
3469.010000
 21
3711.163000
  0
LINE
  8
0
 10
-1082.060000
 11
-894.962000
 20
3711.163000
 21
3918.956000
  0
LINE
  8
0
 10
-894.962000
 11
-668.750000
 20
3918.956000
 21
4083.309000
  0
LINE
  8
0
 10
-668.750000
 11
-413.310000
 20
4083.309000
 21
4197.038000
  0
LINE
  8
0
 10
-413.310000
 11
-139.807000
 20
4197.038000
 21
4255.173000
  0
LINE
  8
0
 10
-139.807000
 11
139.807000
 20
4255.173000
 21
4255.173000
  0
LINE
  8
0
 10
139.807000
 11
413.310000
 20
4255.173000
 21
4197.038000
  0
LINE
  8
0
 10
413.310000
 11
668.750000
 20
4197.038000
 21
4083.309000
  0
LINE
  8
0
 10
668.750000
 11
894.962000
 20
4083.309000
 21
3918.956000
  0
LINE
  8
0
 10
894.962000
 11
1082.060000
 20
3918.956000
 21
3711.163000
  0
LINE
  8
0
 10
1082.060000
 11
1221.867000
 20
3711.163000
 21
3469.010000
  0
LINE
  8
0
 10
1221.867000
 11
1308.272000
 20
3469.010000
 21
3203.082000
  0
LINE
  8
0
 10
1308.272000
 11
1337.500000
 20
3203.082000
 21
2925.000000
  0
LINE
  8
0
 10
1337.500000
 11
1308.272000
 20
2925.000000
 21
2646.918000
  0
LINE
  8
0
 10
1308.272000
 11
1221.867000
 20
2646.918000
 21
2380.990000
  0
LINE
  8
0
 10
1221.867000
 11
1082.060000
 20
2380.990000
 21
2138.837000
  0
LINE
  8
0
 10
1082.060000
 11
894.962000
 20
2138.837000
 21
1931.044000
  0
LINE
  8
0
 10
894.962000
 11
668.750000
 20
1931.044000
 21
1766.691000
  0
LINE
  8
0
 10
668.750000
 11
413.310000
 20
1766.691000
 21
1652.962000
  0
LINE
  8
0
 10
413.310000
 11
139.807000
 20
1652.962000
 21
1594.827000
  0
LINE
  8
0
 10
139.807000
 11
-139.807000
 20
1594.827000
 21
1594.827000
  0
LINE
  8
0
 10
-139.807000
 11
-413.310000
 20
1594.827000
 21
1652.962000
  0
LINE
  8
0
 10
-413.310000
 11
-668.750000
 20
1652.962000
 21
1766.691000
  0
LINE
  8
0
 10
-668.750000
 11
-894.962000
 20
1766.691000
 21
1931.044000
  0
LINE
  8
0
 10
-894.962000
 11
-1082.060000
 20
1931.044000
 21
2138.837000
  0
LINE
  8
0
 10
-1082.060000
 11
-1221.867000
 20
2138.837000
 21
2380.990000
  0
LINE
  8
0
 10
-1221.867000
 11
-1308.272000
 20
2380.990000
 21
2646.918000
  0
LINE
  8
0
 10
-1308.272000
 11
-1337.500000
 20
2646.918000
 21
2925.000000
  0
LINE
  8
0
 10
-1337.500000
 11
-1308.272000
 20
5850.000000
 21
6128.082000
  0
LINE
  8
0
 10
-1308.272000
 11
-1221.867000
 20
6128.082000
 21
6394.010000
  0
LINE
  8
0
 10
-1221.867000
 11
-1082.060000
 20
6394.010000
 21
6636.163000
  0
LINE
  8
0
 10
-1082.060000
 11
-894.962000
 20
6636.163000
 21
6843.956000
  0
LINE
  8
0
 10
-894.962000
 11
-668.750000
 20
6843.956000
 21
7008.309000
  0
LINE
  8
0
 10
-668.750000
 11
-413.310000
 20
7008.309000
 21
7122.038000
  0
LINE
  8
0
 10
-413.310000
 11
-139.807000
 20
7122.038000
 21
7180.173000
  0
LINE
  8
0
 10
-139.807000
 11
139.807000
 20
7180.173000
 21
7180.173000
  0
LINE
  8
0
 10
139.807000
 11
413.310000
 20
7180.173000
 21
7122.038000
  0
LINE
  8
0
 10
413.310000
 11
668.750000
 20
7122.038000
 21
7008.309000
  0
LINE
  8
0
 10
668.750000
 11
894.962000
 20
7008.309000
 21
6843.956000
  0
LINE
  8
0
 10
894.962000
 11
1082.060000
 20
6843.956000
 21
6636.163000
  0
LINE
  8
0
 10
1082.060000
 11
1221.867000
 20
6636.163000
 21
6394.010000
  0
LINE
  8
0
 10
1221.867000
 11
1308.272000
 20
6394.010000
 21
6128.082000
  0
LINE
  8
0
 10
1308.272000
 11
1337.500000
 20
6128.082000
 21
5850.000000
  0
LINE
  8
0
 10
1337.500000
 11
1308.272000
 20
5850.000000
 21
5571.918000
  0
LINE
  8
0
 10
1308.272000
 11
1221.867000
 20
5571.918000
 21
5305.990000
  0
LINE
  8
0
 10
1221.867000
 11
1082.060000
 20
5305.990000
 21
5063.837000
  0
LINE
  8
0
 10
1082.060000
 11
894.962000
 20
5063.837000
 21
4856.044000
  0
LINE
  8
0
 10
894.962000
 11
668.750000
 20
4856.044000
 21
4691.691000
  0
LINE
  8
0
 10
668.750000
 11
413.310000
 20
4691.691000
 21
4577.962000
  0
LINE
  8
0
 10
413.310000
 11
139.807000
 20
4577.962000
 21
4519.827000
  0
LINE
  8
0
 10
139.807000
 11
-139.807000
 20
4519.827000
 21
4519.827000
  0
LINE
  8
0
 10
-139.807000
 11
-413.310000
 20
4519.827000
 21
4577.962000
  0
LINE
  8
0
 10
-413.310000
 11
-668.750000
 20
4577.962000
 21
4691.691000
  0
LINE
  8
0
 10
-668.750000
 11
-894.962000
 20
4691.691000
 21
4856.044000
  0
LINE
  8
0
 10
-894.962000
 11
-1082.060000
 20
4856.044000
 21
5063.837000
  0
LINE
  8
0
 10
-1082.060000
 11
-1221.867000
 20
5063.837000
 21
5305.990000
  0
LINE
  8
0
 10
-1221.867000
 11
-1308.272000
 20
5305.990000
 21
5571.918000
  0
LINE
  8
0
 10
-1308.272000
 11
-1337.500000
 20
5571.918000
 21
5850.000000
  0
LINE
  8
0
 10
793.750000
 11
796.482000
 20
11462.500000
 21
11488.489000
  0
LINE
  8
0
 10
796.482000
 11
804.557000
 20
11488.489000
 21
11513.342000
  0
LINE
  8
0
 10
804.557000
 11
817.623000
 20
11513.342000
 21
11535.973000
  0
LINE
  8
0
 10
817.623000
 11
835.109000
 20
11535.973000
 21
11555.393000
  0
LINE
  8
0
 10
835.109000
 11
856.250000
 20
11555.393000
 21
11570.753000
  0
LINE
  8
0
 10
856.250000
 11
880.123000
 20
11570.753000
 21
11581.382000
  0
LINE
  8
0
 10
880.123000
 11
905.684000
 20
11581.382000
 21
11586.815000
  0
LINE
  8
0
 10
905.684000
 11
931.816000
 20
11586.815000
 21
11586.815000
  0
LINE
  8
0
 10
931.816000
 11
957.377000
 20
11586.815000
 21
11581.382000
  0
LINE
  8
0
 10
957.377000
 11
981.250000
 20
11581.382000
 21
11570.753000
  0
LINE
  8
0
 10
981.250000
 11
1002.391000
 20
11570.753000
 21
11555.393000
  0
LINE
  8
0
 10
1002.391000
 11
1019.877000
 20
11555.393000
 21
11535.973000
  0
LINE
  8
0
 10
1019.877000
 11
1032.943000
 20
11535.973000
 21
11513.342000
  0
LINE
  8
0
 10
1032.943000
 11
1041.018000
 20
11513.342000
 21
11488.489000
  0
LINE
  8
0
 10
1041.018000
 11
1043.750000
 20
11488.489000
 21
11462.500000
  0
LINE
  8
0
 10
1043.750000
 11
1041.018000
 20
11462.500000
 21
11436.511000
  0
LINE
  8
0
 10
1041.018000
 11
1032.943000
 20
11436.511000
 21
11411.658000
  0
LINE
  8
0
 10
1032.943000
 11
1019.877000
 20
11411.658000
 21
11389.027000
  0
LINE
  8
0
 10
1019.877000
 11
1002.391000
 20
11389.027000
 21
11369.607000
  0
LINE
  8
0
 10
1002.391000
 11
981.250000
 20
11369.607000
 21
11354.247000
  0
LINE
  8
0
 10
981.250000
 11
957.377000
 20
11354.247000
 21
11343.618000
  0
LINE
  8
0
 10
957.377000
 11
931.816000
 20
11343.618000
 21
11338.185000
  0
LINE
  8
0
 10
931.816000
 11
905.684000
 20
11338.185000
 21
11338.185000
  0
LINE
  8
0
 10
905.684000
 11
880.123000
 20
11338.185000
 21
11343.618000
  0
LINE
  8
0
 10
880.123000
 11
856.250000
 20
11343.618000
 21
11354.247000
  0
LINE
  8
0
 10
856.250000
 11
835.109000
 20
11354.247000
 21
11369.607000
  0
LINE
  8
0
 10
835.109000
 11
817.623000
 20
11369.607000
 21
11389.027000
  0
LINE
  8
0
 10
817.623000
 11
804.557000
 20
11389.027000
 21
11411.658000
  0
LINE
  8
0
 10
804.557000
 11
796.482000
 20
11411.658000
 21
11436.511000
  0
LINE
  8
0
 10
796.482000
 11
793.750000
 20
11436.511000
 21
11462.500000
  0
LINE
  8
0
 10
793.750000
 11
796.482000
 20
14387.500000
 21
14413.489000
  0
LINE
  8
0
 10
796.482000
 11
804.557000
 20
14413.489000
 21
14438.342000
  0
LINE
  8
0
 10
804.557000
 11
817.623000
 20
14438.342000
 21
14460.973000
  0
LINE
  8
0
 10
817.623000
 11
835.109000
 20
14460.973000
 21
14480.393000
  0
LINE
  8
0
 10
835.109000
 11
856.250000
 20
14480.393000
 21
14495.753000
  0
LINE
  8
0
 10
856.250000
 11
880.123000
 20
14495.753000
 21
14506.382000
  0
LINE
  8
0
 10
880.123000
 11
905.684000
 20
14506.382000
 21
14511.815000
  0
LINE
  8
0
 10
905.684000
 11
931.816000
 20
14511.815000
 21
14511.815000
  0
LINE
  8
0
 10
931.816000
 11
957.377000
 20
14511.815000
 21
14506.382000
  0
LINE
  8
0
 10
957.377000
 11
981.250000
 20
14506.382000
 21
14495.753000
  0
LINE
  8
0
 10
981.250000
 11
1002.391000
 20
14495.753000
 21
14480.393000
  0
LINE
  8
0
 10
1002.391000
 11
1019.877000
 20
14480.393000
 21
14460.973000
  0
LINE
  8
0
 10
1019.877000
 11
1032.943000
 20
14460.973000
 21
14438.342000
  0
LINE
  8
0
 10
1032.943000
 11
1041.018000
 20
14438.342000
 21
14413.489000
  0
LINE
  8
0
 10
1041.018000
 11
1043.750000
 20
14413.489000
 21
14387.500000
  0
LINE
  8
0
 10
1043.750000
 11
1041.018000
 20
14387.500000
 21
14361.511000
  0
LINE
  8
0
 10
1041.018000
 11
1032.943000
 20
14361.511000
 21
14336.658000
  0
LINE
  8
0
 10
1032.943000
 11
1019.877000
 20
14336.658000
 21
14314.027000
  0
LINE
  8
0
 10
1019.877000
 11
1002.391000
 20
14314.027000
 21
14294.607000
  0
LINE
  8
0
 10
1002.391000
 11
981.250000
 20
14294.607000
 21
14279.247000
  0
LINE
  8
0
 10
981.250000
 11
957.377000
 20
14279.247000
 21
14268.618000
  0
LINE
  8
0
 10
957.377000
 11
931.816000
 20
14268.618000
 21
14263.185000
  0
LINE
  8
0
 10
931.816000
 11
905.684000
 20
14263.185000
 21
14263.185000
  0
LINE
  8
0
 10
905.684000
 11
880.123000
 20
14263.185000
 21
14268.618000
  0
LINE
  8
0
 10
880.123000
 11
856.250000
 20
14268.618000
 21
14279.247000
  0
LINE
  8
0
 10
856.250000
 11
835.109000
 20
14279.247000
 21
14294.607000
  0
LINE
  8
0
 10
835.109000
 11
817.623000
 20
14294.607000
 21
14314.027000
  0
LINE
  8
0
 10
817.623000
 11
804.557000
 20
14314.027000
 21
14336.658000
  0
LINE
  8
0
 10
804.557000
 11
796.482000
 20
14336.658000
 21
14361.511000
  0
LINE
  8
0
 10
796.482000
 11
793.750000
 20
14361.511000
 21
14387.500000
  0
LINE
  8
0
 10
861.250000
 11
862.507000
 20
1462.500000
 21
1474.455000
  0
LINE
  8
0
 10
862.507000
 11
866.221000
 20
1474.455000
 21
1485.887000
  0
LINE
  8
0
 10
866.221000
 11
872.232000
 20
1485.887000
 21
1496.298000
  0
LINE
  8
0
 10
872.232000
 11
880.275000
 20
1496.298000
 21
1505.231000
  0
LINE
  8
0
 10
880.275000
 11
890.000000
 20
1505.231000
 21
1512.296000
  0
LINE
  8
0
 10
890.000000
 11
900.982000
 20
1512.296000
 21
1517.186000
  0
LINE
  8
0
 10
900.982000
 11
912.740000
 20
1517.186000
 21
1519.685000
  0
LINE
  8
0
 10
912.740000
 11
924.760000
 20
1519.685000
 21
1519.685000
  0
LINE
  8
0
 10
924.760000
 11
936.518000
 20
1519.685000
 21
1517.186000
  0
LINE
  8
0
 10
936.518000
 11
947.500000
 20
1517.186000
 21
1512.296000
  0
LINE
  8
0
 10
947.500000
 11
957.225000
 20
1512.296000
 21
1505.231000
  0
LINE
  8
0
 10
957.225000
 11
965.268000
 20
1505.231000
 21
1496.298000
  0
LINE
  8
0
 10
965.268000
 11
971.279000
 20
1496.298000
 21
1485.887000
  0
LINE
  8
0
 10
971.279000
 11
974.993000
 20
1485.887000
 21
1474.455000
  0
LINE
  8
0
 10
974.993000
 11
976.250000
 20
1474.455000
 21
1462.500000
  0
LINE
  8
0
 10
976.250000
 11
974.993000
 20
1462.500000
 21
1450.545000
  0
LINE
  8
0
 10
974.993000
 11
971.279000
 20
1450.545000
 21
1439.113000
  0
LINE
  8
0
 10
971.279000
 11
965.268000
 20
1439.113000
 21
1428.702000
  0
LINE
  8
0
 10
965.268000
 11
957.225000
 20
1428.702000
 21
1419.769000
  0
LINE
  8
0
 10
957.225000
 11
947.500000
 20
1419.769000
 21
1412.704000
  0
LINE
  8
0
 10
947.500000
 11
936.518000
 20
1412.704000
 21
1407.814000
  0
LINE
  8
0
 10
936.518000
 11
924.760000
 20
1407.814000
 21
1405.315000
  0
LINE
  8
0
 10
924.760000
 11
912.740000
 20
1405.315000
 21
1405.315000
  0
LINE
  8
0
 10
912.740000
 11
900.982000
 20
1405.315000
 21
1407.814000
  0
LINE
  8
0
 10
900.982000
 11
890.000000
 20
1407.814000
 21
1412.704000
  0
LINE
  8
0
 10
890.000000
 11
880.275000
 20
1412.704000
 21
1419.769000
  0
LINE
  8
0
 10
880.275000
 11
872.232000
 20
1419.769000
 21
1428.702000
  0
LINE
  8
0
 10
872.232000
 11
866.221000
 20
1428.702000
 21
1439.113000
  0
LINE
  8
0
 10
866.221000
 11
862.507000
 20
1439.113000
 21
1450.545000
  0
LINE
  8
0
 10
862.507000
 11
861.250000
 20
1450.545000
 21
1462.500000
  0
LINE
  8
0
 10
861.250000
 11
862.507000
 20
4387.500000
 21
4399.455000
  0
LINE
  8
0
 10
862.507000
 11
866.221000
 20
4399.455000
 21
4410.887000
  0
LINE
  8
0
 10
866.221000
 11
872.232000
 20
4410.887000
 21
4421.298000
  0
LINE
  8
0
 10
872.232000
 11
880.275000
 20
4421.298000
 21
4430.231000
  0
LINE
  8
0
 10
880.275000
 11
890.000000
 20
4430.231000
 21
4437.296000
  0
LINE
  8
0
 10
890.000000
 11
900.982000
 20
4437.296000
 21
4442.186000
  0
LINE
  8
0
 10
900.982000
 11
912.740000
 20
4442.186000
 21
4444.685000
  0
LINE
  8
0
 10
912.740000
 11
924.760000
 20
4444.685000
 21
4444.685000
  0
LINE
  8
0
 10
924.760000
 11
936.518000
 20
4444.685000
 21
4442.186000
  0
LINE
  8
0
 10
936.518000
 11
947.500000
 20
4442.186000
 21
4437.296000
  0
LINE
  8
0
 10
947.500000
 11
957.225000
 20
4437.296000
 21
4430.231000
  0
LINE
  8
0
 10
957.225000
 11
965.268000
 20
4430.231000
 21
4421.298000
  0
LINE
  8
0
 10
965.268000
 11
971.279000
 20
4421.298000
 21
4410.887000
  0
LINE
  8
0
 10
971.279000
 11
974.993000
 20
4410.887000
 21
4399.455000
  0
LINE
  8
0
 10
974.993000
 11
976.250000
 20
4399.455000
 21
4387.500000
  0
LINE
  8
0
 10
976.250000
 11
974.993000
 20
4387.500000
 21
4375.545000
  0
LINE
  8
0
 10
974.993000
 11
971.279000
 20
4375.545000
 21
4364.113000
  0
LINE
  8
0
 10
971.279000
 11
965.268000
 20
4364.113000
 21
4353.702000
  0
LINE
  8
0
 10
965.268000
 11
957.225000
 20
4353.702000
 21
4344.769000
  0
LINE
  8
0
 10
957.225000
 11
947.500000
 20
4344.769000
 21
4337.704000
  0
LINE
  8
0
 10
947.500000
 11
936.518000
 20
4337.704000
 21
4332.814000
  0
LINE
  8
0
 10
936.518000
 11
924.760000
 20
4332.814000
 21
4330.315000
  0
LINE
  8
0
 10
924.760000
 11
912.740000
 20
4330.315000
 21
4330.315000
  0
LINE
  8
0
 10
912.740000
 11
900.982000
 20
4330.315000
 21
4332.814000
  0
LINE
  8
0
 10
900.982000
 11
890.000000
 20
4332.814000
 21
4337.704000
  0
LINE
  8
0
 10
890.000000
 11
880.275000
 20
4337.704000
 21
4344.769000
  0
LINE
  8
0
 10
880.275000
 11
872.232000
 20
4344.769000
 21
4353.702000
  0
LINE
  8
0
 10
872.232000
 11
866.221000
 20
4353.702000
 21
4364.113000
  0
LINE
  8
0
 10
866.221000
 11
862.507000
 20
4364.113000
 21
4375.545000
  0
LINE
  8
0
 10
862.507000
 11
861.250000
 20
4375.545000
 21
4387.500000
  0
LINE
  8
0
 10
1493.750000
 11
1493.750000
 20
0.000000
 21
5850.000000
  0
LINE
  8
0
 10
1493.750000
 11
1681.250000
 20
5850.000000
 21
5850.000000
  0
LINE
  8
0
 10
1681.250000
 11
1681.250000
 20
5850.000000
 21
0.000000
  0
LINE
  8
0
 10
1681.250000
 11
1493.750000
 20
0.000000
 21
0.000000
  0
LINE
  8
0
 10
1493.750000
 11
1493.750000
 20
10637.500000
 21
11012.500000
  0
LINE
  8
0
 10
1493.750000
 11
1681.250000
 20
11012.500000
 21
11012.500000
  0
LINE
  8
0
 10
1681.250000
 11
1681.250000
 20
11012.500000
 21
10637.500000
  0
LINE
  8
0
 10
1681.250000
 11
1493.750000
 20
10637.500000
 21
10637.500000
  0
LINE
  8
0
 10
1493.750000
 11
1493.750000
 20
12100.000000
 21
12475.000000
  0
LINE
  8
0
 10
1493.750000
 11
1681.250000
 20
12475.000000
 21
12475.000000
  0
LINE
  8
0
 10
1681.250000
 11
1681.250000
 20
12475.000000
 21
12100.000000
  0
LINE
  8
0
 10
1681.250000
 11
1493.750000
 20
12100.000000
 21
12100.000000
  0
LINE
  8
0
 10
1493.750000
 11
1493.750000
 20
13562.500000
 21
13937.500000
  0
LINE
  8
0
 10
1493.750000
 11
1681.250000
 20
13937.500000
 21
13937.500000
  0
LINE
  8
0
 10
1681.250000
 11
1681.250000
 20
13937.500000
 21
13562.500000
  0
LINE
  8
0
 10
1681.250000
 11
1493.750000
 20
13562.500000
 21
13562.500000
  0
LINE
  8
0
 10
1493.750000
 11
1493.750000
 20
15025.000000
 21
15400.000000
  0
LINE
  8
0
 10
1493.750000
 11
1681.250000
 20
15400.000000
 21
15400.000000
  0
LINE
  8
0
 10
1681.250000
 11
1681.250000
 20
15400.000000
 21
15025.000000
  0
LINE
  8
0
 10
1681.250000
 11
1493.750000
 20
15025.000000
 21
15025.000000
  0
LINE
  8
0
 10
1530.000000
 11
1531.257000
 20
11462.500000
 21
11474.455000
  0
LINE
  8
0
 10
1531.257000
 11
1534.971000
 20
11474.455000
 21
11485.887000
  0
LINE
  8
0
 10
1534.971000
 11
1540.982000
 20
11485.887000
 21
11496.298000
  0
LINE
  8
0
 10
1540.982000
 11
1549.025000
 20
11496.298000
 21
11505.231000
  0
LINE
  8
0
 10
1549.025000
 11
1558.750000
 20
11505.231000
 21
11512.296000
  0
LINE
  8
0
 10
1558.750000
 11
1569.732000
 20
11512.296000
 21
11517.186000
  0
LINE
  8
0
 10
1569.732000
 11
1581.490000
 20
11517.186000
 21
11519.685000
  0
LINE
  8
0
 10
1581.490000
 11
1593.510000
 20
11519.685000
 21
11519.685000
  0
LINE
  8
0
 10
1593.510000
 11
1605.268000
 20
11519.685000
 21
11517.186000
  0
LINE
  8
0
 10
1605.268000
 11
1616.250000
 20
11517.186000
 21
11512.296000
  0
LINE
  8
0
 10
1616.250000
 11
1625.975000
 20
11512.296000
 21
11505.231000
  0
LINE
  8
0
 10
1625.975000
 11
1634.018000
 20
11505.231000
 21
11496.298000
  0
LINE
  8
0
 10
1634.018000
 11
1640.029000
 20
11496.298000
 21
11485.887000
  0
LINE
  8
0
 10
1640.029000
 11
1643.743000
 20
11485.887000
 21
11474.455000
  0
LINE
  8
0
 10
1643.743000
 11
1645.000000
 20
11474.455000
 21
11462.500000
  0
LINE
  8
0
 10
1645.000000
 11
1643.743000
 20
11462.500000
 21
11450.545000
  0
LINE
  8
0
 10
1643.743000
 11
1640.029000
 20
11450.545000
 21
11439.113000
  0
LINE
  8
0
 10
1640.029000
 11
1634.018000
 20
11439.113000
 21
11428.702000
  0
LINE
  8
0
 10
1634.018000
 11
1625.975000
 20
11428.702000
 21
11419.769000
  0
LINE
  8
0
 10
1625.975000
 11
1616.250000
 20
11419.769000
 21
11412.704000
  0
LINE
  8
0
 10
1616.250000
 11
1605.268000
 20
11412.704000
 21
11407.814000
  0
LINE
  8
0
 10
1605.268000
 11
1593.510000
 20
11407.814000
 21
11405.315000
  0
LINE
  8
0
 10
1593.510000
 11
1581.490000
 20
11405.315000
 21
11405.315000
  0
LINE
  8
0
 10
1581.490000
 11
1569.732000
 20
11405.315000
 21
11407.814000
  0
LINE
  8
0
 10
1569.732000
 11
1558.750000
 20
11407.814000
 21
11412.704000
  0
LINE
  8
0
 10
1558.750000
 11
1549.025000
 20
11412.704000
 21
11419.769000
  0
LINE
  8
0
 10
1549.025000
 11
1540.982000
 20
11419.769000
 21
11428.702000
  0
LINE
  8
0
 10
1540.982000
 11
1534.971000
 20
11428.702000
 21
11439.113000
  0
LINE
  8
0
 10
1534.971000
 11
1531.257000
 20
11439.113000
 21
11450.545000
  0
LINE
  8
0
 10
1531.257000
 11
1530.000000
 20
11450.545000
 21
11462.500000
  0
LINE
  8
0
 10
1530.000000
 11
1531.257000
 20
12925.000000
 21
12936.955000
  0
LINE
  8
0
 10
1531.257000
 11
1534.971000
 20
12936.955000
 21
12948.387000
  0
LINE
  8
0
 10
1534.971000
 11
1540.982000
 20
12948.387000
 21
12958.798000
  0
LINE
  8
0
 10
1540.982000
 11
1549.025000
 20
12958.798000
 21
12967.731000
  0
LINE
  8
0
 10
1549.025000
 11
1558.750000
 20
12967.731000
 21
12974.796000
  0
LINE
  8
0
 10
1558.750000
 11
1569.732000
 20
12974.796000
 21
12979.686000
  0
LINE
  8
0
 10
1569.732000
 11
1581.490000
 20
12979.686000
 21
12982.185000
  0
LINE
  8
0
 10
1581.490000
 11
1593.510000
 20
12982.185000
 21
12982.185000
  0
LINE
  8
0
 10
1593.510000
 11
1605.268000
 20
12982.185000
 21
12979.686000
  0
LINE
  8
0
 10
1605.268000
 11
1616.250000
 20
12979.686000
 21
12974.796000
  0
LINE
  8
0
 10
1616.250000
 11
1625.975000
 20
12974.796000
 21
12967.731000
  0
LINE
  8
0
 10
1625.975000
 11
1634.018000
 20
12967.731000
 21
12958.798000
  0
LINE
  8
0
 10
1634.018000
 11
1640.029000
 20
12958.798000
 21
12948.387000
  0
LINE
  8
0
 10
1640.029000
 11
1643.743000
 20
12948.387000
 21
12936.955000
  0
LINE
  8
0
 10
1643.743000
 11
1645.000000
 20
12936.955000
 21
12925.000000
  0
LINE
  8
0
 10
1645.000000
 11
1643.743000
 20
12925.000000
 21
12913.045000
  0
LINE
  8
0
 10
1643.743000
 11
1640.029000
 20
12913.045000
 21
12901.613000
  0
LINE
  8
0
 10
1640.029000
 11
1634.018000
 20
12901.613000
 21
12891.202000
  0
LINE
  8
0
 10
1634.018000
 11
1625.975000
 20
12891.202000
 21
12882.269000
  0
LINE
  8
0
 10
1625.975000
 11
1616.250000
 20
12882.269000
 21
12875.204000
  0
LINE
  8
0
 10
1616.250000
 11
1605.268000
 20
12875.204000
 21
12870.314000
  0
LINE
  8
0
 10
1605.268000
 11
1593.510000
 20
12870.314000
 21
12867.815000
  0
LINE
  8
0
 10
1593.510000
 11
1581.490000
 20
12867.815000
 21
12867.815000
  0
LINE
  8
0
 10
1581.490000
 11
1569.732000
 20
12867.815000
 21
12870.314000
  0
LINE
  8
0
 10
1569.732000
 11
1558.750000
 20
12870.314000
 21
12875.204000
  0
LINE
  8
0
 10
1558.750000
 11
1549.025000
 20
12875.204000
 21
12882.269000
  0
LINE
  8
0
 10
1549.025000
 11
1540.982000
 20
12882.269000
 21
12891.202000
  0
LINE
  8
0
 10
1540.982000
 11
1534.971000
 20
12891.202000
 21
12901.613000
  0
LINE
  8
0
 10
1534.971000
 11
1531.257000
 20
12901.613000
 21
12913.045000
  0
LINE
  8
0
 10
1531.257000
 11
1530.000000
 20
12913.045000
 21
12925.000000
  0
LINE
  8
0
 10
1530.000000
 11
1531.257000
 20
14387.500000
 21
14399.455000
  0
LINE
  8
0
 10
1531.257000
 11
1534.971000
 20
14399.455000
 21
14410.887000
  0
LINE
  8
0
 10
1534.971000
 11
1540.982000
 20
14410.887000
 21
14421.298000
  0
LINE
  8
0
 10
1540.982000
 11
1549.025000
 20
14421.298000
 21
14430.231000
  0
LINE
  8
0
 10
1549.025000
 11
1558.750000
 20
14430.231000
 21
14437.296000
  0
LINE
  8
0
 10
1558.750000
 11
1569.732000
 20
14437.296000
 21
14442.186000
  0
LINE
  8
0
 10
1569.732000
 11
1581.490000
 20
14442.186000
 21
14444.685000
  0
LINE
  8
0
 10
1581.490000
 11
1593.510000
 20
14444.685000
 21
14444.685000
  0
LINE
  8
0
 10
1593.510000
 11
1605.268000
 20
14444.685000
 21
14442.186000
  0
LINE
  8
0
 10
1605.268000
 11
1616.250000
 20
14442.186000
 21
14437.296000
  0
LINE
  8
0
 10
1616.250000
 11
1625.975000
 20
14437.296000
 21
14430.231000
  0
LINE
  8
0
 10
1625.975000
 11
1634.018000
 20
14430.231000
 21
14421.298000
  0
LINE
  8
0
 10
1634.018000
 11
1640.029000
 20
14421.298000
 21
14410.887000
  0
LINE
  8
0
 10
1640.029000
 11
1643.743000
 20
14410.887000
 21
14399.455000
  0
LINE
  8
0
 10
1643.743000
 11
1645.000000
 20
14399.455000
 21
14387.500000
  0
LINE
  8
0
 10
1645.000000
 11
1643.743000
 20
14387.500000
 21
14375.545000
  0
LINE
  8
0
 10
1643.743000
 11
1640.029000
 20
14375.545000
 21
14364.113000
  0
LINE
  8
0
 10
1640.029000
 11
1634.018000
 20
14364.113000
 21
14353.702000
  0
LINE
  8
0
 10
1634.018000
 11
1625.975000
 20
14353.702000
 21
14344.769000
  0
LINE
  8
0
 10
1625.975000
 11
1616.250000
 20
14344.769000
 21
14337.704000
  0
LINE
  8
0
 10
1616.250000
 11
1605.268000
 20
14337.704000
 21
14332.814000
  0
LINE
  8
0
 10
1605.268000
 11
1593.510000
 20
14332.814000
 21
14330.315000
  0
LINE
  8
0
 10
1593.510000
 11
1581.490000
 20
14330.315000
 21
14330.315000
  0
LINE
  8
0
 10
1581.490000
 11
1569.732000
 20
14330.315000
 21
14332.814000
  0
LINE
  8
0
 10
1569.732000
 11
1558.750000
 20
14332.814000
 21
14337.704000
  0
LINE
  8
0
 10
1558.750000
 11
1549.025000
 20
14337.704000
 21
14344.769000
  0
LINE
  8
0
 10
1549.025000
 11
1540.982000
 20
14344.769000
 21
14353.702000
  0
LINE
  8
0
 10
1540.982000
 11
1534.971000
 20
14353.702000
 21
14364.113000
  0
LINE
  8
0
 10
1534.971000
 11
1531.257000
 20
14364.113000
 21
14375.545000
  0
LINE
  8
0
 10
1531.257000
 11
1530.000000
 20
14375.545000
 21
14387.500000
  0
LINE
  8
0
 10
1837.500000
 11
1866.728000
 20
0.000000
 21
278.082000
  0
LINE
  8
0
 10
1866.728000
 11
1953.133000
 20
278.082000
 21
544.010000
  0
LINE
  8
0
 10
1953.133000
 11
2092.940000
 20
544.010000
 21
786.163000
  0
LINE
  8
0
 10
2092.940000
 11
2280.038000
 20
786.163000
 21
993.956000
  0
LINE
  8
0
 10
2280.038000
 11
2506.250000
 20
993.956000
 21
1158.309000
  0
LINE
  8
0
 10
2506.250000
 11
2761.690000
 20
1158.309000
 21
1272.038000
  0
LINE
  8
0
 10
2761.690000
 11
3035.193000
 20
1272.038000
 21
1330.173000
  0
LINE
  8
0
 10
3035.193000
 11
3314.807000
 20
1330.173000
 21
1330.173000
  0
LINE
  8
0
 10
3314.807000
 11
3588.310000
 20
1330.173000
 21
1272.038000
  0
LINE
  8
0
 10
3588.310000
 11
3843.750000
 20
1272.038000
 21
1158.309000
  0
LINE
  8
0
 10
3843.750000
 11
4069.962000
 20
1158.309000
 21
993.956000
  0
LINE
  8
0
 10
4069.962000
 11
4257.060000
 20
993.956000
 21
786.163000
  0
LINE
  8
0
 10
4257.060000
 11
4396.867000
 20
786.163000
 21
544.010000
  0
LINE
  8
0
 10
4396.867000
 11
4483.272000
 20
544.010000
 21
278.082000
  0
LINE
  8
0
 10
4483.272000
 11
4512.500000
 20
278.082000
 21
0.000000
  0
LINE
  8
0
 10
4512.500000
 11
4483.272000
 20
0.000000
 21
-278.082000
  0
LINE
  8
0
 10
4483.272000
 11
4396.867000
 20
-278.082000
 21
-544.010000
  0
LINE
  8
0
 10
4396.867000
 11
4257.060000
 20
-544.010000
 21
-786.163000
  0
LINE
  8
0
 10
4257.060000
 11
4069.962000
 20
-786.163000
 21
-993.956000
  0
LINE
  8
0
 10
4069.962000
 11
3843.750000
 20
-993.956000
 21
-1158.309000
  0
LINE
  8
0
 10
3843.750000
 11
3588.310000
 20
-1158.309000
 21
-1272.038000
  0
LINE
  8
0
 10
3588.310000
 11
3314.807000
 20
-1272.038000
 21
-1330.173000
  0
LINE
  8
0
 10
3314.807000
 11
3035.193000
 20
-1330.173000
 21
-1330.173000
  0
LINE
  8
0
 10
3035.193000
 11
2761.690000
 20
-1330.173000
 21
-1272.038000
  0
LINE
  8
0
 10
2761.690000
 11
2506.250000
 20
-1272.038000
 21
-1158.309000
  0
LINE
  8
0
 10
2506.250000
 11
2280.038000
 20
-1158.309000
 21
-993.956000
  0
LINE
  8
0
 10
2280.038000
 11
2092.940000
 20
-993.956000
 21
-786.163000
  0
LINE
  8
0
 10
2092.940000
 11
1953.133000
 20
-786.163000
 21
-544.010000
  0
LINE
  8
0
 10
1953.133000
 11
1866.728000
 20
-544.010000
 21
-278.082000
  0
LINE
  8
0
 10
1866.728000
 11
1837.500000
 20
-278.082000
 21
0.000000
  0
LINE
  8
0
 10
1837.500000
 11
1866.728000
 20
2925.000000
 21
3203.082000
  0
LINE
  8
0
 10
1866.728000
 11
1953.133000
 20
3203.082000
 21
3469.010000
  0
LINE
  8
0
 10
1953.133000
 11
2092.940000
 20
3469.010000
 21
3711.163000
  0
LINE
  8
0
 10
2092.940000
 11
2280.038000
 20
3711.163000
 21
3918.956000
  0
LINE
  8
0
 10
2280.038000
 11
2506.250000
 20
3918.956000
 21
4083.309000
  0
LINE
  8
0
 10
2506.250000
 11
2761.690000
 20
4083.309000
 21
4197.038000
  0
LINE
  8
0
 10
2761.690000
 11
3035.193000
 20
4197.038000
 21
4255.173000
  0
LINE
  8
0
 10
3035.193000
 11
3314.807000
 20
4255.173000
 21
4255.173000
  0
LINE
  8
0
 10
3314.807000
 11
3588.310000
 20
4255.173000
 21
4197.038000
  0
LINE
  8
0
 10
3588.310000
 11
3843.750000
 20
4197.038000
 21
4083.309000
  0
LINE
  8
0
 10
3843.750000
 11
4069.962000
 20
4083.309000
 21
3918.956000
  0
LINE
  8
0
 10
4069.962000
 11
4257.060000
 20
3918.956000
 21
3711.163000
  0
LINE
  8
0
 10
4257.060000
 11
4396.867000
 20
3711.163000
 21
3469.010000
  0
LINE
  8
0
 10
4396.867000
 11
4483.272000
 20
3469.010000
 21
3203.082000
  0
LINE
  8
0
 10
4483.272000
 11
4512.500000
 20
3203.082000
 21
2925.000000
  0
LINE
  8
0
 10
4512.500000
 11
4483.272000
 20
2925.000000
 21
2646.918000
  0
LINE
  8
0
 10
4483.272000
 11
4396.867000
 20
2646.918000
 21
2380.990000
  0
LINE
  8
0
 10
4396.867000
 11
4257.060000
 20
2380.990000
 21
2138.837000
  0
LINE
  8
0
 10
4257.060000
 11
4069.962000
 20
2138.837000
 21
1931.044000
  0
LINE
  8
0
 10
4069.962000
 11
3843.750000
 20
1931.044000
 21
1766.691000
  0
LINE
  8
0
 10
3843.750000
 11
3588.310000
 20
1766.691000
 21
1652.962000
  0
LINE
  8
0
 10
3588.310000
 11
3314.807000
 20
1652.962000
 21
1594.827000
  0
LINE
  8
0
 10
3314.807000
 11
3035.193000
 20
1594.827000
 21
1594.827000
  0
LINE
  8
0
 10
3035.193000
 11
2761.690000
 20
1594.827000
 21
1652.962000
  0
LINE
  8
0
 10
2761.690000
 11
2506.250000
 20
1652.962000
 21
1766.691000
  0
LINE
  8
0
 10
2506.250000
 11
2280.038000
 20
1766.691000
 21
1931.044000
  0
LINE
  8
0
 10
2280.038000
 11
2092.940000
 20
1931.044000
 21
2138.837000
  0
LINE
  8
0
 10
2092.940000
 11
1953.133000
 20
2138.837000
 21
2380.990000
  0
LINE
  8
0
 10
1953.133000
 11
1866.728000
 20
2380.990000
 21
2646.918000
  0
LINE
  8
0
 10
1866.728000
 11
1837.500000
 20
2646.918000
 21
2925.000000
  0
LINE
  8
0
 10
1837.500000
 11
1866.728000
 20
5850.000000
 21
6128.082000
  0
LINE
  8
0
 10
1866.728000
 11
1953.133000
 20
6128.082000
 21
6394.010000
  0
LINE
  8
0
 10
1953.133000
 11
2092.940000
 20
6394.010000
 21
6636.163000
  0
LINE
  8
0
 10
2092.940000
 11
2280.038000
 20
6636.163000
 21
6843.956000
  0
LINE
  8
0
 10
2280.038000
 11
2506.250000
 20
6843.956000
 21
7008.309000
  0
LINE
  8
0
 10
2506.250000
 11
2761.690000
 20
7008.309000
 21
7122.038000
  0
LINE
  8
0
 10
2761.690000
 11
3035.193000
 20
7122.038000
 21
7180.173000
  0
LINE
  8
0
 10
3035.193000
 11
3314.807000
 20
7180.173000
 21
7180.173000
  0
LINE
  8
0
 10
3314.807000
 11
3588.310000
 20
7180.173000
 21
7122.038000
  0
LINE
  8
0
 10
3588.310000
 11
3843.750000
 20
7122.038000
 21
7008.309000
  0
LINE
  8
0
 10
3843.750000
 11
4069.962000
 20
7008.309000
 21
6843.956000
  0
LINE
  8
0
 10
4069.962000
 11
4257.060000
 20
6843.956000
 21
6636.163000
  0
LINE
  8
0
 10
4257.060000
 11
4396.867000
 20
6636.163000
 21
6394.010000
  0
LINE
  8
0
 10
4396.867000
 11
4483.272000
 20
6394.010000
 21
6128.082000
  0
LINE
  8
0
 10
4483.272000
 11
4512.500000
 20
6128.082000
 21
5850.000000
  0
LINE
  8
0
 10
4512.500000
 11
4483.272000
 20
5850.000000
 21
5571.918000
  0
LINE
  8
0
 10
4483.272000
 11
4396.867000
 20
5571.918000
 21
5305.990000
  0
LINE
  8
0
 10
4396.867000
 11
4257.060000
 20
5305.990000
 21
5063.837000
  0
LINE
  8
0
 10
4257.060000
 11
4069.962000
 20
5063.837000
 21
4856.044000
  0
LINE
  8
0
 10
4069.962000
 11
3843.750000
 20
4856.044000
 21
4691.691000
  0
LINE
  8
0
 10
3843.750000
 11
3588.310000
 20
4691.691000
 21
4577.962000
  0
LINE
  8
0
 10
3588.310000
 11
3314.807000
 20
4577.962000
 21
4519.827000
  0
LINE
  8
0
 10
3314.807000
 11
3035.193000
 20
4519.827000
 21
4519.827000
  0
LINE
  8
0
 10
3035.193000
 11
2761.690000
 20
4519.827000
 21
4577.962000
  0
LINE
  8
0
 10
2761.690000
 11
2506.250000
 20
4577.962000
 21
4691.691000
  0
LINE
  8
0
 10
2506.250000
 11
2280.038000
 20
4691.691000
 21
4856.044000
  0
LINE
  8
0
 10
2280.038000
 11
2092.940000
 20
4856.044000
 21
5063.837000
  0
LINE
  8
0
 10
2092.940000
 11
1953.133000
 20
5063.837000
 21
5305.990000
  0
LINE
  8
0
 10
1953.133000
 11
1866.728000
 20
5305.990000
 21
5571.918000
  0
LINE
  8
0
 10
1866.728000
 11
1837.500000
 20
5571.918000
 21
5850.000000
  0
LINE
  8
0
 10
2131.250000
 11
2133.982000
 20
11462.500000
 21
11488.489000
  0
LINE
  8
0
 10
2133.982000
 11
2142.057000
 20
11488.489000
 21
11513.342000
  0
LINE
  8
0
 10
2142.057000
 11
2155.123000
 20
11513.342000
 21
11535.973000
  0
LINE
  8
0
 10
2155.123000
 11
2172.609000
 20
11535.973000
 21
11555.393000
  0
LINE
  8
0
 10
2172.609000
 11
2193.750000
 20
11555.393000
 21
11570.753000
  0
LINE
  8
0
 10
2193.750000
 11
2217.623000
 20
11570.753000
 21
11581.382000
  0
LINE
  8
0
 10
2217.623000
 11
2243.184000
 20
11581.382000
 21
11586.815000
  0
LINE
  8
0
 10
2243.184000
 11
2269.316000
 20
11586.815000
 21
11586.815000
  0
LINE
  8
0
 10
2269.316000
 11
2294.877000
 20
11586.815000
 21
11581.382000
  0
LINE
  8
0
 10
2294.877000
 11
2318.750000
 20
11581.382000
 21
11570.753000
  0
LINE
  8
0
 10
2318.750000
 11
2339.891000
 20
11570.753000
 21
11555.393000
  0
LINE
  8
0
 10
2339.891000
 11
2357.377000
 20
11555.393000
 21
11535.973000
  0
LINE
  8
0
 10
2357.377000
 11
2370.443000
 20
11535.973000
 21
11513.342000
  0
LINE
  8
0
 10
2370.443000
 11
2378.518000
 20
11513.342000
 21
11488.489000
  0
LINE
  8
0
 10
2378.518000
 11
2381.250000
 20
11488.489000
 21
11462.500000
  0
LINE
  8
0
 10
2381.250000
 11
2378.518000
 20
11462.500000
 21
11436.511000
  0
LINE
  8
0
 10
2378.518000
 11
2370.443000
 20
11436.511000
 21
11411.658000
  0
LINE
  8
0
 10
2370.443000
 11
2357.377000
 20
11411.658000
 21
11389.027000
  0
LINE
  8
0
 10
2357.377000
 11
2339.891000
 20
11389.027000
 21
11369.607000
  0
LINE
  8
0
 10
2339.891000
 11
2318.750000
 20
11369.607000
 21
11354.247000
  0
LINE
  8
0
 10
2318.750000
 11
2294.877000
 20
11354.247000
 21
11343.618000
  0
LINE
  8
0
 10
2294.877000
 11
2269.316000
 20
11343.618000
 21
11338.185000
  0
LINE
  8
0
 10
2269.316000
 11
2243.184000
 20
11338.185000
 21
11338.185000
  0
LINE
  8
0
 10
2243.184000
 11
2217.623000
 20
11338.185000
 21
11343.618000
  0
LINE
  8
0
 10
2217.623000
 11
2193.750000
 20
11343.618000
 21
11354.247000
  0
LINE
  8
0
 10
2193.750000
 11
2172.609000
 20
11354.247000
 21
11369.607000
  0
LINE
  8
0
 10
2172.609000
 11
2155.123000
 20
11369.607000
 21
11389.027000
  0
LINE
  8
0
 10
2155.123000
 11
2142.057000
 20
11389.027000
 21
11411.658000
  0
LINE
  8
0
 10
2142.057000
 11
2133.982000
 20
11411.658000
 21
11436.511000
  0
LINE
  8
0
 10
2133.982000
 11
2131.250000
 20
11436.511000
 21
11462.500000
  0
LINE
  8
0
 10
2131.250000
 11
2133.982000
 20
14387.500000
 21
14413.489000
  0
LINE
  8
0
 10
2133.982000
 11
2142.057000
 20
14413.489000
 21
14438.342000
  0
LINE
  8
0
 10
2142.057000
 11
2155.123000
 20
14438.342000
 21
14460.973000
  0
LINE
  8
0
 10
2155.123000
 11
2172.609000
 20
14460.973000
 21
14480.393000
  0
LINE
  8
0
 10
2172.609000
 11
2193.750000
 20
14480.393000
 21
14495.753000
  0
LINE
  8
0
 10
2193.750000
 11
2217.623000
 20
14495.753000
 21
14506.382000
  0
LINE
  8
0
 10
2217.623000
 11
2243.184000
 20
14506.382000
 21
14511.815000
  0
LINE
  8
0
 10
2243.184000
 11
2269.316000
 20
14511.815000
 21
14511.815000
  0
LINE
  8
0
 10
2269.316000
 11
2294.877000
 20
14511.815000
 21
14506.382000
  0
LINE
  8
0
 10
2294.877000
 11
2318.750000
 20
14506.382000
 21
14495.753000
  0
LINE
  8
0
 10
2318.750000
 11
2339.891000
 20
14495.753000
 21
14480.393000
  0
LINE
  8
0
 10
2339.891000
 11
2357.377000
 20
14480.393000
 21
14460.973000
  0
LINE
  8
0
 10
2357.377000
 11
2370.443000
 20
14460.973000
 21
14438.342000
  0
LINE
  8
0
 10
2370.443000
 11
2378.518000
 20
14438.342000
 21
14413.489000
  0
LINE
  8
0
 10
2378.518000
 11
2381.250000
 20
14413.489000
 21
14387.500000
  0
LINE
  8
0
 10
2381.250000
 11
2378.518000
 20
14387.500000
 21
14361.511000
  0
LINE
  8
0
 10
2378.518000
 11
2370.443000
 20
14361.511000
 21
14336.658000
  0
LINE
  8
0
 10
2370.443000
 11
2357.377000
 20
14336.658000
 21
14314.027000
  0
LINE
  8
0
 10
2357.377000
 11
2339.891000
 20
14314.027000
 21
14294.607000
  0
LINE
  8
0
 10
2339.891000
 11
2318.750000
 20
14294.607000
 21
14279.247000
  0
LINE
  8
0
 10
2318.750000
 11
2294.877000
 20
14279.247000
 21
14268.618000
  0
LINE
  8
0
 10
2294.877000
 11
2269.316000
 20
14268.618000
 21
14263.185000
  0
LINE
  8
0
 10
2269.316000
 11
2243.184000
 20
14263.185000
 21
14263.185000
  0
LINE
  8
0
 10
2243.184000
 11
2217.623000
 20
14263.185000
 21
14268.618000
  0
LINE
  8
0
 10
2217.623000
 11
2193.750000
 20
14268.618000
 21
14279.247000
  0
LINE
  8
0
 10
2193.750000
 11
2172.609000
 20
14279.247000
 21
14294.607000
  0
LINE
  8
0
 10
2172.609000
 11
2155.123000
 20
14294.607000
 21
14314.027000
  0
LINE
  8
0
 10
2155.123000
 11
2142.057000
 20
14314.027000
 21
14336.658000
  0
LINE
  8
0
 10
2142.057000
 11
2133.982000
 20
14336.658000
 21
14361.511000
  0
LINE
  8
0
 10
2133.982000
 11
2131.250000
 20
14361.511000
 21
14387.500000
  0
LINE
  8
0
 10
2198.750000
 11
2200.007000
 20
1462.500000
 21
1474.455000
  0
LINE
  8
0
 10
2200.007000
 11
2203.721000
 20
1474.455000
 21
1485.887000
  0
LINE
  8
0
 10
2203.721000
 11
2209.732000
 20
1485.887000
 21
1496.298000
  0
LINE
  8
0
 10
2209.732000
 11
2217.775000
 20
1496.298000
 21
1505.231000
  0
LINE
  8
0
 10
2217.775000
 11
2227.500000
 20
1505.231000
 21
1512.296000
  0
LINE
  8
0
 10
2227.500000
 11
2238.482000
 20
1512.296000
 21
1517.186000
  0
LINE
  8
0
 10
2238.482000
 11
2250.240000
 20
1517.186000
 21
1519.685000
  0
LINE
  8
0
 10
2250.240000
 11
2262.260000
 20
1519.685000
 21
1519.685000
  0
LINE
  8
0
 10
2262.260000
 11
2274.018000
 20
1519.685000
 21
1517.186000
  0
LINE
  8
0
 10
2274.018000
 11
2285.000000
 20
1517.186000
 21
1512.296000
  0
LINE
  8
0
 10
2285.000000
 11
2294.725000
 20
1512.296000
 21
1505.231000
  0
LINE
  8
0
 10
2294.725000
 11
2302.768000
 20
1505.231000
 21
1496.298000
  0
LINE
  8
0
 10
2302.768000
 11
2308.779000
 20
1496.298000
 21
1485.887000
  0
LINE
  8
0
 10
2308.779000
 11
2312.493000
 20
1485.887000
 21
1474.455000
  0
LINE
  8
0
 10
2312.493000
 11
2313.750000
 20
1474.455000
 21
1462.500000
  0
LINE
  8
0
 10
2313.750000
 11
2312.493000
 20
1462.500000
 21
1450.545000
  0
LINE
  8
0
 10
2312.493000
 11
2308.779000
 20
1450.545000
 21
1439.113000
  0
LINE
  8
0
 10
2308.779000
 11
2302.768000
 20
1439.113000
 21
1428.702000
  0
LINE
  8
0
 10
2302.768000
 11
2294.725000
 20
1428.702000
 21
1419.769000
  0
LINE
  8
0
 10
2294.725000
 11
2285.000000
 20
1419.769000
 21
1412.704000
  0
LINE
  8
0
 10
2285.000000
 11
2274.018000
 20
1412.704000
 21
1407.814000
  0
LINE
  8
0
 10
2274.018000
 11
2262.260000
 20
1407.814000
 21
1405.315000
  0
LINE
  8
0
 10
2262.260000
 11
2250.240000
 20
1405.315000
 21
1405.315000
  0
LINE
  8
0
 10
2250.240000
 11
2238.482000
 20
1405.315000
 21
1407.814000
  0
LINE
  8
0
 10
2238.482000
 11
2227.500000
 20
1407.814000
 21
1412.704000
  0
LINE
  8
0
 10
2227.500000
 11
2217.775000
 20
1412.704000
 21
1419.769000
  0
LINE
  8
0
 10
2217.775000
 11
2209.732000
 20
1419.769000
 21
1428.702000
  0
LINE
  8
0
 10
2209.732000
 11
2203.721000
 20
1428.702000
 21
1439.113000
  0
LINE
  8
0
 10
2203.721000
 11
2200.007000
 20
1439.113000
 21
1450.545000
  0
LINE
  8
0
 10
2200.007000
 11
2198.750000
 20
1450.545000
 21
1462.500000
  0
LINE
  8
0
 10
2198.750000
 11
2200.007000
 20
4387.500000
 21
4399.455000
  0
LINE
  8
0
 10
2200.007000
 11
2203.721000
 20
4399.455000
 21
4410.887000
  0
LINE
  8
0
 10
2203.721000
 11
2209.732000
 20
4410.887000
 21
4421.298000
  0
LINE
  8
0
 10
2209.732000
 11
2217.775000
 20
4421.298000
 21
4430.231000
  0
LINE
  8
0
 10
2217.775000
 11
2227.500000
 20
4430.231000
 21
4437.296000
  0
LINE
  8
0
 10
2227.500000
 11
2238.482000
 20
4437.296000
 21
4442.186000
  0
LINE
  8
0
 10
2238.482000
 11
2250.240000
 20
4442.186000
 21
4444.685000
  0
LINE
  8
0
 10
2250.240000
 11
2262.260000
 20
4444.685000
 21
4444.685000
  0
LINE
  8
0
 10
2262.260000
 11
2274.018000
 20
4444.685000
 21
4442.186000
  0
LINE
  8
0
 10
2274.018000
 11
2285.000000
 20
4442.186000
 21
4437.296000
  0
LINE
  8
0
 10
2285.000000
 11
2294.725000
 20
4437.296000
 21
4430.231000
  0
LINE
  8
0
 10
2294.725000
 11
2302.768000
 20
4430.231000
 21
4421.298000
  0
LINE
  8
0
 10
2302.768000
 11
2308.779000
 20
4421.298000
 21
4410.887000
  0
LINE
  8
0
 10
2308.779000
 11
2312.493000
 20
4410.887000
 21
4399.455000
  0
LINE
  8
0
 10
2312.493000
 11
2313.750000
 20
4399.455000
 21
4387.500000
  0
LINE
  8
0
 10
2313.750000
 11
2312.493000
 20
4387.500000
 21
4375.545000
  0
LINE
  8
0
 10
2312.493000
 11
2308.779000
 20
4375.545000
 21
4364.113000
  0
LINE
  8
0
 10
2308.779000
 11
2302.768000
 20
4364.113000
 21
4353.702000
  0
LINE
  8
0
 10
2302.768000
 11
2294.725000
 20
4353.702000
 21
4344.769000
  0
LINE
  8
0
 10
2294.725000
 11
2285.000000
 20
4344.769000
 21
4337.704000
  0
LINE
  8
0
 10
2285.000000
 11
2274.018000
 20
4337.704000
 21
4332.814000
  0
LINE
  8
0
 10
2274.018000
 11
2262.260000
 20
4332.814000
 21
4330.315000
  0
LINE
  8
0
 10
2262.260000
 11
2250.240000
 20
4330.315000
 21
4330.315000
  0
LINE
  8
0
 10
2250.240000
 11
2238.482000
 20
4330.315000
 21
4332.814000
  0
LINE
  8
0
 10
2238.482000
 11
2227.500000
 20
4332.814000
 21
4337.704000
  0
LINE
  8
0
 10
2227.500000
 11
2217.775000
 20
4337.704000
 21
4344.769000
  0
LINE
  8
0
 10
2217.775000
 11
2209.732000
 20
4344.769000
 21
4353.702000
  0
LINE
  8
0
 10
2209.732000
 11
2203.721000
 20
4353.702000
 21
4364.113000
  0
LINE
  8
0
 10
2203.721000
 11
2200.007000
 20
4364.113000
 21
4375.545000
  0
LINE
  8
0
 10
2200.007000
 11
2198.750000
 20
4375.545000
 21
4387.500000
  0
LINE
  8
0
 10
6412.500000
 11
6412.500000
 20
0.000000
 21
1212.500000
  0
LINE
  8
0
 10
6412.500000
 11
6600.000000
 20
1212.500000
 21
1212.500000
  0
LINE
  8
0
 10
6600.000000
 11
6600.000000
 20
1212.500000
 21
1712.500000
  0
LINE
  8
0
 10
6600.000000
 11
6412.500000
 20
1712.500000
 21
1712.500000
  0
LINE
  8
0
 10
6412.500000
 11
6412.500000
 20
1712.500000
 21
4137.500000
  0
LINE
  8
0
 10
6412.500000
 11
6600.000000
 20
4137.500000
 21
4137.500000
  0
LINE
  8
0
 10
6600.000000
 11
6600.000000
 20
4137.500000
 21
4637.500000
  0
LINE
  8
0
 10
6600.000000
 11
6412.500000
 20
4637.500000
 21
4637.500000
  0
LINE
  8
0
 10
6412.500000
 11
6412.500000
 20
4637.500000
 21
5850.000000
  0
LINE
  8
0
 10
6412.500000
 11
6447.191000
 20
5850.000000
 21
6180.060000
  0
LINE
  8
0
 10
6447.191000
 11
6549.747000
 20
6180.060000
 21
6495.694000
  0
LINE
  8
0
 10
6549.747000
 11
6715.686000
 20
6495.694000
 21
6783.109000
  0
LINE
  8
0
 10
6715.686000
 11
6937.755000
 20
6783.109000
 21
7029.742000
  0
LINE
  8
0
 10
6937.755000
 11
7206.250000
 20
7029.742000
 21
7224.815000
  0
LINE
  8
0
 10
7206.250000
 11
7509.436000
 20
7224.815000
 21
7359.802000
  0
LINE
  8
0
 10
7509.436000
 11
7834.061000
 20
7359.802000
 21
7428.804000
  0
LINE
  8
0
 10
7834.061000
 11
8000.000000
 20
7428.804000
 21
7428.804000
  0
LINE
  8
0
 10
8000.000000
 11
8000.000000
 20
7428.804000
 21
7437.500000
  0
LINE
  8
0
 10
8000.000000
 11
11175.000000
 20
7437.500000
 21
7437.500000
  0
LINE
  8
0
 10
11175.000000
 11
11175.000000
 20
7437.500000
 21
7428.804000
  0
LINE
  8
0
 10
11175.000000
 11
11340.939000
 20
7428.804000
 21
7428.804000
  0
LINE
  8
0
 10
11340.939000
 11
11665.564000
 20
7428.804000
 21
7359.802000
  0
LINE
  8
0
 10
11665.564000
 11
11968.750000
 20
7359.802000
 21
7224.815000
  0
LINE
  8
0
 10
11968.750000
 11
12237.245000
 20
7224.815000
 21
7029.742000
  0
LINE
  8
0
 10
12237.245000
 11
12459.314000
 20
7029.742000
 21
6783.109000
  0
LINE
  8
0
 10
12459.314000
 11
12625.253000
 20
6783.109000
 21
6495.694000
  0
LINE
  8
0
 10
12625.253000
 11
12727.809000
 20
6495.694000
 21
6180.060000
  0
LINE
  8
0
 10
12727.809000
 11
12762.500000
 20
6180.060000
 21
5850.000000
  0
LINE
  8
0
 10
12762.500000
 11
12762.500000
 20
5850.000000
 21
4637.500000
  0
LINE
  8
0
 10
12762.500000
 11
12575.000000
 20
4637.500000
 21
4637.500000
  0
LINE
  8
0
 10
12575.000000
 11
12575.000000
 20
4637.500000
 21
4137.500000
  0
LINE
  8
0
 10
12575.000000
 11
12762.500000
 20
4137.500000
 21
4137.500000
  0
LINE
  8
0
 10
12762.500000
 11
12762.500000
 20
4137.500000
 21
1712.500000
  0
LINE
  8
0
 10
12762.500000
 11
12575.000000
 20
1712.500000
 21
1712.500000
  0
LINE
  8
0
 10
12575.000000
 11
12575.000000
 20
1712.500000
 21
1212.500000
  0
LINE
  8
0
 10
12575.000000
 11
12762.500000
 20
1212.500000
 21
1212.500000
  0
LINE
  8
0
 10
12762.500000
 11
12762.500000
 20
1212.500000
 21
0.000000
  0
LINE
  8
0
 10
12762.500000
 11
12727.809000
 20
0.000000
 21
-330.060000
  0
LINE
  8
0
 10
12727.809000
 11
12625.253000
 20
-330.060000
 21
-645.694000
  0
LINE
  8
0
 10
12625.253000
 11
12459.314000
 20
-645.694000
 21
-933.109000
  0
LINE
  8
0
 10
12459.314000
 11
12237.245000
 20
-933.109000
 21
-1179.742000
  0
LINE
  8
0
 10
12237.245000
 11
11968.750000
 20
-1179.742000
 21
-1374.815000
  0
LINE
  8
0
 10
11968.750000
 11
11665.564000
 20
-1374.815000
 21
-1509.802000
  0
LINE
  8
0
 10
11665.564000
 11
11340.939000
 20
-1509.802000
 21
-1578.804000
  0
LINE
  8
0
 10
11340.939000
 11
11175.000000
 20
-1578.804000
 21
-1578.804000
  0
LINE
  8
0
 10
11175.000000
 11
11175.000000
 20
-1578.804000
 21
-1587.500000
  0
LINE
  8
0
 10
11175.000000
 11
8000.000000
 20
-1587.500000
 21
-1587.500000
  0
LINE
  8
0
 10
8000.000000
 11
8000.000000
 20
-1587.500000
 21
-1578.804000
  0
LINE
  8
0
 10
8000.000000
 11
7834.061000
 20
-1578.804000
 21
-1578.804000
  0
LINE
  8
0
 10
7834.061000
 11
7509.436000
 20
-1578.804000
 21
-1509.802000
  0
LINE
  8
0
 10
7509.436000
 11
7206.250000
 20
-1509.802000
 21
-1374.815000
  0
LINE
  8
0
 10
7206.250000
 11
6937.755000
 20
-1374.815000
 21
-1179.742000
  0
LINE
  8
0
 10
6937.755000
 11
6715.686000
 20
-1179.742000
 21
-933.109000
  0
LINE
  8
0
 10
6715.686000
 11
6549.747000
 20
-933.109000
 21
-645.694000
  0
LINE
  8
0
 10
6549.747000
 11
6447.191000
 20
-645.694000
 21
-330.060000
  0
LINE
  8
0
 10
6447.191000
 11
6412.500000
 20
-330.060000
 21
0.000000
  0
LINE
  8
0
 10
6662.500000
 11
6691.728000
 20
0.000000
 21
278.082000
  0
LINE
  8
0
 10
6691.728000
 11
6778.133000
 20
278.082000
 21
544.010000
  0
LINE
  8
0
 10
6778.133000
 11
6917.940000
 20
544.010000
 21
786.163000
  0
LINE
  8
0
 10
6917.940000
 11
7105.038000
 20
786.163000
 21
993.956000
  0
LINE
  8
0
 10
7105.038000
 11
7331.250000
 20
993.956000
 21
1158.309000
  0
LINE
  8
0
 10
7331.250000
 11
7586.690000
 20
1158.309000
 21
1272.038000
  0
LINE
  8
0
 10
7586.690000
 11
7860.193000
 20
1272.038000
 21
1330.173000
  0
LINE
  8
0
 10
7860.193000
 11
8139.807000
 20
1330.173000
 21
1330.173000
  0
LINE
  8
0
 10
8139.807000
 11
8413.310000
 20
1330.173000
 21
1272.038000
  0
LINE
  8
0
 10
8413.310000
 11
8668.750000
 20
1272.038000
 21
1158.309000
  0
LINE
  8
0
 10
8668.750000
 11
8894.962000
 20
1158.309000
 21
993.956000
  0
LINE
  8
0
 10
8894.962000
 11
9082.060000
 20
993.956000
 21
786.163000
  0
LINE
  8
0
 10
9082.060000
 11
9221.867000
 20
786.163000
 21
544.010000
  0
LINE
  8
0
 10
9221.867000
 11
9308.272000
 20
544.010000
 21
278.082000
  0
LINE
  8
0
 10
9308.272000
 11
9337.500000
 20
278.082000
 21
0.000000
  0
LINE
  8
0
 10
9337.500000
 11
9308.272000
 20
0.000000
 21
-278.082000
  0
LINE
  8
0
 10
9308.272000
 11
9221.867000
 20
-278.082000
 21
-544.010000
  0
LINE
  8
0
 10
9221.867000
 11
9082.060000
 20
-544.010000
 21
-786.163000
  0
LINE
  8
0
 10
9082.060000
 11
8894.962000
 20
-786.163000
 21
-993.956000
  0
LINE
  8
0
 10
8894.962000
 11
8668.750000
 20
-993.956000
 21
-1158.309000
  0
LINE
  8
0
 10
8668.750000
 11
8413.310000
 20
-1158.309000
 21
-1272.038000
  0
LINE
  8
0
 10
8413.310000
 11
8139.807000
 20
-1272.038000
 21
-1330.173000
  0
LINE
  8
0
 10
8139.807000
 11
7860.193000
 20
-1330.173000
 21
-1330.173000
  0
LINE
  8
0
 10
7860.193000
 11
7586.690000
 20
-1330.173000
 21
-1272.038000
  0
LINE
  8
0
 10
7586.690000
 11
7331.250000
 20
-1272.038000
 21
-1158.309000
  0
LINE
  8
0
 10
7331.250000
 11
7105.038000
 20
-1158.309000
 21
-993.956000
  0
LINE
  8
0
 10
7105.038000
 11
6917.940000
 20
-993.956000
 21
-786.163000
  0
LINE
  8
0
 10
6917.940000
 11
6778.133000
 20
-786.163000
 21
-544.010000
  0
LINE
  8
0
 10
6778.133000
 11
6691.728000
 20
-544.010000
 21
-278.082000
  0
LINE
  8
0
 10
6691.728000
 11
6662.500000
 20
-278.082000
 21
0.000000
  0
LINE
  8
0
 10
6662.500000
 11
6691.728000
 20
2925.000000
 21
3203.082000
  0
LINE
  8
0
 10
6691.728000
 11
6778.133000
 20
3203.082000
 21
3469.010000
  0
LINE
  8
0
 10
6778.133000
 11
6917.940000
 20
3469.010000
 21
3711.163000
  0
LINE
  8
0
 10
6917.940000
 11
7105.038000
 20
3711.163000
 21
3918.956000
  0
LINE
  8
0
 10
7105.038000
 11
7331.250000
 20
3918.956000
 21
4083.309000
  0
LINE
  8
0
 10
7331.250000
 11
7586.690000
 20
4083.309000
 21
4197.038000
  0
LINE
  8
0
 10
7586.690000
 11
7860.193000
 20
4197.038000
 21
4255.173000
  0
LINE
  8
0
 10
7860.193000
 11
8139.807000
 20
4255.173000
 21
4255.173000
  0
LINE
  8
0
 10
8139.807000
 11
8413.310000
 20
4255.173000
 21
4197.038000
  0
LINE
  8
0
 10
8413.310000
 11
8668.750000
 20
4197.038000
 21
4083.309000
  0
LINE
  8
0
 10
8668.750000
 11
8894.962000
 20
4083.309000
 21
3918.956000
  0
LINE
  8
0
 10
8894.962000
 11
9082.060000
 20
3918.956000
 21
3711.163000
  0
LINE
  8
0
 10
9082.060000
 11
9221.867000
 20
3711.163000
 21
3469.010000
  0
LINE
  8
0
 10
9221.867000
 11
9308.272000
 20
3469.010000
 21
3203.082000
  0
LINE
  8
0
 10
9308.272000
 11
9337.500000
 20
3203.082000
 21
2925.000000
  0
LINE
  8
0
 10
9337.500000
 11
9308.272000
 20
2925.000000
 21
2646.918000
  0
LINE
  8
0
 10
9308.272000
 11
9221.867000
 20
2646.918000
 21
2380.990000
  0
LINE
  8
0
 10
9221.867000
 11
9082.060000
 20
2380.990000
 21
2138.837000
  0
LINE
  8
0
 10
9082.060000
 11
8894.962000
 20
2138.837000
 21
1931.044000
  0
LINE
  8
0
 10
8894.962000
 11
8668.750000
 20
1931.044000
 21
1766.691000
  0
LINE
  8
0
 10
8668.750000
 11
8413.310000
 20
1766.691000
 21
1652.962000
  0
LINE
  8
0
 10
8413.310000
 11
8139.807000
 20
1652.962000
 21
1594.827000
  0
LINE
  8
0
 10
8139.807000
 11
7860.193000
 20
1594.827000
 21
1594.827000
  0
LINE
  8
0
 10
7860.193000
 11
7586.690000
 20
1594.827000
 21
1652.962000
  0
LINE
  8
0
 10
7586.690000
 11
7331.250000
 20
1652.962000
 21
1766.691000
  0
LINE
  8
0
 10
7331.250000
 11
7105.038000
 20
1766.691000
 21
1931.044000
  0
LINE
  8
0
 10
7105.038000
 11
6917.940000
 20
1931.044000
 21
2138.837000
  0
LINE
  8
0
 10
6917.940000
 11
6778.133000
 20
2138.837000
 21
2380.990000
  0
LINE
  8
0
 10
6778.133000
 11
6691.728000
 20
2380.990000
 21
2646.918000
  0
LINE
  8
0
 10
6691.728000
 11
6662.500000
 20
2646.918000
 21
2925.000000
  0
LINE
  8
0
 10
6662.500000
 11
6691.728000
 20
5850.000000
 21
6128.082000
  0
LINE
  8
0
 10
6691.728000
 11
6778.133000
 20
6128.082000
 21
6394.010000
  0
LINE
  8
0
 10
6778.133000
 11
6917.940000
 20
6394.010000
 21
6636.163000
  0
LINE
  8
0
 10
6917.940000
 11
7105.038000
 20
6636.163000
 21
6843.956000
  0
LINE
  8
0
 10
7105.038000
 11
7331.250000
 20
6843.956000
 21
7008.309000
  0
LINE
  8
0
 10
7331.250000
 11
7586.690000
 20
7008.309000
 21
7122.038000
  0
LINE
  8
0
 10
7586.690000
 11
7860.193000
 20
7122.038000
 21
7180.173000
  0
LINE
  8
0
 10
7860.193000
 11
8139.807000
 20
7180.173000
 21
7180.173000
  0
LINE
  8
0
 10
8139.807000
 11
8413.310000
 20
7180.173000
 21
7122.038000
  0
LINE
  8
0
 10
8413.310000
 11
8668.750000
 20
7122.038000
 21
7008.309000
  0
LINE
  8
0
 10
8668.750000
 11
8894.962000
 20
7008.309000
 21
6843.956000
  0
LINE
  8
0
 10
8894.962000
 11
9082.060000
 20
6843.956000
 21
6636.163000
  0
LINE
  8
0
 10
9082.060000
 11
9221.867000
 20
6636.163000
 21
6394.010000
  0
LINE
  8
0
 10
9221.867000
 11
9308.272000
 20
6394.010000
 21
6128.082000
  0
LINE
  8
0
 10
9308.272000
 11
9337.500000
 20
6128.082000
 21
5850.000000
  0
LINE
  8
0
 10
9337.500000
 11
9308.272000
 20
5850.000000
 21
5571.918000
  0
LINE
  8
0
 10
9308.272000
 11
9221.867000
 20
5571.918000
 21
5305.990000
  0
LINE
  8
0
 10
9221.867000
 11
9082.060000
 20
5305.990000
 21
5063.837000
  0
LINE
  8
0
 10
9082.060000
 11
8894.962000
 20
5063.837000
 21
4856.044000
  0
LINE
  8
0
 10
8894.962000
 11
8668.750000
 20
4856.044000
 21
4691.691000
  0
LINE
  8
0
 10
8668.750000
 11
8413.310000
 20
4691.691000
 21
4577.962000
  0
LINE
  8
0
 10
8413.310000
 11
8139.807000
 20
4577.962000
 21
4519.827000
  0
LINE
  8
0
 10
8139.807000
 11
7860.193000
 20
4519.827000
 21
4519.827000
  0
LINE
  8
0
 10
7860.193000
 11
7586.690000
 20
4519.827000
 21
4577.962000
  0
LINE
  8
0
 10
7586.690000
 11
7331.250000
 20
4577.962000
 21
4691.691000
  0
LINE
  8
0
 10
7331.250000
 11
7105.038000
 20
4691.691000
 21
4856.044000
  0
LINE
  8
0
 10
7105.038000
 11
6917.940000
 20
4856.044000
 21
5063.837000
  0
LINE
  8
0
 10
6917.940000
 11
6778.133000
 20
5063.837000
 21
5305.990000
  0
LINE
  8
0
 10
6778.133000
 11
6691.728000
 20
5305.990000
 21
5571.918000
  0
LINE
  8
0
 10
6691.728000
 11
6662.500000
 20
5571.918000
 21
5850.000000
  0
LINE
  8
0
 10
6812.500000
 11
6812.500000
 20
10156.250000
 21
10343.750000
  0
LINE
  8
0
 10
6812.500000
 11
7000.000000
 20
10343.750000
 21
10343.750000
  0
LINE
  8
0
 10
7000.000000
 11
7000.000000
 20
10343.750000
 21
10775.833000
  0
LINE
  8
0
 10
7000.000000
 11
7192.500000
 20
10775.833000
 21
10775.833000
  0
LINE
  8
0
 10
7192.500000
 11
7192.500000
 20
10775.833000
 21
10705.833000
  0
LINE
  8
0
 10
7192.500000
 11
7292.500000
 20
10705.833000
 21
10705.833000
  0
LINE
  8
0
 10
7292.500000
 11
7292.500000
 20
10705.833000
 21
10960.833000
  0
LINE
  8
0
 10
7292.500000
 11
7192.500000
 20
10960.833000
 21
10960.833000
  0
LINE
  8
0
 10
7192.500000
 11
7192.500000
 20
10960.833000
 21
10890.833000
  0
LINE
  8
0
 10
7192.500000
 11
7000.000000
 20
10890.833000
 21
10890.833000
  0
LINE
  8
0
 10
7000.000000
 11
7000.000000
 20
10890.833000
 21
12000.000000
  0
LINE
  8
0
 10
7000.000000
 11
9261.250000
 20
12000.000000
 21
12000.000000
  0
LINE
  8
0
 10
9261.250000
 11
9261.250000
 20
12000.000000
 21
11807.500000
  0
LINE
  8
0
 10
9261.250000
 11
9191.250000
 20
11807.500000
 21
11807.500000
  0
LINE
  8
0
 10
9191.250000
 11
9191.250000
 20
11807.500000
 21
11707.500000
  0
LINE
  8
0
 10
9191.250000
 11
9446.250000
 20
11707.500000
 21
11707.500000
  0
LINE
  8
0
 10
9446.250000
 11
9446.250000
 20
11707.500000
 21
11807.500000
  0
LINE
  8
0
 10
9446.250000
 11
9376.250000
 20
11807.500000
 21
11807.500000
  0
LINE
  8
0
 10
9376.250000
 11
9376.250000
 20
11807.500000
 21
12000.000000
  0
LINE
  8
0
 10
9376.250000
 11
10598.750000
 20
12000.000000
 21
12000.000000
  0
LINE
  8
0
 10
10598.750000
 11
10598.750000
 20
12000.000000
 21
11807.500000
  0
LINE
  8
0
 10
10598.750000
 11
10528.750000
 20
11807.500000
 21
11807.500000
  0
LINE
  8
0
 10
10528.750000
 11
10528.750000
 20
11807.500000
 21
11707.500000
  0
LINE
  8
0
 10
10528.750000
 11
10783.750000
 20
11707.500000
 21
11707.500000
  0
LINE
  8
0
 10
10783.750000
 11
10783.750000
 20
11707.500000
 21
11807.500000
  0
LINE
  8
0
 10
10783.750000
 11
10713.750000
 20
11807.500000
 21
11807.500000
  0
LINE
  8
0
 10
10713.750000
 11
10713.750000
 20
11807.500000
 21
12000.000000
  0
LINE
  8
0
 10
10713.750000
 11
12975.000000
 20
12000.000000
 21
12000.000000
  0
LINE
  8
0
 10
12975.000000
 11
12975.000000
 20
12000.000000
 21
10890.833000
  0
LINE
  8
0
 10
12975.000000
 11
12782.500000
 20
10890.833000
 21
10890.833000
  0
LINE
  8
0
 10
12782.500000
 11
12782.500000
 20
10890.833000
 21
10960.833000
  0
LINE
  8
0
 10
12782.500000
 11
12682.500000
 20
10960.833000
 21
10960.833000
  0
LINE
  8
0
 10
12682.500000
 11
12682.500000
 20
10960.833000
 21
10705.833000
  0
LINE
  8
0
 10
12682.500000
 11
12782.500000
 20
10705.833000
 21
10705.833000
  0
LINE
  8
0
 10
12782.500000
 11
12782.500000
 20
10705.833000
 21
10775.833000
  0
LINE
  8
0
 10
12782.500000
 11
12975.000000
 20
10775.833000
 21
10775.833000
  0
LINE
  8
0
 10
12975.000000
 11
12975.000000
 20
10775.833000
 21
10343.750000
  0
LINE
  8
0
 10
12975.000000
 11
13162.500000
 20
10343.750000
 21
10343.750000
  0
LINE
  8
0
 10
13162.500000
 11
13162.500000
 20
10343.750000
 21
10156.250000
  0
LINE
  8
0
 10
13162.500000
 11
12975.000000
 20
10156.250000
 21
10156.250000
  0
LINE
  8
0
 10
12975.000000
 11
12975.000000
 20
10156.250000
 21
9724.167000
  0
LINE
  8
0
 10
12975.000000
 11
12782.500000
 20
9724.167000
 21
9724.167000
  0
LINE
  8
0
 10
12782.500000
 11
12782.500000
 20
9724.167000
 21
9794.167000
  0
LINE
  8
0
 10
12782.500000
 11
12682.500000
 20
9794.167000
 21
9794.167000
  0
LINE
  8
0
 10
12682.500000
 11
12682.500000
 20
9794.167000
 21
9539.167000
  0
LINE
  8
0
 10
12682.500000
 11
12782.500000
 20
9539.167000
 21
9539.167000
  0
LINE
  8
0
 10
12782.500000
 11
12782.500000
 20
9539.167000
 21
9609.167000
  0
LINE
  8
0
 10
12782.500000
 11
12975.000000
 20
9609.167000
 21
9609.167000
  0
LINE
  8
0
 10
12975.000000
 11
12975.000000
 20
9609.167000
 21
8500.000000
  0
LINE
  8
0
 10
12975.000000
 11
10713.750000
 20
8500.000000
 21
8500.000000
  0
LINE
  8
0
 10
10713.750000
 11
10713.750000
 20
8500.000000
 21
8692.500000
  0
LINE
  8
0
 10
10713.750000
 11
10783.750000
 20
8692.500000
 21
8692.500000
  0
LINE
  8
0
 10
10783.750000
 11
10783.750000
 20
8692.500000
 21
8792.500000
  0
LINE
  8
0
 10
10783.750000
 11
10528.750000
 20
8792.500000
 21
8792.500000
  0
LINE
  8
0
 10
10528.750000
 11
10528.750000
 20
8792.500000
 21
8692.500000
  0
LINE
  8
0
 10
10528.750000
 11
10598.750000
 20
8692.500000
 21
8692.500000
  0
LINE
  8
0
 10
10598.750000
 11
10598.750000
 20
8692.500000
 21
8500.000000
  0
LINE
  8
0
 10
10598.750000
 11
9376.250000
 20
8500.000000
 21
8500.000000
  0
LINE
  8
0
 10
9376.250000
 11
9376.250000
 20
8500.000000
 21
8692.500000
  0
LINE
  8
0
 10
9376.250000
 11
9446.250000
 20
8692.500000
 21
8692.500000
  0
LINE
  8
0
 10
9446.250000
 11
9446.250000
 20
8692.500000
 21
8792.500000
  0
LINE
  8
0
 10
9446.250000
 11
9191.250000
 20
8792.500000
 21
8792.500000
  0
LINE
  8
0
 10
9191.250000
 11
9191.250000
 20
8792.500000
 21
8692.500000
  0
LINE
  8
0
 10
9191.250000
 11
9261.250000
 20
8692.500000
 21
8692.500000
  0
LINE
  8
0
 10
9261.250000
 11
9261.250000
 20
8692.500000
 21
8500.000000
  0
LINE
  8
0
 10
9261.250000
 11
7000.000000
 20
8500.000000
 21
8500.000000
  0
LINE
  8
0
 10
7000.000000
 11
7000.000000
 20
8500.000000
 21
9609.167000
  0
LINE
  8
0
 10
7000.000000
 11
7192.500000
 20
9609.167000
 21
9609.167000
  0
LINE
  8
0
 10
7192.500000
 11
7192.500000
 20
9609.167000
 21
9539.167000
  0
LINE
  8
0
 10
7192.500000
 11
7292.500000
 20
9539.167000
 21
9539.167000
  0
LINE
  8
0
 10
7292.500000
 11
7292.500000
 20
9539.167000
 21
9794.167000
  0
LINE
  8
0
 10
7292.500000
 11
7192.500000
 20
9794.167000
 21
9794.167000
  0
LINE
  8
0
 10
7192.500000
 11
7192.500000
 20
9794.167000
 21
9724.167000
  0
LINE
  8
0
 10
7192.500000
 11
7000.000000
 20
9724.167000
 21
9724.167000
  0
LINE
  8
0
 10
7000.000000
 11
7000.000000
 20
9724.167000
 21
10156.250000
  0
LINE
  8
0
 10
7000.000000
 11
6812.500000
 20
10156.250000
 21
10156.250000
  0
LINE
  8
0
 10
6812.500000
 11
6812.500000
 20
14656.250000
 21
14843.750000
  0
LINE
  8
0
 10
6812.500000
 11
7000.000000
 20
14843.750000
 21
14843.750000
  0
LINE
  8
0
 10
7000.000000
 11
7000.000000
 20
14843.750000
 21
15275.833000
  0
LINE
  8
0
 10
7000.000000
 11
7192.500000
 20
15275.833000
 21
15275.833000
  0
LINE
  8
0
 10
7192.500000
 11
7192.500000
 20
15275.833000
 21
15205.833000
  0
LINE
  8
0
 10
7192.500000
 11
7292.500000
 20
15205.833000
 21
15205.833000
  0
LINE
  8
0
 10
7292.500000
 11
7292.500000
 20
15205.833000
 21
15460.833000
  0
LINE
  8
0
 10
7292.500000
 11
7192.500000
 20
15460.833000
 21
15460.833000
  0
LINE
  8
0
 10
7192.500000
 11
7192.500000
 20
15460.833000
 21
15390.833000
  0
LINE
  8
0
 10
7192.500000
 11
7000.000000
 20
15390.833000
 21
15390.833000
  0
LINE
  8
0
 10
7000.000000
 11
7000.000000
 20
15390.833000
 21
16500.000000
  0
LINE
  8
0
 10
7000.000000
 11
9261.250000
 20
16500.000000
 21
16500.000000
  0
LINE
  8
0
 10
9261.250000
 11
9261.250000
 20
16500.000000
 21
16307.500000
  0
LINE
  8
0
 10
9261.250000
 11
9191.250000
 20
16307.500000
 21
16307.500000
  0
LINE
  8
0
 10
9191.250000
 11
9191.250000
 20
16307.500000
 21
16207.500000
  0
LINE
  8
0
 10
9191.250000
 11
9446.250000
 20
16207.500000
 21
16207.500000
  0
LINE
  8
0
 10
9446.250000
 11
9446.250000
 20
16207.500000
 21
16307.500000
  0
LINE
  8
0
 10
9446.250000
 11
9376.250000
 20
16307.500000
 21
16307.500000
  0
LINE
  8
0
 10
9376.250000
 11
9376.250000
 20
16307.500000
 21
16500.000000
  0
LINE
  8
0
 10
9376.250000
 11
10598.750000
 20
16500.000000
 21
16500.000000
  0
LINE
  8
0
 10
10598.750000
 11
10598.750000
 20
16500.000000
 21
16307.500000
  0
LINE
  8
0
 10
10598.750000
 11
10528.750000
 20
16307.500000
 21
16307.500000
  0
LINE
  8
0
 10
10528.750000
 11
10528.750000
 20
16307.500000
 21
16207.500000
  0
LINE
  8
0
 10
10528.750000
 11
10783.750000
 20
16207.500000
 21
16207.500000
  0
LINE
  8
0
 10
10783.750000
 11
10783.750000
 20
16207.500000
 21
16307.500000
  0
LINE
  8
0
 10
10783.750000
 11
10713.750000
 20
16307.500000
 21
16307.500000
  0
LINE
  8
0
 10
10713.750000
 11
10713.750000
 20
16307.500000
 21
16500.000000
  0
LINE
  8
0
 10
10713.750000
 11
12975.000000
 20
16500.000000
 21
16500.000000
  0
LINE
  8
0
 10
12975.000000
 11
12975.000000
 20
16500.000000
 21
15390.833000
  0
LINE
  8
0
 10
12975.000000
 11
12782.500000
 20
15390.833000
 21
15390.833000
  0
LINE
  8
0
 10
12782.500000
 11
12782.500000
 20
15390.833000
 21
15460.833000
  0
LINE
  8
0
 10
12782.500000
 11
12682.500000
 20
15460.833000
 21
15460.833000
  0
LINE
  8
0
 10
12682.500000
 11
12682.500000
 20
15460.833000
 21
15205.833000
  0
LINE
  8
0
 10
12682.500000
 11
12782.500000
 20
15205.833000
 21
15205.833000
  0
LINE
  8
0
 10
12782.500000
 11
12782.500000
 20
15205.833000
 21
15275.833000
  0
LINE
  8
0
 10
12782.500000
 11
12975.000000
 20
15275.833000
 21
15275.833000
  0
LINE
  8
0
 10
12975.000000
 11
12975.000000
 20
15275.833000
 21
14843.750000
  0
LINE
  8
0
 10
12975.000000
 11
13162.500000
 20
14843.750000
 21
14843.750000
  0
LINE
  8
0
 10
13162.500000
 11
13162.500000
 20
14843.750000
 21
14656.250000
  0
LINE
  8
0
 10
13162.500000
 11
12975.000000
 20
14656.250000
 21
14656.250000
  0
LINE
  8
0
 10
12975.000000
 11
12975.000000
 20
14656.250000
 21
14224.167000
  0
LINE
  8
0
 10
12975.000000
 11
12782.500000
 20
14224.167000
 21
14224.167000
  0
LINE
  8
0
 10
12782.500000
 11
12782.500000
 20
14224.167000
 21
14294.167000
  0
LINE
  8
0
 10
12782.500000
 11
12682.500000
 20
14294.167000
 21
14294.167000
  0
LINE
  8
0
 10
12682.500000
 11
12682.500000
 20
14294.167000
 21
14039.167000
  0
LINE
  8
0
 10
12682.500000
 11
12782.500000
 20
14039.167000
 21
14039.167000
  0
LINE
  8
0
 10
12782.500000
 11
12782.500000
 20
14039.167000
 21
14109.167000
  0
LINE
  8
0
 10
12782.500000
 11
12975.000000
 20
14109.167000
 21
14109.167000
  0
LINE
  8
0
 10
12975.000000
 11
12975.000000
 20
14109.167000
 21
13000.000000
  0
LINE
  8
0
 10
12975.000000
 11
10713.750000
 20
13000.000000
 21
13000.000000
  0
LINE
  8
0
 10
10713.750000
 11
10713.750000
 20
13000.000000
 21
13192.500000
  0
LINE
  8
0
 10
10713.750000
 11
10783.750000
 20
13192.500000
 21
13192.500000
  0
LINE
  8
0
 10
10783.750000
 11
10783.750000
 20
13192.500000
 21
13292.500000
  0
LINE
  8
0
 10
10783.750000
 11
10528.750000
 20
13292.500000
 21
13292.500000
  0
LINE
  8
0
 10
10528.750000
 11
10528.750000
 20
13292.500000
 21
13192.500000
  0
LINE
  8
0
 10
10528.750000
 11
10598.750000
 20
13192.500000
 21
13192.500000
  0
LINE
  8
0
 10
10598.750000
 11
10598.750000
 20
13192.500000
 21
13000.000000
  0
LINE
  8
0
 10
10598.750000
 11
9376.250000
 20
13000.000000
 21
13000.000000
  0
LINE
  8
0
 10
9376.250000
 11
9376.250000
 20
13000.000000
 21
13192.500000
  0
LINE
  8
0
 10
9376.250000
 11
9446.250000
 20
13192.500000
 21
13192.500000
  0
LINE
  8
0
 10
9446.250000
 11
9446.250000
 20
13192.500000
 21
13292.500000
  0
LINE
  8
0
 10
9446.250000
 11
9191.250000
 20
13292.500000
 21
13292.500000
  0
LINE
  8
0
 10
9191.250000
 11
9191.250000
 20
13292.500000
 21
13192.500000
  0
LINE
  8
0
 10
9191.250000
 11
9261.250000
 20
13192.500000
 21
13192.500000
  0
LINE
  8
0
 10
9261.250000
 11
9261.250000
 20
13192.500000
 21
13000.000000
  0
LINE
  8
0
 10
9261.250000
 11
7000.000000
 20
13000.000000
 21
13000.000000
  0
LINE
  8
0
 10
7000.000000
 11
7000.000000
 20
13000.000000
 21
14109.167000
  0
LINE
  8
0
 10
7000.000000
 11
7192.500000
 20
14109.167000
 21
14109.167000
  0
LINE
  8
0
 10
7192.500000
 11
7192.500000
 20
14109.167000
 21
14039.167000
  0
LINE
  8
0
 10
7192.500000
 11
7292.500000
 20
14039.167000
 21
14039.167000
  0
LINE
  8
0
 10
7292.500000
 11
7292.500000
 20
14039.167000
 21
14294.167000
  0
LINE
  8
0
 10
7292.500000
 11
7192.500000
 20
14294.167000
 21
14294.167000
  0
LINE
  8
0
 10
7192.500000
 11
7192.500000
 20
14294.167000
 21
14224.167000
  0
LINE
  8
0
 10
7192.500000
 11
7000.000000
 20
14224.167000
 21
14224.167000
  0
LINE
  8
0
 10
7000.000000
 11
7000.000000
 20
14224.167000
 21
14656.250000
  0
LINE
  8
0
 10
7000.000000
 11
6812.500000
 20
14656.250000
 21
14656.250000
  0
LINE
  8
0
 10
8861.250000
 11
8862.507000
 20
1462.500000
 21
1474.455000
  0
LINE
  8
0
 10
8862.507000
 11
8866.221000
 20
1474.455000
 21
1485.887000
  0
LINE
  8
0
 10
8866.221000
 11
8872.232000
 20
1485.887000
 21
1496.298000
  0
LINE
  8
0
 10
8872.232000
 11
8880.275000
 20
1496.298000
 21
1505.231000
  0
LINE
  8
0
 10
8880.275000
 11
8890.000000
 20
1505.231000
 21
1512.296000
  0
LINE
  8
0
 10
8890.000000
 11
8900.982000
 20
1512.296000
 21
1517.186000
  0
LINE
  8
0
 10
8900.982000
 11
8912.740000
 20
1517.186000
 21
1519.685000
  0
LINE
  8
0
 10
8912.740000
 11
8924.760000
 20
1519.685000
 21
1519.685000
  0
LINE
  8
0
 10
8924.760000
 11
8936.518000
 20
1519.685000
 21
1517.186000
  0
LINE
  8
0
 10
8936.518000
 11
8947.500000
 20
1517.186000
 21
1512.296000
  0
LINE
  8
0
 10
8947.500000
 11
8957.225000
 20
1512.296000
 21
1505.231000
  0
LINE
  8
0
 10
8957.225000
 11
8965.268000
 20
1505.231000
 21
1496.298000
  0
LINE
  8
0
 10
8965.268000
 11
8971.279000
 20
1496.298000
 21
1485.887000
  0
LINE
  8
0
 10
8971.279000
 11
8974.993000
 20
1485.887000
 21
1474.455000
  0
LINE
  8
0
 10
8974.993000
 11
8976.250000
 20
1474.455000
 21
1462.500000
  0
LINE
  8
0
 10
8976.250000
 11
8974.993000
 20
1462.500000
 21
1450.545000
  0
LINE
  8
0
 10
8974.993000
 11
8971.279000
 20
1450.545000
 21
1439.113000
  0
LINE
  8
0
 10
8971.279000
 11
8965.268000
 20
1439.113000
 21
1428.702000
  0
LINE
  8
0
 10
8965.268000
 11
8957.225000
 20
1428.702000
 21
1419.769000
  0
LINE
  8
0
 10
8957.225000
 11
8947.500000
 20
1419.769000
 21
1412.704000
  0
LINE
  8
0
 10
8947.500000
 11
8936.518000
 20
1412.704000
 21
1407.814000
  0
LINE
  8
0
 10
8936.518000
 11
8924.760000
 20
1407.814000
 21
1405.315000
  0
LINE
  8
0
 10
8924.760000
 11
8912.740000
 20
1405.315000
 21
1405.315000
  0
LINE
  8
0
 10
8912.740000
 11
8900.982000
 20
1405.315000
 21
1407.814000
  0
LINE
  8
0
 10
8900.982000
 11
8890.000000
 20
1407.814000
 21
1412.704000
  0
LINE
  8
0
 10
8890.000000
 11
8880.275000
 20
1412.704000
 21
1419.769000
  0
LINE
  8
0
 10
8880.275000
 11
8872.232000
 20
1419.769000
 21
1428.702000
  0
LINE
  8
0
 10
8872.232000
 11
8866.221000
 20
1428.702000
 21
1439.113000
  0
LINE
  8
0
 10
8866.221000
 11
8862.507000
 20
1439.113000
 21
1450.545000
  0
LINE
  8
0
 10
8862.507000
 11
8861.250000
 20
1450.545000
 21
1462.500000
  0
LINE
  8
0
 10
8861.250000
 11
8862.507000
 20
4387.500000
 21
4399.455000
  0
LINE
  8
0
 10
8862.507000
 11
8866.221000
 20
4399.455000
 21
4410.887000
  0
LINE
  8
0
 10
8866.221000
 11
8872.232000
 20
4410.887000
 21
4421.298000
  0
LINE
  8
0
 10
8872.232000
 11
8880.275000
 20
4421.298000
 21
4430.231000
  0
LINE
  8
0
 10
8880.275000
 11
8890.000000
 20
4430.231000
 21
4437.296000
  0
LINE
  8
0
 10
8890.000000
 11
8900.982000
 20
4437.296000
 21
4442.186000
  0
LINE
  8
0
 10
8900.982000
 11
8912.740000
 20
4442.186000
 21
4444.685000
  0
LINE
  8
0
 10
8912.740000
 11
8924.760000
 20
4444.685000
 21
4444.685000
  0
LINE
  8
0
 10
8924.760000
 11
8936.518000
 20
4444.685000
 21
4442.186000
  0
LINE
  8
0
 10
8936.518000
 11
8947.500000
 20
4442.186000
 21
4437.296000
  0
LINE
  8
0
 10
8947.500000
 11
8957.225000
 20
4437.296000
 21
4430.231000
  0
LINE
  8
0
 10
8957.225000
 11
8965.268000
 20
4430.231000
 21
4421.298000
  0
LINE
  8
0
 10
8965.268000
 11
8971.279000
 20
4421.298000
 21
4410.887000
  0
LINE
  8
0
 10
8971.279000
 11
8974.993000
 20
4410.887000
 21
4399.455000
  0
LINE
  8
0
 10
8974.993000
 11
8976.250000
 20
4399.455000
 21
4387.500000
  0
LINE
  8
0
 10
8976.250000
 11
8974.993000
 20
4387.500000
 21
4375.545000
  0
LINE
  8
0
 10
8974.993000
 11
8971.279000
 20
4375.545000
 21
4364.113000
  0
LINE
  8
0
 10
8971.279000
 11
8965.268000
 20
4364.113000
 21
4353.702000
  0
LINE
  8
0
 10
8965.268000
 11
8957.225000
 20
4353.702000
 21
4344.769000
  0
LINE
  8
0
 10
8957.225000
 11
8947.500000
 20
4344.769000
 21
4337.704000
  0
LINE
  8
0
 10
8947.500000
 11
8936.518000
 20
4337.704000
 21
4332.814000
  0
LINE
  8
0
 10
8936.518000
 11
8924.760000
 20
4332.814000
 21
4330.315000
  0
LINE
  8
0
 10
8924.760000
 11
8912.740000
 20
4330.315000
 21
4330.315000
  0
LINE
  8
0
 10
8912.740000
 11
8900.982000
 20
4330.315000
 21
4332.814000
  0
LINE
  8
0
 10
8900.982000
 11
8890.000000
 20
4332.814000
 21
4337.704000
  0
LINE
  8
0
 10
8890.000000
 11
8880.275000
 20
4337.704000
 21
4344.769000
  0
LINE
  8
0
 10
8880.275000
 11
8872.232000
 20
4344.769000
 21
4353.702000
  0
LINE
  8
0
 10
8872.232000
 11
8866.221000
 20
4353.702000
 21
4364.113000
  0
LINE
  8
0
 10
8866.221000
 11
8862.507000
 20
4364.113000
 21
4375.545000
  0
LINE
  8
0
 10
8862.507000
 11
8861.250000
 20
4375.545000
 21
4387.500000
  0
LINE
  8
0
 10
9493.750000
 11
9493.750000
 20
0.000000
 21
5850.000000
  0
LINE
  8
0
 10
9493.750000
 11
9681.250000
 20
5850.000000
 21
5850.000000
  0
LINE
  8
0
 10
9681.250000
 11
9681.250000
 20
5850.000000
 21
0.000000
  0
LINE
  8
0
 10
9681.250000
 11
9493.750000
 20
0.000000
 21
0.000000
  0
LINE
  8
0
 10
9837.500000
 11
9866.728000
 20
0.000000
 21
278.082000
  0
LINE
  8
0
 10
9866.728000
 11
9953.133000
 20
278.082000
 21
544.010000
  0
LINE
  8
0
 10
9953.133000
 11
10092.940000
 20
544.010000
 21
786.163000
  0
LINE
  8
0
 10
10092.940000
 11
10280.038000
 20
786.163000
 21
993.956000
  0
LINE
  8
0
 10
10280.038000
 11
10506.250000
 20
993.956000
 21
1158.309000
  0
LINE
  8
0
 10
10506.250000
 11
10761.690000
 20
1158.309000
 21
1272.038000
  0
LINE
  8
0
 10
10761.690000
 11
11035.193000
 20
1272.038000
 21
1330.173000
  0
LINE
  8
0
 10
11035.193000
 11
11314.807000
 20
1330.173000
 21
1330.173000
  0
LINE
  8
0
 10
11314.807000
 11
11588.310000
 20
1330.173000
 21
1272.038000
  0
LINE
  8
0
 10
11588.310000
 11
11843.750000
 20
1272.038000
 21
1158.309000
  0
LINE
  8
0
 10
11843.750000
 11
12069.962000
 20
1158.309000
 21
993.956000
  0
LINE
  8
0
 10
12069.962000
 11
12257.060000
 20
993.956000
 21
786.163000
  0
LINE
  8
0
 10
12257.060000
 11
12396.867000
 20
786.163000
 21
544.010000
  0
LINE
  8
0
 10
12396.867000
 11
12483.272000
 20
544.010000
 21
278.082000
  0
LINE
  8
0
 10
12483.272000
 11
12512.500000
 20
278.082000
 21
0.000000
  0
LINE
  8
0
 10
12512.500000
 11
12483.272000
 20
0.000000
 21
-278.082000
  0
LINE
  8
0
 10
12483.272000
 11
12396.867000
 20
-278.082000
 21
-544.010000
  0
LINE
  8
0
 10
12396.867000
 11
12257.060000
 20
-544.010000
 21
-786.163000
  0
LINE
  8
0
 10
12257.060000
 11
12069.962000
 20
-786.163000
 21
-993.956000
  0
LINE
  8
0
 10
12069.962000
 11
11843.750000
 20
-993.956000
 21
-1158.309000
  0
LINE
  8
0
 10
11843.750000
 11
11588.310000
 20
-1158.309000
 21
-1272.038000
  0
LINE
  8
0
 10
11588.310000
 11
11314.807000
 20
-1272.038000
 21
-1330.173000
  0
LINE
  8
0
 10
11314.807000
 11
11035.193000
 20
-1330.173000
 21
-1330.173000
  0
LINE
  8
0
 10
11035.193000
 11
10761.690000
 20
-1330.173000
 21
-1272.038000
  0
LINE
  8
0
 10
10761.690000
 11
10506.250000
 20
-1272.038000
 21
-1158.309000
  0
LINE
  8
0
 10
10506.250000
 11
10280.038000
 20
-1158.309000
 21
-993.956000
  0
LINE
  8
0
 10
10280.038000
 11
10092.940000
 20
-993.956000
 21
-786.163000
  0
LINE
  8
0
 10
10092.940000
 11
9953.133000
 20
-786.163000
 21
-544.010000
  0
LINE
  8
0
 10
9953.133000
 11
9866.728000
 20
-544.010000
 21
-278.082000
  0
LINE
  8
0
 10
9866.728000
 11
9837.500000
 20
-278.082000
 21
0.000000
  0
LINE
  8
0
 10
9837.500000
 11
9866.728000
 20
2925.000000
 21
3203.082000
  0
LINE
  8
0
 10
9866.728000
 11
9953.133000
 20
3203.082000
 21
3469.010000
  0
LINE
  8
0
 10
9953.133000
 11
10092.940000
 20
3469.010000
 21
3711.163000
  0
LINE
  8
0
 10
10092.940000
 11
10280.038000
 20
3711.163000
 21
3918.956000
  0
LINE
  8
0
 10
10280.038000
 11
10506.250000
 20
3918.956000
 21
4083.309000
  0
LINE
  8
0
 10
10506.250000
 11
10761.690000
 20
4083.309000
 21
4197.038000
  0
LINE
  8
0
 10
10761.690000
 11
11035.193000
 20
4197.038000
 21
4255.173000
  0
LINE
  8
0
 10
11035.193000
 11
11314.807000
 20
4255.173000
 21
4255.173000
  0
LINE
  8
0
 10
11314.807000
 11
11588.310000
 20
4255.173000
 21
4197.038000
  0
LINE
  8
0
 10
11588.310000
 11
11843.750000
 20
4197.038000
 21
4083.309000
  0
LINE
  8
0
 10
11843.750000
 11
12069.962000
 20
4083.309000
 21
3918.956000
  0
LINE
  8
0
 10
12069.962000
 11
12257.060000
 20
3918.956000
 21
3711.163000
  0
LINE
  8
0
 10
12257.060000
 11
12396.867000
 20
3711.163000
 21
3469.010000
  0
LINE
  8
0
 10
12396.867000
 11
12483.272000
 20
3469.010000
 21
3203.082000
  0
LINE
  8
0
 10
12483.272000
 11
12512.500000
 20
3203.082000
 21
2925.000000
  0
LINE
  8
0
 10
12512.500000
 11
12483.272000
 20
2925.000000
 21
2646.918000
  0
LINE
  8
0
 10
12483.272000
 11
12396.867000
 20
2646.918000
 21
2380.990000
  0
LINE
  8
0
 10
12396.867000
 11
12257.060000
 20
2380.990000
 21
2138.837000
  0
LINE
  8
0
 10
12257.060000
 11
12069.962000
 20
2138.837000
 21
1931.044000
  0
LINE
  8
0
 10
12069.962000
 11
11843.750000
 20
1931.044000
 21
1766.691000
  0
LINE
  8
0
 10
11843.750000
 11
11588.310000
 20
1766.691000
 21
1652.962000
  0
LINE
  8
0
 10
11588.310000
 11
11314.807000
 20
1652.962000
 21
1594.827000
  0
LINE
  8
0
 10
11314.807000
 11
11035.193000
 20
1594.827000
 21
1594.827000
  0
LINE
  8
0
 10
11035.193000
 11
10761.690000
 20
1594.827000
 21
1652.962000
  0
LINE
  8
0
 10
10761.690000
 11
10506.250000
 20
1652.962000
 21
1766.691000
  0
LINE
  8
0
 10
10506.250000
 11
10280.038000
 20
1766.691000
 21
1931.044000
  0
LINE
  8
0
 10
10280.038000
 11
10092.940000
 20
1931.044000
 21
2138.837000
  0
LINE
  8
0
 10
10092.940000
 11
9953.133000
 20
2138.837000
 21
2380.990000
  0
LINE
  8
0
 10
9953.133000
 11
9866.728000
 20
2380.990000
 21
2646.918000
  0
LINE
  8
0
 10
9866.728000
 11
9837.500000
 20
2646.918000
 21
2925.000000
  0
LINE
  8
0
 10
9837.500000
 11
9866.728000
 20
5850.000000
 21
6128.082000
  0
LINE
  8
0
 10
9866.728000
 11
9953.133000
 20
6128.082000
 21
6394.010000
  0
LINE
  8
0
 10
9953.133000
 11
10092.940000
 20
6394.010000
 21
6636.163000
  0
LINE
  8
0
 10
10092.940000
 11
10280.038000
 20
6636.163000
 21
6843.956000
  0
LINE
  8
0
 10
10280.038000
 11
10506.250000
 20
6843.956000
 21
7008.309000
  0
LINE
  8
0
 10
10506.250000
 11
10761.690000
 20
7008.309000
 21
7122.038000
  0
LINE
  8
0
 10
10761.690000
 11
11035.193000
 20
7122.038000
 21
7180.173000
  0
LINE
  8
0
 10
11035.193000
 11
11314.807000
 20
7180.173000
 21
7180.173000
  0
LINE
  8
0
 10
11314.807000
 11
11588.310000
 20
7180.173000
 21
7122.038000
  0
LINE
  8
0
 10
11588.310000
 11
11843.750000
 20
7122.038000
 21
7008.309000
  0
LINE
  8
0
 10
11843.750000
 11
12069.962000
 20
7008.309000
 21
6843.956000
  0
LINE
  8
0
 10
12069.962000
 11
12257.060000
 20
6843.956000
 21
6636.163000
  0
LINE
  8
0
 10
12257.060000
 11
12396.867000
 20
6636.163000
 21
6394.010000
  0
LINE
  8
0
 10
12396.867000
 11
12483.272000
 20
6394.010000
 21
6128.082000
  0
LINE
  8
0
 10
12483.272000
 11
12512.500000
 20
6128.082000
 21
5850.000000
  0
LINE
  8
0
 10
12512.500000
 11
12483.272000
 20
5850.000000
 21
5571.918000
  0
LINE
  8
0
 10
12483.272000
 11
12396.867000
 20
5571.918000
 21
5305.990000
  0
LINE
  8
0
 10
12396.867000
 11
12257.060000
 20
5305.990000
 21
5063.837000
  0
LINE
  8
0
 10
12257.060000
 11
12069.962000
 20
5063.837000
 21
4856.044000
  0
LINE
  8
0
 10
12069.962000
 11
11843.750000
 20
4856.044000
 21
4691.691000
  0
LINE
  8
0
 10
11843.750000
 11
11588.310000
 20
4691.691000
 21
4577.962000
  0
LINE
  8
0
 10
11588.310000
 11
11314.807000
 20
4577.962000
 21
4519.827000
  0
LINE
  8
0
 10
11314.807000
 11
11035.193000
 20
4519.827000
 21
4519.827000
  0
LINE
  8
0
 10
11035.193000
 11
10761.690000
 20
4519.827000
 21
4577.962000
  0
LINE
  8
0
 10
10761.690000
 11
10506.250000
 20
4577.962000
 21
4691.691000
  0
LINE
  8
0
 10
10506.250000
 11
10280.038000
 20
4691.691000
 21
4856.044000
  0
LINE
  8
0
 10
10280.038000
 11
10092.940000
 20
4856.044000
 21
5063.837000
  0
LINE
  8
0
 10
10092.940000
 11
9953.133000
 20
5063.837000
 21
5305.990000
  0
LINE
  8
0
 10
9953.133000
 11
9866.728000
 20
5305.990000
 21
5571.918000
  0
LINE
  8
0
 10
9866.728000
 11
9837.500000
 20
5571.918000
 21
5850.000000
  0
LINE
  8
0
 10
10198.750000
 11
10200.007000
 20
1462.500000
 21
1474.455000
  0
LINE
  8
0
 10
10200.007000
 11
10203.721000
 20
1474.455000
 21
1485.887000
  0
LINE
  8
0
 10
10203.721000
 11
10209.732000
 20
1485.887000
 21
1496.298000
  0
LINE
  8
0
 10
10209.732000
 11
10217.775000
 20
1496.298000
 21
1505.231000
  0
LINE
  8
0
 10
10217.775000
 11
10227.500000
 20
1505.231000
 21
1512.296000
  0
LINE
  8
0
 10
10227.500000
 11
10238.482000
 20
1512.296000
 21
1517.186000
  0
LINE
  8
0
 10
10238.482000
 11
10250.240000
 20
1517.186000
 21
1519.685000
  0
LINE
  8
0
 10
10250.240000
 11
10262.260000
 20
1519.685000
 21
1519.685000
  0
LINE
  8
0
 10
10262.260000
 11
10274.018000
 20
1519.685000
 21
1517.186000
  0
LINE
  8
0
 10
10274.018000
 11
10285.000000
 20
1517.186000
 21
1512.296000
  0
LINE
  8
0
 10
10285.000000
 11
10294.725000
 20
1512.296000
 21
1505.231000
  0
LINE
  8
0
 10
10294.725000
 11
10302.768000
 20
1505.231000
 21
1496.298000
  0
LINE
  8
0
 10
10302.768000
 11
10308.779000
 20
1496.298000
 21
1485.887000
  0
LINE
  8
0
 10
10308.779000
 11
10312.493000
 20
1485.887000
 21
1474.455000
  0
LINE
  8
0
 10
10312.493000
 11
10313.750000
 20
1474.455000
 21
1462.500000
  0
LINE
  8
0
 10
10313.750000
 11
10312.493000
 20
1462.500000
 21
1450.545000
  0
LINE
  8
0
 10
10312.493000
 11
10308.779000
 20
1450.545000
 21
1439.113000
  0
LINE
  8
0
 10
10308.779000
 11
10302.768000
 20
1439.113000
 21
1428.702000
  0
LINE
  8
0
 10
10302.768000
 11
10294.725000
 20
1428.702000
 21
1419.769000
  0
LINE
  8
0
 10
10294.725000
 11
10285.000000
 20
1419.769000
 21
1412.704000
  0
LINE
  8
0
 10
10285.000000
 11
10274.018000
 20
1412.704000
 21
1407.814000
  0
LINE
  8
0
 10
10274.018000
 11
10262.260000
 20
1407.814000
 21
1405.315000
  0
LINE
  8
0
 10
10262.260000
 11
10250.240000
 20
1405.315000
 21
1405.315000
  0
LINE
  8
0
 10
10250.240000
 11
10238.482000
 20
1405.315000
 21
1407.814000
  0
LINE
  8
0
 10
10238.482000
 11
10227.500000
 20
1407.814000
 21
1412.704000
  0
LINE
  8
0
 10
10227.500000
 11
10217.775000
 20
1412.704000
 21
1419.769000
  0
LINE
  8
0
 10
10217.775000
 11
10209.732000
 20
1419.769000
 21
1428.702000
  0
LINE
  8
0
 10
10209.732000
 11
10203.721000
 20
1428.702000
 21
1439.113000
  0
LINE
  8
0
 10
10203.721000
 11
10200.007000
 20
1439.113000
 21
1450.545000
  0
LINE
  8
0
 10
10200.007000
 11
10198.750000
 20
1450.545000
 21
1462.500000
  0
LINE
  8
0
 10
10198.750000
 11
10200.007000
 20
4387.500000
 21
4399.455000
  0
LINE
  8
0
 10
10200.007000
 11
10203.721000
 20
4399.455000
 21
4410.887000
  0
LINE
  8
0
 10
10203.721000
 11
10209.732000
 20
4410.887000
 21
4421.298000
  0
LINE
  8
0
 10
10209.732000
 11
10217.775000
 20
4421.298000
 21
4430.231000
  0
LINE
  8
0
 10
10217.775000
 11
10227.500000
 20
4430.231000
 21
4437.296000
  0
LINE
  8
0
 10
10227.500000
 11
10238.482000
 20
4437.296000
 21
4442.186000
  0
LINE
  8
0
 10
10238.482000
 11
10250.240000
 20
4442.186000
 21
4444.685000
  0
LINE
  8
0
 10
10250.240000
 11
10262.260000
 20
4444.685000
 21
4444.685000
  0
LINE
  8
0
 10
10262.260000
 11
10274.018000
 20
4444.685000
 21
4442.186000
  0
LINE
  8
0
 10
10274.018000
 11
10285.000000
 20
4442.186000
 21
4437.296000
  0
LINE
  8
0
 10
10285.000000
 11
10294.725000
 20
4437.296000
 21
4430.231000
  0
LINE
  8
0
 10
10294.725000
 11
10302.768000
 20
4430.231000
 21
4421.298000
  0
LINE
  8
0
 10
10302.768000
 11
10308.779000
 20
4421.298000
 21
4410.887000
  0
LINE
  8
0
 10
10308.779000
 11
10312.493000
 20
4410.887000
 21
4399.455000
  0
LINE
  8
0
 10
10312.493000
 11
10313.750000
 20
4399.455000
 21
4387.500000
  0
LINE
  8
0
 10
10313.750000
 11
10312.493000
 20
4387.500000
 21
4375.545000
  0
LINE
  8
0
 10
10312.493000
 11
10308.779000
 20
4375.545000
 21
4364.113000
  0
LINE
  8
0
 10
10308.779000
 11
10302.768000
 20
4364.113000
 21
4353.702000
  0
LINE
  8
0
 10
10302.768000
 11
10294.725000
 20
4353.702000
 21
4344.769000
  0
LINE
  8
0
 10
10294.725000
 11
10285.000000
 20
4344.769000
 21
4337.704000
  0
LINE
  8
0
 10
10285.000000
 11
10274.018000
 20
4337.704000
 21
4332.814000
  0
LINE
  8
0
 10
10274.018000
 11
10262.260000
 20
4332.814000
 21
4330.315000
  0
LINE
  8
0
 10
10262.260000
 11
10250.240000
 20
4330.315000
 21
4330.315000
  0
LINE
  8
0
 10
10250.240000
 11
10238.482000
 20
4330.315000
 21
4332.814000
  0
LINE
  8
0
 10
10238.482000
 11
10227.500000
 20
4332.814000
 21
4337.704000
  0
LINE
  8
0
 10
10227.500000
 11
10217.775000
 20
4337.704000
 21
4344.769000
  0
LINE
  8
0
 10
10217.775000
 11
10209.732000
 20
4344.769000
 21
4353.702000
  0
LINE
  8
0
 10
10209.732000
 11
10203.721000
 20
4353.702000
 21
4364.113000
  0
LINE
  8
0
 10
10203.721000
 11
10200.007000
 20
4364.113000
 21
4375.545000
  0
LINE
  8
0
 10
10200.007000
 11
10198.750000
 20
4375.545000
 21
4387.500000
  0
LINE
  8
0
 10
13500.000000
 11
13500.000000
 20
0.000000
 21
250.000000
  0
LINE
  8
0
 10
13500.000000
 11
13750.000000
 20
250.000000
 21
250.000000
  0
LINE
  8
0
 10
13750.000000
 11
13750.000000
 20
250.000000
 21
437.500000
  0
LINE
  8
0
 10
13750.000000
 11
13500.000000
 20
437.500000
 21
437.500000
  0
LINE
  8
0
 10
13500.000000
 11
13500.000000
 20
437.500000
 21
1250.000000
  0
LINE
  8
0
 10
13500.000000
 11
13750.000000
 20
1250.000000
 21
1250.000000
  0
LINE
  8
0
 10
13750.000000
 11
13750.000000
 20
1250.000000
 21
1437.500000
  0
LINE
  8
0
 10
13750.000000
 11
13500.000000
 20
1437.500000
 21
1437.500000
  0
LINE
  8
0
 10
13500.000000
 11
13500.000000
 20
1437.500000
 21
4937.500000
  0
LINE
  8
0
 10
13500.000000
 11
13750.000000
 20
4937.500000
 21
4937.500000
  0
LINE
  8
0
 10
13750.000000
 11
13750.000000
 20
4937.500000
 21
5125.000000
  0
LINE
  8
0
 10
13750.000000
 11
14250.000000
 20
5125.000000
 21
5125.000000
  0
LINE
  8
0
 10
14250.000000
 11
14250.000000
 20
5125.000000
 21
4937.500000
  0
LINE
  8
0
 10
14250.000000
 11
14500.000000
 20
4937.500000
 21
4937.500000
  0
LINE
  8
0
 10
14500.000000
 11
14500.000000
 20
4937.500000
 21
1437.500000
  0
LINE
  8
0
 10
14500.000000
 11
14250.000000
 20
1437.500000
 21
1437.500000
  0
LINE
  8
0
 10
14250.000000
 11
14250.000000
 20
1437.500000
 21
1250.000000
  0
LINE
  8
0
 10
14250.000000
 11
14500.000000
 20
1250.000000
 21
1250.000000
  0
LINE
  8
0
 10
14500.000000
 11
14500.000000
 20
1250.000000
 21
437.500000
  0
LINE
  8
0
 10
14500.000000
 11
14250.000000
 20
437.500000
 21
437.500000
  0
LINE
  8
0
 10
14250.000000
 11
14250.000000
 20
437.500000
 21
250.000000
  0
LINE
  8
0
 10
14250.000000
 11
14500.000000
 20
250.000000
 21
250.000000
  0
LINE
  8
0
 10
14500.000000
 11
14500.000000
 20
250.000000
 21
0.000000
  0
LINE
  8
0
 10
14500.000000
 11
13500.000000
 20
0.000000
 21
0.000000
  0
LINE
  8
0
 10
13906.250000
 11
13906.250000
 20
3093.750000
 21
3281.250000
  0
LINE
  8
0
 10
13906.250000
 11
14093.750000
 20
3281.250000
 21
3281.250000
  0
LINE
  8
0
 10
14093.750000
 11
14093.750000
 20
3281.250000
 21
3093.750000
  0
LINE
  8
0
 10
14093.750000
 11
13906.250000
 20
3093.750000
 21
3093.750000
  0
LINE
  8
0
 10
13942.500000
 11
13943.757000
 20
2604.167000
 21
2616.122000
  0
LINE
  8
0
 10
13943.757000
 11
13947.471000
 20
2616.122000
 21
2627.554000
  0
LINE
  8
0
 10
13947.471000
 11
13953.482000
 20
2627.554000
 21
2637.965000
  0
LINE
  8
0
 10
13953.482000
 11
13961.525000
 20
2637.965000
 21
2646.898000
  0
LINE
  8
0
 10
13961.525000
 11
13971.250000
 20
2646.898000
 21
2653.963000
  0
LINE
  8
0
 10
13971.250000
 11
13982.232000
 20
2653.963000
 21
2658.853000
  0
LINE
  8
0
 10
13982.232000
 11
13993.990000
 20
2658.853000
 21
2661.352000
  0
LINE
  8
0
 10
13993.990000
 11
14006.010000
 20
2661.352000
 21
2661.352000
  0
LINE
  8
0
 10
14006.010000
 11
14017.768000
 20
2661.352000
 21
2658.853000
  0
LINE
  8
0
 10
14017.768000
 11
14028.750000
 20
2658.853000
 21
2653.963000
  0
LINE
  8
0
 10
14028.750000
 11
14038.475000
 20
2653.963000
 21
2646.898000
  0
LINE
  8
0
 10
14038.475000
 11
14046.518000
 20
2646.898000
 21
2637.965000
  0
LINE
  8
0
 10
14046.518000
 11
14052.529000
 20
2637.965000
 21
2627.554000
  0
LINE
  8
0
 10
14052.529000
 11
14056.243000
 20
2627.554000
 21
2616.122000
  0
LINE
  8
0
 10
14056.243000
 11
14057.500000
 20
2616.122000
 21
2604.167000
  0
LINE
  8
0
 10
14057.500000
 11
14056.243000
 20
2604.167000
 21
2592.212000
  0
LINE
  8
0
 10
14056.243000
 11
14052.529000
 20
2592.212000
 21
2580.780000
  0
LINE
  8
0
 10
14052.529000
 11
14046.518000
 20
2580.780000
 21
2570.369000
  0
LINE
  8
0
 10
14046.518000
 11
14038.475000
 20
2570.369000
 21
2561.436000
  0
LINE
  8
0
 10
14038.475000
 11
14028.750000
 20
2561.436000
 21
2554.371000
  0
LINE
  8
0
 10
14028.750000
 11
14017.768000
 20
2554.371000
 21
2549.481000
  0
LINE
  8
0
 10
14017.768000
 11
14006.010000
 20
2549.481000
 21
2546.982000
  0
LINE
  8
0
 10
14006.010000
 11
13993.990000
 20
2546.982000
 21
2546.982000
  0
LINE
  8
0
 10
13993.990000
 11
13982.232000
 20
2546.982000
 21
2549.481000
  0
LINE
  8
0
 10
13982.232000
 11
13971.250000
 20
2549.481000
 21
2554.371000
  0
LINE
  8
0
 10
13971.250000
 11
13961.525000
 20
2554.371000
 21
2561.436000
  0
LINE
  8
0
 10
13961.525000
 11
13953.482000
 20
2561.436000
 21
2570.369000
  0
LINE
  8
0
 10
13953.482000
 11
13947.471000
 20
2570.369000
 21
2580.780000
  0
LINE
  8
0
 10
13947.471000
 11
13943.757000
 20
2580.780000
 21
2592.212000
  0
LINE
  8
0
 10
13943.757000
 11
13942.500000
 20
2592.212000
 21
2604.167000
  0
LINE
  8
0
 10
13942.500000
 11
13943.757000
 20
3770.833000
 21
3782.788000
  0
LINE
  8
0
 10
13943.757000
 11
13947.471000
 20
3782.788000
 21
3794.220000
  0
LINE
  8
0
 10
13947.471000
 11
13953.482000
 20
3794.220000
 21
3804.631000
  0
LINE
  8
0
 10
13953.482000
 11
13961.525000
 20
3804.631000
 21
3813.564000
  0
LINE
  8
0
 10
13961.525000
 11
13971.250000
 20
3813.564000
 21
3820.629000
  0
LINE
  8
0
 10
13971.250000
 11
13982.232000
 20
3820.629000
 21
3825.519000
  0
LINE
  8
0
 10
13982.232000
 11
13993.990000
 20
3825.519000
 21
3828.018000
  0
LINE
  8
0
 10
13993.990000
 11
14006.010000
 20
3828.018000
 21
3828.018000
  0
LINE
  8
0
 10
14006.010000
 11
14017.768000
 20
3828.018000
 21
3825.519000
  0
LINE
  8
0
 10
14017.768000
 11
14028.750000
 20
3825.519000
 21
3820.629000
  0
LINE
  8
0
 10
14028.750000
 11
14038.475000
 20
3820.629000
 21
3813.564000
  0
LINE
  8
0
 10
14038.475000
 11
14046.518000
 20
3813.564000
 21
3804.631000
  0
LINE
  8
0
 10
14046.518000
 11
14052.529000
 20
3804.631000
 21
3794.220000
  0
LINE
  8
0
 10
14052.529000
 11
14056.243000
 20
3794.220000
 21
3782.788000
  0
LINE
  8
0
 10
14056.243000
 11
14057.500000
 20
3782.788000
 21
3770.833000
  0
LINE
  8
0
 10
14057.500000
 11
14056.243000
 20
3770.833000
 21
3758.878000
  0
LINE
  8
0
 10
14056.243000
 11
14052.529000
 20
3758.878000
 21
3747.446000
  0
LINE
  8
0
 10
14052.529000
 11
14046.518000
 20
3747.446000
 21
3737.035000
  0
LINE
  8
0
 10
14046.518000
 11
14038.475000
 20
3737.035000
 21
3728.102000
  0
LINE
  8
0
 10
14038.475000
 11
14028.750000
 20
3728.102000
 21
3721.037000
  0
LINE
  8
0
 10
14028.750000
 11
14017.768000
 20
3721.037000
 21
3716.147000
  0
LINE
  8
0
 10
14017.768000
 11
14006.010000
 20
3716.147000
 21
3713.648000
  0
LINE
  8
0
 10
14006.010000
 11
13993.990000
 20
3713.648000
 21
3713.648000
  0
LINE
  8
0
 10
13993.990000
 11
13982.232000
 20
3713.648000
 21
3716.147000
  0
LINE
  8
0
 10
13982.232000
 11
13971.250000
 20
3716.147000
 21
3721.037000
  0
LINE
  8
0
 10
13971.250000
 11
13961.525000
 20
3721.037000
 21
3728.102000
  0
LINE
  8
0
 10
13961.525000
 11
13953.482000
 20
3728.102000
 21
3737.035000
  0
LINE
  8
0
 10
13953.482000
 11
13947.471000
 20
3737.035000
 21
3747.446000
  0
LINE
  8
0
 10
13947.471000
 11
13943.757000
 20
3747.446000
 21
3758.878000
  0
LINE
  8
0
 10
13943.757000
 11
13942.500000
 20
3758.878000
 21
3770.833000
  0
LINE
  8
0
 10
15000.000000
 11
15000.000000
 20
0.000000
 21
250.000000
  0
LINE
  8
0
 10
15000.000000
 11
15250.000000
 20
250.000000
 21
250.000000
  0
LINE
  8
0
 10
15250.000000
 11
15250.000000
 20
250.000000
 21
437.500000
  0
LINE
  8
0
 10
15250.000000
 11
15000.000000
 20
437.500000
 21
437.500000
  0
LINE
  8
0
 10
15000.000000
 11
15000.000000
 20
437.500000
 21
1250.000000
  0
LINE
  8
0
 10
15000.000000
 11
15250.000000
 20
1250.000000
 21
1250.000000
  0
LINE
  8
0
 10
15250.000000
 11
15250.000000
 20
1250.000000
 21
1437.500000
  0
LINE
  8
0
 10
15250.000000
 11
15000.000000
 20
1437.500000
 21
1437.500000
  0
LINE
  8
0
 10
15000.000000
 11
15000.000000
 20
1437.500000
 21
4937.500000
  0
LINE
  8
0
 10
15000.000000
 11
15250.000000
 20
4937.500000
 21
4937.500000
  0
LINE
  8
0
 10
15250.000000
 11
15250.000000
 20
4937.500000
 21
5125.000000
  0
LINE
  8
0
 10
15250.000000
 11
15750.000000
 20
5125.000000
 21
5125.000000
  0
LINE
  8
0
 10
15750.000000
 11
15750.000000
 20
5125.000000
 21
4937.500000
  0
LINE
  8
0
 10
15750.000000
 11
16000.000000
 20
4937.500000
 21
4937.500000
  0
LINE
  8
0
 10
16000.000000
 11
16000.000000
 20
4937.500000
 21
1437.500000
  0
LINE
  8
0
 10
16000.000000
 11
15750.000000
 20
1437.500000
 21
1437.500000
  0
LINE
  8
0
 10
15750.000000
 11
15750.000000
 20
1437.500000
 21
1250.000000
  0
LINE
  8
0
 10
15750.000000
 11
16000.000000
 20
1250.000000
 21
1250.000000
  0
LINE
  8
0
 10
16000.000000
 11
16000.000000
 20
1250.000000
 21
437.500000
  0
LINE
  8
0
 10
16000.000000
 11
15750.000000
 20
437.500000
 21
437.500000
  0
LINE
  8
0
 10
15750.000000
 11
15750.000000
 20
437.500000
 21
250.000000
  0
LINE
  8
0
 10
15750.000000
 11
16000.000000
 20
250.000000
 21
250.000000
  0
LINE
  8
0
 10
16000.000000
 11
16000.000000
 20
250.000000
 21
0.000000
  0
LINE
  8
0
 10
16000.000000
 11
15000.000000
 20
0.000000
 21
0.000000
  0
LINE
  8
0
 10
15000.000000
 11
15000.000000
 20
8500.000000
 21
17500.000000
  0
LINE
  8
0
 10
15000.000000
 11
15021.852000
 20
17500.000000
 21
17707.912000
  0
LINE
  8
0
 10
15021.852000
 11
15086.455000
 20
17707.912000
 21
17906.737000
  0
LINE
  8
0
 10
15086.455000
 11
15190.983000
 20
17906.737000
 21
18087.785000
  0
LINE
  8
0
 10
15190.983000
 11
15330.869000
 20
18087.785000
 21
18243.145000
  0
LINE
  8
0
 10
15330.869000
 11
15500.000000
 20
18243.145000
 21
18366.025000
  0
LINE
  8
0
 10
15500.000000
 11
15690.983000
 20
18366.025000
 21
18451.057000
  0
LINE
  8
0
 10
15690.983000
 11
15895.472000
 20
18451.057000
 21
18494.522000
  0
LINE
  8
0
 10
15895.472000
 11
16000.000000
 20
18494.522000
 21
18494.522000
  0
LINE
  8
0
 10
16000.000000
 11
16000.000000
 20
18494.522000
 21
18500.000000
  0
LINE
  8
0
 10
16000.000000
 11
19850.000000
 20
18500.000000
 21
18500.000000
  0
LINE
  8
0
 10
19850.000000
 11
19850.000000
 20
18500.000000
 21
18494.522000
  0
LINE
  8
0
 10
19850.000000
 11
19954.528000
 20
18494.522000
 21
18494.522000
  0
LINE
  8
0
 10
19954.528000
 11
20159.017000
 20
18494.522000
 21
18451.057000
  0
LINE
  8
0
 10
20159.017000
 11
20350.000000
 20
18451.057000
 21
18366.025000
  0
LINE
  8
0
 10
20350.000000
 11
20519.131000
 20
18366.025000
 21
18243.145000
  0
LINE
  8
0
 10
20519.131000
 11
20659.017000
 20
18243.145000
 21
18087.785000
  0
LINE
  8
0
 10
20659.017000
 11
20763.545000
 20
18087.785000
 21
17906.737000
  0
LINE
  8
0
 10
20763.545000
 11
20828.148000
 20
17906.737000
 21
17707.912000
  0
LINE
  8
0
 10
20828.148000
 11
20850.000000
 20
17707.912000
 21
17500.000000
  0
LINE
  8
0
 10
20850.000000
 11
20850.000000
 20
17500.000000
 21
8500.000000
  0
LINE
  8
0
 10
20850.000000
 11
20400.000000
 20
8500.000000
 21
8500.000000
  0
LINE
  8
0
 10
20400.000000
 11
20400.000000
 20
8500.000000
 21
8062.500000
  0
LINE
  8
0
 10
20400.000000
 11
20025.000000
 20
8062.500000
 21
8062.500000
  0
LINE
  8
0
 10
20025.000000
 11
20025.000000
 20
8062.500000
 21
8500.000000
  0
LINE
  8
0
 10
20025.000000
 11
19445.000000
 20
8500.000000
 21
8500.000000
  0
LINE
  8
0
 10
19445.000000
 11
19445.000000
 20
8500.000000
 21
8692.500000
  0
LINE
  8
0
 10
19445.000000
 11
19515.000000
 20
8692.500000
 21
8692.500000
  0
LINE
  8
0
 10
19515.000000
 11
19515.000000
 20
8692.500000
 21
8792.500000
  0
LINE
  8
0
 10
19515.000000
 11
19260.000000
 20
8792.500000
 21
8792.500000
  0
LINE
  8
0
 10
19260.000000
 11
19260.000000
 20
8792.500000
 21
8692.500000
  0
LINE
  8
0
 10
19260.000000
 11
19330.000000
 20
8692.500000
 21
8692.500000
  0
LINE
  8
0
 10
19330.000000
 11
19330.000000
 20
8692.500000
 21
8500.000000
  0
LINE
  8
0
 10
19330.000000
 11
18937.500000
 20
8500.000000
 21
8500.000000
  0
LINE
  8
0
 10
18937.500000
 11
18937.500000
 20
8500.000000
 21
8062.500000
  0
LINE
  8
0
 10
18937.500000
 11
18562.500000
 20
8062.500000
 21
8062.500000
  0
LINE
  8
0
 10
18562.500000
 11
18562.500000
 20
8062.500000
 21
8500.000000
  0
LINE
  8
0
 10
18562.500000
 11
17982.500000
 20
8500.000000
 21
8500.000000
  0
LINE
  8
0
 10
17982.500000
 11
17982.500000
 20
8500.000000
 21
8692.500000
  0
LINE
  8
0
 10
17982.500000
 11
18052.500000
 20
8692.500000
 21
8692.500000
  0
LINE
  8
0
 10
18052.500000
 11
18052.500000
 20
8692.500000
 21
8792.500000
  0
LINE
  8
0
 10
18052.500000
 11
17797.500000
 20
8792.500000
 21
8792.500000
  0
LINE
  8
0
 10
17797.500000
 11
17797.500000
 20
8792.500000
 21
8692.500000
  0
LINE
  8
0
 10
17797.500000
 11
17867.500000
 20
8692.500000
 21
8692.500000
  0
LINE
  8
0
 10
17867.500000
 11
17867.500000
 20
8692.500000
 21
8500.000000
  0
LINE
  8
0
 10
17867.500000
 11
17475.000000
 20
8500.000000
 21
8500.000000
  0
LINE
  8
0
 10
17475.000000
 11
17475.000000
 20
8500.000000
 21
8062.500000
  0
LINE
  8
0
 10
17475.000000
 11
17100.000000
 20
8062.500000
 21
8062.500000
  0
LINE
  8
0
 10
17100.000000
 11
17100.000000
 20
8062.500000
 21
8500.000000
  0
LINE
  8
0
 10
17100.000000
 11
16520.000000
 20
8500.000000
 21
8500.000000
  0
LINE
  8
0
 10
16520.000000
 11
16520.000000
 20
8500.000000
 21
8692.500000
  0
LINE
  8
0
 10
16520.000000
 11
16590.000000
 20
8692.500000
 21
8692.500000
  0
LINE
  8
0
 10
16590.000000
 11
16590.000000
 20
8692.500000
 21
8792.500000
  0
LINE
  8
0
 10
16590.000000
 11
16335.000000
 20
8792.500000
 21
8792.500000
  0
LINE
  8
0
 10
16335.000000
 11
16335.000000
 20
8792.500000
 21
8692.500000
  0
LINE
  8
0
 10
16335.000000
 11
16405.000000
 20
8692.500000
 21
8692.500000
  0
LINE
  8
0
 10
16405.000000
 11
16405.000000
 20
8692.500000
 21
8500.000000
  0
LINE
  8
0
 10
16405.000000
 11
16012.500000
 20
8500.000000
 21
8500.000000
  0
LINE
  8
0
 10
16012.500000
 11
16012.500000
 20
8500.000000
 21
8062.500000
  0
LINE
  8
0
 10
16012.500000
 11
15637.500000
 20
8062.500000
 21
8062.500000
  0
LINE
  8
0
 10
15637.500000
 11
15637.500000
 20
8062.500000
 21
8500.000000
  0
LINE
  8
0
 10
15637.500000
 11
15000.000000
 20
8500.000000
 21
8500.000000
  0
LINE
  8
0
 10
15406.250000
 11
15406.250000
 20
3093.750000
 21
3281.250000
  0
LINE
  8
0
 10
15406.250000
 11
15593.750000
 20
3281.250000
 21
3281.250000
  0
LINE
  8
0
 10
15593.750000
 11
15593.750000
 20
3281.250000
 21
3093.750000
  0
LINE
  8
0
 10
15593.750000
 11
15406.250000
 20
3093.750000
 21
3093.750000
  0
LINE
  8
0
 10
15442.500000
 11
15443.757000
 20
2604.167000
 21
2616.122000
  0
LINE
  8
0
 10
15443.757000
 11
15447.471000
 20
2616.122000
 21
2627.554000
  0
LINE
  8
0
 10
15447.471000
 11
15453.482000
 20
2627.554000
 21
2637.965000
  0
LINE
  8
0
 10
15453.482000
 11
15461.525000
 20
2637.965000
 21
2646.898000
  0
LINE
  8
0
 10
15461.525000
 11
15471.250000
 20
2646.898000
 21
2653.963000
  0
LINE
  8
0
 10
15471.250000
 11
15482.232000
 20
2653.963000
 21
2658.853000
  0
LINE
  8
0
 10
15482.232000
 11
15493.990000
 20
2658.853000
 21
2661.352000
  0
LINE
  8
0
 10
15493.990000
 11
15506.010000
 20
2661.352000
 21
2661.352000
  0
LINE
  8
0
 10
15506.010000
 11
15517.768000
 20
2661.352000
 21
2658.853000
  0
LINE
  8
0
 10
15517.768000
 11
15528.750000
 20
2658.853000
 21
2653.963000
  0
LINE
  8
0
 10
15528.750000
 11
15538.475000
 20
2653.963000
 21
2646.898000
  0
LINE
  8
0
 10
15538.475000
 11
15546.518000
 20
2646.898000
 21
2637.965000
  0
LINE
  8
0
 10
15546.518000
 11
15552.529000
 20
2637.965000
 21
2627.554000
  0
LINE
  8
0
 10
15552.529000
 11
15556.243000
 20
2627.554000
 21
2616.122000
  0
LINE
  8
0
 10
15556.243000
 11
15557.500000
 20
2616.122000
 21
2604.167000
  0
LINE
  8
0
 10
15557.500000
 11
15556.243000
 20
2604.167000
 21
2592.212000
  0
LINE
  8
0
 10
15556.243000
 11
15552.529000
 20
2592.212000
 21
2580.780000
  0
LINE
  8
0
 10
15552.529000
 11
15546.518000
 20
2580.780000
 21
2570.369000
  0
LINE
  8
0
 10
15546.518000
 11
15538.475000
 20
2570.369000
 21
2561.436000
  0
LINE
  8
0
 10
15538.475000
 11
15528.750000
 20
2561.436000
 21
2554.371000
  0
LINE
  8
0
 10
15528.750000
 11
15517.768000
 20
2554.371000
 21
2549.481000
  0
LINE
  8
0
 10
15517.768000
 11
15506.010000
 20
2549.481000
 21
2546.982000
  0
LINE
  8
0
 10
15506.010000
 11
15493.990000
 20
2546.982000
 21
2546.982000
  0
LINE
  8
0
 10
15493.990000
 11
15482.232000
 20
2546.982000
 21
2549.481000
  0
LINE
  8
0
 10
15482.232000
 11
15471.250000
 20
2549.481000
 21
2554.371000
  0
LINE
  8
0
 10
15471.250000
 11
15461.525000
 20
2554.371000
 21
2561.436000
  0
LINE
  8
0
 10
15461.525000
 11
15453.482000
 20
2561.436000
 21
2570.369000
  0
LINE
  8
0
 10
15453.482000
 11
15447.471000
 20
2570.369000
 21
2580.780000
  0
LINE
  8
0
 10
15447.471000
 11
15443.757000
 20
2580.780000
 21
2592.212000
  0
LINE
  8
0
 10
15443.757000
 11
15442.500000
 20
2592.212000
 21
2604.167000
  0
LINE
  8
0
 10
15442.500000
 11
15443.757000
 20
3770.833000
 21
3782.788000
  0
LINE
  8
0
 10
15443.757000
 11
15447.471000
 20
3782.788000
 21
3794.220000
  0
LINE
  8
0
 10
15447.471000
 11
15453.482000
 20
3794.220000
 21
3804.631000
  0
LINE
  8
0
 10
15453.482000
 11
15461.525000
 20
3804.631000
 21
3813.564000
  0
LINE
  8
0
 10
15461.525000
 11
15471.250000
 20
3813.564000
 21
3820.629000
  0
LINE
  8
0
 10
15471.250000
 11
15482.232000
 20
3820.629000
 21
3825.519000
  0
LINE
  8
0
 10
15482.232000
 11
15493.990000
 20
3825.519000
 21
3828.018000
  0
LINE
  8
0
 10
15493.990000
 11
15506.010000
 20
3828.018000
 21
3828.018000
  0
LINE
  8
0
 10
15506.010000
 11
15517.768000
 20
3828.018000
 21
3825.519000
  0
LINE
  8
0
 10
15517.768000
 11
15528.750000
 20
3825.519000
 21
3820.629000
  0
LINE
  8
0
 10
15528.750000
 11
15538.475000
 20
3820.629000
 21
3813.564000
  0
LINE
  8
0
 10
15538.475000
 11
15546.518000
 20
3813.564000
 21
3804.631000
  0
LINE
  8
0
 10
15546.518000
 11
15552.529000
 20
3804.631000
 21
3794.220000
  0
LINE
  8
0
 10
15552.529000
 11
15556.243000
 20
3794.220000
 21
3782.788000
  0
LINE
  8
0
 10
15556.243000
 11
15557.500000
 20
3782.788000
 21
3770.833000
  0
LINE
  8
0
 10
15557.500000
 11
15556.243000
 20
3770.833000
 21
3758.878000
  0
LINE
  8
0
 10
15556.243000
 11
15552.529000
 20
3758.878000
 21
3747.446000
  0
LINE
  8
0
 10
15552.529000
 11
15546.518000
 20
3747.446000
 21
3737.035000
  0
LINE
  8
0
 10
15546.518000
 11
15538.475000
 20
3737.035000
 21
3728.102000
  0
LINE
  8
0
 10
15538.475000
 11
15528.750000
 20
3728.102000
 21
3721.037000
  0
LINE
  8
0
 10
15528.750000
 11
15517.768000
 20
3721.037000
 21
3716.147000
  0
LINE
  8
0
 10
15517.768000
 11
15506.010000
 20
3716.147000
 21
3713.648000
  0
LINE
  8
0
 10
15506.010000
 11
15493.990000
 20
3713.648000
 21
3713.648000
  0
LINE
  8
0
 10
15493.990000
 11
15482.232000
 20
3713.648000
 21
3716.147000
  0
LINE
  8
0
 10
15482.232000
 11
15471.250000
 20
3716.147000
 21
3721.037000
  0
LINE
  8
0
 10
15471.250000
 11
15461.525000
 20
3721.037000
 21
3728.102000
  0
LINE
  8
0
 10
15461.525000
 11
15453.482000
 20
3728.102000
 21
3737.035000
  0
LINE
  8
0
 10
15453.482000
 11
15447.471000
 20
3737.035000
 21
3747.446000
  0
LINE
  8
0
 10
15447.471000
 11
15443.757000
 20
3747.446000
 21
3758.878000
  0
LINE
  8
0
 10
15443.757000
 11
15442.500000
 20
3758.878000
 21
3770.833000
  0
LINE
  8
0
 10
16237.500000
 11
16249.792000
 20
17500.000000
 21
17616.950000
  0
LINE
  8
0
 10
16249.792000
 11
16286.131000
 20
17616.950000
 21
17728.789000
  0
LINE
  8
0
 10
16286.131000
 11
16344.928000
 20
17728.789000
 21
17830.629000
  0
LINE
  8
0
 10
16344.928000
 11
16423.614000
 20
17830.629000
 21
17918.019000
  0
LINE
  8
0
 10
16423.614000
 11
16518.750000
 20
17918.019000
 21
17987.139000
  0
LINE
  8
0
 10
16518.750000
 11
16626.178000
 20
17987.139000
 21
18034.969000
  0
LINE
  8
0
 10
16626.178000
 11
16741.203000
 20
18034.969000
 21
18059.419000
  0
LINE
  8
0
 10
16741.203000
 11
16858.797000
 20
18059.419000
 21
18059.419000
  0
LINE
  8
0
 10
16858.797000
 11
16973.822000
 20
18059.419000
 21
18034.969000
  0
LINE
  8
0
 10
16973.822000
 11
17081.250000
 20
18034.969000
 21
17987.139000
  0
LINE
  8
0
 10
17081.250000
 11
17175.000000
 20
17987.139000
 21
17919.026000
  0
LINE
  8
0
 10
17175.000000
 11
17268.750000
 20
17919.026000
 21
17987.139000
  0
LINE
  8
0
 10
17268.750000
 11
17376.178000
 20
17987.139000
 21
18034.969000
  0
LINE
  8
0
 10
17376.178000
 11
17491.203000
 20
18034.969000
 21
18059.419000
  0
LINE
  8
0
 10
17491.203000
 11
17608.797000
 20
18059.419000
 21
18059.419000
  0
LINE
  8
0
 10
17608.797000
 11
17723.822000
 20
18059.419000
 21
18034.969000
  0
LINE
  8
0
 10
17723.822000
 11
17831.250000
 20
18034.969000
 21
17987.139000
  0
LINE
  8
0
 10
17831.250000
 11
17925.000000
 20
17987.139000
 21
17919.026000
  0
LINE
  8
0
 10
17925.000000
 11
18018.750000
 20
17919.026000
 21
17987.139000
  0
LINE
  8
0
 10
18018.750000
 11
18126.178000
 20
17987.139000
 21
18034.969000
  0
LINE
  8
0
 10
18126.178000
 11
18241.203000
 20
18034.969000
 21
18059.419000
  0
LINE
  8
0
 10
18241.203000
 11
18358.797000
 20
18059.419000
 21
18059.419000
  0
LINE
  8
0
 10
18358.797000
 11
18473.822000
 20
18059.419000
 21
18034.969000
  0
LINE
  8
0
 10
18473.822000
 11
18581.250000
 20
18034.969000
 21
17987.139000
  0
LINE
  8
0
 10
18581.250000
 11
18675.000000
 20
17987.139000
 21
17919.026000
  0
LINE
  8
0
 10
18675.000000
 11
18768.750000
 20
17919.026000
 21
17987.139000
  0
LINE
  8
0
 10
18768.750000
 11
18876.178000
 20
17987.139000
 21
18034.969000
  0
LINE
  8
0
 10
18876.178000
 11
18991.203000
 20
18034.969000
 21
18059.419000
  0
LINE
  8
0
 10
18991.203000
 11
19108.797000
 20
18059.419000
 21
18059.419000
  0
LINE
  8
0
 10
19108.797000
 11
19223.822000
 20
18059.419000
 21
18034.969000
  0
LINE
  8
0
 10
19223.822000
 11
19331.250000
 20
18034.969000
 21
17987.139000
  0
LINE
  8
0
 10
19331.250000
 11
19426.386000
 20
17987.139000
 21
17918.019000
  0
LINE
  8
0
 10
19426.386000
 11
19505.072000
 20
17918.019000
 21
17830.629000
  0
LINE
  8
0
 10
19505.072000
 11
19563.869000
 20
17830.629000
 21
17728.789000
  0
LINE
  8
0
 10
19563.869000
 11
19600.208000
 20
17728.789000
 21
17616.950000
  0
LINE
  8
0
 10
19600.208000
 11
19612.500000
 20
17616.950000
 21
17500.000000
  0
LINE
  8
0
 10
19612.500000
 11
19600.208000
 20
17500.000000
 21
17383.050000
  0
LINE
  8
0
 10
19600.208000
 11
19563.869000
 20
17383.050000
 21
17271.211000
  0
LINE
  8
0
 10
19563.869000
 11
19505.072000
 20
17271.211000
 21
17169.371000
  0
LINE
  8
0
 10
19505.072000
 11
19426.386000
 20
17169.371000
 21
17081.981000
  0
LINE
  8
0
 10
19426.386000
 11
19331.250000
 20
17081.981000
 21
17012.861000
  0
LINE
  8
0
 10
19331.250000
 11
19223.822000
 20
17012.861000
 21
16965.031000
  0
LINE
  8
0
 10
19223.822000
 11
19108.797000
 20
16965.031000
 21
16940.581000
  0
LINE
  8
0
 10
19108.797000
 11
19050.000000
 20
16940.581000
 21
16940.581000
  0
LINE
  8
0
 10
19050.000000
 11
19050.000000
 20
16940.581000
 21
16937.500000
  0
LINE
  8
0
 10
19050.000000
 11
16800.000000
 20
16937.500000
 21
16937.500000
  0
LINE
  8
0
 10
16800.000000
 11
16800.000000
 20
16937.500000
 21
16940.581000
  0
LINE
  8
0
 10
16800.000000
 11
16741.203000
 20
16940.581000
 21
16940.581000
  0
LINE
  8
0
 10
16741.203000
 11
16626.178000
 20
16940.581000
 21
16965.031000
  0
LINE
  8
0
 10
16626.178000
 11
16518.750000
 20
16965.031000
 21
17012.861000
  0
LINE
  8
0
 10
16518.750000
 11
16423.614000
 20
17012.861000
 21
17081.981000
  0
LINE
  8
0
 10
16423.614000
 11
16344.928000
 20
17081.981000
 21
17169.371000
  0
LINE
  8
0
 10
16344.928000
 11
16286.131000
 20
17169.371000
 21
17271.211000
  0
LINE
  8
0
 10
16286.131000
 11
16249.792000
 20
17271.211000
 21
17383.050000
  0
LINE
  8
0
 10
16249.792000
 11
16237.500000
 20
17383.050000
 21
17500.000000
  0
LINE
  8
0
 10
16368.750000
 11
16368.750000
 20
9500.000000
 21
13000.000000
  0
LINE
  8
0
 10
16368.750000
 11
16556.250000
 20
13000.000000
 21
13000.000000
  0
LINE
  8
0
 10
16556.250000
 11
16556.250000
 20
13000.000000
 21
9500.000000
  0
LINE
  8
0
 10
16556.250000
 11
16368.750000
 20
9500.000000
 21
9500.000000
  0
LINE
  8
0
 10
17500.000000
 11
17500.000000
 20
0.000000
 21
250.000000
  0
LINE
  8
0
 10
17500.000000
 11
17750.000000
 20
250.000000
 21
250.000000
  0
LINE
  8
0
 10
17750.000000
 11
17750.000000
 20
250.000000
 21
437.500000
  0
LINE
  8
0
 10
17750.000000
 11
17500.000000
 20
437.500000
 21
437.500000
  0
LINE
  8
0
 10
17500.000000
 11
17500.000000
 20
437.500000
 21
1250.000000
  0
LINE
  8
0
 10
17500.000000
 11
17750.000000
 20
1250.000000
 21
1250.000000
  0
LINE
  8
0
 10
17750.000000
 11
17750.000000
 20
1250.000000
 21
1437.500000
  0
LINE
  8
0
 10
17750.000000
 11
17500.000000
 20
1437.500000
 21
1437.500000
  0
LINE
  8
0
 10
17500.000000
 11
17500.000000
 20
1437.500000
 21
4937.500000
  0
LINE
  8
0
 10
17500.000000
 11
17750.000000
 20
4937.500000
 21
4937.500000
  0
LINE
  8
0
 10
17750.000000
 11
17750.000000
 20
4937.500000
 21
5125.000000
  0
LINE
  8
0
 10
17750.000000
 11
18250.000000
 20
5125.000000
 21
5125.000000
  0
LINE
  8
0
 10
18250.000000
 11
18250.000000
 20
5125.000000
 21
4937.500000
  0
LINE
  8
0
 10
18250.000000
 11
18500.000000
 20
4937.500000
 21
4937.500000
  0
LINE
  8
0
 10
18500.000000
 11
18500.000000
 20
4937.500000
 21
1437.500000
  0
LINE
  8
0
 10
18500.000000
 11
18250.000000
 20
1437.500000
 21
1437.500000
  0
LINE
  8
0
 10
18250.000000
 11
18250.000000
 20
1437.500000
 21
1250.000000
  0
LINE
  8
0
 10
18250.000000
 11
18500.000000
 20
1250.000000
 21
1250.000000
  0
LINE
  8
0
 10
18500.000000
 11
18500.000000
 20
1250.000000
 21
437.500000
  0
LINE
  8
0
 10
18500.000000
 11
18250.000000
 20
437.500000
 21
437.500000
  0
LINE
  8
0
 10
18250.000000
 11
18250.000000
 20
437.500000
 21
250.000000
  0
LINE
  8
0
 10
18250.000000
 11
18500.000000
 20
250.000000
 21
250.000000
  0
LINE
  8
0
 10
18500.000000
 11
18500.000000
 20
250.000000
 21
0.000000
  0
LINE
  8
0
 10
18500.000000
 11
17500.000000
 20
0.000000
 21
0.000000
  0
LINE
  8
0
 10
17906.250000
 11
17906.250000
 20
3093.750000
 21
3281.250000
  0
LINE
  8
0
 10
17906.250000
 11
18093.750000
 20
3281.250000
 21
3281.250000
  0
LINE
  8
0
 10
18093.750000
 11
18093.750000
 20
3281.250000
 21
3093.750000
  0
LINE
  8
0
 10
18093.750000
 11
17906.250000
 20
3093.750000
 21
3093.750000
  0
LINE
  8
0
 10
17942.500000
 11
17943.757000
 20
2604.167000
 21
2616.122000
  0
LINE
  8
0
 10
17943.757000
 11
17947.471000
 20
2616.122000
 21
2627.554000
  0
LINE
  8
0
 10
17947.471000
 11
17953.482000
 20
2627.554000
 21
2637.965000
  0
LINE
  8
0
 10
17953.482000
 11
17961.525000
 20
2637.965000
 21
2646.898000
  0
LINE
  8
0
 10
17961.525000
 11
17971.250000
 20
2646.898000
 21
2653.963000
  0
LINE
  8
0
 10
17971.250000
 11
17982.232000
 20
2653.963000
 21
2658.853000
  0
LINE
  8
0
 10
17982.232000
 11
17993.990000
 20
2658.853000
 21
2661.352000
  0
LINE
  8
0
 10
17993.990000
 11
18006.010000
 20
2661.352000
 21
2661.352000
  0
LINE
  8
0
 10
18006.010000
 11
18017.768000
 20
2661.352000
 21
2658.853000
  0
LINE
  8
0
 10
18017.768000
 11
18028.750000
 20
2658.853000
 21
2653.963000
  0
LINE
  8
0
 10
18028.750000
 11
18038.475000
 20
2653.963000
 21
2646.898000
  0
LINE
  8
0
 10
18038.475000
 11
18046.518000
 20
2646.898000
 21
2637.965000
  0
LINE
  8
0
 10
18046.518000
 11
18052.529000
 20
2637.965000
 21
2627.554000
  0
LINE
  8
0
 10
18052.529000
 11
18056.243000
 20
2627.554000
 21
2616.122000
  0
LINE
  8
0
 10
18056.243000
 11
18057.500000
 20
2616.122000
 21
2604.167000
  0
LINE
  8
0
 10
18057.500000
 11
18056.243000
 20
2604.167000
 21
2592.212000
  0
LINE
  8
0
 10
18056.243000
 11
18052.529000
 20
2592.212000
 21
2580.780000
  0
LINE
  8
0
 10
18052.529000
 11
18046.518000
 20
2580.780000
 21
2570.369000
  0
LINE
  8
0
 10
18046.518000
 11
18038.475000
 20
2570.369000
 21
2561.436000
  0
LINE
  8
0
 10
18038.475000
 11
18028.750000
 20
2561.436000
 21
2554.371000
  0
LINE
  8
0
 10
18028.750000
 11
18017.768000
 20
2554.371000
 21
2549.481000
  0
LINE
  8
0
 10
18017.768000
 11
18006.010000
 20
2549.481000
 21
2546.982000
  0
LINE
  8
0
 10
18006.010000
 11
17993.990000
 20
2546.982000
 21
2546.982000
  0
LINE
  8
0
 10
17993.990000
 11
17982.232000
 20
2546.982000
 21
2549.481000
  0
LINE
  8
0
 10
17982.232000
 11
17971.250000
 20
2549.481000
 21
2554.371000
  0
LINE
  8
0
 10
17971.250000
 11
17961.525000
 20
2554.371000
 21
2561.436000
  0
LINE
  8
0
 10
17961.525000
 11
17953.482000
 20
2561.436000
 21
2570.369000
  0
LINE
  8
0
 10
17953.482000
 11
17947.471000
 20
2570.369000
 21
2580.780000
  0
LINE
  8
0
 10
17947.471000
 11
17943.757000
 20
2580.780000
 21
2592.212000
  0
LINE
  8
0
 10
17943.757000
 11
17942.500000
 20
2592.212000
 21
2604.167000
  0
LINE
  8
0
 10
17942.500000
 11
17943.757000
 20
3770.833000
 21
3782.788000
  0
LINE
  8
0
 10
17943.757000
 11
17947.471000
 20
3782.788000
 21
3794.220000
  0
LINE
  8
0
 10
17947.471000
 11
17953.482000
 20
3794.220000
 21
3804.631000
  0
LINE
  8
0
 10
17953.482000
 11
17961.525000
 20
3804.631000
 21
3813.564000
  0
LINE
  8
0
 10
17961.525000
 11
17971.250000
 20
3813.564000
 21
3820.629000
  0
LINE
  8
0
 10
17971.250000
 11
17982.232000
 20
3820.629000
 21
3825.519000
  0
LINE
  8
0
 10
17982.232000
 11
17993.990000
 20
3825.519000
 21
3828.018000
  0
LINE
  8
0
 10
17993.990000
 11
18006.010000
 20
3828.018000
 21
3828.018000
  0
LINE
  8
0
 10
18006.010000
 11
18017.768000
 20
3828.018000
 21
3825.519000
  0
LINE
  8
0
 10
18017.768000
 11
18028.750000
 20
3825.519000
 21
3820.629000
  0
LINE
  8
0
 10
18028.750000
 11
18038.475000
 20
3820.629000
 21
3813.564000
  0
LINE
  8
0
 10
18038.475000
 11
18046.518000
 20
3813.564000
 21
3804.631000
  0
LINE
  8
0
 10
18046.518000
 11
18052.529000
 20
3804.631000
 21
3794.220000
  0
LINE
  8
0
 10
18052.529000
 11
18056.243000
 20
3794.220000
 21
3782.788000
  0
LINE
  8
0
 10
18056.243000
 11
18057.500000
 20
3782.788000
 21
3770.833000
  0
LINE
  8
0
 10
18057.500000
 11
18056.243000
 20
3770.833000
 21
3758.878000
  0
LINE
  8
0
 10
18056.243000
 11
18052.529000
 20
3758.878000
 21
3747.446000
  0
LINE
  8
0
 10
18052.529000
 11
18046.518000
 20
3747.446000
 21
3737.035000
  0
LINE
  8
0
 10
18046.518000
 11
18038.475000
 20
3737.035000
 21
3728.102000
  0
LINE
  8
0
 10
18038.475000
 11
18028.750000
 20
3728.102000
 21
3721.037000
  0
LINE
  8
0
 10
18028.750000
 11
18017.768000
 20
3721.037000
 21
3716.147000
  0
LINE
  8
0
 10
18017.768000
 11
18006.010000
 20
3716.147000
 21
3713.648000
  0
LINE
  8
0
 10
18006.010000
 11
17993.990000
 20
3713.648000
 21
3713.648000
  0
LINE
  8
0
 10
17993.990000
 11
17982.232000
 20
3713.648000
 21
3716.147000
  0
LINE
  8
0
 10
17982.232000
 11
17971.250000
 20
3716.147000
 21
3721.037000
  0
LINE
  8
0
 10
17971.250000
 11
17961.525000
 20
3721.037000
 21
3728.102000
  0
LINE
  8
0
 10
17961.525000
 11
17953.482000
 20
3728.102000
 21
3737.035000
  0
LINE
  8
0
 10
17953.482000
 11
17947.471000
 20
3737.035000
 21
3747.446000
  0
LINE
  8
0
 10
17947.471000
 11
17943.757000
 20
3747.446000
 21
3758.878000
  0
LINE
  8
0
 10
17943.757000
 11
17942.500000
 20
3758.878000
 21
3770.833000
  0
LINE
  8
0
 10
19293.750000
 11
19293.750000
 20
9500.000000
 21
13000.000000
  0
LINE
  8
0
 10
19293.750000
 11
19481.250000
 20
13000.000000
 21
13000.000000
  0
LINE
  8
0
 10
19481.250000
 11
19481.250000
 20
13000.000000
 21
9500.000000
  0
LINE
  8
0
 10
19481.250000
 11
19293.750000
 20
9500.000000
 21
9500.000000
  0
LINE
  8
0
 10
20000.000000
 11
20000.000000
 20
0.000000
 21
250.000000
  0
LINE
  8
0
 10
20000.000000
 11
20250.000000
 20
250.000000
 21
250.000000
  0
LINE
  8
0
 10
20250.000000
 11
20250.000000
 20
250.000000
 21
437.500000
  0
LINE
  8
0
 10
20250.000000
 11
20000.000000
 20
437.500000
 21
437.500000
  0
LINE
  8
0
 10
20000.000000
 11
20000.000000
 20
437.500000
 21
1250.000000
  0
LINE
  8
0
 10
20000.000000
 11
20250.000000
 20
1250.000000
 21
1250.000000
  0
LINE
  8
0
 10
20250.000000
 11
20250.000000
 20
1250.000000
 21
1437.500000
  0
LINE
  8
0
 10
20250.000000
 11
20000.000000
 20
1437.500000
 21
1437.500000
  0
LINE
  8
0
 10
20000.000000
 11
20000.000000
 20
1437.500000
 21
4937.500000
  0
LINE
  8
0
 10
20000.000000
 11
20250.000000
 20
4937.500000
 21
4937.500000
  0
LINE
  8
0
 10
20250.000000
 11
20250.000000
 20
4937.500000
 21
5125.000000
  0
LINE
  8
0
 10
20250.000000
 11
20750.000000
 20
5125.000000
 21
5125.000000
  0
LINE
  8
0
 10
20750.000000
 11
20750.000000
 20
5125.000000
 21
4937.500000
  0
LINE
  8
0
 10
20750.000000
 11
21000.000000
 20
4937.500000
 21
4937.500000
  0
LINE
  8
0
 10
21000.000000
 11
21000.000000
 20
4937.500000
 21
1437.500000
  0
LINE
  8
0
 10
21000.000000
 11
20750.000000
 20
1437.500000
 21
1437.500000
  0
LINE
  8
0
 10
20750.000000
 11
20750.000000
 20
1437.500000
 21
1250.000000
  0
LINE
  8
0
 10
20750.000000
 11
21000.000000
 20
1250.000000
 21
1250.000000
  0
LINE
  8
0
 10
21000.000000
 11
21000.000000
 20
1250.000000
 21
437.500000
  0
LINE
  8
0
 10
21000.000000
 11
20750.000000
 20
437.500000
 21
437.500000
  0
LINE
  8
0
 10
20750.000000
 11
20750.000000
 20
437.500000
 21
250.000000
  0
LINE
  8
0
 10
20750.000000
 11
21000.000000
 20
250.000000
 21
250.000000
  0
LINE
  8
0
 10
21000.000000
 11
21000.000000
 20
250.000000
 21
0.000000
  0
LINE
  8
0
 10
21000.000000
 11
20000.000000
 20
0.000000
 21
0.000000
  0
LINE
  8
0
 10
20406.250000
 11
20406.250000
 20
3093.750000
 21
3281.250000
  0
LINE
  8
0
 10
20406.250000
 11
20593.750000
 20
3281.250000
 21
3281.250000
  0
LINE
  8
0
 10
20593.750000
 11
20593.750000
 20
3281.250000
 21
3093.750000
  0
LINE
  8
0
 10
20593.750000
 11
20406.250000
 20
3093.750000
 21
3093.750000
  0
LINE
  8
0
 10
20442.500000
 11
20443.757000
 20
2604.167000
 21
2616.122000
  0
LINE
  8
0
 10
20443.757000
 11
20447.471000
 20
2616.122000
 21
2627.554000
  0
LINE
  8
0
 10
20447.471000
 11
20453.482000
 20
2627.554000
 21
2637.965000
  0
LINE
  8
0
 10
20453.482000
 11
20461.525000
 20
2637.965000
 21
2646.898000
  0
LINE
  8
0
 10
20461.525000
 11
20471.250000
 20
2646.898000
 21
2653.963000
  0
LINE
  8
0
 10
20471.250000
 11
20482.232000
 20
2653.963000
 21
2658.853000
  0
LINE
  8
0
 10
20482.232000
 11
20493.990000
 20
2658.853000
 21
2661.352000
  0
LINE
  8
0
 10
20493.990000
 11
20506.010000
 20
2661.352000
 21
2661.352000
  0
LINE
  8
0
 10
20506.010000
 11
20517.768000
 20
2661.352000
 21
2658.853000
  0
LINE
  8
0
 10
20517.768000
 11
20528.750000
 20
2658.853000
 21
2653.963000
  0
LINE
  8
0
 10
20528.750000
 11
20538.475000
 20
2653.963000
 21
2646.898000
  0
LINE
  8
0
 10
20538.475000
 11
20546.518000
 20
2646.898000
 21
2637.965000
  0
LINE
  8
0
 10
20546.518000
 11
20552.529000
 20
2637.965000
 21
2627.554000
  0
LINE
  8
0
 10
20552.529000
 11
20556.243000
 20
2627.554000
 21
2616.122000
  0
LINE
  8
0
 10
20556.243000
 11
20557.500000
 20
2616.122000
 21
2604.167000
  0
LINE
  8
0
 10
20557.500000
 11
20556.243000
 20
2604.167000
 21
2592.212000
  0
LINE
  8
0
 10
20556.243000
 11
20552.529000
 20
2592.212000
 21
2580.780000
  0
LINE
  8
0
 10
20552.529000
 11
20546.518000
 20
2580.780000
 21
2570.369000
  0
LINE
  8
0
 10
20546.518000
 11
20538.475000
 20
2570.369000
 21
2561.436000
  0
LINE
  8
0
 10
20538.475000
 11
20528.750000
 20
2561.436000
 21
2554.371000
  0
LINE
  8
0
 10
20528.750000
 11
20517.768000
 20
2554.371000
 21
2549.481000
  0
LINE
  8
0
 10
20517.768000
 11
20506.010000
 20
2549.481000
 21
2546.982000
  0
LINE
  8
0
 10
20506.010000
 11
20493.990000
 20
2546.982000
 21
2546.982000
  0
LINE
  8
0
 10
20493.990000
 11
20482.232000
 20
2546.982000
 21
2549.481000
  0
LINE
  8
0
 10
20482.232000
 11
20471.250000
 20
2549.481000
 21
2554.371000
  0
LINE
  8
0
 10
20471.250000
 11
20461.525000
 20
2554.371000
 21
2561.436000
  0
LINE
  8
0
 10
20461.525000
 11
20453.482000
 20
2561.436000
 21
2570.369000
  0
LINE
  8
0
 10
20453.482000
 11
20447.471000
 20
2570.369000
 21
2580.780000
  0
LINE
  8
0
 10
20447.471000
 11
20443.757000
 20
2580.780000
 21
2592.212000
  0
LINE
  8
0
 10
20443.757000
 11
20442.500000
 20
2592.212000
 21
2604.167000
  0
LINE
  8
0
 10
20442.500000
 11
20443.757000
 20
3770.833000
 21
3782.788000
  0
LINE
  8
0
 10
20443.757000
 11
20447.471000
 20
3782.788000
 21
3794.220000
  0
LINE
  8
0
 10
20447.471000
 11
20453.482000
 20
3794.220000
 21
3804.631000
  0
LINE
  8
0
 10
20453.482000
 11
20461.525000
 20
3804.631000
 21
3813.564000
  0
LINE
  8
0
 10
20461.525000
 11
20471.250000
 20
3813.564000
 21
3820.629000
  0
LINE
  8
0
 10
20471.250000
 11
20482.232000
 20
3820.629000
 21
3825.519000
  0
LINE
  8
0
 10
20482.232000
 11
20493.990000
 20
3825.519000
 21
3828.018000
  0
LINE
  8
0
 10
20493.990000
 11
20506.010000
 20
3828.018000
 21
3828.018000
  0
LINE
  8
0
 10
20506.010000
 11
20517.768000
 20
3828.018000
 21
3825.519000
  0
LINE
  8
0
 10
20517.768000
 11
20528.750000
 20
3825.519000
 21
3820.629000
  0
LINE
  8
0
 10
20528.750000
 11
20538.475000
 20
3820.629000
 21
3813.564000
  0
LINE
  8
0
 10
20538.475000
 11
20546.518000
 20
3813.564000
 21
3804.631000
  0
LINE
  8
0
 10
20546.518000
 11
20552.529000
 20
3804.631000
 21
3794.220000
  0
LINE
  8
0
 10
20552.529000
 11
20556.243000
 20
3794.220000
 21
3782.788000
  0
LINE
  8
0
 10
20556.243000
 11
20557.500000
 20
3782.788000
 21
3770.833000
  0
LINE
  8
0
 10
20557.500000
 11
20556.243000
 20
3770.833000
 21
3758.878000
  0
LINE
  8
0
 10
20556.243000
 11
20552.529000
 20
3758.878000
 21
3747.446000
  0
LINE
  8
0
 10
20552.529000
 11
20546.518000
 20
3747.446000
 21
3737.035000
  0
LINE
  8
0
 10
20546.518000
 11
20538.475000
 20
3737.035000
 21
3728.102000
  0
LINE
  8
0
 10
20538.475000
 11
20528.750000
 20
3728.102000
 21
3721.037000
  0
LINE
  8
0
 10
20528.750000
 11
20517.768000
 20
3721.037000
 21
3716.147000
  0
LINE
  8
0
 10
20517.768000
 11
20506.010000
 20
3716.147000
 21
3713.648000
  0
LINE
  8
0
 10
20506.010000
 11
20493.990000
 20
3713.648000
 21
3713.648000
  0
LINE
  8
0
 10
20493.990000
 11
20482.232000
 20
3713.648000
 21
3716.147000
  0
LINE
  8
0
 10
20482.232000
 11
20471.250000
 20
3716.147000
 21
3721.037000
  0
LINE
  8
0
 10
20471.250000
 11
20461.525000
 20
3721.037000
 21
3728.102000
  0
LINE
  8
0
 10
20461.525000
 11
20453.482000
 20
3728.102000
 21
3737.035000
  0
LINE
  8
0
 10
20453.482000
 11
20447.471000
 20
3737.035000
 21
3747.446000
  0
LINE
  8
0
 10
20447.471000
 11
20443.757000
 20
3747.446000
 21
3758.878000
  0
LINE
  8
0
 10
20443.757000
 11
20442.500000
 20
3758.878000
 21
3770.833000
  0
ENDSEC
  0
SECTION
  2
OBJECTS
  0
DICTIONARY
  0
ENDSEC
  0
EOF
